  0
SECTION
  2
HEADER
  9
$ACADVER
  1
AC1015
  9
$ACADMAINTVER
 70
     6
  9
$DWGCODEPAGE
  3
ANSI_1252
  9
$INSBASE
 10
0.0
 20
0.0
 30
0.0
  9
$EXTMIN
 10
0.0
 20
0.0
 30
0.0
  9
$EXTMAX
 10
841.0
 20
594.0
 30
0.0
  9
$LIMMIN
 10
0.0
 20
0.0
  9
$LIMMAX
 10
841.0
 20
594.0
  9
$ORTHOMODE
 70
     0
  9
$REGENMODE
 70
     1
  9
$FILLMODE
 70
     1
  9
$QTEXTMODE
 70
     0
  9
$MIRRTEXT
 70
     1
  9
$LTSCALE
 40
1.0
  9
$ATTMODE
 70
     1
  9
$TEXTSIZE
 40
3.5
  9
$TRACEWID
 40
1.0
  9
$TEXTSTYLE
  7
Standard
  9
$CLAYER
  8
0
  9
$CELTYPE
  6
ByLayer
  9
$CECOLOR
 62
   256
  9
$CELTSCALE
 40
1.0
  9
$DISPSILH
 70
     0
  9
$DIMSCALE
 40
1.0
  9
$DIMASZ
 40
3.302
  9
$DIMEXO
 40
1.0
  9
$DIMDLI
 40
3.75
  9
$DIMRND
 40
0.0
  9
$DIMDLE
 40
0.0
  9
$DIMEXE
 40
1.0
  9
$DIMTP
 40
0.0
  9
$DIMTM
 40
0.0
  9
$DIMTXT
 40
3.5
  9
$DIMCEN
 40
2.5
  9
$DIMTSZ
 40
0.0
  9
$DIMTOL
 70
     0
  9
$DIMLIM
 70
     0
  9
$DIMTIH
 70
     1
  9
$DIMTOH
 70
     1
  9
$DIMSE1
 70
     0
  9
$DIMSE2
 70
     0
  9
$DIMTAD
 70
     1
  9
$DIMZIN
 70
     0
  9
$DIMBLK
  1

  9
$DIMASO
 70
     1
  9
$DIMSHO
 70
     1
  9
$DIMPOST
  1

  9
$DIMAPOST
  1

  9
$DIMALT
 70
     0
  9
$DIMALTD
 70
     3
  9
$DIMALTF
 40
0.0393700787
  9
$DIMLFAC
 40
1.0
  9
$DIMTOFL
 70
     1
  9
$DIMTVP
 40
0.0
  9
$DIMTIX
 70
     0
  9
$DIMSOXD
 70
     0
  9
$DIMSAH
 70
     0
  9
$DIMBLK1
  1

  9
$DIMBLK2
  1

  9
$DIMSTYLE
  2
ISO-25
  9
$DIMCLRD
 70
     0
  9
$DIMCLRE
 70
     0
  9
$DIMCLRT
 70
     0
  9
$DIMTFAC
 40
1.0
  9
$DIMGAP
 40
1.524
  9
$DIMJUST
 70
     0
  9
$DIMSD1
 70
     0
  9
$DIMSD2
 70
     0
  9
$DIMTOLJ
 70
     0
  9
$DIMTZIN
 70
     0
  9
$DIMALTZ
 70
     0
  9
$DIMALTTZ
 70
     0
  9
$DIMUPT
 70
     0
  9
$DIMDEC
 70
     1
  9
$DIMTDEC
 70
     1
  9
$DIMALTU
 70
     2
  9
$DIMALTTD
 70
     3
  9
$DIMTXSTY
  7
Standard
  9
$DIMAUNIT
 70
     0
  9
$DIMADEC
 70
     1
  9
$DIMALTRND
 40
0.0
  9
$DIMAZIN
 70
     0
  9
$DIMDSEP
 70
    44
  9
$DIMATFIT
 70
     3
  9
$DIMFRAC
 70
     0
  9
$DIMLDRBLK
  1

  9
$DIMLUNIT
 70
     2
  9
$DIMLWD
 70
    -2
  9
$DIMLWE
 70
    -2
  9
$DIMTMOVE
 70
     0
  9
$LUNITS
 70
     2
  9
$LUPREC
 70
     1
  9
$SKETCHINC
 40
1.0
  9
$FILLETRAD
 40
10.0
  9
$AUNITS
 70
     0
  9
$AUPREC
 70
     1
  9
$MENU
  1
.
  9
$ELEVATION
 40
0.0
  9
$PELEVATION
 40
0.0
  9
$THICKNESS
 40
0.0
  9
$LIMCHECK
 70
     0
  9
$CHAMFERA
 40
10.0
  9
$CHAMFERB
 40
10.0
  9
$CHAMFERC
 40
20.0
  9
$CHAMFERD
 40
0.0
  9
$SKPOLY
 70
     0
  9
$TDCREATE
 40
2457053.464798021
  9
$TDUCREATE
 40
2457053.464798021
  9
$TDUPDATE
 40
2457053.464798924
  9
$TDUUPDATE
 40
2457053.464798924
  9
$TDINDWG
 40
0.0000000116
  9
$TDUSRTIMER
 40
0.0000000116
  9
$USRTIMER
 70
     1
  9
$ANGBASE
 50
0.0
  9
$ANGDIR
 70
     0
  9
$PDMODE
 70
     0
  9
$PDSIZE
 40
-1.0
  9
$PLINEWID
 40
0.0
  9
$SPLFRAME
 70
     0
  9
$SPLINETYPE
 70
     6
  9
$SPLINESEGS
 70
     8
  9
$HANDSEED
  5
219
  9
$SURFTAB1
 70
     6
  9
$SURFTAB2
 70
     6
  9
$SURFTYPE
 70
     6
  9
$SURFU
 70
     6
  9
$SURFV
 70
     6
  9
$UCSBASE
  2

  9
$UCSNAME
  2

  9
$UCSORG
 10
0.0
 20
0.0
 30
0.0
  9
$UCSXDIR
 10
1.0
 20
0.0
 30
0.0
  9
$UCSYDIR
 10
0.0
 20
1.0
 30
0.0
  9
$UCSORTHOREF
  2

  9
$UCSORTHOVIEW
 70
     0
  9
$UCSORGTOP
 10
0.0
 20
0.0
 30
0.0
  9
$UCSORGBOTTOM
 10
0.0
 20
0.0
 30
0.0
  9
$UCSORGLEFT
 10
0.0
 20
0.0
 30
0.0
  9
$UCSORGRIGHT
 10
0.0
 20
0.0
 30
0.0
  9
$UCSORGFRONT
 10
0.0
 20
0.0
 30
0.0
  9
$UCSORGBACK
 10
0.0
 20
0.0
 30
0.0
  9
$PUCSBASE
  2

  9
$PUCSNAME
  2

  9
$PUCSORG
 10
0.0
 20
0.0
 30
0.0
  9
$PUCSXDIR
 10
1.0
 20
0.0
 30
0.0
  9
$PUCSYDIR
 10
0.0
 20
1.0
 30
0.0
  9
$PUCSORTHOREF
  2

  9
$PUCSORTHOVIEW
 70
     0
  9
$PUCSORGTOP
 10
0.0
 20
0.0
 30
0.0
  9
$PUCSORGBOTTOM
 10
0.0
 20
0.0
 30
0.0
  9
$PUCSORGLEFT
 10
0.0
 20
0.0
 30
0.0
  9
$PUCSORGRIGHT
 10
0.0
 20
0.0
 30
0.0
  9
$PUCSORGFRONT
 10
0.0
 20
0.0
 30
0.0
  9
$PUCSORGBACK
 10
0.0
 20
0.0
 30
0.0
  9
$USERI1
 70
     0
  9
$USERI2
 70
     0
  9
$USERI3
 70
     0
  9
$USERI4
 70
     0
  9
$USERI5
 70
     0
  9
$USERR1
 40
0.0
  9
$USERR2
 40
0.0
  9
$USERR3
 40
0.0
  9
$USERR4
 40
0.0
  9
$USERR5
 40
0.0
  9
$WORLDVIEW
 70
     1
  9
$SHADEDGE
 70
     3
  9
$SHADEDIF
 70
    70
  9
$TILEMODE
 70
     1
  9
$MAXACTVP
 70
    64
  9
$PINSBASE
 10
0.0
 20
0.0
 30
0.0
  9
$PLIMCHECK
 70
     0
  9
$PEXTMIN
 10
1.0000000000E+20
 20
1.0000000000E+20
 30
1.0000000000E+20
  9
$PEXTMAX
 10
-1.0000000000E+20
 20
-1.0000000000E+20
 30
-1.0000000000E+20
  9
$PLIMMIN
 10
0.0
 20
0.0
  9
$PLIMMAX
 10
420.0
 20
297.0
  9
$UNITMODE
 70
     0
  9
$VISRETAIN
 70
     1
  9
$PLINEGEN
 70
     0
  9
$PSLTSCALE
 70
     1
  9
$TREEDEPTH
 70
  3020
  9
$CMLSTYLE
  2
Standard
  9
$CMLJUST
 70
     0
  9
$CMLSCALE
 40
20.0
  9
$PROXYGRAPHICS
 70
     1
  9
$MEASUREMENT
 70
     1
  9
$CELWEIGHT
370
    -1
  9
$ENDCAPS
280
     0
  9
$JOINSTYLE
280
     0
  9
$LWDISPLAY
290
     1
  9
$INSUNITS
 70
     4
  9
$HYPERLINKBASE
  1

  9
$STYLESHEET
  1

  9
$XEDIT
290
     1
  9
$CEPSNTYPE
380
     0
  9
$PSTYLEMODE
290
     1
  9
$FINGERPRINTGUID
  2
{6F5B35F7-36B8-41ED-972E-20D37A3229A8}
  9
$VERSIONGUID
  2
{FAEB1C32-E019-11D5-929B-00C0DF256EC4}
  9
$EXTNAMES
290
     1
  9
$PSVPSCALE
 40
0.0
  9
$OLESTARTUP
290
     0
  0
ENDSEC
  0
SECTION
  2
CLASSES
  0
CLASS
  1
ACDBDICTIONARYWDFLT
  2
AcDbDictionaryWithDefault
  3
ObjectDBX Classes
 90
        0
280
     0
281
     0
  0
CLASS
  1
VISUALSTYLE
  2
AcDbVisualStyle
  3
ObjectDBX Classes
 90
     4095
280
     0
281
     0
  0
CLASS
  1
MATERIAL
  2
AcDbMaterial
  3
ObjectDBX Classes
 90
     1153
280
     0
281
     0
  0
CLASS
  1
ACDBPLACEHOLDER
  2
AcDbPlaceHolder
  3
ObjectDBX Classes
 90
        0
280
     0
281
     0
  0
CLASS
  1
LAYOUT
  2
AcDbLayout
  3
ObjectDBX Classes
 90
        0
280
     0
281
     0
  0
ENDSEC
  0
SECTION
  2
TABLES
  0
TABLE
  2
VPORT
  5
8
330
0
100
AcDbSymbolTable
 70
     1
  0
VPORT
  5
29
330
8
100
AcDbSymbolTableRecord
100
AcDbViewportTableRecord
  2
*Active
 70
     0
 10
0.0
 20
0.0
 11
1.0
 21
1.0
 12
420.5
 22
297.0
 13
0.0
 23
0.0
 14
10.0
 24
10.0
 15
10.0
 25
10.0
 16
0.0
 26
0.0
 36
1.0
 17
0.0
 27
0.0
 37
0.0
 40
594.0
 41
1.4158249158
 42
50.0
 43
0.0
 44
0.0
 50
0.0
 51
0.0
 71
     0
 72
  2000
 73
     1
 74
     3
 75
     0
 76
     0
 77
     0
 78
     0
281
     0
 65
     1
110
0.0
120
0.0
130
0.0
111
1.0
121
0.0
131
0.0
112
0.0
122
1.0
132
0.0
 79
     0
146
0.0
  0
ENDTAB
  0
TABLE
  2
LTYPE
  5
5
330
0
100
AcDbSymbolTable
 70
     6
  0
LTYPE
  5
14
330
5
100
AcDbSymbolTableRecord
100
AcDbLinetypeTableRecord
  2
ByBlock
 70
     0
  3

 72
    65
 73
     0
 40
0.0
  0
LTYPE
  5
15
330
5
100
AcDbSymbolTableRecord
100
AcDbLinetypeTableRecord
  2
ByLayer
 70
     0
  3

 72
    65
 73
     0
 40
0.0
  0
LTYPE
  5
16
330
5
100
AcDbSymbolTableRecord
100
AcDbLinetypeTableRecord
  2
Continuous
 70
     0
  3
Solid line
 72
    65
 73
     0
 40
0.0
  0
LTYPE
  5
3F
330
5
100
AcDbSymbolTableRecord
100
AcDbLinetypeTableRecord
  2
HIDDEN
 70
     0
  3
Hidden __ __ __ __ __ __ __ __ __ __ __ __ __ __
 72
    65
 73
     2
 40
1.905
 49
1.27
 74
     0
 49
-0.635
 74
     0
  0
LTYPE
  5
40
330
5
100
AcDbSymbolTableRecord
100
AcDbLinetypeTableRecord
  2
PHANTOM
 70
     0
  3
Phantom ______  __  __  ______  __  __  ______
 72
    65
 73
     6
 40
12.7
 49
6.35
 74
     0
 49
-1.27
 74
     0
 49
1.27
 74
     0
 49
-1.27
 74
     0
 49
1.27
 74
     0
 49
-1.27
 74
     0
  0
LTYPE
  5
41
330
5
100
AcDbSymbolTableRecord
100
AcDbLinetypeTableRecord
  2
CENTER
 70
     0
  3
Center ____ _ ____ _ ____ _ ____ _ ____ _ ____
 72
    65
 73
     4
 40
10.16
 49
6.35
 74
     0
 49
-1.27
 74
     0
 49
1.27
 74
     0
 49
-1.27
 74
     0
  0
LTYPE
  5
42
330
5
100
AcDbSymbolTableRecord
100
AcDbLinetypeTableRecord
  2
CENTERX2
 70
     0
  3
Center (2x) ________  __  ________  __  _____
 72
    65
 73
     4
 40
20.32
 49
12.7
 74
     0
 49
-2.54
 74
     0
 49
2.54
 74
     0
 49
-2.54
 74
     0
  0
LTYPE
  5
43
330
5
100
AcDbSymbolTableRecord
100
AcDbLinetypeTableRecord
  2
DOT2
 70
     0
  3
Dot (.5x) ........................................
 72
    65
 73
     2
 40
0.635
 49
0.0
 74
     0
 49
-0.635
 74
     0
  0
ENDTAB
  0
TABLE
  2
LAYER
  5
2
330
0
100
AcDbSymbolTable
 70
     4
  0
LAYER
  5
10
330
2
100
AcDbSymbolTableRecord
100
AcDbLayerTableRecord
  2
0
 70
     0
 62
     7
  6
Continuous
370
    -3
390
F
  0
LAYER
  5
44
330
2
100
AcDbSymbolTableRecord
100
AcDbLayerTableRecord
  2
FORMAT
 70
     0
 62
     7
  6
Continuous
370
    -3
390
F
  0
LAYER
  5
45
330
2
100
AcDbSymbolTableRecord
100
AcDbLayerTableRecord
  2
SLD-0
 70
     0
 62
     1
  6
Continuous
370
    -3
390
F
  0
LAYER
  5
46
330
2
100
AcDbSymbolTableRecord
100
AcDbLayerTableRecord
  2
WATERMARK
 70
     0
 62
     1
  6
Continuous
370
    -3
390
F
  0
ENDTAB
  0
TABLE
  2
STYLE
  5
3
330
0
100
AcDbSymbolTable
 70
     1
  0
STYLE
  5
11
330
3
100
AcDbSymbolTableRecord
100
AcDbTextStyleTableRecord
  2
Standard
 70
     0
 40
0.0
 41
1.0
 50
0.0
 71
     0
 42
3.5
  3
txt
  4

  0
ENDTAB
  0
TABLE
  2
VIEW
  5
6
330
0
100
AcDbSymbolTable
 70
     0
  0
ENDTAB
  0
TABLE
  2
UCS
  5
7
330
0
100
AcDbSymbolTable
 70
     0
  0
ENDTAB
  0
TABLE
  2
APPID
  5
9
330
0
100
AcDbSymbolTable
 70
     1
  0
APPID
  5
12
330
9
100
AcDbSymbolTableRecord
100
AcDbRegAppTableRecord
  2
ACAD
 70
     0
  0
ENDTAB
  0
TABLE
  2
DIMSTYLE
  5
A
330
0
100
AcDbSymbolTable
 70
     1
100
AcDbDimStyleTable
  0
DIMSTYLE
105
27
330
A
100
AcDbSymbolTableRecord
100
AcDbDimStyleTableRecord
  2
ISO-25
 70
     0
 41
2.5
 42
0.625
 43
3.75
 44
1.25
 73
     0
 74
     0
 77
     1
 78
     8
140
2.5
141
2.5
143
0.0393700787
147
0.625
171
     3
172
     1
178
     0
271
     2
272
     2
274
     3
278
    44
283
     0
284
     8
340
11
  0
ENDTAB
  0
TABLE
  2
BLOCK_RECORD
  5
1
330
0
100
AcDbSymbolTable
 70
     1
  0
BLOCK_RECORD
  5
1F
330
1
100
AcDbSymbolTableRecord
100
AcDbBlockTableRecord
  2
*Model_Space
340
22
  0
BLOCK_RECORD
  5
1B
330
1
100
AcDbSymbolTableRecord
100
AcDbBlockTableRecord
  2
*Paper_Space
340
1E
  0
BLOCK_RECORD
  5
23
330
1
100
AcDbSymbolTableRecord
100
AcDbBlockTableRecord
  2
*Paper_Space0
340
26
  0
ENDTAB
  0
ENDSEC
  0
SECTION
  2
BLOCKS
  0
BLOCK
  5
20
330
1F
100
AcDbEntity
  8
0
100
AcDbBlockBegin
  2
*Model_Space
 70
     0
 10
0.0
 20
0.0
 30
0.0
  3
*Model_Space
  1

  0
ENDBLK
  5
21
330
1F
100
AcDbEntity
  8
0
100
AcDbBlockEnd
  0
BLOCK
  5
1C
330
1B
100
AcDbEntity
 67
     1
  8
0
100
AcDbBlockBegin
  2
*Paper_Space
 70
     0
 10
0.0
 20
0.0
 30
0.0
  3
*Paper_Space
  1

  0
ENDBLK
  5
1D
330
1B
100
AcDbEntity
 67
     1
  8
0
100
AcDbBlockEnd
  0
BLOCK
  5
24
330
23
100
AcDbEntity
  8
0
100
AcDbBlockBegin
  2
*Paper_Space0
 70
     0
 10
0.0
 20
0.0
 30
0.0
  3
*Paper_Space0
  1

  0
ENDBLK
  5
25
330
23
100
AcDbEntity
  8
0
100
AcDbBlockEnd
  0
ENDSEC
  0
SECTION
  2
ENTITIES
  0
ARC
  5
47
330
1F
100
AcDbEntity
  8
0
  6
Continuous
 62
     7
370
    15
100
AcDbCircle
 10
-23.8480805226
 20
394.5874085217
 30
0.0
 40
2.000000000000004
100
AcDbArc
 50
90.0
 51
180.0
  0
ARC
  5
48
330
1F
100
AcDbEntity
  8
0
  6
Continuous
 62
     7
370
    15
100
AcDbCircle
 10
-8.8480805226
 20
394.5874085217
 30
0.0
 40
2.000000000000002
100
AcDbArc
 50
0.0
 51
90.0
  0
LINE
  5
49
330
1F
100
AcDbEntity
  8
0
  6
Continuous
 62
     7
370
    15
100
AcDbLine
 10
-6.8480805226
 20
385.0874085217
 30
0.0
 11
-6.8480805226
 21
394.5874085217
 31
0.0
  0
LINE
  5
4A
330
1F
100
AcDbEntity
  8
0
  6
Continuous
 62
     7
370
    15
100
AcDbLine
 10
-25.8480805226
 20
394.5874085217
 30
0.0
 11
-25.8480805226
 21
385.0874085217
 31
0.0
  0
ARC
  5
4B
330
1F
100
AcDbEntity
  8
0
  6
Continuous
 62
     7
370
    15
100
AcDbCircle
 10
813.5055781771
 20
261.2483601602
 30
0.0
 40
1.999999999999945
100
AcDbArc
 50
205.0
 51
292.0
  0
ARC
  5
4C
330
1F
100
AcDbEntity
  8
0
  6
Continuous
 62
     7
370
    15
100
AcDbCircle
 10
833.7049807163
 20
217.9306016249
 30
0.0
 40
2.000000000000039
100
AcDbArc
 50
118.0
 51
205.0
  0
LINE
  5
4D
330
1F
100
AcDbEntity
  8
0
  6
Continuous
 62
     7
370
    15
100
AcDbLine
 10
832.7660375907
 20
219.6964968106
 30
0.0
 11
835.5110621432
 21
221.1560522553
 31
0.0
  0
LINE
  5
4E
330
1F
100
AcDbEntity
  8
0
  6
Continuous
 62
     7
370
    15
100
AcDbLine
 10
817.1373434724
 20
260.5586191003
 30
0.0
 11
814.254791364
 21
259.3939924511
 31
0.0
  0
LINE
  5
4F
330
1F
100
AcDbEntity
  8
0
  6
Continuous
 62
     7
370
    15
100
AcDbLine
 10
844.7313119506
 20
177.721146903
 30
0.0
 11
845.1733916018
 21
177.9562048231
 31
0.0
  0
LINE
  5
50
330
1F
100
AcDbEntity
  8
0
  6
Continuous
 62
     7
370
    15
100
AcDbLine
 10
844.4657337256
 20
213.4570881091
 30
0.0
 11
851.838338549
 21
221.3085018747
 31
0.0
  0
LINE
  5
51
330
1F
100
AcDbEntity
  8
0
  6
Continuous
 62
     7
370
    15
100
AcDbLine
 10
827.7490976298
 20
272.9680457358
 30
0.0
 11
816.9955467125
 21
272.3670942665
 31
0.0
  0
LINE
  5
52
330
1F
100
AcDbEntity
  8
0
  6
Continuous
 62
     7
370
    15
100
AcDbLine
 10
851.838338549
 20
221.3085018747
 30
0.0
 11
865.7386746444
 21
237.4279705497
 31
0.0
  0
LINE
  5
53
330
1F
100
AcDbEntity
  8
0
  6
Continuous
 62
     7
370
    15
100
AcDbLine
 10
828.2558414511
 20
272.9748762387
 30
0.0
 11
827.7490976298
 21
272.9680457358
 31
0.0
  0
ARC
  5
54
330
1F
100
AcDbEntity
  8
0
  6
Continuous
 62
     7
370
    15
100
AcDbCircle
 10
864.9813632605
 20
238.0810245044
 30
0.0
 40
1.000000000000025
100
AcDbArc
 50
319.227745318
 51
25.0
  0
LINE
  5
55
330
1F
100
AcDbEntity
  8
0
  6
Continuous
 62
     7
370
    15
100
AcDbLine
 10
831.9197036139
 20
235.6297333423
 30
0.0
 11
833.7470728464
 21
236.4433305433
 31
0.0
  0
LINE
  5
56
330
1F
100
AcDbEntity
  8
0
  6
Continuous
 62
     7
370
    15
100
AcDbLine
 10
831.9274919313
 20
235.6130312416
 30
0.0
 11
833.7548611638
 21
236.4266284426
 31
0.0
  0
LINE
  5
57
330
1F
100
AcDbEntity
  8
0
  6
Continuous
 62
     7
370
    15
100
AcDbLine
 10
829.0401671721
 20
246.537322336
 30
0.0
 11
824.6337297609
 21
244.4825668259
 31
0.0
  0
LINE
  5
58
330
1F
100
AcDbEntity
  8
0
  6
Continuous
 62
     7
370
    15
100
AcDbLine
 10
828.0146758548
 20
237.2321045296
 30
0.0
 11
830.6084976919
 21
238.4416235162
 31
0.0
  0
LINE
  5
59
330
1F
100
AcDbEntity
  8
0
  6
Continuous
 62
     7
370
    15
100
AcDbLine
 10
114.7116211423
 20
20.2205414249
 30
0.0
 11
114.7116211423
 21
24.2205414249
 31
0.0
  0
LINE
  5
5A
330
1F
100
AcDbEntity
  8
0
  6
Continuous
 62
     7
370
    15
100
AcDbLine
 10
57.7116211423
 20
24.2205414249
 30
0.0
 11
57.7116211423
 21
20.2205414249
 31
0.0
  0
ARC
  5
5B
330
1F
100
AcDbEntity
  8
0
  6
Continuous
 62
     7
370
    15
100
AcDbCircle
 10
112.7116211423
 20
20.2205414249
 30
0.0
 40
2.0
100
AcDbArc
 50
270.0
 51
0.0
  0
ARC
  5
5C
330
1F
100
AcDbEntity
  8
0
  6
Continuous
 62
     7
370
    15
100
AcDbCircle
 10
59.7116211423
 20
20.2205414249
 30
0.0
 40
2.0
100
AcDbArc
 50
180.0
 51
270.0
  0
ARC
  5
5D
330
1F
100
AcDbEntity
  8
0
  6
Continuous
 62
     7
370
    15
100
AcDbCircle
 10
691.7116211423
 20
20.2205414249
 30
0.0
 40
2.000000000000004
100
AcDbArc
 50
270.0
 51
0.0
  0
ARC
  5
5E
330
1F
100
AcDbEntity
  8
0
  6
Continuous
 62
     7
370
    15
100
AcDbCircle
 10
638.7116211423
 20
20.2205414249
 30
0.0
 40
2.000000000000004
100
AcDbArc
 50
180.0
 51
270.0
  0
LINE
  5
5F
330
1F
100
AcDbEntity
  8
0
  6
Continuous
 62
     7
370
    15
100
AcDbLine
 10
693.7116211423
 20
20.2205414249
 30
0.0
 11
693.7116211423
 21
24.2205414249
 31
0.0
  0
LINE
  5
60
330
1F
100
AcDbEntity
  8
0
  6
Continuous
 62
     7
370
    15
100
AcDbLine
 10
636.7116211423
 20
24.2205414249
 30
0.0
 11
636.7116211423
 21
20.2205414249
 31
0.0
  0
LINE
  5
61
330
1F
100
AcDbEntity
  8
0
  6
Continuous
 62
     7
370
    15
100
AcDbLine
 10
693.5116211423
 20
24.2205414249
 30
0.0
 11
693.5116211423
 21
53.2205414249
 31
0.0
  0
LINE
  5
62
330
1F
100
AcDbEntity
  8
0
  6
Continuous
 62
     7
370
    15
100
AcDbLine
 10
636.9116211423
 20
53.2205414249
 30
0.0
 11
636.9116211423
 21
24.2205414249
 31
0.0
  0
LINE
  5
63
330
1F
100
AcDbEntity
  8
0
  6
Continuous
 62
     7
370
    15
100
AcDbLine
 10
114.5116211423
 20
24.2205414249
 30
0.0
 11
114.5116211423
 21
53.2205414249
 31
0.0
  0
LINE
  5
64
330
1F
100
AcDbEntity
  8
0
  6
Continuous
 62
     7
370
    15
100
AcDbLine
 10
57.9116211423
 20
53.2205414249
 30
0.0
 11
57.9116211423
 21
24.2205414249
 31
0.0
  0
ARC
  5
65
330
1F
100
AcDbEntity
  8
0
  6
Continuous
 62
     7
370
    15
100
AcDbCircle
 10
698.6116211423
 20
114.7205414249
 30
0.0
 40
1.5
100
AcDbArc
 50
90.0
 51
180.0
  0
ARC
  5
66
330
1F
100
AcDbEntity
  8
0
  6
Continuous
 62
     7
370
    15
100
AcDbCircle
 10
631.8116211423
 20
114.7205414249
 30
0.0
 40
1.5
100
AcDbArc
 50
0.0
 51
90.0
  0
LINE
  5
67
330
1F
100
AcDbEntity
  8
0
  6
Continuous
 62
     7
370
    15
100
AcDbLine
 10
697.1116211423
 20
59.2531073706
 30
0.0
 11
697.1116211423
 21
114.7205414249
 31
0.0
  0
LINE
  5
68
330
1F
100
AcDbEntity
  8
0
  6
Continuous
 62
     7
370
    15
100
AcDbLine
 10
633.3116211423
 20
114.7205414249
 30
0.0
 11
633.3116211423
 21
59.2531073706
 31
0.0
  0
ARC
  5
69
330
1F
100
AcDbEntity
  8
0
  6
Continuous
 62
     7
370
    15
100
AcDbCircle
 10
692.4116211423
 20
59.2531073706
 30
0.0
 40
4.700000000000121
100
AcDbArc
 50
350.5402980318
 51
0.0
  0
ARC
  5
6A
330
1F
100
AcDbEntity
  8
0
  6
Continuous
 62
     7
370
    15
100
AcDbCircle
 10
638.0116211423
 20
59.2531073706
 30
0.0
 40
4.699999999999932
100
AcDbArc
 50
180.0
 51
189.4597019682
  0
LINE
  5
6B
330
1F
100
AcDbEntity
  8
0
  6
Continuous
 62
     7
370
    15
100
AcDbLine
 10
633.3755343693
 20
58.4806441461
 30
0.0
 11
634.251970922
 21
53.2205414249
 31
0.0
  0
LINE
  5
6C
330
1F
100
AcDbEntity
  8
0
  6
Continuous
 62
     7
370
    15
100
AcDbLine
 10
696.1712713627
 20
53.2205414249
 30
0.0
 11
697.0477079153
 21
58.4806441461
 31
0.0
  0
ARC
  5
6D
330
1F
100
AcDbEntity
  8
0
  6
Continuous
 62
     7
370
    15
100
AcDbCircle
 10
119.6116211423
 20
114.7205414249
 30
0.0
 40
1.5
100
AcDbArc
 50
90.0
 51
180.0
  0
ARC
  5
6E
330
1F
100
AcDbEntity
  8
0
  6
Continuous
 62
     7
370
    15
100
AcDbCircle
 10
52.8116211423
 20
114.7205414249
 30
0.0
 40
1.5
100
AcDbArc
 50
0.0
 51
90.0
  0
ARC
  5
6F
330
1F
100
AcDbEntity
  8
0
  6
Continuous
 62
     7
370
    15
100
AcDbCircle
 10
113.4116211423
 20
59.2531073706
 30
0.0
 40
4.70000000000005
100
AcDbArc
 50
350.5402980318
 51
0.0
  0
ARC
  5
70
330
1F
100
AcDbEntity
  8
0
  6
Continuous
 62
     7
370
    15
100
AcDbCircle
 10
59.0116211423
 20
59.2531073706
 30
0.0
 40
4.70000000000005
100
AcDbArc
 50
180.0
 51
189.4597019682
  0
LINE
  5
71
330
1F
100
AcDbEntity
  8
0
  6
Continuous
 62
     7
370
    15
100
AcDbLine
 10
118.1116211423
 20
59.2531073706
 30
0.0
 11
118.1116211423
 21
114.7205414249
 31
0.0
  0
LINE
  5
72
330
1F
100
AcDbEntity
  8
0
  6
Continuous
 62
     7
370
    15
100
AcDbLine
 10
54.3116211423
 20
114.7205414249
 30
0.0
 11
54.3116211423
 21
59.2531073706
 31
0.0
  0
LINE
  5
73
330
1F
100
AcDbEntity
  8
0
  6
Continuous
 62
     7
370
    15
100
AcDbLine
 10
54.3755343693
 20
58.4806441461
 30
0.0
 11
55.251970922
 21
53.2205414249
 31
0.0
  0
LINE
  5
74
330
1F
100
AcDbEntity
  8
0
  6
Continuous
 62
     7
370
    15
100
AcDbLine
 10
117.1712713627
 20
53.2205414249
 30
0.0
 11
118.0477079153
 21
58.4806441461
 31
0.0
  0
LINE
  5
75
330
1F
100
AcDbEntity
  8
0
  6
Continuous
 62
     7
370
    15
100
AcDbLine
 10
795.4000838119
 20
291.3207722681
 30
0.0
 11
794.0308436379
 21
292.5258710637
 31
0.0
  0
LINE
  5
76
330
1F
100
AcDbEntity
  8
0
  6
Continuous
 62
     7
370
    15
100
AcDbLine
 10
794.0308436379
 20
292.5258710637
 30
0.0
 11
793.0625953996
 21
292.0743694952
 31
0.0
  0
ARC
  5
77
330
1F
100
AcDbEntity
  8
0
  6
Continuous
 62
     7
370
    15
100
AcDbCircle
 10
814.9893871461
 20
282.438197864
 30
0.0
 40
0.5000000000000308
100
AcDbArc
 50
295.0
 51
25.0
  0
ARC
  5
78
330
1F
100
AcDbEntity
  8
0
  6
Continuous
 62
     7
370
    15
100
AcDbCircle
 10
810.8477281811
 20
291.320014177
 30
0.0
 40
0.4999999999998797
100
AcDbArc
 50
25.0
 51
115.0
  0
LINE
  5
79
330
1F
100
AcDbEntity
  8
0
  6
Continuous
 62
     7
370
    15
100
AcDbLine
 10
804.0531104965
 20
276.7868393511
 30
0.0
 11
815.200696277
 21
281.9850439705
 31
0.0
  0
LINE
  5
7A
330
1F
100
AcDbEntity
  8
0
  6
Continuous
 62
     7
370
    15
100
AcDbLine
 10
810.6364190502
 20
291.7731680705
 30
0.0
 11
797.9481100317
 21
285.8565124061
 31
0.0
  0
LINE
  5
7B
330
1F
100
AcDbEntity
  8
0
  6
Continuous
 62
     7
370
    15
100
AcDbLine
 10
712.843251824
 20
403.7104503571
 30
0.0
 11
704.5807239096
 21
403.9141615808
 31
0.0
  0
LINE
  5
7C
330
1F
100
AcDbEntity
  8
0
  6
Continuous
 62
     7
370
    15
100
AcDbLine
 10
680.2614567827
 20
410.2648941595
 30
0.0
 11
678.4958954944
 21
410.3084237735
 31
0.0
  0
LINE
  5
7D
330
1F
100
AcDbEntity
  8
0
  6
Continuous
 62
     7
370
    15
100
AcDbLine
 10
16.9003124216
 20
365.2874085212
 30
0.0
 11
-38.7496875795
 21
365.2874085212
 31
0.0
  0
LINE
  5
7E
330
1F
100
AcDbEntity
  8
0
  6
Continuous
 62
     7
370
    15
100
AcDbLine
 10
-38.7496875795
 20
365.2874085212
 30
0.0
 11
-38.7496875795
 21
367.2874085217
 31
0.0
  0
LINE
  5
7F
330
1F
100
AcDbEntity
  8
0
  6
Continuous
 62
     7
370
    15
100
AcDbLine
 10
-38.7496875795
 20
367.5874085212
 30
0.0
 11
16.9003124216
 21
367.5874085212
 31
0.0
  0
LINE
  5
80
330
1F
100
AcDbEntity
  8
0
  6
Continuous
 62
     7
370
    15
100
AcDbLine
 10
16.9003124216
 20
380.7874085217
 30
0.0
 11
-49.5980805226
 21
380.7874085217
 31
0.0
  0
LINE
  5
81
330
1F
100
AcDbEntity
  8
0
  6
Continuous
 62
     7
370
    15
100
AcDbLine
 10
19.0503124216
 20
380.9374085215
 30
0.0
 11
19.0503124216
 21
369.4374085215
 31
0.0
  0
LINE
  5
82
330
1F
100
AcDbEntity
  8
0
  6
Continuous
 62
     7
370
    15
100
AcDbLine
 10
-38.7496875795
 20
367.5874085212
 30
0.0
 11
-38.7496875795
 21
367.2874085217
 31
0.0
  0
ARC
  5
83
330
1F
100
AcDbEntity
  8
0
  6
Continuous
 62
     7
370
    15
100
AcDbCircle
 10
-49.5996875784
 20
380.9374085217
 30
0.0
 40
2.149999999999984
100
AcDbArc
 50
90.0
 51
180.0
  0
ARC
  5
84
330
1F
100
AcDbEntity
  8
0
  6
Continuous
 62
     7
370
    15
100
AcDbCircle
 10
-49.5996875784
 20
369.4374085217
 30
0.0
 40
2.149999999999984
100
AcDbArc
 50
180.0
 51
270.0
  0
LINE
  5
85
330
1F
100
AcDbEntity
  8
0
  6
Continuous
 62
     7
370
    15
100
AcDbLine
 10
16.9003124216
 20
380.7874085217
 30
0.0
 11
16.9003124216
 21
383.0874085217
 31
0.0
  0
ARC
  5
86
330
1F
100
AcDbEntity
  8
0
  6
Continuous
 62
     7
370
    15
100
AcDbCircle
 10
16.9003124216
 20
380.9374085217
 30
0.0
 40
2.149999999999984
100
AcDbArc
 50
359.9999999959
 51
90.0
  0
LINE
  5
87
330
1F
100
AcDbEntity
  8
0
  6
Continuous
 62
     7
370
    15
100
AcDbLine
 10
-49.5980805226
 20
383.0874085217
 30
0.0
 11
-49.5980805226
 21
380.7874085217
 31
0.0
  0
LINE
  5
88
330
1F
100
AcDbEntity
  8
0
  6
Continuous
 62
     7
370
    15
100
AcDbLine
 10
-49.5996875784
 20
383.0874085217
 30
0.0
 11
-49.5980805226
 21
383.0874085217
 31
0.0
  0
LINE
  5
89
330
1F
100
AcDbEntity
  8
0
  6
Continuous
 62
     7
370
    15
100
AcDbLine
 10
22.0964719406
 20
365.2874085212
 30
0.0
 11
16.9003124216
 21
365.2874085212
 31
0.0
  0
LINE
  5
8A
330
1F
100
AcDbEntity
  8
0
  6
Continuous
 62
     7
370
    15
100
AcDbLine
 10
-38.7496875795
 20
367.2874085217
 30
0.0
 11
-49.5996875784
 21
367.2874085217
 31
0.0
  0
ARC
  5
8B
330
1F
100
AcDbEntity
  8
0
  6
Continuous
 62
     7
370
    15
100
AcDbCircle
 10
23.4003124216
 20
369.4374085212
 30
0.0
 40
4.35000000000002
100
AcDbArc
 50
179.999999996
 51
252.5584061437
  0
LINE
  5
8C
330
1F
100
AcDbEntity
  8
0
  6
Continuous
 62
     7
370
    15
100
AcDbLine
 10
-51.7496875784
 20
369.4374085217
 30
0.0
 11
-51.7496875784
 21
380.9374085217
 31
0.0
  0
LINE
  5
8D
330
1F
100
AcDbEntity
  8
0
  6
Continuous
 62
     7
370
    15
100
AcDbLine
 10
16.9003124216
 20
365.2874085212
 30
0.0
 11
16.9003124216
 21
367.5874085212
 31
0.0
  0
LINE
  5
8E
330
1F
100
AcDbEntity
  8
0
  6
Continuous
 62
     7
370
    15
100
AcDbLine
 10
-23.8480796192
 20
396.5874085217
 30
0.0
 11
-8.8480805226
 21
396.5874085217
 31
0.0
  0
LINE
  5
8F
330
1F
100
AcDbEntity
  8
0
  6
Continuous
 62
     7
370
    15
100
AcDbLine
 10
831.7809815438
 20
212.8394996778
 30
0.0
 11
808.3688449921
 21
263.0469885368
 31
0.0
  0
LINE
  5
90
330
1F
100
AcDbEntity
  8
0
  6
Continuous
 62
     7
370
    15
100
AcDbLine
 10
829.0147279233
 20
211.4254701162
 30
0.0
 11
831.7809815438
 21
212.8394996778
 31
0.0
  0
LINE
  5
91
330
1F
100
AcDbEntity
  8
0
  6
Continuous
 62
     7
370
    15
100
AcDbLine
 10
810.8701805074
 20
262.167585535
 30
0.0
 11
832.7151472379
 21
215.3209032032
 31
0.0
  0
ARC
  5
92
330
1F
100
AcDbEntity
  8
0
  6
Continuous
 62
     7
370
    15
100
AcDbCircle
 10
830.9437088944
 20
214.571247796
 30
0.0
 40
1.923532436518343
100
AcDbArc
 50
295.8030276957
 51
22.9376068066
  0
ARC
  5
93
330
1F
100
AcDbEntity
  8
0
  6
Continuous
 62
     7
370
    15
100
AcDbCircle
 10
809.1572525299
 20
261.2924542429
 30
0.0
 40
1.923532436518631
100
AcDbArc
 50
27.0623931934
 51
114.1969723043
  0
LINE
  5
94
330
1F
100
AcDbEntity
  8
0
  6
Continuous
 62
     7
370
    15
100
AcDbLine
 10
817.1373434724
 20
260.5586191003
 30
0.0
 11
835.5110621432
 21
221.1560522553
 31
0.0
  0
SPLINE
  5
95
330
1F
100
AcDbEntity
  8
0
  6
Continuous
 62
     7
370
    15
100
AcDbSpline
210
0.0
220
0.0
230
1.0
 70
     8
 71
     3
 72
    11
 73
     7
 74
     0
 42
0.00000001
 43
0.00000001
 12
1.0
 22
0.0
 32
0.0
 13
1.0
 23
0.0
 33
0.0
 40
0.0
 40
0.0
 40
0.0
 40
0.0
 40
0.2835227646035615
 40
0.5667788824161002
 40
0.8499302227267685
 40
1.0
 40
1.0
 40
1.0
 40
1.0
 10
831.7809815438004
 20
212.8394996777746
 30
0.0
 10
831.8309657323988
 20
212.7483786305383
 30
0.0
 10
831.9308871005893
 20
212.5662222333637
 30
0.0
 10
832.1626134818206
 20
212.0764783610066
 30
0.0
 10
832.3833777712318
 20
211.5831180245793
 30
0.0
 10
832.5179500138531
 20
211.2681891999292
 30
0.0
 10
832.5645664544134
 20
211.1590964141579
 30
0.0
  0
LWPOLYLINE
  5
96
330
1F
100
AcDbEntity
  8
0
  6
Continuous
 62
     7
370
    15
100
AcDbPolyline
 90
        3
 70
   128
 43
0.0
 10
832.5645664544
 20
211.1590964142
 10
832.0709816599
 20
210.9072704781
 10
829.7972275954
 20
209.7473941541
  0
SPLINE
  5
97
330
1F
100
AcDbEntity
  8
0
  6
Continuous
 62
     7
370
    15
100
AcDbSpline
210
0.0
220
0.0
230
1.0
 70
     8
 71
     3
 72
    11
 73
     7
 74
     0
 42
0.00000001
 43
0.00000001
 12
1.0
 22
0.0
 32
0.0
 13
1.0
 23
0.0
 33
0.0
 40
0.0
 40
0.0
 40
0.0
 40
0.0
 40
0.2835227523786682
 40
0.5667788888047233
 40
0.8499302218874373
 40
1.0
 40
1.0
 40
1.0
 40
1.0
 10
807.5852600814699
 20
264.7273918004623
 30
0.0
 10
807.6864866264816
 20
264.5263795520001
 30
0.0
 10
807.8888445262194
 20
264.1245440807238
 30
0.0
 10
808.1435257229033
 20
263.5855798964944
 30
0.0
 10
808.3007453669521
 20
263.2284944598716
 30
0.0
 10
808.3513242390359
 20
263.0936865979617
 30
0.0
 10
808.3688449920985
 20
263.0469885368519
 30
0.0
  0
LINE
  5
98
330
1F
100
AcDbEntity
  8
0
  6
Continuous
 62
     7
370
    15
100
AcDbLine
 10
834.2823170591
 20
211.9600966759
 30
0.0
 11
832.5645664544
 21
211.1590964142
 31
0.0
  0
SPLINE
  5
99
330
1F
100
AcDbEntity
  8
0
  6
Continuous
 62
     7
370
    15
100
AcDbSpline
210
0.0
220
0.0
230
1.0
 70
    24
 71
     3
 72
    11
 73
     7
 74
     0
 42
0.00000001
 43
0.00000001
 12
1.0
 22
0.0
 32
0.0
 13
1.0
 23
0.0
 33
0.0
 40
0.0
 40
0.0
 40
0.0
 40
0.0
 40
0.149951622690717
 40
0.4331749578253701
 40
0.7165923401617006
 40
1.0
 40
1.0
 40
1.0
 40
1.0
 10
834.2823170591168
 20
211.9600966759316
 30
0.0
 10
834.1821937336221
 20
212.1748118403596
 30
0.0
 10
833.8929610029566
 20
212.7950734329096
 30
0.0
 10
833.4366228969113
 20
213.7736936594157
 30
0.0
 10
832.9788564113592
 20
214.7553770556597
 30
0.0
 10
832.803049290533
 20
215.1323966429461
 30
0.0
 10
832.7151472378906
 20
215.3209032031647
 30
0.0
  0
LINE
  5
9A
330
1F
100
AcDbEntity
  8
0
  6
Continuous
 62
     7
370
    15
100
AcDbLine
 10
809.3030106862
 20
265.5283920622
 30
0.0
 11
807.5852600815
 21
264.7273918005
 31
0.0
  0
SPLINE
  5
9B
330
1F
100
AcDbEntity
  8
0
  6
Continuous
 62
     7
370
    15
100
AcDbSpline
210
0.0
220
0.0
230
1.0
 70
    24
 71
     3
 72
    11
 73
     7
 74
     0
 42
0.00000001
 43
0.00000001
 12
1.0
 22
0.0
 32
0.0
 13
1.0
 23
0.0
 33
0.0
 40
0.0
 40
0.0
 40
0.0
 40
0.0
 40
0.1499515950756895
 40
0.4331749432232082
 40
0.7165923323728117
 40
1.0
 40
1.0
 40
1.0
 40
1.0
 10
810.8701805073995
 20
262.1675855350027
 30
0.0
 10
810.8280219919899
 20
262.257994763057
 30
0.0
 10
810.7062359415669
 20
262.5191657910107
 30
0.0
 10
810.3762994326652
 20
263.2267169176791
 30
0.0
 10
809.8729713786042
 20
264.3061074128993
 30
0.0
 10
809.4929954113488
 20
265.1209685043061
 30
0.0
 10
809.3030106861733
 20
265.5283920622359
 30
0.0
  0
LINE
  5
9C
330
1F
100
AcDbEntity
  8
0
  6
Continuous
 62
     7
370
    15
100
AcDbLine
 10
807.5852600815
 20
264.7273918005
 30
0.0
 11
801.9789152283
 21
276.7502371369
 31
0.0
  0
SPLINE
  5
9D
330
1F
100
AcDbEntity
  8
0
  6
Continuous
 62
     7
370
    15
100
AcDbSpline
210
0.0
220
0.0
230
1.0
 70
     8
 71
     3
 72
    12
 73
     8
 74
     0
 42
0.00000001
 43
0.00000001
 12
1.0
 22
0.0
 32
0.0
 13
1.0
 23
0.0
 33
0.0
 40
0.0
 40
0.0
 40
0.0
 40
0.0
 40
0.1175335017800331
 40
0.3293297023540921
 40
0.5373943320220097
 40
0.8742805681197516
 40
1.0
 40
1.0
 40
1.0
 40
1.0
 10
797.6053982881281
 20
282.3322972622542
 30
0.0
 10
797.9318490715721
 20
282.3549073981688
 30
0.0
 10
798.8465664731356
 20
282.4182611587406
 30
0.0
 10
800.307355916851
 20
281.9240938298545
 30
0.0
 10
801.997316456033
 20
280.6367167289206
 30
0.0
 10
802.9907267321092
 20
279.0183895672424
 30
0.0
 10
803.5458134169672
 20
277.8647537473415
 30
0.0
 10
803.6966658329561
 20
277.5512373987231
 30
0.0
  0
LINE
  5
9E
330
1F
100
AcDbEntity
  8
0
  6
Continuous
 62
     7
370
    15
100
AcDbLine
 10
803.696665833
 20
277.5512373987
 30
0.0
 11
801.9789152283
 21
276.7502371369
 31
0.0
  0
LINE
  5
9F
330
1F
100
AcDbEntity
  8
0
  6
Continuous
 62
     7
370
    15
100
AcDbLine
 10
844.5101852337
 20
185.5416342721
 30
0.0
 11
832.5645664544
 21
211.1590964142
 31
0.0
  0
LINE
  5
A0
330
1F
100
AcDbEntity
  8
0
  6
Continuous
 62
     7
370
    15
100
AcDbLine
 10
845.3716051943
 20
183.2641301186
 30
0.0
 11
844.5101852337
 21
185.5416342721
 31
0.0
  0
LINE
  5
A1
330
1F
100
AcDbEntity
  8
0
  6
Continuous
 62
     7
370
    15
100
AcDbLine
 10
845.3716051943
 20
183.2641301186
 30
0.0
 11
842.7225865453
 21
182.028872436
 31
0.0
  0
SPLINE
  5
A2
330
1F
100
AcDbEntity
  8
0
  6
Continuous
 62
     7
370
    15
100
AcDbSpline
210
0.0
220
0.0
230
1.0
 70
     8
 71
     3
 72
     9
 73
     5
 74
     0
 42
0.00000001
 43
0.00000001
 12
1.0
 22
0.0
 32
0.0
 13
1.0
 23
0.0
 33
0.0
 40
0.0
 40
0.0
 40
0.0
 40
0.0
 40
0.0000220488581531
 40
1.0
 40
1.0
 40
1.0
 40
1.0
 10
846.2279358384446
 20
186.3426345338947
 30
0.0
 10
846.2279442908058
 20
186.3426164077364
 30
0.0
 10
846.6112911777379
 20
185.520525839832
 30
0.0
 10
846.9022292379242
 20
184.6594315967653
 30
0.0
 10
847.1931608832585
 20
183.7983563398433
 30
0.0
  0
SPLINE
  5
A3
330
1F
100
AcDbEntity
  8
0
  6
Continuous
 62
     7
370
    15
100
AcDbSpline
210
0.0
220
0.0
230
1.0
 70
     8
 71
     3
 72
    11
 73
     7
 74
     0
 42
0.00000001
 43
0.00000001
 12
1.0
 22
0.0
 32
0.0
 13
1.0
 23
0.0
 33
0.0
 40
0.0
 40
0.0
 40
0.0
 40
0.0
 40
0.2499768814500287
 40
0.4998058427200041
 40
0.7495361389842423
 40
1.0
 40
1.0
 40
1.0
 40
1.0
 10
847.1931608832585
 20
183.7983563398434
 30
0.0
 10
847.1678113142926
 20
183.78432541843
 30
0.0
 10
847.1171271765991
 20
183.7562718781968
 30
0.0
 10
846.7023058511143
 20
183.6290076023998
 30
0.0
 10
846.102274604098
 20
183.4586092130473
 30
0.0
 10
845.6153996746503
 20
183.3290198335943
 30
0.0
 10
845.3716051942743
 20
183.2641301185666
 30
0.0
  0
LINE
  5
A4
330
1F
100
AcDbEntity
  8
0
  6
Continuous
 62
     7
370
    15
100
AcDbLine
 10
846.2279358384
 20
186.3426345339
 30
0.0
 11
844.5101852337
 21
185.5416342721
 31
0.0
  0
SPLINE
  5
A5
330
1F
100
AcDbEntity
  8
0
  6
Continuous
 62
     7
370
    15
100
AcDbSpline
210
0.0
220
0.0
230
1.0
 70
     8
 71
     3
 72
    11
 73
     7
 74
     0
 42
0.00000001
 43
0.00000001
 12
1.0
 22
0.0
 32
0.0
 13
1.0
 23
0.0
 33
0.0
 40
0.0
 40
0.0
 40
0.0
 40
0.0
 40
0.2440033155445707
 40
0.4919416665511653
 40
0.7439093003410318
 40
1.0
 40
1.0
 40
1.0
 40
1.0
 10
846.0064643506145
 20
181.954976313465
 30
0.0
 10
845.9695219163744
 20
182.037995061471
 30
0.0
 10
845.8950412781669
 20
182.2053713987879
 30
0.0
 10
845.7421452409558
 20
182.5261649295705
 30
0.0
 10
845.5663002097316
 20
182.8839004487958
 30
0.0
 10
845.436853700218
 20
183.136703035702
 30
0.0
 10
845.3716051942743
 20
183.2641301185666
 30
0.0
  0
LINE
  5
A6
330
1F
100
AcDbEntity
  8
0
  6
Continuous
 62
     7
370
    15
100
AcDbLine
 10
846.0064643506
 20
181.9549763135
 30
0.0
 11
843.3888247793
 21
180.6001199325
 31
0.0
  0
SPLINE
  5
A7
330
1F
100
AcDbEntity
  8
0
  6
Continuous
 62
     7
370
    15
100
AcDbSpline
210
0.0
220
0.0
230
1.0
 70
     8
 71
     3
 72
    11
 73
     7
 74
     0
 42
0.00000001
 43
0.00000001
 12
1.0
 22
0.0
 32
0.0
 13
1.0
 23
0.0
 33
0.0
 40
0.0
 40
0.0
 40
0.0
 40
0.0
 40
0.250148001126552
 40
0.5002880311524667
 40
0.7504202668475208
 40
0.9999999999999999
 40
0.9999999999999999
 40
0.9999999999999999
 40
0.9999999999999999
 10
847.1931608832585
 20
183.7983563398434
 30
0.0
 10
847.2148141263767
 20
183.6245262264007
 30
0.0
 10
847.2581199226206
 20
183.2768715387055
 30
0.0
 10
847.0259812101538
 20
182.7440905803719
 30
0.0
 10
846.6090011354141
 20
182.2689715215056
 30
0.0
 10
846.2071618487497
 20
182.059564206304
 30
0.0
 10
846.0064643506145
 20
181.954976313465
 30
0.0
  0
LINE
  5
A8
330
1F
100
AcDbEntity
  8
0
  6
Continuous
 62
     7
370
    15
100
AcDbLine
 10
803.696665833
 20
277.5512373987
 30
0.0
 11
809.3030106862
 21
265.5283920622
 31
0.0
  0
LINE
  5
A9
330
1F
100
AcDbEntity
  8
0
  6
Continuous
 62
     7
370
    15
100
AcDbLine
 10
834.2823170591
 20
211.9600966759
 30
0.0
 11
846.2279358384
 21
186.3426345339
 31
0.0
  0
SPLINE
  5
AA
330
1F
100
AcDbEntity
  8
0
  6
Continuous
 62
     7
370
    15
100
AcDbSpline
210
0.0
220
0.0
230
1.0
 70
     8
 71
     3
 72
    14
 73
    10
 74
     0
 42
0.00000001
 43
0.00000001
 12
1.0
 22
0.0
 32
0.0
 13
1.0
 23
0.0
 33
0.0
 40
0.0
 40
0.0
 40
0.0
 40
0.0
 40
0.0024045749465567
 40
0.0051901321609407
 40
0.0347267574258781
 40
0.2932094380103042
 40
0.5746449636639225
 40
0.7844996086191879
 40
1.0
 40
1.0
 40
1.0
 40
1.0
 10
845.1733916018351
 20
177.9562048231014
 30
0.0
 10
845.1752615316965
 20
177.9572032290992
 30
0.0
 10
845.1792976642056
 20
177.959358229128
 30
0.0
 10
845.2062610457152
 20
177.9740257132578
 30
0.0
 10
845.4302593609344
 20
178.1072370677958
 30
0.0
 10
845.8408095102785
 20
178.551478563802
 30
0.0
 10
846.249938068544
 20
179.541603435592
 30
0.0
 10
846.3182362182129
 20
180.6992013412501
 30
0.0
 10
846.111303845738
 20
181.5326969875917
 30
0.0
 10
846.0064643506145
 20
181.954976313465
 30
0.0
  0
SPLINE
  5
AB
330
1F
100
AcDbEntity
  8
0
  6
Continuous
 62
     7
370
    15
100
AcDbSpline
210
0.0
220
0.0
230
1.0
 70
     8
 71
     3
 72
    20
 73
    16
 74
     0
 42
0.00000001
 43
0.00000001
 12
1.0
 22
0.0
 32
0.0
 13
1.0
 23
0.0
 33
0.0
 40
0.0
 40
0.0
 40
0.0
 40
0.0
 40
0.2070577373168117
 40
0.4203770502760582
 40
0.7011163025568191
 40
0.8834527988430988
 40
0.9282286404934948
 40
0.9524788585968956
 40
0.967501820722136
 40
0.9773827146382306
 40
0.9840938553685397
 40
0.9887393639099421
 40
0.9919933949590708
 40
0.9977340800222585
 40
1.0
 40
1.0
 40
1.0
 40
1.0
 10
847.1931608832585
 20
183.7983563398433
 30
0.0
 10
847.2980262168719
 20
183.3092418675832
 30
0.0
 10
847.5109280875862
 20
182.316221747879
 30
0.0
 10
847.3124967789614
 20
180.6074642610385
 30
0.0
 10
846.6784098849625
 20
179.3106504394128
 30
0.0
 10
846.0076563693564
 20
178.5429633125243
 30
0.0
 10
845.5973046188552
 20
178.2214371958161
 30
0.0
 10
845.4518216194233
 20
178.1213417166434
 30
0.0
 10
845.3639254790085
 20
178.0654701336951
 30
0.0
 10
845.3062506968503
 20
178.0306984005248
 30
0.0
 10
845.2669993982333
 20
178.0078826664741
 30
0.0
 10
845.2397593693012
 20
177.9924481704745
 30
0.0
 10
845.2141740200335
 20
177.9782148758166
 30
0.0
 10
845.1929166180589
 20
177.9666211086738
 30
0.0
 10
845.1776984420956
 20
177.9585024538717
 30
0.0
 10
845.1733916018351
 20
177.9562048231014
 30
0.0
  0
SPLINE
  5
AC
330
1F
100
AcDbEntity
  8
0
  6
Continuous
 62
     7
370
    15
100
AcDbSpline
210
0.0
220
0.0
230
1.0
 70
     8
 71
     3
 72
    10
 73
     6
 74
     0
 42
0.00000001
 43
0.00000001
 12
1.0
 22
0.0
 32
0.0
 13
1.0
 23
0.0
 33
0.0
 40
0.0
 40
0.0
 40
0.0
 40
0.0
 40
0.452737832225967
 40
0.9055954617465016
 40
1.0
 40
1.0
 40
1.0
 40
1.0
 10
847.3152426254434
 20
181.0014344400038
 30
0.0
 10
847.3228656722913
 20
181.053933864043
 30
0.0
 10
847.3381137830938
 20
181.158946603801
 30
0.0
 10
847.4614748004327
 20
181.6416154627802
 30
0.0
 10
847.4194542682237
 20
182.1180612432399
 30
0.0
 10
847.4122055871089
 20
182.2002497199074
 30
0.0
  0
SPLINE
  5
AD
330
1F
100
AcDbEntity
  8
0
  6
Continuous
 62
     7
370
    15
100
AcDbSpline
210
0.0
220
0.0
230
1.0
 70
     8
 71
     3
 72
    12
 73
     8
 74
     0
 42
0.00000001
 43
0.00000001
 12
1.0
 22
0.0
 32
0.0
 13
1.0
 23
0.0
 33
0.0
 40
0.0
 40
0.0
 40
0.0
 40
0.0
 40
0.4616906276042583
 40
0.7307729957150555
 40
0.9175829515523812
 40
0.9719359527203891
 40
1.0
 40
1.0
 40
1.0
 40
1.0
 10
847.1721101388662
 20
183.8737421386431
 30
0.0
 10
847.1420963459746
 20
183.9823019786638
 30
0.0
 10
847.0945899249367
 20
184.1541326262081
 30
0.0
 10
847.022966544357
 20
184.3782316202562
 30
0.0
 10
846.9814753154972
 20
184.502600370167
 30
0.0
 10
846.9589880956424
 20
184.5682719731691
 30
0.0
 10
846.9520438998929
 20
184.588359877511
 30
0.0
 10
846.9496793134208
 20
184.5952000629801
 30
0.0
  0
LINE
  5
AE
330
1F
100
AcDbEntity
  8
0
  6
Continuous
 62
     7
370
    15
100
AcDbLine
 10
802.3268259928
 20
279.8123817467
 30
0.0
 11
801.8812132694
 21
280.5472707646
 31
0.0
  0
LINE
  5
AF
330
1F
100
AcDbEntity
  8
0
  6
Continuous
 62
     7
370
    15
100
AcDbLine
 10
846.2741175855
 20
186.2430890733
 30
0.0
 11
846.2320836281
 21
186.3337355619
 31
0.0
  0
SPLINE
  5
B0
330
1F
100
AcDbEntity
  8
0
  6
Continuous
 62
     7
370
    15
100
AcDbSpline
210
0.0
220
0.0
230
1.0
 70
     8
 71
     3
 72
    13
 73
     9
 74
     0
 42
0.00000001
 43
0.00000001
 12
1.0
 22
0.0
 32
0.0
 13
1.0
 23
0.0
 33
0.0
 40
0.0
 40
0.0
 40
0.0
 40
0.0
 40
0.1254648118065532
 40
0.2502435788816412
 40
0.3760698054095827
 40
0.501913920169424
 40
0.7508310514861724
 40
0.9999999999999999
 40
0.9999999999999999
 40
0.9999999999999999
 40
0.9999999999999999
 10
801.8812132689901
 20
280.5472707650048
 30
0.0
 10
801.7935362966999
 20
280.64454304337
 30
0.0
 10
801.618661771999
 20
280.8385557128473
 30
0.0
 10
801.344979739818
 20
281.0979558500964
 30
0.0
 10
801.0779791127926
 20
281.3214280184906
 30
0.0
 10
800.7531200970827
 20
281.5599017725228
 30
0.0
 10
800.4204337573408
 20
281.7574626079571
 30
0.0
 10
800.3675190674063
 20
281.784426808171
 30
0.0
 10
800.3410483464088
 20
281.7979157244184
 30
0.0
  0
SPLINE
  5
B1
330
1F
100
AcDbEntity
  8
0
  6
Continuous
 62
     7
370
    15
100
AcDbSpline
210
0.0
220
0.0
230
1.0
 70
     8
 71
     3
 72
     9
 73
     5
 74
     0
 42
0.00000001
 43
0.00000001
 12
1.0
 22
0.0
 32
0.0
 13
1.0
 23
0.0
 33
0.0
 40
0.0
 40
0.0
 40
0.0
 40
0.0
 40
0.5000138394957006
 40
1.0
 40
1.0
 40
1.0
 40
1.0
 10
846.7419244256179
 20
185.1554537922325
 30
0.0
 10
846.6739550131801
 20
185.3241707875323
 30
0.0
 10
846.5380199508497
 20
185.6615954385577
 30
0.0
 10
846.362083417387
 20
186.0492614384383
 30
0.0
 10
846.2741175855284
 20
186.2430890732767
 30
0.0
  0
SPLINE
  5
B2
330
1F
100
AcDbEntity
  8
0
  6
Continuous
 62
     7
370
    15
100
AcDbSpline
210
0.0
220
0.0
230
1.0
 70
     8
 71
     3
 72
     9
 73
     5
 74
     0
 42
0.00000001
 43
0.00000001
 12
1.0
 22
0.0
 32
0.0
 13
1.0
 23
0.0
 33
0.0
 40
0.0
 40
0.0
 40
0.0
 40
0.0
 40
0.8821747881012498
 40
1.0
 40
1.0
 40
1.0
 40
1.0
 10
847.4313781232745
 20
181.9925708237313
 30
0.0
 10
847.4383915789996
 20
182.0032638260601
 30
0.0
 10
847.4463417673521
 20
182.0153850093824
 30
0.0
 10
847.4266433657335
 20
182.2657280749102
 30
0.0
 10
847.4243223973888
 20
182.2952247996533
 30
0.0
  0
SPLINE
  5
B3
330
1F
100
AcDbEntity
  8
0
  6
Continuous
 62
     7
370
    15
100
AcDbSpline
210
0.0
220
0.0
230
1.0
 70
     8
 71
     3
 72
     9
 73
     5
 74
     0
 42
0.00000001
 43
0.00000001
 12
1.0
 22
0.0
 32
0.0
 13
1.0
 23
0.0
 33
0.0
 40
0.0
 40
0.0
 40
0.0
 40
0.0
 40
0.116489287606802
 40
1.0
 40
1.0
 40
1.0
 40
1.0
 10
847.2042035356811
 20
183.7251987976191
 30
0.0
 10
847.1958148191616
 20
183.7688609716035
 30
0.0
 10
847.1238020470711
 20
184.1436780460448
 30
0.0
 10
846.9210542639337
 20
184.6808535128635
 30
0.0
 10
846.7419244256179
 20
185.1554537922325
 30
0.0
  0
LINE
  5
B4
330
1F
100
AcDbEntity
  8
0
  6
Continuous
 62
     7
370
    15
100
AcDbLine
 10
846.9496793136
 20
184.5952000624
 30
0.0
 11
846.780575159
 21
185.040296329
 31
0.0
  0
LINE
  5
B5
330
1F
100
AcDbEntity
  8
0
  6
Continuous
 62
     7
370
    15
100
AcDbLine
 10
844.4657337256
 20
213.4570881091
 30
0.0
 11
816.995583864
 21
272.3670145948
 31
0.0
  0
LINE
  5
B6
330
1F
100
AcDbEntity
  8
0
  6
Continuous
 62
     7
370
    15
100
AcDbLine
 10
829.7622263892
 20
268.6508771794
 30
0.0
 11
827.7490976298
 21
272.9680457358
 31
0.0
  0
SPLINE
  5
B7
330
1F
100
AcDbEntity
  8
0
  6
Continuous
 62
     7
370
    15
100
AcDbSpline
210
0.0
220
0.0
230
1.0
 70
     8
 71
     3
 72
    10
 73
     6
 74
     0
 42
0.00000001
 43
0.00000001
 12
1.0
 22
0.0
 32
0.0
 13
1.0
 23
0.0
 33
0.0
 40
0.0
 40
0.0
 40
0.0
 40
0.0
 40
0.2575414228279382
 40
0.521787397730956
 40
0.9999999999999999
 40
0.9999999999999999
 40
0.9999999999999999
 40
0.9999999999999999
 10
829.6574661095551
 20
267.3881199472217
 30
0.0
 10
829.613547537368
 20
267.5015818649119
 30
0.0
 10
829.5245670648601
 20
267.7314594439168
 30
0.0
 10
829.4981222765842
 20
268.1681840752698
 30
0.0
 10
829.6587604295685
 20
268.4617763557362
 30
0.0
 10
829.7622263891844
 20
268.6508771793576
 30
0.0
  0
LINE
  5
B8
330
1F
100
AcDbEntity
  8
0
  6
Continuous
 62
     7
370
    15
100
AcDbLine
 10
848.7555900826
 20
226.4320609183
 30
0.0
 11
829.6574661096
 21
267.3881199472
 31
0.0
  0
SPLINE
  5
B9
330
1F
100
AcDbEntity
  8
0
  6
Continuous
 62
     7
370
    15
100
AcDbSpline
210
0.0
220
0.0
230
1.0
 70
     8
 71
     3
 72
    13
 73
     9
 74
     0
 42
0.00000001
 43
0.00000001
 12
1.0
 22
0.0
 32
0.0
 13
1.0
 23
0.0
 33
0.0
 40
0.0
 40
0.0
 40
0.0
 40
0.0
 40
0.236448623774697
 40
0.4787719605441265
 40
0.606922438222183
 40
0.7359316471570913
 40
0.8675412824516071
 40
1.0
 40
1.0
 40
1.0
 40
1.0
 10
849.7940904355004
 20
225.6924061013269
 30
0.0
 10
849.6860004372546
 20
225.7064495074462
 30
0.0
 10
849.467134877586
 20
225.734885236837
 30
0.0
 10
849.2330507267443
 20
225.8548098972546
 30
0.0
 10
849.0639121911823
 20
225.9892307915647
 30
0.0
 10
848.9468015482746
 20
226.1152937704219
 30
0.0
 10
848.8419879784215
 20
226.2612386453677
 30
0.0
 10
848.7844510490596
 20
226.3749982335663
 30
0.0
 10
848.7555900825981
 20
226.4320609182818
 30
0.0
  0
LINE
  5
BA
330
1F
100
AcDbEntity
  8
0
  6
Continuous
 62
     7
370
    15
100
AcDbLine
 10
851.838338549
 20
221.3085018747
 30
0.0
 11
849.7940904355
 21
225.6924061013
 31
0.0
  0
LINE
  5
BB
330
1F
100
AcDbEntity
  8
0
  6
Continuous
 62
     7
370
    15
100
AcDbLine
 10
830.5361139633
 20
266.991269921
 30
0.0
 11
849.0174980218
 21
227.357813907
 31
0.0
  0
ARC
  5
BC
330
1F
100
AcDbEntity
  8
0
  6
Continuous
 62
     7
370
    15
100
AcDbCircle
 10
848.2555891638
 20
227.0734430146
 30
0.0
 40
0.8132477557936114
100
AcDbArc
 50
307.9388364013
 51
20.467323903
  0
ARC
  5
BD
330
1F
100
AcDbEntity
  8
0
  6
Continuous
 62
     7
370
    15
100
AcDbCircle
 10
829.8260938321
 20
266.5903586025
 30
0.0
 40
0.8153885404806192
100
AcDbArc
 50
29.4511502571
 51
101.9352755186
  0
SPLINE
  5
BE
330
1F
100
AcDbEntity
  8
0
  6
Continuous
 62
     7
370
    15
100
AcDbSpline
210
0.0
220
0.0
230
1.0
 70
     8
 71
     3
 72
    11
 73
     7
 74
     0
 42
0.00000001
 43
0.00000001
 12
1.0
 22
0.0
 32
0.0
 13
1.0
 23
0.0
 33
0.0
 40
0.0
 40
0.0
 40
0.0
 40
0.0
 40
0.261685297493833
 40
0.531674368820869
 40
0.7625173524499111
 40
1.0
 40
1.0
 40
1.0
 40
1.0
 10
849.0174980217837
 20
227.3578139069574
 30
0.0
 10
849.0645796733626
 20
227.2700278744469
 30
0.0
 10
849.1602369671655
 20
227.0916701911023
 30
0.0
 10
849.3480207192729
 20
226.9150215971668
 30
0.0
 10
849.5589589674257
 20
226.8031549104286
 30
0.0
 10
849.7137892306248
 20
226.7857407141977
 30
0.0
 10
849.7923019114977
 20
226.7769101716209
 30
0.0
  0
SPLINE
  5
BF
330
1F
100
AcDbEntity
  8
0
  6
Continuous
 62
     7
370
    15
100
AcDbSpline
210
0.0
220
0.0
230
1.0
 70
     8
 71
     3
 72
    12
 73
     8
 74
     0
 42
0.00000001
 43
0.00000001
 12
1.0
 22
0.0
 32
0.0
 13
1.0
 23
0.0
 33
0.0
 40
0.0
 40
0.0
 40
0.0
 40
0.0
 40
0.0304717459459557
 40
0.0888135668586065
 40
0.3925556175487346
 40
0.6962774394173862
 40
1.0
 40
1.0
 40
1.0
 40
1.0
 10
849.7923019114977
 20
226.7769101716209
 30
0.0
 10
849.7970009203965
 20
226.7674119694316
 30
0.0
 10
849.8106967467444
 20
226.7397283172814
 30
0.0
 10
849.8654832035439
 20
226.6130754202321
 30
0.0
 10
849.9225268695322
 20
226.3750300506291
 30
0.0
 10
849.9139652341125
 20
226.029851881905
 30
0.0
 10
849.8340977603815
 20
225.8253818452887
 30
0.0
 10
849.7941639749525
 20
225.7231467026525
 30
0.0
  0
SPLINE
  5
C0
330
1F
100
AcDbEntity
  8
0
  6
Continuous
 62
     7
370
    15
100
AcDbSpline
210
0.0
220
0.0
230
1.0
 70
     8
 71
     3
 72
    10
 73
     6
 74
     0
 42
0.00000001
 43
0.00000001
 12
1.0
 22
0.0
 32
0.0
 13
1.0
 23
0.0
 33
0.0
 40
0.0
 40
0.0
 40
0.0
 40
0.0
 40
0.2117958997114556
 40
0.4880069094699699
 40
1.0
 40
1.0
 40
1.0
 40
1.0
 10
849.7941639749525
 20
225.7231467026525
 30
0.0
 10
849.7930501978419
 20
225.7204038531067
 30
0.0
 10
849.7904839020529
 20
225.7140839501634
 30
0.0
 10
849.7900904768123
 20
225.7028947586337
 30
0.0
 10
849.7925153273355
 20
225.6965363364233
 30
0.0
 10
849.7940904354998
 20
225.6924061013266
 30
0.0
  0
SPLINE
  5
C1
330
1F
100
AcDbEntity
  8
0
  6
Continuous
 62
     7
370
    15
100
AcDbSpline
210
0.0
220
0.0
230
1.0
 70
     8
 71
     3
 72
    12
 73
     8
 74
     0
 42
0.00000001
 43
0.00000001
 12
1.0
 22
0.0
 32
0.0
 13
1.0
 23
0.0
 33
0.0
 40
0.0
 40
0.0
 40
0.0
 40
0.0
 40
0.0304717459516009
 40
0.088813566858565
 40
0.3925556175487087
 40
0.696277439417449
 40
1.0
 40
1.0
 40
1.0
 40
1.0
 10
830.5918463801156
 20
267.9524199356053
 30
0.0
 10
830.5875835414168
 20
267.9621404776076
 30
0.0
 10
830.575158985555
 20
267.9904721658665
 30
0.0
 10
830.5132679195497
 20
268.1140350239647
 30
0.0
 10
830.367487674241
 20
268.3109469357586
 30
0.0
 10
830.0975587636927
 20
268.5262726973518
 30
0.0
 10
829.8896940252461
 20
268.5962936807236
 30
0.0
 10
829.7857615296305
 20
268.6313042149858
 30
0.0
  0
SPLINE
  5
C2
330
1F
100
AcDbEntity
  8
0
  6
Continuous
 62
     7
370
    15
100
AcDbSpline
210
0.0
220
0.0
230
1.0
 70
     8
 71
     3
 72
     9
 73
     5
 74
     0
 42
0.00000001
 43
0.00000001
 12
1.0
 22
0.0
 32
0.0
 13
1.0
 23
0.0
 33
0.0
 40
0.0
 40
0.0
 40
0.0
 40
0.0
 40
0.4684410573251953
 40
1.0
 40
1.0
 40
1.0
 40
1.0
 10
830.5918463801156
 20
267.9524199356053
 30
0.0
 10
830.5144300692408
 20
267.8186740923657
 30
0.0
 10
830.3491663510753
 20
267.5331614517714
 30
0.0
 10
830.4712299602492
 20
267.1793444907257
 30
0.0
 10
830.5361139632807
 20
266.9912699210117
 30
0.0
  0
SPLINE
  5
C3
330
1F
100
AcDbEntity
  8
0
  6
Continuous
 62
     7
370
    15
100
AcDbSpline
210
0.0
220
0.0
230
1.0
 70
     8
 71
     3
 72
    11
 73
     7
 74
     0
 42
0.00000001
 43
0.00000001
 12
1.0
 22
0.0
 32
0.0
 13
1.0
 23
0.0
 33
0.0
 40
0.0
 40
0.0
 40
0.0
 40
0.0
 40
0.3704320937868675
 40
0.7442498469285881
 40
0.9442480537681841
 40
0.9999999999999999
 40
0.9999999999999999
 40
0.9999999999999999
 40
0.9999999999999999
 10
829.7622263891844
 20
268.6508771793576
 30
0.0
 10
829.7637114466361
 20
268.6480997847559
 30
0.0
 10
829.7666951346041
 20
268.6425196108402
 30
0.0
 10
829.773951858187
 20
268.6358401438424
 30
0.0
 10
829.7814699901818
 20
268.632435848909
 30
0.0
 10
829.784993439537
 20
268.6315067522842
 30
0.0
 10
829.7857615296305
 20
268.6313042149858
 30
0.0
  0
SPLINE
  5
C4
330
1F
100
AcDbEntity
  8
0
  6
Continuous
 62
     7
370
    15
100
AcDbSpline
210
0.0
220
0.0
230
1.0
 70
     8
 71
     3
 72
    11
 73
     7
 74
     0
 42
0.00000001
 43
0.00000001
 12
1.0
 22
0.0
 32
0.0
 13
1.0
 23
0.0
 33
0.0
 40
0.0
 40
0.0
 40
0.0
 40
0.0
 40
0.36582811098947
 40
0.7252591430831519
 40
0.9820690181776869
 40
0.9999999999999999
 40
0.9999999999999999
 40
0.9999999999999999
 40
0.9999999999999999
 10
833.0867690460624
 20
268.4960894583859
 30
0.0
 10
832.7063920427972
 20
268.5047750831935
 30
0.0
 10
831.9522895253871
 20
268.5219944510219
 30
0.0
 10
831.0951179598163
 20
268.3251916013276
 30
0.0
 10
830.7133810548949
 20
268.0873159652385
 30
0.0
 10
830.5992923853536
 20
267.9606845444098
 30
0.0
 10
830.5918463801156
 20
267.9524199356053
 30
0.0
  0
LINE
  5
C5
330
1F
100
AcDbEntity
  8
0
  6
Continuous
 62
     7
370
    15
100
AcDbLine
 10
833.0867690461
 20
268.4960894584
 30
0.0
 11
851.8159009526
 21
228.3313364698
 31
0.0
  0
SPLINE
  5
C6
330
1F
100
AcDbEntity
  8
0
  6
Continuous
 62
     7
370
    15
100
AcDbSpline
210
0.0
220
0.0
230
1.0
 70
     8
 71
     3
 72
    11
 73
     7
 74
     0
 42
0.00000001
 43
0.00000001
 12
1.0
 22
0.0
 32
0.0
 13
1.0
 23
0.0
 33
0.0
 40
0.0
 40
0.0
 40
0.0
 40
0.0
 40
0.2357948537758539
 40
0.274901996804467
 40
0.634253169613823
 40
1.0
 40
1.0
 40
1.0
 40
1.0
 10
849.7923019114977
 20
226.7769101716209
 30
0.0
 10
849.9447798881238
 20
226.799664989122
 30
0.0
 10
850.1225467035227
 20
226.8261937477773
 30
0.0
 10
850.5570760132008
 20
227.0375795760956
 30
0.0
 10
851.1065534118995
 20
227.446519115258
 30
0.0
 10
851.5780654633606
 20
228.0346681142614
 30
0.0
 10
851.8159009525647
 20
228.3313364697558
 30
0.0
  0
LINE
  5
C7
330
1F
100
AcDbEntity
  8
0
  6
Continuous
 62
     7
370
    15
100
AcDbLine
 10
864.2719129841
 20
240.573451081
 30
0.0
 11
852.6580561373
 21
227.4550384854
 31
0.0
  0
SPLINE
  5
C8
330
1F
100
AcDbEntity
  8
0
  6
Continuous
 62
     7
370
    15
100
AcDbSpline
210
0.0
220
0.0
230
1.0
 70
     8
 71
     3
 72
    13
 73
     9
 74
     0
 42
0.00000001
 43
0.00000001
 12
1.0
 22
0.0
 32
0.0
 13
1.0
 23
0.0
 33
0.0
 40
0.0
 40
0.0
 40
0.0
 40
0.0
 40
0.17511610016591
 40
0.3553664634508214
 40
0.5317043534614123
 40
0.7143723407335595
 40
0.8552757904456874
 40
1.0
 40
1.0
 40
1.0
 40
1.0
 10
852.6580561372728
 20
227.4550384854296
 30
0.0
 10
852.4915325293354
 20
227.2806274503514
 30
0.0
 10
852.1536029752983
 20
226.9266917890167
 30
0.0
 10
851.622178432978
 20
226.4792809711874
 30
0.0
 10
851.0820055003803
 20
226.1090570724636
 30
0.0
 10
850.5929166712591
 20
225.86848143999
 30
0.0
 10
850.1563822666739
 20
225.7344382286056
 30
0.0
 10
849.9159753571108
 20
225.7269439608652
 30
0.0
 10
849.7941639749525
 20
225.7231467026525
 30
0.0
  0
ARC
  5
C9
330
1F
100
AcDbEntity
  8
0
  6
Continuous
 62
     7
370
    15
100
AcDbCircle
 10
849.2539032704
 20
225.0263404076
 30
0.0
 40
4.181725851103853
100
AcDbArc
 50
35.5060171784
 51
52.2175390915
  0
ELLIPSE
  5
CA
330
1F
100
AcDbEntity
  8
0
  6
Continuous
 62
     7
370
    15
100
AcDbEllipse
 10
828.7734208606
 20
234.0721420561
 30
0.0
 11
-0.5244000507385636
 21
38.90264224576683
 31
0.0
210
0.0
220
0.0
230
1.0
 40
0.00085236
 41
6.280840895719979
 42
6.281741450485505
  0
SPLINE
  5
CB
330
1F
100
AcDbEntity
  8
0
  6
Continuous
 62
     7
370
    15
100
AcDbSpline
210
0.0
220
0.0
230
1.0
 70
     8
 71
     3
 72
    11
 73
     7
 74
     0
 42
0.00000001
 43
0.00000001
 12
1.0
 22
0.0
 32
0.0
 13
1.0
 23
0.0
 33
0.0
 40
0.0
 40
0.0
 40
0.0
 40
0.0
 40
0.2590606595370483
 40
0.5181210692030297
 40
0.7771875495235258
 40
1.0
 40
1.0
 40
1.0
 40
1.0
 10
828.4826848407891
 20
272.9772900500989
 30
0.0
 10
828.4547786853798
 20
272.9769446466339
 30
0.0
 10
828.3989664014774
 20
272.9762538400371
 30
0.0
 10
828.3276955192209
 20
272.9755531727025
 30
0.0
 10
828.2754785872422
 20
272.975091901203
 30
0.0
 10
828.2620505212053
 20
272.9749360291851
 30
0.0
 10
828.2558416166285
 20
272.9748639566706
 30
0.0
  0
LINE
  5
CC
330
1F
100
AcDbEntity
  8
0
  6
Continuous
 62
     7
370
    15
100
AcDbLine
 10
828.4826848408
 20
272.9772900501
 30
0.0
 11
847.5762925239
 21
273.1879999866
 31
0.0
  0
LINE
  5
CD
330
1F
100
AcDbEntity
  8
0
  6
Continuous
 62
     7
370
    15
100
AcDbLine
 10
847.5762925239
 20
273.1879999866
 30
0.0
 11
849.0549281853
 21
273.2063802912
 31
0.0
  0
LINE
  5
CE
330
1F
100
AcDbEntity
  8
0
  6
Continuous
 62
     7
370
    15
100
AcDbLine
 10
850.4771340873
 20
270.1564498921
 30
0.0
 11
849.0549281853
 21
273.2063802912
 31
0.0
  0
LINE
  5
CF
330
1F
100
AcDbEntity
  8
0
  6
Continuous
 62
     7
370
    15
100
AcDbLine
 10
832.9577405986
 20
269.7025014943
 30
0.0
 11
850.4771340873
 21
270.1564498921
 31
0.0
  0
SPLINE
  5
D0
330
1F
100
AcDbEntity
  8
0
  6
Continuous
 62
     7
370
    15
100
AcDbSpline
210
0.0
220
0.0
230
1.0
 70
     8
 71
     3
 72
    10
 73
     6
 74
     0
 42
0.00000001
 43
0.00000001
 12
1.0
 22
0.0
 32
0.0
 13
1.0
 23
0.0
 33
0.0
 40
0.0
 40
0.0
 40
0.0
 40
0.0
 40
0.2857669779336582
 40
0.6445560549562689
 40
1.0
 40
1.0
 40
1.0
 40
1.0
 10
829.7857615296305
 20
268.6313042149858
 30
0.0
 10
829.9655734118853
 20
268.8026670109972
 30
0.0
 10
830.3711445464456
 20
269.1891809761938
 30
0.0
 10
831.504930635279
 20
269.5746347883185
 30
0.0
 10
832.4749850372111
 20
269.6600125487719
 30
0.0
 10
832.9577405985995
 20
269.7025014943359
 30
0.0
  0
ARC
  5
D1
330
1F
100
AcDbEntity
  8
0
  6
Continuous
 62
     7
370
    15
100
AcDbCircle
 10
828.8868991332
 20
268.6570099981
 30
0.0
 40
4.202951665799115
100
AcDbArc
 50
357.805751136
 51
14.4036582698
  0
SPLINE
  5
D2
330
1F
100
AcDbEntity
  8
0
  6
Continuous
 62
     7
370
    15
100
AcDbSpline
210
0.0
220
0.0
230
1.0
 70
     8
 71
     3
 72
     9
 73
     5
 74
     0
 42
0.00000001
 43
0.00000001
 12
1.0
 22
0.0
 32
0.0
 13
1.0
 23
0.0
 33
0.0
 40
0.0
 40
0.0
 40
0.0
 40
0.0
 40
0.4998364864786961
 40
1.0
 40
1.0
 40
1.0
 40
1.0
 10
851.8159009525646
 20
228.3313364697559
 30
0.0
 10
853.7815044757741
 20
230.467715891271
 30
0.0
 10
857.7139975537749
 20
234.7418724990963
 30
0.0
 10
861.5655410279533
 20
239.124408729842
 30
0.0
 10
863.4919425444783
 20
241.3163934491461
 30
0.0
  0
ARC
  5
D3
330
1F
100
AcDbEntity
  8
0
  6
Continuous
 62
     7
370
    15
100
AcDbCircle
 10
860.020721342
 20
236.8912742303
 30
0.0
 40
5.624149423490429
100
AcDbArc
 50
40.8975292532
 51
51.8880987748
  0
LINE
  5
D4
330
1F
100
AcDbEntity
  8
0
  6
Continuous
 62
     7
370
    15
100
AcDbLine
 10
850.5440131531
 20
269.0833176352
 30
0.0
 11
833.0867690461
 21
268.4960894584
 31
0.0
  0
LINE
  5
D5
330
1F
100
AcDbEntity
  8
0
  6
Continuous
 62
     7
370
    15
100
AcDbLine
 10
863.4919425445
 20
241.3163934491
 30
0.0
 11
850.5440131531
 21
269.0833176352
 31
0.0
  0
ARC
  5
D6
330
1F
100
AcDbEntity
  8
0
  6
Continuous
 62
     7
370
    15
100
AcDbCircle
 10
844.8678005727
 20
269.2682184514
 30
0.0
 40
5.679223324560417
100
AcDbArc
 50
358.134267967
 51
8.9980100128
  0
ARC
  5
D7
330
1F
100
AcDbEntity
  8
0
  6
Continuous
 62
     7
370
    15
100
AcDbCircle
 10
864.1881031831
 20
240.3591819408
 30
0.0
 40
1.183593471777324
100
AcDbArc
 50
75.2933662939
 51
126.0276401651
  0
ARC
  5
D8
330
1F
100
AcDbEntity
  8
0
  6
Continuous
 62
     7
370
    15
100
AcDbCircle
 10
863.7136641476
 20
241.193932445
 30
0.0
 40
0.8346489601047574
100
AcDbArc
 50
311.9778040168
 51
21.807743596
  0
LINE
  5
D9
330
1F
100
AcDbEntity
  8
0
  6
Continuous
 62
     7
370
    15
100
AcDbLine
 10
851.3302585209
 20
269.7221146742
 30
0.0
 11
864.4885819787
 21
241.5039989567
 31
0.0
  0
ARC
  5
DA
330
1F
100
AcDbEntity
  8
0
  6
Continuous
 62
     7
370
    15
100
AcDbCircle
 10
850.2526970414
 20
270.2451383946
 30
0.0
 40
1.197786522758313
100
AcDbArc
 50
284.0761958337
 51
334.109123278
  0
ARC
  5
DB
330
1F
100
AcDbEntity
  8
0
  6
Continuous
 62
     7
370
    15
100
AcDbCircle
 10
850.5922560664
 20
269.3275490748
 30
0.0
 40
0.8368569979635965
100
AcDbArc
 50
28.1307403818
 51
97.9069501459
  0
LINE
  5
DC
330
1F
100
AcDbEntity
  8
0
  6
Continuous
 62
     7
370
    15
100
AcDbLine
 10
864.4885819787
 20
241.5039989567
 30
0.0
 11
865.8876710475
 21
238.5036427661
 31
0.0
  0
LINE
  5
DD
330
1F
100
AcDbEntity
  8
0
  6
Continuous
 62
     7
370
    15
100
AcDbLine
 10
849.9758816987
 20
272.6265851424
 30
0.0
 11
851.3302585209
 21
269.7221146742
 31
0.0
  0
SPLINE
  5
DE
330
1F
100
AcDbEntity
  8
0
  6
Continuous
 62
     7
370
    15
100
AcDbSpline
210
0.0
220
0.0
230
1.0
 70
     8
 71
     3
 72
    11
 73
     7
 74
     0
 42
0.00000001
 43
0.00000001
 12
1.0
 22
0.0
 32
0.0
 13
1.0
 23
0.0
 33
0.0
 40
0.0
 40
0.0
 40
0.0
 40
0.0
 40
0.2933118760928303
 40
0.5865991201420121
 40
0.8805021461503417
 40
1.0
 40
1.0
 40
1.0
 40
1.0
 10
849.0549281853462
 20
273.2063802912239
 30
0.0
 10
849.1676289895662
 20
273.1967100051077
 30
0.0
 10
849.3930211335035
 20
273.1773702449765
 30
0.0
 10
849.6937772926132
 20
273.0081665596767
 30
0.0
 10
849.8822250533424
 20
272.8075667235034
 30
0.0
 10
849.9548800197359
 20
272.6671686701073
 30
0.0
 10
849.9758816986838
 20
272.6265851423914
 30
0.0
  0
LINE
  5
DF
330
1F
100
AcDbEntity
  8
0
  6
Continuous
 62
     7
370
    15
100
AcDbLine
 10
828.3829569066
 20
243.2143111322
 30
0.0
 11
828.5489847579
 21
242.858263256
 31
0.0
  0
SPLINE
  5
E0
330
1F
100
AcDbEntity
  8
0
  6
Continuous
 62
     7
370
    15
100
AcDbSpline
210
0.0
220
0.0
230
1.0
 70
     8
 71
     3
 72
    15
 73
    11
 74
     0
 42
0.00000001
 43
0.00000001
 12
1.0
 22
0.0
 32
0.0
 13
1.0
 23
0.0
 33
0.0
 40
0.0
 40
0.0
 40
0.0
 40
0.0
 40
0.0013085590450219
 40
0.003112397237762
 40
0.0059032470887027
 40
0.0102791707597322
 40
0.018484604487458
 40
0.0492181494334062
 40
0.1106093070874018
 40
1.0
 40
1.0
 40
1.0
 40
1.0
 10
828.3829569066038
 20
243.2143111321694
 30
0.0
 10
828.3830300838099
 20
243.2143475195097
 30
0.0
 10
828.3832041352101
 20
243.214434066508
 30
0.0
 10
828.3849463780775
 20
243.2152556873363
 30
0.0
 10
828.388759425492
 20
243.2170449628072
 30
0.0
 10
828.3966333805628
 20
243.2207313142662
 30
0.0
 10
828.4208394204128
 20
243.2320489865705
 30
0.0
 10
828.4804516482595
 20
243.2598883060954
 30
0.0
 10
829.0706437370576
 20
243.5353668581886
 30
0.0
 10
829.6517875667581
 20
243.8063838844202
 30
0.0
 10
830.1954074445159
 20
244.059901576841
 30
0.0
  0
LINE
  5
E1
330
1F
100
AcDbEntity
  8
0
  6
Continuous
 62
     7
370
    15
100
AcDbLine
 10
828.5489847579
 20
242.858263256
 30
0.0
 11
829.2275415661
 21
241.403093485
 31
0.0
  0
LINE
  5
E2
330
1F
100
AcDbEntity
  8
0
  6
Continuous
 62
     7
370
    15
100
AcDbLine
 10
829.2275415661
 20
241.403093485
 30
0.0
 11
829.4393416051
 21
240.9488868355
 31
0.0
  0
LINE
  5
E3
330
1F
100
AcDbEntity
  8
0
  6
Continuous
 62
     7
370
    15
100
AcDbLine
 10
831.2667107977
 20
241.762484122
 30
0.0
 11
829.4393416051
 21
240.9488868355
 31
0.0
  0
LINE
  5
E4
330
1F
100
AcDbEntity
  8
0
  6
Continuous
 62
     7
370
    15
100
AcDbLine
 10
831.267367569
 20
241.7610756713
 30
0.0
 11
829.440026064
 21
240.9474190088
 31
0.0
  0
LINE
  5
E5
330
1F
100
AcDbEntity
  8
0
  6
Continuous
 62
     7
370
    15
100
AcDbLine
 10
829.4393416051
 20
240.9488868355
 30
0.0
 11
829.440026064
 21
240.9474190088
 31
0.0
  0
LINE
  5
E6
330
1F
100
AcDbEntity
  8
0
  6
Continuous
 62
     7
370
    15
100
AcDbLine
 10
832.5265601483
 20
239.0607284708
 30
0.0
 11
830.7124247092
 21
238.2187513084
 31
0.0
  0
LINE
  5
E7
330
1F
100
AcDbEntity
  8
0
  6
Continuous
 62
     7
370
    15
100
AcDbLine
 10
829.440026064
 20
240.9474190088
 30
0.0
 11
830.7124247092
 21
238.2187513084
 31
0.0
  0
LINE
  5
E8
330
1F
100
AcDbEntity
  8
0
  6
Continuous
 62
     7
370
    15
100
AcDbLine
 10
831.1850664428
 20
237.2051678398
 30
0.0
 11
831.4364579375
 21
236.6660570397
 31
0.0
  0
LINE
  5
E9
330
1F
100
AcDbEntity
  8
0
  6
Continuous
 62
     7
370
    15
100
AcDbLine
 10
830.7124247092
 20
238.2187513084
 30
0.0
 11
831.1850664428
 21
237.2051678398
 31
0.0
  0
LINE
  5
EA
330
1F
100
AcDbEntity
  8
0
  6
Continuous
 62
     7
370
    15
100
AcDbLine
 10
831.4364579375
 20
236.6660570397
 30
0.0
 11
831.8831935642
 21
235.7080293965
 31
0.0
  0
LINE
  5
EB
330
1F
100
AcDbEntity
  8
0
  6
Continuous
 62
     7
370
    15
100
AcDbLine
 10
831.8831935642
 20
235.7080293965
 30
0.0
 11
831.9197036139
 21
235.6297333423
 31
0.0
  0
LINE
  5
EC
330
1F
100
AcDbEntity
  8
0
  6
Continuous
 62
     7
370
    15
100
AcDbLine
 10
831.9197036139
 20
235.6297333423
 30
0.0
 11
831.9274919313
 21
235.6130312416
 31
0.0
  0
LINE
  5
ED
330
1F
100
AcDbEntity
  8
0
  6
Continuous
 62
     7
370
    15
100
AcDbLine
 10
792.616794992
 20
295.9881435333
 30
0.0
 11
793.2507223847
 21
294.6286818528
 31
0.0
  0
ARC
  5
EE
330
1F
100
AcDbEntity
  8
0
  6
Continuous
 62
     7
370
    15
100
AcDbCircle
 10
793.7789952118
 20
293.495797119
 30
0.0
 40
1.25000000000008
100
AcDbArc
 50
115.0
 51
205.0
  0
LINE
  5
EF
330
1F
100
AcDbEntity
  8
0
  6
Continuous
 62
     7
370
    15
100
AcDbLine
 10
792.646110478
 20
292.9675242918
 30
0.0
 11
791.2866487975
 21
292.3335968992
 31
0.0
  0
ARC
  5
F0
330
1F
100
AcDbEntity
  8
0
  6
Continuous
 62
     7
370
    15
100
AcDbCircle
 10
793.7789952118
 20
293.495797119
 30
0.0
 40
2.750000000000124
100
AcDbArc
 50
115.0
 51
205.0
  0
LINE
  5
F1
330
1F
100
AcDbEntity
  8
0
  6
Continuous
 62
     7
370
    15
100
AcDbLine
 10
828.0403898988
 20
217.0642471275
 30
0.0
 11
792.646110478
 21
292.9675242918
 31
0.0
  0
LINE
  5
F2
330
1F
100
AcDbEntity
  8
0
  6
Continuous
 62
     7
370
    15
100
AcDbLine
 10
826.6809282183
 20
216.4303197349
 30
0.0
 11
828.0403898988
 21
217.0642471275
 31
0.0
  0
LINE
  5
F3
330
1F
100
AcDbEntity
  8
0
  6
Continuous
 62
     7
370
    15
100
AcDbLine
 10
817.2225633518
 20
305.8069348758
 30
0.0
 11
816.5886359592
 21
307.1663965564
 31
0.0
  0
LINE
  5
F4
330
1F
100
AcDbEntity
  8
0
  6
Continuous
 62
     7
370
    15
100
AcDbLine
 10
793.2507223847
 20
294.6286818528
 30
0.0
 11
817.2225633518
 21
305.8069348758
 31
0.0
  0
LINE
  5
F5
330
1F
100
AcDbEntity
  8
0
  6
Continuous
 62
     7
370
    15
100
AcDbLine
 10
792.616794992
 20
295.9881435333
 30
0.0
 11
816.5886359592
 21
307.1663965564
 31
0.0
  0
LINE
  5
F6
330
1F
100
AcDbEntity
  8
0
  6
Continuous
 62
     7
370
    15
100
AcDbLine
 10
826.8531287097
 20
288.2301828753
 30
0.0
 11
828.2125903903
 21
288.864110268
 31
0.0
  0
LINE
  5
F7
330
1F
100
AcDbEntity
  8
0
  6
Continuous
 62
     7
370
    15
100
AcDbLine
 10
828.2125903903
 20
288.864110268
 30
0.0
 11
832.4387730077
 21
279.8010323976
 31
0.0
  0
LINE
  5
F8
330
1F
100
AcDbEntity
  8
0
  6
Continuous
 62
     7
370
    15
100
AcDbLine
 10
832.4387730077
 20
279.8010323976
 30
0.0
 11
831.0793113271
 21
279.167105005
 31
0.0
  0
LINE
  5
F9
330
1F
100
AcDbEntity
  8
0
  6
Continuous
 62
     7
370
    15
100
AcDbLine
 10
831.0793113271
 20
279.167105005
 30
0.0
 11
826.8531287097
 21
288.2301828753
 31
0.0
  0
LINE
  5
FA
330
1F
100
AcDbEntity
  8
0
  6
Continuous
 62
     7
370
    15
100
AcDbLine
 10
830.1534812075
 20
212.5327081923
 30
0.0
 11
828.794019527
 21
211.8987807997
 31
0.0
  0
LINE
  5
FB
330
1F
100
AcDbEntity
  8
0
  6
Continuous
 62
     7
370
    15
100
AcDbLine
 10
828.0403898988
 20
217.0642471275
 30
0.0
 11
830.1534812075
 21
212.5327081923
 31
0.0
  0
LINE
  5
FC
330
1F
100
AcDbEntity
  8
0
  6
Continuous
 62
     7
370
    15
100
AcDbLine
 10
820.3096288957
 20
305.8120658855
 30
0.0
 11
818.9501672152
 21
305.1781384929
 31
0.0
  0
LINE
  5
FD
330
1F
100
AcDbEntity
  8
0
  6
Continuous
 62
     7
370
    15
100
AcDbLine
 10
820.3096288957
 20
305.8120658855
 30
0.0
 11
828.2125903903
 21
288.864110268
 31
0.0
  0
LINE
  5
FE
330
1F
100
AcDbEntity
  8
0
  6
Continuous
 62
     7
370
    15
100
AcDbLine
 10
818.9501672152
 20
305.1781384929
 30
0.0
 11
826.8531287097
 21
288.2301828753
 31
0.0
  0
ARC
  5
FF
330
1F
100
AcDbEntity
  8
0
  6
Continuous
 62
     7
370
    15
100
AcDbCircle
 10
817.771967092
 20
304.6287347527
 30
0.0
 40
1.300000000000038
100
AcDbArc
 50
25.0
 51
115.0
  0
ARC
  5
100
330
1F
100
AcDbEntity
  8
0
  6
Continuous
 62
     7
370
    15
100
AcDbCircle
 10
817.771967092
 20
304.6287347527
 30
0.0
 40
2.800000000000058
100
AcDbArc
 50
25.0
 51
115.0
  0
LINE
  5
101
330
1F
100
AcDbEntity
  8
0
  6
Continuous
 62
     7
370
    15
100
AcDbLine
 10
114.7116211423
 20
24.2205414249
 30
0.0
 11
57.7116211423
 21
24.2205414249
 31
0.0
  0
LINE
  5
102
330
1F
100
AcDbEntity
  8
0
  6
Continuous
 62
     7
370
    15
100
AcDbLine
 10
112.7116211423
 20
18.2205414249
 30
0.0
 11
59.7116211423
 21
18.2205414249
 31
0.0
  0
LINE
  5
103
330
1F
100
AcDbEntity
  8
0
  6
Continuous
 62
     7
370
    15
100
AcDbLine
 10
691.7116211423
 20
18.2205414249
 30
0.0
 11
638.7116211423
 21
18.2205414249
 31
0.0
  0
LINE
  5
104
330
1F
100
AcDbEntity
  8
0
  6
Continuous
 62
     7
370
    15
100
AcDbLine
 10
693.7116211423
 20
24.2205414249
 30
0.0
 11
636.7116211423
 21
24.2205414249
 31
0.0
  0
LINE
  5
105
330
1F
100
AcDbEntity
  8
0
  6
Continuous
 62
     7
370
    15
100
AcDbLine
 10
710.2116211423
 20
116.2205414249
 30
0.0
 11
710.2116211423
 21
117.9205414249
 31
0.0
  0
LINE
  5
106
330
1F
100
AcDbEntity
  8
0
  6
Continuous
 62
     7
370
    15
100
AcDbLine
 10
620.2116211423
 20
116.2205414249
 30
0.0
 11
710.2116211423
 21
116.2205414249
 31
0.0
  0
LINE
  5
107
330
1F
100
AcDbEntity
  8
0
  6
Continuous
 62
     7
370
    15
100
AcDbLine
 10
620.2116211423
 20
116.2205414249
 30
0.0
 11
620.2116211423
 21
117.9205414249
 31
0.0
  0
LINE
  5
108
330
1F
100
AcDbEntity
  8
0
  6
Continuous
 62
     7
370
    15
100
AcDbLine
 10
696.1712713627
 20
53.2205414249
 30
0.0
 11
634.251970922
 21
53.2205414249
 31
0.0
  0
LINE
  5
109
330
1F
100
AcDbEntity
  8
0
  6
Continuous
 62
     7
370
    15
100
AcDbLine
 10
131.2116211423
 20
116.2205414249
 30
0.0
 11
131.2116211423
 21
117.9205414249
 31
0.0
  0
LINE
  5
10A
330
1F
100
AcDbEntity
  8
0
  6
Continuous
 62
     7
370
    15
100
AcDbLine
 10
41.2116211423
 20
116.2205414249
 30
0.0
 11
41.2116211423
 21
117.9205414249
 31
0.0
  0
LINE
  5
10B
330
1F
100
AcDbEntity
  8
0
  6
Continuous
 62
     7
370
    15
100
AcDbLine
 10
41.2116211423
 20
116.2205414249
 30
0.0
 11
131.2116211423
 21
116.2205414249
 31
0.0
  0
LINE
  5
10C
330
1F
100
AcDbEntity
  8
0
  6
Continuous
 62
     7
370
    15
100
AcDbLine
 10
117.1712713627
 20
53.2205414249
 30
0.0
 11
55.251970922
 21
53.2205414249
 31
0.0
  0
LINE
  5
10D
330
1F
100
AcDbEntity
  8
0
  6
Continuous
 62
     7
370
    15
100
AcDbLine
 10
798.1889327794
 20
285.3400663571
 30
0.0
 11
795.4000838119
 21
291.3207722681
 31
0.0
  0
LINE
  5
10E
330
1F
100
AcDbEntity
  8
0
  6
Continuous
 62
     7
370
    15
100
AcDbLine
 10
799.598387437
 20
282.3174810896
 30
0.0
 11
798.1889327794
 21
285.3400663571
 31
0.0
  0
LINE
  5
10F
330
1F
100
AcDbEntity
  8
0
  6
Continuous
 62
     7
370
    15
100
AcDbLine
 10
797.2274017102
 20
285.6708301559
 30
0.0
 11
794.0308436379
 21
292.5258710637
 31
0.0
  0
LINE
  5
110
330
1F
100
AcDbEntity
  8
0
  6
Continuous
 62
     7
370
    15
100
AcDbLine
 10
798.7950828802
 20
282.3089270376
 30
0.0
 11
797.2274017102
 21
285.6708301559
 31
0.0
  0
SPLINE
  5
111
330
1F
100
AcDbEntity
  8
0
  6
Continuous
 62
     7
370
    15
100
AcDbSpline
210
0.0
220
0.0
230
1.0
 70
    24
 71
     3
 72
    15
 73
    11
 74
     0
 42
0.00000001
 43
0.00000001
 12
1.0
 22
0.0
 32
0.0
 13
1.0
 23
0.0
 33
0.0
 40
0.0
 40
0.0
 40
0.0
 40
0.0
 40
0.0296235679755185
 40
0.2170954265870724
 40
0.4045672851986251
 40
0.5054866721529399
 40
0.6085477132935341
 40
0.7116087544341319
 40
0.8125281413884475
 40
1.0
 40
1.0
 40
1.0
 40
1.0
 10
815.4337850790337
 20
282.6682842130176
 30
0.0
 10
815.4361552194841
 20
282.6632014304191
 30
0.0
 10
815.4535247224615
 20
282.6259524110785
 30
0.0
 10
815.2853823589146
 20
282.9865348733351
 30
0.0
 10
814.9004742173563
 20
283.8119730466677
 30
0.0
 10
814.4686436105841
 20
284.7380367713782
 30
0.0
 10
814.0849428857856
 20
285.5608856311134
 30
0.0
 10
813.6716529560997
 20
286.4471887455019
 30
0.0
 10
813.1254662962637
 20
287.6184898174097
 30
0.0
 10
812.7443136285344
 20
288.435874351126
 30
0.0
 10
812.4965412008598
 20
288.9672240369857
 30
0.0
  0
ARC
  5
112
330
1F
100
AcDbEntity
  8
0
  6
Continuous
 62
     7
370
    15
100
AcDbCircle
 10
713.1906312546
 20
400.5796326231
 30
0.0
 40
3.0
100
AcDbArc
 50
9.570608933
 51
58.0353615758
  0
LINE
  5
113
330
1F
100
AcDbEntity
  8
0
  6
Continuous
 62
     7
370
    15
100
AcDbLine
 10
713.7847927214
 20
403.5202060624
 30
0.0
 11
712.843251824
 21
403.7104503571
 31
0.0
  0
SPLINE
  5
114
330
1F
100
AcDbEntity
  8
0
  6
Continuous
 62
     7
370
    15
100
AcDbSpline
210
0.0
220
0.0
230
1.0
 70
     8
 71
     3
 72
     9
 73
     5
 74
     0
 42
0.00000001
 43
0.00000001
 12
1.0
 22
0.0
 32
0.0
 13
1.0
 23
0.0
 33
0.0
 40
0.0
 40
0.0
 40
0.0
 40
0.0
 40
0.4924989625588302
 40
1.0
 40
1.0
 40
1.0
 40
1.0
 10
714.778818560009
 20
403.1247575872483
 30
0.0
 10
714.6242752286369
 20
403.2118464645549
 30
0.0
 10
714.3104810013979
 20
403.3886770447744
 30
0.0
 10
713.9617659644025
 20
403.475926747638
 30
0.0
 10
713.7847927213561
 20
403.5202060623578
 30
0.0
  0
LINE
  5
115
330
1F
100
AcDbEntity
  8
0
  6
Continuous
 62
     7
370
    15
100
AcDbLine
 10
712.843251824
 20
403.7104503571
 30
0.0
 11
681.8318109269
 21
409.9765081769
 31
0.0
  0
SPLINE
  5
116
330
1F
100
AcDbEntity
  8
0
  6
Continuous
 62
     7
370
    15
100
AcDbSpline
210
0.0
220
0.0
230
1.0
 70
     8
 71
     3
 72
    11
 73
     7
 74
     0
 42
0.00000001
 43
0.00000001
 12
1.0
 22
0.0
 32
0.0
 13
1.0
 23
0.0
 33
0.0
 40
0.0
 40
0.0
 40
0.0
 40
0.0
 40
0.9419996254543428
 40
0.9688842052180356
 40
0.995924624871123
 40
1.0
 40
1.0
 40
1.0
 40
1.0
 10
680.6768651275299
 20
410.2098722821817
 30
0.0
 10
680.5292475503117
 20
410.2334295342357
 30
0.0
 10
680.3774169814723
 20
410.2576591080241
 30
0.0
 10
680.2431494294925
 20
410.2650106345596
 30
0.0
 10
680.2354429112797
 20
410.2654096574078
 30
0.0
 10
680.2331127768309
 20
410.2655258129694
 30
0.0
 10
680.2328075886766
 20
410.2655410263841
 30
0.0
  0
LINE
  5
117
330
1F
100
AcDbEntity
  8
0
  6
Continuous
 62
     7
370
    15
100
AcDbLine
 10
680.6768651915
 20
410.2098722693
 30
0.0
 11
681.8318109269
 21
409.9765081769
 31
0.0
  0
LINE
  5
118
330
1F
100
AcDbEntity
  8
0
  6
Continuous
 62
     7
370
    15
100
AcDbLine
 10
814.8156371601
 20
117.120541425
 30
0.0
 11
814.8156371601
 21
117.920541425
 31
0.0
  0
LINE
  5
119
330
1F
100
AcDbEntity
  8
0
  6
Continuous
 62
     7
370
    15
100
AcDbLine
 10
756.1863397682
 20
117.920541425
 30
0.0
 11
756.1863397682
 21
117.120541425
 31
0.0
  0
LINE
  5
11A
330
1F
100
AcDbEntity
  8
0
  6
Continuous
 62
     7
370
    15
100
AcDbLine
 10
756.1863397682
 20
117.920541425
 30
0.0
 11
814.8156371601
 21
117.920541425
 31
0.0
  0
LINE
  5
11B
330
1F
100
AcDbEntity
  8
0
  6
Continuous
 62
     7
370
    15
100
AcDbLine
 10
756.1863397682
 20
117.120541425
 30
0.0
 11
814.8156371601
 21
117.120541425
 31
0.0
  0
LINE
  5
11C
330
1F
100
AcDbEntity
  8
0
  6
Continuous
 62
     7
370
    15
100
AcDbLine
 10
789.3076901244
 20
296.577487469
 30
0.0
 11
788.5826438948
 21
296.2393928596
 31
0.0
  0
LINE
  5
11D
330
1F
100
AcDbEntity
  8
0
  6
Continuous
 62
     7
370
    15
100
AcDbLine
 10
789.5742074216
 20
298.9636912596
 30
0.0
 11
789.912302031
 21
298.23864503
 31
0.0
  0
ARC
  5
11E
330
1F
100
AcDbEntity
  8
0
  6
Continuous
 62
     7
370
    15
100
AcDbCircle
 10
790.4405748582
 20
297.1057602962
 30
0.0
 40
2.050000000000057
100
AcDbArc
 50
115.0
 51
205.0
  0
ARC
  5
11F
330
1F
100
AcDbEntity
  8
0
  6
Continuous
 62
     7
370
    15
100
AcDbCircle
 10
790.4405748582
 20
297.1057602962
 30
0.0
 40
1.250000000000104
100
AcDbArc
 50
115.0
 51
205.0
  0
LINE
  5
120
330
1F
100
AcDbEntity
  8
0
  6
Continuous
 62
     7
370
    15
100
AcDbLine
 10
802.5552956602
 20
304.1341697813
 30
0.0
 11
802.2172010508
 21
304.8592160109
 31
0.0
  0
LINE
  5
121
330
1F
100
AcDbEntity
  8
0
  6
Continuous
 62
     7
370
    15
100
AcDbLine
 10
804.0298166249
 20
305.7044525344
 30
0.0
 11
804.3679112343
 21
304.9794063047
 31
0.0
  0
LINE
  5
122
330
1F
100
AcDbEntity
  8
0
  6
Continuous
 62
     7
370
    15
100
AcDbLine
 10
804.3679112343
 20
304.9794063047
 30
0.0
 11
802.5552956602
 21
304.1341697813
 31
0.0
  0
LINE
  5
123
330
1F
100
AcDbEntity
  8
0
  6
Continuous
 62
     7
370
    15
100
AcDbLine
 10
802.2172010508
 20
304.8592160109
 30
0.0
 11
804.0298166249
 21
305.7044525344
 31
0.0
  0
LINE
  5
124
330
1F
100
AcDbEntity
  8
0
  6
Continuous
 62
     7
370
    15
100
AcDbLine
 10
789.912302031
 20
298.23864503
 30
0.0
 11
802.5552956602
 21
304.1341697813
 31
0.0
  0
LINE
  5
125
330
1F
100
AcDbEntity
  8
0
  6
Continuous
 62
     7
370
    15
100
AcDbLine
 10
789.5742074216
 20
298.9636912596
 30
0.0
 11
802.2172010508
 21
304.8592160109
 31
0.0
  0
LINE
  5
126
330
1F
100
AcDbEntity
  8
0
  6
Continuous
 62
     7
370
    15
100
AcDbLine
 10
845.2145597505
 20
167.5562641981
 30
0.0
 11
844.4895135209
 21
167.8943588075
 31
0.0
  0
LINE
  5
127
330
1F
100
AcDbEntity
  8
0
  6
Continuous
 62
     7
370
    15
100
AcDbLine
 10
844.4895135209
 20
176.3467240424
 30
0.0
 11
845.2145597505
 21
176.6848186517
 31
0.0
  0
ARC
  5
128
330
1F
100
AcDbEntity
  8
0
  6
Continuous
 62
     7
370
    15
100
AcDbCircle
 10
835.4264356505
 20
172.1205414249
 30
0.0
 40
9.99999999999999
100
AcDbArc
 50
335.0
 51
25.0
  0
ARC
  5
129
330
1F
100
AcDbEntity
  8
0
  6
Continuous
 62
     7
370
    15
100
AcDbCircle
 10
835.4264356505
 20
172.1205414249
 30
0.0
 40
10.79999999999992
100
AcDbArc
 50
335.0
 51
25.0
  0
LINE
  5
12A
330
1F
100
AcDbEntity
  8
0
  6
Continuous
 62
     7
370
    15
100
AcDbLine
 10
844.4895135209
 20
176.3467240424
 30
0.0
 11
788.5826438948
 21
296.2393928596
 31
0.0
  0
LINE
  5
12B
330
1F
100
AcDbEntity
  8
0
  6
Continuous
 62
     7
370
    15
100
AcDbLine
 10
845.2145597505
 20
176.6848186517
 30
0.0
 11
789.3076901244
 21
296.577487469
 31
0.0
  0
LINE
  5
12C
330
1F
100
AcDbEntity
  8
0
  6
Continuous
 62
     7
370
    15
100
AcDbLine
 10
754.1863397682
 20
117.120541425
 30
0.0
 11
754.1863397682
 21
117.920541425
 31
0.0
  0
LINE
  5
12D
330
1F
100
AcDbEntity
  8
0
  6
Continuous
 62
     7
370
    15
100
AcDbLine
 10
754.1863397682
 20
117.920541425
 30
0.0
 11
756.1863397682
 21
117.920541425
 31
0.0
  0
LINE
  5
12E
330
1F
100
AcDbEntity
  8
0
  6
Continuous
 62
     7
370
    15
100
AcDbLine
 10
756.1863397682
 20
117.120541425
 30
0.0
 11
754.1863397682
 21
117.120541425
 31
0.0
  0
LINE
  5
12F
330
1F
100
AcDbEntity
  8
0
  6
Continuous
 62
     7
370
    15
100
AcDbLine
 10
823.8787150304
 20
123.6943588075
 30
0.0
 11
824.6037612601
 21
123.3562641982
 31
0.0
  0
ARC
  5
130
330
1F
100
AcDbEntity
  8
0
  6
Continuous
 62
     7
370
    15
100
AcDbCircle
 10
814.8156371601
 20
127.920541425
 30
0.0
 40
9.999999999999986
100
AcDbArc
 50
270.0
 51
335.0
  0
ARC
  5
131
330
1F
100
AcDbEntity
  8
0
  6
Continuous
 62
     7
370
    15
100
AcDbCircle
 10
814.8156371601
 20
127.920541425
 30
0.0
 40
10.80000000000001
100
AcDbArc
 50
270.0
 51
335.0
  0
LINE
  5
132
330
1F
100
AcDbEntity
  8
0
  6
Continuous
 62
     7
370
    15
100
AcDbLine
 10
823.8787150304
 20
123.6943588075
 30
0.0
 11
844.4895135209
 21
167.8943588075
 31
0.0
  0
LINE
  5
133
330
1F
100
AcDbEntity
  8
0
  6
Continuous
 62
     7
370
    15
100
AcDbLine
 10
824.6037612601
 20
123.3562641982
 30
0.0
 11
845.2145597505
 21
167.5562641981
 31
0.0
  0
ARC
  5
134
330
1F
100
AcDbEntity
  8
0
  6
Continuous
 62
     7
370
    15
100
AcDbCircle
 10
26.6519194774
 20
372.5874085217
 30
0.0
 40
3.500000000000014
100
AcDbArc
 50
214.849904579
 51
236.6604895165
  0
LINE
  5
135
330
1F
100
AcDbEntity
  8
0
  6
Continuous
 62
     7
370
    15
100
AcDbLine
 10
718.1519194774
 20
370.5874085217
 30
0.0
 11
718.1519194774
 21
400.5874085217
 31
0.0
  0
LINE
  5
136
330
1F
100
AcDbEntity
  8
0
  6
Continuous
 62
     7
370
    15
100
AcDbLine
 10
24.6519194774
 20
370.5874085217
 30
0.0
 11
718.1519194774
 21
370.5874085217
 31
0.0
  0
LINE
  5
137
330
1F
100
AcDbEntity
  8
0
  6
Continuous
 62
     7
370
    15
100
AcDbLine
 10
24.6519194774
 20
570.5874085217
 30
0.0
 11
24.6519194774
 21
370.5874085217
 31
0.0
  0
LINE
  5
138
330
1F
100
AcDbEntity
  8
0
  6
Continuous
 62
     7
370
    15
100
AcDbLine
 10
718.1519194774
 20
400.5874085217
 30
0.0
 11
24.6519194774
 21
570.5874085217
 31
0.0
  0
LINE
  5
139
330
1F
100
AcDbEntity
  8
0
  6
Continuous
 62
     7
370
    15
100
AcDbLine
 10
718.1519194774
 20
400.5874085217
 30
0.0
 11
721.6519194774
 21
400.5874085217
 31
0.0
  0
LINE
  5
13A
330
1F
100
AcDbEntity
  8
0
  6
Continuous
 62
     7
370
    15
100
AcDbLine
 10
721.6519194774
 20
369.1581191998
 30
0.0
 11
721.6519194774
 21
400.5874085217
 31
0.0
  0
SPLINE
  5
13B
330
1F
100
AcDbEntity
  8
0
  6
Continuous
 62
     7
370
    15
100
AcDbSpline
210
0.0
220
0.0
230
1.0
 70
     8
 71
     3
 72
    13
 73
     9
 74
     0
 42
0.00000001
 43
0.00000001
 12
1.0
 22
0.0
 32
0.0
 13
1.0
 23
0.0
 33
0.0
 40
0.0
 40
0.0
 40
0.0
 40
0.0
 40
0.144641088682653
 40
0.2829375222431847
 40
0.4154710129735953
 40
0.5429032421340999
 40
0.7331646040871024
 40
1.0
 40
1.0
 40
1.0
 40
1.0
 10
721.651919477424
 20
369.1581191997905
 30
0.0
 10
721.6330790718677
 20
369.1713256466347
 30
0.0
 10
721.5962246917278
 20
369.1971592419275
 30
0.0
 10
721.3153459439809
 20
369.2958913164451
 30
0.0
 10
720.9146909670943
 20
369.4380711634698
 30
0.0
 10
720.3316225198087
 20
369.66290952486
 30
0.0
 10
719.429561758837
 20
370.051954264779
 30
0.0
 10
718.6228478402774
 20
370.3900445174824
 30
0.0
 10
718.1519194774239
 20
370.5874085216717
 30
0.0
  0
SPLINE
  5
13C
330
1F
100
AcDbEntity
  8
0
  6
Continuous
 62
     7
370
    15
100
AcDbSpline
210
0.0
220
0.0
230
1.0
 70
     8
 71
     3
 72
    13
 73
     9
 74
     0
 42
0.00000001
 43
0.00000001
 12
1.0
 22
0.0
 32
0.0
 13
1.0
 23
0.0
 33
0.0
 40
0.0
 40
0.0
 40
0.0
 40
0.0
 40
0.1264704779943868
 40
0.2503760816984294
 40
0.3742089693253726
 40
0.5004663812862846
 40
0.7030662070784407
 40
0.9999999999999999
 40
0.9999999999999999
 40
0.9999999999999999
 40
0.9999999999999999
 10
719.651919477424
 20
369.1581191997905
 30
0.0
 10
719.643677564314
 20
369.1714608622231
 30
0.0
 10
719.6273608875458
 20
369.1978736125833
 30
0.0
 10
719.5046021714936
 20
369.2983557158579
 30
0.0
 10
719.3302490076329
 20
369.4429258716543
 30
0.0
 10
719.0750281309479
 20
369.6734675389056
 30
0.0
 10
718.6892168394994
 20
370.0623828428578
 30
0.0
 10
718.352231180473
 20
370.3916718676493
 30
0.0
 10
718.1519194774239
 20
370.5874085216717
 30
0.0
  0
LWPOLYLINE
  5
13D
330
1F
100
AcDbEntity
  8
0
  6
Continuous
 62
     7
370
    15
100
AcDbPolyline
 90
        2
 70
   128
 43
0.0
 10
718.1519194774
 20
370.5874085217
 10
718.1519194774
 20
370.5874085217
  0
LINE
  5
13E
330
1F
100
AcDbEntity
  8
0
  6
Continuous
 62
     7
370
    15
100
AcDbLine
 10
721.6519194774
 20
369.1581191998
 30
0.0
 11
719.6519194774
 21
369.1581191998
 31
0.0
  0
SPLINE
  5
13F
330
1F
100
AcDbEntity
  8
0
  6
Continuous
 62
     7
370
    15
100
AcDbSpline
210
0.0
220
0.0
230
1.0
 70
     8
 71
     3
 72
    12
 73
     8
 74
     0
 42
0.00000001
 43
0.00000001
 12
1.0
 22
0.0
 32
0.0
 13
1.0
 23
0.0
 33
0.0
 40
0.0
 40
0.0
 40
0.0
 40
0.0
 40
0.3400873344679027
 40
0.559663645088958
 40
0.7367088161246712
 40
0.9144461283928895
 40
1.0
 40
1.0
 40
1.0
 40
1.0
 10
718.1519194774239
 20
370.5874085216716
 30
0.0
 10
718.3763453861422
 20
370.3584206438377
 30
0.0
 10
718.7456711721853
 20
369.9815874677645
 30
0.0
 10
719.190670926562
 20
369.5354663560941
 30
0.0
 10
719.4365126144124
 20
369.2406494576413
 30
0.0
 10
719.548199573914
 20
369.1032241996894
 30
0.0
 10
719.5731133225697
 20
369.0912872995568
 30
0.0
 10
719.5812087993052
 20
369.0874085216716
 30
0.0
  0
LINE
  5
140
330
1F
100
AcDbEntity
  8
0
  6
Continuous
 62
     7
370
    15
100
AcDbLine
 10
719.5812087993
 20
367.0874085217
 30
0.0
 11
719.5812087993
 21
369.0874085217
 31
0.0
  0
SPLINE
  5
141
330
1F
100
AcDbEntity
  8
0
  6
Continuous
 62
     7
370
    15
100
AcDbSpline
210
0.0
220
0.0
230
1.0
 70
     8
 71
     3
 72
    12
 73
     8
 74
     0
 42
0.00000001
 43
0.00000001
 12
1.0
 22
0.0
 32
0.0
 13
1.0
 23
0.0
 33
0.0
 40
0.0
 40
0.0
 40
0.0
 40
0.0
 40
0.2416887956442348
 40
0.4825023921176722
 40
0.7084274265925118
 40
0.9128277112046111
 40
1.0
 40
1.0
 40
1.0
 40
1.0
 10
718.1519194774239
 20
370.5874085216716
 30
0.0
 10
718.3300766933385
 20
370.1624939092305
 30
0.0
 10
718.685745985424
 20
369.3142033775902
 30
0.0
 10
719.1630022461542
 20
368.2099226851979
 30
0.0
 10
719.4408585616725
 20
367.4325699012978
 30
0.0
 10
719.5508513045827
 20
367.1184736054366
 30
0.0
 10
719.5742216885583
 20
367.0945584918064
 30
0.0
 10
719.5812087993052
 20
367.0874085216716
 30
0.0
  0
SPLINE
  5
142
330
1F
100
AcDbEntity
  8
0
  6
Continuous
 62
     7
370
    15
100
AcDbSpline
210
0.0
220
0.0
230
1.0
 70
     8
 71
     3
 72
    11
 73
     7
 74
     0
 42
0.00000001
 43
0.00000001
 12
1.0
 22
0.0
 32
0.0
 13
1.0
 23
0.0
 33
0.0
 40
0.0
 40
0.0
 40
0.0
 40
0.0
 40
0.2499999999999988
 40
0.4999999999999972
 40
0.7499999999999958
 40
1.0
 40
1.0
 40
1.0
 40
1.0
 10
25.35902625861047
 20
367.0874085216716
 30
0.0
 10
25.30010069351146
 20
367.1400190264274
 30
0.0
 10
25.182249563314
 20
367.2452400359386
 30
0.0
 10
25.00547286801719
 20
368.0546122818669
 30
0.0
 10
24.82869617272038
 20
369.2115195617064
 30
0.0
 10
24.71084504252269
 20
370.1287788683499
 30
0.0
 10
24.6519194774239
 20
370.5874085216718
 30
0.0
  0
LINE
  5
143
330
1F
100
AcDbEntity
  8
0
  6
Continuous
 62
     7
370
    15
100
AcDbLine
 10
21.1519194774
 20
570.5874085217
 30
0.0
 11
24.6519194774
 21
570.5874085217
 31
0.0
  0
LINE
  5
144
330
1F
100
AcDbEntity
  8
0
  6
Continuous
 62
     7
370
    15
100
AcDbLine
 10
24.6519194774
 20
370.5874085217
 30
0.0
 11
21.1519194774
 21
370.5874085217
 31
0.0
  0
LINE
  5
145
330
1F
100
AcDbEntity
  8
0
  6
Continuous
 62
     7
370
    15
100
AcDbLine
 10
21.1519194774
 20
380.4636642288
 30
0.0
 11
21.1519194774
 21
570.5874085217
 31
0.0
  0
SPLINE
  5
146
330
1F
100
AcDbEntity
  8
0
  6
Continuous
 62
     7
370
    15
100
AcDbSpline
210
0.0
220
0.0
230
1.0
 70
     8
 71
     3
 72
    12
 73
     8
 74
     0
 42
0.00000001
 43
0.00000001
 12
1.0
 22
0.0
 32
0.0
 13
1.0
 23
0.0
 33
0.0
 40
0.0
 40
0.0
 40
0.0
 40
0.0
 40
0.2242829316483431
 40
0.4485658503777127
 40
0.6727831784753016
 40
0.8970002579183302
 40
1.0
 40
1.0
 40
1.0
 40
1.0
 10
23.15191947742396
 20
370.5874085216718
 30
0.0
 10
23.17002968594856
 20
370.4112357064192
 30
0.0
 10
23.20625010195426
 20
370.058890086062
 30
0.0
 10
23.48776860074314
 20
369.5948324826435
 30
0.0
 10
23.8987458420023
 20
369.2550310218954
 30
0.0
 10
24.31542519308555
 20
369.103849421984
 30
0.0
 10
24.57135813360162
 20
369.0913446985534
 30
0.0
 10
24.65191947742401
 20
369.0874085216718
 30
0.0
  0
LINE
  5
147
330
1F
100
AcDbEntity
  8
0
  6
Continuous
 62
     7
370
    15
100
AcDbLine
 10
24.6519194774
 20
367.0874085217
 30
0.0
 11
24.6519194774
 21
369.0874085217
 31
0.0
  0
SPLINE
  5
148
330
1F
100
AcDbEntity
  8
0
  6
Continuous
 62
     7
370
    15
100
AcDbSpline
210
0.0
220
0.0
230
1.0
 70
     8
 71
     3
 72
    12
 73
     8
 74
     0
 42
0.00000001
 43
0.00000001
 12
1.0
 22
0.0
 32
0.0
 13
1.0
 23
0.0
 33
0.0
 40
0.0
 40
0.0
 40
0.0
 40
0.0
 40
0.1846098780640743
 40
0.4010403449957569
 40
0.6174740344697413
 40
0.8339076852805841
 40
1.0
 40
1.0
 40
1.0
 40
1.0
 10
21.15191947742406
 20
370.5874085216718
 30
0.0
 10
21.18064764953348
 20
370.2495195680143
 30
0.0
 10
21.24305577294822
 20
369.5155008688737
 30
0.0
 10
21.77316437515114
 20
368.4841803565078
 30
0.0
 10
22.63372415272363
 20
367.6481666621062
 30
0.0
 10
23.6485641956094
 20
367.1644940368957
 30
0.0
 10
24.34815708517063
 20
367.1107458987075
 30
0.0
 10
24.65191947742401
 20
367.0874085216718
 30
0.0
  0
LINE
  5
149
330
1F
100
AcDbEntity
  8
0
  6
Continuous
 62
     7
370
    15
100
AcDbLine
 10
24.6519194774
 20
369.0874085217
 30
0.0
 11
24.8537003173
 21
369.0874085217
 31
0.0
  0
LINE
  5
14A
330
1F
100
AcDbEntity
  8
0
  6
Continuous
 62
     7
370
    15
100
AcDbLine
 10
591.4116211423
 20
111.4205414249
 30
0.0
 11
571.4116211423
 21
111.4205414249
 31
0.0
  0
LINE
  5
14B
330
1F
100
AcDbEntity
  8
0
  6
Continuous
 62
     7
370
    15
100
AcDbLine
 10
552.4116211423
 20
111.4205414249
 30
0.0
 11
532.4116211423
 21
111.4205414249
 31
0.0
  0
LINE
  5
14C
330
1F
100
AcDbEntity
  8
0
  6
Continuous
 62
     7
370
    15
100
AcDbLine
 10
513.4116211423
 20
111.4205414249
 30
0.0
 11
493.4116211423
 21
111.4205414249
 31
0.0
  0
LINE
  5
14D
330
1F
100
AcDbEntity
  8
0
  6
Continuous
 62
     7
370
    15
100
AcDbLine
 10
474.4116211423
 20
111.4205414249
 30
0.0
 11
454.4116211423
 21
111.4205414249
 31
0.0
  0
LINE
  5
14E
330
1F
100
AcDbEntity
  8
0
  6
Continuous
 62
     7
370
    15
100
AcDbLine
 10
435.4116211423
 20
111.4205414249
 30
0.0
 11
415.4116211423
 21
111.4205414249
 31
0.0
  0
LINE
  5
14F
330
1F
100
AcDbEntity
  8
0
  6
Continuous
 62
     7
370
    15
100
AcDbLine
 10
396.4116211423
 20
111.4205414249
 30
0.0
 11
376.4116211423
 21
111.4205414249
 31
0.0
  0
LINE
  5
150
330
1F
100
AcDbEntity
  8
0
  6
Continuous
 62
     7
370
    15
100
AcDbLine
 10
318.4116211423
 20
111.4205414249
 30
0.0
 11
298.4116211423
 21
111.4205414249
 31
0.0
  0
LINE
  5
151
330
1F
100
AcDbEntity
  8
0
  6
Continuous
 62
     7
370
    15
100
AcDbLine
 10
279.4116211423
 20
111.4205414249
 30
0.0
 11
259.4116211423
 21
111.4205414249
 31
0.0
  0
LINE
  5
152
330
1F
100
AcDbEntity
  8
0
  6
Continuous
 62
     7
370
    15
100
AcDbLine
 10
240.4116211423
 20
111.4205414249
 30
0.0
 11
220.4116211423
 21
111.4205414249
 31
0.0
  0
LINE
  5
153
330
1F
100
AcDbEntity
  8
0
  6
Continuous
 62
     7
370
    15
100
AcDbLine
 10
201.4116211423
 20
111.4205414249
 30
0.0
 11
181.4116211423
 21
111.4205414249
 31
0.0
  0
LINE
  5
154
330
1F
100
AcDbEntity
  8
0
  6
Continuous
 62
     7
370
    15
100
AcDbLine
 10
162.4116211423
 20
111.4205414249
 30
0.0
 11
142.4116211423
 21
111.4205414249
 31
0.0
  0
LINE
  5
155
330
1F
100
AcDbEntity
  8
0
  6
Continuous
 62
     7
370
    15
100
AcDbLine
 10
765.1275021293
 20
90.6205414249
 30
0.0
 11
763.9482128074
 21
90.6205414249
 31
0.0
  0
SPLINE
  5
156
330
1F
100
AcDbEntity
  8
0
  6
Continuous
 62
     7
370
    15
100
AcDbSpline
210
0.0
220
0.0
230
1.0
 70
     8
 71
     3
 72
    16
 73
    12
 74
     0
 42
0.00000001
 43
0.00000001
 12
1.0
 22
0.0
 32
0.0
 13
1.0
 23
0.0
 33
0.0
 40
0.0
 40
0.0
 40
0.0
 40
0.0
 40
0.1188166661551214
 40
0.2329028491979914
 40
0.3441244527696726
 40
0.4553344217476885
 40
0.5683010983113342
 40
0.6831507323135575
 40
0.799235385445767
 40
0.9271679227069634
 40
1.0
 40
1.0
 40
1.0
 40
1.0
 10
763.948212807417
 20
90.62054142494786
 30
0.0
 10
761.1872609661115
 20
90.64022810739527
 30
0.0
 10
755.7752798766995
 20
90.6788176805724
 30
0.0
 10
747.777638925542
 20
90.60729608549381
 30
0.0
 10
739.9695509818537
 20
89.93742948250483
 30
0.0
 10
732.3405202542729
 20
88.24240168882721
 30
0.0
 10
724.8585045455162
 20
85.74921326585563
 30
0.0
 10
717.4510272838774
 20
82.74298695375964
 30
0.0
 10
709.8100280664678
 20
79.40524182218518
 30
0.0
 10
703.0815732943956
 20
76.40484078719537
 30
0.0
 10
698.7008363248575
 20
74.79758230012584
 30
0.0
 10
697.1116211423199
 20
74.21451155023273
 30
0.0
  0
LINE
  5
157
330
1F
100
AcDbEntity
  8
0
  6
Continuous
 62
     7
370
    15
100
AcDbLine
 10
765.1275021293
 20
109.1205414249
 30
0.0
 11
765.1275021293
 21
90.6205414249
 31
0.0
  0
LINE
  5
158
330
1F
100
AcDbEntity
  8
0
  6
Continuous
 62
     7
370
    15
100
AcDbLine
 10
697.1116211423
 20
111.4205414249
 30
0.0
 11
763.9482128074
 21
111.4205414249
 31
0.0
  0
SPLINE
  5
159
330
1F
100
AcDbEntity
  8
0
  6
Continuous
 62
     7
370
    15
100
AcDbSpline
210
0.0
220
0.0
230
1.0
 70
     8
 71
     3
 72
    11
 73
     7
 74
     0
 42
0.00000001
 43
0.00000001
 12
1.0
 22
0.0
 32
0.0
 13
1.0
 23
0.0
 33
0.0
 40
0.0
 40
0.0
 40
0.0
 40
0.0
 40
0.2500000000000054
 40
0.499999999999999
 40
0.749999999999995
 40
1.0
 40
1.0
 40
1.0
 40
1.0
 10
765.1275021292983
 20
109.1205414249469
 30
0.0
 10
765.0292280191414
 20
109.4219266257013
 30
0.0
 10
764.8326797988278
 20
110.0246970272101
 30
0.0
 10
764.5378574683575
 20
110.7849503825331
 30
0.0
 10
764.2430351378873
 20
111.3168235727147
 30
0.0
 10
764.0464869175736
 20
111.3859688075364
 30
0.0
 10
763.9482128074169
 20
111.4205414249473
 30
0.0
  0
LINE
  5
15A
330
1F
100
AcDbEntity
  8
0
  6
Continuous
 62
     7
370
    15
100
AcDbLine
 10
765.1982128074
 20
109.3705414249
 30
0.0
 11
765.9982128074
 21
109.3705414249
 31
0.0
  0
SPLINE
  5
15B
330
1F
100
AcDbEntity
  8
0
  6
Continuous
 62
     7
370
    15
100
AcDbSpline
210
0.0
220
0.0
230
1.0
 70
     8
 71
     3
 72
    10
 73
     6
 74
     0
 42
0.00000001
 43
0.00000001
 12
1.0
 22
0.0
 32
0.0
 13
1.0
 23
0.0
 33
0.0
 40
0.0
 40
0.0
 40
0.0
 40
0.0
 40
0.1784539940062335
 40
0.6297202906285895
 40
1.0
 40
1.0
 40
1.0
 40
1.0
 10
764.6994460103323
 20
110.3379182694772
 30
0.0
 10
764.756508735991
 20
110.3015535296961
 30
0.0
 10
764.9578690719472
 20
110.1732312994702
 30
0.0
 10
765.1498823984136
 20
109.8174817176143
 30
0.0
 10
765.1831973822849
 20
109.5093980711343
 30
0.0
 10
765.198212807417
 20
109.3705414249472
 30
0.0
  0
SPLINE
  5
15C
330
1F
100
AcDbEntity
  8
0
  6
Continuous
 62
     7
370
    15
100
AcDbSpline
210
0.0
220
0.0
230
1.0
 70
     8
 71
     3
 72
    12
 73
     8
 74
     0
 42
0.00000001
 43
0.00000001
 12
1.0
 22
0.0
 32
0.0
 13
1.0
 23
0.0
 33
0.0
 40
0.0
 40
0.0
 40
0.0
 40
0.0
 40
0.2332023354250272
 40
0.4665075036984166
 40
0.6998131969131743
 40
0.933118835765108
 40
1.0
 40
1.0
 40
1.0
 40
1.0
 10
763.9482128074169
 20
111.4205414249472
 30
0.0
 10
764.198540106709
 20
111.3937673603333
 30
0.0
 10
764.6993050895617
 20
111.34020742482
 30
0.0
 10
765.3513408705419
 20
110.9251032384419
 30
0.0
 10
765.8146731979687
 20
110.3235522452046
 30
0.0
 10
765.98548636145
 20
109.7626904908084
 30
0.0
 10
765.995894001096
 20
109.4419924596692
 30
0.0
 10
765.9982128074168
 20
109.3705414249472
 30
0.0
  0
LINE
  5
15D
330
1F
100
AcDbEntity
  8
0
  6
Continuous
 62
     7
370
    15
100
AcDbLine
 10
765.9982128074
 20
109.3705414249
 30
0.0
 11
765.9982128074
 21
109.2501814127
 31
0.0
  0
LINE
  5
15E
330
1F
100
AcDbEntity
  8
0
  6
Continuous
 62
     7
370
    15
100
AcDbLine
 10
765.9982128074
 20
109.2501814127
 30
0.0
 11
765.1982128074
 21
109.2501814127
 31
0.0
  0
LINE
  5
15F
330
1F
100
AcDbEntity
  8
0
  6
Continuous
 62
     7
370
    15
100
AcDbLine
 10
765.1982128074
 20
109.3705414249
 30
0.0
 11
765.1982128074
 21
109.2501814127
 31
0.0
  0
LINE
  5
160
330
1F
100
AcDbEntity
  8
0
  6
Continuous
 62
     7
370
    15
100
AcDbLine
 10
765.1982128074
 20
89.7826233017
 30
0.0
 11
765.9982128074
 21
89.7826233017
 31
0.0
  0
LINE
  5
161
330
1F
100
AcDbEntity
  8
0
  6
Continuous
 62
     7
370
    15
100
AcDbLine
 10
765.1982128074
 20
109.2501814127
 30
0.0
 11
765.1982128074
 21
89.7826233017
 31
0.0
  0
LINE
  5
162
330
1F
100
AcDbEntity
  8
0
  6
Continuous
 62
     7
370
    15
100
AcDbLine
 10
765.9982128074
 20
109.2501814127
 30
0.0
 11
765.9982128074
 21
89.7826233017
 31
0.0
  0
LINE
  5
163
330
1F
100
AcDbEntity
  8
0
  6
Continuous
 62
     7
370
    15
100
AcDbLine
 10
765.9982128074
 20
85.6205414249
 30
0.0
 11
765.1982128074
 21
85.6205414249
 31
0.0
  0
LINE
  5
164
330
1F
100
AcDbEntity
  8
0
  6
Continuous
 62
     7
370
    15
100
AcDbLine
 10
765.1982128074
 20
85.6205414249
 30
0.0
 11
765.1982128074
 21
89.7826233017
 31
0.0
  0
LINE
  5
165
330
1F
100
AcDbEntity
  8
0
  6
Continuous
 62
     7
370
    15
100
AcDbLine
 10
765.9982128074
 20
85.6205414249
 30
0.0
 11
765.9982128074
 21
89.7826233017
 31
0.0
  0
LINE
  5
166
330
1F
100
AcDbEntity
  8
0
  6
Continuous
 62
     7
370
    15
100
AcDbLine
 10
199.4116211423
 20
76.4205414249
 30
0.0
 11
183.4116211423
 21
76.4205414249
 31
0.0
  0
LINE
  5
167
330
1F
100
AcDbEntity
  8
0
  6
Continuous
 62
     7
370
    15
100
AcDbLine
 10
220.4116211423
 20
78.4205414249
 30
0.0
 11
220.4116211423
 21
117.9205414249
 31
0.0
  0
LINE
  5
168
330
1F
100
AcDbEntity
  8
0
  6
Continuous
 62
     7
370
    15
100
AcDbLine
 10
238.4116211423
 20
76.4205414249
 30
0.0
 11
222.4116211423
 21
76.4205414249
 31
0.0
  0
LINE
  5
169
330
1F
100
AcDbEntity
  8
0
  6
Continuous
 62
     7
370
    15
100
AcDbLine
 10
259.4116211423
 20
78.4205414249
 30
0.0
 11
259.4116211423
 21
117.9205414249
 31
0.0
  0
ARC
  5
16A
330
1F
100
AcDbEntity
  8
0
  6
Continuous
 62
     7
370
    15
100
AcDbCircle
 10
261.4116211423
 20
78.4205414249
 30
0.0
 40
2.0
100
AcDbArc
 50
180.0
 51
270.0
  0
LINE
  5
16B
330
1F
100
AcDbEntity
  8
0
  6
Continuous
 62
     7
370
    15
100
AcDbLine
 10
277.4116211423
 20
76.4205414249
 30
0.0
 11
261.4116211423
 21
76.4205414249
 31
0.0
  0
ARC
  5
16C
330
1F
100
AcDbEntity
  8
0
  6
Continuous
 62
     7
370
    15
100
AcDbCircle
 10
277.4116211423
 20
78.4205414249
 30
0.0
 40
2.0
100
AcDbArc
 50
270.0
 51
0.0
  0
ARC
  5
16D
330
1F
100
AcDbEntity
  8
0
  6
Continuous
 62
     7
370
    15
100
AcDbCircle
 10
300.4116211423
 20
78.4205414249
 30
0.0
 40
2.0
100
AcDbArc
 50
180.0
 51
270.0
  0
LINE
  5
16E
330
1F
100
AcDbEntity
  8
0
  6
Continuous
 62
     7
370
    15
100
AcDbLine
 10
316.4116211423
 20
76.4205414249
 30
0.0
 11
300.4116211423
 21
76.4205414249
 31
0.0
  0
ARC
  5
16F
330
1F
100
AcDbEntity
  8
0
  6
Continuous
 62
     7
370
    15
100
AcDbCircle
 10
316.4116211423
 20
78.4205414249
 30
0.0
 40
2.0
100
AcDbArc
 50
270.0
 51
0.0
  0
ARC
  5
170
330
1F
100
AcDbEntity
  8
0
  6
Continuous
 62
     7
370
    15
100
AcDbCircle
 10
378.4116211423
 20
78.4205414249
 30
0.0
 40
2.0
100
AcDbArc
 50
180.0
 51
270.0
  0
LINE
  5
171
330
1F
100
AcDbEntity
  8
0
  6
Continuous
 62
     7
370
    15
100
AcDbLine
 10
394.4116211423
 20
76.4205414249
 30
0.0
 11
378.4116211423
 21
76.4205414249
 31
0.0
  0
ARC
  5
172
330
1F
100
AcDbEntity
  8
0
  6
Continuous
 62
     7
370
    15
100
AcDbCircle
 10
394.4116211423
 20
78.4205414249
 30
0.0
 40
2.0
100
AcDbArc
 50
270.0
 51
0.0
  0
LINE
  5
173
330
1F
100
AcDbEntity
  8
0
  6
Continuous
 62
     7
370
    15
100
AcDbLine
 10
396.4116211423
 20
117.9205414249
 30
0.0
 11
396.4116211423
 21
78.4205414249
 31
0.0
  0
LINE
  5
174
330
1F
100
AcDbEntity
  8
0
  6
Continuous
 62
     7
370
    15
100
AcDbLine
 10
415.4116211423
 20
78.4205414249
 30
0.0
 11
415.4116211423
 21
117.9205414249
 31
0.0
  0
ARC
  5
175
330
1F
100
AcDbEntity
  8
0
  6
Continuous
 62
     7
370
    15
100
AcDbCircle
 10
417.4116211423
 20
78.4205414249
 30
0.0
 40
2.000000000000057
100
AcDbArc
 50
180.0
 51
270.0
  0
LINE
  5
176
330
1F
100
AcDbEntity
  8
0
  6
Continuous
 62
     7
370
    15
100
AcDbLine
 10
433.4116211423
 20
76.4205414249
 30
0.0
 11
417.4116211423
 21
76.4205414249
 31
0.0
  0
ARC
  5
177
330
1F
100
AcDbEntity
  8
0
  6
Continuous
 62
     7
370
    15
100
AcDbCircle
 10
433.4116211423
 20
78.4205414249
 30
0.0
 40
2.0
100
AcDbArc
 50
270.0
 51
0.0
  0
LINE
  5
178
330
1F
100
AcDbEntity
  8
0
  6
Continuous
 62
     7
370
    15
100
AcDbLine
 10
435.4116211423
 20
117.9205414249
 30
0.0
 11
435.4116211423
 21
78.4205414249
 31
0.0
  0
LINE
  5
179
330
1F
100
AcDbEntity
  8
0
  6
Continuous
 62
     7
370
    15
100
AcDbLine
 10
454.4116211423
 20
78.4205414249
 30
0.0
 11
454.4116211423
 21
117.9205414249
 31
0.0
  0
LINE
  5
17A
330
1F
100
AcDbEntity
  8
0
  6
Continuous
 62
     7
370
    15
100
AcDbLine
 10
474.4116211423
 20
117.9205414249
 30
0.0
 11
474.4116211423
 21
78.4205414249
 31
0.0
  0
LINE
  5
17B
330
1F
100
AcDbEntity
  8
0
  6
Continuous
 62
     7
370
    15
100
AcDbLine
 10
493.4116211423
 20
78.4205414249
 30
0.0
 11
493.4116211423
 21
117.9205414249
 31
0.0
  0
ARC
  5
17C
330
1F
100
AcDbEntity
  8
0
  6
Continuous
 62
     7
370
    15
100
AcDbCircle
 10
495.4116211423
 20
78.4205414249
 30
0.0
 40
2.0
100
AcDbArc
 50
180.0
 51
270.0
  0
ARC
  5
17D
330
1F
100
AcDbEntity
  8
0
  6
Continuous
 62
     7
370
    15
100
AcDbCircle
 10
511.4116211423
 20
78.4205414249
 30
0.0
 40
2.0
100
AcDbArc
 50
270.0
 51
0.0
  0
LINE
  5
17E
330
1F
100
AcDbEntity
  8
0
  6
Continuous
 62
     7
370
    15
100
AcDbLine
 10
532.4116211423
 20
78.4205414249
 30
0.0
 11
532.4116211423
 21
117.9205414249
 31
0.0
  0
ARC
  5
17F
330
1F
100
AcDbEntity
  8
0
  6
Continuous
 62
     7
370
    15
100
AcDbCircle
 10
550.4116211423
 20
78.4205414249
 30
0.0
 40
2.0
100
AcDbArc
 50
270.0
 51
0.0
  0
LINE
  5
180
330
1F
100
AcDbEntity
  8
0
  6
Continuous
 62
     7
370
    15
100
AcDbLine
 10
552.4116211423
 20
117.9205414249
 30
0.0
 11
552.4116211423
 21
78.4205414249
 31
0.0
  0
LINE
  5
181
330
1F
100
AcDbEntity
  8
0
  6
Continuous
 62
     7
370
    15
100
AcDbLine
 10
571.4116211423
 20
78.4205414249
 30
0.0
 11
571.4116211423
 21
117.9205414249
 31
0.0
  0
ARC
  5
182
330
1F
100
AcDbEntity
  8
0
  6
Continuous
 62
     7
370
    15
100
AcDbCircle
 10
573.4116211423
 20
78.4205414249
 30
0.0
 40
2.000000000000114
100
AcDbArc
 50
180.0
 51
270.0
  0
LINE
  5
183
330
1F
100
AcDbEntity
  8
0
  6
Continuous
 62
     7
370
    15
100
AcDbLine
 10
589.4116211423
 20
76.4205414249
 30
0.0
 11
573.4116211423
 21
76.4205414249
 31
0.0
  0
LINE
  5
184
330
1F
100
AcDbEntity
  8
0
  6
Continuous
 62
     7
370
    15
100
AcDbLine
 10
591.4116211423
 20
117.9205414249
 30
0.0
 11
591.4116211423
 21
78.4205414249
 31
0.0
  0
LINE
  5
185
330
1F
100
AcDbEntity
  8
0
  6
Continuous
 62
     7
370
    15
100
AcDbLine
 10
142.4116211423
 20
78.4205414249
 30
0.0
 11
142.4116211423
 21
117.9205414249
 31
0.0
  0
ARC
  5
186
330
1F
100
AcDbEntity
  8
0
  6
Continuous
 62
     7
370
    15
100
AcDbCircle
 10
144.4116211423
 20
78.4205414249
 30
0.0
 40
2.000000000000114
100
AcDbArc
 50
180.0
 51
270.0
  0
ARC
  5
187
330
1F
100
AcDbEntity
  8
0
  6
Continuous
 62
     7
370
    15
100
AcDbCircle
 10
160.4116211423
 20
78.4205414249
 30
0.0
 40
2.0
100
AcDbArc
 50
270.0
 51
0.0
  0
LINE
  5
188
330
1F
100
AcDbEntity
  8
0
  6
Continuous
 62
     7
370
    15
100
AcDbLine
 10
162.4116211423
 20
117.9205414249
 30
0.0
 11
162.4116211423
 21
78.4205414249
 31
0.0
  0
ARC
  5
189
330
1F
100
AcDbEntity
  8
0
  6
Continuous
 62
     7
370
    15
100
AcDbCircle
 10
534.4116211423
 20
78.4205414249
 30
0.0
 40
2.0
100
AcDbArc
 50
180.0
 51
270.0
  0
LINE
  5
18A
330
1F
100
AcDbEntity
  8
0
  6
Continuous
 62
     7
370
    15
100
AcDbLine
 10
160.4116211423
 20
76.4205414249
 30
0.0
 11
144.4116211423
 21
76.4205414249
 31
0.0
  0
LINE
  5
18B
330
1F
100
AcDbEntity
  8
0
  6
Continuous
 62
     7
370
    15
100
AcDbLine
 10
513.4116211423
 20
117.9205414249
 30
0.0
 11
513.4116211423
 21
78.4205414249
 31
0.0
  0
LINE
  5
18C
330
1F
100
AcDbEntity
  8
0
  6
Continuous
 62
     7
370
    15
100
AcDbLine
 10
181.4116211423
 20
78.4205414249
 30
0.0
 11
181.4116211423
 21
117.9205414249
 31
0.0
  0
ARC
  5
18D
330
1F
100
AcDbEntity
  8
0
  6
Continuous
 62
     7
370
    15
100
AcDbCircle
 10
222.4116211423
 20
78.4205414249
 30
0.0
 40
2.0
100
AcDbArc
 50
180.0
 51
270.0
  0
LINE
  5
18E
330
1F
100
AcDbEntity
  8
0
  6
Continuous
 62
     7
370
    15
100
AcDbLine
 10
240.4116211423
 20
117.9205414249
 30
0.0
 11
240.4116211423
 21
78.4205414249
 31
0.0
  0
LINE
  5
18F
330
1F
100
AcDbEntity
  8
0
  6
Continuous
 62
     7
370
    15
100
AcDbLine
 10
298.4116211423
 20
78.4205414249
 30
0.0
 11
298.4116211423
 21
117.9205414249
 31
0.0
  0
LINE
  5
190
330
1F
100
AcDbEntity
  8
0
  6
Continuous
 62
     7
370
    15
100
AcDbLine
 10
201.4116211423
 20
117.9205414249
 30
0.0
 11
201.4116211423
 21
78.4205414249
 31
0.0
  0
ARC
  5
191
330
1F
100
AcDbEntity
  8
0
  6
Continuous
 62
     7
370
    15
100
AcDbCircle
 10
456.4116211423
 20
78.4205414249
 30
0.0
 40
2.0
100
AcDbArc
 50
180.0
 51
270.0
  0
LINE
  5
192
330
1F
100
AcDbEntity
  8
0
  6
Continuous
 62
     7
370
    15
100
AcDbLine
 10
279.4116211423
 20
117.9205414249
 30
0.0
 11
279.4116211423
 21
78.4205414249
 31
0.0
  0
LINE
  5
193
330
1F
100
AcDbEntity
  8
0
  6
Continuous
 62
     7
370
    15
100
AcDbLine
 10
511.4116211423
 20
76.4205414249
 30
0.0
 11
495.4116211423
 21
76.4205414249
 31
0.0
  0
ARC
  5
194
330
1F
100
AcDbEntity
  8
0
  6
Continuous
 62
     7
370
    15
100
AcDbCircle
 10
589.4116211423
 20
78.4205414249
 30
0.0
 40
2.0
100
AcDbArc
 50
270.0
 51
0.0
  0
ARC
  5
195
330
1F
100
AcDbEntity
  8
0
  6
Continuous
 62
     7
370
    15
100
AcDbCircle
 10
183.4116211423
 20
78.4205414249
 30
0.0
 40
2.0
100
AcDbArc
 50
180.0
 51
270.0
  0
ARC
  5
196
330
1F
100
AcDbEntity
  8
0
  6
Continuous
 62
     7
370
    15
100
AcDbCircle
 10
238.4116211423
 20
78.4205414249
 30
0.0
 40
2.0
100
AcDbArc
 50
270.0
 51
0.0
  0
LINE
  5
197
330
1F
100
AcDbEntity
  8
0
  6
Continuous
 62
     7
370
    15
100
AcDbLine
 10
376.4116211423
 20
78.4205414249
 30
0.0
 11
376.4116211423
 21
117.9205414249
 31
0.0
  0
LINE
  5
198
330
1F
100
AcDbEntity
  8
0
  6
Continuous
 62
     7
370
    15
100
AcDbLine
 10
472.4116211423
 20
76.4205414249
 30
0.0
 11
456.4116211423
 21
76.4205414249
 31
0.0
  0
LINE
  5
199
330
1F
100
AcDbEntity
  8
0
  6
Continuous
 62
     7
370
    15
100
AcDbLine
 10
318.4116211423
 20
117.9205414249
 30
0.0
 11
318.4116211423
 21
78.4205414249
 31
0.0
  0
LINE
  5
19A
330
1F
100
AcDbEntity
  8
0
  6
Continuous
 62
     7
370
    15
100
AcDbLine
 10
550.4116211423
 20
76.4205414249
 30
0.0
 11
534.4116211423
 21
76.4205414249
 31
0.0
  0
ARC
  5
19B
330
1F
100
AcDbEntity
  8
0
  6
Continuous
 62
     7
370
    15
100
AcDbCircle
 10
472.4116211423
 20
78.4205414249
 30
0.0
 40
2.0
100
AcDbArc
 50
270.0
 51
0.0
  0
ARC
  5
19C
330
1F
100
AcDbEntity
  8
0
  6
Continuous
 62
     7
370
    15
100
AcDbCircle
 10
199.4116211423
 20
78.4205414249
 30
0.0
 40
2.0
100
AcDbArc
 50
270.0
 51
0.0
  0
LINE
  5
19D
330
1F
100
AcDbEntity
  8
0
  6
Continuous
 62
     7
370
    15
100
AcDbLine
 10
633.3116211423
 20
65.2205414249
 30
0.0
 11
118.1116211423
 21
65.2205414249
 31
0.0
  0
CIRCLE
  5
19E
330
1F
100
AcDbEntity
  8
0
  6
Continuous
 62
     7
370
    15
100
AcDbCircle
 10
23.7550637062
 20
345.0874085217
 30
0.0
 40
2.525000000000016
  0
CIRCLE
  5
19F
330
1F
100
AcDbEntity
  8
0
  6
Continuous
 62
     7
370
    15
100
AcDbCircle
 10
23.7550637062
 20
345.0874085217
 30
0.0
 40
2.099999999999973
  0
CIRCLE
  5
1A0
330
1F
100
AcDbEntity
  8
0
  6
Continuous
 62
     7
370
    15
100
AcDbCircle
 10
413.7550637063
 20
345.0874085217
 30
0.0
 40
2.525000000000072
  0
CIRCLE
  5
1A1
330
1F
100
AcDbEntity
  8
0
  6
Continuous
 62
     7
370
    15
100
AcDbCircle
 10
413.7550637063
 20
345.0874085217
 30
0.0
 40
2.10000000000004
  0
LINE
  5
1A2
330
1F
100
AcDbEntity
  8
0
  6
Continuous
 62
     7
370
    15
100
AcDbLine
 10
804.5841477984
 20
306.0344853717
 30
0.0
 11
805.4293843219
 21
304.2218697976
 31
0.0
  0
LINE
  5
1A3
330
1F
100
AcDbEntity
  8
0
  6
Continuous
 62
     7
370
    15
100
AcDbLine
 10
824.7883884221
 20
313.2491216638
 30
0.0
 11
823.9431518986
 21
315.0617372379
 31
0.0
  0
LINE
  5
1A4
330
1F
100
AcDbEntity
  8
0
  6
Continuous
 62
     7
370
    15
100
AcDbLine
 10
824.7883884221
 20
313.2491216638
 30
0.0
 11
805.4293843219
 21
304.2218697976
 31
0.0
  0
LINE
  5
1A5
330
1F
100
AcDbEntity
  8
0
  6
Continuous
 62
     7
370
    15
100
AcDbLine
 10
823.9431518986
 20
315.0617372379
 30
0.0
 11
804.5841477984
 21
306.0344853717
 31
0.0
  0
LINE
  5
1A6
330
1F
100
AcDbEntity
  8
0
  6
Continuous
 62
     7
370
    15
100
AcDbLine
 10
828.7800471516
 20
319.8986324909
 30
0.0
 11
830.5926627257
 21
319.0533959674
 31
0.0
  0
LINE
  5
1A7
330
1F
100
AcDbEntity
  8
0
  6
Continuous
 62
     7
370
    15
100
AcDbLine
 10
843.2181415766
 20
350.8612259043
 30
0.0
 11
828.7800471516
 21
319.8986324909
 31
0.0
  0
LINE
  5
1A8
330
1F
100
AcDbEntity
  8
0
  6
Continuous
 62
     7
370
    15
100
AcDbLine
 10
845.0307571507
 20
350.0159893808
 30
0.0
 11
843.2181415766
 21
350.8612259043
 31
0.0
  0
LINE
  5
1A9
330
1F
100
AcDbEntity
  8
0
  6
Continuous
 62
     7
370
    15
100
AcDbLine
 10
845.0307571507
 20
350.0159893808
 30
0.0
 11
830.5926627257
 21
319.0533959674
 31
0.0
  0
LINE
  5
1AA
330
1F
100
AcDbEntity
  8
0
  6
Continuous
 62
     7
370
    15
100
AcDbLine
 10
19.1519194774
 20
369.3374085217
 30
0.0
 11
21.1519194774
 21
369.3374085217
 31
0.0
  0
LINE
  5
1AB
330
1F
100
AcDbEntity
  8
0
  6
Continuous
 62
     7
370
    15
100
AcDbLine
 10
23.4019194774
 20
367.0874085217
 30
0.0
 11
23.4019194774
 21
365.0874085217
 31
0.0
  0
ARC
  5
1AC
330
1F
100
AcDbEntity
  8
0
  6
Continuous
 62
     7
370
    15
100
AcDbCircle
 10
23.4019194774
 20
369.3374085217
 30
0.0
 40
4.25
100
AcDbArc
 50
180.0
 51
270.0
  0
ARC
  5
1AD
330
1F
100
AcDbEntity
  8
0
  6
Continuous
 62
     7
370
    15
100
AcDbCircle
 10
23.4019194774
 20
369.3374085217
 30
0.0
 40
2.25
100
AcDbArc
 50
180.0
 51
270.0
  0
LINE
  5
1AE
330
1F
100
AcDbEntity
  8
0
  6
Continuous
 62
     7
370
    15
100
AcDbLine
 10
834.1550637062
 20
365.0874085217
 30
0.0
 11
834.1550637062
 21
367.0874085217
 31
0.0
  0
LINE
  5
1AF
330
1F
100
AcDbEntity
  8
0
  6
Continuous
 62
     7
370
    15
100
AcDbLine
 10
23.4019194774
 20
365.0874085217
 30
0.0
 11
834.1550637062
 21
365.0874085217
 31
0.0
  0
LINE
  5
1B0
330
1F
100
AcDbEntity
  8
0
  6
Continuous
 62
     7
370
    15
100
AcDbLine
 10
23.4019194774
 20
367.0874085217
 30
0.0
 11
834.1550637062
 21
367.0874085217
 31
0.0
  0
ARC
  5
1B1
330
1F
100
AcDbEntity
  8
0
  6
Continuous
 62
     7
370
    15
100
AcDbCircle
 10
-49.2079027243
 20
380.4636642288
 30
0.0
 40
4.640177798317602
100
AcDbArc
 50
106.6881298264
 51
180.0
  0
LINE
  5
1B2
330
1F
100
AcDbEntity
  8
0
  6
Continuous
 62
     7
370
    15
100
AcDbLine
 10
-49.9660616675
 20
382.9926430392
 30
0.0
 11
-50.5403858238
 21
384.9084070548
 31
0.0
  0
ARC
  5
1B3
330
1F
100
AcDbEntity
  8
0
  6
Continuous
 62
     7
370
    15
100
AcDbCircle
 10
-49.2079027243
 20
380.4636642288
 30
0.0
 40
2.640177798317624
100
AcDbArc
 50
106.6881298264
 51
180.0
  0
LINE
  5
1B4
330
1F
100
AcDbEntity
  8
0
  6
Continuous
 62
     7
370
    15
100
AcDbLine
 10
-51.8480805226
 20
380.4636642288
 30
0.0
 11
-53.8480805226
 21
380.4636642288
 31
0.0
  0
ARC
  5
1B5
330
1F
100
AcDbEntity
  8
0
  6
Continuous
 62
     7
370
    15
100
AcDbCircle
 10
-49.5980805226
 20
369.3374085217
 30
0.0
 40
2.250000000000114
100
AcDbArc
 50
180.0
 51
270.0
  0
LINE
  5
1B6
330
1F
100
AcDbEntity
  8
0
  6
Continuous
 62
     7
370
    15
100
AcDbLine
 10
-49.5980805226
 20
367.0874085217
 30
0.0
 11
-49.5980805226
 21
365.0874085217
 31
0.0
  0
LINE
  5
1B7
330
1F
100
AcDbEntity
  8
0
  6
Continuous
 62
     7
370
    15
100
AcDbLine
 10
-53.8480805226
 20
369.3374085217
 30
0.0
 11
-51.8480805226
 21
369.3374085217
 31
0.0
  0
ARC
  5
1B8
330
1F
100
AcDbEntity
  8
0
  6
Continuous
 62
     7
370
    15
100
AcDbCircle
 10
-49.5980805226
 20
369.3374085217
 30
0.0
 40
4.250000000000114
100
AcDbArc
 50
180.0
 51
270.0
  0
LINE
  5
1B9
330
1F
100
AcDbEntity
  8
0
  6
Continuous
 62
     7
370
    15
100
AcDbLine
 10
-51.8480805226
 20
369.3374085217
 30
0.0
 11
-51.8480805226
 21
380.4636642288
 31
0.0
  0
LINE
  5
1BA
330
1F
100
AcDbEntity
  8
0
  6
Continuous
 62
     7
370
    15
100
AcDbLine
 10
-53.8480805226
 20
369.3374085217
 30
0.0
 11
-53.8480805226
 21
380.4636642288
 31
0.0
  0
ARC
  5
1BB
330
1F
100
AcDbEntity
  8
0
  6
Continuous
 62
     7
370
    15
100
AcDbCircle
 10
834.1550637062
 20
355.0874085217
 30
0.0
 40
10.0
100
AcDbArc
 50
335.0
 51
90.0
  0
ARC
  5
1BC
330
1F
100
AcDbEntity
  8
0
  6
Continuous
 62
     7
370
    15
100
AcDbCircle
 10
834.1550637062
 20
355.0874085217
 30
0.0
 40
12.0
100
AcDbArc
 50
335.0
 51
90.0
  0
LINE
  5
1BD
330
1F
100
AcDbEntity
  8
0
  6
Continuous
 62
     7
370
    15
100
AcDbLine
 10
19.1519194774
 20
380.4636642288
 30
0.0
 11
19.1519194774
 21
369.3374085217
 31
0.0
  0
LINE
  5
1BE
330
1F
100
AcDbEntity
  8
0
  6
Continuous
 62
     7
370
    15
100
AcDbLine
 10
21.1519194774
 20
380.4636642288
 30
0.0
 11
19.1519194774
 21
380.4636642288
 31
0.0
  0
LINE
  5
1BF
330
1F
100
AcDbEntity
  8
0
  6
Continuous
 62
     7
370
    15
100
AcDbLine
 10
21.1519194774
 20
380.4636642288
 30
0.0
 11
21.1519194774
 21
369.3374085217
 31
0.0
  0
ARC
  5
1C0
330
1F
100
AcDbEntity
  8
0
  6
Continuous
 62
     7
370
    15
100
AcDbCircle
 10
16.6237859465
 20
380.8374085217
 30
0.0
 40
2.250000000000001
100
AcDbArc
 50
73.3118701736
 51
90.0
  0
LINE
  5
1C1
330
1F
100
AcDbEntity
  8
0
  6
Continuous
 62
     7
370
    15
100
AcDbLine
 10
16.6237859465
 20
383.0874085217
 30
0.0
 11
16.6237859465
 21
385.0874085217
 31
0.0
  0
LINE
  5
1C2
330
1F
100
AcDbEntity
  8
0
  6
Continuous
 62
     7
370
    15
100
AcDbLine
 10
17.8442247786
 20
384.9084070548
 30
0.0
 11
17.2699006223
 21
382.9926430392
 31
0.0
  0
ARC
  5
1C3
330
1F
100
AcDbEntity
  8
0
  6
Continuous
 62
     7
370
    15
100
AcDbCircle
 10
16.6237859465
 20
380.8374085217
 30
0.0
 40
4.249999999999957
100
AcDbArc
 50
73.3118701736
 51
90.0
  0
ARC
  5
1C4
330
1F
100
AcDbEntity
  8
0
  6
Continuous
 62
     7
370
    15
100
AcDbCircle
 10
-49.3199469917
 20
380.8374085217
 30
0.0
 40
4.249999999999948
100
AcDbArc
 50
90.0
 51
106.6881298264
  0
LINE
  5
1C5
330
1F
100
AcDbEntity
  8
0
  6
Continuous
 62
     7
370
    15
100
AcDbLine
 10
-49.3199469917
 20
385.0874085217
 30
0.0
 11
-49.3199469917
 21
383.0874085217
 31
0.0
  0
ARC
  5
1C6
330
1F
100
AcDbEntity
  8
0
  6
Continuous
 62
     7
370
    15
100
AcDbCircle
 10
-49.3199469917
 20
380.8374085217
 30
0.0
 40
2.25
100
AcDbArc
 50
90.0
 51
106.6881298264
  0
ARC
  5
1C7
330
1F
100
AcDbEntity
  8
0
  6
Continuous
 62
     7
370
    15
100
AcDbCircle
 10
16.5117416791
 20
380.4636642288
 30
0.0
 40
2.640177798317678
100
AcDbArc
 50
0.0
 51
73.3118701736
  0
ARC
  5
1C8
330
1F
100
AcDbEntity
  8
0
  6
Continuous
 62
     7
370
    15
100
AcDbCircle
 10
16.5117416791
 20
380.4636642288
 30
0.0
 40
4.640177798317635
100
AcDbArc
 50
0.0
 51
73.3118701736
  0
LINE
  5
1C9
330
1F
100
AcDbEntity
  8
0
  6
Continuous
 62
     7
370
    15
100
AcDbLine
 10
-38.8480805226
 20
367.0874085217
 30
0.0
 11
-49.5980805226
 21
367.0874085217
 31
0.0
  0
LINE
  5
1CA
330
1F
100
AcDbEntity
  8
0
  6
Continuous
 62
     7
370
    15
100
AcDbLine
 10
-38.8480805226
 20
365.0874085217
 30
0.0
 11
-38.8480805226
 21
367.0874085217
 31
0.0
  0
LINE
  5
1CB
330
1F
100
AcDbEntity
  8
0
  6
Continuous
 62
     7
370
    15
100
AcDbLine
 10
-38.8480805226
 20
365.0874085217
 30
0.0
 11
-49.5980805226
 21
365.0874085217
 31
0.0
  0
ARC
  5
1CC
330
1F
100
AcDbEntity
  8
0
  6
Continuous
 62
     7
370
    15
100
AcDbCircle
 10
819.7169692812
 20
324.1248151083
 30
0.0
 40
9.999999999999996
100
AcDbArc
 50
295.0
 51
335.0
  0
ARC
  5
1CD
330
1F
100
AcDbEntity
  8
0
  6
Continuous
 62
     7
370
    15
100
AcDbCircle
 10
819.7169692812
 20
324.1248151083
 30
0.0
 40
11.99999999999998
100
AcDbArc
 50
295.0
 51
335.0
  0
LINE
  5
1CE
330
1F
100
AcDbEntity
  8
0
  6
Continuous
 62
     7
370
    15
100
AcDbLine
 10
-49.3199469917
 20
385.0874085217
 30
0.0
 11
16.6237859465
 21
385.0874085217
 31
0.0
  0
LINE
  5
1CF
330
1F
100
AcDbEntity
  8
0
  6
Continuous
 62
     7
370
    15
100
AcDbLine
 10
-49.3199469917
 20
383.0874085217
 30
0.0
 11
16.6237859465
 21
383.0874085217
 31
0.0
  0
LINE
  5
1D0
330
1F
100
AcDbEntity
  8
0
  6
Continuous
 62
     7
370
    15
100
AcDbLine
 10
822.9711298967
 20
317.1462451481
 30
0.0
 11
823.9431518987
 21
315.0617372379
 31
0.0
  0
LINE
  5
1D1
330
1F
100
AcDbEntity
  8
0
  6
Continuous
 62
     7
370
    15
100
AcDbLine
 10
804.5841477984
 20
306.0344853717
 30
0.0
 11
788.5498659271
 21
298.5575769421
 31
0.0
  0
SPLINE
  5
1D2
330
1F
100
AcDbEntity
  8
0
  6
Continuous
 62
     7
370
    15
100
AcDbSpline
210
0.0
220
0.0
230
1.0
 70
     8
 71
     3
 72
    11
 73
     7
 74
     0
 42
0.00000001
 43
0.00000001
 12
1.0
 22
0.0
 32
0.0
 13
1.0
 23
0.0
 33
0.0
 40
0.0
 40
0.0
 40
0.0
 40
0.0
 40
0.2889759275645127
 40
0.5779517763250721
 40
0.8674414070450548
 40
1.0
 40
1.0
 40
1.0
 40
1.0
 10
788.5498659271055
 20
298.5575769420986
 30
0.0
 10
788.24633801755
 20
298.4673015577833
 30
0.0
 10
787.6392822812114
 20
298.286750813771
 30
0.0
 10
786.4907643037798
 20
298.526137178442
 30
0.0
 10
785.4562065060794
 20
298.9179174572653
 30
0.0
 10
784.8292580835873
 20
299.1847634467156
 30
0.0
 10
784.6323436172327
 20
299.2685755016254
 30
0.0
  0
LINE
  5
1D3
330
1F
100
AcDbEntity
  8
0
  6
Continuous
 62
     7
370
    15
100
AcDbLine
 10
784.6323436172
 20
299.2685755016
 30
0.0
 11
822.9711298967
 21
317.1462451481
 31
0.0
  0
SPLINE
  5
1D4
330
1F
100
AcDbEntity
  8
0
  6
Continuous
 62
     7
370
    15
100
AcDbSpline
210
0.0
220
0.0
230
1.0
 70
     8
 71
     3
 72
    11
 73
     7
 74
     0
 42
0.00000001
 43
0.00000001
 12
1.0
 22
0.0
 32
0.0
 13
1.0
 23
0.0
 33
0.0
 40
0.0
 40
0.0
 40
0.0
 40
0.0
 40
0.2888077077194141
 40
0.57761533621972
 40
0.8669345414323495
 40
0.9999999999999999
 40
0.9999999999999999
 40
0.9999999999999999
 40
0.9999999999999999
 10
784.6323436172329
 20
299.2685755016256
 30
0.0
 10
785.0800416420108
 20
299.1323667467693
 30
0.0
 10
785.9754375687639
 20
298.8599492744184
 30
0.0
 10
787.1225991578245
 20
298.3599399473039
 30
0.0
 10
787.7974867065561
 20
297.8236892168751
 30
0.0
 10
788.0188407910058
 20
297.424641080823
 30
0.0
 10
788.0885748161228
 20
297.2989274179757
 30
0.0
  0
LINE
  5
1D5
330
1F
100
AcDbEntity
  8
0
  6
Continuous
 62
     7
370
    15
100
AcDbLine
 10
788.0885748161
 20
297.298927418
 30
0.0
 11
788.5826438948
 21
296.2393928596
 31
0.0
  0
LINE
  5
1D6
330
1F
100
AcDbEntity
  8
0
  6
Continuous
 62
     7
370
    15
100
AcDbLine
 10
844.4895135209
 20
176.3467240424
 30
0.0
 11
842.4050056107
 21
175.3747020404
 31
0.0
  0
LINE
  5
1D7
330
1F
100
AcDbEntity
  8
0
  6
Continuous
 62
     7
370
    15
100
AcDbLine
 10
842.4050056107
 20
175.3747020404
 30
0.0
 11
784.6323436172
 21
299.2685755016
 31
0.0
  0
LINE
  5
1D8
330
1F
100
AcDbEntity
  8
0
  6
Continuous
 62
     7
370
    15
100
AcDbLine
 10
842.4050056107
 20
168.8663808095
 30
0.0
 11
844.4895135209
 21
167.8943588075
 31
0.0
  0
ARC
  5
1D9
330
1F
100
AcDbEntity
  8
0
  6
Continuous
 62
     7
370
    15
100
AcDbCircle
 10
835.4264356505
 20
172.1205414249
 30
0.0
 40
7.69999999999975
100
AcDbArc
 50
335.0
 51
25.0
  0
SPLINE
  5
1DA
330
1F
100
AcDbEntity
  8
0
  6
Continuous
 62
     7
370
    15
100
AcDbSpline
210
0.0
220
0.0
230
1.0
 70
     8
 71
     3
 72
    12
 73
     8
 74
     0
 42
0.00000001
 43
0.00000001
 12
1.0
 22
0.0
 32
0.0
 13
1.0
 23
0.0
 33
0.0
 40
0.0
 40
0.0
 40
0.0
 40
0.0
 40
0.2096821001528738
 40
0.4420453733185987
 40
0.6744332966681253
 40
0.9068208701180408
 40
1.0
 40
1.0
 40
1.0
 40
1.0
 10
-53.7767085771606
 20
364.3134703571371
 30
0.0
 10
-53.75236860699212
 20
364.2091851492096
 30
0.0
 10
-53.70105582830536
 20
363.9893342719228
 30
0.0
 10
-53.28012524137632
 20
363.6533661420398
 30
0.0
 10
-52.62833576348086
 20
363.3064608736232
 30
0.0
 10
-51.97889472437861
 20
363.0280842113904
 30
0.0
 10
-51.58845480727209
 20
362.8667237501687
 30
0.0
 10
-51.47670857716064
 20
362.8205414249489
 30
0.0
  0
LINE
  5
1DB
330
1F
100
AcDbEntity
  8
0
  6
Continuous
 62
     7
370
    15
100
AcDbLine
 10
-53.7767085772
 20
364.3134703571
 30
0.0
 11
-52.9767085772
 21
364.3134703571
 31
0.0
  0
SPLINE
  5
1DC
330
1F
100
AcDbEntity
  8
0
  6
Continuous
 62
     7
370
    15
100
AcDbSpline
210
0.0
220
0.0
230
1.0
 70
     8
 71
     3
 72
    11
 73
     7
 74
     0
 42
0.00000001
 43
0.00000001
 12
1.0
 22
0.0
 32
0.0
 13
1.0
 23
0.0
 33
0.0
 40
0.0
 40
0.0
 40
0.0
 40
0.0
 40
0.2543211584721155
 40
0.5088664984542254
 40
0.763413000719684
 40
1.0
 40
1.0
 40
1.0
 40
1.0
 10
-52.97670857716069
 20
364.3134703571371
 30
0.0
 10
-52.95335451514166
 20
364.1868892493516
 30
0.0
 10
-52.90662580473576
 20
363.933615453824
 30
0.0
 10
-52.54773818854058
 20
363.5536707843387
 30
0.0
 10
-52.04851520925119
 20
363.1824456526678
 30
0.0
 10
-51.66260689265572
 20
362.9381990079985
 30
0.0
 10
-51.47670857716064
 20
362.8205414249489
 30
0.0
  0
LINE
  5
1DD
330
1F
100
AcDbEntity
  8
0
  6
Continuous
 62
     7
370
    15
100
AcDbLine
 10
841.149083793
 20
351.8663808095
 30
0.0
 11
843.2335917032
 21
350.8943588075
 31
0.0
  0
LINE
  5
1DE
330
1F
100
AcDbEntity
  8
0
  6
Continuous
 62
     7
370
    15
100
AcDbLine
 10
828.7800471517
 20
319.8986324909
 30
0.0
 11
826.6955392415
 21
320.8706544929
 31
0.0
  0
LINE
  5
1DF
330
1F
100
AcDbEntity
  8
0
  6
Continuous
 62
     7
370
    15
100
AcDbLine
 10
826.6955392415
 20
320.8706544929
 30
0.0
 11
841.149083793
 21
351.8663808095
 31
0.0
  0
CIRCLE
  5
1E0
330
1F
100
AcDbEntity
  8
0
  6
Continuous
 62
     7
370
    15
100
AcDbCircle
 10
23.7705138328
 20
345.1205414249
 30
0.0
 40
6.347663105371623
  0
CIRCLE
  5
1E1
330
1F
100
AcDbEntity
  8
0
  6
Continuous
 62
     7
370
    15
100
AcDbCircle
 10
23.7705138328
 20
345.1205414249
 30
0.0
 40
4.699999999999989
  0
SPLINE
  5
1E2
330
1F
100
AcDbEntity
  8
0
  6
Continuous
 62
     7
370
    15
100
AcDbSpline
210
0.0
220
0.0
230
1.0
 70
     8
 71
     3
 72
    12
 73
     8
 74
     0
 42
0.00000001
 43
0.00000001
 12
1.0
 22
0.0
 32
0.0
 13
1.0
 23
0.0
 33
0.0
 40
0.0
 40
0.0
 40
0.0
 40
0.0
 40
0.209682100152886
 40
0.4420453733185801
 40
0.6744332966681194
 40
0.9068208701180673
 40
1.0
 40
1.0
 40
1.0
 40
1.0
 10
-51.47670857716064
 20
362.8205414249489
 30
0.0
 10
-51.58099378508813
 20
363.0728723829243
 30
0.0
 10
-51.80084466237472
 20
363.6048287704115
 30
0.0
 10
-52.13681279225785
 20
364.3262102002262
 30
0.0
 10
-52.48371806067426
 20
364.8695691342127
 30
0.0
 10
-52.76209472290777
 20
365.0981909743562
 30
0.0
 10
-52.92345518412905
 20
365.1155680129804
 30
0.0
 10
-52.96963750934874
 20
365.120541424949
 30
0.0
  0
SPLINE
  5
1E3
330
1F
100
AcDbEntity
  8
0
  6
Continuous
 62
     7
370
    15
100
AcDbSpline
210
0.0
220
0.0
230
1.0
 70
     8
 71
     3
 72
    11
 73
     7
 74
     0
 42
0.00000001
 43
0.00000001
 12
1.0
 22
0.0
 32
0.0
 13
1.0
 23
0.0
 33
0.0
 40
0.0
 40
0.0
 40
0.0
 40
0.0
 40
0.2543211584720588
 40
0.5088664984541689
 40
0.7634130007196562
 40
1.0
 40
1.0
 40
1.0
 40
1.0
 10
-51.47670857716064
 20
362.8205414249489
 30
0.0
 10
-51.60328968494604
 20
363.0205166150883
 30
0.0
 10
-51.85656348047368
 20
363.4206432714594
 30
0.0
 10
-52.23650814995878
 20
363.9222670255548
 30
0.0
 10
-52.60773328162988
 20
364.2583322724138
 30
0.0
 10
-52.85197992629914
 20
364.3003167965245
 30
0.0
 10
-52.96963750934874
 20
364.3205414249489
 30
0.0
  0
LINE
  5
1E4
330
1F
100
AcDbEntity
  8
0
  6
Continuous
 62
     7
370
    15
100
AcDbLine
 10
-52.9696375093
 20
365.1205414249
 30
0.0
 11
-52.9696375093
 21
364.3205414249
 31
0.0
  0
LINE
  5
1E5
330
1F
100
AcDbEntity
  8
0
  6
Continuous
 62
     7
370
    15
100
AcDbLine
 10
814.8156371601
 20
120.2205414249
 30
0.0
 11
814.8156371601
 21
117.9205414249
 31
0.0
  0
ARC
  5
1E6
330
1F
100
AcDbEntity
  8
0
  6
Continuous
 62
     7
370
    15
100
AcDbCircle
 10
814.8156371601
 20
127.9205414249
 30
0.0
 40
7.699999999999875
100
AcDbArc
 50
270.0
 51
335.0
  0
LINE
  5
1E7
330
1F
100
AcDbEntity
  8
0
  6
Continuous
 62
     7
370
    15
100
AcDbLine
 10
823.8787150304
 20
123.6943588075
 30
0.0
 11
821.7942071203
 21
124.6663808095
 31
0.0
  0
LINE
  5
1E8
330
1F
100
AcDbEntity
  8
0
  6
Continuous
 62
     7
370
    15
100
AcDbLine
 10
821.7942071203
 20
124.6663808095
 30
0.0
 11
842.4050056107
 21
168.8663808095
 31
0.0
  0
CIRCLE
  5
1E9
330
1F
100
AcDbEntity
  8
0
  6
Continuous
 62
     7
370
    15
100
AcDbCircle
 10
793.7705138328
 20
345.1205414249
 30
0.0
 40
6.347663105371623
  0
LINE
  5
1EA
330
1F
100
AcDbEntity
  8
0
  6
Continuous
 62
     7
370
    15
100
AcDbLine
 10
-51.4767085772
 20
120.2205414249
 30
0.0
 11
814.8156371601
 21
120.2205414249
 31
0.0
  0
LINE
  5
1EB
330
1F
100
AcDbEntity
  8
0
  6
Continuous
 62
     7
370
    15
100
AcDbLine
 10
-51.4767085772
 20
362.8205414249
 30
0.0
 11
-51.4767085772
 21
120.2205414249
 31
0.0
  0
LINE
  5
1EC
330
1F
100
AcDbEntity
  8
0
  6
Continuous
 62
     7
370
    15
100
AcDbLine
 10
834.1705138328
 20
362.8205414249
 30
0.0
 11
-51.4767085772
 21
362.8205414249
 31
0.0
  0
ARC
  5
1ED
330
1F
100
AcDbEntity
  8
0
  6
Continuous
 62
     7
370
    15
100
AcDbCircle
 10
834.1705138328
 20
355.1205414249
 30
0.0
 40
7.699999999999704
100
AcDbArc
 50
335.0
 51
90.0
  0
ARC
  5
1EE
330
1F
100
AcDbEntity
  8
0
  6
Continuous
 62
     7
370
    15
100
AcDbCircle
 10
819.7169692813
 20
324.1248151083
 30
0.0
 40
7.700000000000203
100
AcDbArc
 50
295.0
 51
335.0
  0
CIRCLE
  5
1EF
330
1F
100
AcDbEntity
  8
0
  6
Continuous
 62
     7
370
    15
100
AcDbCircle
 10
413.7705138328
 20
345.1205414249
 30
0.0
 40
6.347663105371623
  0
LINE
  5
1F0
330
1F
100
AcDbEntity
  8
0
  6
Continuous
 62
     7
370
    15
100
AcDbLine
 10
-52.9696375093
 20
365.1205414249
 30
0.0
 11
-50.1277331338
 21
365.1205414249
 31
0.0
  0
LINE
  5
1F1
330
1F
100
AcDbEntity
  8
0
  6
Continuous
 62
     7
370
    15
100
AcDbLine
 10
-38.8480805226
 20
365.1205414249
 30
0.0
 11
22.8722668662
 21
365.1205414249
 31
0.0
  0
CIRCLE
  5
1F2
330
1F
100
AcDbEntity
  8
0
  6
Continuous
 62
     7
370
    15
100
AcDbCircle
 10
793.7705138328
 20
345.1205414249
 30
0.0
 40
4.699999999999989
  0
SPLINE
  5
1F3
330
1F
100
AcDbEntity
  8
0
  6
Continuous
 62
     7
370
    15
100
AcDbSpline
210
0.0
220
0.0
230
1.0
 70
     8
 71
     3
 72
    12
 73
     8
 74
     0
 42
0.00000001
 43
0.00000001
 12
1.0
 22
0.0
 32
0.0
 13
1.0
 23
0.0
 33
0.0
 40
0.0
 40
0.0
 40
0.0
 40
0.0
 40
0.2096821001528694
 40
0.4420453733185924
 40
0.6744332966681261
 40
0.9068208701180616
 40
1.0
 40
1.0
 40
1.0
 40
1.0
 10
-51.47670857716064
 20
120.2205414249485
 30
0.0
 10
-51.7290395351358
 20
120.116256217021
 30
0.0
 10
-52.26099592262307
 20
119.8964053397343
 30
0.0
 10
-52.98237735243799
 20
119.5604372098513
 30
0.0
 10
-53.52573628642448
 20
119.2135319414346
 30
0.0
 10
-53.75435812656742
 20
118.9351552792017
 30
0.0
 10
-53.77173516519213
 20
118.7737948179801
 30
0.0
 10
-53.77670857716071
 20
118.7276124927604
 30
0.0
  0
LINE
  5
1F4
330
1F
100
AcDbEntity
  8
0
  6
Continuous
 62
     7
370
    15
100
AcDbLine
 10
-53.7767085772
 20
364.3134703571
 30
0.0
 11
-53.7767085772
 21
118.7276124928
 31
0.0
  0
LINE
  5
1F5
330
1F
100
AcDbEntity
  8
0
  6
Continuous
 62
     7
370
    15
100
AcDbLine
 10
754.1863397682
 20
117.9205414249
 30
0.0
 11
-52.9696375093
 21
117.9205414249
 31
0.0
  0
SPLINE
  5
1F6
330
1F
100
AcDbEntity
  8
0
  6
Continuous
 62
     7
370
    15
100
AcDbSpline
210
0.0
220
0.0
230
1.0
 70
     8
 71
     3
 72
    12
 73
     8
 74
     0
 42
0.00000001
 43
0.00000001
 12
1.0
 22
0.0
 32
0.0
 13
1.0
 23
0.0
 33
0.0
 40
0.0
 40
0.0
 40
0.0
 40
0.0
 40
0.2096821001528684
 40
0.4420453733186101
 40
0.6744332966681335
 40
0.9068208701180642
 40
1.0
 40
1.0
 40
1.0
 40
1.0
 10
-52.96963750934874
 20
117.9205414249485
 30
0.0
 10
-52.86535230142125
 20
117.9448813951171
 30
0.0
 10
-52.64550142413454
 20
117.996194173804
 30
0.0
 10
-52.30953329425131
 20
118.4171247607327
 30
0.0
 10
-51.96262802583512
 20
119.0689142386282
 30
0.0
 10
-51.68425136360205
 20
119.7183552777307
 30
0.0
 10
-51.52289090238021
 20
120.1087951948371
 30
0.0
 10
-51.47670857716064
 20
120.2205414249485
 30
0.0
  0
SPLINE
  5
1F7
330
1F
100
AcDbEntity
  8
0
  6
Continuous
 62
     7
370
    15
100
AcDbSpline
210
0.0
220
0.0
230
1.0
 70
     8
 71
     3
 72
    11
 73
     7
 74
     0
 42
0.00000001
 43
0.00000001
 12
1.0
 22
0.0
 32
0.0
 13
1.0
 23
0.0
 33
0.0
 40
0.0
 40
0.0
 40
0.0
 40
0.0
 40
0.2543211584721248
 40
0.5088664984542416
 40
0.763413000719722
 40
1.0
 40
1.0
 40
1.0
 40
1.0
 10
-51.47670857716064
 20
120.2205414249485
 30
0.0
 10
-51.67668376729978
 20
120.0939603171631
 30
0.0
 10
-52.07681042367113
 20
119.8406865216354
 30
0.0
 10
-52.5784341777667
 20
119.46074185215
 30
0.0
 10
-52.9144994246254
 20
119.0895167204791
 30
0.0
 10
-52.95648394873604
 20
118.8452700758099
 30
0.0
 10
-52.97670857716058
 20
118.7276124927604
 30
0.0
  0
LINE
  5
1F8
330
1F
100
AcDbEntity
  8
0
  6
Continuous
 62
     7
370
    15
100
AcDbLine
 10
-53.7767085772
 20
118.7276124928
 30
0.0
 11
-52.9767085772
 21
118.7276124928
 31
0.0
  0
CIRCLE
  5
1F9
330
1F
100
AcDbEntity
  8
0
  6
Continuous
 62
     7
370
    15
100
AcDbCircle
 10
413.7705138328
 20
345.1205414249
 30
0.0
 40
4.699999999999989
  0
LINE
  5
1FA
330
1F
100
AcDbEntity
  8
0
  6
Continuous
 62
     7
370
    15
100
AcDbLine
 10
-52.9696375093
 20
117.9205414249
 30
0.0
 11
-52.9696375093
 21
118.7205414249
 31
0.0
  0
SPLINE
  5
1FB
330
1F
100
AcDbEntity
  8
0
  6
Continuous
 62
     7
370
    15
100
AcDbSpline
210
0.0
220
0.0
230
1.0
 70
     8
 71
     3
 72
    11
 73
     7
 74
     0
 42
0.00000001
 43
0.00000001
 12
1.0
 22
0.0
 32
0.0
 13
1.0
 23
0.0
 33
0.0
 40
0.0
 40
0.0
 40
0.0
 40
0.0
 40
0.2543211584721197
 40
0.5088664984542401
 40
0.7634130007197358
 40
0.9999999999999999
 40
0.9999999999999999
 40
0.9999999999999999
 40
0.9999999999999999
 10
-52.96963750934874
 20
118.7205414249485
 30
0.0
 10
-52.84305640156334
 20
118.7438954869676
 30
0.0
 10
-52.5897826060358
 20
118.7906241973735
 30
0.0
 10
-52.20983793655015
 20
119.1495118135686
 30
0.0
 10
-51.83861280487939
 20
119.6487347928582
 30
0.0
 10
-51.59436616021001
 20
120.0346431094534
 30
0.0
 10
-51.47670857716064
 20
120.2205414249485
 30
0.0
  0
CIRCLE
  5
1FC
330
1F
100
AcDbEntity
  8
0
  6
Continuous
 62
     7
370
    15
100
AcDbCircle
 10
793.7705138328
 20
345.1205414249
 30
0.0
 40
2.700000000000045
  0
CIRCLE
  5
1FD
330
1F
100
AcDbEntity
  8
0
  6
Continuous
 62
     7
370
    15
100
AcDbCircle
 10
23.7705138328
 20
345.1205414249
 30
0.0
 40
2.700000000000045
  0
CIRCLE
  5
1FE
330
1F
100
AcDbEntity
  8
0
  6
Continuous
 62
     7
370
    15
100
AcDbCircle
 10
413.7705138328
 20
345.1205414249
 30
0.0
 40
2.700000000000045
  0
LINE
  5
1FF
330
1F
100
AcDbEntity
  8
0
  6
Continuous
 62
     8
370
    15
100
AcDbLine
 10
-6.8480805226
 20
394.5874085217
 30
0.0
 11
-25.8480805226
 21
394.5874085217
 31
0.0
  0
LINE
  5
200
330
1F
100
AcDbEntity
  8
0
  6
Continuous
 62
     8
370
    15
100
AcDbLine
 10
808.3688449921
 20
263.0469885368
 30
0.0
 11
806.8899496869
 21
262.4215125338
 31
0.0
  0
LINE
  5
201
330
1F
100
AcDbEntity
  8
0
  6
Continuous
 62
     8
370
    15
100
AcDbLine
 10
814.254791364
 20
259.3939924511
 30
0.0
 11
832.7660375907
 21
219.6964968106
 31
0.0
  0
LWPOLYLINE
  5
202
330
1F
100
AcDbEntity
  8
0
  6
Continuous
 62
     8
370
    15
100
AcDbPolyline
 90
        3
 70
   128
 43
0.0
 10
806.1069182512
 20
264.1007288667
 10
807.0750800323
 20
264.5111545029
 10
807.5852600815
 20
264.7273918005
  0
SPLINE
  5
203
330
1F
100
AcDbEntity
  8
0
  6
Continuous
 62
     8
370
    15
100
AcDbSpline
210
0.0
220
0.0
230
1.0
 70
     8
 71
     3
 72
    11
 73
     7
 74
     0
 42
0.00000001
 43
0.00000001
 12
1.0
 22
0.0
 32
0.0
 13
1.0
 23
0.0
 33
0.0
 40
0.0
 40
0.0
 40
0.0
 40
0.0
 40
0.3052069607318964
 40
0.6079701988248486
 40
0.8124395915624629
 40
1.0
 40
1.0
 40
1.0
 40
1.0
 10
801.9789152282528
 20
276.7502371369496
 30
0.0
 10
801.7494262305275
 20
277.232637535233
 30
0.0
 10
801.2922857012275
 20
278.1935758616534
 30
0.0
 10
800.4751638679036
 20
279.3644118288166
 30
0.0
 10
799.5120644490352
 20
280.1605855749273
 30
0.0
 10
798.8360370089249
 20
280.3135894008776
 30
0.0
 10
798.5126024577709
 20
280.3867916421402
 30
0.0
  0
LINE
  5
204
330
1F
100
AcDbEntity
  8
0
  6
Continuous
 62
     8
370
    15
100
AcDbLine
 10
865.7386746444
 20
237.4279705497
 30
0.0
 11
864.2719129841
 21
240.573451081
 31
0.0
  0
LINE
  5
205
330
1F
100
AcDbEntity
  8
0
  6
Continuous
 62
     8
370
    15
100
AcDbLine
 10
830.3584388212
 20
243.7102796613
 30
0.0
 11
828.5489847579
 21
242.858263256
 31
0.0
  0
LINE
  5
206
330
1F
100
AcDbEntity
  8
0
  6
Continuous
 62
     8
370
    15
100
AcDbLine
 10
831.0401228249
 20
242.2484035977
 30
0.0
 11
829.2275415661
 21
241.403093485
 31
0.0
  0
LINE
  5
207
330
1F
100
AcDbEntity
  8
0
  6
Continuous
 62
     8
370
    15
100
AcDbLine
 10
833.2592192039
 20
237.4895360558
 30
0.0
 11
831.4364579375
 21
236.6660570397
 31
0.0
  0
LINE
  5
208
330
1F
100
AcDbEntity
  8
0
  6
Continuous
 62
     8
370
    15
100
AcDbLine
 10
832.9902754898
 20
238.0662877119
 30
0.0
 11
831.1850664428
 21
237.2051678398
 31
0.0
  0
LINE
  5
209
330
1F
100
AcDbEntity
  8
0
  6
Continuous
 62
     8
370
    15
100
AcDbLine
 10
833.7080136555
 20
236.5270932483
 30
0.0
 11
831.8831935642
 21
235.7080293965
 31
0.0
  0
LINE
  5
20A
330
1F
100
AcDbEntity
  8
0
  6
Continuous
 62
     8
370
    15
100
AcDbLine
 10
114.7116211423
 20
20.2205414249
 30
0.0
 11
57.7116211423
 21
20.2205414249
 31
0.0
  0
LINE
  5
20B
330
1F
100
AcDbEntity
  8
0
  6
Continuous
 62
     8
370
    15
100
AcDbLine
 10
693.7116211423
 20
20.2205414249
 30
0.0
 11
636.7116211423
 21
20.2205414249
 31
0.0
  0
LINE
  5
20C
330
1F
100
AcDbEntity
  8
0
  6
Continuous
 62
     8
370
    15
100
AcDbLine
 10
697.1116211423
 20
114.7205414249
 30
0.0
 11
633.3116211423
 21
114.7205414249
 31
0.0
  0
LINE
  5
20D
330
1F
100
AcDbEntity
  8
0
  6
Continuous
 62
     8
370
    15
100
AcDbLine
 10
697.1116211423
 20
59.2531073706
 30
0.0
 11
633.3116211423
 21
59.2531073706
 31
0.0
  0
LINE
  5
20E
330
1F
100
AcDbEntity
  8
0
  6
Continuous
 62
     8
370
    15
100
AcDbLine
 10
697.0477079153
 20
58.4806441461
 30
0.0
 11
633.3755343693
 21
58.4806441461
 31
0.0
  0
LINE
  5
20F
330
1F
100
AcDbEntity
  8
0
  6
Continuous
 62
     8
370
    15
100
AcDbLine
 10
118.1116211423
 20
114.7205414249
 30
0.0
 11
54.3116211423
 21
114.7205414249
 31
0.0
  0
LINE
  5
210
330
1F
100
AcDbEntity
  8
0
  6
Continuous
 62
     8
370
    15
100
AcDbLine
 10
118.0477079153
 20
58.4806441461
 30
0.0
 11
54.3755343693
 21
58.4806441461
 31
0.0
  0
LINE
  5
211
330
1F
100
AcDbEntity
  8
0
  6
Continuous
 62
     8
370
    15
100
AcDbLine
 10
118.1116211423
 20
59.2531073706
 30
0.0
 11
54.3116211423
 21
59.2531073706
 31
0.0
  0
LINE
  5
212
330
1F
100
AcDbEntity
  8
0
  6
Continuous
 62
     8
370
    15
100
AcDbLine
 10
811.9540842098
 20
288.9474260169
 30
0.0
 11
810.6364190502
 21
291.7731680705
 31
0.0
  0
LINE
  5
213
330
1F
100
AcDbEntity
  8
0
  6
Continuous
 62
     8
370
    15
100
AcDbLine
 10
815.200696277
 20
281.9850439705
 30
0.0
 11
811.9540842098
 21
288.9474260169
 31
0.0
  0
LINE
  5
214
330
1F
100
AcDbEntity
  8
0
  6
Continuous
 62
     8
370
    15
100
AcDbLine
 10
707.0207422141
 20
403.3160316432
 30
0.0
 11
714.77881856
 21
403.1247575872
 31
0.0
  0
LINE
  5
215
330
1F
100
AcDbEntity
  8
0
  6
Continuous
 62
     8
370
    15
100
AcDbLine
 10
681.8318109269
 20
409.9765081769
 30
0.0
 11
679.6282921215
 21
410.0308355592
 31
0.0
  0
LINE
  5
216
330
1F
100
AcDbEntity
  8
0
  6
Continuous
 62
     8
370
    15
100
AcDbLine
 10
765.1275021293
 20
109.1205414249
 30
0.0
 11
697.1116211423
 21
109.1205414249
 31
0.0
  0
LINE
  5
217
330
1F
100
AcDbEntity
  8
0
  6
Continuous
 62
     8
370
    15
100
AcDbLine
 10
633.3116211423
 20
67.9205414249
 30
0.0
 11
118.1116211423
 21
67.9205414249
 31
0.0
  0
LINE
  5
218
330
1F
100
AcDbEntity
  8
0
  6
Continuous
 62
     8
370
    15
100
AcDbLine
 10
834.1705138328
 20
365.0873965863
 30
0.0
 11
834.1705138328
 21
362.8205414249
 31
0.0
  0
ENDSEC
  0
SECTION
  2
OBJECTS
  0
DICTIONARY
  5
C
330
0
100
AcDbDictionary
281
     1
  3
ACAD_GROUP
350
D
  3
ACAD_LAYOUT
350
1A
  3
ACAD_MLINESTYLE
350
17
  3
ACAD_PLOTSETTINGS
350
19
  3
ACAD_PLOTSTYLENAME
350
E
  0
DICTIONARY
  5
D
102
{ACAD_REACTORS
330
C
102
}
330
C
100
AcDbDictionary
281
     1
  0
DICTIONARY
  5
1A
102
{ACAD_REACTORS
330
C
102
}
330
C
100
AcDbDictionary
281
     1
  3
Layout1
350
1E
  3
Layout2
350
26
  3
Model
350
22
  0
DICTIONARY
  5
17
102
{ACAD_REACTORS
330
C
102
}
330
C
100
AcDbDictionary
281
     1
  3
Standard
350
18
  0
DICTIONARY
  5
19
102
{ACAD_REACTORS
330
C
102
}
330
C
100
AcDbDictionary
281
     1
  0
ACDBDICTIONARYWDFLT
  5
E
102
{ACAD_REACTORS
330
C
102
}
330
C
100
AcDbDictionary
281
     1
  3
Normal
350
F
100
AcDbDictionaryWithDefault
340
F
  0
LAYOUT
  5
1E
102
{ACAD_REACTORS
330
1A
102
}
330
1A
100
AcDbPlotSettings
  1

  2
none_device
  4

  6

 40
0.0
 41
0.0
 42
0.0
 43
0.0
 44
0.0
 45
0.0
 46
0.0
 47
0.0
 48
0.0
 49
0.0
140
0.0
141
0.0
142
1.0
143
1.0
 70
   688
 72
     0
 73
     0
 74
     5
  7

 75
    16
147
1.0
148
0.0
149
0.0
100
AcDbLayout
  1
Layout1
 70
     1
 71
     1
 10
0.0
 20
0.0
 11
420.0
 21
297.0
 12
0.0
 22
0.0
 32
0.0
 14
1.0000000000E+20
 24
1.0000000000E+20
 34
1.0000000000E+20
 15
-1.0000000000E+20
 25
-1.0000000000E+20
 35
-1.0000000000E+20
146
0.0
 13
0.0
 23
0.0
 33
0.0
 16
1.0
 26
0.0
 36
0.0
 17
0.0
 27
1.0
 37
0.0
 76
     0
330
1B
  0
LAYOUT
  5
26
102
{ACAD_REACTORS
330
1A
102
}
330
1A
100
AcDbPlotSettings
  1

  2
none_device
  4

  6

 40
0.0
 41
0.0
 42
0.0
 43
0.0
 44
0.0
 45
0.0
 46
0.0
 47
0.0
 48
0.0
 49
0.0
140
0.0
141
0.0
142
1.0
143
1.0
 70
   688
 72
     0
 73
     0
 74
     5
  7

 75
    16
147
1.0
148
0.0
149
0.0
100
AcDbLayout
  1
Layout2
 70
     1
 71
     2
 10
0.0
 20
0.0
 11
0.0
 21
0.0
 12
0.0
 22
0.0
 32
0.0
 14
0.0
 24
0.0
 34
0.0
 15
0.0
 25
0.0
 35
0.0
146
0.0
 13
0.0
 23
0.0
 33
0.0
 16
1.0
 26
0.0
 36
0.0
 17
0.0
 27
1.0
 37
0.0
 76
     0
330
23
  0
LAYOUT
  5
22
102
{ACAD_REACTORS
330
1A
102
}
330
1A
100
AcDbPlotSettings
  1

  2
none_device
  4

  6

 40
0.0
 41
0.0
 42
0.0
 43
0.0
 44
0.0
 45
0.0
 46
0.0
 47
0.0
 48
0.0
 49
0.0
140
0.0
141
0.0
142
1.0
143
1.0
 70
  1712
 72
     0
 73
     0
 74
     0
  7

 75
     0
147
1.0
148
0.0
149
0.0
100
AcDbLayout
  1
Model
 70
     1
 71
     0
 10
0.0
 20
0.0
 11
841.0
 21
594.0
 12
0.0
 22
0.0
 32
0.0
 14
0.0
 24
0.0
 34
0.0
 15
841.0
 25
594.0
 35
0.0
146
0.0
 13
0.0
 23
0.0
 33
0.0
 16
1.0
 26
0.0
 36
0.0
 17
0.0
 27
1.0
 37
0.0
 76
     0
330
1F
331
29
  0
MLINESTYLE
  5
18
102
{ACAD_REACTORS
330
17
102
}
330
17
100
AcDbMlineStyle
  2
Standard
 70
     0
  3

 62
   256
 51
90.0
 52
90.0
 71
     2
 49
0.5
 62
   256
  6
BYLAYER
 49
-0.5
 62
   256
  6
BYLAYER
  0
ACDBPLACEHOLDER
  5
F
102
{ACAD_REACTORS
330
E
102
}
330
E
  0
ENDSEC
  0
EOF
