  0
SECTION
  2
HEADER
  9
$ACADVER
  1
AC1021
  9
$ACADMAINTVER
 70
    25
  9
$DWGCODEPAGE
  3
ANSI_1252
  9
$INSBASE
 10
0.0
 20
0.0
 30
0.0
  9
$EXTMIN
 10
0.0
 20
0.0
 30
0.0
  9
$EXTMAX
 10
420.0
 20
297.0
 30
0.0
  9
$LIMMIN
 10
0.0
 20
0.0
  9
$LIMMAX
 10
420.0
 20
297.0
  9
$ORTHOMODE
 70
     0
  9
$REGENMODE
 70
     1
  9
$FILLMODE
 70
     1
  9
$QTEXTMODE
 70
     0
  9
$MIRRTEXT
 70
     1
  9
$LTSCALE
 40
1.0
  9
$ATTMODE
 70
     1
  9
$TEXTSIZE
 40
3.5
  9
$TRACEWID
 40
1.0
  9
$TEXTSTYLE
  7
Standard
  9
$CLAYER
  8
0
  9
$CELTYPE
  6
ByLayer
  9
$CECOLOR
 62
   256
  9
$CELTSCALE
 40
1.0
  9
$DISPSILH
 70
     0
  9
$DIMSCALE
 40
1.0
  9
$DIMASZ
 40
3.302
  9
$DIMEXO
 40
1.0
  9
$DIMDLI
 40
3.75
  9
$DIMRND
 40
0.0
  9
$DIMDLE
 40
0.0
  9
$DIMEXE
 40
1.0
  9
$DIMTP
 40
0.0
  9
$DIMTM
 40
0.0
  9
$DIMTXT
 40
3.5
  9
$DIMCEN
 40
2.5
  9
$DIMTSZ
 40
0.0
  9
$DIMTOL
 70
     0
  9
$DIMLIM
 70
     0
  9
$DIMTIH
 70
     1
  9
$DIMTOH
 70
     1
  9
$DIMSE1
 70
     0
  9
$DIMSE2
 70
     0
  9
$DIMTAD
 70
     1
  9
$DIMZIN
 70
     0
  9
$DIMBLK
  1

  9
$DIMASO
 70
     1
  9
$DIMSHO
 70
     1
  9
$DIMPOST
  1

  9
$DIMAPOST
  1

  9
$DIMALT
 70
     0
  9
$DIMALTD
 70
     3
  9
$DIMALTF
 40
0.0393700787
  9
$DIMLFAC
 40
1.0
  9
$DIMTOFL
 70
     1
  9
$DIMTVP
 40
0.0
  9
$DIMTIX
 70
     0
  9
$DIMSOXD
 70
     0
  9
$DIMSAH
 70
     0
  9
$DIMBLK1
  1

  9
$DIMBLK2
  1

  9
$DIMSTYLE
  2
ISO-25
  9
$DIMCLRD
 70
     0
  9
$DIMCLRE
 70
     0
  9
$DIMCLRT
 70
     0
  9
$DIMTFAC
 40
1.0
  9
$DIMGAP
 40
1.524
  9
$DIMJUST
 70
     0
  9
$DIMSD1
 70
     0
  9
$DIMSD2
 70
     0
  9
$DIMTOLJ
 70
     0
  9
$DIMTZIN
 70
     0
  9
$DIMALTZ
 70
     0
  9
$DIMALTTZ
 70
     0
  9
$DIMUPT
 70
     0
  9
$DIMDEC
 70
     1
  9
$DIMTDEC
 70
     1
  9
$DIMALTU
 70
     2
  9
$DIMALTTD
 70
     3
  9
$DIMTXSTY
  7
Standard
  9
$DIMAUNIT
 70
     0
  9
$DIMADEC
 70
     1
  9
$DIMALTRND
 40
0.0
  9
$DIMAZIN
 70
     0
  9
$DIMDSEP
 70
    44
  9
$DIMATFIT
 70
     3
  9
$DIMFRAC
 70
     0
  9
$DIMLDRBLK
  1

  9
$DIMLUNIT
 70
     2
  9
$DIMLWD
 70
    -2
  9
$DIMLWE
 70
    -2
  9
$DIMTMOVE
 70
     0
  9
$DIMFXL
 40
1.0
  9
$DIMFXLON
 70
     0
  9
$DIMJOGANG
 40
0.7853981634
  9
$DIMTFILL
 70
     0
  9
$DIMTFILLCLR
 70
     0
  9
$DIMARCSYM
 70
     0
  9
$DIMLTYPE
  6

  9
$DIMLTEX1
  6

  9
$DIMLTEX2
  6

  9
$LUNITS
 70
     2
  9
$LUPREC
 70
     1
  9
$SKETCHINC
 40
1.0
  9
$FILLETRAD
 40
10.0
  9
$AUNITS
 70
     0
  9
$AUPREC
 70
     1
  9
$MENU
  1
.
  9
$ELEVATION
 40
0.0
  9
$PELEVATION
 40
0.0
  9
$THICKNESS
 40
0.0
  9
$LIMCHECK
 70
     0
  9
$CHAMFERA
 40
10.0
  9
$CHAMFERB
 40
10.0
  9
$CHAMFERC
 40
20.0
  9
$CHAMFERD
 40
0.0
  9
$SKPOLY
 70
     0
  9
$TDCREATE
 40
2455747.466025243
  9
$TDUCREATE
 40
2455747.424358577
  9
$TDUPDATE
 40
2455747.466025255
  9
$TDUUPDATE
 40
2455747.424358588
  9
$TDINDWG
 40
0.0000000116
  9
$TDUSRTIMER
 40
0.0000000116
  9
$USRTIMER
 70
     1
  9
$ANGBASE
 50
0.0
  9
$ANGDIR
 70
     0
  9
$PDMODE
 70
     0
  9
$PDSIZE
 40
-1.0
  9
$PLINEWID
 40
0.0
  9
$SPLFRAME
 70
     0
  9
$SPLINETYPE
 70
     6
  9
$SPLINESEGS
 70
     8
  9
$HANDSEED
  5
2E5
  9
$SURFTAB1
 70
     6
  9
$SURFTAB2
 70
     6
  9
$SURFTYPE
 70
     6
  9
$SURFU
 70
     6
  9
$SURFV
 70
     6
  9
$UCSBASE
  2

  9
$UCSNAME
  2

  9
$UCSORG
 10
0.0
 20
0.0
 30
0.0
  9
$UCSXDIR
 10
1.0
 20
0.0
 30
0.0
  9
$UCSYDIR
 10
0.0
 20
1.0
 30
0.0
  9
$UCSORTHOREF
  2

  9
$UCSORTHOVIEW
 70
     0
  9
$UCSORGTOP
 10
0.0
 20
0.0
 30
0.0
  9
$UCSORGBOTTOM
 10
0.0
 20
0.0
 30
0.0
  9
$UCSORGLEFT
 10
0.0
 20
0.0
 30
0.0
  9
$UCSORGRIGHT
 10
0.0
 20
0.0
 30
0.0
  9
$UCSORGFRONT
 10
0.0
 20
0.0
 30
0.0
  9
$UCSORGBACK
 10
0.0
 20
0.0
 30
0.0
  9
$PUCSBASE
  2

  9
$PUCSNAME
  2

  9
$PUCSORG
 10
0.0
 20
0.0
 30
0.0
  9
$PUCSXDIR
 10
1.0
 20
0.0
 30
0.0
  9
$PUCSYDIR
 10
0.0
 20
1.0
 30
0.0
  9
$PUCSORTHOREF
  2

  9
$PUCSORTHOVIEW
 70
     0
  9
$PUCSORGTOP
 10
0.0
 20
0.0
 30
0.0
  9
$PUCSORGBOTTOM
 10
0.0
 20
0.0
 30
0.0
  9
$PUCSORGLEFT
 10
0.0
 20
0.0
 30
0.0
  9
$PUCSORGRIGHT
 10
0.0
 20
0.0
 30
0.0
  9
$PUCSORGFRONT
 10
0.0
 20
0.0
 30
0.0
  9
$PUCSORGBACK
 10
0.0
 20
0.0
 30
0.0
  9
$USERI1
 70
     0
  9
$USERI2
 70
     0
  9
$USERI3
 70
     0
  9
$USERI4
 70
     0
  9
$USERI5
 70
     0
  9
$USERR1
 40
0.0
  9
$USERR2
 40
0.0
  9
$USERR3
 40
0.0
  9
$USERR4
 40
0.0
  9
$USERR5
 40
0.0
  9
$WORLDVIEW
 70
     1
  9
$SHADEDGE
 70
     3
  9
$SHADEDIF
 70
    70
  9
$TILEMODE
 70
     1
  9
$MAXACTVP
 70
    64
  9
$PINSBASE
 10
0.0
 20
0.0
 30
0.0
  9
$PLIMCHECK
 70
     0
  9
$PEXTMIN
 10
1.0000000000E+20
 20
1.0000000000E+20
 30
1.0000000000E+20
  9
$PEXTMAX
 10
-1.0000000000E+20
 20
-1.0000000000E+20
 30
-1.0000000000E+20
  9
$PLIMMIN
 10
0.0
 20
0.0
  9
$PLIMMAX
 10
420.0
 20
297.0
  9
$UNITMODE
 70
     0
  9
$VISRETAIN
 70
     1
  9
$PLINEGEN
 70
     0
  9
$PSLTSCALE
 70
     1
  9
$TREEDEPTH
 70
  3020
  9
$CMLSTYLE
  2
Standard
  9
$CMLJUST
 70
     0
  9
$CMLSCALE
 40
20.0
  9
$PROXYGRAPHICS
 70
     1
  9
$MEASUREMENT
 70
     1
  9
$CELWEIGHT
370
    -1
  9
$ENDCAPS
280
     0
  9
$JOINSTYLE
280
     0
  9
$LWDISPLAY
290
     1
  9
$INSUNITS
 70
     4
  9
$HYPERLINKBASE
  1

  9
$STYLESHEET
  1

  9
$XEDIT
290
     1
  9
$CEPSNTYPE
380
     0
  9
$PSTYLEMODE
290
     1
  9
$FINGERPRINTGUID
  2
{3AE7460F-6032-4FAC-BA3C-4BDCCA003E3E}
  9
$VERSIONGUID
  2
{FAEB1C32-E019-11D5-929B-00C0DF256EC4}
  9
$EXTNAMES
290
     1
  9
$PSVPSCALE
 40
0.0
  9
$OLESTARTUP
290
     0
  9
$SORTENTS
280
   127
  9
$INDEXCTL
280
     0
  9
$HIDETEXT
280
     1
  9
$XCLIPFRAME
290
     0
  9
$HALOGAP
280
     0
  9
$OBSCOLOR
 70
   257
  9
$OBSLTYPE
280
     0
  9
$INTERSECTIONDISPLAY
280
     0
  9
$INTERSECTIONCOLOR
 70
   257
  9
$DIMASSOC
280
     2
  9
$PROJECTNAME
  1

  9
$CAMERADISPLAY
290
     0
  9
$LENSLENGTH
 40
50.0
  9
$CAMERAHEIGHT
 40
0.0
  9
$STEPSPERSEC
 40
2.0
  9
$STEPSIZE
 40
6.0
  9
$3DDWFPREC
 40
2.0
  9
$PSOLWIDTH
 40
5.0
  9
$PSOLHEIGHT
 40
80.0
  9
$LOFTANG1
 40
1.5707963268
  9
$LOFTANG2
 40
1.5707963268
  9
$LOFTMAG1
 40
0.0
  9
$LOFTMAG2
 40
0.0
  9
$LOFTPARAM
 70
     7
  9
$LOFTNORMALS
280
     1
  9
$LATITUDE
 40
37.795
  9
$LONGITUDE
 40
-122.394
  9
$NORTHDIRECTION
 40
0.0
  9
$TIMEZONE
 70
 -8000
  9
$LIGHTGLYPHDISPLAY
280
     1
  9
$TILEMODELIGHTSYNCH
280
     1
  9
$SOLIDHIST
280
     1
  9
$SHOWHIST
280
     1
  9
$DWFFRAME
280
     2
  9
$DGNFRAME
280
     2
  9
$REALWORLDSCALE
290
     1
  9
$INTERFERECOLOR
 62
   256
  9
$CSHADOW
280
     0
  9
$SHADOWPLANELOCATION
 40
0.0
  0
ENDSEC
  0
SECTION
  2
CLASSES
  0
CLASS
  1
ACDBDICTIONARYWDFLT
  2
AcDbDictionaryWithDefault
  3
ObjectDBX Classes
 90
        0
 91
        4
280
     0
281
     0
  0
CLASS
  1
VISUALSTYLE
  2
AcDbVisualStyle
  3
ObjectDBX Classes
 90
     4095
 91
        4
280
     0
281
     0
  0
CLASS
  1
MATERIAL
  2
AcDbMaterial
  3
ObjectDBX Classes
 90
     1153
 91
        4
280
     0
281
     0
  0
ENDSEC
  0
SECTION
  2
TABLES
  0
TABLE
  2
VPORT
  5
8
330
0
100
AcDbSymbolTable
 70
     1
  0
VPORT
  5
29
330
8
100
AcDbSymbolTableRecord
100
AcDbViewportTableRecord
  2
*Active
 70
     0
 10
0.0
 20
0.0
 11
1.0
 21
1.0
 12
210.0
 22
148.5
 13
0.0
 23
0.0
 14
10.0
 24
10.0
 15
10.0
 25
10.0
 16
0.0
 26
0.0
 36
1.0
 17
0.0
 27
0.0
 37
0.0
 40
297.0
 41
1.4141414141
 42
50.0
 43
0.0
 44
0.0
 50
0.0
 51
0.0
 71
     0
 72
  2000
 73
     1
 74
     3
 75
     0
 76
     0
 77
     0
 78
     0
281
     0
 65
     1
110
0.0
120
0.0
130
0.0
111
1.0
121
0.0
131
0.0
112
0.0
122
1.0
132
0.0
 79
     0
146
0.0
 60
     3
 61
     5
292
     1
282
     1
141
0.0
142
0.0
 63
   250
  0
ENDTAB
  0
TABLE
  2
LTYPE
  5
5
330
0
100
AcDbSymbolTable
 70
     6
  0
LTYPE
  5
14
330
5
100
AcDbSymbolTableRecord
100
AcDbLinetypeTableRecord
  2
ByBlock
 70
     0
  3

 72
    65
 73
     0
 40
0.0
  0
LTYPE
  5
15
330
5
100
AcDbSymbolTableRecord
100
AcDbLinetypeTableRecord
  2
ByLayer
 70
     0
  3

 72
    65
 73
     0
 40
0.0
  0
LTYPE
  5
16
330
5
100
AcDbSymbolTableRecord
100
AcDbLinetypeTableRecord
  2
Continuous
 70
     0
  3
Solid line
 72
    65
 73
     0
 40
0.0
  0
LTYPE
  5
3F
330
5
100
AcDbSymbolTableRecord
100
AcDbLinetypeTableRecord
  2
HIDDEN
 70
     0
  3
Hidden __ __ __ __ __ __ __ __ __ __ __ __ __ __
 72
    65
 73
     2
 40
1.905
 49
1.27
 74
     0
 49
-0.635
 74
     0
  0
LTYPE
  5
40
330
5
100
AcDbSymbolTableRecord
100
AcDbLinetypeTableRecord
  2
PHANTOM
 70
     0
  3
Phantom ______  __  __  ______  __  __  ______
 72
    65
 73
     6
 40
12.7
 49
6.35
 74
     0
 49
-1.27
 74
     0
 49
1.27
 74
     0
 49
-1.27
 74
     0
 49
1.27
 74
     0
 49
-1.27
 74
     0
  0
LTYPE
  5
41
330
5
100
AcDbSymbolTableRecord
100
AcDbLinetypeTableRecord
  2
CENTER
 70
     0
  3
Center ____ _ ____ _ ____ _ ____ _ ____ _ ____
 72
    65
 73
     4
 40
10.16
 49
6.35
 74
     0
 49
-1.27
 74
     0
 49
1.27
 74
     0
 49
-1.27
 74
     0
  0
LTYPE
  5
42
330
5
100
AcDbSymbolTableRecord
100
AcDbLinetypeTableRecord
  2
CENTERX2
 70
     0
  3
Center (2x) ________  __  ________  __  _____
 72
    65
 73
     4
 40
20.32
 49
12.7
 74
     0
 49
-2.54
 74
     0
 49
2.54
 74
     0
 49
-2.54
 74
     0
  0
LTYPE
  5
43
330
5
100
AcDbSymbolTableRecord
100
AcDbLinetypeTableRecord
  2
DOT2
 70
     0
  3
Dot (.5x) ........................................
 72
    65
 73
     2
 40
0.635
 49
0.0
 74
     0
 49
-0.635
 74
     0
  0
ENDTAB
  0
TABLE
  2
LAYER
  5
2
330
0
100
AcDbSymbolTable
 70
     1
  0
LAYER
  5
10
330
2
100
AcDbSymbolTableRecord
100
AcDbLayerTableRecord
  2
0
 70
     0
 62
     7
  6
Continuous
370
    -3
390
F
347
3E
  0
ENDTAB
  0
TABLE
  2
STYLE
  5
3
330
0
100
AcDbSymbolTable
 70
     1
  0
STYLE
  5
11
330
3
100
AcDbSymbolTableRecord
100
AcDbTextStyleTableRecord
  2
Standard
 70
     0
 40
0.0
 41
1.0
 50
0.0
 71
     0
 42
2.5
  3
txt
  4

  0
ENDTAB
  0
TABLE
  2
VIEW
  5
6
330
0
100
AcDbSymbolTable
 70
     0
  0
ENDTAB
  0
TABLE
  2
UCS
  5
7
330
0
100
AcDbSymbolTable
 70
     0
  0
ENDTAB
  0
TABLE
  2
APPID
  5
9
330
0
100
AcDbSymbolTable
 70
     1
  0
APPID
  5
12
330
9
100
AcDbSymbolTableRecord
100
AcDbRegAppTableRecord
  2
ACAD
 70
     0
  0
ENDTAB
  0
TABLE
  2
DIMSTYLE
  5
A
330
0
100
AcDbSymbolTable
 70
     1
100
AcDbDimStyleTable
  0
DIMSTYLE
105
27
330
A
100
AcDbSymbolTableRecord
100
AcDbDimStyleTableRecord
  2
ISO-25
 70
     0
 41
2.5
 42
0.625
 43
3.75
 44
1.25
 73
     0
 74
     0
 77
     1
 78
     8
140
2.5
141
2.5
143
0.0393700787
147
0.625
171
     3
172
     1
271
     2
272
     2
274
     3
278
    44
283
     0
284
     8
340
11
  0
ENDTAB
  0
TABLE
  2
BLOCK_RECORD
  5
1
330
0
100
AcDbSymbolTable
 70
     1
  0
BLOCK_RECORD
  5
1F
330
1
100
AcDbSymbolTableRecord
100
AcDbBlockTableRecord
  2
*Model_Space
340
22
 70
     0
280
     1
281
     0
  0
BLOCK_RECORD
  5
1B
330
1
100
AcDbSymbolTableRecord
100
AcDbBlockTableRecord
  2
*Paper_Space
340
1E
 70
     0
280
     1
281
     0
  0
BLOCK_RECORD
  5
23
330
1
100
AcDbSymbolTableRecord
100
AcDbBlockTableRecord
  2
*Paper_Space0
340
26
 70
     0
280
     1
281
     0
  0
ENDTAB
  0
ENDSEC
  0
SECTION
  2
BLOCKS
  0
BLOCK
  5
20
330
1F
100
AcDbEntity
  8
0
100
AcDbBlockBegin
  2
*Model_Space
 70
     0
 10
0.0
 20
0.0
 30
0.0
  3
*Model_Space
  1

  0
ENDBLK
  5
21
330
1F
100
AcDbEntity
  8
0
100
AcDbBlockEnd
  0
BLOCK
  5
1C
330
1B
100
AcDbEntity
 67
     1
  8
0
100
AcDbBlockBegin
  2
*Paper_Space
 70
     0
 10
0.0
 20
0.0
 30
0.0
  3
*Paper_Space
  1

  0
ENDBLK
  5
1D
330
1B
100
AcDbEntity
 67
     1
  8
0
100
AcDbBlockEnd
  0
BLOCK
  5
24
330
23
100
AcDbEntity
  8
0
100
AcDbBlockBegin
  2
*Paper_Space0
 70
     0
 10
0.0
 20
0.0
 30
0.0
  3
*Paper_Space0
  1

  0
ENDBLK
  5
25
330
23
100
AcDbEntity
  8
0
100
AcDbBlockEnd
  0
ENDSEC
  0
SECTION
  2
ENTITIES
  0
LINE
  5
44
330
1F
100
AcDbEntity
  8
0
  6
Continuous
 62
     7
370
    15
100
AcDbLine
 10
651.0011098314
 20
499.1751350845
 30
0.0
 11
649.0011355806
 21
501.1751391376
 31
0.0
  0
LINE
  5
45
330
1F
100
AcDbEntity
  8
0
  6
Continuous
 62
     7
370
    15
100
AcDbLine
 10
631.0011289049
 20
501.1751391376
 30
0.0
 11
629.0011248518
 21
499.1751350845
 31
0.0
  0
LINE
  5
46
330
1F
100
AcDbEntity
  8
0
  6
Continuous
 62
     7
370
    15
100
AcDbLine
 10
629.0011248518
 20
499.1751350845
 30
0.0
 11
631.0011289049
 21
497.1751310314
 31
0.0
  0
LINE
  5
47
330
1F
100
AcDbEntity
  8
0
  6
Continuous
 62
     7
370
    15
100
AcDbLine
 10
649.0011355806
 20
497.1751310314
 30
0.0
 11
651.0011098314
 21
499.1751350845
 31
0.0
  0
LINE
  5
48
330
1F
100
AcDbEntity
  8
0
  6
Continuous
 62
     7
370
    15
100
AcDbLine
 10
410.8050755191
 20
-306.1847351109
 30
0.0
 11
411.4496774006
 21
-307.7962658917
 31
0.0
  0
LINE
  5
49
330
1F
100
AcDbEntity
  8
0
  6
Continuous
 62
     7
370
    15
100
AcDbLine
 10
468.9525655437
 20
-307.7962658917
 30
0.0
 11
469.5971748758
 21
-306.1847351109
 31
0.0
  0
SPLINE
  5
4A
330
1F
100
AcDbEntity
  8
0
  6
Continuous
 62
     7
370
    15
100
AcDbSpline
210
0.0
220
0.0
230
1.0
 70
     8
 71
     3
 72
    11
 73
     7
 74
     0
 42
0.00000001
 43
0.00000001
 40
0.0
 40
0.0
 40
0.0
 40
0.0
 40
0.1919463452528146
 40
0.4690032889949775
 40
0.7635720704941603
 40
0.9999999999999999
 40
0.9999999999999999
 40
0.9999999999999999
 40
0.9999999999999999
 10
424.4357711601732
 20
-308.981176427494
 30
0.0
 10
424.5965671184471
 20
-309.0993449546486
 30
0.0
 10
424.989457294023
 20
-309.3880789121417
 30
0.0
 10
425.4935416897274
 20
-310.0524658549801
 30
0.0
 10
425.8951399128875
 20
-310.8087765293922
 30
0.0
 10
425.9843293536969
 20
-311.3075102719466
 30
0.0
 10
426.0240412283418
 20
-311.5295730148658
 30
0.0
  0
SPLINE
  5
4B
330
1F
100
AcDbEntity
  8
0
  6
Continuous
 62
     7
370
    15
100
AcDbSpline
210
0.0
220
0.0
230
1.0
 70
     8
 71
     3
 72
    12
 73
     8
 74
     0
 42
0.00000001
 43
0.00000001
 40
0.0
 40
0.0
 40
0.0
 40
0.0
 40
0.0495554654299884
 40
0.3660701396083902
 40
0.6392289793817223
 40
0.8942881693413591
 40
1.0
 40
1.0
 40
1.0
 40
1.0
 10
454.354702584791
 20
-311.5313015495642
 30
0.0
 10
454.3617311555922
 20
-311.483024610391
 30
0.0
 10
454.4136517635841
 20
-311.1263990452862
 30
0.0
 10
454.6618697959711
 20
-310.4716172925112
 30
0.0
 10
455.1711531413335
 20
-309.6816492803188
 30
0.0
 10
455.6781700569557
 20
-309.1395040638477
 30
0.0
 10
456.0040277103109
 20
-308.9495692465577
 30
0.0
 10
456.099509351301
 20
-308.8939152275427
 30
0.0
  0
LINE
  5
4C
330
1F
100
AcDbEntity
  8
0
  6
Continuous
 62
     7
370
    15
100
AcDbLine
 10
428.3097154427
 20
-325.8070014035
 30
0.0
 11
428.5437009264
 21
-327.5517485653
 31
0.0
  0
SPLINE
  5
4D
330
1F
100
AcDbEntity
  8
0
  6
Continuous
 62
     7
370
    15
100
AcDbSpline
210
0.0
220
0.0
230
1.0
 70
     8
 71
     3
 72
    10
 73
     6
 74
     0
 42
0.00000001
 43
0.00000001
 40
0.0
 40
0.0
 40
0.0
 40
0.0
 40
0.1237920655427059
 40
0.8061785465534831
 40
1.0
 40
1.0
 40
1.0
 40
1.0
 10
426.0456106591699
 20
-311.531897596012
 30
0.0
 10
426.1539412441815
 20
-312.1225866338945
 30
0.0
 10
426.8594290570638
 20
-315.9693665380623
 30
0.0
 10
427.642556164177
 20
-320.7414510799852
 30
0.0
 10
428.1888684991477
 20
-324.8894449911782
 30
0.0
 10
428.3097154427049
 20
-325.8070014034613
 30
0.0
  0
SPLINE
  5
4E
330
1F
100
AcDbEntity
  8
0
  6
Continuous
 62
     7
370
    15
100
AcDbSpline
210
0.0
220
0.0
230
1.0
 70
     8
 71
     3
 72
     9
 73
     5
 74
     0
 42
0.00000001
 43
0.00000001
 40
0.0
 40
0.0
 40
0.0
 40
0.0
 40
0.517566083760225
 40
1.0
 40
1.0
 40
1.0
 40
1.0
 10
451.8283299136637
 20
-327.5580368553503
 30
0.0
 10
452.2134132965834
 20
-324.8010269983577
 30
0.0
 10
452.9574407647706
 20
-319.4741519509005
 30
0.0
 10
453.9054245722316
 20
-314.1160921253581
 30
0.0
 10
454.3627641129968
 20
-311.5311823402747
 30
0.0
  0
ARC
  5
4F
330
1F
100
AcDbEntity
  8
0
  6
Continuous
 62
     7
370
    15
100
AcDbCircle
 10
412.378155864
 20
-307.4248653899
 30
0.0
 40
1.000000000000013
100
AcDbArc
 50
201.8014094864
 51
270.0
  0
ARC
  5
50
330
1F
100
AcDbEntity
  8
0
  6
Continuous
 62
     7
370
    15
100
AcDbCircle
 10
468.0240899411
 20
-307.4248653899
 30
0.0
 40
1.000000000000013
100
AcDbArc
 50
270.0
 51
338.1985905136
  0
ARC
  5
51
330
1F
100
AcDbEntity
  8
0
  6
Continuous
 62
     7
370
    15
100
AcDbCircle
 10
429.5663196421
 20
-327.4248653899
 30
0.0
 40
1.0
100
AcDbArc
 50
187.6598619983
 51
270.0
  0
ARC
  5
52
330
1F
100
AcDbEntity
  8
0
  6
Continuous
 62
     7
370
    15
100
AcDbCircle
 10
450.835926163
 20
-327.4248653899
 30
0.0
 40
1.000000000000021
100
AcDbArc
 50
270.0
 51
352.3401380017
  0
LINE
  5
53
330
1F
100
AcDbEntity
  8
0
  6
Continuous
 62
     7
370
    15
100
AcDbLine
 10
-223.4988668036
 20
-286.5248582875
 30
0.0
 11
-222.298906095
 21
-286.5248582875
 31
0.0
  0
LINE
  5
54
330
1F
100
AcDbEntity
  8
0
  6
Continuous
 62
     7
370
    15
100
AcDbLine
 10
629.0011248518
 20
503.1751431907
 30
0.0
 11
631.0011289049
 21
501.1751391376
 31
0.0
  0
LINE
  5
55
330
1F
100
AcDbEntity
  8
0
  6
Continuous
 62
     7
370
    15
100
AcDbLine
 10
649.0011355806
 20
501.1751391376
 30
0.0
 11
651.0011098314
 21
503.1751431907
 31
0.0
  0
LINE
  5
56
330
1F
100
AcDbEntity
  8
0
  6
Continuous
 62
     7
370
    15
100
AcDbLine
 10
651.0011098314
 20
503.1751431907
 30
0.0
 11
649.0011355806
 21
505.1751472438
 31
0.0
  0
LINE
  5
57
330
1F
100
AcDbEntity
  8
0
  6
Continuous
 62
     7
370
    15
100
AcDbLine
 10
631.0011289049
 20
505.1751472438
 30
0.0
 11
629.0011248518
 21
503.1751431907
 31
0.0
  0
ARC
  5
58
330
1F
100
AcDbEntity
  8
0
  6
Continuous
 62
     7
370
    15
100
AcDbCircle
 10
378.3011229026
 20
-305.9248653899
 30
0.0
 40
0.4999999999999771
100
AcDbArc
 50
211.3164988688
 51
270.0
  0
ARC
  5
59
330
1F
100
AcDbEntity
  8
0
  6
Continuous
 62
     7
370
    15
100
AcDbCircle
 10
388.1011229026
 20
-305.9248653899
 30
0.0
 40
0.5000000000000568
100
AcDbArc
 50
270.0
 51
328.6835011312
  0
LINE
  5
5A
330
1F
100
AcDbEntity
  8
0
  6
Continuous
 62
     7
370
    15
100
AcDbLine
 10
651.0011098314
 20
507.1751214946
 30
0.0
 11
649.0011355806
 21
509.1751255478
 31
0.0
  0
LINE
  5
5B
330
1F
100
AcDbEntity
  8
0
  6
Continuous
 62
     7
370
    15
100
AcDbLine
 10
631.0011289049
 20
509.1751255478
 30
0.0
 11
629.0011248518
 21
507.1751214946
 31
0.0
  0
LINE
  5
5C
330
1F
100
AcDbEntity
  8
0
  6
Continuous
 62
     7
370
    15
100
AcDbLine
 10
629.0011248518
 20
507.1751214946
 30
0.0
 11
631.0011289049
 21
505.1751472438
 31
0.0
  0
LINE
  5
5D
330
1F
100
AcDbEntity
  8
0
  6
Continuous
 62
     7
370
    15
100
AcDbLine
 10
649.0011355806
 20
505.1751472438
 30
0.0
 11
651.0011098314
 21
507.1751214946
 31
0.0
  0
LINE
  5
5E
330
1F
100
AcDbEntity
  8
0
  6
Continuous
 62
     7
370
    15
100
AcDbLine
 10
651.0011098314
 20
511.1751296009
 30
0.0
 11
649.0011355806
 21
513.175133654
 31
0.0
  0
LINE
  5
5F
330
1F
100
AcDbEntity
  8
0
  6
Continuous
 62
     7
370
    15
100
AcDbLine
 10
631.0011289049
 20
513.175133654
 30
0.0
 11
629.0011248518
 21
511.1751296009
 31
0.0
  0
LINE
  5
60
330
1F
100
AcDbEntity
  8
0
  6
Continuous
 62
     7
370
    15
100
AcDbLine
 10
629.0011248518
 20
511.1751296009
 30
0.0
 11
631.0011289049
 21
509.1751255478
 31
0.0
  0
LINE
  5
61
330
1F
100
AcDbEntity
  8
0
  6
Continuous
 62
     7
370
    15
100
AcDbLine
 10
649.0011355806
 20
509.1751255478
 30
0.0
 11
651.0011098314
 21
511.1751296009
 31
0.0
  0
LINE
  5
62
330
1F
100
AcDbEntity
  8
0
  6
Continuous
 62
     7
370
    15
100
AcDbLine
 10
629.0011248518
 20
497.1751310314
 30
0.0
 11
629.0011248518
 21
479.8251428093
 31
0.0
  0
LINE
  5
63
330
1F
100
AcDbEntity
  8
0
  6
Continuous
 62
     7
370
    15
100
AcDbLine
 10
629.0011248518
 20
472.4149145569
 30
0.0
 11
629.0011248518
 21
444.1546537365
 31
0.0
  0
LINE
  5
64
330
1F
100
AcDbEntity
  8
0
  6
Continuous
 62
     7
370
    15
100
AcDbLine
 10
651.0011098314
 20
444.1546537365
 30
0.0
 11
651.0011098314
 21
472.4149145569
 31
0.0
  0
LINE
  5
65
330
1F
100
AcDbEntity
  8
0
  6
Continuous
 62
     7
370
    15
100
AcDbLine
 10
651.0011098314
 20
479.8251428093
 30
0.0
 11
651.0011098314
 21
497.1751310314
 31
0.0
  0
LINE
  5
66
330
1F
100
AcDbEntity
  8
0
  6
Continuous
 62
     7
370
    15
100
AcDbLine
 10
520.8050749231
 20
-306.1847351109
 30
0.0
 11
521.4496842552
 21
-307.7962658917
 31
0.0
  0
LINE
  5
67
330
1F
100
AcDbEntity
  8
0
  6
Continuous
 62
     7
370
    15
100
AcDbLine
 10
578.9525649477
 20
-307.7962658917
 30
0.0
 11
579.5971593786
 21
-306.1847351109
 31
0.0
  0
SPLINE
  5
68
330
1F
100
AcDbEntity
  8
0
  6
Continuous
 62
     7
370
    15
100
AcDbSpline
210
0.0
220
0.0
230
1.0
 70
     8
 71
     3
 72
    11
 73
     7
 74
     0
 42
0.00000001
 43
0.00000001
 40
0.0
 40
0.0
 40
0.0
 40
0.0
 40
0.1919478703265753
 40
0.4690044533544235
 40
0.763572851339753
 40
1.0
 40
1.0
 40
1.0
 40
1.0
 10
534.4357631135462
 20
-308.9811764274939
 30
0.0
 10
534.5965618844015
 20
-309.0993445969921
 30
0.0
 10
534.9894567860058
 20
-309.3880761033384
 30
0.0
 10
535.493540026079
 20
-310.0524663918153
 30
0.0
 10
535.8951416542219
 20
-310.8087755478247
 30
0.0
 10
535.9843243530366
 20
-311.3075101400817
 30
0.0
 10
536.0240331817148
 20
-311.5295730148657
 30
0.0
  0
SPLINE
  5
69
330
1F
100
AcDbEntity
  8
0
  6
Continuous
 62
     7
370
    15
100
AcDbSpline
210
0.0
220
0.0
230
1.0
 70
     8
 71
     3
 72
    12
 73
     8
 74
     0
 42
0.00000001
 43
0.00000001
 40
0.0
 40
0.0
 40
0.0
 40
0.0
 40
0.0495554654299884
 40
0.3660701396083902
 40
0.6392289793817223
 40
0.8942881693413591
 40
1.0
 40
1.0
 40
1.0
 40
1.0
 10
564.3547019887445
 20
-311.5313015495642
 30
0.0
 10
564.3617305595457
 20
-311.483024610391
 30
0.0
 10
564.4136511675376
 20
-311.1263990452862
 30
0.0
 10
564.6618691999246
 20
-310.4716172925112
 30
0.0
 10
565.171152545287
 20
-309.6816492803188
 30
0.0
 10
565.6781694609092
 20
-309.1395040638477
 30
0.0
 10
566.0040271142644
 20
-308.9495692465577
 30
0.0
 10
566.0995087552545
 20
-308.8939152275427
 30
0.0
  0
LINE
  5
6A
330
1F
100
AcDbEntity
  8
0
  6
Continuous
 62
     7
370
    15
100
AcDbLine
 10
538.3097073961
 20
-325.8070014035
 30
0.0
 11
538.5437003303
 21
-327.5517485653
 31
0.0
  0
SPLINE
  5
6B
330
1F
100
AcDbEntity
  8
0
  6
Continuous
 62
     7
370
    15
100
AcDbSpline
210
0.0
220
0.0
230
1.0
 70
     8
 71
     3
 72
    10
 73
     6
 74
     0
 42
0.00000001
 43
0.00000001
 40
0.0
 40
0.0
 40
0.0
 40
0.0
 40
0.1237921517022517
 40
0.8061785348993873
 40
1.0
 40
1.0
 40
1.0
 40
1.0
 10
536.0456100631236
 20
-311.5318975960121
 30
0.0
 10
536.1539434670761
 20
-312.1225865840474
 30
0.0
 10
536.859449136686
 20
-315.9693634306202
 30
0.0
 10
537.6425456000744
 20
-320.7414521150913
 30
0.0
 10
538.188859980833
 20
-324.8894450596142
 30
0.0
 10
538.309707396078
 20
-325.8070014034614
 30
0.0
  0
SPLINE
  5
6C
330
1F
100
AcDbEntity
  8
0
  6
Continuous
 62
     7
370
    15
100
AcDbSpline
210
0.0
220
0.0
230
1.0
 70
     8
 71
     3
 72
     9
 73
     5
 74
     0
 42
0.00000001
 43
0.00000001
 40
0.0
 40
0.0
 40
0.0
 40
0.0
 40
0.5175661517188459
 40
1.0
 40
1.0
 40
1.0
 40
1.0
 10
561.8283293176172
 20
-327.5580368553503
 30
0.0
 10
562.2134140437792
 20
-324.8010271938622
 30
0.0
 10
562.9574440095777
 20
-319.474153223584
 30
0.0
 10
563.905415217764
 20
-314.1160922939047
 30
0.0
 10
564.3627486157892
 20
-311.5311823402747
 30
0.0
  0
ARC
  5
6D
330
1F
100
AcDbEntity
  8
0
  6
Continuous
 62
     7
370
    15
100
AcDbCircle
 10
522.378155864
 20
-307.4248653899
 30
0.0
 40
1.000000000000023
100
AcDbArc
 50
201.8014094863
 51
270.0
  0
ARC
  5
6E
330
1F
100
AcDbEntity
  8
0
  6
Continuous
 62
     7
370
    15
100
AcDbCircle
 10
578.0240899411
 20
-307.4248653899
 30
0.0
 40
1.000000000000023
100
AcDbArc
 50
270.0
 51
338.1985905137
  0
ARC
  5
6F
330
1F
100
AcDbEntity
  8
0
  6
Continuous
 62
     7
370
    15
100
AcDbCircle
 10
539.5663196421
 20
-327.4248653899
 30
0.0
 40
1.0
100
AcDbArc
 50
187.6598619983
 51
270.0
  0
ARC
  5
70
330
1F
100
AcDbEntity
  8
0
  6
Continuous
 62
     7
370
    15
100
AcDbCircle
 10
560.835926163
 20
-327.4248653899
 30
0.0
 40
1.000000000000134
100
AcDbArc
 50
270.0
 51
352.3401380017
  0
LINE
  5
71
330
1F
100
AcDbEntity
  8
0
  6
Continuous
 62
     7
370
    15
100
AcDbLine
 10
-223.4988668036
 20
-306.1847351109
 30
0.0
 11
676.5011093545
 21
-306.1847351109
 31
0.0
  0
LINE
  5
72
330
1F
100
AcDbEntity
  8
0
  6
Continuous
 62
     7
370
    15
100
AcDbLine
 10
-222.298906095
 20
-287.3416803395
 30
0.0
 11
675.3011188436
 21
-287.3416803395
 31
0.0
  0
ARC
  5
73
330
1F
100
AcDbEntity
  8
0
  6
Continuous
 62
     7
370
    15
100
AcDbCircle
 10
488.3011229026
 20
-305.9248653899
 30
0.0
 40
0.4999999999999432
100
AcDbArc
 50
211.3164988687
 51
270.0
  0
ARC
  5
74
330
1F
100
AcDbEntity
  8
0
  6
Continuous
 62
     7
370
    15
100
AcDbCircle
 10
498.1011229026
 20
-305.9248653899
 30
0.0
 40
0.4999999999999455
100
AcDbArc
 50
270.0
 51
328.6835011313
  0
ARC
  5
75
330
1F
100
AcDbEntity
  8
0
  6
Continuous
 62
     7
370
    15
100
AcDbCircle
 10
265.3011229026
 20
-305.9248653899
 30
0.0
 40
0.5000000000000568
100
AcDbArc
 50
211.3164988689
 51
270.0
  0
ARC
  5
76
330
1F
100
AcDbEntity
  8
0
  6
Continuous
 62
     7
370
    15
100
AcDbCircle
 10
275.1011229026
 20
-305.9248653899
 30
0.0
 40
0.4999999999999432
100
AcDbArc
 50
270.0
 51
328.6835011312
  0
LINE
  5
77
330
1F
100
AcDbEntity
  8
0
  6
Continuous
 62
     7
370
    15
100
AcDbLine
 10
300.8050761152
 20
-306.1847351109
 30
0.0
 11
301.4496793937
 21
-307.7962658917
 31
0.0
  0
LINE
  5
78
330
1F
100
AcDbEntity
  8
0
  6
Continuous
 62
     7
370
    15
100
AcDbLine
 10
358.9525661397
 20
-307.7962658917
 30
0.0
 11
359.5971680212
 21
-306.1847351109
 31
0.0
  0
SPLINE
  5
79
330
1F
100
AcDbEntity
  8
0
  6
Continuous
 62
     7
370
    15
100
AcDbSpline
210
0.0
220
0.0
230
1.0
 70
     8
 71
     3
 72
    12
 73
     8
 74
     0
 42
0.00000001
 43
0.00000001
 40
0.0
 40
0.0
 40
0.0
 40
0.0
 40
0.049555146024443
 40
0.3660697001316199
 40
0.6392284362809525
 40
0.8942890872261848
 40
1.0
 40
1.0
 40
1.0
 40
1.0
 10
344.354710631418
 20
-311.5313015495642
 30
0.0
 10
344.3617365340829
 20
-311.4830245840524
 30
0.0
 10
344.4136377045565
 20
-311.1263969539071
 30
0.0
 10
344.6618763088336
 20
-310.4716185586137
 30
0.0
 10
345.1711515368962
 20
-309.6816457959584
 30
0.0
 10
345.6781775286184
 20
-309.139507091699
 30
0.0
 10
346.0040334978973
 20
-308.949569494183
 30
0.0
 10
346.0995136726377
 20
-308.8939152275427
 30
0.0
  0
SPLINE
  5
7A
330
1F
100
AcDbEntity
  8
0
  6
Continuous
 62
     7
370
    15
100
AcDbSpline
210
0.0
220
0.0
230
1.0
 70
     8
 71
     3
 72
    11
 73
     7
 74
     0
 42
0.00000001
 43
0.00000001
 40
0.0
 40
0.0
 40
0.0
 40
0.0
 40
0.1919468398245686
 40
0.4690035144070861
 40
0.7635722036616667
 40
0.9999999999999999
 40
0.9999999999999999
 40
0.9999999999999999
 40
0.9999999999999999
 10
314.4357694279132
 20
-308.9811764274939
 30
0.0
 10
314.59656629775
 20
-309.099344812036
 30
0.0
 10
314.9894578771478
 20
-309.3880778158854
 30
0.0
 10
315.4935410223053
 20
-310.0524663467123
 30
0.0
 10
315.8951399271756
 20
-310.8087763563306
 30
0.0
 10
315.9843284855256
 20
-311.3075102399472
 30
0.0
 10
316.0240399617431
 20
-311.5295730148657
 30
0.0
  0
LINE
  5
7B
330
1F
100
AcDbEntity
  8
0
  6
Continuous
 62
     7
370
    15
100
AcDbLine
 10
318.3097132448
 20
-325.8070014035
 30
0.0
 11
318.543703385
 21
-327.5517485653
 31
0.0
  0
SPLINE
  5
7C
330
1F
100
AcDbEntity
  8
0
  6
Continuous
 62
     7
370
    15
100
AcDbSpline
210
0.0
220
0.0
230
1.0
 70
     8
 71
     3
 72
    10
 73
     6
 74
     0
 42
0.00000001
 43
0.00000001
 40
0.0
 40
0.0
 40
0.0
 40
0.0
 40
0.123792033205901
 40
0.8061785355612835
 40
1.0
 40
1.0
 40
1.0
 40
1.0
 10
316.0456140491841
 20
-311.531897596012
 30
0.0
 10
316.1539432951856
 20
-312.1225866492455
 30
0.0
 10
316.8594225626166
 20
-315.9693676057855
 30
0.0
 10
317.6425543825652
 20
-320.7414510956507
 30
0.0
 10
318.1888663746752
 20
-324.8894449791333
 30
0.0
 10
318.3097132447837
 20
-325.8070014034614
 30
0.0
  0
SPLINE
  5
7D
330
1F
100
AcDbEntity
  8
0
  6
Continuous
 62
     7
370
    15
100
AcDbSpline
210
0.0
220
0.0
230
1.0
 70
     8
 71
     3
 72
     9
 73
     5
 74
     0
 42
0.00000001
 43
0.00000001
 40
0.0
 40
0.0
 40
0.0
 40
0.0
 40
0.5175661447069683
 40
1.0
 40
1.0
 40
1.0
 40
1.0
 10
341.8283230591295
 20
-327.5580368553503
 30
0.0
 10
342.2134102257042
 20
-324.8010271736903
 30
0.0
 10
342.9574449167536
 20
-319.4741530922701
 30
0.0
 10
343.9054213385625
 20
-314.1160922765143
 30
0.0
 10
344.3627572584627
 20
-311.5311823402747
 30
0.0
  0
ARC
  5
7E
330
1F
100
AcDbEntity
  8
0
  6
Continuous
 62
     7
370
    15
100
AcDbCircle
 10
302.378155864
 20
-307.4248653899
 30
0.0
 40
1.0
100
AcDbArc
 50
201.8014094864
 51
270.0
  0
ARC
  5
7F
330
1F
100
AcDbEntity
  8
0
  6
Continuous
 62
     7
370
    15
100
AcDbCircle
 10
358.0240899411
 20
-307.4248653899
 30
0.0
 40
1.0
100
AcDbArc
 50
270.0
 51
338.1985905137
  0
ARC
  5
80
330
1F
100
AcDbEntity
  8
0
  6
Continuous
 62
     7
370
    15
100
AcDbCircle
 10
319.5663196421
 20
-327.4248653899
 30
0.0
 40
1.0
100
AcDbArc
 50
187.6598619983
 51
270.0
  0
ARC
  5
81
330
1F
100
AcDbEntity
  8
0
  6
Continuous
 62
     7
370
    15
100
AcDbCircle
 10
340.835926163
 20
-327.4248653899
 30
0.0
 40
1.000000000000021
100
AcDbArc
 50
270.0
 51
352.3401380017
  0
LINE
  5
82
330
1F
100
AcDbEntity
  8
0
  6
Continuous
 62
     7
370
    15
100
AcDbLine
 10
675.3011188436
 20
-286.5248582875
 30
0.0
 11
676.5011093545
 21
-286.5248582875
 31
0.0
  0
LINE
  5
83
330
1F
100
AcDbEntity
  8
0
  6
Continuous
 62
     7
370
    15
100
AcDbLine
 10
675.8011124063
 20
479.8251428093
 30
0.0
 11
-222.5988962721
 21
479.8251428093
 31
0.0
  0
LINE
  5
84
330
1F
100
AcDbEntity
  8
0
  6
Continuous
 62
     7
370
    15
100
AcDbLine
 10
675.8011124063
 20
479.8251428093
 30
0.0
 11
675.8011124063
 21
477.2445597137
 31
0.0
  0
LINE
  5
85
330
1F
100
AcDbEntity
  8
0
  6
Continuous
 62
     7
370
    15
100
AcDbLine
 10
675.8011124063
 20
477.2445597137
 30
0.0
 11
-222.5988962721
 21
477.2445597137
 31
0.0
  0
LINE
  5
86
330
1F
100
AcDbEntity
  8
0
  6
Continuous
 62
     7
370
    15
100
AcDbLine
 10
-222.5988962721
 20
479.8251428093
 30
0.0
 11
-222.5988962721
 21
477.2445597137
 31
0.0
  0
ARC
  5
87
330
1F
100
AcDbEntity
  8
0
  6
Continuous
 62
     7
370
    15
100
AcDbCircle
 10
361.0847320158
 20
448.9249143127
 30
0.0
 40
5.000602476209642
100
AcDbArc
 50
275.5337735124
 51
331.7852877274
  0
LINE
  5
88
330
1F
100
AcDbEntity
  8
0
  6
Continuous
 62
     7
370
    15
100
AcDbLine
 10
365.4911733199
 20
446.5607442344
 30
0.0
 11
375.40642833
 21
465.3962888206
 31
0.0
  0
ARC
  5
89
330
1F
100
AcDbEntity
  8
0
  6
Continuous
 62
     7
370
    15
100
AcDbCircle
 10
371.0833566216
 20
467.5754956475
 30
0.0
 40
4.841269605234181
100
AcDbArc
 50
333.2478937093
 51
91.5843070937
  0
LINE
  5
8A
330
1F
100
AcDbEntity
  8
0
  6
Continuous
 62
     7
370
    15
100
AcDbLine
 10
370.9495059181
 20
472.4149145569
 30
0.0
 11
292.1679980088
 21
472.4149145569
 31
0.0
  0
ARC
  5
8B
330
1F
100
AcDbEntity
  8
0
  6
Continuous
 62
     7
370
    15
100
AcDbCircle
 10
292.1319895366
 20
467.3940933272
 30
0.0
 40
5.020950351299614
100
AcDbArc
 50
89.5890915019
 51
151.7020360981
  0
LINE
  5
8C
330
1F
100
AcDbEntity
  8
0
  6
Continuous
 62
     7
370
    15
100
AcDbLine
 10
287.7110718716
 20
469.774309584
 30
0.0
 11
277.7958187241
 21
450.9387649978
 31
0.0
  0
ARC
  5
8D
330
1F
100
AcDbEntity
  8
0
  6
Continuous
 62
     7
370
    15
100
AcDbCircle
 10
282.094966137
 20
448.754999771
 30
0.0
 40
4.821980821633906
100
AcDbArc
 50
153.0715667722
 51
265.5405428803
  0
LINE
  5
8E
330
1F
100
AcDbEntity
  8
0
  6
Continuous
 62
     7
370
    15
100
AcDbLine
 10
281.7200395245
 20
443.9476170028
 30
0.0
 11
261.5669510293
 21
443.9476170028
 31
0.0
  0
ARC
  5
8F
330
1F
100
AcDbEntity
  8
0
  6
Continuous
 62
     7
370
    15
100
AcDbCircle
 10
261.0847239244
 20
448.924930508
 30
0.0
 40
5.000619232593238
100
AcDbArc
 50
275.5338309019
 51
331.7851801529
  0
LINE
  5
90
330
1F
100
AcDbEntity
  8
0
  6
Continuous
 62
     7
370
    15
100
AcDbLine
 10
265.491175555
 20
446.5607442344
 30
0.0
 11
275.4064268399
 21
465.3962888206
 31
0.0
  0
ARC
  5
91
330
1F
100
AcDbEntity
  8
0
  6
Continuous
 62
     7
370
    15
100
AcDbCircle
 10
271.0833597315
 20
467.5754986396
 30
0.0
 40
4.841266844458597
100
AcDbArc
 50
333.2478375832
 51
91.5844065637
  0
LINE
  5
92
330
1F
100
AcDbEntity
  8
0
  6
Continuous
 62
     7
370
    15
100
AcDbLine
 10
270.9495007027
 20
472.4149145569
 30
0.0
 11
192.1679965187
 21
472.4149145569
 31
0.0
  0
ARC
  5
93
330
1F
100
AcDbEntity
  8
0
  6
Continuous
 62
     7
370
    15
100
AcDbCircle
 10
192.1319928391
 20
467.3940914749
 30
0.0
 40
5.020952169159419
100
AcDbArc
 50
89.5891463422
 51
151.702023261
  0
LINE
  5
94
330
1F
100
AcDbEntity
  8
0
  6
Continuous
 62
     7
370
    15
100
AcDbLine
 10
187.7110741067
 20
469.774309584
 30
0.0
 11
177.795811646
 21
450.9387649978
 31
0.0
  0
ARC
  5
95
330
1F
100
AcDbEntity
  8
0
  6
Continuous
 62
     7
370
    15
100
AcDbCircle
 10
182.0949744094
 20
448.7550083874
 30
0.0
 40
4.821990605520158
100
AcDbArc
 50
153.0717406562
 51
265.5403689963
  0
LINE
  5
96
330
1F
100
AcDbEntity
  8
0
  6
Continuous
 62
     7
370
    15
100
AcDbLine
 10
181.7200324464
 20
443.9476170028
 30
0.0
 11
161.5669569898
 21
443.9476170028
 31
0.0
  0
ARC
  5
97
330
1F
100
AcDbEntity
  8
0
  6
Continuous
 62
     7
370
    15
100
AcDbCircle
 10
161.0847079202
 20
448.9249572112
 30
0.0
 40
5.000647929499176
100
AcDbArc
 50
275.5340518884
 51
331.7850093514
  0
LINE
  5
98
330
1F
100
AcDbEntity
  8
0
  6
Continuous
 62
     7
370
    15
100
AcDbLine
 10
165.4911777902
 20
446.5607442344
 30
0.0
 11
175.4064253498
 21
465.3962888206
 31
0.0
  0
ARC
  5
99
330
1F
100
AcDbEntity
  8
0
  6
Continuous
 62
     7
370
    15
100
AcDbCircle
 10
171.0833565144
 20
467.575497472
 30
0.0
 40
4.841267860933828
100
AcDbArc
 50
333.247859123
 51
91.58434168
  0
LINE
  5
9A
330
1F
100
AcDbEntity
  8
0
  6
Continuous
 62
     7
370
    15
100
AcDbLine
 10
170.9495029378
 20
472.4149145569
 30
0.0
 11
92.1680024791
 21
472.4149145569
 31
0.0
  0
ARC
  5
9B
330
1F
100
AcDbEntity
  8
0
  6
Continuous
 62
     7
370
    15
100
AcDbCircle
 10
92.1319918778
 20
467.3940782101
 30
0.0
 40
5.020965483269744
100
AcDbArc
 50
89.5890684435
 51
151.7019331471
  0
LINE
  5
9C
330
1F
100
AcDbEntity
  8
0
  6
Continuous
 62
     7
370
    15
100
AcDbLine
 10
87.711065166
 20
469.774309584
 30
0.0
 11
77.7958176065
 21
450.9387649978
 31
0.0
  0
ARC
  5
9D
330
1F
100
AcDbEntity
  8
0
  6
Continuous
 62
     7
370
    15
100
AcDbCircle
 10
82.0949672112
 20
448.7550010013
 30
0.0
 40
4.821982218613282
100
AcDbArc
 50
153.0715916001
 51
265.5405180524
  0
LINE
  5
9E
330
1F
100
AcDbEntity
  8
0
  6
Continuous
 62
     7
370
    15
100
AcDbLine
 10
81.7200384069
 20
443.9476170028
 30
0.0
 11
61.5669480491
 21
443.9476170028
 31
0.0
  0
ARC
  5
9F
330
1F
100
AcDbEntity
  8
0
  6
Continuous
 62
     7
370
    15
100
AcDbCircle
 10
61.0847457359
 20
448.9248869955
 30
0.0
 40
5.000573532216205
100
AcDbArc
 50
275.5335962437
 51
331.7854649961
  0
LINE
  5
A0
330
1F
100
AcDbEntity
  8
0
  6
Continuous
 62
     7
370
    15
100
AcDbLine
 10
65.4911688495
 20
446.5607442344
 30
0.0
 11
75.4064313102
 21
465.3962888206
 31
0.0
  0
ARC
  5
A1
330
1F
100
AcDbEntity
  8
0
  6
Continuous
 62
     7
370
    15
100
AcDbCircle
 10
71.0833624749
 20
467.575497472
 30
0.0
 40
4.841267860933828
100
AcDbArc
 50
333.247859123
 51
91.58434168
  0
LINE
  5
A2
330
1F
100
AcDbEntity
  8
0
  6
Continuous
 62
     7
370
    15
100
AcDbLine
 10
70.9495088983
 20
472.4149145569
 30
0.0
 11
-7.8320064616
 21
472.4149145569
 31
0.0
  0
ARC
  5
A3
330
1F
100
AcDbEntity
  8
0
  6
Continuous
 62
     7
370
    15
100
AcDbCircle
 10
-7.8680266394
 20
467.3941442689
 30
0.0
 40
5.020899494876307
100
AcDbArc
 50
89.5889537576
 51
151.702383859
  0
LINE
  5
A4
330
1F
100
AcDbEntity
  8
0
  6
Continuous
 62
     7
370
    15
100
AcDbLine
 10
-12.2889139723
 20
469.774309584
 30
0.0
 11
-22.204176433
 21
450.9387649978
 31
0.0
  0
ARC
  5
A5
330
1F
100
AcDbEntity
  8
0
  6
Continuous
 62
     7
370
    15
100
AcDbCircle
 10
-17.9050268283
 20
448.7550010013
 30
0.0
 40
4.821982218613281
100
AcDbArc
 50
153.0715916001
 51
265.5405180524
  0
LINE
  5
A6
330
1F
100
AcDbEntity
  8
0
  6
Continuous
 62
     7
370
    15
100
AcDbLine
 10
-18.2799556326
 20
443.9476170028
 30
0.0
 11
-38.4330608916
 21
443.9476170028
 31
0.0
  0
ARC
  5
A7
330
1F
100
AcDbEntity
  8
0
  6
Continuous
 62
     7
370
    15
100
AcDbCircle
 10
-38.9152271365
 20
448.9248328306
 30
0.0
 40
5.000516141764416
100
AcDbArc
 50
275.5332447464
 51
331.7858164934
  0
LINE
  5
A8
330
1F
100
AcDbEntity
  8
0
  6
Continuous
 62
     7
370
    15
100
AcDbLine
 10
-34.5088400912
 20
446.5607442344
 30
0.0
 11
-24.5935776305
 21
465.3962888206
 31
0.0
  0
ARC
  5
A9
330
1F
100
AcDbEntity
  8
0
  6
Continuous
 62
     7
370
    15
100
AcDbCircle
 10
-28.9166459886
 20
467.5754974908
 30
0.0
 40
4.841267443313336
100
AcDbArc
 50
333.2478563817
 51
91.5841710454
  0
LINE
  5
AA
330
1F
100
AcDbEntity
  8
0
  6
Continuous
 62
     7
370
    15
100
AcDbLine
 10
-29.0504851412
 20
472.4149145569
 30
0.0
 11
-107.8320005011
 21
472.4149145569
 31
0.0
  0
ARC
  5
AB
330
1F
100
AcDbEntity
  8
0
  6
Continuous
 62
     7
370
    15
100
AcDbCircle
 10
-107.8679849466
 20
467.3940340632
 30
0.0
 40
5.02100944154901
100
AcDbArc
 50
89.5893705177
 51
151.7016310728
  0
LINE
  5
AC
330
1F
100
AcDbEntity
  8
0
  6
Continuous
 62
     7
370
    15
100
AcDbLine
 10
-112.2889378142
 20
469.774309584
 30
0.0
 11
-122.2041704726
 21
450.9387649978
 31
0.0
  0
ARC
  5
AD
330
1F
100
AcDbEntity
  8
0
  6
Continuous
 62
     7
370
    15
100
AcDbCircle
 10
-117.9050356323
 20
448.7549927138
 30
0.0
 40
4.821972808265341
100
AcDbArc
 50
153.0714243536
 51
265.5406852989
  0
LINE
  5
AE
330
1F
100
AcDbEntity
  8
0
  6
Continuous
 62
     7
370
    15
100
AcDbLine
 10
-118.2799496722
 20
443.9476170028
 30
0.0
 11
-138.4330549311
 21
443.9476170028
 31
0.0
  0
ARC
  5
AF
330
1F
100
AcDbEntity
  8
0
  6
Continuous
 62
     7
370
    15
100
AcDbCircle
 10
-138.9152471816
 20
448.924871884
 30
0.0
 40
5.000557520782525
100
AcDbArc
 50
275.53349818
 51
331.7855630598
  0
LINE
  5
B0
330
1F
100
AcDbEntity
  8
0
  6
Continuous
 62
     7
370
    15
100
AcDbLine
 10
-134.5088341307
 20
446.5607442344
 30
0.0
 11
-124.59357167
 21
465.3962888206
 31
0.0
  0
ARC
  5
B1
330
1F
100
AcDbEntity
  8
0
  6
Continuous
 62
     7
370
    15
100
AcDbCircle
 10
-128.9166409826
 20
467.5754974531
 30
0.0
 40
4.841268278603424
100
AcDbArc
 50
333.2478618646
 51
91.5845123137
  0
LINE
  5
B2
330
1F
100
AcDbEntity
  8
0
  6
Continuous
 62
     7
370
    15
100
AcDbLine
 10
-129.0505089831
 20
472.4149145569
 30
0.0
 11
-198.3988740515
 21
472.4149145569
 31
0.0
  0
ARC
  5
B3
330
1F
100
AcDbEntity
  8
0
  6
Continuous
 62
     7
370
    15
100
AcDbCircle
 10
-198.4826522363
 20
467.4986477059
 30
0.0
 40
4.916980631803422
100
AcDbArc
 50
89.0237161687
 51
178.9902294884
  0
LINE
  5
B4
330
1F
100
AcDbEntity
  8
0
  6
Continuous
 62
     7
370
    15
100
AcDbLine
 10
-203.3988692832
 20
467.5852992023
 30
0.0
 11
-203.3988692832
 21
448.7497546161
 31
0.0
  0
ARC
  5
B5
330
1F
100
AcDbEntity
  8
0
  6
Continuous
 62
     7
370
    15
100
AcDbCircle
 10
-198.5042767892
 20
448.8240900985
 30
0.0
 40
4.895156937825822
100
AcDbArc
 50
180.8700994003
 51
264.9924459366
  0
LINE
  5
B6
330
1F
100
AcDbEntity
  8
0
  6
Continuous
 62
     7
370
    15
100
AcDbLine
 10
-198.9315607619
 20
443.9476170028
 30
0.0
 11
-222.5988962721
 21
443.9476170028
 31
0.0
  0
LINE
  5
B7
330
1F
100
AcDbEntity
  8
0
  6
Continuous
 62
     7
370
    15
100
AcDbLine
 10
-222.5988962721
 20
477.2445597137
 30
0.0
 11
-222.5988962721
 21
443.9476170028
 31
0.0
  0
LINE
  5
B8
330
1F
100
AcDbEntity
  8
0
  6
Continuous
 62
     7
370
    15
100
AcDbLine
 10
675.8011124063
 20
477.2445597137
 30
0.0
 11
675.8011124063
 21
443.9476170028
 31
0.0
  0
LINE
  5
B9
330
1F
100
AcDbEntity
  8
0
  6
Continuous
 62
     7
370
    15
100
AcDbLine
 10
675.8011124063
 20
443.9476170028
 30
0.0
 11
652.1338365007
 21
443.9476170028
 31
0.0
  0
ARC
  5
BA
330
1F
100
AcDbEntity
  8
0
  6
Continuous
 62
     7
370
    15
100
AcDbCircle
 10
651.70650239
 20
448.8241063643
 30
0.0
 40
4.895177518200998
100
AcDbArc
 50
275.0081220477
 51
359.1297138523
  0
LINE
  5
BB
330
1F
100
AcDbEntity
  8
0
  6
Continuous
 62
     7
370
    15
100
AcDbLine
 10
656.6011152196
 20
448.7497546161
 30
0.0
 11
656.6011152196
 21
467.5852992023
 31
0.0
  0
ARC
  5
BC
330
1F
100
AcDbEntity
  8
0
  6
Continuous
 62
     7
370
    15
100
AcDbCircle
 10
651.6848856287
 20
467.4986347194
 30
0.0
 40
4.916993402795605
100
AcDbArc
 50
1.0099192398
 51
90.9761351031
  0
LINE
  5
BD
330
1F
100
AcDbEntity
  8
0
  6
Continuous
 62
     7
370
    15
100
AcDbLine
 10
651.601119988
 20
472.4149145569
 30
0.0
 11
592.167987578
 21
472.4149145569
 31
0.0
  0
ARC
  5
BE
330
1F
100
AcDbEntity
  8
0
  6
Continuous
 62
     7
370
    15
100
AcDbCircle
 10
592.1319674001
 20
467.3941442689
 30
0.0
 40
5.020899494876264
100
AcDbArc
 50
89.5889537576
 51
151.702383859
  0
LINE
  5
BF
330
1F
100
AcDbEntity
  8
0
  6
Continuous
 62
     7
370
    15
100
AcDbLine
 10
587.7110800672
 20
469.774309584
 30
0.0
 11
577.7958176065
 21
450.9387649978
 31
0.0
  0
ARC
  5
C0
330
1F
100
AcDbEntity
  8
0
  6
Continuous
 62
     7
370
    15
100
AcDbCircle
 10
582.0949672112
 20
448.7550010013
 30
0.0
 40
4.821982218613286
100
AcDbArc
 50
153.0715916001
 51
265.5405180524
  0
LINE
  5
C1
330
1F
100
AcDbEntity
  8
0
  6
Continuous
 62
     7
370
    15
100
AcDbLine
 10
581.7200384069
 20
443.9476170028
 30
0.0
 11
561.5669629503
 21
443.9476170028
 31
0.0
  0
ARC
  5
C2
330
1F
100
AcDbEntity
  8
0
  6
Continuous
 62
     7
370
    15
100
AcDbCircle
 10
561.0847245677
 20
448.9249411621
 30
0.0
 40
5.000630924552743
100
AcDbArc
 50
275.5339477433
 51
331.7851134965
  0
LINE
  5
C3
330
1F
100
AcDbEntity
  8
0
  6
Continuous
 62
     7
370
    15
100
AcDbLine
 10
565.4911837507
 20
446.5607442344
 30
0.0
 11
575.4064164091
 21
465.3962888206
 31
0.0
  0
ARC
  5
C4
330
1F
100
AcDbEntity
  8
0
  6
Continuous
 62
     7
370
    15
100
AcDbCircle
 10
571.0833480509
 20
467.5754974908
 30
0.0
 40
4.841267443313311
100
AcDbArc
 50
333.2478563817
 51
91.5841710454
  0
LINE
  5
C5
330
1F
100
AcDbEntity
  8
0
  6
Continuous
 62
     7
370
    15
100
AcDbLine
 10
570.9495088983
 20
472.4149145569
 30
0.0
 11
492.1679935384
 21
472.4149145569
 31
0.0
  0
ARC
  5
C6
330
1F
100
AcDbEntity
  8
0
  6
Continuous
 62
     7
370
    15
100
AcDbCircle
 10
492.1319884912
 20
467.3940937833
 30
0.0
 40
5.020949870631466
100
AcDbArc
 50
89.5891305469
 51
151.7020390563
  0
LINE
  5
C7
330
1F
100
AcDbEntity
  8
0
  6
Continuous
 62
     7
370
    15
100
AcDbLine
 10
487.7110711265
 20
469.774309584
 30
0.0
 11
477.795823567
 21
450.9387649978
 31
0.0
  0
ARC
  5
C8
330
1F
100
AcDbEntity
  8
0
  6
Continuous
 62
     7
370
    15
100
AcDbCircle
 10
482.0949657894
 20
448.7549968575
 30
0.0
 40
4.821977513408461
100
AcDbArc
 50
153.0715079764
 51
265.540601676
  0
LINE
  5
C9
330
1F
100
AcDbEntity
  8
0
  6
Continuous
 62
     7
370
    15
100
AcDbLine
 10
481.7200443674
 20
443.9476170028
 30
0.0
 11
461.5669540096
 21
443.9476170028
 31
0.0
  0
ARC
  5
CA
330
1F
100
AcDbEntity
  8
0
  6
Continuous
 62
     7
370
    15
100
AcDbCircle
 10
461.0847386934
 20
448.9249065225
 30
0.0
 40
5.000594222015052
100
AcDbArc
 50
275.5337229595
 51
331.7853382803
  0
LINE
  5
CB
330
1F
100
AcDbEntity
  8
0
  6
Continuous
 62
     7
370
    15
100
AcDbLine
 10
465.49117481
 20
446.5607442344
 30
0.0
 11
475.4064223695
 21
465.3962888206
 31
0.0
  0
ARC
  5
CC
330
1F
100
AcDbEntity
  8
0
  6
Continuous
 62
     7
370
    15
100
AcDbCircle
 10
471.083360851
 20
467.5755021182
 30
0.0
 40
4.841263418753972
100
AcDbArc
 50
333.2477710424
 51
91.5844297605
  0
LINE
  5
CD
330
1F
100
AcDbEntity
  8
0
  6
Continuous
 62
     7
370
    15
100
AcDbLine
 10
470.9494999576
 20
472.4149145569
 30
0.0
 11
392.1679994989
 21
472.4149145569
 31
0.0
  0
ARC
  5
CE
330
1F
100
AcDbEntity
  8
0
  6
Continuous
 62
     7
370
    15
100
AcDbCircle
 10
392.1319885035
 20
467.3940913491
 30
0.0
 40
5.020952347463173
100
AcDbArc
 50
89.5890628713
 51
151.7020227255
  0
LINE
  5
CF
330
1F
100
AcDbEntity
  8
0
  6
Continuous
 62
     7
370
    15
100
AcDbLine
 10
387.7110696364
 20
469.774309584
 30
0.0
 11
377.7958146263
 21
450.9387649978
 31
0.0
  0
ARC
  5
D0
330
1F
100
AcDbEntity
  8
0
  6
Continuous
 62
     7
370
    15
100
AcDbCircle
 10
382.0949708103
 20
448.7550046943
 30
0.0
 40
4.821986412048604
100
AcDbArc
 50
153.0716661279
 51
265.5404435245
  0
LINE
  5
D1
330
1F
100
AcDbEntity
  8
0
  6
Continuous
 62
     7
370
    15
100
AcDbLine
 10
381.7200354267
 20
443.9476170028
 30
0.0
 11
361.5669525195
 21
443.9476170028
 31
0.0
  0
LINE
  5
D2
330
1F
100
AcDbEntity
  8
0
  6
Continuous
 62
     7
370
    15
100
AcDbLine
 10
676.6011259485
 20
478.9251424755
 30
0.0
 11
675.8011124063
 21
478.9251424755
 31
0.0
  0
LINE
  5
D3
330
1F
100
AcDbEntity
  8
0
  6
Continuous
 62
     7
370
    15
100
AcDbLine
 10
676.6011259485
 20
477.4774946655
 30
0.0
 11
675.8011124063
 21
477.4774946655
 31
0.0
  0
LINE
  5
D4
330
1F
100
AcDbEntity
  8
0
  6
Continuous
 62
     7
370
    15
100
AcDbLine
 10
676.6011259485
 20
478.9251424755
 30
0.0
 11
676.6011259485
 21
477.4774946655
 31
0.0
  0
LINE
  5
D5
330
1F
100
AcDbEntity
  8
0
  6
Continuous
 62
     7
370
    15
100
AcDbLine
 10
-223.3988502097
 20
477.4774946655
 30
0.0
 11
-222.5988962721
 21
477.4774946655
 31
0.0
  0
LINE
  5
D6
330
1F
100
AcDbEntity
  8
0
  6
Continuous
 62
     7
370
    15
100
AcDbLine
 10
-223.3988502097
 20
478.9251424755
 30
0.0
 11
-223.3988502097
 21
477.4774946655
 31
0.0
  0
LINE
  5
D7
330
1F
100
AcDbEntity
  8
0
  6
Continuous
 62
     7
370
    15
100
AcDbLine
 10
-223.3988502097
 20
478.9251424755
 30
0.0
 11
-222.5988962721
 21
478.9251424755
 31
0.0
  0
LINE
  5
D8
330
1F
100
AcDbEntity
  8
0
  6
Continuous
 62
     7
370
    15
100
AcDbLine
 10
676.6011259485
 20
444.1805519546
 30
0.0
 11
675.8011124063
 21
444.1805519546
 31
0.0
  0
LINE
  5
D9
330
1F
100
AcDbEntity
  8
0
  6
Continuous
 62
     7
370
    15
100
AcDbLine
 10
676.6011259485
 20
477.4774946655
 30
0.0
 11
676.6011259485
 21
444.1805519546
 31
0.0
  0
LINE
  5
DA
330
1F
100
AcDbEntity
  8
0
  6
Continuous
 62
     7
370
    15
100
AcDbLine
 10
-223.3988502097
 20
444.1805519546
 30
0.0
 11
-222.5988962721
 21
444.1805519546
 31
0.0
  0
LINE
  5
DB
330
1F
100
AcDbEntity
  8
0
  6
Continuous
 62
     7
370
    15
100
AcDbLine
 10
-223.3988502097
 20
477.4774946655
 30
0.0
 11
-223.3988502097
 21
444.1805519546
 31
0.0
  0
LINE
  5
DC
330
1F
100
AcDbEntity
  8
0
  6
Continuous
 62
     7
370
    15
100
AcDbLine
 10
575.4064164091
 20
465.6033255542
 30
0.0
 11
575.4064164091
 21
465.3962888206
 31
0.0
  0
LWPOLYLINE
  5
DD
330
1F
100
AcDbEntity
  8
0
  6
Continuous
 62
     7
370
    15
100
AcDbPolyline
 90
        3
 70
   128
 43
0.0
 10
575.4064164091
 20
465.6033255542
 10
575.8341095376
 20
466.7607583488
 10
575.9483418394
 20
467.6888324703
  0
LINE
  5
DE
330
1F
100
AcDbEntity
  8
0
  6
Continuous
 62
     7
370
    15
100
AcDbLine
 10
475.4064223695
 20
465.6033255542
 30
0.0
 11
475.4064223695
 21
465.3962888206
 31
0.0
  0
LWPOLYLINE
  5
DF
330
1F
100
AcDbEntity
  8
0
  6
Continuous
 62
     7
370
    15
100
AcDbPolyline
 90
        3
 70
   128
 43
0.0
 10
475.4064223695
 20
465.6033255542
 10
475.8341154981
 20
466.7607583488
 10
475.9483477998
 20
467.6888324703
  0
LINE
  5
E0
330
1F
100
AcDbEntity
  8
0
  6
Continuous
 62
     7
370
    15
100
AcDbLine
 10
375.40642833
 20
465.6033255542
 30
0.0
 11
375.40642833
 21
465.3962888206
 31
0.0
  0
LWPOLYLINE
  5
E1
330
1F
100
AcDbEntity
  8
0
  6
Continuous
 62
     7
370
    15
100
AcDbPolyline
 90
        3
 70
   128
 43
0.0
 10
375.40642833
 20
465.6033255542
 10
375.834114008
 20
466.7607583488
 10
375.9483537603
 20
467.6888324703
  0
LINE
  5
E2
330
1F
100
AcDbEntity
  8
0
  6
Continuous
 62
     7
370
    15
100
AcDbLine
 10
-24.5935776305
 20
465.6033255542
 30
0.0
 11
-24.5935776305
 21
465.3962888206
 31
0.0
  0
LWPOLYLINE
  5
E3
330
1F
100
AcDbEntity
  8
0
  6
Continuous
 62
     7
370
    15
100
AcDbPolyline
 90
        3
 70
   128
 43
0.0
 10
-24.5935776305
 20
465.6033255542
 10
-24.1658845019
 20
466.7607583488
 10
-24.0516522002
 20
467.6888324703
  0
LINE
  5
E4
330
1F
100
AcDbEntity
  8
0
  6
Continuous
 62
     7
370
    15
100
AcDbLine
 10
175.4064253498
 20
465.6033255542
 30
0.0
 11
175.4064253498
 21
465.3962888206
 31
0.0
  0
LWPOLYLINE
  5
E5
330
1F
100
AcDbEntity
  8
0
  6
Continuous
 62
     7
370
    15
100
AcDbPolyline
 90
        3
 70
   128
 43
0.0
 10
175.4064253498
 20
465.6033255542
 10
175.8341184783
 20
466.7607583488
 10
175.9483507801
 20
467.6888324703
  0
LINE
  5
E6
330
1F
100
AcDbEntity
  8
0
  6
Continuous
 62
     7
370
    15
100
AcDbLine
 10
75.4064313102
 20
465.6033255542
 30
0.0
 11
75.4064313102
 21
465.3962888206
 31
0.0
  0
LWPOLYLINE
  5
E7
330
1F
100
AcDbEntity
  8
0
  6
Continuous
 62
     7
370
    15
100
AcDbPolyline
 90
        3
 70
   128
 43
0.0
 10
75.4064313102
 20
465.6033255542
 10
75.8341095376
 20
466.7607583488
 10
75.9483567405
 20
467.6888324703
  0
LINE
  5
E8
330
1F
100
AcDbEntity
  8
0
  6
Continuous
 62
     7
370
    15
100
AcDbLine
 10
275.4064268399
 20
465.6033255542
 30
0.0
 11
275.4064268399
 21
465.3962888206
 31
0.0
  0
LWPOLYLINE
  5
E9
330
1F
100
AcDbEntity
  8
0
  6
Continuous
 62
     7
370
    15
100
AcDbPolyline
 90
        3
 70
   128
 43
0.0
 10
275.4064268399
 20
465.6033255542
 10
275.8341125179
 20
466.7607583488
 10
275.9483541328
 20
467.6888324703
  0
LINE
  5
EA
330
1F
100
AcDbEntity
  8
0
  6
Continuous
 62
     7
370
    15
100
AcDbLine
 10
-124.59357167
 20
465.6033255542
 30
0.0
 11
-124.59357167
 21
465.3962888206
 31
0.0
  0
LWPOLYLINE
  5
EB
330
1F
100
AcDbEntity
  8
0
  6
Continuous
 62
     7
370
    15
100
AcDbPolyline
 90
        3
 70
   128
 43
0.0
 10
-124.59357167
 20
465.6033255542
 10
-124.1658785414
 20
466.7607583488
 10
-124.0516462397
 20
467.6888324703
  0
LINE
  5
EC
330
1F
100
AcDbEntity
  8
0
  6
Continuous
 62
     7
370
    15
100
AcDbLine
 10
465.49117481
 20
446.7677809681
 30
0.0
 11
465.49117481
 21
446.5607442344
 31
0.0
  0
LINE
  5
ED
330
1F
100
AcDbEntity
  8
0
  6
Continuous
 62
     7
370
    15
100
AcDbLine
 10
465.49117481
 20
446.7677809681
 30
0.0
 11
475.4064223695
 21
465.6033255542
 31
0.0
  0
LINE
  5
EE
330
1F
100
AcDbEntity
  8
0
  6
Continuous
 62
     7
370
    15
100
AcDbLine
 10
565.4911837507
 20
446.7677809681
 30
0.0
 11
565.4911837507
 21
446.5607442344
 31
0.0
  0
LINE
  5
EF
330
1F
100
AcDbEntity
  8
0
  6
Continuous
 62
     7
370
    15
100
AcDbLine
 10
565.4911837507
 20
446.7677809681
 30
0.0
 11
575.4064164091
 21
465.6033255542
 31
0.0
  0
LINE
  5
F0
330
1F
100
AcDbEntity
  8
0
  6
Continuous
 62
     7
370
    15
100
AcDbLine
 10
65.4911688495
 20
446.7677809681
 30
0.0
 11
65.4911688495
 21
446.5607442344
 31
0.0
  0
LINE
  5
F1
330
1F
100
AcDbEntity
  8
0
  6
Continuous
 62
     7
370
    15
100
AcDbLine
 10
65.4911688495
 20
446.7677809681
 30
0.0
 11
75.4064313102
 21
465.6033255542
 31
0.0
  0
LINE
  5
F2
330
1F
100
AcDbEntity
  8
0
  6
Continuous
 62
     7
370
    15
100
AcDbLine
 10
165.4911777902
 20
446.7677809681
 30
0.0
 11
165.4911777902
 21
446.5607442344
 31
0.0
  0
LINE
  5
F3
330
1F
100
AcDbEntity
  8
0
  6
Continuous
 62
     7
370
    15
100
AcDbLine
 10
165.4911777902
 20
446.7677809681
 30
0.0
 11
175.4064253498
 21
465.6033255542
 31
0.0
  0
LINE
  5
F4
330
1F
100
AcDbEntity
  8
0
  6
Continuous
 62
     7
370
    15
100
AcDbLine
 10
265.491175555
 20
446.7677809681
 30
0.0
 11
265.491175555
 21
446.5607442344
 31
0.0
  0
LINE
  5
F5
330
1F
100
AcDbEntity
  8
0
  6
Continuous
 62
     7
370
    15
100
AcDbLine
 10
265.491175555
 20
446.7677809681
 30
0.0
 11
275.4064268399
 21
465.6033255542
 31
0.0
  0
LINE
  5
F6
330
1F
100
AcDbEntity
  8
0
  6
Continuous
 62
     7
370
    15
100
AcDbLine
 10
-34.5088400912
 20
446.7677809681
 30
0.0
 11
-34.5088400912
 21
446.5607442344
 31
0.0
  0
LINE
  5
F7
330
1F
100
AcDbEntity
  8
0
  6
Continuous
 62
     7
370
    15
100
AcDbLine
 10
-34.5088400912
 20
446.7677809681
 30
0.0
 11
-24.5935776305
 21
465.6033255542
 31
0.0
  0
LINE
  5
F8
330
1F
100
AcDbEntity
  8
0
  6
Continuous
 62
     7
370
    15
100
AcDbLine
 10
-134.5088341307
 20
446.7677809681
 30
0.0
 11
-134.5088341307
 21
446.5607442344
 31
0.0
  0
LINE
  5
F9
330
1F
100
AcDbEntity
  8
0
  6
Continuous
 62
     7
370
    15
100
AcDbLine
 10
-134.5088341307
 20
446.7677809681
 30
0.0
 11
-124.59357167
 21
465.6033255542
 31
0.0
  0
LINE
  5
FA
330
1F
100
AcDbEntity
  8
0
  6
Continuous
 62
     7
370
    15
100
AcDbLine
 10
365.4911733199
 20
446.7677809681
 30
0.0
 11
365.4911733199
 21
446.5607442344
 31
0.0
  0
LINE
  5
FB
330
1F
100
AcDbEntity
  8
0
  6
Continuous
 62
     7
370
    15
100
AcDbLine
 10
365.4911733199
 20
446.7677809681
 30
0.0
 11
375.40642833
 21
465.6033255542
 31
0.0
  0
LINE
  5
FC
330
1F
100
AcDbEntity
  8
0
  6
Continuous
 62
     7
370
    15
100
AcDbLine
 10
382.2527444888
 20
443.9201094593
 30
0.0
 11
381.7200354267
 21
443.9476170028
 31
0.0
  0
ARC
  5
FD
330
1F
100
AcDbEntity
  8
0
  6
Continuous
 62
     7
370
    15
100
AcDbCircle
 10
382.2525684974
 20
449.3012997376
 30
0.0
 40
5.174123745358574
100
AcDbArc
 50
264.0925215266
 51
270.0019488448
  0
LINE
  5
FE
330
1F
100
AcDbEntity
  8
0
  6
Continuous
 62
     7
370
    15
100
AcDbLine
 10
382.2527444888
 20
444.1271759952
 30
0.0
 11
382.2527444888
 21
443.9201094593
 31
0.0
  0
ARC
  5
FF
330
1F
100
AcDbEntity
  8
0
  6
Continuous
 62
     7
370
    15
100
AcDbCircle
 10
382.1499348644
 20
449.035180919
 30
0.0
 40
4.899424364749263
100
AcDbArc
 50
182.1279657948
 51
264.9661146963
  0
LINE
  5
100
330
1F
100
AcDbEntity
  8
0
  6
Continuous
 62
     7
370
    15
100
AcDbLine
 10
482.2527459789
 20
443.9201094593
 30
0.0
 11
481.7200443674
 21
443.9476170028
 31
0.0
  0
ARC
  5
101
330
1F
100
AcDbEntity
  8
0
  6
Continuous
 62
     7
370
    15
100
AcDbCircle
 10
482.2525724431
 20
449.3012029489
 30
0.0
 40
5.174026956594354
100
AcDbArc
 50
264.0924662322
 51
270.0019216882
  0
LINE
  5
102
330
1F
100
AcDbEntity
  8
0
  6
Continuous
 62
     7
370
    15
100
AcDbLine
 10
482.2527459789
 20
444.1271759952
 30
0.0
 11
482.2527459789
 21
443.9201094593
 31
0.0
  0
ARC
  5
103
330
1F
100
AcDbEntity
  8
0
  6
Continuous
 62
     7
370
    15
100
AcDbCircle
 10
482.1498984729
 20
449.0351378295
 30
0.0
 40
4.899377464000155
100
AcDbArc
 50
182.1274819174
 51
264.9665985736
  0
LINE
  5
104
330
1F
100
AcDbEntity
  8
0
  6
Continuous
 62
     7
370
    15
100
AcDbLine
 10
82.2527400184
 20
443.9201094593
 30
0.0
 11
81.7200384069
 21
443.9476170028
 31
0.0
  0
ARC
  5
105
330
1F
100
AcDbEntity
  8
0
  6
Continuous
 62
     7
370
    15
100
AcDbCircle
 10
82.2525664827
 20
449.3012029489
 30
0.0
 40
5.174026956594353
100
AcDbArc
 50
264.0924662322
 51
270.0019216882
  0
LINE
  5
106
330
1F
100
AcDbEntity
  8
0
  6
Continuous
 62
     7
370
    15
100
AcDbLine
 10
82.2527400184
 20
444.1271759952
 30
0.0
 11
82.2527400184
 21
443.9201094593
 31
0.0
  0
ARC
  5
107
330
1F
100
AcDbEntity
  8
0
  6
Continuous
 62
     7
370
    15
100
AcDbCircle
 10
82.1499378446
 20
449.035180919
 30
0.0
 40
4.899424364749258
100
AcDbArc
 50
182.1279657948
 51
264.9661146963
  0
LINE
  5
108
330
1F
100
AcDbEntity
  8
0
  6
Continuous
 62
     7
370
    15
100
AcDbLine
 10
-117.7472629618
 20
443.9201094593
 30
0.0
 11
-118.2799496722
 21
443.9476170028
 31
0.0
  0
ARC
  5
109
330
1F
100
AcDbEntity
  8
0
  6
Continuous
 62
     7
370
    15
100
AcDbCircle
 10
-117.7474514548
 20
449.300624201
 30
0.0
 40
5.173448209249374
100
AcDbArc
 50
264.0921354577
 51
270.0020875539
  0
LINE
  5
10A
330
1F
100
AcDbEntity
  8
0
  6
Continuous
 62
     7
370
    15
100
AcDbLine
 10
-117.7472629618
 20
444.1271759952
 30
0.0
 11
-117.7472629618
 21
443.9201094593
 31
0.0
  0
ARC
  5
10B
330
1F
100
AcDbEntity
  8
0
  6
Continuous
 62
     7
370
    15
100
AcDbCircle
 10
-117.8500955667
 20
449.0351378295
 30
0.0
 40
4.899377464000152
100
AcDbArc
 50
182.1274819174
 51
264.9665985736
  0
LINE
  5
10C
330
1F
100
AcDbEntity
  8
0
  6
Continuous
 62
     7
370
    15
100
AcDbLine
 10
282.2527429986
 20
443.9201094593
 30
0.0
 11
281.7200395245
 21
443.9476170028
 31
0.0
  0
ARC
  5
10D
330
1F
100
AcDbEntity
  8
0
  6
Continuous
 62
     7
370
    15
100
AcDbCircle
 10
282.2525680311
 20
449.3012112896
 30
0.0
 40
5.17403529732312
100
AcDbArc
 50
264.0924709928
 51
270.0019375406
  0
LINE
  5
10E
330
1F
100
AcDbEntity
  8
0
  6
Continuous
 62
     7
370
    15
100
AcDbLine
 10
282.2527429986
 20
444.1271759952
 30
0.0
 11
282.2527429986
 21
443.9201094593
 31
0.0
  0
ARC
  5
10F
330
1F
100
AcDbEntity
  8
0
  6
Continuous
 62
     7
370
    15
100
AcDbCircle
 10
282.1499289488
 20
449.035171401
 30
0.0
 40
4.899414004832009
100
AcDbArc
 50
182.1278589121
 51
264.9662215789
  0
LINE
  5
110
330
1F
100
AcDbEntity
  8
0
  6
Continuous
 62
     7
370
    15
100
AcDbLine
 10
182.2527415085
 20
443.9201094593
 30
0.0
 11
181.7200324464
 21
443.9476170028
 31
0.0
  0
ARC
  5
111
330
1F
100
AcDbEntity
  8
0
  6
Continuous
 62
     7
370
    15
100
AcDbCircle
 10
182.2525687886
 20
449.3013631617
 30
0.0
 40
5.174187169398667
100
AcDbArc
 50
264.092557777
 51
270.0019125944
  0
LINE
  5
112
330
1F
100
AcDbEntity
  8
0
  6
Continuous
 62
     7
370
    15
100
AcDbLine
 10
182.2527415085
 20
444.1271759952
 30
0.0
 11
182.2527415085
 21
443.9201094593
 31
0.0
  0
ARC
  5
113
330
1F
100
AcDbEntity
  8
0
  6
Continuous
 62
     7
370
    15
100
AcDbCircle
 10
182.1499318841
 20
449.035180919
 30
0.0
 40
4.89942436474926
100
AcDbArc
 50
182.1279657948
 51
264.9661146963
  0
LINE
  5
114
330
1F
100
AcDbEntity
  8
0
  6
Continuous
 62
     7
370
    15
100
AcDbLine
 10
-17.7472689223
 20
443.9201094593
 30
0.0
 11
-18.2799556326
 21
443.9476170028
 31
0.0
  0
ARC
  5
115
330
1F
100
AcDbEntity
  8
0
  6
Continuous
 62
     7
370
    15
100
AcDbCircle
 10
-17.7474574153
 20
449.300624201
 30
0.0
 40
5.173448209249374
100
AcDbArc
 50
264.0921354577
 51
270.0020875539
  0
LINE
  5
116
330
1F
100
AcDbEntity
  8
0
  6
Continuous
 62
     7
370
    15
100
AcDbLine
 10
-17.7472689223
 20
444.1271759952
 30
0.0
 11
-17.7472689223
 21
443.9201094593
 31
0.0
  0
ARC
  5
117
330
1F
100
AcDbEntity
  8
0
  6
Continuous
 62
     7
370
    15
100
AcDbCircle
 10
-17.8501015271
 20
449.0351378295
 30
0.0
 40
4.899377464000152
100
AcDbArc
 50
182.1274819174
 51
264.9665985736
  0
LINE
  5
118
330
1F
100
AcDbEntity
  8
0
  6
Continuous
 62
     7
370
    15
100
AcDbLine
 10
582.2527549196
 20
443.9201094593
 30
0.0
 11
581.7200384069
 21
443.9476170028
 31
0.0
  0
ARC
  5
119
330
1F
100
AcDbEntity
  8
0
  6
Continuous
 62
     7
370
    15
100
AcDbCircle
 10
582.252596345
 20
449.3017817989
 30
0.0
 40
5.174605806065509
100
AcDbArc
 50
264.0927970048
 51
270.0017558152
  0
LINE
  5
11A
330
1F
100
AcDbEntity
  8
0
  6
Continuous
 62
     7
370
    15
100
AcDbLine
 10
582.2527549196
 20
444.1271759952
 30
0.0
 11
582.2527549196
 21
443.9201094593
 31
0.0
  0
ARC
  5
11B
330
1F
100
AcDbEntity
  8
0
  6
Continuous
 62
     7
370
    15
100
AcDbCircle
 10
582.1498925124
 20
449.0351378295
 30
0.0
 40
4.89937746400015
100
AcDbArc
 50
182.1274819174
 51
264.9665985736
  0
LINE
  5
11C
330
1F
100
AcDbEntity
  8
0
  6
Continuous
 62
     7
370
    15
100
AcDbLine
 10
652.1338365007
 20
443.9476170028
 30
0.0
 11
651.601119988
 21
443.9201094593
 31
0.0
  0
LINE
  5
11D
330
1F
100
AcDbEntity
  8
0
  6
Continuous
 62
     7
370
    15
100
AcDbLine
 10
651.601119988
 20
444.1271759952
 30
0.0
 11
651.601119988
 21
443.9201094593
 31
0.0
  0
ARC
  5
11E
330
1F
100
AcDbEntity
  8
0
  6
Continuous
 62
     7
370
    15
100
AcDbCircle
 10
651.6012785625
 20
449.3017817989
 30
0.0
 40
5.174605806065497
100
AcDbArc
 50
269.9982441848
 51
275.9072029952
  0
ARC
  5
11F
330
1F
100
AcDbEntity
  8
0
  6
Continuous
 62
     7
370
    15
100
AcDbCircle
 10
651.7064489851
 20
449.0311927788
 30
0.0
 40
4.895231671744556
100
AcDbArc
 50
275.0086939717
 51
359.1291419283
  0
LINE
  5
120
330
1F
100
AcDbEntity
  8
0
  6
Continuous
 62
     7
370
    15
100
AcDbLine
 10
-198.3988740515
 20
443.9201094593
 30
0.0
 11
-198.9315607619
 21
443.9476170028
 31
0.0
  0
ARC
  5
121
330
1F
100
AcDbEntity
  8
0
  6
Continuous
 62
     7
370
    15
100
AcDbCircle
 10
-198.399102268
 20
449.2998541158
 30
0.0
 40
5.17267812566384
100
AcDbArc
 50
264.0916951445
 51
270.0025278671
  0
LINE
  5
122
330
1F
100
AcDbEntity
  8
0
  6
Continuous
 62
     7
370
    15
100
AcDbLine
 10
-198.3988740515
 20
444.1271759952
 30
0.0
 11
-198.3988740515
 21
443.9201094593
 31
0.0
  0
ARC
  5
123
330
1F
100
AcDbEntity
  8
0
  6
Continuous
 62
     7
370
    15
100
AcDbCircle
 10
-198.5042233846
 20
449.031176513
 30
0.0
 40
4.895211090876059
100
AcDbArc
 50
180.8706713291
 51
264.9918740077
  0
LINE
  5
124
330
1F
100
AcDbEntity
  8
0
  6
Continuous
 62
     7
370
    15
100
AcDbLine
 10
561.5669629503
 20
443.9476170028
 30
0.0
 11
561.0342464376
 21
443.9201094593
 31
0.0
  0
LINE
  5
125
330
1F
100
AcDbEntity
  8
0
  6
Continuous
 62
     7
370
    15
100
AcDbLine
 10
561.0342464376
 20
444.1271759952
 30
0.0
 11
561.0342464376
 21
443.9201094593
 31
0.0
  0
ARC
  5
126
330
1F
100
AcDbEntity
  8
0
  6
Continuous
 62
     7
370
    15
100
AcDbCircle
 10
561.0344050121
 20
449.3017817989
 30
0.0
 40
5.174605806065497
100
AcDbArc
 50
269.9982441848
 51
275.9072029952
  0
ARC
  5
127
330
1F
100
AcDbEntity
  8
0
  6
Continuous
 62
     7
370
    15
100
AcDbCircle
 10
561.0846830337
 20
449.1320402687
 30
0.0
 40
5.000697012294321
100
AcDbArc
 50
275.5343524865
 51
331.7847087533
  0
LINE
  5
128
330
1F
100
AcDbEntity
  8
0
  6
Continuous
 62
     7
370
    15
100
AcDbLine
 10
461.5669540096
 20
443.9476170028
 30
0.0
 11
461.0342523981
 21
443.9201094593
 31
0.0
  0
LINE
  5
129
330
1F
100
AcDbEntity
  8
0
  6
Continuous
 62
     7
370
    15
100
AcDbLine
 10
461.0342523981
 20
444.1271759952
 30
0.0
 11
461.0342523981
 21
443.9201094593
 31
0.0
  0
ARC
  5
12A
330
1F
100
AcDbEntity
  8
0
  6
Continuous
 62
     7
370
    15
100
AcDbCircle
 10
461.0344259338
 20
449.3012029489
 30
0.0
 40
5.174026956594354
100
AcDbArc
 50
269.9980783118
 51
275.9075337678
  0
ARC
  5
12B
330
1F
100
AcDbEntity
  8
0
  6
Continuous
 62
     7
370
    15
100
AcDbCircle
 10
461.0846971615
 20
449.1320056259
 30
0.0
 40
5.000660306311543
100
AcDbArc
 50
275.5341276884
 51
331.7849335514
  0
LINE
  5
12C
330
1F
100
AcDbEntity
  8
0
  6
Continuous
 62
     7
370
    15
100
AcDbLine
 10
-138.4330549311
 20
443.9476170028
 30
0.0
 11
-138.9657416415
 21
443.9201094593
 31
0.0
  0
LINE
  5
12D
330
1F
100
AcDbEntity
  8
0
  6
Continuous
 62
     7
370
    15
100
AcDbLine
 10
-138.9657416415
 20
444.1271759952
 30
0.0
 11
-138.9657416415
 21
443.9201094593
 31
0.0
  0
ARC
  5
12E
330
1F
100
AcDbEntity
  8
0
  6
Continuous
 62
     7
370
    15
100
AcDbCircle
 10
-138.9655531485
 20
449.300624201
 30
0.0
 40
5.173448209249375
100
AcDbArc
 50
269.9979124461
 51
275.9078645423
  0
ARC
  5
12F
330
1F
100
AcDbEntity
  8
0
  6
Continuous
 62
     7
370
    15
100
AcDbCircle
 10
-138.9152887114
 20
449.1319709844
 30
0.0
 40
5.000623601634006
100
AcDbArc
 50
275.5339028946
 51
331.7851583452
  0
LINE
  5
130
330
1F
100
AcDbEntity
  8
0
  6
Continuous
 62
     7
370
    15
100
AcDbLine
 10
361.5669525195
 20
443.9476170028
 30
0.0
 11
361.0342471827
 21
443.9201094593
 31
0.0
  0
LINE
  5
131
330
1F
100
AcDbEntity
  8
0
  6
Continuous
 62
     7
370
    15
100
AcDbLine
 10
361.0342471827
 20
444.1271759952
 30
0.0
 11
361.0342471827
 21
443.9201094593
 31
0.0
  0
ARC
  5
132
330
1F
100
AcDbEntity
  8
0
  6
Continuous
 62
     7
370
    15
100
AcDbCircle
 10
361.0344244349
 20
449.3012030958
 30
0.0
 40
5.174027103659895
100
AcDbArc
 50
269.9980371565
 51
275.9075336973
  0
ARC
  5
133
330
1F
100
AcDbEntity
  8
0
  6
Continuous
 62
     7
370
    15
100
AcDbCircle
 10
361.0846904834
 20
449.132013417
 30
0.0
 40
5.000668561363873
100
AcDbArc
 50
275.5341782451
 51
331.7848829947
  0
LINE
  5
134
330
1F
100
AcDbEntity
  8
0
  6
Continuous
 62
     7
370
    15
100
AcDbLine
 10
261.5669510293
 20
443.9476170028
 30
0.0
 11
261.0342494178
 21
443.9201094593
 31
0.0
  0
LINE
  5
135
330
1F
100
AcDbEntity
  8
0
  6
Continuous
 62
     7
370
    15
100
AcDbLine
 10
261.0342494178
 20
444.1271759952
 30
0.0
 11
261.0342494178
 21
443.9201094593
 31
0.0
  0
ARC
  5
136
330
1F
100
AcDbEntity
  8
0
  6
Continuous
 62
     7
370
    15
100
AcDbCircle
 10
261.0344245893
 20
449.3011712373
 30
0.0
 40
5.173995245017659
100
AcDbArc
 50
269.9980601861
 51
275.9075518935
  0
ARC
  5
137
330
1F
100
AcDbEntity
  8
0
  6
Continuous
 62
     7
370
    15
100
AcDbCircle
 10
261.0846823915
 20
449.132029613
 30
0.0
 40
5.000685318539549
100
AcDbArc
 50
275.5342356367
 51
331.7847754182
  0
LINE
  5
138
330
1F
100
AcDbEntity
  8
0
  6
Continuous
 62
     7
370
    15
100
AcDbLine
 10
161.5669569898
 20
443.9476170028
 30
0.0
 11
161.0342553783
 21
443.9201094593
 31
0.0
  0
LINE
  5
139
330
1F
100
AcDbEntity
  8
0
  6
Continuous
 62
     7
370
    15
100
AcDbLine
 10
161.0342553783
 20
444.1271759952
 30
0.0
 11
161.0342553783
 21
443.9201094593
 31
0.0
  0
ARC
  5
13A
330
1F
100
AcDbEntity
  8
0
  6
Continuous
 62
     7
370
    15
100
AcDbCircle
 10
161.0344289141
 20
449.3012029489
 30
0.0
 40
5.174026956594354
100
AcDbArc
 50
269.9980783118
 51
275.9075337678
  0
ARC
  5
13B
330
1F
100
AcDbEntity
  8
0
  6
Continuous
 62
     7
370
    15
100
AcDbCircle
 10
161.0846663862
 20
449.1320563178
 30
0.0
 40
5.000714017304958
100
AcDbArc
 50
275.5344566288
 51
331.784604611
  0
LINE
  5
13C
330
1F
100
AcDbEntity
  8
0
  6
Continuous
 62
     7
370
    15
100
AcDbLine
 10
61.5669480491
 20
443.9476170028
 30
0.0
 11
61.0342464376
 21
443.9201094593
 31
0.0
  0
LINE
  5
13D
330
1F
100
AcDbEntity
  8
0
  6
Continuous
 62
     7
370
    15
100
AcDbLine
 10
61.0342464376
 20
444.1271759952
 30
0.0
 11
61.0342464376
 21
443.9201094593
 31
0.0
  0
ARC
  5
13E
330
1F
100
AcDbEntity
  8
0
  6
Continuous
 62
     7
370
    15
100
AcDbCircle
 10
61.0344199734
 20
449.3012029489
 30
0.0
 40
5.174026956594353
100
AcDbArc
 50
269.9980783118
 51
275.9075337678
  0
ARC
  5
13F
330
1F
100
AcDbEntity
  8
0
  6
Continuous
 62
     7
370
    15
100
AcDbCircle
 10
61.084704204
 20
449.131986099
 30
0.0
 40
5.000639616434552
100
AcDbArc
 50
275.5340009759
 51
331.7850602639
  0
LINE
  5
140
330
1F
100
AcDbEntity
  8
0
  6
Continuous
 62
     7
370
    15
100
AcDbLine
 10
-38.4330608916
 20
443.9476170028
 30
0.0
 11
-38.9657476019
 21
443.9201094593
 31
0.0
  0
LINE
  5
141
330
1F
100
AcDbEntity
  8
0
  6
Continuous
 62
     7
370
    15
100
AcDbLine
 10
-38.9657476019
 20
444.1271759952
 30
0.0
 11
-38.9657476019
 21
443.9201094593
 31
0.0
  0
ARC
  5
142
330
1F
100
AcDbEntity
  8
0
  6
Continuous
 62
     7
370
    15
100
AcDbCircle
 10
-38.965559109
 20
449.300624201
 30
0.0
 40
5.173448209249374
100
AcDbArc
 50
269.9979124461
 51
275.9078645423
  0
ARC
  5
143
330
1F
100
AcDbEntity
  8
0
  6
Continuous
 62
     7
370
    15
100
AcDbCircle
 10
-38.9152686664
 20
449.131931931
 30
0.0
 40
5.000582222459761
100
AcDbArc
 50
275.5336494677
 51
331.7854117721
  0
LINE
  5
144
330
1F
100
AcDbEntity
  8
0
  6
Continuous
 62
     7
370
    15
100
AcDbLine
 10
561.0342464376
 20
443.9201094593
 30
0.0
 11
482.2527459789
 21
443.9201094593
 31
0.0
  0
LINE
  5
145
330
1F
100
AcDbEntity
  8
0
  6
Continuous
 62
     7
370
    15
100
AcDbLine
 10
651.601119988
 20
443.9201094593
 30
0.0
 11
582.2527549196
 21
443.9201094593
 31
0.0
  0
LINE
  5
146
330
1F
100
AcDbEntity
  8
0
  6
Continuous
 62
     7
370
    15
100
AcDbLine
 10
675.8011124063
 20
443.9476170028
 30
0.0
 11
675.8011124063
 21
424.8251356567
 31
0.0
  0
LINE
  5
147
330
1F
100
AcDbEntity
  8
0
  6
Continuous
 62
     7
370
    15
100
AcDbLine
 10
675.8011124063
 20
424.8251356567
 30
0.0
 11
-222.5988962721
 21
424.8251356567
 31
0.0
  0
LINE
  5
148
330
1F
100
AcDbEntity
  8
0
  6
Continuous
 62
     7
370
    15
100
AcDbLine
 10
-222.5988962721
 20
443.9476170028
 30
0.0
 11
-222.5988962721
 21
424.8251356567
 31
0.0
  0
LINE
  5
149
330
1F
100
AcDbEntity
  8
0
  6
Continuous
 62
     7
370
    15
100
AcDbLine
 10
-138.9657416415
 20
443.9201094593
 30
0.0
 11
-198.3988740515
 21
443.9201094593
 31
0.0
  0
LINE
  5
14A
330
1F
100
AcDbEntity
  8
0
  6
Continuous
 62
     7
370
    15
100
AcDbLine
 10
-38.9657476019
 20
443.9201094593
 30
0.0
 11
-117.7472629618
 21
443.9201094593
 31
0.0
  0
LINE
  5
14B
330
1F
100
AcDbEntity
  8
0
  6
Continuous
 62
     7
370
    15
100
AcDbLine
 10
61.0342464376
 20
443.9201094593
 30
0.0
 11
-17.7472689223
 21
443.9201094593
 31
0.0
  0
LINE
  5
14C
330
1F
100
AcDbEntity
  8
0
  6
Continuous
 62
     7
370
    15
100
AcDbLine
 10
161.0342553783
 20
443.9201094593
 30
0.0
 11
82.2527400184
 21
443.9201094593
 31
0.0
  0
LINE
  5
14D
330
1F
100
AcDbEntity
  8
0
  6
Continuous
 62
     7
370
    15
100
AcDbLine
 10
261.0342494178
 20
443.9201094593
 30
0.0
 11
182.2527415085
 21
443.9201094593
 31
0.0
  0
LINE
  5
14E
330
1F
100
AcDbEntity
  8
0
  6
Continuous
 62
     7
370
    15
100
AcDbLine
 10
361.0342471827
 20
443.9201094593
 30
0.0
 11
282.2527429986
 21
443.9201094593
 31
0.0
  0
LINE
  5
14F
330
1F
100
AcDbEntity
  8
0
  6
Continuous
 62
     7
370
    15
100
AcDbLine
 10
461.0342523981
 20
443.9201094593
 30
0.0
 11
382.2527444888
 21
443.9201094593
 31
0.0
  0
LINE
  5
150
330
1F
100
AcDbEntity
  8
0
  6
Continuous
 62
     7
370
    15
100
AcDbLine
 10
582.2527549196
 20
444.1271759952
 30
0.0
 11
651.601119988
 21
444.1271759952
 31
0.0
  0
LINE
  5
151
330
1F
100
AcDbEntity
  8
0
  6
Continuous
 62
     7
370
    15
100
AcDbLine
 10
-17.7472689223
 20
444.1271759952
 30
0.0
 11
61.0342464376
 21
444.1271759952
 31
0.0
  0
LINE
  5
152
330
1F
100
AcDbEntity
  8
0
  6
Continuous
 62
     7
370
    15
100
AcDbLine
 10
-117.7472629618
 20
444.1271759952
 30
0.0
 11
-38.9657476019
 21
444.1271759952
 31
0.0
  0
LINE
  5
153
330
1F
100
AcDbEntity
  8
0
  6
Continuous
 62
     7
370
    15
100
AcDbLine
 10
382.2527444888
 20
444.1271759952
 30
0.0
 11
461.0342523981
 21
444.1271759952
 31
0.0
  0
LINE
  5
154
330
1F
100
AcDbEntity
  8
0
  6
Continuous
 62
     7
370
    15
100
AcDbLine
 10
-198.3988740515
 20
444.1271759952
 30
0.0
 11
-138.9657416415
 21
444.1271759952
 31
0.0
  0
LINE
  5
155
330
1F
100
AcDbEntity
  8
0
  6
Continuous
 62
     7
370
    15
100
AcDbLine
 10
182.2527415085
 20
444.1271759952
 30
0.0
 11
261.0342494178
 21
444.1271759952
 31
0.0
  0
LINE
  5
156
330
1F
100
AcDbEntity
  8
0
  6
Continuous
 62
     7
370
    15
100
AcDbLine
 10
282.2527429986
 20
444.1271759952
 30
0.0
 11
361.0342471827
 21
444.1271759952
 31
0.0
  0
LINE
  5
157
330
1F
100
AcDbEntity
  8
0
  6
Continuous
 62
     7
370
    15
100
AcDbLine
 10
482.2527459789
 20
444.1271759952
 30
0.0
 11
561.0342464376
 21
444.1271759952
 31
0.0
  0
LINE
  5
158
330
1F
100
AcDbEntity
  8
0
  6
Continuous
 62
     7
370
    15
100
AcDbLine
 10
82.2527400184
 20
444.1271759952
 30
0.0
 11
161.0342553783
 21
444.1271759952
 31
0.0
  0
LINE
  5
159
330
1F
100
AcDbEntity
  8
0
  6
Continuous
 62
     7
370
    15
100
AcDbLine
 10
-38.4330608916
 20
444.1546537365
 30
0.0
 11
-118.2799496722
 21
444.1546537365
 31
0.0
  0
LINE
  5
15A
330
1F
100
AcDbEntity
  8
0
  6
Continuous
 62
     7
370
    15
100
AcDbLine
 10
61.5669480491
 20
444.1546537365
 30
0.0
 11
-18.2799556326
 21
444.1546537365
 31
0.0
  0
LINE
  5
15B
330
1F
100
AcDbEntity
  8
0
  6
Continuous
 62
     7
370
    15
100
AcDbLine
 10
561.5669629503
 20
444.1546537365
 30
0.0
 11
481.7200443674
 21
444.1546537365
 31
0.0
  0
LINE
  5
15C
330
1F
100
AcDbEntity
  8
0
  6
Continuous
 62
     7
370
    15
100
AcDbLine
 10
361.5669525195
 20
444.1546537365
 30
0.0
 11
281.7200395245
 21
444.1546537365
 31
0.0
  0
LINE
  5
15D
330
1F
100
AcDbEntity
  8
0
  6
Continuous
 62
     7
370
    15
100
AcDbLine
 10
652.1338365007
 20
444.1546537365
 30
0.0
 11
581.7200384069
 21
444.1546537365
 31
0.0
  0
LINE
  5
15E
330
1F
100
AcDbEntity
  8
0
  6
Continuous
 62
     7
370
    15
100
AcDbLine
 10
461.5669540096
 20
444.1546537365
 30
0.0
 11
381.7200354267
 21
444.1546537365
 31
0.0
  0
LINE
  5
15F
330
1F
100
AcDbEntity
  8
0
  6
Continuous
 62
     7
370
    15
100
AcDbLine
 10
261.5669510293
 20
444.1546537365
 30
0.0
 11
181.7200324464
 21
444.1546537365
 31
0.0
  0
LINE
  5
160
330
1F
100
AcDbEntity
  8
0
  6
Continuous
 62
     7
370
    15
100
AcDbLine
 10
161.5669569898
 20
444.1546537365
 30
0.0
 11
81.7200384069
 21
444.1546537365
 31
0.0
  0
LINE
  5
161
330
1F
100
AcDbEntity
  8
0
  6
Continuous
 62
     7
370
    15
100
AcDbLine
 10
-138.4330549311
 20
444.1546537365
 30
0.0
 11
-198.9315607619
 21
444.1546537365
 31
0.0
  0
LINE
  5
162
330
1F
100
AcDbEntity
  8
0
  6
Continuous
 62
     7
370
    15
100
AcDbLine
 10
676.6011259485
 20
425.7251359905
 30
0.0
 11
675.8011124063
 21
425.7251359905
 31
0.0
  0
LINE
  5
163
330
1F
100
AcDbEntity
  8
0
  6
Continuous
 62
     7
370
    15
100
AcDbLine
 10
676.6011259485
 20
444.1805519546
 30
0.0
 11
676.6011259485
 21
425.7251359905
 31
0.0
  0
LINE
  5
164
330
1F
100
AcDbEntity
  8
0
  6
Continuous
 62
     7
370
    15
100
AcDbLine
 10
-223.3988502097
 20
425.7251359905
 30
0.0
 11
-222.5988962721
 21
425.7251359905
 31
0.0
  0
LINE
  5
165
330
1F
100
AcDbEntity
  8
0
  6
Continuous
 62
     7
370
    15
100
AcDbLine
 10
-223.3988502097
 20
444.1805519546
 30
0.0
 11
-223.3988502097
 21
425.7251359905
 31
0.0
  0
LWPOLYLINE
  5
166
330
1F
100
AcDbEntity
  8
0
  6
Continuous
 62
     7
370
    15
100
AcDbPolyline
 90
        3
 70
   128
 43
0.0
 10
-222.5988962721
 20
479.3999530758
 10
-222.7984526228
 20
479.2247154201
 10
-223.045931108
 20
478.9251424755
  0
LWPOLYLINE
  5
167
330
1F
100
AcDbEntity
  8
0
  6
Continuous
 62
     7
370
    15
100
AcDbPolyline
 90
        3
 70
   128
 43
0.0
 10
676.2481770444
 20
478.9251424755
 10
676.0006985593
 20
479.2247154201
 10
675.8011124063
 20
479.3999530758
  0
LWPOLYLINE
  5
168
330
1F
100
AcDbEntity
  8
0
  6
Continuous
 62
     7
370
    15
100
AcDbPolyline
 90
        3
 70
   128
 43
0.0
 10
-223.045931108
 20
425.7251359905
 10
-222.7984526228
 20
425.4255630458
 10
-222.5988962721
 20
425.2503253902
  0
LWPOLYLINE
  5
169
330
1F
100
AcDbEntity
  8
0
  6
Continuous
 62
     7
370
    15
100
AcDbPolyline
 90
        3
 70
   128
 43
0.0
 10
675.8011124063
 20
425.2503253902
 10
676.0006985593
 20
425.4255630458
 10
676.2481770444
 20
425.7251359905
  0
LINE
  5
16A
330
1F
100
AcDbEntity
  8
0
  6
Continuous
 62
     7
370
    15
100
AcDbLine
 10
-14.5488836836
 20
-287.3416803395
 30
0.0
 11
-14.5488836836
 21
-288.1948314225
 31
0.0
  0
LINE
  5
16B
330
1F
100
AcDbEntity
  8
0
  6
Continuous
 62
     7
370
    15
100
AcDbLine
 10
-14.5488836836
 20
-288.1948314225
 30
0.0
 11
-184.5488705706
 21
-288.1948314225
 31
0.0
  0
LINE
  5
16C
330
1F
100
AcDbEntity
  8
0
  6
Continuous
 62
     7
370
    15
100
AcDbLine
 10
-184.5488705706
 20
-287.3416803395
 30
0.0
 11
-184.5488705706
 21
-288.1948314225
 31
0.0
  0
LINE
  5
16D
330
1F
100
AcDbEntity
  8
0
  6
Continuous
 62
     7
370
    15
100
AcDbLine
 10
-14.5488836836
 20
-288.1948314225
 30
0.0
 11
-14.5488836836
 21
-290.3599105393
 31
0.0
  0
LWPOLYLINE
  5
16E
330
1F
100
AcDbEntity
  8
0
  6
Continuous
 62
     7
370
    15
100
AcDbPolyline
 90
        9
 70
   128
 43
0.0
 10
-24.5488741469
 20
-293.452914766
 10
-22.5979843211
 20
-293.3934889351
 10
-20.7220473361
 20
-293.2174764191
 10
-18.993184812
 20
-292.9316721474
 10
-17.4777963233
 20
-292.5470135723
 10
-16.2341752123
 20
-292.0783124482
 10
-15.3100946021
 20
-291.5435693776
 10
-14.7410192561
 20
-290.963347963
 10
-14.5488836836
 20
-290.3599105393
  0
LINE
  5
16F
330
1F
100
AcDbEntity
  8
0
  6
Continuous
 62
     7
370
    15
100
AcDbLine
 10
-24.5488741469
 20
-293.452914766
 30
0.0
 11
-174.5488801074
 21
-293.452914766
 31
0.0
  0
LWPOLYLINE
  5
170
330
1F
100
AcDbEntity
  8
0
  6
Continuous
 62
     7
370
    15
100
AcDbPolyline
 90
        9
 70
   128
 43
0.0
 10
-184.5488705706
 20
-290.3599105393
 10
-184.3567349982
 20
-290.963347963
 10
-183.7876596522
 20
-291.5435693776
 10
-182.8635790419
 20
-292.0783124482
 10
-181.619957931
 20
-292.5470135723
 10
-180.1045694422
 20
-292.9316721474
 10
-178.3757069182
 20
-293.2174764191
 10
-176.4997699332
 20
-293.3934889351
 10
-174.5488801074
 20
-293.452914766
  0
LINE
  5
171
330
1F
100
AcDbEntity
  8
0
  6
Continuous
 62
     7
370
    15
100
AcDbLine
 10
-184.5488705706
 20
-288.1948314225
 30
0.0
 11
-184.5488705706
 21
-290.3599105393
 31
0.0
  0
LINE
  5
172
330
1F
100
AcDbEntity
  8
0
  6
Continuous
 62
     7
370
    15
100
AcDbLine
 10
656.0619018007
 20
446.7751421417
 30
0.0
 11
651.0011098314
 21
446.7751421417
 31
0.0
  0
LINE
  5
173
330
1F
100
AcDbEntity
  8
0
  6
Continuous
 62
     7
370
    15
100
AcDbLine
 10
-203.2469370436
 20
447.7751292671
 30
0.0
 11
-133.9785316061
 21
447.7751292671
 31
0.0
  0
LINE
  5
174
330
1F
100
AcDbEntity
  8
0
  6
Continuous
 62
     7
370
    15
100
AcDbLine
 10
-122.5952961516
 20
447.7751292671
 30
0.0
 11
-33.9785375666
 21
447.7751292671
 31
0.0
  0
LINE
  5
175
330
1F
100
AcDbEntity
  8
0
  6
Continuous
 62
     7
370
    15
100
AcDbLine
 10
-22.5953021121
 20
447.7751292671
 30
0.0
 11
66.0214564729
 21
447.7751292671
 31
0.0
  0
LINE
  5
176
330
1F
100
AcDbEntity
  8
0
  6
Continuous
 62
     7
370
    15
100
AcDbLine
 10
77.4047068286
 20
447.7751292671
 30
0.0
 11
166.0214505125
 21
447.7751292671
 31
0.0
  0
LINE
  5
177
330
1F
100
AcDbEntity
  8
0
  6
Continuous
 62
     7
370
    15
100
AcDbLine
 10
177.4047157693
 20
447.7751292671
 30
0.0
 11
266.0214557279
 21
447.7751292671
 31
0.0
  0
LINE
  5
178
330
1F
100
AcDbEntity
  8
0
  6
Continuous
 62
     7
370
    15
100
AcDbLine
 10
277.4047116715
 20
447.7751292671
 30
0.0
 11
366.0214534927
 21
447.7751292671
 31
0.0
  0
LINE
  5
179
330
1F
100
AcDbEntity
  8
0
  6
Continuous
 62
     7
370
    15
100
AcDbLine
 10
377.404711299
 20
447.7751292671
 30
0.0
 11
466.0214475322
 21
447.7751292671
 31
0.0
  0
LINE
  5
17A
330
1F
100
AcDbEntity
  8
0
  6
Continuous
 62
     7
370
    15
100
AcDbLine
 10
477.4047127891
 20
447.7751292671
 30
0.0
 11
566.0214564729
 21
447.7751292671
 31
0.0
  0
LINE
  5
17B
330
1F
100
AcDbEntity
  8
0
  6
Continuous
 62
     7
370
    15
100
AcDbLine
 10
577.4047217298
 20
447.7751292671
 30
0.0
 11
629.0011248518
 21
447.7751292671
 31
0.0
  0
LINE
  5
17C
330
1F
100
AcDbEntity
  8
0
  6
Continuous
 62
     7
370
    15
100
AcDbLine
 10
651.0011098314
 20
447.7751292671
 30
0.0
 11
656.4491531778
 21
447.7751292671
 31
0.0
  0
CIRCLE
  5
17D
330
1F
100
AcDbEntity
  8
0
  6
Continuous
 62
     7
370
    15
100
AcDbCircle
 10
-178.9988770974
 20
459.7751346101
 30
0.0
 40
2.249999999999943
  0
LINE
  5
17E
330
1F
100
AcDbEntity
  8
0
  6
Continuous
 62
     7
370
    15
100
AcDbLine
 10
-184.4988622736
 20
446.7751421417
 30
0.0
 11
-184.4988622736
 21
444.1546537365
 31
0.0
  0
LINE
  5
17F
330
1F
100
AcDbEntity
  8
0
  6
Continuous
 62
     7
370
    15
100
AcDbLine
 10
-184.4988622736
 20
446.7751421417
 30
0.0
 11
-202.8596856665
 21
446.7751421417
 31
0.0
  0
LINE
  5
180
330
1F
100
AcDbEntity
  8
0
  6
Continuous
 62
     7
370
    15
100
AcDbLine
 10
-113.4988823008
 20
-111.6936318194
 30
0.0
 11
-113.4988823008
 21
-149.6936343228
 31
0.0
  0
LINE
  5
181
330
1F
100
AcDbEntity
  8
0
  6
Continuous
 62
     7
370
    15
100
AcDbLine
 10
640.0011322427
 20
499.1751350845
 30
0.0
 11
651.0011098314
 21
499.1751350845
 31
0.0
  0
LINE
  5
182
330
1F
100
AcDbEntity
  8
0
  6
Continuous
 62
     7
370
    15
100
AcDbLine
 10
629.0011248518
 20
499.1751350845
 30
0.0
 11
640.0011322427
 21
499.1751350845
 31
0.0
  0
LINE
  5
183
330
1F
100
AcDbEntity
  8
0
  6
Continuous
 62
     7
370
    15
100
AcDbLine
 10
640.0011322427
 20
501.1751391376
 30
0.0
 11
649.0011355806
 21
501.1751391376
 31
0.0
  0
LINE
  5
184
330
1F
100
AcDbEntity
  8
0
  6
Continuous
 62
     7
370
    15
100
AcDbLine
 10
631.0011289049
 20
501.1751391376
 30
0.0
 11
640.0011322427
 21
501.1751391376
 31
0.0
  0
SPLINE
  5
185
330
1F
100
AcDbEntity
  8
0
  6
Continuous
 62
     7
370
    15
100
AcDbSpline
210
0.0
220
0.0
230
1.0
 70
     8
 71
     3
 72
    10
 73
     6
 74
     0
 42
0.00000001
 43
0.00000001
 40
0.0
 40
0.0
 40
0.0
 40
0.0
 40
0.5
 40
0.5
 40
1.0
 40
1.0
 40
1.0
 40
1.0
 10
456.030541964512
 20
-308.4248653898541
 30
0.0
 10
456.349883097908
 20
-308.2156182510573
 30
0.0
 10
456.6790375456387
 20
-308.0582354630246
 30
0.0
 10
457.3452179326156
 20
-307.8464974350241
 30
0.0
 10
457.6680253666757
 20
-307.7962560662082
 30
0.0
 10
457.9805626307537
 20
-307.7962560662082
 30
0.0
  0
LINE
  5
186
330
1F
100
AcDbEntity
  8
0
  6
Continuous
 62
     7
370
    15
100
AcDbLine
 10
424.3717036176
 20
-308.4248564755
 30
0.0
 11
456.0305467773
 21
-308.4248564755
 31
0.0
  0
SPLINE
  5
187
330
1F
100
AcDbEntity
  8
0
  6
Continuous
 62
     7
370
    15
100
AcDbSpline
210
0.0
220
0.0
230
1.0
 70
     8
 71
     3
 72
    10
 73
     6
 74
     0
 42
0.00000001
 43
0.00000001
 40
0.0
 40
0.0
 40
0.0
 40
0.0
 40
0.5
 40
0.5
 40
1.0
 40
1.0
 40
1.0
 40
1.0
 10
422.4216831743652
 20
-307.7962560662082
 30
0.0
 10
422.7342204384433
 20
-307.7962560662082
 30
0.0
 10
423.0570278725033
 20
-307.8464974350243
 30
0.0
 10
423.7232082594803
 20
-308.0582354630243
 30
0.0
 10
424.052362707211
 20
-308.2156182510573
 30
0.0
 10
424.371703840607
 20
-308.4248653898541
 30
0.0
  0
SPLINE
  5
188
330
1F
100
AcDbEntity
  8
0
  6
Continuous
 62
     7
370
    15
100
AcDbSpline
210
0.0
220
0.0
230
1.0
 70
     8
 71
     3
 72
    10
 73
     6
 74
     0
 42
0.00000001
 43
0.00000001
 40
0.0
 40
0.0
 40
0.0
 40
0.0
 40
0.2117525782404937
 40
0.4880556599494284
 40
1.0
 40
1.0
 40
1.0
 40
1.0
 10
456.0614666867731
 20
-308.4379098926886
 30
0.0
 10
456.0602134658545
 20
-308.4357462041484
 30
0.0
 10
456.0573249930549
 20
-308.4307592498112
 30
0.0
 10
456.0465906210818
 20
-308.425667848712
 30
0.0
 10
456.0368639646987
 20
-308.425175949844
 30
0.0
 10
456.0305467772959
 20
-308.4248564754828
 30
0.0
  0
SPLINE
  5
189
330
1F
100
AcDbEntity
  8
0
  6
Continuous
 62
     7
370
    15
100
AcDbSpline
210
0.0
220
0.0
230
1.0
 70
     8
 71
     3
 72
    10
 73
     6
 74
     0
 42
0.00000001
 43
0.00000001
 40
0.0
 40
0.0
 40
0.0
 40
0.0
 40
0.3554474833979716
 40
0.7142334388552293
 40
1.0
 40
1.0
 40
1.0
 40
1.0
 10
453.8240424323557
 20
-311.7654285942421
 30
0.0
 10
453.9474504295574
 20
-311.30993924544
 30
0.0
 10
454.195425509817
 20
-310.3946824518152
 30
0.0
 10
455.0333619127791
 20
-309.2042164453698
 30
0.0
 10
455.7456632460091
 20
-308.6732966471694
 30
0.0
 10
456.0614666867731
 20
-308.4379098926886
 30
0.0
  0
SPLINE
  5
18A
330
1F
100
AcDbEntity
  8
0
  6
Continuous
 62
     7
370
    15
100
AcDbSpline
210
0.0
220
0.0
230
1.0
 70
     8
 71
     3
 72
    10
 73
     6
 74
     0
 42
0.00000001
 43
0.00000001
 40
0.0
 40
0.0
 40
0.0
 40
0.0
 40
0.5
 40
0.5
 40
1.0
 40
1.0
 40
1.0
 40
1.0
 10
451.3503213593044
 20
-327.8352300671829
 30
0.0
 10
451.6934306343516
 20
-325.1696723704077
 30
0.0
 10
452.0722981318036
 20
-322.4950874141216
 30
0.0
 10
452.8977693807403
 20
-317.1366224155229
 30
0.0
 10
453.344419770241
 20
-314.452570434109
 30
0.0
 10
453.824042680487
 20
-311.7654204414339
 30
0.0
  0
LINE
  5
18B
330
1F
100
AcDbEntity
  8
0
  6
Continuous
 62
     7
370
    15
100
AcDbLine
 10
441.7011282373
 20
-327.8352282559
 30
0.0
 11
451.3503155637
 21
-327.8352282559
 31
0.0
  0
LINE
  5
18C
330
1F
100
AcDbEntity
  8
0
  6
Continuous
 62
     7
370
    15
100
AcDbLine
 10
441.7011282373
 20
-327.8352282559
 30
0.0
 11
441.7011282373
 21
-326.4873586212
 31
0.0
  0
SPLINE
  5
18D
330
1F
100
AcDbEntity
  8
0
  6
Continuous
 62
     7
370
    15
100
AcDbSpline
210
0.0
220
0.0
230
1.0
 70
     8
 71
     3
 72
     8
 73
     4
 74
     0
 42
0.00000001
 43
0.00000001
 40
0.0
 40
0.0
 40
0.0
 40
0.0
 40
1.0
 40
1.0
 40
1.0
 40
1.0
 10
440.4662463980583
 20
-309.0936280077119
 30
0.0
 10
440.8778783169133
 20
-314.8968811428661
 30
0.0
 10
441.2895063034964
 20
-320.6968613011004
 30
0.0
 10
441.7011229025595
 20
-326.4873632006215
 30
0.0
  0
SPLINE
  5
18E
330
1F
100
AcDbEntity
  8
0
  6
Continuous
 62
     7
370
    15
100
AcDbSpline
210
0.0
220
0.0
230
1.0
 70
     8
 71
     3
 72
    10
 73
     6
 74
     0
 42
0.00000001
 43
0.00000001
 40
0.0
 40
0.0
 40
0.0
 40
0.0
 40
0.5
 40
0.5
 40
1.0
 40
1.0
 40
1.0
 40
1.0
 10
440.2167674934902
 20
-308.8808245239183
 30
0.0
 10
440.2800798231092
 20
-308.8808114238645
 30
0.0
 10
440.3419605150082
 20
-308.9032451421779
 30
0.0
 10
440.4334281661906
 20
-308.9811668503527
 30
0.0
 10
440.4621607075766
 20
-309.0360272848058
 30
0.0
 10
440.4662463980583
 20
-309.0936280077119
 30
0.0
  0
ELLIPSE
  5
18F
330
1F
100
AcDbEntity
  8
0
  6
Continuous
 62
     7
370
    15
100
AcDbEllipse
 10
440.2011229026
 20
-292.9150983085
 30
0.0
 11
34.7443423968848
 21
-1.136868377216160E-13
 31
0.0
210
0.0
220
0.0
230
1.0
 40
0.4595202192
 41
4.711938703004842
 42
4.712839257764561
  0
SPLINE
  5
190
330
1F
100
AcDbEntity
  8
0
  6
Continuous
 62
     7
370
    15
100
AcDbSpline
210
0.0
220
0.0
230
1.0
 70
     8
 71
     3
 72
    10
 73
     6
 74
     0
 42
0.00000001
 43
0.00000001
 40
0.0
 40
0.0
 40
0.0
 40
0.0
 40
0.5
 40
0.5
 40
1.0
 40
1.0
 40
1.0
 40
1.0
 10
439.9359994070607
 20
-309.0936280077119
 30
0.0
 10
439.9400850978695
 20
-309.0360272801939
 30
0.0
 10
439.9687398575335
 20
-308.9812767558231
 30
0.0
 10
440.0601597207558
 20
-308.9033085690813
 30
0.0
 10
440.1221659846893
 20
-308.8808114238651
 30
0.0
 10
440.1854783116287
 20
-308.8808245239183
 30
0.0
  0
SPLINE
  5
191
330
1F
100
AcDbEntity
  8
0
  6
Continuous
 62
     7
370
    15
100
AcDbSpline
210
0.0
220
0.0
230
1.0
 70
     8
 71
     3
 72
     8
 73
     4
 74
     0
 42
0.00000001
 43
0.00000001
 40
0.0
 40
0.0
 40
0.0
 40
0.0
 40
1.0
 40
1.0
 40
1.0
 40
1.0
 10
439.9359994070607
 20
-309.0936280077119
 30
0.0
 10
439.5243674882058
 20
-314.8968811428661
 30
0.0
 10
439.1127395016227
 20
-320.6968613011004
 30
0.0
 10
438.7011229025595
 20
-326.4873632006216
 30
0.0
  0
LINE
  5
192
330
1F
100
AcDbEntity
  8
0
  6
Continuous
 62
     7
370
    15
100
AcDbLine
 10
438.7011221576
 20
-326.4873586212
 30
0.0
 11
438.7011221576
 21
-327.8352282559
 31
0.0
  0
LINE
  5
193
330
1F
100
AcDbEntity
  8
0
  6
Continuous
 62
     7
370
    15
100
AcDbLine
 10
429.0519273806
 20
-327.8352282559
 30
0.0
 11
438.7011221576
 21
-327.8352282559
 31
0.0
  0
SPLINE
  5
194
330
1F
100
AcDbEntity
  8
0
  6
Continuous
 62
     7
370
    15
100
AcDbSpline
210
0.0
220
0.0
230
1.0
 70
     8
 71
     3
 72
    10
 73
     6
 74
     0
 42
0.00000001
 43
0.00000001
 40
0.0
 40
0.0
 40
0.0
 40
0.0
 40
0.5
 40
0.5
 40
1.0
 40
1.0
 40
1.0
 40
1.0
 10
426.5782031246319
 20
-311.7654204414337
 30
0.0
 10
427.057826034878
 20
-314.4525704341088
 30
0.0
 10
427.5044764243786
 20
-317.136622415523
 30
0.0
 10
428.3299476733154
 20
-322.4950874141215
 30
0.0
 10
428.7088151707674
 20
-325.1696723704079
 30
0.0
 10
429.0519244458145
 20
-327.835230067183
 30
0.0
  0
SPLINE
  5
195
330
1F
100
AcDbEntity
  8
0
  6
Continuous
 62
     7
370
    15
100
AcDbSpline
210
0.0
220
0.0
230
1.0
 70
     8
 71
     3
 72
    10
 73
     6
 74
     0
 42
0.00000001
 43
0.00000001
 40
0.0
 40
0.0
 40
0.0
 40
0.0
 40
0.2857665611447707
 40
0.6445525166020284
 40
1.0
 40
1.0
 40
1.0
 40
1.0
 10
424.3407762575624
 20
-308.4379098926886
 30
0.0
 10
424.6565796983264
 20
-308.6732966471695
 30
0.0
 10
425.3688810315564
 20
-309.2042164453696
 30
0.0
 10
426.2068174345186
 20
-310.3946824518154
 30
0.0
 10
426.4547925147781
 20
-311.30993924544
 30
0.0
 10
426.5782005119798
 20
-311.7654285942421
 30
0.0
  0
SPLINE
  5
196
330
1F
100
AcDbEntity
  8
0
  6
Continuous
 62
     7
370
    15
100
AcDbSpline
210
0.0
220
0.0
230
1.0
 70
     8
 71
     3
 72
    11
 73
     7
 74
     0
 42
0.00000001
 43
0.00000001
 40
0.0
 40
0.0
 40
0.0
 40
0.0
 40
0.3703471832500512
 40
0.7442741700929073
 40
0.9442483552378752
 40
1.0
 40
1.0
 40
1.0
 40
1.0
 10
424.3717036176203
 20
-308.4248564754828
 30
0.0
 10
424.367119796154
 20
-308.4250289593091
 30
0.0
 10
424.35790784566
 20
-308.4253755942032
 30
0.0
 10
424.3472779032392
 20
-308.4291194586091
 30
0.0
 10
424.3422729982825
 20
-308.4345285851726
 30
0.0
 10
424.341044160585
 20
-308.437304669291
 30
0.0
 10
424.3407762575624
 20
-308.4379098926886
 30
0.0
  0
SPLINE
  5
197
330
1F
100
AcDbEntity
  8
0
  6
Continuous
 62
     7
370
    15
100
AcDbSpline
210
0.0
220
0.0
230
1.0
 70
     8
 71
     3
 72
    10
 73
     6
 74
     0
 42
0.00000001
 43
0.00000001
 40
0.0
 40
0.0
 40
0.0
 40
0.0
 40
0.5
 40
0.5
 40
1.0
 40
1.0
 40
1.0
 40
1.0
 10
440.4662463980583
 20
-308.986744893206
 30
0.0
 10
440.4621866957189
 20
-308.9294850929701
 30
0.0
 10
440.4335312318029
 20
-308.8742371257695
 30
0.0
 10
440.3419569024931
 20
-308.7959063334671
 30
0.0
 10
440.2796750847094
 20
-308.7733672786106
 30
0.0
 10
440.2167674934902
 20
-308.7733453487763
 30
0.0
  0
SPLINE
  5
198
330
1F
100
AcDbEntity
  8
0
  6
Continuous
 62
     7
370
    15
100
AcDbSpline
210
0.0
220
0.0
230
1.0
 70
     8
 71
     3
 72
    12
 73
     8
 74
     0
 42
0.00000001
 43
0.00000001
 40
0.0
 40
0.0
 40
0.0
 40
0.0
 40
0.25
 40
0.25
 40
0.5
 40
0.5
 40
1.0
 40
1.0
 40
1.0
 40
1.0
 10
439.9359994070607
 20
-308.986744893206
 30
0.0
 10
439.9380292251886
 20
-308.9581197671001
 30
0.0
 10
439.9462078047607
 20
-308.9299971132825
 30
0.0
 10
439.9729967826471
 20
-308.8782730538662
 30
0.0
 10
439.9916071809615
 20
-308.8546716482675
 30
0.0
 10
440.0602875477992
 20
-308.7959237592635
 30
0.0
 10
440.1225697257049
 20
-308.7733784493213
 30
0.0
 10
440.1854783116287
 20
-308.7733453487763
 30
0.0
  0
LINE
  5
199
330
1F
100
AcDbEntity
  8
0
  6
Continuous
 62
     7
370
    15
100
AcDbLine
 10
440.2164510417
 20
-308.8877461468
 30
0.0
 11
440.1857993532
 21
-308.8877461468
 31
0.0
  0
SPLINE
  5
19A
330
1F
100
AcDbEntity
  8
0
  6
Continuous
 62
     7
370
    15
100
AcDbSpline
210
0.0
220
0.0
230
1.0
 70
     8
 71
     3
 72
    14
 73
    10
 74
     0
 42
0.00000001
 43
0.00000001
 40
0.0
 40
0.0
 40
0.0
 40
0.0
 40
0.0450047710460749
 40
0.1924490454964647
 40
0.4101043775249636
 40
0.6281103585094457
 40
0.8446498436290981
 40
0.9597652821446567
 40
1.0
 40
1.0
 40
1.0
 40
1.0
 10
439.668520443487
 20
-326.3502083336218
 30
0.0
 10
439.6485774257633
 20
-326.3389256872848
 30
0.0
 10
439.5632972513279
 20
-326.29067892438
 30
0.0
 10
439.3473436788793
 20
-326.2746712373058
 30
0.0
 10
439.0771606580228
 20
-326.2789491691197
 30
0.0
 10
438.8415978075061
 20
-326.3248724092775
 30
0.0
 10
438.7290708991889
 20
-326.36502353167
 30
0.0
 10
438.7025527620501
 20
-326.3608544769667
 30
0.0
 10
438.7014164542318
 20
-326.3356626239098
 30
0.0
 10
438.7011221576212
 20
-326.3291380916937
 30
0.0
  0
SPLINE
  5
19B
330
1F
100
AcDbEntity
  8
0
  6
Continuous
 62
     7
370
    15
100
AcDbSpline
210
0.0
220
0.0
230
1.0
 70
     8
 71
     3
 72
    10
 73
     6
 74
     0
 42
0.00000001
 43
0.00000001
 40
0.0
 40
0.0
 40
0.0
 40
0.0
 40
0.2799063222495685
 40
0.5601529458162061
 40
1.0
 40
1.0
 40
1.0
 40
1.0
 10
440.1857993531702
 20
-308.8877461468085
 30
0.0
 10
440.1081030406868
 20
-310.5165072217936
 30
0.0
 10
439.9526159549832
 20
-313.7760095683331
 30
0.0
 10
440.0138601482829
 20
-319.6010417419908
 30
0.0
 10
439.799472523766
 20
-323.790938741826
 30
0.0
 10
439.668520443487
 20
-326.3502083336218
 30
0.0
  0
SPLINE
  5
19C
330
1F
100
AcDbEntity
  8
0
  6
Continuous
 62
     7
370
    15
100
AcDbSpline
210
0.0
220
0.0
230
1.0
 70
     8
 71
     3
 72
    15
 73
    11
 74
     0
 42
0.00000001
 43
0.00000001
 40
0.0
 40
0.0
 40
0.0
 40
0.0
 40
0.0802876086965158
 40
0.2296492017212888
 40
0.4389302621181385
 40
0.6497313862765257
 40
0.8665079555198749
 40
0.9462815185307284
 40
0.9895193713094745
 40
0.9999999999999999
 40
0.9999999999999999
 40
0.9999999999999999
 40
0.9999999999999999
 10
441.7011282372949
 20
-326.3291380916937
 30
0.0
 10
441.6999278315078
 20
-326.3401423558541
 30
0.0
 10
441.6964942726402
 20
-326.371618202762
 30
0.0
 10
441.6437186978628
 20
-326.3517490569514
 30
0.0
 10
441.496567904938
 20
-326.3094085013852
 30
0.0
 10
441.2444759594828
 20
-326.273200370496
 30
0.0
 10
440.9944497113394
 20
-326.2739707478665
 30
0.0
 10
440.8248372170167
 20
-326.3067666908833
 30
0.0
 10
440.7590784080265
 20
-326.3303661218268
 30
0.0
 10
440.7378556673942
 20
-326.3469690542345
 30
0.0
 10
440.733715050268
 20
-326.3502083336218
 30
0.0
  0
SPLINE
  5
19D
330
1F
100
AcDbEntity
  8
0
  6
Continuous
 62
     7
370
    15
100
AcDbSpline
210
0.0
220
0.0
230
1.0
 70
     8
 71
     3
 72
     9
 73
     5
 74
     0
 42
0.00000001
 43
0.00000001
 40
0.0
 40
0.0
 40
0.0
 40
0.0
 40
0.5599645838773116
 40
1.0
 40
1.0
 40
1.0
 40
1.0
 10
440.733715050268
 20
-326.3502083336218
 30
0.0
 10
440.6272257461806
 20
-323.0909877793538
 30
0.0
 10
440.4370542475654
 20
-317.2705829749991
 30
0.0
 10
440.2838613445649
 20
-311.4493116824072
 30
0.0
 10
440.216451041746
 20
-308.8877461468086
 30
0.0
  0
SPLINE
  5
19E
330
1F
100
AcDbEntity
  8
0
  6
Continuous
 62
     7
370
    15
100
AcDbSpline
210
0.0
220
0.0
230
1.0
 70
     8
 71
     3
 72
     9
 73
     5
 74
     0
 42
0.00000001
 43
0.00000001
 40
0.0
 40
0.0
 40
0.0
 40
0.0
 40
0.13738731689131
 40
0.9999999999999999
 40
0.9999999999999999
 40
0.9999999999999999
 40
0.9999999999999999
 10
440.701126210737
 20
-326.3792357956274
 30
0.0
 10
440.7026161425063
 20
-326.3779044790697
 30
0.0
 10
440.7134608973423
 20
-326.3682142355455
 30
0.0
 10
440.7243349524314
 20
-326.3585472220612
 30
0.0
 10
440.733715050268
 20
-326.3502083336219
 30
0.0
  0
LINE
  5
19F
330
1F
100
AcDbEntity
  8
0
  6
Continuous
 62
     7
370
    15
100
AcDbLine
 10
439.7011241842
 20
-326.3792357956
 30
0.0
 11
440.7011262107
 21
-326.3792357956
 31
0.0
  0
SPLINE
  5
1A0
330
1F
100
AcDbEntity
  8
0
  6
Continuous
 62
     7
370
    15
100
AcDbSpline
210
0.0
220
0.0
230
1.0
 70
     8
 71
     3
 72
     9
 73
     5
 74
     0
 42
0.00000001
 43
0.00000001
 40
0.0
 40
0.0
 40
0.0
 40
0.0
 40
0.8626440920484959
 40
0.9999999999999999
 40
0.9999999999999999
 40
0.9999999999999999
 40
0.9999999999999999
 10
439.668520443487
 20
-326.3502083336218
 30
0.0
 10
439.6779065812947
 20
-326.3585462662109
 30
0.0
 10
439.6887872421539
 20
-326.3682118196712
 30
0.0
 10
439.6996342795139
 20
-326.3779044549133
 30
0.0
 10
439.7011241841791
 20
-326.3792357956274
 30
0.0
  0
SPLINE
  5
1A1
330
1F
100
AcDbEntity
  8
0
  6
Continuous
 62
     7
370
    15
100
AcDbSpline
210
0.0
220
0.0
230
1.0
 70
     8
 71
     3
 72
    12
 73
     8
 74
     0
 42
0.00000001
 43
0.00000001
 40
0.0
 40
0.0
 40
0.0
 40
0.0
 40
0.0304691218441196
 40
0.088818719672299
 40
0.3925573694734325
 40
0.6962798914116303
 40
1.0
 40
1.0
 40
1.0
 40
1.0
 10
424.3672854233263
 20
-308.8815770660742
 30
0.0
 10
424.3635927707814
 20
-308.8818176216569
 30
0.0
 10
424.3528285396062
 20
-308.8825188508875
 30
0.0
 10
424.3094108703889
 20
-308.8786616721612
 30
0.0
 10
424.2616474532591
 20
-308.8297453357819
 30
0.0
 10
424.2597407523414
 20
-308.6761228163244
 30
0.0
 10
424.3137644940336
 20
-308.5173139902531
 30
0.0
 10
424.3407762575624
 20
-308.4379098926886
 30
0.0
  0
SPLINE
  5
1A2
330
1F
100
AcDbEntity
  8
0
  6
Continuous
 62
     7
370
    15
100
AcDbSpline
210
0.0
220
0.0
230
1.0
 70
     8
 71
     3
 72
    12
 73
     8
 74
     0
 42
0.00000001
 43
0.00000001
 40
0.0
 40
0.0
 40
0.0
 40
0.0
 40
0.0304690411714332
 40
0.0888184845081627
 40
0.392557628634479
 40
0.6962793464106172
 40
1.0
 40
1.0
 40
1.0
 40
1.0
 10
456.0349575210092
 20
-308.8815770660742
 30
0.0
 10
456.0386501782269
 20
-308.8818176219663
 30
0.0
 10
456.0494144230233
 20
-308.8825188520984
 30
0.0
 10
456.0928317695837
 20
-308.8786616297521
 30
0.0
 10
456.1406054787093
 20
-308.8297457271584
 30
0.0
 10
456.1425107677736
 20
-308.6761222655503
 30
0.0
 10
456.0884813488883
 20
-308.5173139242363
 30
0.0
 10
456.0614666867731
 20
-308.4379098926886
 30
0.0
  0
SPLINE
  5
1A3
330
1F
100
AcDbEntity
  8
0
  6
Continuous
 62
     7
370
    15
100
AcDbSpline
210
0.0
220
0.0
230
1.0
 70
     8
 71
     3
 72
    10
 73
     6
 74
     0
 42
0.00000001
 43
0.00000001
 40
0.0
 40
0.0
 40
0.0
 40
0.0
 40
0.5
 40
0.5
 40
1.0
 40
1.0
 40
1.0
 40
1.0
 10
424.367286268319
 20
-308.8815756616617
 30
0.0
 10
424.1351871536208
 20
-308.7289300727415
 30
0.0
 10
423.8981390455464
 20
-308.6137233168236
 30
0.0
 10
423.4279736079851
 20
-308.4601964711957
 30
0.0
 10
423.2058252976668
 20
-308.4248653898541
 30
0.0
 10
422.9958385287871
 20
-308.4248653898541
 30
0.0
  0
ARC
  5
1A4
330
1F
100
AcDbEntity
  8
0
  6
Continuous
 62
     7
370
    15
100
AcDbCircle
 10
423.1267014806
 20
-307.7288156026
 30
0.0
 40
0.7082351733139479
100
AcDbArc
 50
185.4649685545
 51
259.3523825018
  0
ARC
  5
1A5
330
1F
100
AcDbEntity
  8
0
  6
Continuous
 62
     7
370
    15
100
AcDbCircle
 10
457.2755414637
 20
-307.7288156026
 30
0.0
 40
0.7082351733138152
100
AcDbArc
 50
280.6476174982
 51
354.5350314456
  0
SPLINE
  5
1A6
330
1F
100
AcDbEntity
  8
0
  6
Continuous
 62
     7
370
    15
100
AcDbSpline
210
0.0
220
0.0
230
1.0
 70
     8
 71
     3
 72
    10
 73
     6
 74
     0
 42
0.00000001
 43
0.00000001
 40
0.0
 40
0.0
 40
0.0
 40
0.0
 40
0.5
 40
0.5
 40
1.0
 40
1.0
 40
1.0
 40
1.0
 10
457.4064072763318
 20
-308.4248653898541
 30
0.0
 10
457.1964205074521
 20
-308.4248653898541
 30
0.0
 10
456.9742721971338
 20
-308.4601964711958
 30
0.0
 10
456.5041067595726
 20
-308.6137233168233
 30
0.0
 10
456.2670586514982
 20
-308.7289300727416
 30
0.0
 10
456.0349595367999
 20
-308.8815756616617
 30
0.0
  0
LINE
  5
1A7
330
1F
100
AcDbEntity
  8
0
  6
Continuous
 62
     7
370
    15
100
AcDbLine
 10
428.575239234
 20
-327.5581560646
 30
0.0
 11
428.5741961527
 21
-327.5480530774
 31
0.0
  0
LINE
  5
1A8
330
1F
100
AcDbEntity
  8
0
  6
Continuous
 62
     7
370
    15
100
AcDbLine
 10
422.9958421517
 20
-308.4248564755
 30
0.0
 11
412.3781538535
 21
-308.4248564755
 31
0.0
  0
LINE
  5
1A9
330
1F
100
AcDbEntity
  8
0
  6
Continuous
 62
     7
370
    15
100
AcDbLine
 10
468.0240890909
 20
-308.4248564755
 30
0.0
 11
457.4064007926
 21
-308.4248564755
 31
0.0
  0
LINE
  5
1AA
330
1F
100
AcDbEntity
  8
0
  6
Continuous
 62
     7
370
    15
100
AcDbLine
 10
439.7011241842
 20
-326.9248567139
 30
0.0
 11
439.7011241842
 21
-326.3792357956
 31
0.0
  0
ARC
  5
1AB
330
1F
100
AcDbEntity
  8
0
  6
Continuous
 62
     7
370
    15
100
AcDbCircle
 10
439.7011229026
 20
-327.9248653899
 30
0.0
 40
1.0
100
AcDbArc
 50
90.0
 51
180.0
  0
ARC
  5
1AC
330
1F
100
AcDbEntity
  8
0
  6
Continuous
 62
     7
370
    15
100
AcDbCircle
 10
440.7011229026
 20
-327.9248653899
 30
0.0
 40
1.0
100
AcDbArc
 50
0.0
 51
90.0
  0
LINE
  5
1AD
330
1F
100
AcDbEntity
  8
0
  6
Continuous
 62
     7
370
    15
100
AcDbLine
 10
440.7011262107
 20
-326.3792357956
 30
0.0
 11
440.7011262107
 21
-326.9248567139
 31
0.0
  0
ARC
  5
1AE
330
1F
100
AcDbEntity
  8
0
  6
Continuous
 62
     7
370
    15
100
AcDbCircle
 10
450.6913533633
 20
-327.779554002
 30
0.0
 40
0.6613099153627601
100
AcDbArc
 50
282.6278624609
 51
355.1706758209
  0
LINE
  5
1AF
330
1F
100
AcDbEntity
  8
0
  6
Continuous
 62
     7
370
    15
100
AcDbLine
 10
450.8359274793
 20
-328.4248672043
 30
0.0
 11
441.7011282373
 21
-328.4248672043
 31
0.0
  0
SPLINE
  5
1B0
330
1F
100
AcDbEntity
  8
0
  6
Continuous
 62
     7
370
    15
100
AcDbSpline
210
0.0
220
0.0
230
1.0
 70
    24
 71
     3
 72
    12
 73
     8
 74
     0
 42
0.00000001
 43
0.00000001
 40
0.0
 40
0.0
 40
0.0
 40
0.0
 40
0.2499999999999803
 40
0.2499999999999803
 40
0.4999999999999607
 40
0.4999999999999607
 40
1.0
 40
1.0
 40
1.0
 40
1.0
 10
441.7011229025595
 20
-328.4248653898542
 30
0.0
 10
441.7011229025595
 20
-328.4248653898542
 30
0.0
 10
441.7011229025595
 20
-328.4112164978256
 30
0.0
 10
441.7011229025595
 20
-328.3571969429834
 30
0.0
 10
441.7011229025595
 20
-328.3169378928329
 30
0.0
 10
441.7011229025595
 20
-328.1619811079701
 30
0.0
 10
441.7011229025595
 20
-328.0114925240975
 30
0.0
 10
441.7011229025595
 20
-327.835230067183
 30
0.0
  0
LINE
  5
1B1
330
1F
100
AcDbEntity
  8
0
  6
Continuous
 62
     7
370
    15
100
AcDbLine
 10
438.7011221576
 20
-328.4248672043
 30
0.0
 11
429.5663229156
 21
-328.4248672043
 31
0.0
  0
ARC
  5
1B2
330
1F
100
AcDbEntity
  8
0
  6
Continuous
 62
     7
370
    15
100
AcDbCircle
 10
429.7108916766
 20
-327.779550347
 30
0.0
 40
0.6613123112161752
100
AcDbArc
 50
184.8296244315
 51
257.3726594987
  0
SPLINE
  5
1B3
330
1F
100
AcDbEntity
  8
0
  6
Continuous
 62
     7
370
    15
100
AcDbSpline
210
0.0
220
0.0
230
1.0
 70
    24
 71
     3
 72
    10
 73
     6
 74
     0
 42
0.00000001
 43
0.00000001
 40
0.0
 40
0.0
 40
0.0
 40
0.0
 40
0.5
 40
0.5
 40
1.0
 40
1.0
 40
1.0
 40
1.0
 10
438.7011229025595
 20
-327.835230067183
 30
0.0
 10
438.7011229025595
 20
-328.0114822047796
 30
0.0
 10
438.7011229025595
 20
-328.1608242867018
 30
0.0
 10
438.7011229025595
 20
-328.3679974298564
 30
0.0
 10
438.7011229025595
 20
-328.4248653898542
 30
0.0
 10
438.7011229025595
 20
-328.4248653898542
 30
0.0
  0
LINE
  5
1B4
330
1F
100
AcDbEntity
  8
0
  6
Continuous
 62
     7
370
    15
100
AcDbLine
 10
440.7011262107
 20
-326.9248567139
 30
0.0
 11
439.7011241842
 21
-326.9248567139
 31
0.0
  0
LINE
  5
1B5
330
1F
100
AcDbEntity
  8
0
  6
Continuous
 62
     7
370
    15
100
AcDbLine
 10
441.7011282373
 20
-327.9248736416
 30
0.0
 11
438.7011221576
 21
-327.9248736416
 31
0.0
  0
LINE
  5
1B6
330
1F
100
AcDbEntity
  8
0
  6
Continuous
 62
     7
370
    15
100
AcDbLine
 10
438.7011221576
 20
-328.4248672043
 30
0.0
 11
441.7011282373
 21
-328.4248672043
 31
0.0
  0
LINE
  5
1B7
330
1F
100
AcDbEntity
  8
0
  6
Continuous
 62
     7
370
    15
100
AcDbLine
 10
-222.298906095
 20
-172.5248656784
 30
0.0
 11
-223.4988668036
 21
-172.5248656784
 31
0.0
  0
LINE
  5
1B8
330
1F
100
AcDbEntity
  8
0
  6
Continuous
 62
     7
370
    15
100
AcDbLine
 10
-222.298906095
 20
-263.5248563801
 30
0.0
 11
-223.4988668036
 21
-263.5248563801
 31
0.0
  0
LINE
  5
1B9
330
1F
100
AcDbEntity
  8
0
  6
Continuous
 62
     7
370
    15
100
AcDbLine
 10
-223.4988668036
 20
-263.5248563801
 30
0.0
 11
-223.4988668036
 21
-172.5248656784
 31
0.0
  0
LINE
  5
1BA
330
1F
100
AcDbEntity
  8
0
  6
Continuous
 62
     7
370
    15
100
AcDbLine
 10
-223.4988668036
 20
-286.5248582875
 30
0.0
 11
-223.4988668036
 21
-263.5248563801
 31
0.0
  0
LINE
  5
1BB
330
1F
100
AcDbEntity
  8
0
  6
Continuous
 62
     7
370
    15
100
AcDbLine
 10
-222.298906095
 20
-170.5248616253
 30
0.0
 11
-223.4988668036
 21
-170.5248616253
 31
0.0
  0
LINE
  5
1BC
330
1F
100
AcDbEntity
  8
0
  6
Continuous
 62
     7
370
    15
100
AcDbLine
 10
-223.4988668036
 20
-172.5248656784
 30
0.0
 11
-223.4988668036
 21
-170.5248616253
 31
0.0
  0
LINE
  5
1BD
330
1F
100
AcDbEntity
  8
0
  6
Continuous
 62
     7
370
    15
100
AcDbLine
 10
640.0011322427
 20
503.1751431907
 30
0.0
 11
651.0011098314
 21
503.1751431907
 31
0.0
  0
LINE
  5
1BE
330
1F
100
AcDbEntity
  8
0
  6
Continuous
 62
     7
370
    15
100
AcDbLine
 10
629.0011248518
 20
503.1751431907
 30
0.0
 11
640.0011322427
 21
503.1751431907
 31
0.0
  0
LINE
  5
1BF
330
1F
100
AcDbEntity
  8
0
  6
Continuous
 62
     7
370
    15
100
AcDbLine
 10
640.0011322427
 20
505.1751472438
 30
0.0
 11
649.0011355806
 21
505.1751472438
 31
0.0
  0
LINE
  5
1C0
330
1F
100
AcDbEntity
  8
0
  6
Continuous
 62
     7
370
    15
100
AcDbLine
 10
631.0011289049
 20
505.1751472438
 30
0.0
 11
640.0011322427
 21
505.1751472438
 31
0.0
  0
SPLINE
  5
1C1
330
1F
100
AcDbEntity
  8
0
  6
Continuous
 62
     7
370
    15
100
AcDbSpline
210
0.0
220
0.0
230
1.0
 70
    24
 71
     3
 72
    19
 73
    15
 74
     0
 42
0.00000001
 43
0.00000001
 40
0.0
 40
0.0
 40
0.0
 40
0.0
 40
0.119728565063942
 40
0.1841805114173116
 40
0.2499996490507789
 40
0.3158194700771595
 40
0.3802720712709098
 40
0.4999999770756122
 40
0.6197283600929906
 40
0.6841805299228404
 40
0.7500003509492211
 40
0.8158194885826884
 40
0.880271434936058
 40
1.0
 40
1.0
 40
1.0
 40
1.0
 10
378.3011204529283
 20
-306.4248524223669
 30
0.0
 10
378.3665744945535
 20
-306.4248524223669
 30
0.0
 10
378.46726357284
 20
-306.4248524223668
 30
0.0
 10
379.0782831419744
 20
-306.4248524223672
 30
0.0
 10
379.7106867205503
 20
-306.4248524223669
 30
0.0
 10
380.4956990911481
 20
-306.4248524223669
 30
0.0
 10
381.6364954142011
 20
-306.4248524223671
 30
0.0
 10
383.2011233555422
 20
-306.4248524223668
 30
0.0
 10
384.7657518361474
 20
-306.4248524223671
 30
0.0
 10
385.9065450402005
 20
-306.4248524223669
 30
0.0
 10
386.6915562938688
 20
-306.4248524223669
 30
0.0
 10
387.3239597096473
 20
-306.4248524223671
 30
0.0
 10
387.934979328666
 20
-306.4248524223669
 30
0.0
 10
388.0356683967861
 20
-306.4248524223669
 30
0.0
 10
388.1011224318025
 20
-306.4248524223669
 30
0.0
  0
LINE
  5
1C2
330
1F
100
AcDbEntity
  8
0
  6
Continuous
 62
     7
370
    15
100
AcDbLine
 10
640.0011322427
 20
507.1751214946
 30
0.0
 11
651.0011098314
 21
507.1751214946
 31
0.0
  0
LINE
  5
1C3
330
1F
100
AcDbEntity
  8
0
  6
Continuous
 62
     7
370
    15
100
AcDbLine
 10
629.0011248518
 20
507.1751214946
 30
0.0
 11
640.0011322427
 21
507.1751214946
 31
0.0
  0
LINE
  5
1C4
330
1F
100
AcDbEntity
  8
0
  6
Continuous
 62
     7
370
    15
100
AcDbLine
 10
640.0011322427
 20
509.1751255478
 30
0.0
 11
649.0011355806
 21
509.1751255478
 31
0.0
  0
LINE
  5
1C5
330
1F
100
AcDbEntity
  8
0
  6
Continuous
 62
     7
370
    15
100
AcDbLine
 10
631.0011289049
 20
509.1751255478
 30
0.0
 11
640.0011322427
 21
509.1751255478
 31
0.0
  0
LINE
  5
1C6
330
1F
100
AcDbEntity
  8
0
  6
Continuous
 62
     7
370
    15
100
AcDbLine
 10
-220.4989054274
 20
-70.7748643671
 30
0.0
 11
673.501118176
 21
-70.7748643671
 31
0.0
  0
LINE
  5
1C7
330
1F
100
AcDbEntity
  8
0
  6
Continuous
 62
     7
370
    15
100
AcDbLine
 10
640.0011322427
 20
511.1751296009
 30
0.0
 11
651.0011098314
 21
511.1751296009
 31
0.0
  0
LINE
  5
1C8
330
1F
100
AcDbEntity
  8
0
  6
Continuous
 62
     7
370
    15
100
AcDbLine
 10
629.0011248518
 20
511.1751296009
 30
0.0
 11
640.0011322427
 21
511.1751296009
 31
0.0
  0
LINE
  5
1C9
330
1F
100
AcDbEntity
  8
0
  6
Continuous
 62
     7
370
    15
100
AcDbLine
 10
640.0011322427
 20
513.175133654
 30
0.0
 11
649.0011355806
 21
513.175133654
 31
0.0
  0
LINE
  5
1CA
330
1F
100
AcDbEntity
  8
0
  6
Continuous
 62
     7
370
    15
100
AcDbLine
 10
631.0011289049
 20
513.175133654
 30
0.0
 11
640.0011322427
 21
513.175133654
 31
0.0
  0
LINE
  5
1CB
330
1F
100
AcDbEntity
  8
0
  6
Continuous
 62
     7
370
    15
100
AcDbLine
 10
-218.998894937
 20
420.6387140239
 30
0.0
 11
-218.998894937
 21
416.5530540432
 31
0.0
  0
LWPOLYLINE
  5
1CC
330
1F
100
AcDbEntity
  8
0
  6
Continuous
 62
     7
370
    15
100
AcDbPolyline
 90
        9
 70
   128
 43
0.0
 10
-213.9988997054
 20
422.7517880882
 10
-214.9743297171
 20
422.7111973251
 10
-215.9122684073
 20
422.5909449543
 10
-216.7767145705
 20
422.395680138
 10
-217.5344088149
 20
422.1328832592
 10
-218.1562044692
 20
421.8126871074
 10
-218.6182596755
 20
421.4473404373
 10
-218.9028122496
 20
421.0509397472
 10
-218.998894937
 20
420.6387140239
  0
LINE
  5
1CD
330
1F
100
AcDbEntity
  8
0
  6
Continuous
 62
     7
370
    15
100
AcDbLine
 10
667.001112454
 20
422.7517880882
 30
0.0
 11
-213.9988997054
 21
422.7517880882
 31
0.0
  0
LWPOLYLINE
  5
1CE
330
1F
100
AcDbEntity
  8
0
  6
Continuous
 62
     7
370
    15
100
AcDbPolyline
 90
        9
 70
   128
 43
0.0
 10
672.0011374879
 20
420.6387140239
 10
671.9050548006
 20
421.0509397472
 10
671.6205320287
 20
421.4473404373
 10
671.1584768224
 20
421.8126871074
 10
670.5366513658
 20
422.1328832592
 10
669.7789869237
 20
422.395680138
 10
668.9145407606
 20
422.5909449543
 10
667.9765722681
 20
422.7111973251
 10
667.001112454
 20
422.7517880882
  0
LINE
  5
1CF
330
1F
100
AcDbEntity
  8
0
  6
Continuous
 62
     7
370
    15
100
AcDbLine
 10
672.0011374879
 20
416.5530540432
 30
0.0
 11
672.0011374879
 21
420.6387140239
 31
0.0
  0
LINE
  5
1D0
330
1F
100
AcDbEntity
  8
0
  6
Continuous
 62
     7
370
    15
100
AcDbLine
 10
672.0011374879
 20
416.5530540432
 30
0.0
 11
-218.998894937
 21
416.5530540432
 31
0.0
  0
LINE
  5
1D1
330
1F
100
AcDbEntity
  8
0
  6
Continuous
 62
     7
370
    15
100
AcDbLine
 10
-213.9988997054
 20
422.7517880882
 30
0.0
 11
-213.9988997054
 21
424.5643951381
 31
0.0
  0
LINE
  5
1D2
330
1F
100
AcDbEntity
  8
0
  6
Continuous
 62
     7
370
    15
100
AcDbLine
 10
-218.998894937
 20
420.6387140239
 30
0.0
 11
-218.998894937
 21
422.4513210739
 31
0.0
  0
LWPOLYLINE
  5
1D3
330
1F
100
AcDbEntity
  8
0
  6
Continuous
 62
     7
370
    15
100
AcDbPolyline
 90
        9
 70
   128
 43
0.0
 10
-213.9988997054
 20
424.5643951381
 10
-214.9743297171
 20
424.523804375
 10
-215.9122684073
 20
424.4035520042
 10
-216.7767145705
 20
424.2082871879
 10
-217.5344088149
 20
423.9454903091
 10
-218.1562044692
 20
423.6252941574
 10
-218.6182596755
 20
423.2599474872
 10
-218.9028122496
 20
422.8635467971
 10
-218.998894937
 20
422.4513210739
  0
LINE
  5
1D4
330
1F
100
AcDbEntity
  8
0
  6
Continuous
 62
     7
370
    15
100
AcDbLine
 10
667.001112454
 20
422.7517880882
 30
0.0
 11
667.001112454
 21
424.5643951381
 31
0.0
  0
LINE
  5
1D5
330
1F
100
AcDbEntity
  8
0
  6
Continuous
 62
     7
370
    15
100
AcDbLine
 10
667.001112454
 20
424.5643951381
 30
0.0
 11
-213.9988997054
 21
424.5643951381
 31
0.0
  0
LINE
  5
1D6
330
1F
100
AcDbEntity
  8
0
  6
Continuous
 62
     7
370
    15
100
AcDbLine
 10
672.0011374879
 20
420.6387140239
 30
0.0
 11
672.0011374879
 21
422.4513210739
 31
0.0
  0
LWPOLYLINE
  5
1D7
330
1F
100
AcDbEntity
  8
0
  6
Continuous
 62
     7
370
    15
100
AcDbPolyline
 90
        9
 70
   128
 43
0.0
 10
672.0011374879
 20
422.4513210739
 10
671.9050548006
 20
422.8635467971
 10
671.6205320287
 20
423.2599474872
 10
671.1584768224
 20
423.6252941574
 10
670.5366513658
 20
423.9454903091
 10
669.7789869237
 20
424.2082871879
 10
668.9145407606
 20
424.4035520042
 10
667.9765722681
 20
424.523804375
 10
667.001112454
 20
424.5643951381
  0
LINE
  5
1D8
330
1F
100
AcDbEntity
  8
0
  6
Continuous
 62
     7
370
    15
100
AcDbLine
 10
672.0011374879
 20
416.5530540432
 30
0.0
 11
672.0011374879
 21
416.2251390899
 31
0.0
  0
LINE
  5
1D9
330
1F
100
AcDbEntity
  8
0
  6
Continuous
 62
     7
370
    15
100
AcDbLine
 10
672.0011374879
 20
416.2251390899
 30
0.0
 11
-218.998894937
 21
416.2251390899
 31
0.0
  0
LINE
  5
1DA
330
1F
100
AcDbEntity
  8
0
  6
Continuous
 62
     7
370
    15
100
AcDbLine
 10
-218.998894937
 20
416.2251390899
 30
0.0
 11
-218.998894937
 21
416.5530540432
 31
0.0
  0
SPLINE
  5
1DB
330
1F
100
AcDbEntity
  8
0
  6
Continuous
 62
     7
370
    15
100
AcDbSpline
210
0.0
220
0.0
230
1.0
 70
     8
 71
     3
 72
    14
 73
    10
 74
     0
 42
0.00000001
 43
0.00000001
 40
0.0
 40
0.0
 40
0.0
 40
0.0
 40
0.25
 40
0.25
 40
0.5
 40
0.5
 40
0.75
 40
0.75
 40
1.0
 40
1.0
 40
1.0
 40
1.0
 10
-218.9988946787797
 20
418.2251346101015
 30
0.0
 10
-219.4570421423109
 20
418.2251323087171
 30
0.0
 10
-219.9150088890844
 20
418.1340349663732
 30
0.0
 10
-220.7615536968934
 20
417.7833808893213
 30
0.0
 10
-221.1497986829415
 20
417.523962120261
 30
0.0
 10
-221.797715412116
 20
416.8760421364376
 30
0.0
 10
-222.0571322309258
 20
416.4877958472719
 30
0.0
 10
-222.4077820555759
 20
415.641249278054
 30
0.0
 10
-222.4988770974421
 20
415.1832820736827
 30
0.0
 10
-222.4988770974421
 20
414.7251346101456
 30
0.0
  0
SPLINE
  5
1DC
330
1F
100
AcDbEntity
  8
0
  6
Continuous
 62
     7
370
    15
100
AcDbSpline
210
0.0
220
0.0
230
1.0
 70
     8
 71
     3
 72
    11
 73
     7
 74
     0
 42
0.00000001
 43
0.00000001
 40
0.0
 40
0.0
 40
0.0
 40
0.0
 40
0.249986189207318
 40
0.5000013107285836
 40
0.7500002008633232
 40
1.0
 40
1.0
 40
1.0
 40
1.0
 10
-218.9988949369909
 20
416.2251390899316
 30
0.0
 10
-219.1954375941399
 20
416.2025918641407
 30
0.0
 10
-219.5885456554296
 20
416.1574948030409
 30
0.0
 10
-220.0843842691381
 20
415.8106315968946
 30
0.0
 10
-220.4312305309217
 20
415.314788178956
 30
0.0
 10
-220.4763471012388
 20
414.9216820308849
 30
0.0
 10
-220.4989054274084
 20
414.7251285995142
 30
0.0
  0
LINE
  5
1DD
330
1F
100
AcDbEntity
  8
0
  6
Continuous
 62
     7
370
    15
100
AcDbLine
 10
-220.4989054274
 20
414.7251285995
 30
0.0
 11
-222.4988796782
 21
414.7251285995
 31
0.0
  0
LINE
  5
1DE
330
1F
100
AcDbEntity
  8
0
  6
Continuous
 62
     7
370
    15
100
AcDbLine
 10
673.501118176
 20
414.7251285995
 30
0.0
 11
675.5011222291
 21
414.7251285995
 31
0.0
  0
SPLINE
  5
1DF
330
1F
100
AcDbEntity
  8
0
  6
Continuous
 62
     7
370
    15
100
AcDbSpline
210
0.0
220
0.0
230
1.0
 70
     8
 71
     3
 72
    14
 73
    10
 74
     0
 42
0.00000001
 43
0.00000001
 40
0.0
 40
0.0
 40
0.0
 40
0.0
 40
0.25
 40
0.25
 40
0.5
 40
0.5
 40
0.75
 40
0.75
 40
1.0
 40
1.0
 40
1.0
 40
1.0
 10
675.5011229025578
 20
414.7251346101457
 30
0.0
 10
675.5011229025579
 20
415.183282343621
 30
0.0
 10
675.4100277520256
 20
415.6412498174012
 30
0.0
 10
675.0593775249037
 20
416.4877968042682
 30
0.0
 10
674.799960412771
 20
416.8760432407279
 30
0.0
 10
674.1520430020212
 20
417.5239633064781
 30
0.0
 10
673.7637976285877
 20
417.7833820095403
 30
0.0
 10
672.9172520786
 20
418.1340357055858
 30
0.0
 10
672.4592849781077
 20
418.2251327327475
 30
0.0
 10
672.0011372446362
 20
418.2251346101162
 30
0.0
  0
SPLINE
  5
1E0
330
1F
100
AcDbEntity
  8
0
  6
Continuous
 62
     7
370
    15
100
AcDbSpline
210
0.0
220
0.0
230
1.0
 70
     8
 71
     3
 72
    14
 73
    10
 74
     0
 42
0.00000001
 43
0.00000001
 40
0.0
 40
0.0
 40
0.0
 40
0.0
 40
0.25
 40
0.25
 40
0.5
 40
0.5
 40
0.75
 40
0.75
 40
1.0
 40
1.0
 40
1.0
 40
1.0
 10
673.5011229025578
 20
414.7251346101457
 30
0.0
 10
673.5011229025578
 20
414.921482998881
 30
0.0
 10
673.4620823813542
 20
415.1177541347162
 30
0.0
 10
673.3118046666578
 20
415.4805589961796
 30
0.0
 10
673.2006265996461
 20
415.6469499769251
 30
0.0
 10
672.922949325019
 20
415.9246298108912
 30
0.0
 10
672.756559368999
 20
416.0358094115094
 30
0.0
 10
672.3937558926477
 20
416.1860904701401
 30
0.0
 10
672.1974851166538
 20
416.225132800356
 30
0.0
 10
672.0011367279268
 20
416.2251346100819
 30
0.0
  0
LINE
  5
1E1
330
1F
100
AcDbEntity
  8
0
  6
Continuous
 62
     7
370
    15
100
AcDbLine
 10
675.5011222291
 20
-155.2458963906
 30
0.0
 11
673.501118176
 21
-155.2458963906
 31
0.0
  0
LINE
  5
1E2
330
1F
100
AcDbEntity
  8
0
  6
Continuous
 62
     7
370
    15
100
AcDbLine
 10
673.501118176
 20
414.7251285995
 30
0.0
 11
673.501118176
 21
-155.2458963906
 31
0.0
  0
LINE
  5
1E3
330
1F
100
AcDbEntity
  8
0
  6
Continuous
 62
     7
370
    15
100
AcDbLine
 10
675.5011222291
 20
414.7251285995
 30
0.0
 11
675.5011222291
 21
-155.2458963906
 31
0.0
  0
LINE
  5
1E4
330
1F
100
AcDbEntity
  8
0
  6
Continuous
 62
     7
370
    15
100
AcDbLine
 10
-222.4988796782
 20
-155.2458963906
 30
0.0
 11
-220.4989054274
 21
-155.2458963906
 31
0.0
  0
LINE
  5
1E5
330
1F
100
AcDbEntity
  8
0
  6
Continuous
 62
     7
370
    15
100
AcDbLine
 10
-222.4988796782
 20
-155.2458963906
 30
0.0
 11
-222.4988796782
 21
414.7251285995
 31
0.0
  0
LINE
  5
1E6
330
1F
100
AcDbEntity
  8
0
  6
Continuous
 62
     7
370
    15
100
AcDbLine
 10
-220.4989054274
 20
-155.2458963906
 30
0.0
 11
-220.4989054274
 21
414.7251285995
 31
0.0
  0
LINE
  5
1E7
330
1F
100
AcDbEntity
  8
0
  6
Continuous
 62
     7
370
    15
100
AcDbLine
 10
-222.4988796782
 20
-161.8209145581
 30
0.0
 11
-220.4989054274
 21
-161.8209145581
 31
0.0
  0
LINE
  5
1E8
330
1F
100
AcDbEntity
  8
0
  6
Continuous
 62
     7
370
    15
100
AcDbLine
 10
-222.4988796782
 20
-161.8209145581
 30
0.0
 11
-222.4988796782
 21
-155.2458963906
 31
0.0
  0
LINE
  5
1E9
330
1F
100
AcDbEntity
  8
0
  6
Continuous
 62
     7
370
    15
100
AcDbLine
 10
-220.4989054274
 20
-161.8209145581
 30
0.0
 11
-220.4989054274
 21
-155.2458963906
 31
0.0
  0
LINE
  5
1EA
330
1F
100
AcDbEntity
  8
0
  6
Continuous
 62
     7
370
    15
100
AcDbLine
 10
675.5011222291
 20
-161.8209145581
 30
0.0
 11
673.501118176
 21
-161.8209145581
 31
0.0
  0
LINE
  5
1EB
330
1F
100
AcDbEntity
  8
0
  6
Continuous
 62
     7
370
    15
100
AcDbLine
 10
673.501118176
 20
-155.2458963906
 30
0.0
 11
673.501118176
 21
-161.8209145581
 31
0.0
  0
LINE
  5
1EC
330
1F
100
AcDbEntity
  8
0
  6
Continuous
 62
     7
370
    15
100
AcDbLine
 10
675.5011222291
 20
-155.2458963906
 30
0.0
 11
675.5011222291
 21
-161.8209145581
 31
0.0
  0
LINE
  5
1ED
330
1F
100
AcDbEntity
  8
0
  6
Continuous
 62
     7
370
    15
100
AcDbLine
 10
-222.4988796782
 20
-168.7625608956
 30
0.0
 11
-220.4989054274
 21
-168.7625608956
 31
0.0
  0
LINE
  5
1EE
330
1F
100
AcDbEntity
  8
0
  6
Continuous
 62
     7
370
    15
100
AcDbLine
 10
-222.4988796782
 20
-168.7625608956
 30
0.0
 11
-222.4988796782
 21
-161.8209145581
 31
0.0
  0
LINE
  5
1EF
330
1F
100
AcDbEntity
  8
0
  6
Continuous
 62
     7
370
    15
100
AcDbLine
 10
-220.4989054274
 20
-168.7625608956
 30
0.0
 11
-220.4989054274
 21
-161.8209145581
 31
0.0
  0
LINE
  5
1F0
330
1F
100
AcDbEntity
  8
0
  6
Continuous
 62
     7
370
    15
100
AcDbLine
 10
675.5011222291
 20
-168.7625608956
 30
0.0
 11
673.501118176
 21
-168.7625608956
 31
0.0
  0
LINE
  5
1F1
330
1F
100
AcDbEntity
  8
0
  6
Continuous
 62
     7
370
    15
100
AcDbLine
 10
673.501118176
 20
-161.8209145581
 30
0.0
 11
673.501118176
 21
-168.7625608956
 31
0.0
  0
LINE
  5
1F2
330
1F
100
AcDbEntity
  8
0
  6
Continuous
 62
     7
370
    15
100
AcDbLine
 10
675.5011222291
 20
-161.8209145581
 30
0.0
 11
675.5011222291
 21
-168.7625608956
 31
0.0
  0
LINE
  5
1F3
330
1F
100
AcDbEntity
  8
0
  6
Continuous
 62
     7
370
    15
100
AcDbLine
 10
675.5011222291
 20
-169.7748563801
 30
0.0
 11
673.501118176
 21
-169.7748563801
 31
0.0
  0
LINE
  5
1F4
330
1F
100
AcDbEntity
  8
0
  6
Continuous
 62
     7
370
    15
100
AcDbLine
 10
673.501118176
 20
-168.7625608956
 30
0.0
 11
673.501118176
 21
-169.4868467366
 31
0.0
  0
LINE
  5
1F5
330
1F
100
AcDbEntity
  8
0
  6
Continuous
 62
     7
370
    15
100
AcDbLine
 10
675.5011222291
 20
-168.7625608956
 30
0.0
 11
675.5011222291
 21
-169.7748563801
 31
0.0
  0
LINE
  5
1F6
330
1F
100
AcDbEntity
  8
0
  6
Continuous
 62
     7
370
    15
100
AcDbLine
 10
-222.4988796782
 20
-169.7748563801
 30
0.0
 11
-220.4989054274
 21
-169.7748563801
 31
0.0
  0
LINE
  5
1F7
330
1F
100
AcDbEntity
  8
0
  6
Continuous
 62
     7
370
    15
100
AcDbLine
 10
-222.4988796782
 20
-169.7748563801
 30
0.0
 11
-222.4988796782
 21
-168.7625608956
 31
0.0
  0
LINE
  5
1F8
330
1F
100
AcDbEntity
  8
0
  6
Continuous
 62
     7
370
    15
100
AcDbLine
 10
-220.4989054274
 20
-169.4868467366
 30
0.0
 11
-220.4989054274
 21
-168.7625608956
 31
0.0
  0
LINE
  5
1F9
330
1F
100
AcDbEntity
  8
0
  6
Continuous
 62
     7
370
    15
100
AcDbLine
 10
651.0011098314
 20
497.1751310314
 30
0.0
 11
629.0011248518
 21
497.1751310314
 31
0.0
  0
LINE
  5
1FA
330
1F
100
AcDbEntity
  8
0
  6
Continuous
 62
     7
370
    15
100
AcDbLine
 10
673.501118176
 20
-169.7748563801
 30
0.0
 11
672.5011310506
 21
-169.7748563801
 31
0.0
  0
LINE
  5
1FB
330
1F
100
AcDbEntity
  8
0
  6
Continuous
 62
     7
370
    15
100
AcDbLine
 10
-219.4988586974
 20
-169.7748563801
 30
0.0
 11
-220.4989054274
 21
-169.7748563801
 31
0.0
  0
LINE
  5
1FC
330
1F
100
AcDbEntity
  8
0
  6
Continuous
 62
     7
370
    15
100
AcDbLine
 10
673.501118176
 20
-168.5748658692
 30
0.0
 11
672.5011310506
 21
-168.5748658692
 31
0.0
  0
LINE
  5
1FD
330
1F
100
AcDbEntity
  8
0
  6
Continuous
 62
     7
370
    15
100
AcDbLine
 10
-219.4988586974
 20
-168.5748658692
 30
0.0
 11
-220.4989054274
 21
-168.5748658692
 31
0.0
  0
LINE
  5
1FE
330
1F
100
AcDbEntity
  8
0
  6
Continuous
 62
     7
370
    15
100
AcDbLine
 10
673.501118176
 20
-169.7748563801
 30
0.0
 11
673.501118176
 21
-169.4868467366
 31
0.0
  0
LINE
  5
1FF
330
1F
100
AcDbEntity
  8
0
  6
Continuous
 62
     7
370
    15
100
AcDbLine
 10
-220.4989054274
 20
-169.7748563801
 30
0.0
 11
-220.4989054274
 21
-169.4868467366
 31
0.0
  0
LINE
  5
200
330
1F
100
AcDbEntity
  8
0
  6
Continuous
 62
     7
370
    15
100
AcDbLine
 10
673.501118176
 20
-70.8324275528
 30
0.0
 11
-220.4989054274
 21
-70.8324275528
 31
0.0
  0
LINE
  5
201
330
1F
100
AcDbEntity
  8
0
  6
Continuous
 62
     7
370
    15
100
AcDbLine
 10
673.501118176
 20
-102.6936433827
 30
0.0
 11
-220.4989054274
 21
-102.6936433827
 31
0.0
  0
LINE
  5
202
330
1F
100
AcDbEntity
  8
0
  6
Continuous
 62
     7
370
    15
100
AcDbLine
 10
-220.4989054274
 20
-102.8567961966
 30
0.0
 11
673.501118176
 21
-102.8567961966
 31
0.0
  0
LINE
  5
203
330
1F
100
AcDbEntity
  8
0
  6
Continuous
 62
     7
370
    15
100
AcDbLine
 10
-139.7988655638
 20
-105.6936345612
 30
0.0
 11
-142.3365929198
 21
-105.6936345612
 31
0.0
  0
ARC
  5
204
330
1F
100
AcDbEntity
  8
0
  6
Continuous
 62
     7
370
    15
100
AcDbCircle
 10
-139.7988770974
 20
-121.6936369781
 30
0.0
 40
16.19999999999999
100
AcDbArc
 50
99.0124514993
 51
180.0
  0
LINE
  5
205
330
1F
100
AcDbEntity
  8
0
  6
Continuous
 62
     7
370
    15
100
AcDbLine
 10
-155.998871572
 20
-121.6936371838
 30
0.0
 11
-155.998871572
 21
-139.6936438595
 31
0.0
  0
ARC
  5
206
330
1F
100
AcDbEntity
  8
0
  6
Continuous
 62
     7
370
    15
100
AcDbCircle
 10
-139.7988770974
 20
-139.6936369781
 30
0.0
 40
16.20000000000002
100
AcDbArc
 50
180.0
 51
260.9875485007
  0
LINE
  5
207
330
1F
100
AcDbEntity
  8
0
  6
Continuous
 62
     7
370
    15
100
AcDbLine
 10
-139.7988655638
 20
-155.6936464821
 30
0.0
 11
-142.3365929198
 21
-155.6936464821
 31
0.0
  0
LINE
  5
208
330
1F
100
AcDbEntity
  8
0
  6
Continuous
 62
     7
370
    15
100
AcDbLine
 10
-81.7988672328
 20
-155.6936464821
 30
0.0
 11
-139.7988655638
 21
-155.6936464821
 31
0.0
  0
LINE
  5
209
330
1F
100
AcDbEntity
  8
0
  6
Continuous
 62
     7
370
    15
100
AcDbLine
 10
-79.2611696791
 20
-155.6936464821
 30
0.0
 11
-81.7988672328
 21
-155.6936464821
 31
0.0
  0
ARC
  5
20A
330
1F
100
AcDbEntity
  8
0
  6
Continuous
 62
     7
370
    15
100
AcDbCircle
 10
-81.7988770974
 20
-139.6936369781
 30
0.0
 40
16.20000000000002
100
AcDbArc
 50
279.0124514993
 51
0.0
  0
LINE
  5
20B
330
1F
100
AcDbEntity
  8
0
  6
Continuous
 62
     7
370
    15
100
AcDbLine
 10
-65.5988910269
 20
-139.6936438595
 30
0.0
 11
-65.5988910269
 21
-121.6936371838
 31
0.0
  0
ARC
  5
20C
330
1F
100
AcDbEntity
  8
0
  6
Continuous
 62
     7
370
    15
100
AcDbCircle
 10
-81.7988770974
 20
-121.6936369781
 30
0.0
 40
16.19999999999999
100
AcDbArc
 50
0.0
 51
80.9875485007
  0
LINE
  5
20D
330
1F
100
AcDbEntity
  8
0
  6
Continuous
 62
     7
370
    15
100
AcDbLine
 10
-79.2611696791
 20
-105.6936345612
 30
0.0
 11
-81.7988672328
 21
-105.6936345612
 31
0.0
  0
LINE
  5
20E
330
1F
100
AcDbEntity
  8
0
  6
Continuous
 62
     7
370
    15
100
AcDbLine
 10
-81.7988672328
 20
-105.6936345612
 30
0.0
 11
-139.7988655638
 21
-105.6936345612
 31
0.0
  0
LINE
  5
20F
330
1F
100
AcDbEntity
  8
0
  6
Continuous
 62
     7
370
    15
100
AcDbLine
 10
-139.7988655638
 20
-149.6936343228
 30
0.0
 11
-141.3653650355
 21
-149.5701931034
 31
0.0
  0
LINE
  5
210
330
1F
100
AcDbEntity
  8
0
  6
Continuous
 62
     7
370
    15
100
AcDbLine
 10
-139.7988655638
 20
-155.6936464821
 30
0.0
 11
-139.7988655638
 21
-149.6936343228
 31
0.0
  0
LWPOLYLINE
  5
211
330
1F
100
AcDbEntity
  8
0
  6
Continuous
 62
     7
370
    15
100
AcDbPolyline
 90
        9
 70
   128
 43
0.0
 10
-142.3365929198
 20
-155.6936464821
 10
-142.147109754
 20
-154.4990203892
 10
-141.9649281573
 20
-153.3502898728
 10
-141.7970218729
 20
-152.2916219746
 10
-141.6498282027
 20
-151.3636968647
 10
-141.52903939
 20
-150.6021581208
 10
-141.4393045973
 20
-150.0363014256
 10
-141.3840212893
 20
-149.6878526722
 10
-141.3653650355
 20
-149.5701931034
  0
LINE
  5
212
330
1F
100
AcDbEntity
  8
0
  6
Continuous
 62
     7
370
    15
100
AcDbLine
 10
-81.7988672328
 20
-149.6936343228
 30
0.0
 11
-139.7988655638
 21
-149.6936343228
 31
0.0
  0
LINE
  5
213
330
1F
100
AcDbEntity
  8
0
  6
Continuous
 62
     7
370
    15
100
AcDbLine
 10
-81.7988672328
 20
-149.6936343228
 30
0.0
 11
-81.7988672328
 21
-155.6936464821
 31
0.0
  0
LINE
  5
214
330
1F
100
AcDbEntity
  8
0
  6
Continuous
 62
     7
370
    15
100
AcDbLine
 10
-139.7988655638
 20
-111.6936318194
 30
0.0
 11
-81.7988672328
 21
-111.6936318194
 31
0.0
  0
LINE
  5
215
330
1F
100
AcDbEntity
  8
0
  6
Continuous
 62
     7
370
    15
100
AcDbLine
 10
-139.7988655638
 20
-105.6936345612
 30
0.0
 11
-139.7988655638
 21
-111.6936318194
 31
0.0
  0
LINE
  5
216
330
1F
100
AcDbEntity
  8
0
  6
Continuous
 62
     7
370
    15
100
AcDbLine
 10
-81.7988672328
 20
-111.6936318194
 30
0.0
 11
-81.7988672328
 21
-105.6936345612
 31
0.0
  0
ARC
  5
217
330
1F
100
AcDbEntity
  8
0
  6
Continuous
 62
     7
370
    15
100
AcDbCircle
 10
-81.7988770974
 20
-121.6936369781
 30
0.0
 40
10.00000000000001
100
AcDbArc
 50
0.0
 51
80.9875485007
  0
LWPOLYLINE
  5
218
330
1F
100
AcDbEntity
  8
0
  6
Continuous
 62
     7
370
    15
100
AcDbPolyline
 90
        9
 70
   128
 43
0.0
 10
-80.2323975634
 20
-111.8170879399
 10
-80.2137115073
 20
-111.6994283711
 10
-80.1584580016
 20
-111.3509796177
 10
-80.0686934065
 20
-110.7851080214
 10
-79.9479343962
 20
-110.0235692774
 10
-79.8007407259
 20
-109.0956441676
 10
-79.6328344416
 20
-108.0369762694
 10
-79.4506528449
 20
-106.8882606541
 10
-79.2611696791
 20
-105.6936345612
  0
LINE
  5
219
330
1F
100
AcDbEntity
  8
0
  6
Continuous
 62
     7
370
    15
100
AcDbLine
 10
-71.7988767695
 20
-121.6936371838
 30
0.0
 11
-65.5988910269
 21
-121.6936371838
 31
0.0
  0
ARC
  5
21A
330
1F
100
AcDbEntity
  8
0
  6
Continuous
 62
     7
370
    15
100
AcDbCircle
 10
-139.7988770974
 20
-121.6936369781
 30
0.0
 40
10.0
100
AcDbArc
 50
99.0124514993
 51
180.0
  0
LINE
  5
21B
330
1F
100
AcDbEntity
  8
0
  6
Continuous
 62
     7
370
    15
100
AcDbLine
 10
-155.998871572
 20
-121.6936371838
 30
0.0
 11
-149.7988858294
 21
-121.6936371838
 31
0.0
  0
LWPOLYLINE
  5
21C
330
1F
100
AcDbEntity
  8
0
  6
Continuous
 62
     7
370
    15
100
AcDbPolyline
 90
        9
 70
   128
 43
0.0
 10
-142.3365929198
 20
-105.6936345612
 10
-142.147109754
 20
-106.8882606541
 10
-141.9649281573
 20
-108.0369762694
 10
-141.7970218729
 20
-109.0956441676
 10
-141.6498282027
 20
-110.0235692774
 10
-141.52903939
 20
-110.7851080214
 10
-141.4393045973
 20
-111.3509796177
 10
-141.3840212893
 20
-111.6994283711
 10
-141.3653650355
 20
-111.8170879399
  0
SPLINE
  5
21D
330
1F
100
AcDbEntity
  8
0
  6
Continuous
 62
     7
370
    15
100
AcDbSpline
210
0.0
220
0.0
230
1.0
 70
     8
 71
     3
 72
     8
 73
     4
 74
     0
 42
0.00000001
 43
0.00000001
 40
0.0
 40
0.0
 40
0.0
 40
0.0
 40
1.0
 40
1.0
 40
1.0
 40
1.0
 10
-81.79887709744094
 20
-111.6936369780955
 30
0.0
 10
-81.27347193748624
 20
-111.6936369780955
 30
0.0
 10
-80.75131659997986
 20
-111.7347882728483
 30
0.0
 10
-80.23239787401276
 20
-111.8170918917523
 30
0.0
  0
LINE
  5
21E
330
1F
100
AcDbEntity
  8
0
  6
Continuous
 62
     7
370
    15
100
AcDbLine
 10
-141.3653650355
 20
-111.8170879399
 30
0.0
 11
-139.7988655638
 21
-111.6936318194
 31
0.0
  0
LINE
  5
21F
330
1F
100
AcDbEntity
  8
0
  6
Continuous
 62
     7
370
    15
100
AcDbLine
 10
-71.7988767695
 20
-121.6936371838
 30
0.0
 11
-71.7988767695
 21
-139.6936438595
 31
0.0
  0
LINE
  5
220
330
1F
100
AcDbEntity
  8
0
  6
Continuous
 62
     7
370
    15
100
AcDbLine
 10
-71.7988767695
 20
-139.6936438595
 30
0.0
 11
-65.5988910269
 21
-139.6936438595
 31
0.0
  0
LINE
  5
221
330
1F
100
AcDbEntity
  8
0
  6
Continuous
 62
     7
370
    15
100
AcDbLine
 10
-149.7988858294
 20
-139.6936438595
 30
0.0
 11
-149.7988858294
 21
-121.6936371838
 31
0.0
  0
LINE
  5
222
330
1F
100
AcDbEntity
  8
0
  6
Continuous
 62
     7
370
    15
100
AcDbLine
 10
-155.998871572
 20
-139.6936438595
 30
0.0
 11
-149.7988858294
 21
-139.6936438595
 31
0.0
  0
ARC
  5
223
330
1F
100
AcDbEntity
  8
0
  6
Continuous
 62
     7
370
    15
100
AcDbCircle
 10
-139.7988770974
 20
-139.6936369781
 30
0.0
 40
10.0
100
AcDbArc
 50
180.0
 51
260.9875485007
  0
ARC
  5
224
330
1F
100
AcDbEntity
  8
0
  6
Continuous
 62
     7
370
    15
100
AcDbCircle
 10
-81.7988770974
 20
-139.6936369781
 30
0.0
 40
10.00000000000001
100
AcDbArc
 50
279.0124514993
 51
0.0
  0
LWPOLYLINE
  5
225
330
1F
100
AcDbEntity
  8
0
  6
Continuous
 62
     7
370
    15
100
AcDbPolyline
 90
        9
 70
   128
 43
0.0
 10
-80.2323975634
 20
-149.5701931034
 10
-80.2137115073
 20
-149.6878526722
 10
-80.1584580016
 20
-150.0363014256
 10
-80.0686934065
 20
-150.6021581208
 10
-79.9479343962
 20
-151.3636968647
 10
-79.8007407259
 20
-152.2916219746
 10
-79.6328344416
 20
-153.3502898728
 10
-79.4506528449
 20
-154.4990203892
 10
-79.2611696791
 20
-155.6936464821
  0
LINE
  5
226
330
1F
100
AcDbEntity
  8
0
  6
Continuous
 62
     7
370
    15
100
AcDbLine
 10
-80.2323975634
 20
-149.5701931034
 30
0.0
 11
-81.7988672328
 21
-149.6936343228
 31
0.0
  0
SPLINE
  5
227
330
1F
100
AcDbEntity
  8
0
  6
Continuous
 62
     7
370
    15
100
AcDbSpline
210
0.0
220
0.0
230
1.0
 70
     8
 71
     3
 72
    10
 73
     6
 74
     0
 42
0.00000001
 43
0.00000001
 40
0.0
 40
0.0
 40
0.0
 40
0.0
 40
0.5
 40
0.5
 40
1.0
 40
1.0
 40
1.0
 40
1.0
 10
566.0305419645119
 20
-308.4248653898555
 30
0.0
 10
566.349883097908
 20
-308.2156182510587
 30
0.0
 10
566.6790375456387
 20
-308.0582354630259
 30
0.0
 10
567.3452179326157
 20
-307.8464974350257
 30
0.0
 10
567.6680253666757
 20
-307.7962560662097
 30
0.0
 10
567.9805626307536
 20
-307.7962560662095
 30
0.0
  0
LINE
  5
228
330
1F
100
AcDbEntity
  8
0
  6
Continuous
 62
     7
370
    15
100
AcDbLine
 10
534.3717030216
 20
-308.4248564755
 30
0.0
 11
566.0305461812
 21
-308.4248564755
 31
0.0
  0
SPLINE
  5
229
330
1F
100
AcDbEntity
  8
0
  6
Continuous
 62
     7
370
    15
100
AcDbSpline
210
0.0
220
0.0
230
1.0
 70
     8
 71
     3
 72
    10
 73
     6
 74
     0
 42
0.00000001
 43
0.00000001
 40
0.0
 40
0.0
 40
0.0
 40
0.0
 40
0.5
 40
0.5
 40
1.0
 40
1.0
 40
1.0
 40
1.0
 10
532.4216831743652
 20
-307.7962560662097
 30
0.0
 10
532.7342204384433
 20
-307.7962560662097
 30
0.0
 10
533.0570278725033
 20
-307.8464974350257
 30
0.0
 10
533.7232082594803
 20
-308.0582354630259
 30
0.0
 10
534.052362707211
 20
-308.2156182510587
 30
0.0
 10
534.371703840607
 20
-308.4248653898555
 30
0.0
  0
SPLINE
  5
22A
330
1F
100
AcDbEntity
  8
0
  6
Continuous
 62
     7
370
    15
100
AcDbSpline
210
0.0
220
0.0
230
1.0
 70
     8
 71
     3
 72
    10
 73
     6
 74
     0
 42
0.00000001
 43
0.00000001
 40
0.0
 40
0.0
 40
0.0
 40
0.0
 40
0.211705790101822
 40
0.4881687774518148
 40
1.0
 40
1.0
 40
1.0
 40
1.0
 10
566.0614809918878
 20
-308.4379098926886
 30
0.0
 10
566.0602282677605
 20
-308.4357460341695
 30
0.0
 10
566.0573396325206
 20
-308.4307564296467
 30
0.0
 10
566.0465868204471
 20
-308.4256709765887
 30
0.0
 10
566.0368610334676
 20
-308.4251771269265
 30
0.0
 10
566.0305461812494
 20
-308.4248564754828
 30
0.0
  0
SPLINE
  5
22B
330
1F
100
AcDbEntity
  8
0
  6
Continuous
 62
     7
370
    15
100
AcDbSpline
210
0.0
220
0.0
230
1.0
 70
     8
 71
     3
 72
    10
 73
     6
 74
     0
 42
0.00000001
 43
0.00000001
 40
0.0
 40
0.0
 40
0.0
 40
0.0
 40
0.3554481854274694
 40
0.7142337501045848
 40
1.0
 40
1.0
 40
1.0
 40
1.0
 10
563.8240418363092
 20
-311.7654285942419
 30
0.0
 10
563.9474558746371
 20
-311.309939590363
 30
0.0
 10
564.1954427121685
 20
-310.3946848986542
 30
0.0
 10
565.033375485008
 20
-309.2042162241104
 30
0.0
 10
565.745677326003
 20
-308.673296579205
 30
0.0
 10
566.0614809918878
 20
-308.4379098926886
 30
0.0
  0
SPLINE
  5
22C
330
1F
100
AcDbEntity
  8
0
  6
Continuous
 62
     7
370
    15
100
AcDbSpline
210
0.0
220
0.0
230
1.0
 70
     8
 71
     3
 72
    10
 73
     6
 74
     0
 42
0.00000001
 43
0.00000001
 40
0.0
 40
0.0
 40
0.0
 40
0.0
 40
0.5
 40
0.5
 40
1.0
 40
1.0
 40
1.0
 40
1.0
 10
561.3503213593044
 20
-327.8352300671843
 30
0.0
 10
561.6934306343516
 20
-325.1696723704092
 30
0.0
 10
562.0722981318036
 20
-322.495087414123
 30
0.0
 10
562.8977693807403
 20
-317.1366224155243
 30
0.0
 10
563.3444197702408
 20
-314.4525704341102
 30
0.0
 10
563.8240426804871
 20
-311.7654204414353
 30
0.0
  0
LINE
  5
22D
330
1F
100
AcDbEntity
  8
0
  6
Continuous
 62
     7
370
    15
100
AcDbLine
 10
551.7011276412
 20
-327.8352282559
 30
0.0
 11
561.3503298688
 21
-327.8352282559
 31
0.0
  0
LINE
  5
22E
330
1F
100
AcDbEntity
  8
0
  6
Continuous
 62
     7
370
    15
100
AcDbLine
 10
551.7011276412
 20
-327.8352282559
 30
0.0
 11
551.7011276412
 21
-326.4873586212
 31
0.0
  0
SPLINE
  5
22F
330
1F
100
AcDbEntity
  8
0
  6
Continuous
 62
     7
370
    15
100
AcDbSpline
210
0.0
220
0.0
230
1.0
 70
     8
 71
     3
 72
     8
 73
     4
 74
     0
 42
0.00000001
 43
0.00000001
 40
0.0
 40
0.0
 40
0.0
 40
0.0
 40
1.0
 40
1.0
 40
1.0
 40
1.0
 10
550.4662463980583
 20
-309.0936280077132
 30
0.0
 10
550.8778783169132
 20
-314.8968811428674
 30
0.0
 10
551.2895063034964
 20
-320.6968613011018
 30
0.0
 10
551.7011229025594
 20
-326.487363200623
 30
0.0
  0
SPLINE
  5
230
330
1F
100
AcDbEntity
  8
0
  6
Continuous
 62
     7
370
    15
100
AcDbSpline
210
0.0
220
0.0
230
1.0
 70
     8
 71
     3
 72
    10
 73
     6
 74
     0
 42
0.00000001
 43
0.00000001
 40
0.0
 40
0.0
 40
0.0
 40
0.0
 40
0.5
 40
0.5
 40
1.0
 40
1.0
 40
1.0
 40
1.0
 10
550.2167674934902
 20
-308.8808245239196
 30
0.0
 10
550.2800798231091
 20
-308.8808114238658
 30
0.0
 10
550.3419605150082
 20
-308.9032451421793
 30
0.0
 10
550.4334281661904
 20
-308.9811668503542
 30
0.0
 10
550.4621607075766
 20
-309.0360272848072
 30
0.0
 10
550.4662463980583
 20
-309.0936280077132
 30
0.0
  0
ELLIPSE
  5
231
330
1F
100
AcDbEntity
  8
0
  6
Continuous
 62
     7
370
    15
100
AcDbEllipse
 10
550.2011229026
 20
-292.9150983085
 30
0.0
 11
34.74434239688469
 21
-1.136868377216160E-13
 31
0.0
210
0.0
220
0.0
230
1.0
 40
0.4595202192
 41
4.711938703004839
 42
4.712839257764559
  0
SPLINE
  5
232
330
1F
100
AcDbEntity
  8
0
  6
Continuous
 62
     7
370
    15
100
AcDbSpline
210
0.0
220
0.0
230
1.0
 70
     8
 71
     3
 72
    10
 73
     6
 74
     0
 42
0.00000001
 43
0.00000001
 40
0.0
 40
0.0
 40
0.0
 40
0.0
 40
0.5
 40
0.5
 40
1.0
 40
1.0
 40
1.0
 40
1.0
 10
549.9359994070608
 20
-309.0936280077132
 30
0.0
 10
549.9400850978695
 20
-309.0360272801952
 30
0.0
 10
549.9687398575335
 20
-308.9812767558245
 30
0.0
 10
550.0601597207558
 20
-308.9033085690828
 30
0.0
 10
550.1221659846893
 20
-308.8808114238664
 30
0.0
 10
550.1854783116287
 20
-308.8808245239196
 30
0.0
  0
SPLINE
  5
233
330
1F
100
AcDbEntity
  8
0
  6
Continuous
 62
     7
370
    15
100
AcDbSpline
210
0.0
220
0.0
230
1.0
 70
     8
 71
     3
 72
     8
 73
     4
 74
     0
 42
0.00000001
 43
0.00000001
 40
0.0
 40
0.0
 40
0.0
 40
0.0
 40
1.0
 40
1.0
 40
1.0
 40
1.0
 10
549.9359994070608
 20
-309.0936280077132
 30
0.0
 10
549.5243674882057
 20
-314.8968811428674
 30
0.0
 10
549.1127395016226
 20
-320.6968613011019
 30
0.0
 10
548.7011229025594
 20
-326.487363200623
 30
0.0
  0
LINE
  5
234
330
1F
100
AcDbEntity
  8
0
  6
Continuous
 62
     7
370
    15
100
AcDbLine
 10
548.7011215616
 20
-326.4873586212
 30
0.0
 11
548.7011215616
 21
-327.8352282559
 31
0.0
  0
LINE
  5
235
330
1F
100
AcDbEntity
  8
0
  6
Continuous
 62
     7
370
    15
100
AcDbLine
 10
539.051919334
 20
-327.8352282559
 30
0.0
 11
548.7011215616
 21
-327.8352282559
 31
0.0
  0
SPLINE
  5
236
330
1F
100
AcDbEntity
  8
0
  6
Continuous
 62
     7
370
    15
100
AcDbSpline
210
0.0
220
0.0
230
1.0
 70
     8
 71
     3
 72
    10
 73
     6
 74
     0
 42
0.00000001
 43
0.00000001
 40
0.0
 40
0.0
 40
0.0
 40
0.0
 40
0.5
 40
0.5
 40
1.0
 40
1.0
 40
1.0
 40
1.0
 10
536.5782031246318
 20
-311.7654204414352
 30
0.0
 10
537.057826034878
 20
-314.4525704341101
 30
0.0
 10
537.5044764243786
 20
-317.1366224155244
 30
0.0
 10
538.3299476733154
 20
-322.4950874141229
 30
0.0
 10
538.7088151707673
 20
-325.1696723704092
 30
0.0
 10
539.0519244458145
 20
-327.8352300671843
 30
0.0
  0
SPLINE
  5
237
330
1F
100
AcDbEntity
  8
0
  6
Continuous
 62
     7
370
    15
100
AcDbSpline
210
0.0
220
0.0
230
1.0
 70
     8
 71
     3
 72
    10
 73
     6
 74
     0
 42
0.00000001
 43
0.00000001
 40
0.0
 40
0.0
 40
0.0
 40
0.0
 40
0.2857665611447707
 40
0.6445525166020284
 40
1.0
 40
1.0
 40
1.0
 40
1.0
 10
534.3407831120966
 20
-308.4379098926886
 30
0.0
 10
534.6565865528605
 20
-308.6732966471695
 30
0.0
 10
535.3688878860906
 20
-309.2042164453696
 30
0.0
 10
536.2068242890527
 20
-310.3946824518154
 30
0.0
 10
536.4547993693122
 20
-311.30993924544
 30
0.0
 10
536.5782073665141
 20
-311.7654285942421
 30
0.0
  0
SPLINE
  5
238
330
1F
100
AcDbEntity
  8
0
  6
Continuous
 62
     7
370
    15
100
AcDbSpline
210
0.0
220
0.0
230
1.0
 70
     8
 71
     3
 72
    11
 73
     7
 74
     0
 42
0.00000001
 43
0.00000001
 40
0.0
 40
0.0
 40
0.0
 40
0.0
 40
0.3703807172285344
 40
0.7442234295111112
 40
0.9442985351830163
 40
1.0
 40
1.0
 40
1.0
 40
1.0
 10
534.3717030215738
 20
-308.4248564754828
 30
0.0
 10
534.3671177178431
 20
-308.4250283887875
 30
0.0
 10
534.3579042509724
 20
-308.4253738222922
 30
0.0
 10
534.3472935397538
 20
-308.4291243359182
 30
0.0
 10
534.3422655852339
 20
-308.4345250920735
 30
0.0
 10
534.3410482220432
 20
-308.4373045904489
 30
0.0
 10
534.3407831120966
 20
-308.4379098926886
 30
0.0
  0
SPLINE
  5
239
330
1F
100
AcDbEntity
  8
0
  6
Continuous
 62
     7
370
    15
100
AcDbSpline
210
0.0
220
0.0
230
1.0
 70
     8
 71
     3
 72
    10
 73
     6
 74
     0
 42
0.00000001
 43
0.00000001
 40
0.0
 40
0.0
 40
0.0
 40
0.0
 40
0.5
 40
0.5
 40
1.0
 40
1.0
 40
1.0
 40
1.0
 10
550.4662463980583
 20
-308.9867448932073
 30
0.0
 10
550.4621866957189
 20
-308.9294850929716
 30
0.0
 10
550.433531231803
 20
-308.874237125771
 30
0.0
 10
550.3419569024929
 20
-308.7959063334685
 30
0.0
 10
550.2796750847094
 20
-308.7733672786121
 30
0.0
 10
550.2167674934902
 20
-308.7733453487778
 30
0.0
  0
SPLINE
  5
23A
330
1F
100
AcDbEntity
  8
0
  6
Continuous
 62
     7
370
    15
100
AcDbSpline
210
0.0
220
0.0
230
1.0
 70
     8
 71
     3
 72
    12
 73
     8
 74
     0
 42
0.00000001
 43
0.00000001
 40
0.0
 40
0.0
 40
0.0
 40
0.0
 40
0.25
 40
0.25
 40
0.5
 40
0.5
 40
1.0
 40
1.0
 40
1.0
 40
1.0
 10
549.9359994070608
 20
-308.9867448932073
 30
0.0
 10
549.9380292251886
 20
-308.9581197671016
 30
0.0
 10
549.9462078047608
 20
-308.9299971132839
 30
0.0
 10
549.9729967826471
 20
-308.8782730538676
 30
0.0
 10
549.9916071809615
 20
-308.8546716482688
 30
0.0
 10
550.0602875477992
 20
-308.7959237592648
 30
0.0
 10
550.1225697257048
 20
-308.7733784493226
 30
0.0
 10
550.1854783116287
 20
-308.7733453487778
 30
0.0
  0
LINE
  5
23B
330
1F
100
AcDbEntity
  8
0
  6
Continuous
 62
     7
370
    15
100
AcDbLine
 10
550.2164504457
 20
-308.8877461468
 30
0.0
 11
550.1857987571
 21
-308.8877461468
 31
0.0
  0
SPLINE
  5
23C
330
1F
100
AcDbEntity
  8
0
  6
Continuous
 62
     7
370
    15
100
AcDbSpline
210
0.0
220
0.0
230
1.0
 70
     8
 71
     3
 72
    15
 73
    11
 74
     0
 42
0.00000001
 43
0.00000001
 40
0.0
 40
0.0
 40
0.0
 40
0.0
 40
0.0802876086965158
 40
0.2296492017212888
 40
0.4389302621181385
 40
0.6497313862765257
 40
0.8665079555198749
 40
0.9462815185307284
 40
0.9895193713094745
 40
0.9999999999999999
 40
0.9999999999999999
 40
0.9999999999999999
 40
0.9999999999999999
 10
551.7011276412485
 20
-326.3291380916937
 30
0.0
 10
551.6999272354612
 20
-326.3401423558541
 30
0.0
 10
551.6964936765938
 20
-326.371618202762
 30
0.0
 10
551.6437181018164
 20
-326.3517490569514
 30
0.0
 10
551.4965673088915
 20
-326.3094085013852
 30
0.0
 10
551.2444753634364
 20
-326.273200370496
 30
0.0
 10
550.9944491152928
 20
-326.2739707478665
 30
0.0
 10
550.8248366209704
 20
-326.3067666908833
 30
0.0
 10
550.75907781198
 20
-326.3303661218268
 30
0.0
 10
550.7378550713478
 20
-326.3469690542345
 30
0.0
 10
550.7337144542215
 20
-326.3502083336218
 30
0.0
  0
SPLINE
  5
23D
330
1F
100
AcDbEntity
  8
0
  6
Continuous
 62
     7
370
    15
100
AcDbSpline
210
0.0
220
0.0
230
1.0
 70
     8
 71
     3
 72
     9
 73
     5
 74
     0
 42
0.00000001
 43
0.00000001
 40
0.0
 40
0.0
 40
0.0
 40
0.0
 40
0.5599645641766536
 40
0.9999999999999999
 40
0.9999999999999999
 40
0.9999999999999999
 40
0.9999999999999999
 10
550.7337144542215
 20
-326.3502083336218
 30
0.0
 10
550.6272332757334
 20
-323.0909877063828
 30
0.0
 10
550.4370762813445
 20
-317.2705825669407
 30
0.0
 10
550.2838676656698
 20
-311.4493116373547
 30
0.0
 10
550.2164504456995
 20
-308.8877461468085
 30
0.0
  0
SPLINE
  5
23E
330
1F
100
AcDbEntity
  8
0
  6
Continuous
 62
     7
370
    15
100
AcDbSpline
210
0.0
220
0.0
230
1.0
 70
     8
 71
     3
 72
    14
 73
    10
 74
     0
 42
0.00000001
 43
0.00000001
 40
0.0
 40
0.0
 40
0.0
 40
0.0
 40
0.0449966258993985
 40
0.1924497318587972
 40
0.4101048788953516
 40
0.628110674589862
 40
0.8446499756659623
 40
0.959765316341378
 40
1.0
 40
1.0
 40
1.0
 40
1.0
 10
549.6685198474405
 20
-326.3502083336218
 30
0.0
 10
549.648581886506
 20
-326.3389256761604
 30
0.0
 10
549.5633075985131
 20
-326.2906699600997
 30
0.0
 10
549.3473439468066
 20
-326.2746765810523
 30
0.0
 10
549.07716108521
 20
-326.2789474847567
 30
0.0
 10
548.8415969330864
 20
-326.3248728675123
 30
0.0
 10
548.7290703415208
 20
-326.3650234684945
 30
0.0
 10
548.7025521639968
 20
-326.3608544802703
 30
0.0
 10
548.7014158577724
 20
-326.3356626245895
 30
0.0
 10
548.7011215615747
 20
-326.3291380916937
 30
0.0
  0
SPLINE
  5
23F
330
1F
100
AcDbEntity
  8
0
  6
Continuous
 62
     7
370
    15
100
AcDbSpline
210
0.0
220
0.0
230
1.0
 70
     8
 71
     3
 72
    10
 73
     6
 74
     0
 42
0.00000001
 43
0.00000001
 40
0.0
 40
0.0
 40
0.0
 40
0.0
 40
0.2799063222495685
 40
0.5601529458162061
 40
1.0
 40
1.0
 40
1.0
 40
1.0
 10
550.1857987571237
 20
-308.8877461468085
 30
0.0
 10
550.1081024446404
 20
-310.5165072217936
 30
0.0
 10
549.9526153589368
 20
-313.7760095683331
 30
0.0
 10
550.0138595522366
 20
-319.6010417419908
 30
0.0
 10
549.7994719277197
 20
-323.790938741826
 30
0.0
 10
549.6685198474405
 20
-326.3502083336218
 30
0.0
  0
SPLINE
  5
240
330
1F
100
AcDbEntity
  8
0
  6
Continuous
 62
     7
370
    15
100
AcDbSpline
210
0.0
220
0.0
230
1.0
 70
     8
 71
     3
 72
     9
 73
     5
 74
     0
 42
0.00000001
 43
0.00000001
 40
0.0
 40
0.0
 40
0.0
 40
0.0
 40
0.13738731689131
 40
0.9999999999999999
 40
0.9999999999999999
 40
0.9999999999999999
 40
0.9999999999999999
 10
550.7011256146906
 20
-326.3792357956274
 30
0.0
 10
550.7026155464598
 20
-326.3779044790697
 30
0.0
 10
550.7134603012958
 20
-326.3682142355455
 30
0.0
 10
550.7243343563849
 20
-326.3585472220612
 30
0.0
 10
550.7337144542216
 20
-326.3502083336219
 30
0.0
  0
LINE
  5
241
330
1F
100
AcDbEntity
  8
0
  6
Continuous
 62
     7
370
    15
100
AcDbLine
 10
549.7011235881
 20
-326.3792357956
 30
0.0
 11
550.7011256147
 21
-326.3792357956
 31
0.0
  0
SPLINE
  5
242
330
1F
100
AcDbEntity
  8
0
  6
Continuous
 62
     7
370
    15
100
AcDbSpline
210
0.0
220
0.0
230
1.0
 70
     8
 71
     3
 72
     9
 73
     5
 74
     0
 42
0.00000001
 43
0.00000001
 40
0.0
 40
0.0
 40
0.0
 40
0.0
 40
0.8626440920484959
 40
0.9999999999999999
 40
0.9999999999999999
 40
0.9999999999999999
 40
0.9999999999999999
 10
549.6685198474405
 20
-326.3502083336218
 30
0.0
 10
549.6779059852482
 20
-326.3585462662109
 30
0.0
 10
549.6887866461074
 20
-326.3682118196712
 30
0.0
 10
549.6996336834674
 20
-326.3779044549133
 30
0.0
 10
549.7011235881326
 20
-326.3792357956274
 30
0.0
  0
SPLINE
  5
243
330
1F
100
AcDbEntity
  8
0
  6
Continuous
 62
     7
370
    15
100
AcDbSpline
210
0.0
220
0.0
230
1.0
 70
     8
 71
     3
 72
    12
 73
     8
 74
     0
 42
0.00000001
 43
0.00000001
 40
0.0
 40
0.0
 40
0.0
 40
0.0
 40
0.0304690411714332
 40
0.0888184845081627
 40
0.392557628634479
 40
0.6962793464106172
 40
1.0
 40
1.0
 40
1.0
 40
1.0
 10
534.3672922778604
 20
-308.8815770660742
 30
0.0
 10
534.3635996206428
 20
-308.8818176219663
 30
0.0
 10
534.3528353758464
 20
-308.8825188520984
 30
0.0
 10
534.309418029286
 20
-308.8786616297521
 30
0.0
 10
534.2616443201605
 20
-308.8297457271584
 30
0.0
 10
534.2597390310962
 20
-308.6761222655503
 30
0.0
 10
534.3137684499815
 20
-308.5173139242363
 30
0.0
 10
534.3407831120966
 20
-308.4379098926886
 30
0.0
  0
SPLINE
  5
244
330
1F
100
AcDbEntity
  8
0
  6
Continuous
 62
     7
370
    15
100
AcDbSpline
210
0.0
220
0.0
230
1.0
 70
     8
 71
     3
 72
    12
 73
     8
 74
     0
 42
0.00000001
 43
0.00000001
 40
0.0
 40
0.0
 40
0.0
 40
0.0
 40
0.030469123382302
 40
0.0888187241561627
 40
0.3925586878244787
 40
0.6962812250955974
 40
1.0
 40
1.0
 40
1.0
 40
1.0
 10
566.0349569249628
 20
-308.8815770660742
 30
0.0
 10
566.0386495826831
 20
-308.8818176218862
 30
0.0
 10
566.0494138289448
 20
-308.8825188517847
 30
0.0
 10
566.0928311253443
 20
-308.8786616374364
 30
0.0
 10
566.1406059416239
 20
-308.8297455583185
 30
0.0
 10
566.1425063867274
 20
-308.6761233230344
 30
0.0
 10
566.0884893453109
 20
-308.5173140415931
 30
0.0
 10
566.0614809918878
 20
-308.4379098926886
 30
0.0
  0
SPLINE
  5
245
330
1F
100
AcDbEntity
  8
0
  6
Continuous
 62
     7
370
    15
100
AcDbSpline
210
0.0
220
0.0
230
1.0
 70
     8
 71
     3
 72
    10
 73
     6
 74
     0
 42
0.00000001
 43
0.00000001
 40
0.0
 40
0.0
 40
0.0
 40
0.0
 40
0.5
 40
0.5
 40
1.0
 40
1.0
 40
1.0
 40
1.0
 10
534.3672862683189
 20
-308.8815756616631
 30
0.0
 10
534.1351871536209
 20
-308.7289300727429
 30
0.0
 10
533.8981390455464
 20
-308.6137233168249
 30
0.0
 10
533.4279736079851
 20
-308.460196471197
 30
0.0
 10
533.2058252976668
 20
-308.4248653898556
 30
0.0
 10
532.9958385287871
 20
-308.4248653898555
 30
0.0
  0
ARC
  5
246
330
1F
100
AcDbEntity
  8
0
  6
Continuous
 62
     7
370
    15
100
AcDbCircle
 10
533.1267385059
 20
-307.7287744337
 30
0.0
 40
0.7082839621301703
100
AcDbArc
 50
185.4679364829
 51
259.3494145733
  0
ARC
  5
247
330
1F
100
AcDbEntity
  8
0
  6
Continuous
 62
     7
370
    15
100
AcDbCircle
 10
567.2755422446
 20
-307.7288001472
 30
0.0
 40
0.708250108142701
100
AcDbArc
 50
280.6472770106
 51
354.5338910251
  0
SPLINE
  5
248
330
1F
100
AcDbEntity
  8
0
  6
Continuous
 62
     7
370
    15
100
AcDbSpline
210
0.0
220
0.0
230
1.0
 70
     8
 71
     3
 72
    10
 73
     6
 74
     0
 42
0.00000001
 43
0.00000001
 40
0.0
 40
0.0
 40
0.0
 40
0.0
 40
0.5
 40
0.5
 40
1.0
 40
1.0
 40
1.0
 40
1.0
 10
567.4064072763318
 20
-308.4248653898555
 30
0.0
 10
567.1964205074521
 20
-308.4248653898556
 30
0.0
 10
566.9742721971338
 20
-308.460196471197
 30
0.0
 10
566.5041067595724
 20
-308.6137233168249
 30
0.0
 10
566.2670586514981
 20
-308.7289300727429
 30
0.0
 10
566.0349595368
 20
-308.881575661663
 30
0.0
  0
LINE
  5
249
330
1F
100
AcDbEntity
  8
0
  6
Continuous
 62
     7
370
    15
100
AcDbLine
 10
538.5752460886
 20
-327.5581560646
 30
0.0
 11
538.5741881061
 21
-327.5480530774
 31
0.0
  0
LINE
  5
24A
330
1F
100
AcDbEntity
  8
0
  6
Continuous
 62
     7
370
    15
100
AcDbLine
 10
532.9958341051
 20
-308.4248564755
 30
0.0
 11
522.378160708
 21
-308.4248564755
 31
0.0
  0
LINE
  5
24B
330
1F
100
AcDbEntity
  8
0
  6
Continuous
 62
     7
370
    15
100
AcDbLine
 10
578.024103396
 20
-308.4248564755
 30
0.0
 11
567.4064001966
 21
-308.4248564755
 31
0.0
  0
LINE
  5
24C
330
1F
100
AcDbEntity
  8
0
  6
Continuous
 62
     7
370
    15
100
AcDbLine
 10
549.7011235881
 20
-326.9248567139
 30
0.0
 11
549.7011235881
 21
-326.3792357956
 31
0.0
  0
ARC
  5
24D
330
1F
100
AcDbEntity
  8
0
  6
Continuous
 62
     7
370
    15
100
AcDbCircle
 10
549.7011229026
 20
-327.9248653899
 30
0.0
 40
1.0
100
AcDbArc
 50
90.0
 51
180.0
  0
ARC
  5
24E
330
1F
100
AcDbEntity
  8
0
  6
Continuous
 62
     7
370
    15
100
AcDbCircle
 10
550.7011229026
 20
-327.9248653899
 30
0.0
 40
1.0
100
AcDbArc
 50
0.0
 51
90.0
  0
LINE
  5
24F
330
1F
100
AcDbEntity
  8
0
  6
Continuous
 62
     7
370
    15
100
AcDbLine
 10
550.7011256147
 20
-326.3792357956
 30
0.0
 11
550.7011256147
 21
-326.9248567139
 31
0.0
  0
LINE
  5
250
330
1F
100
AcDbEntity
  8
0
  6
Continuous
 62
     7
370
    15
100
AcDbLine
 10
548.7011215616
 20
-328.4248672043
 30
0.0
 11
539.5663223196
 21
-328.4248672043
 31
0.0
  0
ARC
  5
251
330
1F
100
AcDbEntity
  8
0
  6
Continuous
 62
     7
370
    15
100
AcDbCircle
 10
539.7108945919
 20
-327.7795389572
 30
0.0
 40
0.6613241931769054
100
AcDbArc
 50
184.8305277626
 51
257.3725783693
  0
SPLINE
  5
252
330
1F
100
AcDbEntity
  8
0
  6
Continuous
 62
     7
370
    15
100
AcDbSpline
210
0.0
220
0.0
230
1.0
 70
    24
 71
     3
 72
    10
 73
     6
 74
     0
 42
0.00000001
 43
0.00000001
 40
0.0
 40
0.0
 40
0.0
 40
0.0
 40
0.5
 40
0.5
 40
1.0
 40
1.0
 40
1.0
 40
1.0
 10
548.7011229025594
 20
-327.8352300671843
 30
0.0
 10
548.7011229025594
 20
-328.0114822047811
 30
0.0
 10
548.7011229025594
 20
-328.1608242867031
 30
0.0
 10
548.7011229025594
 20
-328.3679974298579
 30
0.0
 10
548.7011229025594
 20
-328.4248653898555
 30
0.0
 10
548.7011229025594
 20
-328.4248653898555
 30
0.0
  0
ARC
  5
253
330
1F
100
AcDbEntity
  8
0
  6
Continuous
 62
     7
370
    15
100
AcDbCircle
 10
560.6913240173
 20
-327.779508613
 30
0.0
 40
0.6613572339597801
100
AcDbArc
 50
282.6281735549
 51
355.1670759409
  0
LINE
  5
254
330
1F
100
AcDbEntity
  8
0
  6
Continuous
 62
     7
370
    15
100
AcDbLine
 10
560.8359119821
 20
-328.4248672043
 30
0.0
 11
551.7011276412
 21
-328.4248672043
 31
0.0
  0
SPLINE
  5
255
330
1F
100
AcDbEntity
  8
0
  6
Continuous
 62
     7
370
    15
100
AcDbSpline
210
0.0
220
0.0
230
1.0
 70
    24
 71
     3
 72
    12
 73
     8
 74
     0
 42
0.00000001
 43
0.00000001
 40
0.0
 40
0.0
 40
0.0
 40
0.0
 40
0.2500000000000349
 40
0.2500000000000349
 40
0.5000000000000698
 40
0.5000000000000698
 40
1.0
 40
1.0
 40
1.0
 40
1.0
 10
551.7011229025594
 20
-328.4248653898555
 30
0.0
 10
551.7011229025594
 20
-328.4248653898555
 30
0.0
 10
551.7011229025594
 20
-328.411216497827
 30
0.0
 10
551.7011229025594
 20
-328.3571969429848
 30
0.0
 10
551.7011229025594
 20
-328.3169378928343
 30
0.0
 10
551.7011229025594
 20
-328.1619811079714
 30
0.0
 10
551.7011229025594
 20
-328.0114925240988
 30
0.0
 10
551.7011229025594
 20
-327.8352300671843
 30
0.0
  0
LINE
  5
256
330
1F
100
AcDbEntity
  8
0
  6
Continuous
 62
     7
370
    15
100
AcDbLine
 10
550.7011256147
 20
-326.9248567139
 30
0.0
 11
549.7011235881
 21
-326.9248567139
 31
0.0
  0
LINE
  5
257
330
1F
100
AcDbEntity
  8
0
  6
Continuous
 62
     7
370
    15
100
AcDbLine
 10
551.7011276412
 20
-327.9248736416
 30
0.0
 11
548.7011215616
 21
-327.9248736416
 31
0.0
  0
LINE
  5
258
330
1F
100
AcDbEntity
  8
0
  6
Continuous
 62
     7
370
    15
100
AcDbLine
 10
548.7011215616
 20
-328.4248672043
 30
0.0
 11
551.7011276412
 21
-328.4248672043
 31
0.0
  0
LINE
  5
259
330
1F
100
AcDbEntity
  8
0
  6
Continuous
 62
     7
370
    15
100
AcDbLine
 10
676.5011093545
 20
-299.0785799538
 30
0.0
 11
-223.4988668036
 21
-299.0785799538
 31
0.0
  0
LINE
  5
25A
330
1F
100
AcDbEntity
  8
0
  6
Continuous
 62
     7
370
    15
100
AcDbLine
 10
-223.4988668036
 20
-299.0785799538
 30
0.0
 11
-223.4988668036
 21
-286.5248582875
 31
0.0
  0
LINE
  5
25B
330
1F
100
AcDbEntity
  8
0
  6
Continuous
 62
     7
370
    15
100
AcDbLine
 10
676.5011093545
 20
-299.0785799538
 30
0.0
 11
676.5011093545
 21
-286.5248582875
 31
0.0
  0
LINE
  5
25C
330
1F
100
AcDbEntity
  8
0
  6
Continuous
 62
     7
370
    15
100
AcDbLine
 10
-223.4988668036
 20
-306.1847351109
 30
0.0
 11
-223.4988668036
 21
-299.0785799538
 31
0.0
  0
LINE
  5
25D
330
1F
100
AcDbEntity
  8
0
  6
Continuous
 62
     7
370
    15
100
AcDbLine
 10
676.5011093545
 20
-306.1847351109
 30
0.0
 11
676.5011093545
 21
-299.0785799538
 31
0.0
  0
ARC
  5
25E
330
1F
100
AcDbEntity
  8
0
  6
Continuous
 62
     7
370
    15
100
AcDbCircle
 10
-88.4988770974
 20
-109.2248653899
 30
0.0
 40
6.349999999999969
100
AcDbArc
 50
202.8787907589
 51
270.0
  0
LINE
  5
25F
330
1F
100
AcDbEntity
  8
0
  6
Continuous
 62
     7
370
    15
100
AcDbLine
 10
-88.4988763403
 20
-115.5748627697
 30
0.0
 11
-73.8893606734
 21
-115.5748627697
 31
0.0
  0
LINE
  5
260
330
1F
100
AcDbEntity
  8
0
  6
Continuous
 62
     7
370
    15
100
AcDbLine
 10
675.3011188436
 20
-170.2748797451
 30
0.0
 11
672.5011310506
 21
-170.2748797451
 31
0.0
  0
LINE
  5
261
330
1F
100
AcDbEntity
  8
0
  6
Continuous
 62
     7
370
    15
100
AcDbLine
 10
-219.4988586974
 20
-170.2748797451
 30
0.0
 11
-222.298906095
 21
-170.2748797451
 31
0.0
  0
LINE
  5
262
330
1F
100
AcDbEntity
  8
0
  6
Continuous
 62
     7
370
    15
100
AcDbLine
 10
675.3011188436
 20
-172.724869064
 30
0.0
 11
675.3011188436
 21
-170.2748797451
 31
0.0
  0
LINE
  5
263
330
1F
100
AcDbEntity
  8
0
  6
Continuous
 62
     7
370
    15
100
AcDbLine
 10
-222.298906095
 20
-172.724869064
 30
0.0
 11
-222.298906095
 21
-170.2748797451
 31
0.0
  0
LINE
  5
264
330
1F
100
AcDbEntity
  8
0
  6
Continuous
 62
     7
370
    15
100
AcDbLine
 10
675.3011188436
 20
-264.041688255
 30
0.0
 11
675.3011188436
 21
-172.724869064
 31
0.0
  0
LINE
  5
265
330
1F
100
AcDbEntity
  8
0
  6
Continuous
 62
     7
370
    15
100
AcDbLine
 10
675.3011188436
 20
-264.041688255
 30
0.0
 11
-222.298906095
 21
-264.041688255
 31
0.0
  0
LINE
  5
266
330
1F
100
AcDbEntity
  8
0
  6
Continuous
 62
     7
370
    15
100
AcDbLine
 10
-222.298906095
 20
-264.041688255
 30
0.0
 11
-222.298906095
 21
-172.724869064
 31
0.0
  0
LINE
  5
267
330
1F
100
AcDbEntity
  8
0
  6
Continuous
 62
     7
370
    15
100
AcDbLine
 10
675.3011188436
 20
-287.3416803395
 30
0.0
 11
675.3011188436
 21
-264.041688255
 31
0.0
  0
LINE
  5
268
330
1F
100
AcDbEntity
  8
0
  6
Continuous
 62
     7
370
    15
100
AcDbLine
 10
-222.298906095
 20
-287.3416803395
 30
0.0
 11
-222.298906095
 21
-264.041688255
 31
0.0
  0
LINE
  5
269
330
1F
100
AcDbEntity
  8
0
  6
Continuous
 62
     7
370
    15
100
AcDbLine
 10
674.0011117387
 20
-170.2748797451
 30
0.0
 11
674.0011117387
 21
-169.7748563801
 31
0.0
  0
LINE
  5
26A
330
1F
100
AcDbEntity
  8
0
  6
Continuous
 62
     7
370
    15
100
AcDbLine
 10
-220.9988691878
 20
-169.7748563801
 30
0.0
 11
-220.9988691878
 21
-170.2748797451
 31
0.0
  0
LINE
  5
26B
330
1F
100
AcDbEntity
  8
0
  6
Continuous
 62
     7
370
    15
100
AcDbLine
 10
663.7011310983
 20
424.5643951381
 30
0.0
 11
663.7011310983
 21
424.8251356567
 31
0.0
  0
LINE
  5
26C
330
1F
100
AcDbEntity
  8
0
  6
Continuous
 62
     7
370
    15
100
AcDbLine
 10
-210.6988885474
 20
424.8251356567
 30
0.0
 11
-210.6988885474
 21
424.5643951381
 31
0.0
  0
LINE
  5
26D
330
1F
100
AcDbEntity
  8
0
  6
Continuous
 62
     7
370
    15
100
AcDbLine
 10
664.3011114526
 20
424.5643951381
 30
0.0
 11
664.3011114526
 21
424.8251356567
 31
0.0
  0
LINE
  5
26E
330
1F
100
AcDbEntity
  8
0
  6
Continuous
 62
     7
370
    15
100
AcDbLine
 10
-211.2988689017
 20
424.8251356567
 30
0.0
 11
-211.2988689017
 21
424.5643951381
 31
0.0
  0
LINE
  5
26F
330
1F
100
AcDbEntity
  8
0
  6
Continuous
 62
     7
370
    15
100
AcDbLine
 10
676.5011093545
 20
-169.0248511349
 30
0.0
 11
676.5011093545
 21
425.7251359905
 31
0.0
  0
LINE
  5
270
330
1F
100
AcDbEntity
  8
0
  6
Continuous
 62
     7
370
    15
100
AcDbLine
 10
675.5011222291
 20
-169.0248511349
 30
0.0
 11
676.5011093545
 21
-169.0248511349
 31
0.0
  0
LINE
  5
271
330
1F
100
AcDbEntity
  8
0
  6
Continuous
 62
     7
370
    15
100
AcDbLine
 10
-222.4988796782
 20
-169.0248511349
 30
0.0
 11
-223.4988668036
 21
-169.0248511349
 31
0.0
  0
LINE
  5
272
330
1F
100
AcDbEntity
  8
0
  6
Continuous
 62
     7
370
    15
100
AcDbLine
 10
-223.4988668036
 20
-169.0248511349
 30
0.0
 11
-223.4988668036
 21
477.1751203025
 31
0.0
  0
LINE
  5
273
330
1F
100
AcDbEntity
  8
0
  6
Continuous
 62
     7
370
    15
100
AcDbLine
 10
-223.3988502097
 20
477.1751203025
 30
0.0
 11
-223.4988668036
 21
477.1751203025
 31
0.0
  0
LWPOLYLINE
  5
274
330
1F
100
AcDbEntity
  8
0
  6
Continuous
 62
     7
370
    15
100
AcDbPolyline
 90
        3
 70
   128
 43
0.0
 10
-223.4988668036
 20
477.1751203025
 10
-223.4517791342
 20
477.6531197513
 10
-223.3963468146
 20
477.8763987507
  0
LINE
  5
275
330
1F
100
AcDbEntity
  8
0
  6
Continuous
 62
     7
370
    15
100
AcDbLine
 10
-223.4988668036
 20
-170.5248616253
 30
0.0
 11
-223.4988668036
 21
-169.0248511349
 31
0.0
  0
LINE
  5
276
330
1F
100
AcDbEntity
  8
0
  6
Continuous
 62
     7
370
    15
100
AcDbLine
 10
-222.298906095
 20
-170.2748797451
 30
0.0
 11
-222.298906095
 21
-169.7748563801
 31
0.0
  0
LINE
  5
277
330
1F
100
AcDbEntity
  8
0
  6
Continuous
 62
     7
370
    15
100
AcDbLine
 10
676.5011093545
 20
-169.0248511349
 30
0.0
 11
676.5011093545
 21
-170.5248616253
 31
0.0
  0
LINE
  5
278
330
1F
100
AcDbEntity
  8
0
  6
Continuous
 62
     7
370
    15
100
AcDbLine
 10
675.3011188436
 20
-169.7748563801
 30
0.0
 11
675.3011188436
 21
-170.2748797451
 31
0.0
  0
CIRCLE
  5
279
330
1F
100
AcDbEntity
  8
0
  6
Continuous
 62
     7
370
    15
100
AcDbCircle
 10
-127.4988770974
 20
-138.2248653899
 30
0.0
 40
2.5
  0
CIRCLE
  5
27A
330
1F
100
AcDbEntity
  8
0
  6
Continuous
 62
     7
370
    15
100
AcDbCircle
 10
-127.4988770974
 20
-138.2248653899
 30
0.0
 40
3.025000000000006
  0
CIRCLE
  5
27B
330
1F
100
AcDbEntity
  8
0
  6
Continuous
 62
     7
370
    15
100
AcDbCircle
 10
-127.4988770974
 20
-138.2248653899
 30
0.0
 40
4.450000000000017
  0
CIRCLE
  5
27C
330
1F
100
AcDbEntity
  8
0
  6
Continuous
 62
     7
370
    15
100
AcDbCircle
 10
-127.4988770974
 20
-138.2248653899
 30
0.0
 40
4.699999999999989
  0
CIRCLE
  5
27D
330
1F
100
AcDbEntity
  8
0
  6
Continuous
 62
     7
370
    15
100
AcDbCircle
 10
-127.4988770974
 20
-138.2248653899
 30
0.0
 40
5.199999999999989
  0
CIRCLE
  5
27E
330
1F
100
AcDbEntity
  8
0
  6
Continuous
 62
     7
370
    15
100
AcDbCircle
 10
-127.4988770974
 20
-138.2248653899
 30
0.0
 40
5.900000000000006
  0
CIRCLE
  5
27F
330
1F
100
AcDbEntity
  8
0
  6
Continuous
 62
     7
370
    15
100
AcDbCircle
 10
-127.4988770974
 20
-138.2248653899
 30
0.0
 40
6.400000000000006
  0
SPLINE
  5
280
330
1F
100
AcDbEntity
  8
0
  6
Continuous
 62
     7
370
    15
100
AcDbSpline
210
0.0
220
0.0
230
1.0
 70
    24
 71
     3
 72
    19
 73
    15
 74
     0
 42
0.00000001
 43
0.00000001
 40
0.0
 40
0.0
 40
0.0
 40
0.0
 40
0.1197285765192343
 40
0.1841803055655701
 40
0.2499997558107033
 40
0.3158192060558365
 40
0.3802713820522886
 40
0.4999997765249418
 40
0.619728170997595
 40
0.6841803469940472
 40
0.7499997972391804
 40
0.8158192474843136
 40
0.8802714234807657
 40
1.0
 40
1.0
 40
1.0
 40
1.0
 10
488.3011273074625
 20
-306.4248524223669
 30
0.0
 10
488.366583196518
 20
-306.4248524223669
 30
0.0
 10
488.4672749945649
 20
-306.4248524223669
 30
0.0
 10
489.0782802458432
 20
-306.4248524223668
 30
0.0
 10
489.7106942639561
 20
-306.4248524223671
 30
0.0
 10
490.4956972735216
 20
-306.4248524223668
 30
0.0
 10
491.6364913834943
 20
-306.4248524223671
 30
0.0
 10
493.2011207951082
 20
-306.4248524223671
 30
0.0
 10
494.7657504667011
 20
-306.4248524223671
 30
0.0
 10
495.906544132558
 20
-306.4248524223668
 30
0.0
 10
496.6915485409995
 20
-306.4248524223672
 30
0.0
 10
497.3239587717593
 20
-306.4248524223669
 30
0.0
 10
497.934988999569
 20
-306.4248524223669
 30
0.0
 10
498.0356764089922
 20
-306.4248524223671
 30
0.0
 10
498.1011292863367
 20
-306.4248524223669
 30
0.0
  0
SPLINE
  5
281
330
1F
100
AcDbEntity
  8
0
  6
Continuous
 62
     7
370
    15
100
AcDbSpline
210
0.0
220
0.0
230
1.0
 70
    24
 71
     3
 72
    19
 73
    15
 74
     0
 42
0.00000001
 43
0.00000001
 40
0.0
 40
0.0
 40
0.0
 40
0.0
 40
0.1197285648461584
 40
0.184180399345134
 40
0.2499996900157307
 40
0.3158195109223866
 40
0.3802716806349993
 40
0.5000000634345944
 40
0.6197282076278432
 40
0.684180377340456
 40
0.7500001982471118
 40
0.8158194889177086
 40
0.8802714351538415
 40
0.9999999999999999
 40
0.9999999999999999
 40
0.9999999999999999
 40
0.9999999999999999
 10
265.3011224198816
 20
-306.4248524223669
 30
0.0
 10
265.3665773567513
 20
-306.4248524223671
 30
0.0
 10
265.4672677511217
 20
-306.4248524223671
 30
0.0
 10
266.078280376224
 20
-306.4248524223669
 30
0.0
 10
266.7106890813301
 20
-306.4248524223671
 30
0.0
 10
267.4956995088145
 20
-306.4248524223671
 30
0.0
 10
268.6364932286644
 20
-306.4248524223669
 30
0.0
 10
270.2011222296341
 20
-306.4248524223671
 30
0.0
 10
271.7657509831442
 20
-306.4248524223669
 30
0.0
 10
272.9065435148523
 20
-306.4248524223671
 30
0.0
 10
273.6915542895694
 20
-306.4248524223669
 30
0.0
 10
274.3239620484966
 20
-306.4248524223671
 30
0.0
 10
274.9349809175373
 20
-306.4248524223669
 30
0.0
 10
275.0356702147896
 20
-306.4248524223671
 30
0.0
 10
275.1011243987558
 20
-306.4248524223669
 30
0.0
  0
SPLINE
  5
282
330
1F
100
AcDbEntity
  8
0
  6
Continuous
 62
     7
370
    15
100
AcDbSpline
210
0.0
220
0.0
230
1.0
 70
     8
 71
     3
 72
    10
 73
     6
 74
     0
 42
0.00000001
 43
0.00000001
 40
0.0
 40
0.0
 40
0.0
 40
0.0
 40
0.5
 40
0.5
 40
1.0
 40
1.0
 40
1.0
 40
1.0
 10
346.0305419645126
 20
-308.4248653898566
 30
0.0
 10
346.3498830979086
 20
-308.2156182510597
 30
0.0
 10
346.6790375456392
 20
-308.0582354630269
 30
0.0
 10
347.3452179326163
 20
-307.8464974350267
 30
0.0
 10
347.6680253666763
 20
-307.7962560662106
 30
0.0
 10
347.9805626307543
 20
-307.7962560662106
 30
0.0
  0
LINE
  5
283
330
1F
100
AcDbEntity
  8
0
  6
Continuous
 62
     7
370
    15
100
AcDbLine
 10
314.371703748
 20
-308.4248564755
 30
0.0
 11
346.0305436481
 21
-308.4248564755
 31
0.0
  0
SPLINE
  5
284
330
1F
100
AcDbEntity
  8
0
  6
Continuous
 62
     7
370
    15
100
AcDbSpline
210
0.0
220
0.0
230
1.0
 70
     8
 71
     3
 72
    10
 73
     6
 74
     0
 42
0.00000001
 43
0.00000001
 40
0.0
 40
0.0
 40
0.0
 40
0.0
 40
0.5
 40
0.5
 40
1.0
 40
1.0
 40
1.0
 40
1.0
 10
312.4216831743658
 20
-307.7962560662106
 30
0.0
 10
312.7342204384439
 20
-307.7962560662107
 30
0.0
 10
313.0570278725039
 20
-307.8464974350268
 30
0.0
 10
313.7232082594809
 20
-308.0582354630269
 30
0.0
 10
314.0523627072116
 20
-308.2156182510597
 30
0.0
 10
314.3717038406076
 20
-308.4248653898566
 30
0.0
  0
SPLINE
  5
285
330
1F
100
AcDbEntity
  8
0
  6
Continuous
 62
     7
370
    15
100
AcDbSpline
210
0.0
220
0.0
230
1.0
 70
     8
 71
     3
 72
    10
 73
     6
 74
     0
 42
0.00000001
 43
0.00000001
 40
0.0
 40
0.0
 40
0.0
 40
0.0
 40
0.2116554096444816
 40
0.4879820536070428
 40
0.9999999999999999
 40
0.9999999999999999
 40
0.9999999999999999
 40
0.9999999999999999
 10
346.0614672828195
 20
-308.4379098926886
 30
0.0
 10
346.060217034687
 20
-308.4357460866637
 30
0.0
 10
346.0573345255545
 20
-308.430757324461
 30
0.0
 10
346.0465917975406
 20
-308.4256684509041
 30
0.0
 10
346.0368626093511
 20
-308.4251761909283
 30
0.0
 10
346.030543648052
 20
-308.4248564754828
 30
0.0
  0
SPLINE
  5
286
330
1F
100
AcDbEntity
  8
0
  6
Continuous
 62
     7
370
    15
100
AcDbSpline
210
0.0
220
0.0
230
1.0
 70
     8
 71
     3
 72
    10
 73
     6
 74
     0
 42
0.00000001
 43
0.00000001
 40
0.0
 40
0.0
 40
0.0
 40
0.0
 40
0.3554475421749849
 40
0.7142340685935243
 40
1.0
 40
1.0
 40
1.0
 40
1.0
 10
343.8240430284021
 20
-311.7654285942419
 30
0.0
 10
343.947450723407
 20
-311.3099390076321
 30
0.0
 10
344.1954253740679
 20
-310.3946810805249
 30
0.0
 10
345.033366264902
 20
-309.2042187001576
 30
0.0
 10
345.7456654580187
 20
-308.6732969952614
 30
0.0
 10
346.0614672828195
 20
-308.4379098926886
 30
0.0
  0
SPLINE
  5
287
330
1F
100
AcDbEntity
  8
0
  6
Continuous
 62
     7
370
    15
100
AcDbSpline
210
0.0
220
0.0
230
1.0
 70
     8
 71
     3
 72
    10
 73
     6
 74
     0
 42
0.00000001
 43
0.00000001
 40
0.0
 40
0.0
 40
0.0
 40
0.0
 40
0.5
 40
0.5
 40
1.0
 40
1.0
 40
1.0
 40
1.0
 10
341.350321359305
 20
-327.8352300671853
 30
0.0
 10
341.6934306343522
 20
-325.1696723704102
 30
0.0
 10
342.0722981318042
 20
-322.495087414124
 30
0.0
 10
342.8977693807409
 20
-317.1366224155254
 30
0.0
 10
343.3444197702415
 20
-314.4525704341114
 30
0.0
 10
343.8240426804876
 20
-311.7654204414364
 30
0.0
  0
LINE
  5
288
330
1F
100
AcDbEntity
  8
0
  6
Continuous
 62
     7
370
    15
100
AcDbLine
 10
331.7011232454
 20
-327.8352282559
 30
0.0
 11
341.3503198851
 21
-327.8352282559
 31
0.0
  0
LINE
  5
289
330
1F
100
AcDbEntity
  8
0
  6
Continuous
 62
     7
370
    15
100
AcDbLine
 10
331.7011232454
 20
-327.8352282559
 30
0.0
 11
331.7011232454
 21
-326.4873586212
 31
0.0
  0
SPLINE
  5
28A
330
1F
100
AcDbEntity
  8
0
  6
Continuous
 62
     7
370
    15
100
AcDbSpline
210
0.0
220
0.0
230
1.0
 70
     8
 71
     3
 72
     8
 73
     4
 74
     0
 42
0.00000001
 43
0.00000001
 40
0.0
 40
0.0
 40
0.0
 40
0.0
 40
1.0
 40
1.0
 40
1.0
 40
1.0
 10
330.4662463980589
 20
-309.0936280077144
 30
0.0
 10
330.8778783169138
 20
-314.8968811428685
 30
0.0
 10
331.2895063034969
 20
-320.6968613011028
 30
0.0
 10
331.70112290256
 20
-326.487363200624
 30
0.0
  0
SPLINE
  5
28B
330
1F
100
AcDbEntity
  8
0
  6
Continuous
 62
     7
370
    15
100
AcDbSpline
210
0.0
220
0.0
230
1.0
 70
     8
 71
     3
 72
    10
 73
     6
 74
     0
 42
0.00000001
 43
0.00000001
 40
0.0
 40
0.0
 40
0.0
 40
0.0
 40
0.5
 40
0.5
 40
1.0
 40
1.0
 40
1.0
 40
1.0
 10
330.2167674934908
 20
-308.8808245239208
 30
0.0
 10
330.2800798231098
 20
-308.8808114238669
 30
0.0
 10
330.3419605150087
 20
-308.9032451421804
 30
0.0
 10
330.4334281661912
 20
-308.9811668503551
 30
0.0
 10
330.4621607075771
 20
-309.0360272848083
 30
0.0
 10
330.4662463980589
 20
-309.0936280077144
 30
0.0
  0
ELLIPSE
  5
28C
330
1F
100
AcDbEntity
  8
0
  6
Continuous
 62
     7
370
    15
100
AcDbEllipse
 10
330.2011229026
 20
-292.9150983085
 30
0.0
 11
34.74434239688475
 21
0.0
 31
0.0
210
0.0
220
0.0
230
1.0
 40
0.4595202192
 41
4.711938703004836
 42
4.712839257764554
  0
SPLINE
  5
28D
330
1F
100
AcDbEntity
  8
0
  6
Continuous
 62
     7
370
    15
100
AcDbSpline
210
0.0
220
0.0
230
1.0
 70
     8
 71
     3
 72
    10
 73
     6
 74
     0
 42
0.00000001
 43
0.00000001
 40
0.0
 40
0.0
 40
0.0
 40
0.0
 40
0.5
 40
0.5
 40
1.0
 40
1.0
 40
1.0
 40
1.0
 10
329.9359994070613
 20
-309.0936280077144
 30
0.0
 10
329.9400850978701
 20
-309.0360272801962
 30
0.0
 10
329.968739857534
 20
-308.9812767558257
 30
0.0
 10
330.0601597207564
 20
-308.9033085690837
 30
0.0
 10
330.1221659846899
 20
-308.8808114238675
 30
0.0
 10
330.1854783116293
 20
-308.8808245239208
 30
0.0
  0
SPLINE
  5
28E
330
1F
100
AcDbEntity
  8
0
  6
Continuous
 62
     7
370
    15
100
AcDbSpline
210
0.0
220
0.0
230
1.0
 70
     8
 71
     3
 72
     8
 73
     4
 74
     0
 42
0.00000001
 43
0.00000001
 40
0.0
 40
0.0
 40
0.0
 40
0.0
 40
1.0
 40
1.0
 40
1.0
 40
1.0
 10
329.9359994070613
 20
-309.0936280077144
 30
0.0
 10
329.5243674882063
 20
-314.8968811428685
 30
0.0
 10
329.1127395016233
 20
-320.6968613011028
 30
0.0
 10
328.70112290256
 20
-326.4873632006241
 30
0.0
  0
LINE
  5
28F
330
1F
100
AcDbEntity
  8
0
  6
Continuous
 62
     7
370
    15
100
AcDbLine
 10
328.7011227537
 20
-326.4873586212
 30
0.0
 11
328.7011227537
 21
-327.8352282559
 31
0.0
  0
LINE
  5
290
330
1F
100
AcDbEntity
  8
0
  6
Continuous
 62
     7
370
    15
100
AcDbLine
 10
319.0519242514
 20
-327.8352282559
 30
0.0
 11
328.7011227537
 21
-327.8352282559
 31
0.0
  0
SPLINE
  5
291
330
1F
100
AcDbEntity
  8
0
  6
Continuous
 62
     7
370
    15
100
AcDbSpline
210
0.0
220
0.0
230
1.0
 70
     8
 71
     3
 72
    10
 73
     6
 74
     0
 42
0.00000001
 43
0.00000001
 40
0.0
 40
0.0
 40
0.0
 40
0.0
 40
0.5
 40
0.5
 40
1.0
 40
1.0
 40
1.0
 40
1.0
 10
316.5782031246325
 20
-311.7654204414362
 30
0.0
 10
317.0578260348786
 20
-314.4525704341111
 30
0.0
 10
317.5044764243792
 20
-317.1366224155253
 30
0.0
 10
318.3299476733159
 20
-322.4950874141239
 30
0.0
 10
318.7088151707679
 20
-325.1696723704103
 30
0.0
 10
319.0519244458151
 20
-327.8352300671853
 30
0.0
  0
SPLINE
  5
292
330
1F
100
AcDbEntity
  8
0
  6
Continuous
 62
     7
370
    15
100
AcDbSpline
210
0.0
220
0.0
230
1.0
 70
     8
 71
     3
 72
    10
 73
     6
 74
     0
 42
0.00000001
 43
0.00000001
 40
0.0
 40
0.0
 40
0.0
 40
0.0
 40
0.2857662291765656
 40
0.6445525765542188
 40
1.0
 40
1.0
 40
1.0
 40
1.0
 10
314.340778716254
 20
-308.4379098926886
 30
0.0
 10
314.6565812826004
 20
-308.6732968630988
 30
0.0
 10
315.3688815372789
 20
-309.2042178144732
 30
0.0
 10
316.2068215219265
 20
-310.3946813067223
 30
0.0
 10
316.4547955668775
 20
-311.3099390575888
 30
0.0
 10
316.5782029706714
 20
-311.7654285942421
 30
0.0
  0
SPLINE
  5
293
330
1F
100
AcDbEntity
  8
0
  6
Continuous
 62
     7
370
    15
100
AcDbSpline
210
0.0
220
0.0
230
1.0
 70
     8
 71
     3
 72
    11
 73
     7
 74
     0
 42
0.00000001
 43
0.00000001
 40
0.0
 40
0.0
 40
0.0
 40
0.0
 40
0.3703195036031027
 40
0.744259820193739
 40
0.9442889276224012
 40
0.9999999999999999
 40
0.9999999999999999
 40
0.9999999999999999
 40
0.9999999999999999
 10
314.3717037480054
 20
-308.4248564754828
 30
0.0
 10
314.3671199354137
 20
-308.4250287794363
 30
0.0
 10
314.3579074918289
 20
-308.4253750720516
 30
0.0
 10
314.3472857885852
 20
-308.4291218672193
 30
0.0
 10
314.3422647786297
 20
-308.4345260995959
 30
0.0
 10
314.3410445367572
 20
-308.4373046142043
 30
0.0
 10
314.340778716254
 20
-308.4379098926886
 30
0.0
  0
SPLINE
  5
294
330
1F
100
AcDbEntity
  8
0
  6
Continuous
 62
     7
370
    15
100
AcDbSpline
210
0.0
220
0.0
230
1.0
 70
     8
 71
     3
 72
    10
 73
     6
 74
     0
 42
0.00000001
 43
0.00000001
 40
0.0
 40
0.0
 40
0.0
 40
0.0
 40
0.5
 40
0.5
 40
1.0
 40
1.0
 40
1.0
 40
1.0
 10
330.4662463980589
 20
-308.9867448932083
 30
0.0
 10
330.4621866957195
 20
-308.9294850929727
 30
0.0
 10
330.4335312318036
 20
-308.8742371257722
 30
0.0
 10
330.3419569024936
 20
-308.7959063334696
 30
0.0
 10
330.27967508471
 20
-308.773367278613
 30
0.0
 10
330.2167674934908
 20
-308.773345348779
 30
0.0
  0
SPLINE
  5
295
330
1F
100
AcDbEntity
  8
0
  6
Continuous
 62
     7
370
    15
100
AcDbSpline
210
0.0
220
0.0
230
1.0
 70
     8
 71
     3
 72
    12
 73
     8
 74
     0
 42
0.00000001
 43
0.00000001
 40
0.0
 40
0.0
 40
0.0
 40
0.0
 40
0.25
 40
0.25
 40
0.5
 40
0.5
 40
1.0
 40
1.0
 40
1.0
 40
1.0
 10
329.9359994070613
 20
-308.9867448932084
 30
0.0
 10
329.9380292251892
 20
-308.9581197671025
 30
0.0
 10
329.9462078047613
 20
-308.929997113285
 30
0.0
 10
329.9729967826477
 20
-308.8782730538686
 30
0.0
 10
329.9916071809621
 20
-308.85467164827
 30
0.0
 10
330.0602875477998
 20
-308.7959237592659
 30
0.0
 10
330.1225697257054
 20
-308.7733784493237
 30
0.0
 10
330.1854783116293
 20
-308.7733453487788
 30
0.0
  0
LINE
  5
296
330
1F
100
AcDbEntity
  8
0
  6
Continuous
 62
     7
370
    15
100
AcDbLine
 10
330.2164479125
 20
-308.8877461468
 30
0.0
 11
330.1857980866
 21
-308.8877461468
 31
0.0
  0
SPLINE
  5
297
330
1F
100
AcDbEntity
  8
0
  6
Continuous
 62
     7
370
    15
100
AcDbSpline
210
0.0
220
0.0
230
1.0
 70
     8
 71
     3
 72
    14
 73
    10
 74
     0
 42
0.00000001
 43
0.00000001
 40
0.0
 40
0.0
 40
0.0
 40
0.0
 40
0.0450046335632574
 40
0.1924562947959062
 40
0.4101047562901959
 40
0.6281116582503748
 40
0.8446500273436243
 40
0.9597654339749144
 40
0.9999999999999999
 40
0.9999999999999999
 40
0.9999999999999999
 40
0.9999999999999999
 10
329.6685266274689
 20
-326.3502083336218
 30
0.0
 10
329.6485836310782
 20
-326.3389256867871
 30
0.0
 10
329.5633000749509
 20
-326.2906769569702
 30
0.0
 10
329.3473419500948
 20
-326.2746727948885
 30
0.0
 10
329.0771644594261
 20
-326.2789492300304
 30
0.0
 10
328.841595875352
 20
-326.324872294271
 30
0.0
 10
328.7290777623468
 20
-326.3650235117448
 30
0.0
 10
328.7025495609909
 20
-326.3608545391498
 30
0.0
 10
328.701416268553
 20
-326.3356626232741
 30
0.0
 10
328.7011227536676
 20
-326.3291380916937
 30
0.0
  0
SPLINE
  5
298
330
1F
100
AcDbEntity
  8
0
  6
Continuous
 62
     7
370
    15
100
AcDbSpline
210
0.0
220
0.0
230
1.0
 70
     8
 71
     3
 72
    10
 73
     6
 74
     0
 42
0.00000001
 43
0.00000001
 40
0.0
 40
0.0
 40
0.0
 40
0.0
 40
0.2799063206824757
 40
0.5601529559777826
 40
1.0
 40
1.0
 40
1.0
 40
1.0
 10
330.1857980865715
 20
-308.8877461468085
 30
0.0
 10
330.1081054346068
 20
-310.5165072475195
 30
0.0
 10
329.9526256707
 20
-313.7760097229204
 30
0.0
 10
330.0138443878587
 20
-319.6010414694554
 30
0.0
 10
329.799470384421
 20
-323.7909386786441
 30
0.0
 10
329.6685266274689
 20
-326.3502083336218
 30
0.0
  0
SPLINE
  5
299
330
1F
100
AcDbEntity
  8
0
  6
Continuous
 62
     7
370
    15
100
AcDbSpline
210
0.0
220
0.0
230
1.0
 70
     8
 71
     3
 72
    15
 73
    11
 74
     0
 42
0.00000001
 43
0.00000001
 40
0.0
 40
0.0
 40
0.0
 40
0.0
 40
0.0802878236330864
 40
0.2296508321772465
 40
0.4389327722993881
 40
0.6497304052878264
 40
0.8665100383473174
 40
0.9462850562418113
 40
0.9895220387239355
 40
1.0
 40
1.0
 40
1.0
 40
1.0
 10
331.7011232454059
 20
-326.3291380916937
 30
0.0
 10
331.6999245207297
 20
-326.3401423478619
 30
0.0
 10
331.6964957552331
 20
-326.3716183111168
 30
0.0
 10
331.6437083952974
 20
-326.3517490821633
 30
0.0
 10
331.4965618054243
 20
-326.3094088923391
 30
0.0
 10
331.2444776664173
 20
-326.2732004839523
 30
0.0
 10
330.9944470621131
 20
-326.2739692288483
 30
0.0
 10
330.8248370905337
 20
-326.3067682071633
 30
0.0
 10
330.7590750279668
 20
-326.3303627481835
 30
0.0
 10
330.7378580779828
 20
-326.3469690149523
 30
0.0
 10
330.7337193716047
 20
-326.3502083336218
 30
0.0
  0
SPLINE
  5
29A
330
1F
100
AcDbEntity
  8
0
  6
Continuous
 62
     7
370
    15
100
AcDbSpline
210
0.0
220
0.0
230
1.0
 70
     8
 71
     3
 72
     9
 73
     5
 74
     0
 42
0.00000001
 43
0.00000001
 40
0.0
 40
0.0
 40
0.0
 40
0.0
 40
0.559964576251893
 40
1.0
 40
1.0
 40
1.0
 40
1.0
 10
330.7337193716047
 20
-326.3502083336218
 30
0.0
 10
330.6272319675874
 20
-323.0909877511093
 30
0.0
 10
330.4370638595792
 20
-317.2705828170544
 30
0.0
 10
330.2838621095119
 20
-311.4493116649689
 30
0.0
 10
330.2164479125021
 20
-308.8877461468085
 30
0.0
  0
SPLINE
  5
29B
330
1F
100
AcDbEntity
  8
0
  6
Continuous
 62
     7
370
    15
100
AcDbSpline
210
0.0
220
0.0
230
1.0
 70
     8
 71
     3
 72
     9
 73
     5
 74
     0
 42
0.00000001
 43
0.00000001
 40
0.0
 40
0.0
 40
0.0
 40
0.0
 40
0.1374001468614299
 40
1.0
 40
1.0
 40
1.0
 40
1.0
 10
330.7011230814932
 20
-326.3792357956274
 30
0.0
 10
330.702613645296
 20
-326.3779044889408
 30
0.0
 10
330.7134619874331
 20
-326.3682152221015
 30
0.0
 10
330.724337852229
 20
-326.3585476123627
 30
0.0
 10
330.7337193716047
 20
-326.3502083336218
 30
0.0
  0
LINE
  5
29C
330
1F
100
AcDbEntity
  8
0
  6
Continuous
 62
     7
370
    15
100
AcDbLine
 10
329.7011229176
 20
-326.3792357956
 30
0.0
 11
330.7011230815
 21
-326.3792357956
 31
0.0
  0
SPLINE
  5
29D
330
1F
100
AcDbEntity
  8
0
  6
Continuous
 62
     7
370
    15
100
AcDbSpline
210
0.0
220
0.0
230
1.0
 70
     8
 71
     3
 72
     9
 73
     5
 74
     0
 42
0.00000001
 43
0.00000001
 40
0.0
 40
0.0
 40
0.0
 40
0.0
 40
0.86259985313857
 40
1.0
 40
1.0
 40
1.0
 40
1.0
 10
329.6685266274689
 20
-326.3502083336218
 30
0.0
 10
329.6779081468446
 20
-326.3585476123627
 30
0.0
 10
329.6887840116405
 20
-326.3682152221017
 30
0.0
 10
329.6996323537776
 20
-326.3779044889408
 30
0.0
 10
329.7011229175804
 20
-326.3792357956274
 30
0.0
  0
SPLINE
  5
29E
330
1F
100
AcDbEntity
  8
0
  6
Continuous
 62
     7
370
    15
100
AcDbSpline
210
0.0
220
0.0
230
1.0
 70
     8
 71
     3
 72
    12
 73
     8
 74
     0
 42
0.00000001
 43
0.00000001
 40
0.0
 40
0.0
 40
0.0
 40
0.0
 40
0.030469081554357
 40
0.088818602226015
 40
0.3925568503891171
 40
0.6962789438666733
 40
1.0
 40
1.0
 40
1.0
 40
1.0
 10
346.0349581170557
 20
-308.8815770660743
 30
0.0
 10
346.0386507680176
 20
-308.8818176216998
 30
0.0
 10
346.0494149945782
 20
-308.8825188510557
 30
0.0
 10
346.0928328217597
 20
-308.8786616680474
 30
0.0
 10
346.1405927503995
 20
-308.8297454281408
 30
0.0
 10
346.1425146934467
 20
-308.6761222766027
 30
0.0
 10
346.0884830556049
 20
-308.5173139302598
 30
0.0
 10
346.0614672828195
 20
-308.4379098926886
 30
0.0
  0
SPLINE
  5
29F
330
1F
100
AcDbEntity
  8
0
  6
Continuous
 62
     7
370
    15
100
AcDbSpline
210
0.0
220
0.0
230
1.0
 70
     8
 71
     3
 72
    12
 73
     8
 74
     0
 42
0.00000001
 43
0.00000001
 40
0.0
 40
0.0
 40
0.0
 40
0.0
 40
0.0304688284299697
 40
0.0888181362487165
 40
0.3925566765001733
 40
0.6962789859226488
 40
1.0
 40
1.0
 40
1.0
 40
1.0
 10
314.367286485034
 20
-308.8815770660742
 30
0.0
 10
314.3635941649459
 20
-308.8818176215557
 30
0.0
 10
314.3528308699468
 20
-308.8825188526382
 30
0.0
 10
314.3094146747643
 20
-308.8786616323748
 30
0.0
 10
314.2616520262862
 20
-308.8297454362499
 30
0.0
 10
314.259733687118
 20
-308.6761223748643
 30
0.0
 10
314.3137637449476
 20
-308.5173139405301
 30
0.0
 10
314.340778716254
 20
-308.4379098926886
 30
0.0
  0
SPLINE
  5
2A0
330
1F
100
AcDbEntity
  8
0
  6
Continuous
 62
     7
370
    15
100
AcDbSpline
210
0.0
220
0.0
230
1.0
 70
     8
 71
     3
 72
    10
 73
     6
 74
     0
 42
0.00000001
 43
0.00000001
 40
0.0
 40
0.0
 40
0.0
 40
0.0
 40
0.5
 40
0.5
 40
1.0
 40
1.0
 40
1.0
 40
1.0
 10
314.3672862683196
 20
-308.8815756616641
 30
0.0
 10
314.1351871536214
 20
-308.7289300727439
 30
0.0
 10
313.898139045547
 20
-308.6137233168259
 30
0.0
 10
313.4279736079857
 20
-308.4601964711983
 30
0.0
 10
313.2058252976674
 20
-308.4248653898566
 30
0.0
 10
312.9958385287877
 20
-308.4248653898566
 30
0.0
  0
ARC
  5
2A1
330
1F
100
AcDbEntity
  8
0
  6
Continuous
 62
     7
370
    15
100
AcDbCircle
 10
313.1267141987
 20
-307.7288022691
 30
0.0
 40
0.7082512914955039
100
AcDbArc
 50
185.4659273788
 51
259.3512848404
  0
ARC
  5
2A2
330
1F
100
AcDbEntity
  8
0
  6
Continuous
 62
     7
370
    15
100
AcDbCircle
 10
347.2755327033
 20
-307.7288044293
 30
0.0
 40
0.7082492597795763
100
AcDbArc
 50
280.6487867286
 51
354.5342324477
  0
SPLINE
  5
2A3
330
1F
100
AcDbEntity
  8
0
  6
Continuous
 62
     7
370
    15
100
AcDbSpline
210
0.0
220
0.0
230
1.0
 70
     8
 71
     3
 72
    10
 73
     6
 74
     0
 42
0.00000001
 43
0.00000001
 40
0.0
 40
0.0
 40
0.0
 40
0.0
 40
0.5
 40
0.5
 40
1.0
 40
1.0
 40
1.0
 40
1.0
 10
347.4064072763324
 20
-308.4248653898566
 30
0.0
 10
347.1964205074527
 20
-308.4248653898564
 30
0.0
 10
346.9742721971344
 20
-308.4601964711982
 30
0.0
 10
346.5041067595731
 20
-308.6137233168259
 30
0.0
 10
346.2670586514988
 20
-308.728930072744
 30
0.0
 10
346.0349595368005
 20
-308.8815756616641
 30
0.0
  0
LINE
  5
2A4
330
1F
100
AcDbEntity
  8
0
  6
Continuous
 62
     7
370
    15
100
AcDbLine
 10
318.575242624
 20
-327.5581560646
 30
0.0
 11
318.5741948861
 21
-327.5480530774
 31
0.0
  0
LINE
  5
2A5
330
1F
100
AcDbEntity
  8
0
  6
Continuous
 62
     7
370
    15
100
AcDbLine
 10
312.9958385568
 20
-308.4248564755
 30
0.0
 11
302.3781558465
 21
-308.4248564755
 31
0.0
  0
LINE
  5
2A6
330
1F
100
AcDbEntity
  8
0
  6
Continuous
 62
     7
370
    15
100
AcDbLine
 10
358.0240896869
 20
-308.4248564755
 30
0.0
 11
347.4064088393
 21
-308.4248564755
 31
0.0
  0
LINE
  5
2A7
330
1F
100
AcDbEntity
  8
0
  6
Continuous
 62
     7
370
    15
100
AcDbLine
 10
329.7011229176
 20
-326.9248567139
 30
0.0
 11
329.7011229176
 21
-326.3792357956
 31
0.0
  0
ARC
  5
2A8
330
1F
100
AcDbEntity
  8
0
  6
Continuous
 62
     7
370
    15
100
AcDbCircle
 10
329.7011229026
 20
-327.9248653899
 30
0.0
 40
1.0
100
AcDbArc
 50
90.0
 51
180.0
  0
ARC
  5
2A9
330
1F
100
AcDbEntity
  8
0
  6
Continuous
 62
     7
370
    15
100
AcDbCircle
 10
330.7011229026
 20
-327.9248653899
 30
0.0
 40
1.0
100
AcDbArc
 50
0.0
 51
90.0
  0
LINE
  5
2AA
330
1F
100
AcDbEntity
  8
0
  6
Continuous
 62
     7
370
    15
100
AcDbLine
 10
330.7011230815
 20
-326.3792357956
 30
0.0
 11
330.7011230815
 21
-326.9248567139
 31
0.0
  0
ARC
  5
2AB
330
1F
100
AcDbEntity
  8
0
  6
Continuous
 62
     7
370
    15
100
AcDbCircle
 10
340.6913533726
 20
-327.7795484134
 30
0.0
 40
0.6613146825984861
100
AcDbArc
 50
282.6274912655
 51
355.1702248044
  0
LINE
  5
2AC
330
1F
100
AcDbEntity
  8
0
  6
Continuous
 62
     7
370
    15
100
AcDbLine
 10
340.8359243501
 20
-328.4248672043
 30
0.0
 11
331.7011232454
 21
-328.4248672043
 31
0.0
  0
SPLINE
  5
2AD
330
1F
100
AcDbEntity
  8
0
  6
Continuous
 62
     7
370
    15
100
AcDbSpline
210
0.0
220
0.0
230
1.0
 70
    24
 71
     3
 72
    12
 73
     8
 74
     0
 42
0.00000001
 43
0.00000001
 40
0.0
 40
0.0
 40
0.0
 40
0.0
 40
0.2500000000000349
 40
0.2500000000000349
 40
0.5000000000000698
 40
0.5000000000000698
 40
1.0
 40
1.0
 40
1.0
 40
1.0
 10
331.70112290256
 20
-328.4248653898565
 30
0.0
 10
331.70112290256
 20
-328.4248653898566
 30
0.0
 10
331.70112290256
 20
-328.411216497828
 30
0.0
 10
331.70112290256
 20
-328.3571969429858
 30
0.0
 10
331.70112290256
 20
-328.3169378928353
 30
0.0
 10
331.70112290256
 20
-328.1619811079722
 30
0.0
 10
331.70112290256
 20
-328.0114925240997
 30
0.0
 10
331.70112290256
 20
-327.8352300671853
 30
0.0
  0
LINE
  5
2AE
330
1F
100
AcDbEntity
  8
0
  6
Continuous
 62
     7
370
    15
100
AcDbLine
 10
328.7011227537
 20
-328.4248672043
 30
0.0
 11
319.5663197864
 21
-328.4248672043
 31
0.0
  0
ARC
  5
2AF
330
1F
100
AcDbEntity
  8
0
  6
Continuous
 62
     7
370
    15
100
AcDbCircle
 10
319.7108907638
 20
-327.7795484134
 30
0.0
 40
0.661314682598554
100
AcDbArc
 50
184.8297751956
 51
257.3725087345
  0
SPLINE
  5
2B0
330
1F
100
AcDbEntity
  8
0
  6
Continuous
 62
     7
370
    15
100
AcDbSpline
210
0.0
220
0.0
230
1.0
 70
    24
 71
     3
 72
    10
 73
     6
 74
     0
 42
0.00000001
 43
0.00000001
 40
0.0
 40
0.0
 40
0.0
 40
0.0
 40
0.5
 40
0.5
 40
1.0
 40
1.0
 40
1.0
 40
1.0
 10
328.70112290256
 20
-327.8352300671853
 30
0.0
 10
328.70112290256
 20
-328.0114822047819
 30
0.0
 10
328.70112290256
 20
-328.1608242867042
 30
0.0
 10
328.70112290256
 20
-328.3679974298588
 30
0.0
 10
328.70112290256
 20
-328.4248653898566
 30
0.0
 10
328.70112290256
 20
-328.4248653898566
 30
0.0
  0
LINE
  5
2B1
330
1F
100
AcDbEntity
  8
0
  6
Continuous
 62
     7
370
    15
100
AcDbLine
 10
330.7011230815
 20
-326.9248567139
 30
0.0
 11
329.7011229176
 21
-326.9248567139
 31
0.0
  0
LINE
  5
2B2
330
1F
100
AcDbEntity
  8
0
  6
Continuous
 62
     7
370
    15
100
AcDbLine
 10
331.7011232454
 20
-327.9248736416
 30
0.0
 11
328.7011227537
 21
-327.9248736416
 31
0.0
  0
LINE
  5
2B3
330
1F
100
AcDbEntity
  8
0
  6
Continuous
 62
     7
370
    15
100
AcDbLine
 10
328.7011227537
 20
-328.4248672043
 30
0.0
 11
331.7011232454
 21
-328.4248672043
 31
0.0
  0
LINE
  5
2B4
330
1F
100
AcDbEntity
  8
0
  6
Continuous
 62
     7
370
    15
100
AcDbLine
 10
676.5011093545
 20
-172.5248656784
 30
0.0
 11
675.3011188436
 21
-172.5248656784
 31
0.0
  0
LINE
  5
2B5
330
1F
100
AcDbEntity
  8
0
  6
Continuous
 62
     7
370
    15
100
AcDbLine
 10
676.5011093545
 20
-263.5248563801
 30
0.0
 11
675.3011188436
 21
-263.5248563801
 31
0.0
  0
LINE
  5
2B6
330
1F
100
AcDbEntity
  8
0
  6
Continuous
 62
     7
370
    15
100
AcDbLine
 10
676.5011093545
 20
-263.5248563801
 30
0.0
 11
676.5011093545
 21
-172.5248656784
 31
0.0
  0
LINE
  5
2B7
330
1F
100
AcDbEntity
  8
0
  6
Continuous
 62
     7
370
    15
100
AcDbLine
 10
676.5011093545
 20
-170.5248616253
 30
0.0
 11
675.3011188436
 21
-170.5248616253
 31
0.0
  0
LINE
  5
2B8
330
1F
100
AcDbEntity
  8
0
  6
Continuous
 62
     7
370
    15
100
AcDbLine
 10
676.5011093545
 20
-172.5248656784
 30
0.0
 11
676.5011093545
 21
-170.5248616253
 31
0.0
  0
LINE
  5
2B9
330
1F
100
AcDbEntity
  8
0
  6
Continuous
 62
     7
370
    15
100
AcDbLine
 10
676.5011093545
 20
-286.5248582875
 30
0.0
 11
676.5011093545
 21
-263.5248563801
 31
0.0
  0
LINE
  5
2BA
330
1F
100
AcDbEntity
  8
0
  6
Continuous
 62
     7
370
    15
100
AcDbLine
 10
672.5011310506
 20
-164.0748642002
 30
0.0
 11
-219.4988586974
 21
-164.0748642002
 31
0.0
  0
LINE
  5
2BB
330
1F
100
AcDbEntity
  8
0
  6
Continuous
 62
     7
370
    15
100
AcDbLine
 10
672.5011310506
 20
-166.5248535191
 30
0.0
 11
-219.4988586974
 21
-166.5248535191
 31
0.0
  0
LINE
  5
2BC
330
1F
100
AcDbEntity
  8
0
  6
Continuous
 62
     7
370
    15
100
AcDbLine
 10
-219.4988586974
 20
-166.5248535191
 30
0.0
 11
-219.4988586974
 21
-164.0748642002
 31
0.0
  0
LINE
  5
2BD
330
1F
100
AcDbEntity
  8
0
  6
Continuous
 62
     7
370
    15
100
AcDbLine
 10
672.5011310506
 20
-164.0748642002
 30
0.0
 11
672.5011310506
 21
-166.5248535191
 31
0.0
  0
LINE
  5
2BE
330
1F
100
AcDbEntity
  8
0
  6
Continuous
 62
     7
370
    15
100
AcDbLine
 10
672.5011310506
 20
-190.1102922474
 30
0.0
 11
672.5011310506
 21
-166.5248535191
 31
0.0
  0
LINE
  5
2BF
330
1F
100
AcDbEntity
  8
0
  6
Continuous
 62
     7
370
    15
100
AcDbLine
 10
-219.4988586974
 20
-190.1102922474
 30
0.0
 11
672.5011310506
 21
-190.1102922474
 31
0.0
  0
LINE
  5
2C0
330
1F
100
AcDbEntity
  8
0
  6
Continuous
 62
     7
370
    15
100
AcDbLine
 10
-219.4988586974
 20
-166.5248535191
 30
0.0
 11
-219.4988586974
 21
-190.1102922474
 31
0.0
  0
LINE
  5
2C1
330
1F
100
AcDbEntity
  8
0
  6
Continuous
 62
     7
370
    15
100
AcDbLine
 10
672.5011310506
 20
-190.1102922474
 30
0.0
 11
672.5011310506
 21
-190.7443962609
 31
0.0
  0
LINE
  5
2C2
330
1F
100
AcDbEntity
  8
0
  6
Continuous
 62
     7
370
    15
100
AcDbLine
 10
672.5011310506
 20
-190.7443962609
 30
0.0
 11
-219.4988586974
 21
-190.7443962609
 31
0.0
  0
LINE
  5
2C3
330
1F
100
AcDbEntity
  8
0
  6
Continuous
 62
     7
370
    15
100
AcDbLine
 10
-219.4988586974
 20
-190.7443962609
 30
0.0
 11
-219.4988586974
 21
-190.1102922474
 31
0.0
  0
ARC
  5
2C4
330
1F
100
AcDbEntity
  8
0
  6
Continuous
 62
     7
370
    15
100
AcDbCircle
 10
667.5848727514
 20
-193.3965354843
 30
0.0
 40
4.917022630577228
100
AcDbArc
 50
269.0242052728
 51
358.9897403843
  0
LINE
  5
2C5
330
1F
100
AcDbEntity
  8
0
  6
Continuous
 62
     7
370
    15
100
AcDbLine
 10
667.501135819
 20
-198.3128450428
 30
0.0
 11
-214.4988634657
 21
-198.3128450428
 31
0.0
  0
ARC
  5
2C6
330
1F
100
AcDbEntity
  8
0
  6
Continuous
 62
     7
370
    15
100
AcDbCircle
 10
-214.5826747644
 20
-193.396612474
 30
0.0
 40
4.916946919072841
100
AcDbArc
 50
181.0093778949
 51
270.976676448
  0
LINE
  5
2C7
330
1F
100
AcDbEntity
  8
0
  6
Continuous
 62
     7
370
    15
100
AcDbLine
 10
672.5011310506
 20
-190.7443962609
 30
0.0
 11
672.5011310506
 21
-193.4832296883
 31
0.0
  0
LINE
  5
2C8
330
1F
100
AcDbEntity
  8
0
  6
Continuous
 62
     7
370
    15
100
AcDbLine
 10
-219.4988586974
 20
-193.4832296883
 30
0.0
 11
-219.4988586974
 21
-190.7443962609
 31
0.0
  0
LINE
  5
2C9
330
1F
100
AcDbEntity
  8
0
  6
Continuous
 62
     8
370
    15
100
AcDbLine
 10
457.9805574346
 20
-307.7962658917
 30
0.0
 11
468.9525655437
 21
-307.7962658917
 31
0.0
  0
LINE
  5
2CA
330
1F
100
AcDbEntity
  8
0
  6
Continuous
 62
     8
370
    15
100
AcDbLine
 10
411.4496774006
 20
-307.7962658917
 30
0.0
 11
422.4216855097
 21
-307.7962658917
 31
0.0
  0
LWPOLYLINE
  5
2CB
330
1F
100
AcDbEntity
  8
0
  6
Continuous
 62
     8
370
    15
100
AcDbPolyline
 90
        7
 70
   128
 43
0.0
 10
426.0531729985
 20
-311.5257285153
 10
426.0713226128
 20
-311.5793428933
 10
426.120846622
 20
-311.6369805848
 10
426.1991522241
 20
-311.6857669865
 10
426.303788178
 20
-311.7241821801
 10
426.4314762283
 20
-311.7510042702
 10
426.578200512
 20
-311.7654285942
  0
LWPOLYLINE
  5
2CC
330
1F
100
AcDbEntity
  8
0
  6
Continuous
 62
     8
370
    15
100
AcDbPolyline
 90
        7
 70
   128
 43
0.0
 10
454.3482801843
 20
-311.5309141194
 10
454.3309203315
 20
-311.5793428933
 10
454.2814037729
 20
-311.6369805848
 10
454.2030981708
 20
-311.6857669865
 10
454.0984473157
 20
-311.7241821801
 10
453.9707741666
 20
-311.7510042702
 10
453.8240424324
 20
-311.7654285942
  0
LWPOLYLINE
  5
2CD
330
1F
100
AcDbEntity
  8
0
  6
Continuous
 62
     8
370
    15
100
AcDbPolyline
 90
        8
 70
   128
 43
0.0
 10
429.0519273806
 20
-327.8352282559
 10
428.9263403941
 20
-327.8117440258
 10
428.8162878681
 20
-327.7788720642
 10
428.7244296599
 20
-327.7374170338
 10
428.6530009437
 20
-327.6883922135
 10
428.6037228036
 20
-327.6329598938
 10
428.5778022337
 20
-327.5724611794
 10
428.575239234
 20
-327.5581560646
  0
ARC
  5
2CE
330
1F
100
AcDbEntity
  8
0
  6
Continuous
 62
     8
370
    15
100
AcDbCircle
 10
451.3749482758
 20
-327.3291858928
 30
0.0
 40
0.5066415337724862
100
AcDbArc
 50
267.2132030674
 51
333.1659557622
  0
LINE
  5
2CF
330
1F
100
AcDbEntity
  8
0
  6
Continuous
 62
     8
370
    15
100
AcDbLine
 10
673.501118176
 20
-167.3248670613
 30
0.0
 11
672.5011310506
 21
-167.3248670613
 31
0.0
  0
LINE
  5
2D0
330
1F
100
AcDbEntity
  8
0
  6
Continuous
 62
     8
370
    15
100
AcDbLine
 10
-219.4988586974
 20
-167.3248670613
 30
0.0
 11
-220.4989054274
 21
-167.3248670613
 31
0.0
  0
LINE
  5
2D1
330
1F
100
AcDbEntity
  8
0
  6
Continuous
 62
     8
370
    15
100
AcDbLine
 10
567.9805717397
 20
-307.7962658917
 30
0.0
 11
578.9525649477
 21
-307.7962658917
 31
0.0
  0
LINE
  5
2D2
330
1F
100
AcDbEntity
  8
0
  6
Continuous
 62
     8
370
    15
100
AcDbLine
 10
521.4496842552
 20
-307.7962658917
 30
0.0
 11
532.4216774631
 21
-307.7962658917
 31
0.0
  0
LWPOLYLINE
  5
2D3
330
1F
100
AcDbEntity
  8
0
  6
Continuous
 62
     8
370
    15
100
AcDbPolyline
 90
        7
 70
   128
 43
0.0
 10
536.053179853
 20
-311.5257285153
 10
536.0713294673
 20
-311.5793428933
 10
536.120846026
 20
-311.6369805848
 10
536.1991516281
 20
-311.6857669865
 10
536.303787582
 20
-311.7241821801
 10
536.4314756322
 20
-311.7510042702
 10
536.5782073665
 20
-311.7654285942
  0
LWPOLYLINE
  5
2D4
330
1F
100
AcDbEntity
  8
0
  6
Continuous
 62
     8
370
    15
100
AcDbPolyline
 90
        7
 70
   128
 43
0.0
 10
564.3482944894
 20
-311.5309141194
 10
564.3309197355
 20
-311.5793428933
 10
564.2813882757
 20
-311.6369805848
 10
564.2030975748
 20
-311.6857669865
 10
564.0984616209
 20
-311.7241821801
 10
563.9707586694
 20
-311.7510042702
 10
563.8240418363
 20
-311.7654285942
  0
LWPOLYLINE
  5
2D5
330
1F
100
AcDbEntity
  8
0
  6
Continuous
 62
     8
370
    15
100
AcDbPolyline
 90
        8
 70
   128
 43
0.0
 10
539.051919334
 20
-327.8352282559
 10
538.9263472486
 20
-327.8117440258
 10
538.816287272
 20
-327.7788720642
 10
538.7244365144
 20
-327.7374170338
 10
538.6530003477
 20
-327.6883922135
 10
538.6037222076
 20
-327.6329598938
 10
538.5778090883
 20
-327.5724611794
 10
538.5752460886
 20
-327.5581560646
  0
ARC
  5
2D6
330
1F
100
AcDbEntity
  8
0
  6
Continuous
 62
     8
370
    15
100
AcDbCircle
 10
561.3749242431
 20
-327.3291199943
 30
0.0
 40
0.5067054920809707
100
AcDbArc
 50
267.2178952805
 51
333.1612635491
  0
LINE
  5
2D7
330
1F
100
AcDbEntity
  8
0
  6
Continuous
 62
     8
370
    15
100
AcDbLine
 10
675.3011188436
 20
-172.724869064
 30
0.0
 11
672.5011310506
 21
-172.724869064
 31
0.0
  0
LINE
  5
2D8
330
1F
100
AcDbEntity
  8
0
  6
Continuous
 62
     8
370
    15
100
AcDbLine
 10
-219.4988586974
 20
-172.724869064
 30
0.0
 11
-222.298906095
 21
-172.724869064
 31
0.0
  0
LINE
  5
2D9
330
1F
100
AcDbEntity
  8
0
  6
Continuous
 62
     8
370
    15
100
AcDbLine
 10
674.0511200357
 20
417.4838997806
 30
0.0
 11
674.0511200357
 21
424.8251356567
 31
0.0
  0
LINE
  5
2DA
330
1F
100
AcDbEntity
  8
0
  6
Continuous
 62
     8
370
    15
100
AcDbLine
 10
-221.0488774848
 20
424.8251356567
 30
0.0
 11
-221.0488774848
 21
417.4838997806
 31
0.0
  0
LINE
  5
2DB
330
1F
100
AcDbEntity
  8
0
  6
Continuous
 62
     8
370
    15
100
AcDbLine
 10
674.0511200357
 20
-169.7748563801
 30
0.0
 11
674.0511200357
 21
-170.2748797451
 31
0.0
  0
LINE
  5
2DC
330
1F
100
AcDbEntity
  8
0
  6
Continuous
 62
     8
370
    15
100
AcDbLine
 10
-221.0488774848
 20
-170.2748797451
 30
0.0
 11
-221.0488774848
 21
-169.7748563801
 31
0.0
  0
LINE
  5
2DD
330
1F
100
AcDbEntity
  8
0
  6
Continuous
 62
     8
370
    15
100
AcDbLine
 10
347.9805617559
 20
-307.7962658917
 30
0.0
 11
358.9525661397
 21
-307.7962658917
 31
0.0
  0
LINE
  5
2DE
330
1F
100
AcDbEntity
  8
0
  6
Continuous
 62
     8
370
    15
100
AcDbLine
 10
301.4496793937
 20
-307.7962658917
 30
0.0
 11
312.4216833118
 21
-307.7962658917
 31
0.0
  0
LWPOLYLINE
  5
2DF
330
1F
100
AcDbEntity
  8
0
  6
Continuous
 62
     8
370
    15
100
AcDbPolyline
 90
        7
 70
   128
 43
0.0
 10
344.3482807804
 20
-311.5309141194
 10
344.3309209276
 20
-311.5793428933
 10
344.2814006436
 20
-311.6369805848
 10
344.2030913163
 20
-311.6857669865
 10
344.0984553624
 20
-311.7241821801
 10
343.9707673121
 20
-311.7510042702
 10
343.8240430284
 20
-311.7654285942
  0
LWPOLYLINE
  5
2E0
330
1F
100
AcDbEntity
  8
0
  6
Continuous
 62
     8
370
    15
100
AcDbPolyline
 90
        7
 70
   128
 43
0.0
 10
316.0531763885
 20
-311.5257285153
 10
316.0713250715
 20
-311.5793428933
 10
316.1208462868
 20
-311.6369805848
 10
316.1991537515
 20
-311.6857669865
 10
316.303791568
 20
-311.7241821801
 10
316.4314768243
 20
-311.7510042702
 10
316.5782029707
 20
-311.7654285942
  0
LWPOLYLINE
  5
2E1
330
1F
100
AcDbEntity
  8
0
  6
Continuous
 62
     8
370
    15
100
AcDbPolyline
 90
        8
 70
   128
 43
0.0
 10
319.0519242514
 20
-327.8352282559
 10
318.9263437841
 20
-327.8117440258
 10
318.8162893954
 20
-327.7788720642
 10
318.7244321186
 20
-327.7374170338
 10
318.6529987458
 20
-327.6883922135
 10
318.6037233997
 20
-327.6329598938
 10
318.5778018985
 20
-327.5724611794
 10
318.575242624
 20
-327.5581560646
  0
ARC
  5
2E2
330
1F
100
AcDbEntity
  8
0
  6
Continuous
 62
     8
370
    15
100
AcDbCircle
 10
341.3749347119
 20
-327.3291551501
 30
0.0
 40
0.5066713708996644
100
AcDbArc
 50
267.2153922055
 51
333.1637666241
  0
ENDSEC
  0
SECTION
  2
OBJECTS
  0
DICTIONARY
  5
C
330
0
100
AcDbDictionary
281
     1
  3
ACAD_GROUP
350
D
  3
ACAD_LAYOUT
350
1A
  3
ACAD_MATERIAL
350
3B
  3
ACAD_MLEADERSTYLE
350
2E4
  3
ACAD_MLINESTYLE
350
17
  3
ACAD_PLOTSETTINGS
350
19
  3
ACAD_PLOTSTYLENAME
350
E
  3
ACAD_TABLESTYLE
350
2E3
  3
ACAD_VISUALSTYLE
350
2A
  0
DICTIONARY
  5
D
102
{ACAD_REACTORS
330
C
102
}
330
C
100
AcDbDictionary
281
     1
  0
DICTIONARY
  5
1A
102
{ACAD_REACTORS
330
C
102
}
330
C
100
AcDbDictionary
281
     1
  3
Layout1
350
1E
  3
Layout2
350
26
  3
Model
350
22
  0
DICTIONARY
  5
3B
102
{ACAD_REACTORS
330
C
102
}
330
C
100
AcDbDictionary
281
     1
  3
ByBlock
350
3D
  3
ByLayer
350
3C
  3
Global
350
3E
  0
DICTIONARY
  5
2E4
102
{ACAD_REACTORS
330
C
102
}
330
C
100
AcDbDictionary
281
     1
  0
DICTIONARY
  5
17
102
{ACAD_REACTORS
330
C
102
}
330
C
100
AcDbDictionary
281
     1
  3
Standard
350
18
  0
DICTIONARY
  5
19
102
{ACAD_REACTORS
330
C
102
}
330
C
100
AcDbDictionary
281
     1
  0
ACDBDICTIONARYWDFLT
  5
E
102
{ACAD_REACTORS
330
C
102
}
330
C
100
AcDbDictionary
281
     1
  3
Normal
350
F
100
AcDbDictionaryWithDefault
340
F
  0
DICTIONARY
  5
2E3
102
{ACAD_REACTORS
330
C
102
}
330
C
100
AcDbDictionary
281
     1
  0
DICTIONARY
  5
2A
102
{ACAD_REACTORS
330
C
102
}
330
C
100
AcDbDictionary
281
     1
  3
2dWireframe
350
2F
  3
3D Hidden
350
31
  3
3dWireframe
350
30
  3
Basic
350
32
  3
Brighten
350
36
  3
ColorChange
350
3A
  3
Conceptual
350
34
  3
Dim
350
35
  3
Facepattern
350
39
  3
Flat
350
2B
  3
FlatWithEdges
350
2C
  3
Gouraud
350
2D
  3
GouraudWithEdges
350
2E
  3
Linepattern
350
38
  3
Realistic
350
33
  3
Thicken
350
37
  0
LAYOUT
  5
1E
102
{ACAD_REACTORS
330
1A
102
}
330
1A
100
AcDbPlotSettings
  1

  2
none_device
  4

  6

 40
0.0
 41
0.0
 42
0.0
 43
0.0
 44
0.0
 45
0.0
 46
0.0
 47
0.0
 48
0.0
 49
0.0
140
0.0
141
0.0
142
1.0
143
1.0
 70
   688
 72
     0
 73
     0
 74
     5
  7

 75
    16
 76
     0
 77
     2
 78
   300
147
1.0
148
0.0
149
0.0
100
AcDbLayout
  1
Layout1
 70
     1
 71
     1
 10
0.0
 20
0.0
 11
420.0
 21
297.0
 12
0.0
 22
0.0
 32
0.0
 14
1.0000000000E+20
 24
1.0000000000E+20
 34
1.0000000000E+20
 15
-1.0000000000E+20
 25
-1.0000000000E+20
 35
-1.0000000000E+20
146
0.0
 13
0.0
 23
0.0
 33
0.0
 16
1.0
 26
0.0
 36
0.0
 17
0.0
 27
1.0
 37
0.0
 76
     0
330
1B
  0
LAYOUT
  5
26
102
{ACAD_REACTORS
330
1A
102
}
330
1A
100
AcDbPlotSettings
  1

  2
none_device
  4

  6

 40
0.0
 41
0.0
 42
0.0
 43
0.0
 44
0.0
 45
0.0
 46
0.0
 47
0.0
 48
0.0
 49
0.0
140
0.0
141
0.0
142
1.0
143
1.0
 70
   688
 72
     0
 73
     0
 74
     5
  7

 75
    16
 76
     0
 77
     2
 78
   300
147
1.0
148
0.0
149
0.0
100
AcDbLayout
  1
Layout2
 70
     1
 71
     2
 10
0.0
 20
0.0
 11
0.0
 21
0.0
 12
0.0
 22
0.0
 32
0.0
 14
0.0
 24
0.0
 34
0.0
 15
0.0
 25
0.0
 35
0.0
146
0.0
 13
0.0
 23
0.0
 33
0.0
 16
1.0
 26
0.0
 36
0.0
 17
0.0
 27
1.0
 37
0.0
 76
     0
330
23
  0
LAYOUT
  5
22
102
{ACAD_REACTORS
330
1A
102
}
330
1A
100
AcDbPlotSettings
  1

  2
none_device
  4

  6

 40
0.0
 41
0.0
 42
0.0
 43
0.0
 44
0.0
 45
0.0
 46
0.0
 47
0.0
 48
0.0
 49
0.0
140
0.0
141
0.0
142
1.0
143
1.0
 70
  1712
 72
     0
 73
     0
 74
     0
  7

 75
     0
 76
     0
 77
     2
 78
   300
147
1.0
148
0.0
149
0.0
100
AcDbLayout
  1
Model
 70
     1
 71
     0
 10
0.0
 20
0.0
 11
420.0
 21
297.0
 12
0.0
 22
0.0
 32
0.0
 14
0.0
 24
0.0
 34
0.0
 15
420.0
 25
297.0
 35
0.0
146
0.0
 13
0.0
 23
0.0
 33
0.0
 16
1.0
 26
0.0
 36
0.0
 17
0.0
 27
1.0
 37
0.0
 76
     0
330
1F
331
29
  0
MATERIAL
  5
3D
102
{ACAD_REACTORS
330
3B
102
}
330
3B
100
AcDbMaterial
  1
ByBlock
 72
     1
 94
      127
  0
MATERIAL
  5
3C
102
{ACAD_REACTORS
330
3B
102
}
330
3B
100
AcDbMaterial
  1
ByLayer
 72
     1
 94
      127
  0
MATERIAL
  5
3E
102
{ACAD_REACTORS
330
3B
102
}
330
3B
100
AcDbMaterial
  1
Global
 72
     1
 94
      127
  0
MLINESTYLE
  5
18
102
{ACAD_REACTORS
330
17
102
}
330
17
100
AcDbMlineStyle
  2
Standard
 70
     0
  3

 62
   256
 51
90.0
 52
90.0
 71
     2
 49
0.5
 62
   256
  6
BYLAYER
 49
-0.5
 62
   256
  6
BYLAYER
  0
ACDBPLACEHOLDER
  5
F
102
{ACAD_REACTORS
330
E
102
}
330
E
  0
VISUALSTYLE
  5
2F
102
{ACAD_REACTORS
330
2A
102
}
330
2A
100
AcDbVisualStyle
  2
2dWireframe
 70
     4
 71
     0
 72
     2
 73
     0
 90
        0
 40
-0.6
 41
-30.0
 62
     5
 63
     7
421
 16777215
 74
     1
 91
        4
 64
     7
 65
   257
 75
     1
175
     1
 42
1.0
 92
        0
 66
   257
 43
1.0
 76
     1
 77
     6
 78
     2
 67
     7
 79
     5
170
     0
171
     0
290
     0
174
     0
 93
        1
 44
0.0
173
     0
291
     0
 45
0.0
  0
VISUALSTYLE
  5
31
102
{ACAD_REACTORS
330
2A
102
}
330
2A
100
AcDbVisualStyle
  2
3D Hidden
 70
     6
 71
     1
 72
     2
 73
     2
 90
        0
 40
-0.6
 41
-30.0
 62
     5
 63
     7
421
 16777215
 74
     2
 91
        2
 64
     7
 65
   257
 75
     2
175
     1
 42
40.0
 92
        0
 66
   257
 43
1.0
 76
     1
 77
     6
 78
     2
 67
     7
 79
     3
170
     0
171
     0
290
     0
174
     0
 93
        1
 44
0.0
173
     0
291
     0
 45
0.0
  0
VISUALSTYLE
  5
30
102
{ACAD_REACTORS
330
2A
102
}
330
2A
100
AcDbVisualStyle
  2
3dWireframe
 70
     5
 71
     0
 72
     2
 73
     0
 90
        0
 40
-0.6
 41
-30.0
 62
     5
 63
     7
421
 16777215
 74
     1
 91
        4
 64
     7
 65
   257
 75
     1
175
     1
 42
1.0
 92
        0
 66
   257
 43
1.0
 76
     1
 77
     6
 78
     2
 67
     7
 79
     5
170
     0
171
     0
290
     0
174
     0
 93
        1
 44
0.0
173
     0
291
     0
 45
0.0
  0
VISUALSTYLE
  5
32
102
{ACAD_REACTORS
330
2A
102
}
330
2A
100
AcDbVisualStyle
  2
Basic
 70
     7
 71
     1
 72
     0
 73
     1
 90
        0
 40
-0.6
 41
-30.0
 62
     5
 63
     7
421
 16777215
 74
     0
 91
        4
 64
     7
 65
   257
 75
     1
175
     1
 42
1.0
 92
        8
 66
     7
 43
1.0
 76
     1
 77
     6
 78
     2
 67
     7
 79
     5
170
     0
171
     0
290
     0
174
     0
 93
        1
 44
0.0
173
     0
291
     1
 45
0.0
  0
VISUALSTYLE
  5
36
102
{ACAD_REACTORS
330
2A
102
}
330
2A
100
AcDbVisualStyle
  2
Brighten
 70
    12
 71
     2
 72
     2
 73
     0
 90
        0
 40
-0.6
 41
-30.0
 62
     5
 63
     7
421
 16777215
 74
     1
 91
        4
 64
     7
 65
   257
 75
     1
175
     1
 42
1.0
 92
        8
 66
     7
 43
1.0
 76
     1
 77
     6
 78
     2
 67
     7
 79
     5
170
     0
171
     0
290
     0
174
     0
 93
        1
 44
50.0
173
     0
291
     1
 45
0.0
  0
VISUALSTYLE
  5
3A
102
{ACAD_REACTORS
330
2A
102
}
330
2A
100
AcDbVisualStyle
  2
ColorChange
 70
    16
 71
     2
 72
     2
 73
     3
 90
        0
 40
-0.6
 41
-30.0
 62
     5
 63
     8
421
  8421504
 74
     1
 91
        4
 64
     7
 65
   257
 75
     1
175
     1
 42
1.0
 92
        8
 66
     8
424
  8421504
 43
1.0
 76
     1
 77
     6
 78
     2
 67
     7
 79
     5
170
     0
171
     0
290
     0
174
     0
 93
        1
 44
0.0
173
     0
291
     1
 45
0.0
  0
VISUALSTYLE
  5
34
102
{ACAD_REACTORS
330
2A
102
}
330
2A
100
AcDbVisualStyle
  2
Conceptual
 70
     9
 71
     3
 72
     2
 73
     0
 90
        0
 40
-0.6
 41
-30.0
 62
     5
 63
     7
421
 16777215
 74
     2
 91
        2
 64
     7
 65
   257
 75
     1
175
     1
 42
40.0
 92
        8
 66
     7
 43
1.0
 76
     1
 77
     6
 78
     2
 67
     7
 79
     3
170
     0
171
     0
290
     0
174
     0
 93
        1
 44
0.0
173
     0
291
     0
 45
0.0
  0
VISUALSTYLE
  5
35
102
{ACAD_REACTORS
330
2A
102
}
330
2A
100
AcDbVisualStyle
  2
Dim
 70
    11
 71
     2
 72
     2
 73
     0
 90
        0
 40
-0.6
 41
-30.0
 62
     5
 63
     7
421
 16777215
 74
     1
 91
        4
 64
     7
 65
   257
 75
     1
175
     1
 42
1.0
 92
        8
 66
     7
 43
1.0
 76
     1
 77
     6
 78
     2
 67
     7
 79
     5
170
     0
171
     0
290
     0
174
     0
 93
        1
 44
-50.0
173
     0
291
     1
 45
0.0
  0
VISUALSTYLE
  5
39
102
{ACAD_REACTORS
330
2A
102
}
330
2A
100
AcDbVisualStyle
  2
Facepattern
 70
    15
 71
     2
 72
     2
 73
     0
 90
        0
 40
-0.6
 41
-30.0
 62
     5
 63
     7
421
 16777215
 74
     1
 91
        4
 64
     7
 65
   257
 75
     1
175
     1
 42
1.0
 92
        8
 66
     7
 43
1.0
 76
     1
 77
     6
 78
     2
 67
     7
 79
     5
170
     0
171
     0
290
     0
174
     0
 93
        1
 44
0.0
173
     0
291
     1
 45
0.0
  0
VISUALSTYLE
  5
2B
102
{ACAD_REACTORS
330
2A
102
}
330
2A
100
AcDbVisualStyle
  2
Flat
 70
     0
 71
     2
 72
     1
 73
     1
 90
        2
 40
-0.6
 41
30.0
 62
     5
 63
     7
421
 16777215
 74
     0
 91
        4
 64
     7
 65
   257
 75
     1
175
     1
 42
1.0
 92
        8
 66
     7
 43
1.0
 76
     1
 77
     6
 78
     2
 67
     7
 79
     5
170
     0
171
     0
290
     0
174
     0
 93
       13
 44
0.0
173
     0
291
     1
 45
0.0
  0
VISUALSTYLE
  5
2C
102
{ACAD_REACTORS
330
2A
102
}
330
2A
100
AcDbVisualStyle
  2
FlatWithEdges
 70
     1
 71
     2
 72
     1
 73
     1
 90
        2
 40
-0.6
 41
30.0
 62
     5
 63
     7
421
 16777215
 74
     1
 91
        4
 64
     7
 65
   257
 75
     1
175
     1
 42
1.0
 92
        0
 66
   257
 43
1.0
 76
     1
 77
     6
 78
     2
 67
     7
 79
     5
170
     0
171
     0
290
     0
174
     0
 93
       13
 44
0.0
173
     0
291
     1
 45
0.0
  0
VISUALSTYLE
  5
2D
102
{ACAD_REACTORS
330
2A
102
}
330
2A
100
AcDbVisualStyle
  2
Gouraud
 70
     2
 71
     2
 72
     2
 73
     1
 90
        2
 40
-0.6
 41
30.0
 62
     5
 63
     7
421
 16777215
 74
     0
 91
        4
 64
     7
 65
   257
 75
     1
175
     1
 42
1.0
 92
        0
 66
     7
 43
1.0
 76
     1
 77
     6
 78
     2
 67
     7
 79
     5
170
     0
171
     0
290
     0
174
     0
 93
       13
 44
0.0
173
     0
291
     1
 45
0.0
  0
VISUALSTYLE
  5
2E
102
{ACAD_REACTORS
330
2A
102
}
330
2A
100
AcDbVisualStyle
  2
GouraudWithEdges
 70
     3
 71
     2
 72
     2
 73
     1
 90
        2
 40
-0.6
 41
30.0
 62
     5
 63
     7
421
 16777215
 74
     1
 91
        4
 64
     7
 65
   257
 75
     1
175
     1
 42
1.0
 92
        0
 66
   257
 43
1.0
 76
     1
 77
     6
 78
     2
 67
     7
 79
     5
170
     0
171
     0
290
     0
174
     0
 93
       13
 44
0.0
173
     0
291
     1
 45
0.0
  0
VISUALSTYLE
  5
38
102
{ACAD_REACTORS
330
2A
102
}
330
2A
100
AcDbVisualStyle
  2
Linepattern
 70
    14
 71
     2
 72
     2
 73
     0
 90
        0
 40
-0.6
 41
-30.0
 62
     5
 63
     7
421
 16777215
 74
     1
 91
        4
 64
     7
 65
   257
 75
     7
175
     7
 42
1.0
 92
        8
 66
     7
 43
1.0
 76
     1
 77
     6
 78
     2
 67
     7
 79
     5
170
     0
171
     0
290
     0
174
     0
 93
        1
 44
0.0
173
     0
291
     1
 45
0.0
  0
VISUALSTYLE
  5
33
102
{ACAD_REACTORS
330
2A
102
}
330
2A
100
AcDbVisualStyle
  2
Realistic
 70
     8
 71
     2
 72
     2
 73
     0
 90
        0
 40
-0.6
 41
-30.0
 62
     5
 63
     7
421
 16777215
 74
     1
 91
        0
 64
     7
 65
   257
 75
     1
175
     1
 42
1.0
 92
        8
 66
     8
424
  7895160
 43
1.0
 76
     1
 77
     6
 78
     2
 67
     7
 79
     5
170
     0
171
     0
290
     0
174
     0
 93
       13
 44
0.0
173
     0
291
     0
 45
0.0
  0
VISUALSTYLE
  5
37
102
{ACAD_REACTORS
330
2A
102
}
330
2A
100
AcDbVisualStyle
  2
Thicken
 70
    13
 71
     2
 72
     2
 73
     0
 90
        0
 40
-0.6
 41
-30.0
 62
     5
 63
     7
421
 16777215
 74
     1
 91
        4
 64
     7
 65
   257
 75
     1
175
     1
 42
1.0
 92
       12
 66
     7
 43
1.0
 76
     1
 77
     6
 78
     2
 67
     7
 79
     5
170
     0
171
     0
290
     0
174
     0
 93
        1
 44
0.0
173
     0
291
     1
 45
0.0
  0
ENDSEC
  0
EOF
