  0
SECTION
  2
HEADER
  9
$ACADVER
  1
AC1015
  9
$ACADMAINTVER
 70
     6
  9
$DWGCODEPAGE
  3
ANSI_1252
  9
$INSBASE
 10
0.0
 20
0.0
 30
0.0
  9
$EXTMIN
 10
0.0
 20
0.0
 30
0.0
  9
$EXTMAX
 10
1000.0
 20
1000.0
 30
0.0
  9
$LIMMIN
 10
0.0
 20
0.0
  9
$LIMMAX
 10
1000.0
 20
1000.0
  9
$ORTHOMODE
 70
     0
  9
$REGENMODE
 70
     1
  9
$FILLMODE
 70
     1
  9
$QTEXTMODE
 70
     0
  9
$MIRRTEXT
 70
     1
  9
$LTSCALE
 40
1.0
  9
$ATTMODE
 70
     1
  9
$TEXTSIZE
 40
3.5
  9
$TRACEWID
 40
1.0
  9
$TEXTSTYLE
  7
Standard
  9
$CLAYER
  8
0
  9
$CELTYPE
  6
ByLayer
  9
$CECOLOR
 62
   256
  9
$CELTSCALE
 40
1.0
  9
$DISPSILH
 70
     0
  9
$DIMSCALE
 40
1.0
  9
$DIMASZ
 40
3.302
  9
$DIMEXO
 40
1.0
  9
$DIMDLI
 40
3.75
  9
$DIMRND
 40
0.0
  9
$DIMDLE
 40
0.0
  9
$DIMEXE
 40
1.0
  9
$DIMTP
 40
0.0
  9
$DIMTM
 40
0.0
  9
$DIMTXT
 40
3.5
  9
$DIMCEN
 40
2.5
  9
$DIMTSZ
 40
0.0
  9
$DIMTOL
 70
     0
  9
$DIMLIM
 70
     0
  9
$DIMTIH
 70
     1
  9
$DIMTOH
 70
     1
  9
$DIMSE1
 70
     0
  9
$DIMSE2
 70
     0
  9
$DIMTAD
 70
     1
  9
$DIMZIN
 70
     0
  9
$DIMBLK
  1

  9
$DIMASO
 70
     1
  9
$DIMSHO
 70
     1
  9
$DIMPOST
  1

  9
$DIMAPOST
  1

  9
$DIMALT
 70
     0
  9
$DIMALTD
 70
     3
  9
$DIMALTF
 40
0.0393700787
  9
$DIMLFAC
 40
1.0
  9
$DIMTOFL
 70
     1
  9
$DIMTVP
 40
0.0
  9
$DIMTIX
 70
     0
  9
$DIMSOXD
 70
     0
  9
$DIMSAH
 70
     0
  9
$DIMBLK1
  1

  9
$DIMBLK2
  1

  9
$DIMSTYLE
  2
ISO-25
  9
$DIMCLRD
 70
     0
  9
$DIMCLRE
 70
     0
  9
$DIMCLRT
 70
     0
  9
$DIMTFAC
 40
1.0
  9
$DIMGAP
 40
1.524
  9
$DIMJUST
 70
     0
  9
$DIMSD1
 70
     0
  9
$DIMSD2
 70
     0
  9
$DIMTOLJ
 70
     0
  9
$DIMTZIN
 70
     0
  9
$DIMALTZ
 70
     0
  9
$DIMALTTZ
 70
     0
  9
$DIMUPT
 70
     0
  9
$DIMDEC
 70
     3
  9
$DIMTDEC
 70
     3
  9
$DIMALTU
 70
     2
  9
$DIMALTTD
 70
     3
  9
$DIMTXSTY
  7
Standard
  9
$DIMAUNIT
 70
     0
  9
$DIMADEC
 70
     2
  9
$DIMALTRND
 40
0.0
  9
$DIMAZIN
 70
     0
  9
$DIMDSEP
 70
    44
  9
$DIMATFIT
 70
     3
  9
$DIMFRAC
 70
     0
  9
$DIMLDRBLK
  1

  9
$DIMLUNIT
 70
     2
  9
$DIMLWD
 70
    -2
  9
$DIMLWE
 70
    -2
  9
$DIMTMOVE
 70
     0
  9
$LUNITS
 70
     2
  9
$LUPREC
 70
     8
  9
$SKETCHINC
 40
1.0
  9
$FILLETRAD
 40
10.0
  9
$AUNITS
 70
     0
  9
$AUPREC
 70
     8
  9
$MENU
  1
.
  9
$ELEVATION
 40
0.0
  9
$PELEVATION
 40
0.0
  9
$THICKNESS
 40
0.0
  9
$LIMCHECK
 70
     0
  9
$CHAMFERA
 40
10.0
  9
$CHAMFERB
 40
10.0
  9
$CHAMFERC
 40
20.0
  9
$CHAMFERD
 40
0.0
  9
$SKPOLY
 70
     0
  9
$TDCREATE
 40
2457053.462958993
  9
$TDUCREATE
 40
2457053.462958993
  9
$TDUPDATE
 40
2457053.462959537
  9
$TDUUPDATE
 40
2457053.462959537
  9
$TDINDWG
 40
0.0000000116
  9
$TDUSRTIMER
 40
0.0000000116
  9
$USRTIMER
 70
     1
  9
$ANGBASE
 50
0.0
  9
$ANGDIR
 70
     0
  9
$PDMODE
 70
     0
  9
$PDSIZE
 40
-1.0
  9
$PLINEWID
 40
0.0
  9
$SPLFRAME
 70
     0
  9
$SPLINETYPE
 70
     6
  9
$SPLINESEGS
 70
     8
  9
$HANDSEED
  5
192
  9
$SURFTAB1
 70
     6
  9
$SURFTAB2
 70
     6
  9
$SURFTYPE
 70
     6
  9
$SURFU
 70
     6
  9
$SURFV
 70
     6
  9
$UCSBASE
  2

  9
$UCSNAME
  2

  9
$UCSORG
 10
0.0
 20
0.0
 30
0.0
  9
$UCSXDIR
 10
1.0
 20
0.0
 30
0.0
  9
$UCSYDIR
 10
0.0
 20
1.0
 30
0.0
  9
$UCSORTHOREF
  2

  9
$UCSORTHOVIEW
 70
     0
  9
$UCSORGTOP
 10
0.0
 20
0.0
 30
0.0
  9
$UCSORGBOTTOM
 10
0.0
 20
0.0
 30
0.0
  9
$UCSORGLEFT
 10
0.0
 20
0.0
 30
0.0
  9
$UCSORGRIGHT
 10
0.0
 20
0.0
 30
0.0
  9
$UCSORGFRONT
 10
0.0
 20
0.0
 30
0.0
  9
$UCSORGBACK
 10
0.0
 20
0.0
 30
0.0
  9
$PUCSBASE
  2

  9
$PUCSNAME
  2

  9
$PUCSORG
 10
0.0
 20
0.0
 30
0.0
  9
$PUCSXDIR
 10
1.0
 20
0.0
 30
0.0
  9
$PUCSYDIR
 10
0.0
 20
1.0
 30
0.0
  9
$PUCSORTHOREF
  2

  9
$PUCSORTHOVIEW
 70
     0
  9
$PUCSORGTOP
 10
0.0
 20
0.0
 30
0.0
  9
$PUCSORGBOTTOM
 10
0.0
 20
0.0
 30
0.0
  9
$PUCSORGLEFT
 10
0.0
 20
0.0
 30
0.0
  9
$PUCSORGRIGHT
 10
0.0
 20
0.0
 30
0.0
  9
$PUCSORGFRONT
 10
0.0
 20
0.0
 30
0.0
  9
$PUCSORGBACK
 10
0.0
 20
0.0
 30
0.0
  9
$USERI1
 70
     0
  9
$USERI2
 70
     0
  9
$USERI3
 70
     0
  9
$USERI4
 70
     0
  9
$USERI5
 70
     0
  9
$USERR1
 40
0.0
  9
$USERR2
 40
0.0
  9
$USERR3
 40
0.0
  9
$USERR4
 40
0.0
  9
$USERR5
 40
0.0
  9
$WORLDVIEW
 70
     1
  9
$SHADEDGE
 70
     3
  9
$SHADEDIF
 70
    70
  9
$TILEMODE
 70
     1
  9
$MAXACTVP
 70
    64
  9
$PINSBASE
 10
0.0
 20
0.0
 30
0.0
  9
$PLIMCHECK
 70
     0
  9
$PEXTMIN
 10
1.0000000000E+20
 20
1.0000000000E+20
 30
1.0000000000E+20
  9
$PEXTMAX
 10
-1.0000000000E+20
 20
-1.0000000000E+20
 30
-1.0000000000E+20
  9
$PLIMMIN
 10
0.0
 20
0.0
  9
$PLIMMAX
 10
420.0
 20
297.0
  9
$UNITMODE
 70
     0
  9
$VISRETAIN
 70
     1
  9
$PLINEGEN
 70
     0
  9
$PSLTSCALE
 70
     1
  9
$TREEDEPTH
 70
  3020
  9
$CMLSTYLE
  2
Standard
  9
$CMLJUST
 70
     0
  9
$CMLSCALE
 40
20.0
  9
$PROXYGRAPHICS
 70
     1
  9
$MEASUREMENT
 70
     1
  9
$CELWEIGHT
370
    -1
  9
$ENDCAPS
280
     0
  9
$JOINSTYLE
280
     0
  9
$LWDISPLAY
290
     1
  9
$INSUNITS
 70
     4
  9
$HYPERLINKBASE
  1

  9
$STYLESHEET
  1

  9
$XEDIT
290
     1
  9
$CEPSNTYPE
380
     0
  9
$PSTYLEMODE
290
     1
  9
$FINGERPRINTGUID
  2
{C2B64619-D390-454B-8888-94B9D905EAC2}
  9
$VERSIONGUID
  2
{FAEB1C32-E019-11D5-929B-00C0DF256EC4}
  9
$EXTNAMES
290
     1
  9
$PSVPSCALE
 40
0.0
  9
$OLESTARTUP
290
     0
  0
ENDSEC
  0
SECTION
  2
CLASSES
  0
CLASS
  1
ACDBDICTIONARYWDFLT
  2
AcDbDictionaryWithDefault
  3
ObjectDBX Classes
 90
        0
280
     0
281
     0
  0
CLASS
  1
VISUALSTYLE
  2
AcDbVisualStyle
  3
ObjectDBX Classes
 90
     4095
280
     0
281
     0
  0
CLASS
  1
MATERIAL
  2
AcDbMaterial
  3
ObjectDBX Classes
 90
     1153
280
     0
281
     0
  0
CLASS
  1
ACDBPLACEHOLDER
  2
AcDbPlaceHolder
  3
ObjectDBX Classes
 90
        0
280
     0
281
     0
  0
CLASS
  1
LAYOUT
  2
AcDbLayout
  3
ObjectDBX Classes
 90
        0
280
     0
281
     0
  0
ENDSEC
  0
SECTION
  2
TABLES
  0
TABLE
  2
VPORT
  5
8
330
0
100
AcDbSymbolTable
 70
     1
  0
VPORT
  5
29
330
8
100
AcDbSymbolTableRecord
100
AcDbViewportTableRecord
  2
*Active
 70
     0
 10
0.0
 20
0.0
 11
1.0
 21
1.0
 12
500.0
 22
500.0
 13
0.0
 23
0.0
 14
10.0
 24
10.0
 15
10.0
 25
10.0
 16
0.0
 26
0.0
 36
1.0
 17
0.0
 27
0.0
 37
0.0
 40
1000.0
 41
1.0
 42
50.0
 43
0.0
 44
0.0
 50
0.0
 51
0.0
 71
     0
 72
  2000
 73
     1
 74
     3
 75
     0
 76
     0
 77
     0
 78
     0
281
     0
 65
     1
110
0.0
120
0.0
130
0.0
111
1.0
121
0.0
131
0.0
112
0.0
122
1.0
132
0.0
 79
     0
146
0.0
  0
ENDTAB
  0
TABLE
  2
LTYPE
  5
5
330
0
100
AcDbSymbolTable
 70
     6
  0
LTYPE
  5
14
330
5
100
AcDbSymbolTableRecord
100
AcDbLinetypeTableRecord
  2
ByBlock
 70
     0
  3

 72
    65
 73
     0
 40
0.0
  0
LTYPE
  5
15
330
5
100
AcDbSymbolTableRecord
100
AcDbLinetypeTableRecord
  2
ByLayer
 70
     0
  3

 72
    65
 73
     0
 40
0.0
  0
LTYPE
  5
16
330
5
100
AcDbSymbolTableRecord
100
AcDbLinetypeTableRecord
  2
Continuous
 70
     0
  3
Solid line
 72
    65
 73
     0
 40
0.0
  0
LTYPE
  5
3F
330
5
100
AcDbSymbolTableRecord
100
AcDbLinetypeTableRecord
  2
HIDDEN
 70
     0
  3
Hidden __ __ __ __ __ __ __ __ __ __ __ __ __ __
 72
    65
 73
     2
 40
1.905
 49
1.27
 74
     0
 49
-0.635
 74
     0
  0
LTYPE
  5
40
330
5
100
AcDbSymbolTableRecord
100
AcDbLinetypeTableRecord
  2
PHANTOM
 70
     0
  3
Phantom ______  __  __  ______  __  __  ______
 72
    65
 73
     6
 40
12.7
 49
6.35
 74
     0
 49
-1.27
 74
     0
 49
1.27
 74
     0
 49
-1.27
 74
     0
 49
1.27
 74
     0
 49
-1.27
 74
     0
  0
LTYPE
  5
41
330
5
100
AcDbSymbolTableRecord
100
AcDbLinetypeTableRecord
  2
CENTER
 70
     0
  3
Center ____ _ ____ _ ____ _ ____ _ ____ _ ____
 72
    65
 73
     4
 40
10.16
 49
6.35
 74
     0
 49
-1.27
 74
     0
 49
1.27
 74
     0
 49
-1.27
 74
     0
  0
LTYPE
  5
42
330
5
100
AcDbSymbolTableRecord
100
AcDbLinetypeTableRecord
  2
CENTERX2
 70
     0
  3
Center (2x) ________  __  ________  __  _____
 72
    65
 73
     4
 40
20.32
 49
12.7
 74
     0
 49
-2.54
 74
     0
 49
2.54
 74
     0
 49
-2.54
 74
     0
  0
LTYPE
  5
43
330
5
100
AcDbSymbolTableRecord
100
AcDbLinetypeTableRecord
  2
DOT2
 70
     0
  3
Dot (.5x) ........................................
 72
    65
 73
     2
 40
0.635
 49
0.0
 74
     0
 49
-0.635
 74
     0
  0
ENDTAB
  0
TABLE
  2
LAYER
  5
2
330
0
100
AcDbSymbolTable
 70
     1
  0
LAYER
  5
10
330
2
100
AcDbSymbolTableRecord
100
AcDbLayerTableRecord
  2
0
 70
     0
 62
     7
  6
Continuous
370
    -3
390
F
  0
ENDTAB
  0
TABLE
  2
STYLE
  5
3
330
0
100
AcDbSymbolTable
 70
     1
  0
STYLE
  5
11
330
3
100
AcDbSymbolTableRecord
100
AcDbTextStyleTableRecord
  2
Standard
 70
     0
 40
0.0
 41
1.0
 50
0.0
 71
     0
 42
3.5
  3
txt
  4

  0
ENDTAB
  0
TABLE
  2
VIEW
  5
6
330
0
100
AcDbSymbolTable
 70
     0
  0
ENDTAB
  0
TABLE
  2
UCS
  5
7
330
0
100
AcDbSymbolTable
 70
     0
  0
ENDTAB
  0
TABLE
  2
APPID
  5
9
330
0
100
AcDbSymbolTable
 70
     1
  0
APPID
  5
12
330
9
100
AcDbSymbolTableRecord
100
AcDbRegAppTableRecord
  2
ACAD
 70
     0
  0
ENDTAB
  0
TABLE
  2
DIMSTYLE
  5
A
330
0
100
AcDbSymbolTable
 70
     1
100
AcDbDimStyleTable
  0
DIMSTYLE
105
27
330
A
100
AcDbSymbolTableRecord
100
AcDbDimStyleTableRecord
  2
ISO-25
 70
     0
 41
2.5
 42
0.625
 43
3.75
 44
1.25
 73
     0
 74
     0
 77
     1
 78
     8
140
2.5
141
2.5
143
0.0393700787
147
0.625
171
     3
172
     1
178
     0
271
     2
272
     2
274
     3
278
    44
283
     0
284
     8
340
11
  0
ENDTAB
  0
TABLE
  2
BLOCK_RECORD
  5
1
330
0
100
AcDbSymbolTable
 70
     1
  0
BLOCK_RECORD
  5
1F
330
1
100
AcDbSymbolTableRecord
100
AcDbBlockTableRecord
  2
*Model_Space
340
22
  0
BLOCK_RECORD
  5
1B
330
1
100
AcDbSymbolTableRecord
100
AcDbBlockTableRecord
  2
*Paper_Space
340
1E
  0
BLOCK_RECORD
  5
23
330
1
100
AcDbSymbolTableRecord
100
AcDbBlockTableRecord
  2
*Paper_Space0
340
26
  0
ENDTAB
  0
ENDSEC
  0
SECTION
  2
BLOCKS
  0
BLOCK
  5
20
330
1F
100
AcDbEntity
  8
0
100
AcDbBlockBegin
  2
*Model_Space
 70
     0
 10
0.0
 20
0.0
 30
0.0
  3
*Model_Space
  1

  0
ENDBLK
  5
21
330
1F
100
AcDbEntity
  8
0
100
AcDbBlockEnd
  0
BLOCK
  5
1C
330
1B
100
AcDbEntity
 67
     1
  8
0
100
AcDbBlockBegin
  2
*Paper_Space
 70
     0
 10
0.0
 20
0.0
 30
0.0
  3
*Paper_Space
  1

  0
ENDBLK
  5
1D
330
1B
100
AcDbEntity
 67
     1
  8
0
100
AcDbBlockEnd
  0
BLOCK
  5
24
330
23
100
AcDbEntity
  8
0
100
AcDbBlockBegin
  2
*Paper_Space0
 70
     0
 10
0.0
 20
0.0
 30
0.0
  3
*Paper_Space0
  1

  0
ENDBLK
  5
25
330
23
100
AcDbEntity
  8
0
100
AcDbBlockEnd
  0
ENDSEC
  0
SECTION
  2
ENTITIES
  0
LINE
  5
44
330
1F
100
AcDbEntity
  8
0
  6
Continuous
 62
     7
370
    15
100
AcDbLine
 10
87.1556147986
 20
85.0039248449
 30
0.0
 11
348.2997909242
 21
85.0039248449
 31
0.0
  0
LINE
  5
45
330
1F
100
AcDbEntity
  8
0
  6
Continuous
 62
     7
370
    15
100
AcDbLine
 10
376.0343983823
 20
85.0039248449
 30
0.0
 11
650.3913149291
 21
85.0039248449
 31
0.0
  0
LINE
  5
46
330
1F
100
AcDbEntity
  8
0
  6
Continuous
 62
     7
370
    15
100
AcDbLine
 10
677.9417291337
 20
85.0039248449
 30
0.0
 11
887.1556267196
 21
85.0039248449
 31
0.0
  0
ARC
  5
47
330
1F
100
AcDbEntity
  8
0
  6
Continuous
 62
     7
370
    15
100
AcDbCircle
 10
674.7904240195
 20
75.156902194
 30
0.0
 40
0.9999999999999591
100
AcDbArc
 50
286.1036910378
 51
349.3444562998
  0
ARC
  5
48
330
1F
100
AcDbEntity
  8
0
  6
Continuous
 62
     7
370
    15
100
AcDbCircle
 10
653.5208174986
 20
75.156902194
 30
0.0
 40
1.000000000000073
100
AcDbArc
 50
190.6555437002
 51
253.8963089622
  0
SPLINE
  5
49
330
1F
100
AcDbEntity
  8
0
  6
Continuous
 62
     7
370
    15
100
AcDbSpline
210
0.0
220
0.0
230
1.0
 70
     8
 71
     3
 72
    17
 73
    13
 74
     0
 42
0.00000001
 43
0.00000001
 12
1.0
 22
0.0
 32
0.0
 13
1.0
 23
0.0
 33
0.0
 40
0.0
 40
0.0
 40
0.0
 40
0.0
 40
0.0568462503334892
 40
0.1651288259612984
 40
0.2731859958763938
 40
0.3810464381684474
 40
0.4887967039525185
 40
0.5965120184391952
 40
0.7042561478265015
 40
0.8120890293456895
 40
0.9200908349874035
 40
1.0
 40
1.0
 40
1.0
 40
1.0
 10
653.243441885081
 20
74.19614243329976
 30
0.0
 10
653.6132120697189
 20
74.09401811099586
 30
0.0
 10
654.6873324577224
 20
73.79736407761278
 30
0.0
 10
656.5875718322061
 20
73.39818362992368
 30
0.0
 10
658.9549709075006
 20
73.04623955116773
 30
0.0
 10
661.4046703388736
 20
72.82874345080958
 30
0.0
 10
663.895469641785
 20
72.7462669564799
 30
0.0
 10
666.3895245395838
 20
72.80040290655054
 30
0.0
 10
668.8489921775522
 20
72.98953069248604
 30
0.0
 10
671.2322526192976
 20
73.31365735316243
 30
0.0
 10
673.3168255506297
 20
73.72065347439039
 30
0.0
 10
674.5453651517458
 20
74.05427137650067
 30
0.0
 10
675.0678017788798
 20
74.19614243329976
 30
0.0
  0
SPLINE
  5
4A
330
1F
100
AcDbEntity
  8
0
  6
Continuous
 62
     7
370
    15
100
AcDbSpline
210
0.0
220
0.0
230
1.0
 70
     8
 71
     3
 72
     9
 73
     5
 74
     0
 42
0.00000001
 43
0.00000001
 12
1.0
 22
0.0
 32
0.0
 13
1.0
 23
0.0
 33
0.0
 40
0.0
 40
0.0
 40
0.0
 40
0.0
 40
0.6011837877602032
 40
0.9999999999999999
 40
0.9999999999999999
 40
0.9999999999999999
 40
0.9999999999999999
 10
675.7740572148234
 20
74.97234391988728
 30
0.0
 10
676.1610398538114
 20
76.97168055856935
 30
0.0
 10
676.8047409097393
 20
80.29734681801858
 30
0.0
 10
677.6269689760308
 20
83.70202353273326
 30
0.0
 10
677.9548868590266
 20
85.05986380399678
 30
0.0
  0
SPLINE
  5
4B
330
1F
100
AcDbEntity
  8
0
  6
Continuous
 62
     7
370
    15
100
AcDbSpline
210
0.0
220
0.0
230
1.0
 70
     8
 71
     3
 72
     9
 73
     5
 74
     0
 42
0.00000001
 43
0.00000001
 12
1.0
 22
0.0
 32
0.0
 13
1.0
 23
0.0
 33
0.0
 40
0.0
 40
0.0
 40
0.0
 40
0.0
 40
0.6770110199553557
 40
0.9999999999999999
 40
0.9999999999999999
 40
0.9999999999999999
 40
0.9999999999999999
 10
650.3788873606593
 20
85.05986380399678
 30
0.0
 10
650.9171002483012
 20
82.75790014220463
 30
0.0
 10
651.7120841876724
 20
79.35771374354889
 30
0.0
 10
652.312569666925
 20
76.05475107721944
 30
0.0
 10
652.5065198594004
 20
74.98793053449604
 30
0.0
  0
ARC
  5
4C
330
1F
100
AcDbEntity
  8
0
  6
Continuous
 62
     7
370
    15
100
AcDbCircle
 10
487.1556207591
 20
983.818749426
 30
0.0
 40
903.8
100
AcDbArc
 50
263.9793698543
 51
276.0206301457
  0
ARC
  5
4D
330
1F
100
AcDbEntity
  8
0
  6
Continuous
 62
     7
370
    15
100
AcDbCircle
 10
487.1556207591
 20
983.818749426
 30
0.0
 40
923.8
100
AcDbArc
 50
256.6440845457
 51
280.311416346
  0
LWPOLYLINE
  5
4E
330
1F
100
AcDbEntity
  8
0
  6
Continuous
 62
     7
370
    15
100
AcDbPolyline
 90
        3
 70
   128
 43
0.0
 10
676.7999127561
 20
79.6940450651
 10
693.4631958657
 20
83.3501939756
 10
700.552825635
 20
85.0039248449
  0
LINE
  5
4F
330
1F
100
AcDbEntity
  8
0
  6
Continuous
 62
     7
370
    15
100
AcDbLine
 10
613.9556214267
 20
961.4606623632
 30
0.0
 11
613.1556227857
 21
961.4606623632
 31
0.0
  0
LINE
  5
50
330
1F
100
AcDbEntity
  8
0
  6
Continuous
 62
     7
370
    15
100
AcDbLine
 10
361.1556187325
 20
961.4606623632
 30
0.0
 11
360.3556200915
 21
961.4606623632
 31
0.0
  0
CIRCLE
  5
51
330
1F
100
AcDbEntity
  8
0
  6
Continuous
 62
     7
370
    15
100
AcDbCircle
 10
487.6556207591
 20
505.0598567355
 30
0.0
 40
5.656363713346505
  0
ARC
  5
52
330
1F
100
AcDbEntity
  8
0
  6
Continuous
 62
     7
370
    15
100
AcDbCircle
 10
351.5208174987
 20
74.7629857729
 30
0.0
 40
0.9999999999999886
100
AcDbArc
 50
190.6555437002
 51
253.8963089622
  0
ARC
  5
53
330
1F
100
AcDbEntity
  8
0
  6
Continuous
 62
     7
370
    15
100
AcDbCircle
 10
372.7904240195
 20
74.7629857729
 30
0.0
 40
1.00000000000002
100
AcDbArc
 50
286.1036910378
 51
349.3444562998
  0
SPLINE
  5
54
330
1F
100
AcDbEntity
  8
0
  6
Continuous
 62
     7
370
    15
100
AcDbSpline
210
0.0
220
0.0
230
1.0
 70
     8
 71
     3
 72
    17
 73
    13
 74
     0
 42
0.00000001
 43
0.00000001
 12
1.0
 22
0.0
 32
0.0
 13
1.0
 23
0.0
 33
0.0
 40
0.0
 40
0.0
 40
0.0
 40
0.0
 40
0.0568459743628034
 40
0.1651288307369269
 40
0.273185854573756
 40
0.3810463312455081
 40
0.4887966738893494
 40
0.5965120227094663
 40
0.704256284284634
 40
0.8120888926515867
 40
0.920091085978542
 40
1.0
 40
1.0
 40
1.0
 40
1.0
 10
351.2434408121973
 20
73.8022153359792
 30
0.0
 10
351.6132116483323
 20
73.70010425684414
 30
0.0
 10
352.6873391744414
 20
73.40348724408547
 30
0.0
 10
354.5875632394392
 20
73.00423057296496
 30
0.0
 10
356.9549733284304
 20
72.65235444623724
 30
0.0
 10
359.4046693880472
 20
72.4348523054123
 30
0.0
 10
361.8954679038167
 20
72.35233269172636
 30
0.0
 10
364.3895247934947
 20
72.40646857664585
 30
0.0
 10
366.8489882972015
 20
72.59563973183486
 30
0.0
 10
369.2322458086942
 20
72.91977027486973
 30
0.0
 10
371.3168302175362
 20
73.32671770985854
 30
0.0
 10
372.5453672094234
 20
73.66034207822675
 30
0.0
 10
373.0678007059961
 20
73.8022153359792
 30
0.0
  0
SPLINE
  5
55
330
1F
100
AcDbEntity
  8
0
  6
Continuous
 62
     7
370
    15
100
AcDbSpline
210
0.0
220
0.0
230
1.0
 70
     8
 71
     3
 72
    10
 73
     6
 74
     0
 42
0.00000001
 43
0.00000001
 12
1.0
 22
0.0
 32
0.0
 13
1.0
 23
0.0
 33
0.0
 40
0.0
 40
0.0
 40
0.0
 40
0.0
 40
0.0189007682546858
 40
0.6890348199423922
 40
1.0
 40
1.0
 40
1.0
 40
1.0
 10
348.2858434372812
 20
85.05986380399678
 30
0.0
 10
348.3025807086788
 20
84.99284402647488
 30
0.0
 10
348.9127444135794
 20
82.54961210515394
 30
0.0
 10
349.6931491010569
 20
79.02855141791376
 30
0.0
 10
350.3107625623054
 20
75.66130258862857
 30
0.0
 10
350.5065187865168
 20
74.59403323949788
 30
0.0
  0
SPLINE
  5
56
330
1F
100
AcDbEntity
  8
0
  6
Continuous
 62
     7
370
    15
100
AcDbSpline
210
0.0
220
0.0
230
1.0
 70
     8
 71
     3
 72
     9
 73
     5
 74
     0
 42
0.00000001
 43
0.00000001
 12
1.0
 22
0.0
 32
0.0
 13
1.0
 23
0.0
 33
0.0
 40
0.0
 40
0.0
 40
0.0
 40
0.0
 40
0.578792170890532
 40
1.0
 40
1.0
 40
1.0
 40
1.0
 10
373.7740561419398
 20
74.57844662488911
 30
0.0
 10
374.1618412873048
 20
76.5781252516679
 30
0.0
 10
374.8318315962068
 20
80.03304176116777
 30
0.0
 10
375.687242772475
 20
83.57004876314778
 30
0.0
 10
376.0475486570269
 20
85.05986380399678
 30
0.0
  0
LINE
  5
57
330
1F
100
AcDbEntity
  8
0
  6
Continuous
 62
     7
370
    15
100
AcDbLine
 10
87.1556147986
 20
85.059863804
 30
0.0
 11
887.1556267196
 21
85.059863804
 31
0.0
  0
LINE
  5
58
330
1F
100
AcDbEntity
  8
0
  6
Continuous
 62
     7
370
    15
100
AcDbLine
 10
87.1556147986
 20
85.0039248449
 30
0.0
 11
87.1556147986
 21
85.059863804
 31
0.0
  0
LINE
  5
59
330
1F
100
AcDbEntity
  8
0
  6
Continuous
 62
     7
370
    15
100
AcDbLine
 10
887.1556267196
 20
85.0039248449
 30
0.0
 11
887.1556267196
 21
85.059863804
 31
0.0
  0
ARC
  5
5A
330
1F
100
AcDbEntity
  8
0
  6
Continuous
 62
     7
370
    15
100
AcDbCircle
 10
643.1312511121
 20
81.7186441044
 30
0.0
 40
11.35187463082617
100
AcDbArc
 50
340.9819421082
 51
17.1174841036
  0
ARC
  5
5B
330
1F
100
AcDbEntity
  8
0
  6
Continuous
 62
     7
370
    15
100
AcDbCircle
 10
685.1632494459
 20
81.7198072978
 30
0.0
 40
11.33553146763328
100
AcDbArc
 50
162.8632259724
 51
197.753310985
  0
LWPOLYLINE
  5
5C
330
1F
100
AcDbEntity
  8
0
  6
Continuous
 62
     7
370
    15
100
AcDbPolyline
 90
        9
 70
   128
 43
0.0
 10
662.6556262427
 20
73.6452763063
 10
662.7697989398
 20
73.4026555997
 10
663.0949571782
 20
73.1970195753
 10
663.5815993005
 20
73.0596010667
 10
664.155621832
 20
73.0113213045
 10
664.7296443635
 20
73.0596010667
 10
665.2162864858
 20
73.1970195753
 10
665.5414447242
 20
73.4026555997
 10
665.6556174212
 20
73.6452763063
  0
LINE
  5
5D
330
1F
100
AcDbEntity
  8
0
  6
Continuous
 62
     7
370
    15
100
AcDbLine
 10
662.6556262427
 20
85.059863804
 30
0.0
 11
662.6556262427
 21
73.6452763063
 31
0.0
  0
LINE
  5
5E
330
1F
100
AcDbEntity
  8
0
  6
Continuous
 62
     7
370
    15
100
AcDbLine
 10
665.6556174212
 20
73.6452763063
 30
0.0
 11
665.6556174212
 21
85.059863804
 31
0.0
  0
LINE
  5
5F
330
1F
100
AcDbEntity
  8
0
  6
Continuous
 62
     7
370
    15
100
AcDbLine
 10
652.5380656176
 20
74.971986292
 30
0.0
 11
652.5349214726
 21
74.9903445226
 31
0.0
  0
LINE
  5
60
330
1F
100
AcDbEntity
  8
0
  6
Continuous
 62
     7
370
    15
100
AcDbLine
 10
614.3882021361
 20
967.3187558633
 30
0.0
 11
609.6320048028
 21
967.3187558633
 31
0.0
  0
LINE
  5
61
330
1F
100
AcDbEntity
  8
0
  6
Continuous
 62
     7
370
    15
100
AcDbLine
 10
594.8081433826
 20
967.3187558633
 30
0.0
 11
494.0811421775
 21
967.3187558633
 31
0.0
  0
LINE
  5
62
330
1F
100
AcDbEntity
  8
0
  6
Continuous
 62
     7
370
    15
100
AcDbLine
 10
480.2524403722
 20
967.3187558633
 30
0.0
 11
379.4252768212
 21
967.3187558633
 31
0.0
  0
LINE
  5
63
330
1F
100
AcDbEntity
  8
0
  6
Continuous
 62
     7
370
    15
100
AcDbLine
 10
364.6098494583
 20
967.3187558633
 30
0.0
 11
358.9230522567
 21
967.3187558633
 31
0.0
  0
LINE
  5
64
330
1F
100
AcDbEntity
  8
0
  6
Continuous
 62
     7
370
    15
100
AcDbLine
 10
592.72961021
 20
968.4070770723
 30
0.0
 11
495.5809850299
 21
968.4070770723
 31
0.0
  0
LINE
  5
65
330
1F
100
AcDbEntity
  8
0
  6
Continuous
 62
     7
370
    15
100
AcDbLine
 10
478.7085911312
 20
968.4070770723
 30
0.0
 11
381.9525286609
 21
968.4070770723
 31
0.0
  0
SPLINE
  5
66
330
1F
100
AcDbEntity
  8
0
  6
Continuous
 62
     7
370
    15
100
AcDbSpline
210
0.0
220
0.0
230
1.0
 70
     8
 71
     3
 72
    11
 73
     7
 74
     0
 42
0.00000001
 43
0.00000001
 12
1.0
 22
0.0
 32
0.0
 13
1.0
 23
0.0
 33
0.0
 40
0.0
 40
0.0
 40
0.0
 40
0.0
 40
0.2500020872480753
 40
0.4999988815179013
 40
0.750002295461496
 40
1.0
 40
1.0
 40
1.0
 40
1.0
 10
612.1556207590968
 20
964.162302492275
 30
0.0
 10
612.1368313110527
 20
964.3269536857903
 30
0.0
 10
612.09925281277
 20
964.6562525868692
 30
0.0
 10
611.8101903365886
 20
965.0734342603116
 30
0.0
 10
611.3970094075468
 20
965.3687694549957
 30
0.0
 10
611.0694165230711
 20
965.4133874036638
 30
0.0
 10
610.9056219511897
 20
965.4356961232564
 30
0.0
  0
LINE
  5
67
330
1F
100
AcDbEntity
  8
0
  6
Continuous
 62
     7
370
    15
100
AcDbLine
 10
610.9056219512
 20
965.4356961233
 30
0.0
 11
610.9056219512
 21
966.2209873182
 31
0.0
  0
SPLINE
  5
68
330
1F
100
AcDbEntity
  8
0
  6
Continuous
 62
     7
370
    15
100
AcDbSpline
210
0.0
220
0.0
230
1.0
 70
     8
 71
     3
 72
    11
 73
     7
 74
     0
 42
0.00000001
 43
0.00000001
 12
1.0
 22
0.0
 32
0.0
 13
1.0
 23
0.0
 33
0.0
 40
0.0
 40
0.0
 40
0.0
 40
0.0
 40
0.2500018358691591
 40
0.5000020109398157
 40
0.7500018190322112
 40
1.0
 40
1.0
 40
1.0
 40
1.0
 10
612.9556194001109
 20
964.162302492275
 30
0.0
 10
612.9248056131804
 20
964.4298588466584
 30
0.0
 10
612.86317824402
 20
964.9649697780094
 30
0.0
 10
612.3891188868943
 20
965.6417322355205
 30
0.0
 10
611.711502766364
 20
966.118679073644
 30
0.0
 10
611.1742483067922
 20
966.1868846439822
 30
0.0
 10
610.9056219511897
 20
966.2209873181722
 30
0.0
  0
LINE
  5
69
330
1F
100
AcDbEntity
  8
0
  6
Continuous
 62
     7
370
    15
100
AcDbLine
 10
612.1556207591
 20
964.1623024923
 30
0.0
 11
612.9556194001
 21
964.1623024923
 31
0.0
  0
SPLINE
  5
6A
330
1F
100
AcDbEntity
  8
0
  6
Continuous
 62
     7
370
    15
100
AcDbSpline
210
0.0
220
0.0
230
1.0
 70
     8
 71
     3
 72
    11
 73
     7
 74
     0
 42
0.00000001
 43
0.00000001
 12
1.0
 22
0.0
 32
0.0
 13
1.0
 23
0.0
 33
0.0
 40
0.0
 40
0.0
 40
0.0
 40
0.0
 40
0.2499981809677889
 40
0.4999979890601844
 40
0.749998164130841
 40
1.0
 40
1.0
 40
1.0
 40
1.0
 10
363.4056195670038
 20
966.2209873181722
 30
0.0
 10
363.1369932114014
 20
966.1868846439824
 30
0.0
 10
362.5997387518295
 20
966.118679073644
 30
0.0
 10
361.9221226312993
 20
965.6417322355204
 30
0.0
 10
361.4480632741735
 20
964.9649697780093
 30
0.0
 10
361.3864359050131
 20
964.4298588466584
 30
0.0
 10
361.3556221180826
 20
964.162302492275
 30
0.0
  0
LINE
  5
6B
330
1F
100
AcDbEntity
  8
0
  6
Continuous
 62
     7
370
    15
100
AcDbLine
 10
363.405619567
 20
965.4356961233
 30
0.0
 11
363.405619567
 21
966.2209873182
 31
0.0
  0
SPLINE
  5
6C
330
1F
100
AcDbEntity
  8
0
  6
Continuous
 62
     7
370
    15
100
AcDbSpline
210
0.0
220
0.0
230
1.0
 70
     8
 71
     3
 72
    11
 73
     7
 74
     0
 42
0.00000001
 43
0.00000001
 12
1.0
 22
0.0
 32
0.0
 13
1.0
 23
0.0
 33
0.0
 40
0.0
 40
0.0
 40
0.0
 40
0.0
 40
0.2499977045385041
 40
0.5000011184820987
 40
0.7499979127519247
 40
1.0
 40
1.0
 40
1.0
 40
1.0
 10
363.4056195670038
 20
965.4356961232564
 30
0.0
 10
363.2418249951223
 20
965.4133874036639
 30
0.0
 10
362.9142321106467
 20
965.3687694549959
 30
0.0
 10
362.5010511816049
 20
965.0734342603114
 30
0.0
 10
362.2119887054236
 20
964.6562525868692
 30
0.0
 10
362.1744102071407
 20
964.3269536857903
 30
0.0
 10
362.1556207590967
 20
964.162302492275
 30
0.0
  0
LINE
  5
6D
330
1F
100
AcDbEntity
  8
0
  6
Continuous
 62
     7
370
    15
100
AcDbLine
 10
362.1556207591
 20
964.1623024923
 30
0.0
 11
361.3556221181
 21
964.1623024923
 31
0.0
  0
LINE
  5
6E
330
1F
100
AcDbEntity
  8
0
  6
Continuous
 62
     7
370
    15
100
AcDbLine
 10
612.1556207591
 20
931.4292793256
 30
0.0
 11
612.1556207591
 21
964.1623024923
 31
0.0
  0
LINE
  5
6F
330
1F
100
AcDbEntity
  8
0
  6
Continuous
 62
     7
370
    15
100
AcDbLine
 10
612.9556194001
 20
931.4292793256
 30
0.0
 11
612.9556194001
 21
964.1623024923
 31
0.0
  0
LINE
  5
70
330
1F
100
AcDbEntity
  8
0
  6
Continuous
 62
     7
370
    15
100
AcDbLine
 10
610.9056219512
 20
965.4356961233
 30
0.0
 11
608.1873968297
 21
965.4356961233
 31
0.0
  0
LINE
  5
71
330
1F
100
AcDbEntity
  8
0
  6
Continuous
 62
     7
370
    15
100
AcDbLine
 10
596.2308019453
 20
965.4356961233
 30
0.0
 11
492.9496346095
 21
965.4356961233
 31
0.0
  0
LINE
  5
72
330
1F
100
AcDbEntity
  8
0
  6
Continuous
 62
     7
370
    15
100
AcDbLine
 10
481.395426491
 20
965.4356961233
 30
0.0
 11
378.1123951131
 21
965.4356961233
 31
0.0
  0
LINE
  5
73
330
1F
100
AcDbEntity
  8
0
  6
Continuous
 62
     7
370
    15
100
AcDbLine
 10
366.1331951672
 20
965.4356961233
 30
0.0
 11
363.405619567
 21
965.4356961233
 31
0.0
  0
LINE
  5
74
330
1F
100
AcDbEntity
  8
0
  6
Continuous
 62
     7
370
    15
100
AcDbLine
 10
610.9056219512
 20
966.2209873182
 30
0.0
 11
608.6042642647
 21
966.2209873182
 31
0.0
  0
LINE
  5
75
330
1F
100
AcDbEntity
  8
0
  6
Continuous
 62
     7
370
    15
100
AcDbLine
 10
595.7955464774
 20
966.2209873182
 30
0.0
 11
493.2744645567
 21
966.2209873182
 31
0.0
  0
LINE
  5
76
330
1F
100
AcDbEntity
  8
0
  6
Continuous
 62
     7
370
    15
100
AcDbLine
 10
481.0141737626
 20
966.2209873182
 30
0.0
 11
378.4622892791
 21
966.2209873182
 31
0.0
  0
LINE
  5
77
330
1F
100
AcDbEntity
  8
0
  6
Continuous
 62
     7
370
    15
100
AcDbLine
 10
365.6979396993
 20
966.2209873182
 30
0.0
 11
363.405619567
 21
966.2209873182
 31
0.0
  0
LINE
  5
78
330
1F
100
AcDbEntity
  8
0
  6
Continuous
 62
     7
370
    15
100
AcDbLine
 10
612.1556207591
 20
929.466021536
 30
0.0
 11
612.1556207591
 21
931.4292793256
 31
0.0
  0
LINE
  5
79
330
1F
100
AcDbEntity
  8
0
  6
Continuous
 62
     7
370
    15
100
AcDbLine
 10
612.9556194001
 20
931.4292793256
 30
0.0
 11
612.9556194001
 21
929.466021536
 31
0.0
  0
LINE
  5
7A
330
1F
100
AcDbEntity
  8
0
  6
Continuous
 62
     7
370
    15
100
AcDbLine
 10
361.3556221181
 20
931.4292793256
 30
0.0
 11
361.3556221181
 21
964.1623024923
 31
0.0
  0
LINE
  5
7B
330
1F
100
AcDbEntity
  8
0
  6
Continuous
 62
     7
370
    15
100
AcDbLine
 10
362.1556207591
 20
931.4292793256
 30
0.0
 11
362.1556207591
 21
964.1623024923
 31
0.0
  0
LINE
  5
7C
330
1F
100
AcDbEntity
  8
0
  6
Continuous
 62
     7
370
    15
100
AcDbLine
 10
361.3556221181
 20
929.466021536
 30
0.0
 11
361.3556221181
 21
931.4292793256
 31
0.0
  0
LINE
  5
7D
330
1F
100
AcDbEntity
  8
0
  6
Continuous
 62
     7
370
    15
100
AcDbLine
 10
362.1556207591
 20
931.4292793256
 30
0.0
 11
362.1556207591
 21
929.466021536
 31
0.0
  0
LINE
  5
7E
330
1F
100
AcDbEntity
  8
0
  6
Continuous
 62
     7
370
    15
100
AcDbLine
 10
612.1556207591
 20
927.4733488542
 30
0.0
 11
612.1556207591
 21
929.466021536
 31
0.0
  0
LINE
  5
7F
330
1F
100
AcDbEntity
  8
0
  6
Continuous
 62
     7
370
    15
100
AcDbLine
 10
612.9556194001
 20
928.0098204595
 30
0.0
 11
612.9556194001
 21
929.466021536
 31
0.0
  0
LINE
  5
80
330
1F
100
AcDbEntity
  8
0
  6
Continuous
 62
     7
370
    15
100
AcDbLine
 10
361.3556221181
 20
928.0098204595
 30
0.0
 11
361.3556221181
 21
929.466021536
 31
0.0
  0
LINE
  5
81
330
1F
100
AcDbEntity
  8
0
  6
Continuous
 62
     7
370
    15
100
AcDbLine
 10
362.1556207591
 20
927.4733488542
 30
0.0
 11
362.1556207591
 21
929.466021536
 31
0.0
  0
ARC
  5
82
330
1F
100
AcDbEntity
  8
0
  6
Continuous
 62
     7
370
    15
100
AcDbCircle
 10
611.9242804852
 20
928.6946062704
 30
0.0
 40
2.0314298151311
100
AcDbArc
 50
269.4737922244
 51
359.4640493177
  0
LINE
  5
83
330
1F
100
AcDbEntity
  8
0
  6
Continuous
 62
     7
370
    15
100
AcDbLine
 10
613.9556214267
 20
926.2838189584
 30
0.0
 11
613.9556214267
 21
928.6756043416
 31
0.0
  0
ARC
  5
84
330
1F
100
AcDbEntity
  8
0
  6
Continuous
 62
     7
370
    15
100
AcDbCircle
 10
362.386961033
 20
928.6946062704
 30
0.0
 40
2.031429815131209
100
AcDbArc
 50
180.5359506824
 51
270.5262077756
  0
ARC
  5
85
330
1F
100
AcDbEntity
  8
0
  6
Continuous
 62
     7
370
    15
100
AcDbCircle
 10
362.3942413592
 20
928.6872078598
 30
0.0
 40
1.238676976848078
100
AcDbArc
 50
180.5367358528
 51
270.5262197866
  0
ARC
  5
86
330
1F
100
AcDbEntity
  8
0
  6
Continuous
 62
     7
370
    15
100
AcDbCircle
 10
611.917000159
 20
928.6872078598
 30
0.0
 40
1.238676976848021
100
AcDbArc
 50
269.4737802134
 51
359.4632641472
  0
LINE
  5
87
330
1F
100
AcDbEntity
  8
0
  6
Continuous
 62
     7
370
    15
100
AcDbLine
 10
360.3556200915
 20
928.6756043416
 30
0.0
 11
360.3556200915
 21
926.2838189584
 31
0.0
  0
LINE
  5
88
330
1F
100
AcDbEntity
  8
0
  6
Continuous
 62
     7
370
    15
100
AcDbLine
 10
362.4056175404
 20
926.6632621271
 30
0.0
 11
363.5032445246
 21
926.6632621271
 31
0.0
  0
LINE
  5
89
330
1F
100
AcDbEntity
  8
0
  6
Continuous
 62
     7
370
    15
100
AcDbLine
 10
380.465191608
 20
926.6632621271
 30
0.0
 11
479.5449006425
 21
926.6632621271
 31
0.0
  0
LINE
  5
8A
330
1F
100
AcDbEntity
  8
0
  6
Continuous
 62
     7
370
    15
100
AcDbLine
 10
494.777026871
 20
926.6632621271
 30
0.0
 11
593.8362225943
 21
926.6632621271
 31
0.0
  0
LINE
  5
8B
330
1F
100
AcDbEntity
  8
0
  6
Continuous
 62
     7
370
    15
100
AcDbLine
 10
610.8962193185
 20
926.6632621271
 30
0.0
 11
611.9056239777
 21
926.6632621271
 31
0.0
  0
LINE
  5
8C
330
1F
100
AcDbEntity
  8
0
  6
Continuous
 62
     7
370
    15
100
AcDbLine
 10
362.4056175404
 20
927.4485831243
 30
0.0
 11
364.8448929244
 21
927.4485831243
 31
0.0
  0
LINE
  5
8D
330
1F
100
AcDbEntity
  8
0
  6
Continuous
 62
     7
370
    15
100
AcDbLine
 10
379.3368533307
 20
927.4485831243
 30
0.0
 11
480.3617897497
 21
927.4485831243
 31
0.0
  0
LINE
  5
8E
330
1F
100
AcDbEntity
  8
0
  6
Continuous
 62
     7
370
    15
100
AcDbLine
 10
493.8925535471
 20
927.4485831243
 30
0.0
 11
595.0154483372
 21
927.4485831243
 31
0.0
  0
LINE
  5
8F
330
1F
100
AcDbEntity
  8
0
  6
Continuous
 62
     7
370
    15
100
AcDbLine
 10
609.5351398044
 20
927.4485831243
 30
0.0
 11
611.9056239777
 21
927.4485831243
 31
0.0
  0
LINE
  5
90
330
1F
100
AcDbEntity
  8
0
  6
Continuous
 62
     7
370
    15
100
AcDbLine
 10
360.3556200915
 20
959.8422770482
 30
0.0
 11
360.3556200915
 21
928.6756043416
 31
0.0
  0
LINE
  5
91
330
1F
100
AcDbEntity
  8
0
  6
Continuous
 62
     7
370
    15
100
AcDbLine
 10
361.1556187325
 20
959.8422770482
 30
0.0
 11
361.1556187325
 21
928.6756043416
 31
0.0
  0
LINE
  5
92
330
1F
100
AcDbEntity
  8
0
  6
Continuous
 62
     7
370
    15
100
AcDbLine
 10
613.9556214267
 20
959.8422770482
 30
0.0
 11
613.9556214267
 21
928.6756043416
 31
0.0
  0
LINE
  5
93
330
1F
100
AcDbEntity
  8
0
  6
Continuous
 62
     7
370
    15
100
AcDbLine
 10
613.1556227857
 20
959.8422770482
 30
0.0
 11
613.1556227857
 21
928.6756043416
 31
0.0
  0
LINE
  5
94
330
1F
100
AcDbEntity
  8
0
  6
Continuous
 62
     7
370
    15
100
AcDbLine
 10
613.9556214267
 20
961.4606623632
 30
0.0
 11
613.9556214267
 21
959.8422770482
 31
0.0
  0
LINE
  5
95
330
1F
100
AcDbEntity
  8
0
  6
Continuous
 62
     7
370
    15
100
AcDbLine
 10
613.1556227857
 20
959.8422770482
 30
0.0
 11
613.1556227857
 21
961.4606623632
 31
0.0
  0
LINE
  5
96
330
1F
100
AcDbEntity
  8
0
  6
Continuous
 62
     7
370
    15
100
AcDbLine
 10
361.1556187325
 20
961.4606623632
 30
0.0
 11
361.1556187325
 21
959.8422770482
 31
0.0
  0
LINE
  5
97
330
1F
100
AcDbEntity
  8
0
  6
Continuous
 62
     7
370
    15
100
AcDbLine
 10
360.3556200915
 20
959.8422770482
 30
0.0
 11
360.3556200915
 21
961.4606623632
 31
0.0
  0
CIRCLE
  5
98
330
1F
100
AcDbEntity
  8
0
  6
Continuous
 62
     7
370
    15
100
AcDbCircle
 10
487.6556207591
 20
505.0598567355
 30
0.0
 40
10.00000000000004
  0
SPLINE
  5
99
330
1F
100
AcDbEntity
  8
0
  6
Continuous
 62
     7
370
    15
100
AcDbSpline
210
0.0
220
0.0
230
1.0
 70
     8
 71
     3
 72
    10
 73
     6
 74
     0
 42
0.00000001
 43
0.00000001
 12
1.0
 22
0.0
 32
0.0
 13
1.0
 23
0.0
 33
0.0
 40
0.0
 40
0.0
 40
0.0
 40
0.0
 40
0.396977878093522
 40
0.7939735124560666
 40
1.0
 40
1.0
 40
1.0
 40
1.0
 10
494.5338296757311
 20
603.3194114548108
 30
0.0
 10
494.4215481604816
 20
603.3161102046643
 30
0.0
 10
494.1969801077863
 20
603.3095075567109
 30
0.0
 10
493.934266786454
 20
603.1850607828329
 30
0.0
 10
493.807482695122
 20
603.0727305921375
 30
0.0
 10
493.7641660736173
 20
603.0343522411725
 30
0.0
  0
SPLINE
  5
9A
330
1F
100
AcDbEntity
  8
0
  6
Continuous
 62
     7
370
    15
100
AcDbSpline
210
0.0
220
0.0
230
1.0
 70
     8
 71
     3
 72
    10
 73
     6
 74
     0
 42
0.00000001
 43
0.00000001
 12
1.0
 22
0.0
 32
0.0
 13
1.0
 23
0.0
 33
0.0
 40
0.0
 40
0.0
 40
0.0
 40
0.0
 40
0.3969511834362187
 40
0.793914029674951
 40
1.0
 40
1.0
 40
1.0
 40
1.0
 10
482.7444062621564
 20
603.1016682368657
 30
0.0
 10
482.657937938175
 20
603.173358901253
 30
0.0
 10
482.4849987496909
 20
603.3167423363673
 30
0.0
 10
482.2055650221675
 20
603.3968718464025
 30
0.0
 10
482.0361705662298
 20
603.3963023509242
 30
0.0
 10
481.9782816858262
 20
603.3961077314756
 30
0.0
  0
LINE
  5
9B
330
1F
100
AcDbEntity
  8
0
  6
Continuous
 62
     7
370
    15
100
AcDbLine
 10
488.9293354291
 20
598.2582320553
 30
0.0
 11
493.7641660736
 21
603.0343522412
 31
0.0
  0
LINE
  5
9C
330
1F
100
AcDbEntity
  8
0
  6
Continuous
 62
     7
370
    15
100
AcDbLine
 10
487.5205297076
 20
598.2668374759
 30
0.0
 11
482.7444062622
 21
603.1016682369
 31
0.0
  0
ARC
  5
9D
330
1F
100
AcDbEntity
  8
0
  6
Continuous
 62
     7
370
    15
100
AcDbCircle
 10
487.6556207591
 20
505.0598567355
 30
0.0
 40
98.50000000000045
100
AcDbArc
 50
93.3042429845
 51
85.9958037366
  0
ELLIPSE
  5
9E
330
1F
100
AcDbEntity
  8
0
  6
Continuous
 62
     7
370
    15
100
AcDbEllipse
 10
488.2293011826
 20
598.9777202683
 30
0.0
 11
-0.006154782942758175
 21
-1.007606396931919
 31
0.0
210
0.0
220
0.0
230
1.0
 40
0.9924325091
 41
5.501585242055453
 42
7.064785372303757
  0
CIRCLE
  5
9F
330
1F
100
AcDbEntity
  8
0
  6
Continuous
 62
     7
370
    15
100
AcDbCircle
 10
487.6556207591
 20
505.0598567355
 30
0.0
 40
101.5000000000004
  0
CIRCLE
  5
A0
330
1F
100
AcDbEntity
  8
0
  6
Continuous
 62
     7
370
    15
100
AcDbCircle
 10
487.6556207591
 20
505.0598567355
 30
0.0
 40
162.0000000000005
  0
LINE
  5
A1
330
1F
100
AcDbEntity
  8
0
  6
Continuous
 62
     7
370
    15
100
AcDbLine
 10
492.5091050619
 20
669.9884657842
 30
0.0
 11
492.5083469653
 21
669.1132162792
 31
0.0
  0
LINE
  5
A2
330
1F
100
AcDbEntity
  8
0
  6
Continuous
 62
     7
370
    15
100
AcDbLine
 10
492.5083469653
 20
669.1132162792
 30
0.0
 11
487.6556207828
 21
674.1301541311
 31
0.0
  0
LINE
  5
A3
330
1F
100
AcDbEntity
  8
0
  6
Continuous
 62
     7
370
    15
100
AcDbLine
 10
487.6556207828
 20
675.0054185373
 30
0.0
 11
492.5091050619
 21
669.9884657842
 31
0.0
  0
LINE
  5
A4
330
1F
100
AcDbEntity
  8
0
  6
Continuous
 62
     7
370
    15
100
AcDbLine
 10
487.6556207828
 20
674.1301541311
 30
0.0
 11
487.6556207828
 21
675.0054185373
 31
0.0
  0
LINE
  5
A5
330
1F
100
AcDbEntity
  8
0
  6
Continuous
 62
     7
370
    15
100
AcDbLine
 10
487.6556207828
 20
340.0598590356
 30
0.0
 11
487.6556207828
 21
340.9347360116
 31
0.0
  0
ARC
  5
A6
330
1F
100
AcDbEntity
  8
0
  6
Continuous
 62
     7
370
    15
100
AcDbCircle
 10
487.6556207591
 20
505.0598567355
 30
0.0
 40
164.1251133647409
100
AcDbArc
 50
270.0
 51
88.3056765841
  0
ARC
  5
A7
330
1F
100
AcDbEntity
  8
0
  6
Continuous
 62
     7
370
    15
100
AcDbCircle
 10
487.6556207591
 20
505.0598567355
 30
0.0
 40
165.0000000000001
100
AcDbArc
 50
270.0
 51
88.3143982517
  0
LINE
  5
A8
330
1F
100
AcDbEntity
  8
0
  6
Continuous
 62
     7
370
    15
100
AcDbLine
 10
858.6556062156
 20
159.0598647577
 30
0.0
 11
858.6556062156
 21
891.059858082
 31
0.0
  0
LINE
  5
A9
330
1F
100
AcDbEntity
  8
0
  6
Continuous
 62
     7
370
    15
100
AcDbLine
 10
487.6556207828
 20
159.0598647577
 30
0.0
 11
858.6556062156
 21
159.0598647577
 31
0.0
  0
LINE
  5
AA
330
1F
100
AcDbEntity
  8
0
  6
Continuous
 62
     7
370
    15
100
AcDbLine
 10
487.6556207828
 20
340.0598590356
 30
0.0
 11
487.6556207828
 21
159.0598647577
 31
0.0
  0
LINE
  5
AB
330
1F
100
AcDbEntity
  8
0
  6
Continuous
 62
     7
370
    15
100
AcDbLine
 10
487.6556207828
 20
891.059858082
 30
0.0
 11
487.6556207828
 21
675.0054185373
 31
0.0
  0
ARC
  5
AC
330
1F
100
AcDbEntity
  8
0
  6
Continuous
 62
     7
370
    15
100
AcDbCircle
 10
487.6556207591
 20
505.0598567355
 30
0.0
 40
164.1251133647408
100
AcDbArc
 50
88.3056755347
 51
90.0
  0
LINE
  5
AD
330
1F
100
AcDbEntity
  8
0
  6
Continuous
 62
     7
370
    15
100
AcDbLine
 10
487.6556207828
 20
669.1849653703
 30
0.0
 11
487.6556207828
 21
674.1301541311
 31
0.0
  0
LINE
  5
AE
330
1F
100
AcDbEntity
  8
0
  6
Continuous
 62
     7
370
    15
100
AcDbLine
 10
487.6556207828
 20
343.0598502141
 30
0.0
 11
487.6556207828
 21
340.9347360116
 31
0.0
  0
LINE
  5
AF
330
1F
100
AcDbEntity
  8
0
  6
Continuous
 62
     7
370
    15
100
AcDbLine
 10
487.6556207828
 20
669.1849653703
 30
0.0
 11
487.6556207828
 21
667.0598511678
 31
0.0
  0
ARC
  5
B0
330
1F
100
AcDbEntity
  8
0
  6
Continuous
 62
     7
370
    15
100
AcDbCircle
 10
485.6556207591
 20
207.0598567355
 30
0.0
 40
2.0
100
AcDbArc
 50
300.0000000001
 51
0.0
  0
LINE
  5
B1
330
1F
100
AcDbEntity
  8
0
  6
Continuous
 62
     7
370
    15
100
AcDbLine
 10
487.6556207828
 20
197.0598523599
 30
0.0
 11
486.6556207353
 21
197.0598523599
 31
0.0
  0
ARC
  5
B2
330
1F
100
AcDbEntity
  8
0
  6
Continuous
 62
     7
370
    15
100
AcDbCircle
 10
485.6556207591
 20
815.0598567355
 30
0.0
 40
2.0
100
AcDbArc
 50
299.9999999999
 51
0.0
  0
ARC
  5
B3
330
1F
100
AcDbEntity
  8
0
  6
Continuous
 62
     7
370
    15
100
AcDbCircle
 10
485.6556207591
 20
803.0598567355
 30
0.0
 40
2.0
100
AcDbArc
 50
0.0
 51
60.0000000001
  0
LWPOLYLINE
  5
B4
330
1F
100
AcDbEntity
  8
0
  6
Continuous
 62
     7
370
    15
100
AcDbPolyline
 90
        4
 70
   128
 43
0.0
 10
486.6556207353
 20
675.0054185373
 10
486.4751134238
 20
674.5173608047
 10
486.3033281227
 20
674.052861808
 10
486.1315429962
 20
673.5883479101
  0
LINE
  5
B5
330
1F
100
AcDbEntity
  8
0
  6
Continuous
 62
     7
370
    15
100
AcDbLine
 10
486.1315429962
 20
673.5883330089
 30
0.0
 11
481.8028945529
 21
669.1132162792
 31
0.0
  0
LINE
  5
B6
330
1F
100
AcDbEntity
  8
0
  6
Continuous
 62
     7
370
    15
100
AcDbLine
 10
481.8028945529
 20
669.1132162792
 30
0.0
 11
481.8021364563
 21
669.9884657842
 31
0.0
  0
LINE
  5
B7
330
1F
100
AcDbEntity
  8
0
  6
Continuous
 62
     7
370
    15
100
AcDbLine
 10
481.8021364563
 20
669.9884657842
 30
0.0
 11
486.6556207353
 21
675.0054185373
 31
0.0
  0
LINE
  5
B8
330
1F
100
AcDbEntity
  8
0
  6
Continuous
 62
     7
370
    15
100
AcDbLine
 10
486.6556207353
 20
340.0598590356
 30
0.0
 11
486.1315429962
 21
340.9355853778
 31
0.0
  0
ARC
  5
B9
330
1F
100
AcDbEntity
  8
0
  6
Continuous
 62
     7
370
    15
100
AcDbCircle
 10
486.6556207591
 20
505.0598567355
 30
0.0
 40
165.0
100
AcDbArc
 50
91.6856017483
 51
270.0
  0
ARC
  5
BA
330
1F
100
AcDbEntity
  8
0
  6
Continuous
 62
     7
370
    15
100
AcDbCircle
 10
486.6556207591
 20
505.0598567355
 30
0.0
 40
164.1251133647408
100
AcDbArc
 50
91.6943249077
 51
269.8170450818
  0
LINE
  5
BB
330
1F
100
AcDbEntity
  8
0
  6
Continuous
 62
     7
370
    15
100
AcDbLine
 10
486.6556207353
 20
159.0598647577
 30
0.0
 11
486.6556207353
 21
340.0598590356
 31
0.0
  0
LINE
  5
BC
330
1F
100
AcDbEntity
  8
0
  6
Continuous
 62
     7
370
    15
100
AcDbLine
 10
115.6556353026
 20
159.0598647577
 30
0.0
 11
486.6556207353
 21
159.0598647577
 31
0.0
  0
LINE
  5
BD
330
1F
100
AcDbEntity
  8
0
  6
Continuous
 62
     7
370
    15
100
AcDbLine
 10
115.6556353026
 20
891.059858082
 30
0.0
 11
115.6556353026
 21
159.0598647577
 31
0.0
  0
LINE
  5
BE
330
1F
100
AcDbEntity
  8
0
  6
Continuous
 62
     7
370
    15
100
AcDbLine
 10
486.6556207353
 20
675.0054185373
 30
0.0
 11
486.6556207353
 21
891.059858082
 31
0.0
  0
ARC
  5
BF
330
1F
100
AcDbEntity
  8
0
  6
Continuous
 62
     7
370
    15
100
AcDbCircle
 10
486.6556207591
 20
505.0598567355
 30
0.0
 40
164.1251133647408
100
AcDbArc
 50
90.1829549182
 51
91.6943243437
  0
LINE
  5
C0
330
1F
100
AcDbEntity
  8
0
  6
Continuous
 62
     7
370
    15
100
AcDbLine
 10
486.1315429962
 20
673.5883330089
 30
0.0
 11
486.1315429962
 21
669.1841309053
 31
0.0
  0
LINE
  5
C1
330
1F
100
AcDbEntity
  8
0
  6
Continuous
 62
     7
370
    15
100
AcDbLine
 10
485.9219118308
 20
340.9363900405
 30
0.0
 11
485.9219118308
 21
343.0691336376
 31
0.0
  0
LINE
  5
C2
330
1F
100
AcDbEntity
  8
0
  6
Continuous
 62
     7
370
    15
100
AcDbLine
 10
485.9219118308
 20
667.0505826455
 30
0.0
 11
485.9219118308
 21
669.1833262426
 31
0.0
  0
LINE
  5
C3
330
1F
100
AcDbEntity
  8
0
  6
Continuous
 62
     7
370
    15
100
AcDbLine
 10
114.6556183749
 20
891.5598516446
 30
0.0
 11
114.6556183749
 21
892.0598452073
 31
0.0
  0
ARC
  5
C4
330
1F
100
AcDbEntity
  8
0
  6
Continuous
 62
     7
370
    15
100
AcDbCircle
 10
115.1556207591
 20
891.5598567355
 30
0.0
 40
0.5
100
AcDbArc
 50
180.0
 51
270.0
  0
LINE
  5
C5
330
1F
100
AcDbEntity
  8
0
  6
Continuous
 62
     7
370
    15
100
AcDbLine
 10
859.6556231433
 20
892.0598452073
 30
0.0
 11
859.6556231433
 21
891.5598516446
 31
0.0
  0
ARC
  5
C6
330
1F
100
AcDbEntity
  8
0
  6
Continuous
 62
     7
370
    15
100
AcDbCircle
 10
859.1556207591
 20
891.5598567355
 30
0.0
 40
0.4999999999998863
100
AcDbArc
 50
270.0
 51
0.0
  0
LINE
  5
C7
330
1F
100
AcDbEntity
  8
0
  6
Continuous
 62
     7
370
    15
100
AcDbLine
 10
859.6556231433
 20
909.0598647577
 30
0.0
 11
859.6556231433
 21
892.0598452073
 31
0.0
  0
LINE
  5
C8
330
1F
100
AcDbEntity
  8
0
  6
Continuous
 62
     7
370
    15
100
AcDbLine
 10
114.6556183749
 20
892.0598452073
 30
0.0
 11
114.6556183749
 21
909.0598647577
 31
0.0
  0
LINE
  5
C9
330
1F
100
AcDbEntity
  8
0
  6
Continuous
 62
     7
370
    15
100
AcDbLine
 10
859.6556231433
 20
909.5598583204
 30
0.0
 11
859.6556231433
 21
909.0598647577
 31
0.0
  0
ARC
  5
CA
330
1F
100
AcDbEntity
  8
0
  6
Continuous
 62
     7
370
    15
100
AcDbCircle
 10
859.1556207591
 20
909.5598567355
 30
0.0
 40
0.5000000000001137
100
AcDbArc
 50
0.0
 51
90.0
  0
LINE
  5
CB
330
1F
100
AcDbEntity
  8
0
  6
Continuous
 62
     7
370
    15
100
AcDbLine
 10
859.1556295806
 20
891.059858082
 30
0.0
 11
115.1556119376
 21
891.059858082
 31
0.0
  0
LINE
  5
CC
330
1F
100
AcDbEntity
  8
0
  6
Continuous
 62
     7
370
    15
100
AcDbLine
 10
859.1556295806
 20
910.0598518831
 30
0.0
 11
115.1556119376
 21
910.0598518831
 31
0.0
  0
LINE
  5
CD
330
1F
100
AcDbEntity
  8
0
  6
Continuous
 62
     7
370
    15
100
AcDbLine
 10
114.6556183749
 20
909.0598647577
 30
0.0
 11
114.6556183749
 21
909.5598583204
 31
0.0
  0
ARC
  5
CE
330
1F
100
AcDbEntity
  8
0
  6
Continuous
 62
     7
370
    15
100
AcDbCircle
 10
115.1556207591
 20
909.5598567355
 30
0.0
 40
0.5000000000001137
100
AcDbArc
 50
90.0
 51
180.0
  0
ELLIPSE
  5
CF
330
1F
100
AcDbEntity
  8
0
  6
Continuous
 62
     7
370
    15
100
AcDbEllipse
 10
604.7350482233
 20
919.2372081812
 30
0.0
 11
2.001816800467168
 21
-1.98394871433868
 31
0.0
210
0.0
220
0.0
230
1.0
 40
0.1263244604
 41
4.83693783752699
 42
6.06914028943508
  0
ELLIPSE
  5
D0
330
1F
100
AcDbEntity
  8
0
  6
Continuous
 62
     7
370
    15
100
AcDbEllipse
 10
604.7534626287
 20
917.1834340209
 30
0.0
 11
2.00008477009203
 21
-0.0005700245060324959
 31
0.0
210
0.0
220
0.0
230
1.0
 40
0.0923977318
 41
0.0368939890404779
 42
0.3416783582806826
  0
ELLIPSE
  5
D1
330
1F
100
AcDbEntity
  8
0
  6
Continuous
 62
     7
370
    15
100
AcDbEllipse
 10
284.5577788895
 20
917.1834340209
 30
0.0
 11
2.000084770091916
 21
0.0005700245063735564
 31
0.0
210
0.0
220
0.0
230
1.0
 40
0.0923977318
 41
2.79991429530749
 42
3.104698664547476
  0
ELLIPSE
  5
D2
330
1F
100
AcDbEntity
  8
0
  6
Continuous
 62
     7
370
    15
100
AcDbEllipse
 10
284.5761932949
 20
919.2372081812
 30
0.0
 11
2.001816800467225
 21
1.98394871433868
 31
0.0
210
0.0
220
0.0
230
1.0
 40
0.1263244604
 41
3.355637671334346
 42
4.587840123242318
  0
ELLIPSE
  5
D3
330
1F
100
AcDbEntity
  8
0
  6
Continuous
 62
     7
370
    15
100
AcDbEllipse
 10
289.7350482233
 20
919.2372081812
 30
0.0
 11
2.001816800467225
 21
-1.98394871433868
 31
0.0
210
0.0
220
0.0
230
1.0
 40
0.1263244604
 41
4.836937837527041
 42
6.069140289435084
  0
ELLIPSE
  5
D4
330
1F
100
AcDbEntity
  8
0
  6
Continuous
 62
     7
370
    15
100
AcDbEllipse
 10
289.7534626287
 20
917.1834340209
 30
0.0
 11
2.000084770091973
 21
-0.0005700245060324959
 31
0.0
210
0.0
220
0.0
230
1.0
 40
0.0923977318
 41
0.0368939890404789
 42
0.3416783582806832
  0
ELLIPSE
  5
D5
330
1F
100
AcDbEntity
  8
0
  6
Continuous
 62
     7
370
    15
100
AcDbEllipse
 10
599.5577788895
 20
917.1834340209
 30
0.0
 11
2.00008477009203
 21
0.0005700245063735564
 31
0.0
210
0.0
220
0.0
230
1.0
 40
0.0923977318
 41
2.799914295307472
 42
3.104698664548084
  0
ELLIPSE
  5
D6
330
1F
100
AcDbEntity
  8
0
  6
Continuous
 62
     7
370
    15
100
AcDbEllipse
 10
599.5761932949
 20
919.2372081812
 30
0.0
 11
2.001816800467281
 21
1.98394871433868
 31
0.0
210
0.0
220
0.0
230
1.0
 40
0.1263244604
 41
3.3556376713345
 42
4.58784012324235
  0
ELLIPSE
  5
D7
330
1F
100
AcDbEntity
  8
0
  6
Continuous
 62
     7
370
    15
100
AcDbEllipse
 10
783.647981084
 20
978.3022170604
 30
0.0
 11
1.424997215780422
 21
1.424997215780422
 31
0.0
210
0.0
220
0.0
230
1.0
 40
0.9924325091
 41
5.501585242055401
 42
7.064785372303672
  0
ELLIPSE
  5
D8
330
1F
100
AcDbEntity
  8
0
  6
Continuous
 62
     7
370
    15
100
AcDbEllipse
 10
190.6632604342
 20
978.3022170604
 30
0.0
 11
-1.424997215780479
 21
1.424997215780422
 31
0.0
210
0.0
220
0.0
230
1.0
 40
0.9924325091
 41
5.501585242055389
 42
7.064785372303801
  0
LINE
  5
D9
330
1F
100
AcDbEntity
  8
0
  6
Continuous
 62
     7
370
    15
100
AcDbLine
 10
188.6556193286
 20
978.3174817544
 30
0.0
 11
188.6556193286
 21
916.3022463304
 31
0.0
  0
LINE
  5
DA
330
1F
100
AcDbEntity
  8
0
  6
Continuous
 62
     7
370
    15
100
AcDbLine
 10
785.6556221896
 20
916.3022463304
 30
0.0
 11
785.6556221896
 21
978.3174817544
 31
0.0
  0
LINE
  5
DB
330
1F
100
AcDbEntity
  8
0
  6
Continuous
 62
     7
370
    15
100
AcDbLine
 10
783.6632177287
 20
980.309856413
 30
0.0
 11
190.6480237895
 21
980.309856413
 31
0.0
  0
LINE
  5
DC
330
1F
100
AcDbEntity
  8
0
  6
Continuous
 62
     7
370
    15
100
AcDbLine
 10
607.6572135144
 20
963.3438115102
 30
0.0
 11
607.6572135144
 21
931.2758867723
 31
0.0
  0
LINE
  5
DD
330
1F
100
AcDbEntity
  8
0
  6
Continuous
 62
     7
370
    15
100
AcDbLine
 10
606.7521914893
 20
917.1896700841
 30
0.0
 11
607.2144404107
 21
916.0315816385
 31
0.0
  0
LINE
  5
DE
330
1F
100
AcDbEntity
  8
0
  6
Continuous
 62
     7
370
    15
100
AcDbLine
 10
597.0967978292
 20
916.0315816385
 30
0.0
 11
597.5590542012
 21
917.1896700841
 31
0.0
  0
LINE
  5
DF
330
1F
100
AcDbEntity
  8
0
  6
Continuous
 62
     7
370
    15
100
AcDbLine
 10
596.6540247255
 20
931.0996954423
 30
0.0
 11
596.6540247255
 21
963.5200028402
 31
0.0
  0
LINE
  5
E0
330
1F
100
AcDbEntity
  8
0
  6
Continuous
 62
     7
370
    15
100
AcDbLine
 10
771.6540142947
 20
958.6429719907
 30
0.0
 11
771.6540142947
 21
955.5793230516
 31
0.0
  0
LINE
  5
E1
330
1F
100
AcDbEntity
  8
0
  6
Continuous
 62
     7
370
    15
100
AcDbLine
 10
771.6540142947
 20
939.0403752309
 30
0.0
 11
771.6540142947
 21
935.9767560941
 31
0.0
  0
LINE
  5
E2
330
1F
100
AcDbEntity
  8
0
  6
Continuous
 62
     7
370
    15
100
AcDbLine
 10
492.6572137566
 20
963.914436577
 30
0.0
 11
492.6572137566
 21
930.7052915079
 31
0.0
  0
LINE
  5
E3
330
1F
100
AcDbEntity
  8
0
  6
Continuous
 62
     7
370
    15
100
AcDbLine
 10
366.6540280038
 20
931.2758867723
 30
0.0
 11
366.6540280038
 21
963.3438115102
 31
0.0
  0
LINE
  5
E4
330
1F
100
AcDbEntity
  8
0
  6
Continuous
 62
     7
370
    15
100
AcDbLine
 10
481.6540277616
 20
930.7052915079
 30
0.0
 11
481.6540277616
 21
963.914436577
 31
0.0
  0
LINE
  5
E5
330
1F
100
AcDbEntity
  8
0
  6
Continuous
 62
     7
370
    15
100
AcDbLine
 10
377.6572167927
 20
963.5200028402
 30
0.0
 11
377.6572167927
 21
931.0996954423
 31
0.0
  0
LINE
  5
E6
330
1F
100
AcDbEntity
  8
0
  6
Continuous
 62
     7
370
    15
100
AcDbLine
 10
202.6572272235
 20
958.6429719907
 30
0.0
 11
202.6572272235
 21
955.5793230516
 31
0.0
  0
LINE
  5
E7
330
1F
100
AcDbEntity
  8
0
  6
Continuous
 62
     7
370
    15
100
AcDbLine
 10
202.6572272235
 20
939.0403752309
 30
0.0
 11
202.6572272235
 21
935.9767560941
 31
0.0
  0
LINE
  5
E8
330
1F
100
AcDbEntity
  8
0
  6
Continuous
 62
     7
370
    15
100
AcDbLine
 10
282.0967927628
 20
916.0315816385
 30
0.0
 11
282.5590565854
 21
917.1896700841
 31
0.0
  0
LINE
  5
E9
330
1F
100
AcDbEntity
  8
0
  6
Continuous
 62
     7
370
    15
100
AcDbLine
 10
281.6540345603
 20
932.3179547769
 30
0.0
 11
281.6540345603
 21
962.3017733079
 31
0.0
  0
LINE
  5
EA
330
1F
100
AcDbEntity
  8
0
  6
Continuous
 62
     7
370
    15
100
AcDbLine
 10
681.6540256196
 20
932.0114974958
 30
0.0
 11
681.6540256196
 21
962.608230589
 31
0.0
  0
LINE
  5
EB
330
1F
100
AcDbEntity
  8
0
  6
Continuous
 62
     7
370
    15
100
AcDbLine
 10
692.6572069579
 20
962.3017733079
 30
0.0
 11
692.6572069579
 21
932.3179547769
 31
0.0
  0
LINE
  5
EC
330
1F
100
AcDbEntity
  8
0
  6
Continuous
 62
     7
370
    15
100
AcDbLine
 10
292.6572158986
 20
962.608230589
 30
0.0
 11
292.6572158986
 21
932.0114974958
 31
0.0
  0
LINE
  5
ED
330
1F
100
AcDbEntity
  8
0
  6
Continuous
 62
     7
370
    15
100
AcDbLine
 10
291.7521938735
 20
917.1896700841
 30
0.0
 11
292.2144427949
 21
916.0315816385
 31
0.0
  0
ELLIPSE
  5
EE
330
1F
100
AcDbEntity
  8
0
  6
Continuous
 62
     7
370
    15
100
AcDbEllipse
 10
190.6632604342
 20
916.3174964106
 30
0.0
 11
-1.424997215780479
 21
-1.424997215780422
 31
0.0
210
0.0
220
0.0
230
1.0
 40
0.9924325091
 41
5.501585242055487
 42
7.064785372303723
  0
ELLIPSE
  5
EF
330
1F
100
AcDbEntity
  8
0
  6
Continuous
 62
     7
370
    15
100
AcDbEllipse
 10
783.647981084
 20
916.3174964106
 30
0.0
 11
1.424997215780422
 21
-1.424997215780422
 31
0.0
210
0.0
220
0.0
230
1.0
 40
0.9924325091
 41
5.501585242055515
 42
7.06478537230373
  0
SPLINE
  5
F0
330
1F
100
AcDbEntity
  8
0
  6
Continuous
 62
     7
370
    15
100
AcDbSpline
210
0.0
220
0.0
230
1.0
 70
     8
 71
     3
 72
    13
 73
     9
 74
     0
 42
0.00000001
 43
0.00000001
 12
1.0
 22
0.0
 32
0.0
 13
1.0
 23
0.0
 33
0.0
 40
0.0
 40
0.0
 40
0.0
 40
0.0
 40
0.00161859165452
 40
0.1076388678119966
 40
0.213538923912389
 40
0.5545559663911159
 40
0.7768856123375099
 40
1.0
 40
1.0
 40
1.0
 40
1.0
 10
612.4294295960337
 20
915.4624466878316
 30
0.0
 10
612.425361569235
 20
915.4626553082934
 30
0.0
 10
612.1548314465651
 20
915.4765288941636
 30
0.0
 10
611.6183991305363
 20
915.5039412707166
 30
0.0
 10
610.2538441607469
 20
915.578388533317
 30
0.0
 10
608.7320475731881
 20
915.6882376229012
 30
0.0
 10
607.4888330948544
 20
915.8618378549863
 30
0.0
 10
607.3060119977993
 20
915.9749339632531
 30
0.0
 10
607.2144404107005
 20
916.0315816384694
 30
0.0
  0
LINE
  5
F1
330
1F
100
AcDbEntity
  8
0
  6
Continuous
 62
     7
370
    15
100
AcDbLine
 10
190.6480237895
 20
914.3098418695
 30
0.0
 11
783.6632177287
 21
914.3098418695
 31
0.0
  0
SPLINE
  5
F2
330
1F
100
AcDbEntity
  8
0
  6
Continuous
 62
     7
370
    15
100
AcDbSpline
210
0.0
220
0.0
230
1.0
 70
     8
 71
     3
 72
    13
 73
     9
 74
     0
 42
0.00000001
 43
0.00000001
 12
1.0
 22
0.0
 32
0.0
 13
1.0
 23
0.0
 33
0.0
 40
0.0
 40
0.0
 40
0.0
 40
0.0
 40
0.22311383106913
 40
0.4454437081538844
 40
0.7864598028969666
 40
0.8923597631407152
 40
0.9983814098105668
 40
1.0
 40
1.0
 40
1.0
 40
1.0
 10
282.0967927628427
 20
916.0315816384694
 30
0.0
 10
282.0052278834572
 20
915.9749339121714
 30
0.0
 10
281.822419855758
 20
915.8618375024162
 30
0.0
 10
280.5791895596776
 20
915.688238062697
 30
0.0
 10
279.0574015198216
 20
915.5783886335423
 30
0.0
 10
277.692846902692
 20
915.5039408317165
 30
0.0
 10
277.156405398504
 20
915.4765290852846
 30
0.0
 10
276.8858716040979
 20
915.4626553083247
 30
0.0
 10
276.8818035775095
 20
915.4624466878316
 30
0.0
  0
SPLINE
  5
F3
330
1F
100
AcDbEntity
  8
0
  6
Continuous
 62
     7
370
    15
100
AcDbSpline
210
0.0
220
0.0
230
1.0
 70
     8
 71
     3
 72
    13
 73
     9
 74
     0
 42
0.00000001
 43
0.00000001
 12
1.0
 22
0.0
 32
0.0
 13
1.0
 23
0.0
 33
0.0
 40
0.0
 40
0.0
 40
0.0
 40
0.0
 40
0.0016185913199877
 40
0.1076388455650759
 40
0.2135388797779272
 40
0.5545564908364322
 40
0.776885658451039
 40
1.0
 40
1.0
 40
1.0
 40
1.0
 10
297.4294319802195
 20
915.4624466878316
 30
0.0
 10
297.4253639534246
 20
915.4626553082936
 30
0.0
 10
297.1548338310117
 20
915.4765288941853
 30
0.0
 10
296.618401414021
 20
915.5039412627588
 30
0.0
 10
295.2538456560961
 20
915.5783886737481
 30
0.0
 10
293.7320403304348
 20
915.6882371574538
 30
0.0
 10
292.4888371257973
 20
915.8618380683299
 30
0.0
 10
292.3060149907714
 20
915.9749339978149
 30
0.0
 10
292.2144427948862
 20
916.0315816384694
 30
0.0
  0
SPLINE
  5
F4
330
1F
100
AcDbEntity
  8
0
  6
Continuous
 62
     7
370
    15
100
AcDbSpline
210
0.0
220
0.0
230
1.0
 70
     8
 71
     3
 72
    13
 73
     9
 74
     0
 42
0.00000001
 43
0.00000001
 12
1.0
 22
0.0
 32
0.0
 13
1.0
 23
0.0
 33
0.0
 40
0.0
 40
0.0
 40
0.0
 40
0.0
 40
0.2231141324210298
 40
0.4454441331039132
 40
0.7864604174254354
 40
0.8923604365413298
 40
0.9983814089107564
 40
1.0
 40
1.0
 40
1.0
 40
1.0
 10
597.0967978292376
 20
916.0315816384694
 30
0.0
 10
597.0052299003861
 20
915.9749339204311
 30
0.0
 10
596.8224158569869
 20
915.8618375720284
 30
0.0
 10
595.5791878329586
 20
915.6882380755231
 30
0.0
 10
594.0573998882738
 20
915.5783885132141
 30
0.0
 10
592.6928454889063
 20
915.5039410551958
 30
0.0
 10
592.156408629261
 20
915.4765289897115
 30
0.0
 10
591.8858766705999
 20
915.462655308309
 30
0.0
 10
591.8818086439044
 20
915.4624466878316
 30
0.0
  0
SPLINE
  5
F5
330
1F
100
AcDbEntity
  8
0
  6
Continuous
 62
     7
370
    15
100
AcDbSpline
210
0.0
220
0.0
230
1.0
 70
     8
 71
     3
 72
    19
 73
    15
 74
     0
 42
0.00000001
 43
0.00000001
 12
1.0
 22
0.0
 32
0.0
 13
1.0
 23
0.0
 33
0.0
 40
0.0
 40
0.0
 40
0.0
 40
0.0
 40
0.3243814097393345
 40
0.5392411827927203
 40
0.6822240182232917
 40
0.7780876401256408
 40
0.8430793564599225
 40
0.8878384410593811
 40
0.9311114838909788
 40
0.9564444431351954
 40
0.9725802617712527
 40
0.9849246767807331
 40
0.9973134673531017
 40
1.0
 40
1.0
 40
1.0
 40
1.0
 10
203.2696351462275
 20
938.6571173650167
 30
0.0
 10
203.2023183038797
 20
938.7971994766672
 30
0.0
 10
203.0904129585064
 20
939.030067456479
 30
0.0
 10
202.9481408425903
 20
939.2758008425774
 30
0.0
 10
202.8530543706568
 20
939.4016710365576
 30
0.0
 10
202.7891107701716
 20
939.4519309427723
 30
0.0
 10
202.7457022361863
 20
939.4567824840898
 30
0.0
 10
202.7134671449625
 20
939.4322709419619
 30
0.0
 10
202.6897949588154
 20
939.3850360548015
 30
0.0
 10
202.6730164375822
 20
939.31030281821
 30
0.0
 10
202.6637403907336
 20
939.2320555855788
 30
0.0
 10
202.6587451748399
 20
939.1494818537336
 30
0.0
 10
202.6572352809534
 20
939.0833358540302
 30
0.0
 10
202.6572284421988
 20
939.0468731508121
 30
0.0
 10
202.6572272234827
 20
939.0403752309225
 30
0.0
  0
SPLINE
  5
F6
330
1F
100
AcDbEntity
  8
0
  6
Continuous
 62
     7
370
    15
100
AcDbSpline
210
0.0
220
0.0
230
1.0
 70
     8
 71
     3
 72
    14
 73
    10
 74
     0
 42
0.00000001
 43
0.00000001
 12
1.0
 22
0.0
 32
0.0
 13
1.0
 23
0.0
 33
0.0
 40
0.0
 40
0.0
 40
0.0
 40
0.0
 40
0.0119835650334149
 40
0.0239896719062144
 40
0.0398827757767054
 40
0.0687367684888712
 40
0.167550922601974
 40
0.6411393147358385
 40
1.0
 40
1.0
 40
1.0
 40
1.0
 10
202.6572272234827
 20
955.5793230515859
 30
0.0
 10
202.6574388755945
 20
955.5501506550228
 30
0.0
 10
202.657862577949
 20
955.4917509867839
 30
0.0
 10
202.6622789078215
 20
955.4060965517748
 30
0.0
 10
202.6714886615129
 20
955.3160975378238
 30
0.0
 10
202.7001206418218
 20
955.1875221248813
 30
0.0
 10
202.8280533718439
 20
955.1112815500906
 30
0.0
 10
203.0225437549514
 20
955.4622381181445
 30
0.0
 10
203.1952032992172
 20
955.8118616289671
 30
0.0
 10
203.2696351462275
 20
955.9625809174917
 30
0.0
  0
LINE
  5
F7
330
1F
100
AcDbEntity
  8
0
  6
Continuous
 62
     7
370
    15
100
AcDbLine
 10
203.2696351462
 20
955.9625809175
 30
0.0
 11
204.3649002963
 21
954.2399470788
 31
0.0
  0
LINE
  5
F8
330
1F
100
AcDbEntity
  8
0
  6
Continuous
 62
     7
370
    15
100
AcDbLine
 10
204.3649002963
 20
940.3797512037
 30
0.0
 11
203.2696351462
 21
938.657117365
 31
0.0
  0
LINE
  5
F9
330
1F
100
AcDbEntity
  8
0
  6
Continuous
 62
     7
370
    15
100
AcDbLine
 10
771.041606372
 20
938.657117365
 30
0.0
 11
769.9463412219
 21
940.3797512037
 31
0.0
  0
LINE
  5
FA
330
1F
100
AcDbEntity
  8
0
  6
Continuous
 62
     7
370
    15
100
AcDbLine
 10
769.9463412219
 20
954.2399470788
 30
0.0
 11
771.041606372
 21
955.9625809175
 31
0.0
  0
SPLINE
  5
FB
330
1F
100
AcDbEntity
  8
0
  6
Continuous
 62
     7
370
    15
100
AcDbSpline
210
0.0
220
0.0
230
1.0
 70
     8
 71
     3
 72
    19
 73
    15
 74
     0
 42
0.00000001
 43
0.00000001
 12
1.0
 22
0.0
 32
0.0
 13
1.0
 23
0.0
 33
0.0
 40
0.0
 40
0.0
 40
0.0
 40
0.0
 40
0.3243817717920632
 40
0.5392422538221804
 40
0.6822255610558348
 40
0.7780894992811342
 40
0.8430814300697737
 40
0.8878406623616042
 40
0.9311138479820544
 40
0.9564452942532253
 40
0.9725836891494168
 40
0.9849247452011546
 40
0.9973175616936292
 40
1.0
 40
1.0
 40
1.0
 40
1.0
 10
771.041606371966
 20
955.9625809174917
 30
0.0
 10
771.108923258765
 20
955.8225119114569
 30
0.0
 10
771.2208287753951
 20
955.5896655154111
 30
0.0
 10
771.3631006821198
 20
955.3439261886582
 30
0.0
 10
771.4581871130287
 20
955.2180578752931
 30
0.0
 10
771.5221308236579
 20
955.1677955995129
 30
0.0
 10
771.5655391196889
 20
955.1629488727754
 30
0.0
 10
771.5977747723034
 20
955.1874491046196
 30
0.0
 10
771.6214450258585
 20
955.2347155365723
 30
0.0
 10
771.6382270682678
 20
955.3093818775453
 30
0.0
 10
771.6474992686622
 20
955.3876725152375
 30
0.0
 10
771.6524977940138
 20
955.4702268928545
 30
0.0
 10
771.6540059773816
 20
955.5363730830964
 30
0.0
 10
771.6540130383131
 20
955.5728351232243
 30
0.0
 10
771.6540142947108
 20
955.5793230515859
 30
0.0
  0
SPLINE
  5
FC
330
1F
100
AcDbEntity
  8
0
  6
Continuous
 62
     7
370
    15
100
AcDbSpline
210
0.0
220
0.0
230
1.0
 70
     8
 71
     3
 72
    14
 73
    10
 74
     0
 42
0.00000001
 43
0.00000001
 12
1.0
 22
0.0
 32
0.0
 13
1.0
 23
0.0
 33
0.0
 40
0.0
 40
0.0
 40
0.0
 40
0.0
 40
0.0127130653508917
 40
0.025449412751852
 40
0.0421358996818159
 40
0.0736054029566683
 40
0.1869940586129127
 40
0.636254563480305
 40
0.9999999999999999
 40
0.9999999999999999
 40
0.9999999999999999
 40
0.9999999999999999
 10
771.6540142947108
 20
939.0403752309225
 30
0.0
 10
771.6537614051946
 20
939.0713552672894
 30
0.0
 10
771.6532551630332
 20
939.1333720752586
 30
0.0
 10
771.6483548977682
 20
939.2222987632986
 30
0.0
 10
771.6381408150951
 20
939.3144023902729
 30
0.0
 10
771.6055649193852
 20
939.4467248214548
 30
0.0
 10
771.4790219219916
 20
939.4845193109014
 30
0.0
 10
771.2857457758382
 20
939.1555306493002
 30
0.0
 10
771.1170722653573
 20
938.8111818182756
 30
0.0
 10
771.041606371966
 20
938.6571173650167
 30
0.0
  0
ARC
  5
FD
330
1F
100
AcDbEntity
  8
0
  6
Continuous
 62
     7
370
    15
100
AcDbCircle
 10
197.1556207591
 20
947.3098567355
 30
0.0
 40
10.0000000000001
100
AcDbArc
 50
316.1311450389
 51
43.8688549611
  0
ARC
  5
FE
330
1F
100
AcDbEntity
  8
0
  6
Continuous
 62
     7
370
    15
100
AcDbCircle
 10
777.1556207591
 20
947.3098567355
 30
0.0
 40
10.0000000000001
100
AcDbArc
 50
136.1311450389
 51
223.8688549611
  0
SPLINE
  5
FF
330
1F
100
AcDbEntity
  8
0
  6
Continuous
 62
     7
370
    15
100
AcDbSpline
210
0.0
220
0.0
230
1.0
 70
     8
 71
     3
 72
    12
 73
     8
 74
     0
 42
0.00000001
 43
0.00000001
 12
1.0
 22
0.0
 32
0.0
 13
1.0
 23
0.0
 33
0.0
 40
0.0
 40
0.0
 40
0.0
 40
0.0
 40
0.2156105973510235
 40
0.4312491633684903
 40
0.6462101875275476
 40
0.8603632685738795
 40
1.0
 40
1.0
 40
1.0
 40
1.0
 10
492.6572137565583
 20
930.7052915078542
 30
0.0
 10
492.7125306048111
 20
930.1408909848943
 30
0.0
 10
492.823171476931
 20
929.0120167258292
 30
0.0
 10
493.6875763701306
 20
927.5086391291941
 30
0.0
 10
494.958869870066
 20
926.3781803467936
 30
0.0
 10
496.3612864138046
 20
925.7844583498589
 30
0.0
 10
497.2844818868955
 20
925.7249421354659
 30
0.0
 10
497.6488564216763
 20
925.7014517766378
 30
0.0
  0
SPLINE
  5
100
330
1F
100
AcDbEntity
  8
0
  6
Continuous
 62
     7
370
    15
100
AcDbSpline
210
0.0
220
0.0
230
1.0
 70
     8
 71
     3
 72
    12
 73
     8
 74
     0
 42
0.00000001
 43
0.00000001
 12
1.0
 22
0.0
 32
0.0
 13
1.0
 23
0.0
 33
0.0
 40
0.0
 40
0.0
 40
0.0
 40
0.0
 40
0.2138918524177186
 40
0.4277881462066236
 40
0.6416347122102123
 40
0.8559772910262967
 40
1.0
 40
1.0
 40
1.0
 40
1.0
 10
497.6488564216763
 20
968.918276308193
 30
0.0
 10
497.0888995072457
 20
968.8636994908655
 30
0.0
 10
495.9689740511229
 20
968.7545447229471
 30
0.0
 10
494.4759182258428
 20
967.8970425457459
 30
0.0
 10
493.3478738722819
 20
966.6335689723571
 30
0.0
 10
492.7444280437634
 20
965.2254927248342
 30
0.0
 10
492.6822160217108
 20
964.2902852422462
 30
0.0
 10
492.6572137565583
 20
963.9144365769765
 30
0.0
  0
SPLINE
  5
101
330
1F
100
AcDbEntity
  8
0
  6
Continuous
 62
     7
370
    15
100
AcDbSpline
210
0.0
220
0.0
230
1.0
 70
     8
 71
     3
 72
    12
 73
     8
 74
     0
 42
0.00000001
 43
0.00000001
 12
1.0
 22
0.0
 32
0.0
 13
1.0
 23
0.0
 33
0.0
 40
0.0
 40
0.0
 40
0.0
 40
0.0
 40
0.2138905984121038
 40
0.4277862749668024
 40
0.6416322238796828
 40
0.8559777066283666
 40
1.0
 40
1.0
 40
1.0
 40
1.0
 10
476.6623850965172
 20
925.7014517766378
 30
0.0
 10
477.2223424739689
 20
925.7560162140961
 30
0.0
 10
478.3422705232546
 20
925.8651463844695
 30
0.0
 10
479.8353220888882
 20
926.7226581805157
 30
0.0
 10
480.9633770767589
 20
927.9861344877522
 30
0.0
 10
481.5668099223167
 20
929.3942273622246
 30
0.0
 10
481.6290246534841
 20
930.3294431850522
 30
0.0
 10
481.6540277616352
 20
930.7052915078542
 30
0.0
  0
SPLINE
  5
102
330
1F
100
AcDbEntity
  8
0
  6
Continuous
 62
     7
370
    15
100
AcDbSpline
210
0.0
220
0.0
230
1.0
 70
     8
 71
     3
 72
    12
 73
     8
 74
     0
 42
0.00000001
 43
0.00000001
 12
1.0
 22
0.0
 32
0.0
 13
1.0
 23
0.0
 33
0.0
 40
0.0
 40
0.0
 40
0.0
 40
0.0
 40
0.2156110054876163
 40
0.4312466455527132
 40
0.6462080766187642
 40
0.8603630042507873
 40
1.0
 40
1.0
 40
1.0
 40
1.0
 10
481.6540277616352
 20
963.9144365769765
 30
0.0
 10
481.5987125743932
 20
964.4788377827444
 30
0.0
 10
481.4880758798876
 20
965.6077046797884
 30
0.0
 10
480.6236559550018
 20
967.1110657417951
 30
0.0
 10
479.3523656440324
 20
968.2415109109786
 30
0.0
 10
477.9499608300954
 20
968.8352744937525
 30
0.0
 10
477.0267601873678
 20
968.8947873646778
 30
0.0
 10
476.6623850965172
 20
968.918276308193
 30
0.0
  0
ARC
  5
103
330
1F
100
AcDbEntity
  8
0
  6
Continuous
 62
     7
370
    15
100
AcDbCircle
 10
212.4088122749
 20
939.0652748488
 30
0.0
 40
10.61242064468141
100
AcDbArc
 50
213.2125857976
 51
268.8508071346
  0
LINE
  5
104
330
1F
100
AcDbEntity
  8
0
  6
Continuous
 62
     7
370
    15
100
AcDbLine
 10
203.5299882346
 20
933.2523469907
 30
0.0
 11
203.3226236754
 21
933.5869078618
 31
0.0
  0
ARC
  5
105
330
1F
100
AcDbEntity
  8
0
  6
Continuous
 62
     7
370
    15
100
AcDbCircle
 10
761.9024292433
 20
955.5544386222
 30
0.0
 40
10.61242064468164
100
AcDbArc
 50
33.2125857976
 51
88.8508071346
  0
LINE
  5
106
330
1F
100
AcDbEntity
  8
0
  6
Continuous
 62
     7
370
    15
100
AcDbLine
 10
770.7812532836
 20
961.3673512918
 30
0.0
 11
770.9886178428
 21
961.0327904207
 31
0.0
  0
SPLINE
  5
107
330
1F
100
AcDbEntity
  8
0
  6
Continuous
 62
     7
370
    15
100
AcDbSpline
210
0.0
220
0.0
230
1.0
 70
     8
 71
     3
 72
    12
 73
     8
 74
     0
 42
0.00000001
 43
0.00000001
 12
1.0
 22
0.0
 32
0.0
 13
1.0
 23
0.0
 33
0.0
 40
0.0
 40
0.0
 40
0.0
 40
0.0
 40
0.216757166018321
 40
0.4335416457562191
 40
0.6496475256247081
 40
0.864950027194237
 40
1.0
 40
1.0
 40
1.0
 40
1.0
 10
377.6572167926699
 20
931.099695442333
 30
0.0
 10
377.7125320862115
 20
930.5353127343874
 30
0.0
 10
377.8231696436129
 20
929.4064762002427
 30
0.0
 10
378.6875419601707
 20
927.9031864031166
 30
0.0
 10
379.9588387244839
 20
926.7726210024746
 30
0.0
 10
381.3480782974252
 20
926.1848567423311
 30
0.0
 10
382.256784292256
 20
926.1207899022288
 30
0.0
 10
382.6070621663004
 20
926.0960941296956
 30
0.0
  0
SPLINE
  5
108
330
1F
100
AcDbEntity
  8
0
  6
Continuous
 62
     7
370
    15
100
AcDbSpline
210
0.0
220
0.0
230
1.0
 70
     8
 71
     3
 72
    12
 73
     8
 74
     0
 42
0.00000001
 43
0.00000001
 12
1.0
 22
0.0
 32
0.0
 13
1.0
 23
0.0
 33
0.0
 40
0.0
 40
0.0
 40
0.0
 40
0.0
 40
0.2167568347417452
 40
0.4335409831613229
 40
0.6496490772659209
 40
0.8649498008046207
 40
1.0
 40
1.0
 40
1.0
 40
1.0
 10
596.6540247255236
 20
963.5200028401754
 30
0.0
 10
596.5987100293222
 20
964.0843864196313
 30
0.0
 10
596.4880736666765
 20
965.2132246969061
 30
0.0
 10
595.6236890123521
 20
966.7165073209283
 30
0.0
 10
594.3524215708705
 20
967.8471218840967
 30
0.0
 10
592.9631541242956
 20
968.4348232261732
 30
0.0
 10
592.0544562386029
 20
968.498924686666
 30
0.0
 10
591.7041793518931
 20
968.5236339551351
 30
0.0
  0
SPLINE
  5
109
330
1F
100
AcDbEntity
  8
0
  6
Continuous
 62
     7
370
    15
100
AcDbSpline
210
0.0
220
0.0
230
1.0
 70
     8
 71
     3
 72
    12
 73
     8
 74
     0
 42
0.00000001
 43
0.00000001
 12
1.0
 22
0.0
 32
0.0
 13
1.0
 23
0.0
 33
0.0
 40
0.0
 40
0.0
 40
0.0
 40
0.0
 40
0.2150356702350221
 40
0.4300752294934101
 40
0.6450770301849656
 40
0.8605859463459516
 40
1.0
 40
1.0
 40
1.0
 40
1.0
 10
382.6070621663004
 20
968.5236339551351
 30
0.0
 10
382.0475777605403
 20
968.464371624124
 30
0.0
 10
380.9285988304759
 20
968.3458458903142
 30
0.0
 10
379.4428069448898
 20
967.4758223585957
 30
0.0
 10
378.3252034149544
 20
966.2028515434041
 30
0.0
 10
377.7395473310521
 20
964.8029707739901
 30
0.0
 10
377.6804358386859
 20
963.8818283799782
 30
0.0
 10
377.6572167926699
 20
963.5200028401754
 30
0.0
  0
SPLINE
  5
10A
330
1F
100
AcDbEntity
  8
0
  6
Continuous
 62
     7
370
    15
100
AcDbSpline
210
0.0
220
0.0
230
1.0
 70
     8
 71
     3
 72
    12
 73
     8
 74
     0
 42
0.00000001
 43
0.00000001
 12
1.0
 22
0.0
 32
0.0
 13
1.0
 23
0.0
 33
0.0
 40
0.0
 40
0.0
 40
0.0
 40
0.0
 40
0.2150362897328348
 40
0.4300764685002395
 40
0.6450760076848229
 40
0.8605855447069993
 40
1.0
 40
1.0
 40
1.0
 40
1.0
 10
591.7041793518931
 20
926.0960941296956
 30
0.0
 10
592.2636641619118
 20
926.155356111216
 30
0.0
 10
593.3826439005007
 20
926.2738811460381
 30
0.0
 10
594.868423086939
 20
927.1439060344029
 30
0.0
 10
595.9860471590878
 20
928.416848541236
 30
0.0
 10
596.5716932708572
 20
929.8167283013363
 30
0.0
 10
596.6308054210949
 20
930.7378701261224
 30
0.0
 10
596.6540247255236
 20
931.099695442333
 30
0.0
  0
SPLINE
  5
10B
330
1F
100
AcDbEntity
  8
0
  6
Continuous
 62
     7
370
    15
100
AcDbSpline
210
0.0
220
0.0
230
1.0
 70
     8
 71
     3
 72
    12
 73
     8
 74
     0
 42
0.00000001
 43
0.00000001
 12
1.0
 22
0.0
 32
0.0
 13
1.0
 23
0.0
 33
0.0
 40
0.0
 40
0.0
 40
0.0
 40
0.0
 40
0.2144772900420147
 40
0.428980419401927
 40
0.6428094638445265
 40
0.8558279209356049
 40
1.0
 40
1.0
 40
1.0
 40
1.0
 10
607.6572135144145
 20
931.275886772289
 30
0.0
 10
607.7125280221712
 20
930.71146733593
 30
0.0
 10
607.823163701743
 20
929.5825604643428
 30
0.0
 10
608.6876284680931
 20
928.0791176581806
 30
0.0
 10
609.9589070137536
 20
926.948775724643
 30
0.0
 10
611.3744881827392
 20
926.3490445924837
 30
0.0
 10
612.3121716918431
 20
926.2942946564087
 30
0.0
 10
612.6906469517619
 20
926.2721960526845
 30
0.0
  0
SPLINE
  5
10C
330
1F
100
AcDbEntity
  8
0
  6
Continuous
 62
     7
370
    15
100
AcDbSpline
210
0.0
220
0.0
230
1.0
 70
     8
 71
     3
 72
    12
 73
     8
 74
     0
 42
0.00000001
 43
0.00000001
 12
1.0
 22
0.0
 32
0.0
 13
1.0
 23
0.0
 33
0.0
 40
0.0
 40
0.0
 40
0.0
 40
0.0
 40
0.2127584222277752
 40
0.425522792104323
 40
0.6382279628817606
 40
0.8514217738003671
 40
1.0
 40
1.0
 40
1.0
 40
1.0
 10
361.6205945664316
 20
926.2721960526845
 30
0.0
 10
362.1809859202584
 20
926.3220550347281
 30
0.0
 10
363.3017842936181
 20
926.42177439262
 30
0.0
 10
364.8020028209019
 20
927.2667112845246
 30
0.0
 10
365.9404026336613
 20
928.520632562533
 30
0.0
 10
366.5618028903428
 20
929.936727826559
 30
0.0
 10
366.6271785148098
 20
930.8860175490179
 30
0.0
 10
366.654028003779
 20
931.275886772289
 30
0.0
  0
SPLINE
  5
10D
330
1F
100
AcDbEntity
  8
0
  6
Continuous
 62
     7
370
    15
100
AcDbSpline
210
0.0
220
0.0
230
1.0
 70
     8
 71
     3
 72
    12
 73
     8
 74
     0
 42
0.00000001
 43
0.00000001
 12
1.0
 22
0.0
 32
0.0
 13
1.0
 23
0.0
 33
0.0
 40
0.0
 40
0.0
 40
0.0
 40
0.0
 40
0.2144768112290722
 40
0.4289827781999565
 40
0.6428088277415598
 40
0.8558282427946575
 40
1.0
 40
1.0
 40
1.0
 40
1.0
 10
366.654028003779
 20
963.3438115102193
 30
0.0
 10
366.598711156502
 20
963.9082292645043
 30
0.0
 10
366.4880699422363
 20
965.0371414994031
 30
0.0
 10
365.623633761622
 20
966.540609928163
 30
0.0
 10
364.3523152611884
 20
967.6709115994555
 30
0.0
 10
362.9367602576035
 20
968.2706895359761
 30
0.0
 10
361.9990707347287
 20
968.3254352295111
 30
0.0
 10
361.6205945664316
 20
968.3475320321462
 30
0.0
  0
SPLINE
  5
10E
330
1F
100
AcDbEntity
  8
0
  6
Continuous
 62
     7
370
    15
100
AcDbSpline
210
0.0
220
0.0
230
1.0
 70
     8
 71
     3
 72
    12
 73
     8
 74
     0
 42
0.00000001
 43
0.00000001
 12
1.0
 22
0.0
 32
0.0
 13
1.0
 23
0.0
 33
0.0
 40
0.0
 40
0.0
 40
0.0
 40
0.0
 40
0.2127579792594673
 40
0.4255237136354433
 40
0.6382284415554439
 40
0.8514183170375627
 40
1.0
 40
1.0
 40
1.0
 40
1.0
 10
612.6906469517619
 20
968.3475320321462
 30
0.0
 10
612.1302543170126
 20
968.2976754552283
 30
0.0
 10
611.0094486209705
 20
968.1979604840997
 30
0.0
 10
609.5092458260165
 20
967.3529821704802
 30
0.0
 10
608.3708470871097
 20
966.0990737108506
 30
0.0
 10
607.7494307890757
 20
964.6829825861863
 30
0.0
 10
607.684061189232
 20
963.7336910604955
 30
0.0
 10
607.6572135144145
 20
963.3438115102193
 30
0.0
  0
ARC
  5
10F
330
1F
100
AcDbEntity
  8
0
  6
Continuous
 62
     7
370
    15
100
AcDbCircle
 10
487.1556207591
 20
14635.3925361251
 30
0.0
 40
13709.69510003425
100
AcDbArc
 50
269.5630647268
 51
269.9561464964
  0
ARC
  5
110
330
1F
100
AcDbEntity
  8
0
  6
Continuous
 62
     7
370
    15
100
AcDbCircle
 10
487.1556207591
 20
-12740.7728226364
 30
0.0
 40
13709.69510001654
100
AcDbArc
 50
89.5630647268
 51
89.9561464964
  0
ARC
  5
111
330
1F
100
AcDbEntity
  8
0
  6
Continuous
 62
     7
370
    15
100
AcDbCircle
 10
487.1556207591
 20
14635.3925361251
 30
0.0
 40
13709.69510003425
100
AcDbArc
 50
270.0438535036
 51
270.4369352732
  0
ARC
  5
112
330
1F
100
AcDbEntity
  8
0
  6
Continuous
 62
     7
370
    15
100
AcDbCircle
 10
487.1556207591
 20
-12740.7728226364
 30
0.0
 40
13709.69510001654
100
AcDbArc
 50
90.0438535036
 51
90.4369352732
  0
ARC
  5
113
330
1F
100
AcDbEntity
  8
0
  6
Continuous
 62
     7
370
    15
100
AcDbCircle
 10
761.9024292433
 20
939.0652748488
 30
0.0
 40
10.61242064468103
100
AcDbArc
 50
271.1491928654
 51
326.7874142024
  0
LINE
  5
114
330
1F
100
AcDbEntity
  8
0
  6
Continuous
 62
     7
370
    15
100
AcDbLine
 10
770.9886178428
 20
933.5869078618
 30
0.0
 11
770.7812532836
 21
933.2523469907
 31
0.0
  0
ARC
  5
115
330
1F
100
AcDbEntity
  8
0
  6
Continuous
 62
     7
370
    15
100
AcDbCircle
 10
212.4088122749
 20
955.5544386222
 30
0.0
 40
10.61242064468116
100
AcDbArc
 50
91.1491928654
 51
146.7874142024
  0
LINE
  5
116
330
1F
100
AcDbEntity
  8
0
  6
Continuous
 62
     7
370
    15
100
AcDbLine
 10
203.3226236754
 20
961.0327904207
 30
0.0
 11
203.5299882346
 21
961.3673512918
 31
0.0
  0
ARC
  5
117
330
1F
100
AcDbEntity
  8
0
  6
Continuous
 62
     7
370
    15
100
AcDbCircle
 10
487.1556207591
 20
-12740.7728226364
 30
0.0
 40
13709.69510001654
100
AcDbArc
 50
89.2076812253
 51
89.4753546315
  0
ARC
  5
118
330
1F
100
AcDbEntity
  8
0
  6
Continuous
 62
     7
370
    15
100
AcDbCircle
 10
487.1556207591
 20
14635.3925361251
 30
0.0
 40
13709.69510003425
100
AcDbArc
 50
269.2076812253
 51
269.4753546315
  0
ARC
  5
119
330
1F
100
AcDbEntity
  8
0
  6
Continuous
 62
     7
370
    15
100
AcDbCircle
 10
487.1556207591
 20
-12740.7728226364
 30
0.0
 40
13709.69510001654
100
AcDbArc
 50
90.5246453685
 51
90.7923187747
  0
ARC
  5
11A
330
1F
100
AcDbEntity
  8
0
  6
Continuous
 62
     7
370
    15
100
AcDbCircle
 10
487.1556207591
 20
14635.3925361251
 30
0.0
 40
13709.69510003425
100
AcDbArc
 50
270.5246453685
 51
270.7923187747
  0
SPLINE
  5
11B
330
1F
100
AcDbEntity
  8
0
  6
Continuous
 62
     7
370
    15
100
AcDbSpline
210
0.0
220
0.0
230
1.0
 70
     8
 71
     3
 72
    12
 73
     8
 74
     0
 42
0.00000001
 43
0.00000001
 12
1.0
 22
0.0
 32
0.0
 13
1.0
 23
0.0
 33
0.0
 40
0.0
 40
0.0
 40
0.0
 40
0.0
 40
0.2176112064157894
 40
0.4352521910548294
 40
0.6522149509712734
 40
0.8683732969960292
 40
1.0
 40
1.0
 40
1.0
 40
1.0
 10
292.6572158986002
 20
932.0114974957845
 30
0.0
 10
292.7125345996959
 20
931.447133245025
 30
0.0
 10
292.823179571776
 20
930.318327515109
 30
0.0
 10
293.6875148900392
 20
928.8151015402011
 30
0.0
 10
294.9587955756971
 20
927.6844058552256
 30
0.0
 10
296.33832934027
 20
927.1011537359075
 30
0.0
 10
297.236305425971
 20
927.033760300523
 30
0.0
 10
297.5761637144953
 20
927.0082538110158
 30
0.0
  0
SPLINE
  5
11C
330
1F
100
AcDbEntity
  8
0
  6
Continuous
 62
     7
370
    15
100
AcDbSpline
210
0.0
220
0.0
230
1.0
 70
     8
 71
     3
 72
    12
 73
     8
 74
     0
 42
0.00000001
 43
0.00000001
 12
1.0
 22
0.0
 32
0.0
 13
1.0
 23
0.0
 33
0.0
 40
0.0
 40
0.0
 40
0.0
 40
0.0
 40
0.2158891741826714
 40
0.4317849352467998
 40
0.6476468460637511
 40
0.8640241893895417
 40
0.9999999999999999
 40
0.9999999999999999
 40
0.9999999999999999
 40
0.9999999999999999
 10
676.7350778036982
 20
927.0082538110158
 30
0.0
 10
677.2941821830116
 20
927.0709915820626
 30
0.0
 10
678.4124080001793
 20
927.1964690383154
 30
0.0
 10
679.8927449418663
 20
928.0757107958447
 30
0.0
 10
681.0026051459522
 20
929.3556068977787
 30
0.0
 10
681.5752263541842
 20
930.7492907097846
 30
0.0
 10
681.6320838656376
 20
931.6600344384094
 30
0.0
 10
681.6540256195933
 20
932.0114974957845
 30
0.0
  0
SPLINE
  5
11D
330
1F
100
AcDbEntity
  8
0
  6
Continuous
 62
     7
370
    15
100
AcDbSpline
210
0.0
220
0.0
230
1.0
 70
     8
 71
     3
 72
    12
 73
     8
 74
     0
 42
0.00000001
 43
0.00000001
 12
1.0
 22
0.0
 32
0.0
 13
1.0
 23
0.0
 33
0.0
 40
0.0
 40
0.0
 40
0.0
 40
0.0
 40
0.2176114799794556
 40
0.4352493728954998
 40
0.6522149602249195
 40
0.8683735779869198
 40
1.0
 40
1.0
 40
1.0
 40
1.0
 10
681.6540256195933
 20
962.6082305890462
 30
0.0
 10
681.5987091540017
 20
963.1725961985238
 30
0.0
 10
681.488069508695
 20
964.3013959182449
 30
0.0
 10
680.6237071625583
 20
965.8046011174515
 30
0.0
 10
679.352457696268
 20
966.9353212629366
 30
0.0
 10
677.9729140434158
 20
967.5185868261894
 30
0.0
 10
677.0749360846505
 20
967.5859496292079
 30
0.0
 10
676.7350778036982
 20
967.6114444714925
 30
0.0
  0
SPLINE
  5
11E
330
1F
100
AcDbEntity
  8
0
  6
Continuous
 62
     7
370
    15
100
AcDbSpline
210
0.0
220
0.0
230
1.0
 70
     8
 71
     3
 72
    12
 73
     8
 74
     0
 42
0.00000001
 43
0.00000001
 12
1.0
 22
0.0
 32
0.0
 13
1.0
 23
0.0
 33
0.0
 40
0.0
 40
0.0
 40
0.0
 40
0.0
 40
0.215889785081024
 40
0.4317842457614839
 40
0.6476496754178467
 40
0.8640276310233549
 40
1.0
 40
1.0
 40
1.0
 40
1.0
 10
297.5761637144953
 20
967.6114444714925
 30
0.0
 10
297.0170611240705
 20
967.5487039956934
 30
0.0
 10
295.8988438345436
 20
967.4232216853031
 30
0.0
 10
294.4184769101066
 20
966.5440222040853
 30
0.0
 10
293.3086466554025
 20
965.2640909886659
 30
0.0
 10
292.7360182097408
 20
963.8704180789106
 30
0.0
 10
292.6791582270399
 20
962.9596838910395
 30
0.0
 10
292.6572158986002
 20
962.6082305890462
 30
0.0
  0
SPLINE
  5
11F
330
1F
100
AcDbEntity
  8
0
  6
Continuous
 62
     7
370
    15
100
AcDbSpline
210
0.0
220
0.0
230
1.0
 70
     8
 71
     3
 72
    12
 73
     8
 74
     0
 42
0.00000001
 43
0.00000001
 12
1.0
 22
0.0
 32
0.0
 13
1.0
 23
0.0
 33
0.0
 40
0.0
 40
0.0
 40
0.0
 40
0.0
 40
0.2119302179343887
 40
0.423865457803528
 40
0.63573610953606
 40
0.8480817398277699
 40
1.0
 40
1.0
 40
1.0
 40
1.0
 10
276.5896961146265
 20
927.3145620805166
 30
0.0
 10
277.1503876123627
 20
927.3609400423761
 30
0.0
 10
278.2717838940768
 20
927.4536970650757
 30
0.0
 10
279.7772280883481
 20
928.2893267291037
 30
0.0
 10
280.9232125914938
 20
929.5361264013007
 30
0.0
 10
281.5580233113295
 20
930.9580057941203
 30
0.0
 10
281.6257773610027
 20
931.9177063701442
 30
0.0
 10
281.65403456029
 20
932.3179547768972
 30
0.0
  0
SPLINE
  5
120
330
1F
100
AcDbEntity
  8
0
  6
Continuous
 62
     7
370
    15
100
AcDbSpline
210
0.0
220
0.0
230
1.0
 70
     8
 71
     3
 72
    12
 73
     8
 74
     0
 42
0.00000001
 43
0.00000001
 12
1.0
 22
0.0
 32
0.0
 13
1.0
 23
0.0
 33
0.0
 40
0.0
 40
0.0
 40
0.0
 40
0.0
 40
0.2136489111412353
 40
0.4273237774839684
 40
0.6403195231996676
 40
0.852507524908318
 40
1.0
 40
1.0
 40
1.0
 40
1.0
 10
692.6572069579036
 20
932.3179547768972
 30
0.0
 10
692.7125270558191
 20
931.7535186509522
 30
0.0
 10
692.823173972229
 20
930.6245778283715
 30
0.0
 10
693.6876349087958
 20
929.1210448582068
 30
0.0
 10
694.9589651271035
 20
927.9908521767178
 30
0.0
 10
696.3842495783475
 20
927.3866498172258
 30
0.0
 10
697.3326424258834
 20
927.3355261297061
 30
0.0
 10
697.721545403567
 20
927.3145620805166
 30
0.0
  0
SPLINE
  5
121
330
1F
100
AcDbEntity
  8
0
  6
Continuous
 62
     7
370
    15
100
AcDbSpline
210
0.0
220
0.0
230
1.0
 70
     8
 71
     3
 72
    12
 73
     8
 74
     0
 42
0.00000001
 43
0.00000001
 12
1.0
 22
0.0
 32
0.0
 13
1.0
 23
0.0
 33
0.0
 40
0.0
 40
0.0
 40
0.0
 40
0.0
 40
0.2136455291709146
 40
0.4273207372258953
 40
0.6403193312647297
 40
0.8525076723078102
 40
1.0
 40
1.0
 40
1.0
 40
1.0
 10
281.6540345602899
 20
962.3017733079336
 30
0.0
 10
281.5987135152488
 20
962.8661996249821
 30
0.0
 10
281.4880637401621
 20
963.9951306671938
 30
0.0
 10
280.6235974838571
 20
965.4986536977054
 30
0.0
 10
279.3522872404166
 20
966.6288751402883
 30
0.0
 10
277.9269933065919
 20
967.2330889081022
 30
0.0
 10
276.9785990669694
 20
967.284183936878
 30
0.0
 10
276.5896961146265
 20
967.3051362019918
 30
0.0
  0
SPLINE
  5
122
330
1F
100
AcDbEntity
  8
0
  6
Continuous
 62
     7
370
    15
100
AcDbSpline
210
0.0
220
0.0
230
1.0
 70
     8
 71
     3
 72
    12
 73
     8
 74
     0
 42
0.00000001
 43
0.00000001
 12
1.0
 22
0.0
 32
0.0
 13
1.0
 23
0.0
 33
0.0
 40
0.0
 40
0.0
 40
0.0
 40
0.0
 40
0.2119306547379294
 40
0.4238645516286361
 40
0.6357356400419384
 40
0.8480851767808659
 40
1.0
 40
1.0
 40
1.0
 40
1.0
 10
697.721545403567
 20
967.3051362019918
 30
0.0
 10
697.1608551762295
 20
967.2587558167188
 30
0.0
 10
696.0394661440159
 20
967.1659943366377
 30
0.0
 10
694.5340063688225
 20
966.3304062849172
 30
0.0
 10
693.3880206519641
 20
965.0835937763194
 30
0.0
 10
692.7532262323654
 20
963.6617100544643
 30
0.0
 10
692.6854660423085
 20
962.7020113593147
 30
0.0
 10
692.6572069579036
 20
962.3017733079336
 30
0.0
  0
ARC
  5
123
330
1F
100
AcDbEntity
  8
0
  6
Continuous
 62
     7
370
    15
100
AcDbCircle
 10
487.1556207591
 20
-12740.7728226364
 30
0.0
 40
13709.69510001654
100
AcDbArc
 50
90.880035123
 51
91.1491928654
  0
ARC
  5
124
330
1F
100
AcDbEntity
  8
0
  6
Continuous
 62
     7
370
    15
100
AcDbCircle
 10
487.1556207591
 20
14635.3925361251
 30
0.0
 40
13709.69510003425
100
AcDbArc
 50
270.880035123
 51
271.1491928654
  0
ARC
  5
125
330
1F
100
AcDbEntity
  8
0
  6
Continuous
 62
     7
370
    15
100
AcDbCircle
 10
487.1556207591
 20
-12740.7728226364
 30
0.0
 40
13709.69510001654
100
AcDbArc
 50
88.8508071346
 51
89.119964877
  0
ARC
  5
126
330
1F
100
AcDbEntity
  8
0
  6
Continuous
 62
     7
370
    15
100
AcDbCircle
 10
487.1556207591
 20
14635.3925361251
 30
0.0
 40
13709.69510003425
100
AcDbArc
 50
268.8508071346
 51
269.119964877
  0
SPLINE
  5
127
330
1F
100
AcDbEntity
  8
0
  6
Continuous
 62
     7
370
    15
100
AcDbSpline
210
0.0
220
0.0
230
1.0
 70
     8
 71
     3
 72
    12
 73
     8
 74
     0
 42
0.00000001
 43
0.00000001
 12
1.0
 22
0.0
 32
0.0
 13
1.0
 23
0.0
 33
0.0
 40
0.0
 40
0.0
 40
0.0
 40
0.0
 40
0.2406753776060354
 40
0.4814876358776858
 40
0.7183689936376372
 40
0.9505608655371068
 40
1.0
 40
1.0
 40
1.0
 40
1.0
 10
202.8167888575464
 20
935.2445726376912
 30
0.0
 10
202.8121220098873
 20
935.2047578464749
 30
0.0
 10
202.8027856603666
 20
935.1251056199512
 30
0.0
 10
202.8567971952428
 20
934.7526550234646
 30
0.0
 10
202.9954995770407
 20
934.2555363536064
 30
0.0
 10
203.1764765323069
 20
933.8424073008678
 30
0.0
 10
203.3007993325841
 20
933.6250619251771
 30
0.0
 10
203.3226236754328
 20
933.5869078618429
 30
0.0
  0
SPLINE
  5
128
330
1F
100
AcDbEntity
  8
0
  6
Continuous
 62
     7
370
    15
100
AcDbSpline
210
0.0
220
0.0
230
1.0
 70
     8
 71
     3
 72
    12
 73
     8
 74
     0
 42
0.00000001
 43
0.00000001
 12
1.0
 22
0.0
 32
0.0
 13
1.0
 23
0.0
 33
0.0
 40
0.0
 40
0.0
 40
0.0
 40
0.0
 40
0.0403646569655039
 40
0.0805426841440843
 40
0.1538246612745127
 40
0.3585376006700833
 40
1.0
 40
1.0
 40
1.0
 40
1.0
 10
202.6572272234827
 20
935.9767560941121
 30
0.0
 10
202.6574680529668
 20
935.9488706643072
 30
0.0
 10
202.6579485984373
 20
935.8932287356037
 30
0.0
 10
202.6626639234701
 20
935.7994338896905
 30
0.0
 10
202.6768321660312
 20
935.6491765195263
 30
0.0
 10
202.7284832689342
 20
935.3980575004509
 30
0.0
 10
202.7787119028576
 20
935.3107545889876
 30
0.0
 10
202.8167888575464
 20
935.2445726376912
 30
0.0
  0
SPLINE
  5
129
330
1F
100
AcDbEntity
  8
0
  6
Continuous
 62
     7
370
    15
100
AcDbSpline
210
0.0
220
0.0
230
1.0
 70
     8
 71
     3
 72
    12
 73
     8
 74
     0
 42
0.00000001
 43
0.00000001
 12
1.0
 22
0.0
 32
0.0
 13
1.0
 23
0.0
 33
0.0
 40
0.0
 40
0.0
 40
0.0
 40
0.0
 40
0.240679738142202
 40
0.481493613757751
 40
0.718376562460877
 40
0.9505699938079846
 40
1.0
 40
1.0
 40
1.0
 40
1.0
 10
771.4944526606471
 20
959.3751256448171
 30
0.0
 10
771.4991193956198
 20
959.41495252364
 30
0.0
 10
771.5084554664659
 20
959.4946284779069
 30
0.0
 10
771.454446410792
 20
959.8670723061967
 30
0.0
 10
771.315734387917
 20
960.3641875599478
 30
0.0
 10
771.1347867075762
 20
960.777324757855
 30
0.0
 10
771.0104424998658
 20
960.994646521142
 30
0.0
 10
770.9886178427607
 20
961.0327904206655
 30
0.0
  0
SPLINE
  5
12A
330
1F
100
AcDbEntity
  8
0
  6
Continuous
 62
     7
370
    15
100
AcDbSpline
210
0.0
220
0.0
230
1.0
 70
     8
 71
     3
 72
    12
 73
     8
 74
     0
 42
0.00000001
 43
0.00000001
 12
1.0
 22
0.0
 32
0.0
 13
1.0
 23
0.0
 33
0.0
 40
0.0
 40
0.0
 40
0.0
 40
0.0
 40
0.0402748822564869
 40
0.0803754267330098
 40
0.1535146935365143
 40
0.3575361832808487
 40
1.0
 40
1.0
 40
1.0
 40
1.0
 10
771.6540142947108
 20
958.6429719907186
 30
0.0
 10
771.6537736177194
 20
958.670795653301
 30
0.0
 10
771.6532933055546
 20
958.7263225382484
 30
0.0
 10
771.6485735326539
 20
958.8199491038237
 30
0.0
 10
771.6344769561548
 20
958.9699976566799
 30
0.0
 10
771.582870811463
 20
959.2215840455058
 30
0.0
 10
771.5326040398689
 20
959.308874273039
 30
0.0
 10
771.4944526606471
 20
959.3751256448171
 30
0.0
  0
SPLINE
  5
12B
330
1F
100
AcDbEntity
  8
0
  6
Continuous
 62
     7
370
    15
100
AcDbSpline
210
0.0
220
0.0
230
1.0
 70
     8
 71
     3
 72
    15
 73
    11
 74
     0
 42
0.00000001
 43
0.00000001
 12
1.0
 22
0.0
 32
0.0
 13
1.0
 23
0.0
 33
0.0
 40
0.0
 40
0.0
 40
0.0
 40
0.0
 40
0.3098145165184087
 40
0.5224598180034781
 40
0.6700966808099535
 40
0.821325727440663
 40
0.8850202974144614
 40
0.9493333395320523
 40
0.989744955370989
 40
1.0
 40
1.0
 40
1.0
 40
1.0
 10
202.8167888575464
 20
959.3751256448171
 30
0.0
 10
202.7984031137507
 20
959.3432446802412
 30
0.0
 10
202.7673980709099
 20
959.2894817928943
 30
0.0
 10
202.7281500742074
 20
959.1853335832261
 30
0.0
 10
202.6989175263554
 20
959.0783090894854
 30
0.0
 10
202.6789703677179
 20
958.973750887606
 30
0.0
 10
202.6655639191673
 20
958.8566180992254
 30
0.0
 10
202.6592628515484
 20
958.7629309535993
 30
0.0
 10
202.6572776946261
 20
958.6849134912756
 30
0.0
 10
202.6572357193682
 20
958.6500320682285
 30
0.0
 10
202.6572272234827
 20
958.6429719907186
 30
0.0
  0
SPLINE
  5
12C
330
1F
100
AcDbEntity
  8
0
  6
Continuous
 62
     7
370
    15
100
AcDbSpline
210
0.0
220
0.0
230
1.0
 70
     8
 71
     3
 72
    12
 73
     8
 74
     0
 42
0.00000001
 43
0.00000001
 12
1.0
 22
0.0
 32
0.0
 13
1.0
 23
0.0
 33
0.0
 40
0.0
 40
0.0
 40
0.0
 40
0.0
 40
0.243170884798262
 40
0.486965769281137
 40
0.7196775940471548
 40
0.9552511857422282
 40
1.0
 40
1.0
 40
1.0
 40
1.0
 10
203.3226236754327
 20
961.0327904206655
 30
0.0
 10
203.2227909797453
 20
960.8415083575997
 30
0.0
 10
203.0228694081509
 20
960.4584533834488
 30
0.0
 10
202.8723315250402
 20
959.9324531657538
 30
0.0
 10
202.8088062677497
 20
959.5523681835632
 30
0.0
 10
202.8061767680933
 20
959.4064386766765
 30
0.0
 10
202.8153280133058
 20
959.3794361495909
 30
0.0
 10
202.8167888575464
 20
959.3751256448171
 30
0.0
  0
SPLINE
  5
12D
330
1F
100
AcDbEntity
  8
0
  6
Continuous
 62
     7
370
    15
100
AcDbSpline
210
0.0
220
0.0
230
1.0
 70
     8
 71
     3
 72
    12
 73
     8
 74
     0
 42
0.00000001
 43
0.00000001
 12
1.0
 22
0.0
 32
0.0
 13
1.0
 23
0.0
 33
0.0
 40
0.0
 40
0.0
 40
0.0
 40
0.0
 40
0.2431801860771267
 40
0.4869662136478984
 40
0.7196778368495884
 40
0.9552512245016024
 40
1.0
 40
1.0
 40
1.0
 40
1.0
 10
770.9886178427607
 20
933.5869078618429
 30
0.0
 10
771.0884495439519
 20
933.7782020451684
 30
0.0
 10
771.2883616598004
 20
934.1612669882858
 30
0.0
 10
771.438913984241
 20
934.6872457642936
 30
0.0
 10
771.5024343571117
 20
935.0673311996678
 30
0.0
 10
771.5050647830873
 20
935.2132595651867
 30
0.0
 10
771.4959135094285
 20
935.2402621273224
 30
0.0
 10
771.4944526606471
 20
935.2445726376912
 30
0.0
  0
SPLINE
  5
12E
330
1F
100
AcDbEntity
  8
0
  6
Continuous
 62
     7
370
    15
100
AcDbSpline
210
0.0
220
0.0
230
1.0
 70
     8
 71
     3
 72
    15
 73
    11
 74
     0
 42
0.00000001
 43
0.00000001
 12
1.0
 22
0.0
 32
0.0
 13
1.0
 23
0.0
 33
0.0
 40
0.0
 40
0.0
 40
0.0
 40
0.0
 40
0.3098147634518408
 40
0.5224586044494252
 40
0.6700899492044523
 40
0.8213179571659392
 40
0.8850210871164461
 40
0.9493336875201009
 40
0.989745025804543
 40
1.0
 40
1.0
 40
1.0
 40
1.0
 10
771.4944526606471
 20
935.2445726376912
 30
0.0
 10
771.5128384028613
 20
935.2764645680616
 30
0.0
 10
771.5438433463055
 20
935.330245779934
 30
0.0
 10
771.5830909329533
 20
935.4344051793173
 30
0.0
 10
771.6123241350607
 20
935.5413862557665
 30
0.0
 10
771.6322727511382
 20
935.6459347682941
 30
0.0
 10
771.6456768135864
 20
935.7631113079681
 30
0.0
 10
771.6519787421682
 20
935.8567960665
 30
0.0
 10
771.6539638205569
 20
935.9348146359969
 30
0.0
 10
771.6540057983185
 20
935.9696960237465
 30
0.0
 10
771.6540142947108
 20
935.9767560941121
 30
0.0
  0
LINE
  5
12F
330
1F
100
AcDbEntity
  8
0
  6
Continuous
 62
     7
370
    15
100
AcDbLine
 10
203.1897649222
 20
959.0021495801
 30
0.0
 11
202.8169378692
 21
959.3749766332
 31
0.0
  0
ELLIPSE
  5
130
330
1F
100
AcDbEntity
  8
0
  6
Continuous
 62
     7
370
    15
100
AcDbEllipse
 10
203.1821458284
 20
958.0059462062
 30
0.0
 11
0.0
 21
1.0
 31
0.0
210
0.0
220
0.0
230
1.0
 40
0.0874886635
 41
4.712388980384691
 42
6.195918844579846
  0
LINE
  5
131
330
1F
100
AcDbEntity
  8
0
  6
Continuous
 62
     7
370
    15
100
AcDbLine
 10
203.2696351462
 20
955.9625809175
 30
0.0
 11
203.2696351462
 21
958.0059473497
 31
0.0
  0
ELLIPSE
  5
132
330
1F
100
AcDbEntity
  8
0
  6
Continuous
 62
     7
370
    15
100
AcDbEllipse
 10
202.8321911743
 20
961.3673603729
 30
0.0
 11
0.0
 21
2.0
 31
0.0
210
0.0
220
0.0
230
1.0
 40
0.0874886635
 41
3.053409736769027
 42
3.054326190990035
  0
LINE
  5
133
330
1F
100
AcDbEntity
  8
0
  6
Continuous
 62
     7
370
    15
100
AcDbLine
 10
771.121476596
 20
935.6175785047
 30
0.0
 11
771.494303649
 21
935.2447514516
 31
0.0
  0
ELLIPSE
  5
134
330
1F
100
AcDbEntity
  8
0
  6
Continuous
 62
     7
370
    15
100
AcDbEllipse
 10
771.1290956898
 20
936.6137672648
 30
0.0
 11
0.0
 21
0.9999999999998863
 31
0.0
210
0.0
220
0.0
230
1.0
 40
0.0874886635
 41
1.570796326794897
 42
3.054326190989506
  0
LINE
  5
135
330
1F
100
AcDbEntity
  8
0
  6
Continuous
 62
     7
370
    15
100
AcDbLine
 10
771.041606372
 20
936.6137807351
 30
0.0
 11
771.041606372
 21
938.657117365
 31
0.0
  0
ELLIPSE
  5
136
330
1F
100
AcDbEntity
  8
0
  6
Continuous
 62
     7
370
    15
100
AcDbEllipse
 10
771.4790503439
 20
933.2523530981
 30
0.0
 11
0.0
 21
2.0
 31
0.0
210
0.0
220
0.0
230
1.0
 40
0.0874886635
 41
6.195002390359522
 42
6.195918844579542
  0
LINE
  5
137
330
1F
100
AcDbEntity
  8
0
  6
Continuous
 62
     7
370
    15
100
AcDbLine
 10
771.041606372
 20
955.9625809175
 30
0.0
 11
771.041606372
 21
958.0059473497
 31
0.0
  0
ELLIPSE
  5
138
330
1F
100
AcDbEntity
  8
0
  6
Continuous
 62
     7
370
    15
100
AcDbEllipse
 10
771.1290956898
 20
958.0059462062
 30
0.0
 11
0.0
 21
1.0
 31
0.0
210
0.0
220
0.0
230
1.0
 40
0.0874886635
 41
0.0872664625990136
 42
1.570796326794897
  0
LINE
  5
139
330
1F
100
AcDbEntity
  8
0
  6
Continuous
 62
     7
370
    15
100
AcDbLine
 10
771.121476596
 20
959.0021495801
 30
0.0
 11
771.494303649
 21
959.3749766332
 31
0.0
  0
ELLIPSE
  5
13A
330
1F
100
AcDbEntity
  8
0
  6
Continuous
 62
     7
370
    15
100
AcDbEllipse
 10
771.4790503439
 20
961.3673603729
 30
0.0
 11
0.0
 21
2.0
 31
0.0
210
0.0
220
0.0
230
1.0
 40
0.0874886635
 41
3.228859116190151
 42
3.22977557041018
  0
LINE
  5
13B
330
1F
100
AcDbEntity
  8
0
  6
Continuous
 62
     7
370
    15
100
AcDbLine
 10
203.2696351462
 20
936.6137807351
 30
0.0
 11
203.2696351462
 21
938.657117365
 31
0.0
  0
ELLIPSE
  5
13C
330
1F
100
AcDbEntity
  8
0
  6
Continuous
 62
     7
370
    15
100
AcDbEllipse
 10
203.1821458284
 20
936.6137672648
 30
0.0
 11
0.0
 21
0.9999999999998863
 31
0.0
210
0.0
220
0.0
230
1.0
 40
0.0874886635
 41
3.228859116189187
 42
4.712388980384691
  0
LINE
  5
13D
330
1F
100
AcDbEntity
  8
0
  6
Continuous
 62
     7
370
    15
100
AcDbLine
 10
203.1897649222
 20
935.6175785047
 30
0.0
 11
202.8169378692
 21
935.2447514516
 31
0.0
  0
ELLIPSE
  5
13E
330
1F
100
AcDbEntity
  8
0
  6
Continuous
 62
     7
370
    15
100
AcDbEllipse
 10
202.8321911743
 20
933.2523530981
 30
0.0
 11
0.0
 21
2.0
 31
0.0
210
0.0
220
0.0
230
1.0
 40
0.0874886635
 41
0.0872664625997571
 42
0.0881829168194597
  0
ARC
  5
13F
330
1F
100
AcDbEntity
  8
0
  6
Continuous
 62
     7
370
    15
100
AcDbCircle
 10
341.1071166247
 20
81.3265332238
 30
0.0
 40
11.37528424958912
100
AcDbArc
 50
341.012904642
 51
19.1593580998
  0
ARC
  5
140
330
1F
100
AcDbEntity
  8
0
  6
Continuous
 62
     7
370
    15
100
AcDbCircle
 10
383.1877208835
 20
81.3277553875
 30
0.0
 40
11.35939558157281
100
AcDbArc
 50
160.8193221503
 51
197.7245487594
  0
LWPOLYLINE
  5
141
330
1F
100
AcDbEntity
  8
0
  6
Continuous
 62
     7
370
    15
100
AcDbPolyline
 90
        9
 70
   128
 43
0.0
 10
360.6556251698
 20
73.251349209
 10
360.7697978669
 20
73.0087583047
 10
361.0949561053
 20
72.8030924779
 10
361.5815982276
 20
72.6656739694
 10
362.1556207591
 20
72.6174240095
 10
362.7296432906
 20
72.6656739694
 10
363.2162779623
 20
72.8030924779
 10
363.5414436513
 20
73.0087583047
 10
363.6556237989
 20
73.251349209
  0
LINE
  5
142
330
1F
100
AcDbEntity
  8
0
  6
Continuous
 62
     7
370
    15
100
AcDbLine
 10
360.6556251698
 20
85.059863804
 30
0.0
 11
360.6556251698
 21
73.251349209
 31
0.0
  0
LINE
  5
143
330
1F
100
AcDbEntity
  8
0
  6
Continuous
 62
     7
370
    15
100
AcDbLine
 10
363.6556237989
 20
73.251349209
 30
0.0
 11
363.6556237989
 21
85.059863804
 31
0.0
  0
LINE
  5
144
330
1F
100
AcDbEntity
  8
0
  6
Continuous
 62
     7
370
    15
100
AcDbLine
 10
350.5380645448
 20
74.578088997
 30
0.0
 11
350.5349203998
 21
74.5964174253
 31
0.0
  0
LINE
  5
145
330
1F
100
AcDbEntity
  8
0
  6
Continuous
 62
     7
370
    15
100
AcDbLine
 10
887.1556267196
 20
156.0598437768
 30
0.0
 11
887.1556267196
 21
97.0598583204
 31
0.0
  0
LINE
  5
146
330
1F
100
AcDbEntity
  8
0
  6
Continuous
 62
     7
370
    15
100
AcDbLine
 10
87.1556147986
 20
156.0598437768
 30
0.0
 11
87.1556147986
 21
97.0598583204
 31
0.0
  0
LINE
  5
147
330
1F
100
AcDbEntity
  8
0
  6
Continuous
 62
     7
370
    15
100
AcDbLine
 10
87.1556147986
 20
156.0598437768
 30
0.0
 11
112.1556207591
 21
156.0598437768
 31
0.0
  0
LINE
  5
148
330
1F
100
AcDbEntity
  8
0
  6
Continuous
 62
     7
370
    15
100
AcDbLine
 10
112.1556207591
 20
152.5598590356
 30
0.0
 11
112.1556207591
 21
156.0598437768
 31
0.0
  0
LINE
  5
149
330
1F
100
AcDbEntity
  8
0
  6
Continuous
 62
     7
370
    15
100
AcDbLine
 10
862.1556207591
 20
156.0598437768
 30
0.0
 11
887.1556267196
 21
156.0598437768
 31
0.0
  0
LINE
  5
14A
330
1F
100
AcDbEntity
  8
0
  6
Continuous
 62
     7
370
    15
100
AcDbLine
 10
862.1556207591
 20
156.0598437768
 30
0.0
 11
862.1556207591
 21
152.5598590356
 31
0.0
  0
LINE
  5
14B
330
1F
100
AcDbEntity
  8
0
  6
Continuous
 62
     7
370
    15
100
AcDbLine
 10
862.1556207591
 20
156.0598437768
 30
0.0
 11
112.1556207591
 21
156.0598437768
 31
0.0
  0
LINE
  5
14C
330
1F
100
AcDbEntity
  8
0
  6
Continuous
 62
     7
370
    15
100
AcDbLine
 10
87.1556147986
 20
97.0598583204
 30
0.0
 11
87.1556147986
 21
85.059863804
 31
0.0
  0
LINE
  5
14D
330
1F
100
AcDbEntity
  8
0
  6
Continuous
 62
     7
370
    15
100
AcDbLine
 10
887.1556267196
 20
97.0598583204
 30
0.0
 11
887.1556267196
 21
85.059863804
 31
0.0
  0
LINE
  5
14E
330
1F
100
AcDbEntity
  8
0
  6
Continuous
 62
     7
370
    15
100
AcDbLine
 10
114.4056066924
 20
158.3098595125
 30
0.0
 11
115.6556353026
 21
159.5598583204
 31
0.0
  0
LINE
  5
14F
330
1F
100
AcDbEntity
  8
0
  6
Continuous
 62
     7
370
    15
100
AcDbLine
 10
858.6556062156
 20
159.5598583204
 30
0.0
 11
859.9056348258
 21
158.3098595125
 31
0.0
  0
LINE
  5
150
330
1F
100
AcDbEntity
  8
0
  6
Continuous
 62
     7
370
    15
100
AcDbLine
 10
487.6556207828
 20
172.0598463994
 30
0.0
 11
486.6556207353
 21
172.0598463994
 31
0.0
  0
LINE
  5
151
330
1F
100
AcDbEntity
  8
0
  6
Continuous
 62
     7
370
    15
100
AcDbLine
 10
887.1556267196
 20
156.0598437768
 30
0.0
 11
887.1556267196
 21
910.0598518831
 31
0.0
  0
LINE
  5
152
330
1F
100
AcDbEntity
  8
0
  6
Continuous
 62
     7
370
    15
100
AcDbLine
 10
866.4056107455
 20
156.0598437768
 30
0.0
 11
887.1556267196
 21
156.0598437768
 31
0.0
  0
LINE
  5
153
330
1F
100
AcDbEntity
  8
0
  6
Continuous
 62
     7
370
    15
100
AcDbLine
 10
862.1556207591
 20
910.0598518831
 30
0.0
 11
862.1556207591
 21
156.0598437768
 31
0.0
  0
LINE
  5
154
330
1F
100
AcDbEntity
  8
0
  6
Continuous
 62
     7
370
    15
100
AcDbLine
 10
862.1417030745
 20
156.0598437768
 30
0.0
 11
862.1417030745
 21
156.0737912637
 31
0.0
  0
LWPOLYLINE
  5
155
330
1F
100
AcDbEntity
  8
0
  6
Continuous
 62
     7
370
    15
100
AcDbPolyline
 90
        9
 70
   128
 43
0.0
 10
862.1417030745
 20
156.0737912637
 10
862.0592400485
 20
156.1562542898
 10
861.905281251
 20
156.3101832849
 10
861.684982484
 20
156.530482052
 10
861.4056155139
 20
156.809849022
 10
861.0764786654
 20
157.1390156728
 10
860.7084795886
 20
157.5070147497
 10
860.3138074332
 20
157.9016571027
 10
859.9056348258
 20
158.3098595125
  0
LINE
  5
156
330
1F
100
AcDbEntity
  8
0
  6
Continuous
 62
     7
370
    15
100
AcDbLine
 10
862.1556207591
 20
838.0598549825
 30
0.0
 11
859.9056348258
 21
838.0598549825
 31
0.0
  0
LINE
  5
157
330
1F
100
AcDbEntity
  8
0
  6
Continuous
 62
     7
370
    15
100
AcDbLine
 10
858.6556062156
 20
838.0598549825
 30
0.0
 11
859.9056348258
 21
838.0598549825
 31
0.0
  0
LINE
  5
158
330
1F
100
AcDbEntity
  8
0
  6
Continuous
 62
     7
370
    15
100
AcDbLine
 10
112.1556207591
 20
156.0598437768
 30
0.0
 11
112.1556207591
 21
910.0598518831
 31
0.0
  0
LINE
  5
159
330
1F
100
AcDbEntity
  8
0
  6
Continuous
 62
     7
370
    15
100
AcDbLine
 10
87.1556147986
 20
156.0598437768
 30
0.0
 11
107.9056307727
 21
156.0598437768
 31
0.0
  0
LINE
  5
15A
330
1F
100
AcDbEntity
  8
0
  6
Continuous
 62
     7
370
    15
100
AcDbLine
 10
87.1556147986
 20
910.0598518831
 30
0.0
 11
87.1556147986
 21
156.0598437768
 31
0.0
  0
LINE
  5
15B
330
1F
100
AcDbEntity
  8
0
  6
Continuous
 62
     7
370
    15
100
AcDbLine
 10
112.1695384437
 20
156.0598437768
 30
0.0
 11
112.1695384437
 21
156.0737912637
 31
0.0
  0
LWPOLYLINE
  5
15C
330
1F
100
AcDbEntity
  8
0
  6
Continuous
 62
     7
370
    15
100
AcDbPolyline
 90
        9
 70
   128
 43
0.0
 10
114.4056066924
 20
158.3098595125
 10
113.997434085
 20
157.9016571027
 10
113.6027619296
 20
157.5070147497
 10
113.2347628528
 20
157.1390156728
 10
112.9056260043
 20
156.809849022
 10
112.6262590342
 20
156.530482052
 10
112.4059602672
 20
156.3101832849
 10
112.2520014697
 20
156.1562542898
 10
112.1695384437
 20
156.0737912637
  0
LINE
  5
15D
330
1F
100
AcDbEntity
  8
0
  6
Continuous
 62
     7
370
    15
100
AcDbLine
 10
114.4056066924
 20
838.0598549825
 30
0.0
 11
112.1556207591
 21
838.0598549825
 31
0.0
  0
LINE
  5
15E
330
1F
100
AcDbEntity
  8
0
  6
Continuous
 62
     7
370
    15
100
AcDbLine
 10
114.4056066924
 20
838.0598549825
 30
0.0
 11
115.6556353026
 21
838.0598549825
 31
0.0
  0
LINE
  5
15F
330
1F
100
AcDbEntity
  8
0
  6
Continuous
 62
     7
370
    15
100
AcDbLine
 10
87.1556147986
 20
980.8098499757
 30
0.0
 11
87.1556147986
 21
914.3098418695
 31
0.0
  0
LINE
  5
160
330
1F
100
AcDbEntity
  8
0
  6
Continuous
 62
     7
370
    15
100
AcDbLine
 10
887.1556267196
 20
980.8098499757
 30
0.0
 11
887.1556267196
 21
914.3098418695
 31
0.0
  0
LINE
  5
161
330
1F
100
AcDbEntity
  8
0
  6
Continuous
 62
     7
370
    15
100
AcDbLine
 10
767.1556219512
 20
929.8442428094
 30
0.0
 11
767.1556219512
 21
964.7754852754
 31
0.0
  0
LINE
  5
162
330
1F
100
AcDbEntity
  8
0
  6
Continuous
 62
     7
370
    15
100
AcDbLine
 10
207.155619567
 20
964.7754852754
 30
0.0
 11
207.155619567
 21
929.8442428094
 31
0.0
  0
CIRCLE
  5
163
330
1F
100
AcDbEntity
  8
0
  6
Continuous
 62
     7
370
    15
100
AcDbCircle
 10
877.1556207591
 20
947.5598567355
 30
0.0
 40
3.249999999999773
  0
CIRCLE
  5
164
330
1F
100
AcDbEntity
  8
0
  6
Continuous
 62
     7
370
    15
100
AcDbCircle
 10
97.1556207591
 20
947.5598567355
 30
0.0
 40
3.249999999999773
  0
LINE
  5
165
330
1F
100
AcDbEntity
  8
0
  6
Continuous
 62
     7
370
    15
100
AcDbLine
 10
87.1556147986
 20
985.0598697645
 30
0.0
 11
87.1556147986
 21
980.8098499757
 31
0.0
  0
LINE
  5
166
330
1F
100
AcDbEntity
  8
0
  6
Continuous
 62
     7
370
    15
100
AcDbLine
 10
87.1556147986
 20
985.0598697645
 30
0.0
 11
887.1556267196
 21
985.0598697645
 31
0.0
  0
LINE
  5
167
330
1F
100
AcDbEntity
  8
0
  6
Continuous
 62
     7
370
    15
100
AcDbLine
 10
887.1556267196
 20
985.0598697645
 30
0.0
 11
887.1556267196
 21
980.8098499757
 31
0.0
  0
LINE
  5
168
330
1F
100
AcDbEntity
  8
0
  6
Continuous
 62
     7
370
    15
100
AcDbLine
 10
87.1556147986
 20
910.0598518831
 30
0.0
 11
115.1556119376
 21
910.0598518831
 31
0.0
  0
LINE
  5
169
330
1F
100
AcDbEntity
  8
0
  6
Continuous
 62
     7
370
    15
100
AcDbLine
 10
859.1556295806
 20
910.0598518831
 30
0.0
 11
887.1556267196
 21
910.0598518831
 31
0.0
  0
LINE
  5
16A
330
1F
100
AcDbEntity
  8
0
  6
Continuous
 62
     7
370
    15
100
AcDbLine
 10
887.1556267196
 20
914.3098418695
 30
0.0
 11
887.1556267196
 21
910.0598518831
 31
0.0
  0
LINE
  5
16B
330
1F
100
AcDbEntity
  8
0
  6
Continuous
 62
     7
370
    15
100
AcDbLine
 10
87.1556147986
 20
914.3098418695
 30
0.0
 11
87.1556147986
 21
910.0598518831
 31
0.0
  0
LINE
  5
16C
330
1F
100
AcDbEntity
  8
0
  6
Continuous
 62
     7
370
    15
100
AcDbLine
 10
487.6556207828
 20
838.0598549825
 30
0.0
 11
486.6556207353
 21
838.0598549825
 31
0.0
  0
ARC
  5
16D
330
1F
100
AcDbEntity
  8
0
  6
Continuous
 62
     7
370
    15
100
AcDbCircle
 10
488.7286586254
 20
496.1574053048
 30
0.0
 40
3.49999999999999
100
AcDbArc
 50
81.9832008712
 51
111.7625357789
  0
CIRCLE
  5
16E
330
1F
100
AcDbEntity
  8
0
  6
Continuous
 62
     7
370
    15
100
AcDbCircle
 10
487.1421964988
 20
506.0307602524
 30
0.0
 40
3.500000000000006
  0
LINE
  5
16F
330
1F
100
AcDbEntity
  8
0
  6
Continuous
 62
     7
370
    15
100
AcDbLine
 10
487.6556207828
 20
180.2557234746
 30
0.0
 11
486.6556207353
 21
180.2557234746
 31
0.0
  0
LWPOLYLINE
  5
170
330
1F
100
AcDbEntity
  8
0
  6
Continuous
 62
     7
370
    15
100
AcDbPolyline
 90
        3
 70
   128
 43
0.0
 10
486.6556207353
 20
177.3308639509
 10
487.5070790814
 20
177.3091678602
 10
487.6556207828
 20
177.3308639509
  0
LWPOLYLINE
  5
171
330
1F
100
AcDbEntity
  8
0
  6
Continuous
 62
     7
370
    15
100
AcDbPolyline
 90
        3
 70
   128
 43
0.0
 10
486.6556207353
 20
176.269543646
 10
487.2343715334
 20
176.2389366609
 10
487.6556207828
 20
176.269543646
  0
LWPOLYLINE
  5
172
330
1F
100
AcDbEntity
  8
0
  6
Continuous
 62
     7
370
    15
100
AcDbPolyline
 90
        3
 70
   128
 43
0.0
 10
486.6556207353
 20
177.7631764394
 10
486.6886479077
 20
177.7567391378
 10
487.6556207828
 20
177.7631764394
  0
ARC
  5
173
330
1F
100
AcDbEntity
  8
0
  6
Continuous
 62
     7
370
    15
100
AcDbCircle
 10
487.1556207591
 20
180.238168899
 30
0.0
 40
2.100000000000005
100
AcDbArc
 50
256.2258530019
 51
283.7741469979
  0
ARC
  5
174
330
1F
100
AcDbEntity
  8
0
  6
Continuous
 62
     7
370
    15
100
AcDbCircle
 10
356.8829594657
 20
962.1407120722
 30
0.0
 40
4.765855904275408
100
AcDbArc
 50
61.5193509354
 51
98.7784377208
  0
LINE
  5
175
330
1F
100
AcDbEntity
  8
0
  6
Continuous
 62
     7
370
    15
100
AcDbLine
 10
359.1556146794
 20
964.0913431627
 30
0.0
 11
359.1556146794
 21
966.3297955972
 31
0.0
  0
LINE
  5
176
330
1F
100
AcDbEntity
  8
0
  6
Continuous
 62
     7
370
    15
100
AcDbLine
 10
248.8361343795
 20
966.8507401925
 30
0.0
 11
278.5710737163
 21
966.8507401925
 31
0.0
  0
LINE
  5
177
330
1F
100
AcDbEntity
  8
0
  6
Continuous
 62
     7
370
    15
100
AcDbLine
 10
295.1326713019
 20
966.8507401925
 30
0.0
 11
356.1556235009
 21
966.8507401925
 31
0.0
  0
LINE
  5
178
330
1F
100
AcDbEntity
  8
0
  6
Continuous
 62
     7
370
    15
100
AcDbLine
 10
299.5481535846
 20
967.6385943872
 30
0.0
 11
356.1556235009
 21
967.6385943872
 31
0.0
  0
ARC
  5
179
330
1F
100
AcDbEntity
  8
0
  6
Continuous
 62
     7
370
    15
100
AcDbCircle
 10
356.8829594657
 20
962.9285662668
 30
0.0
 40
4.765855904275408
100
AcDbArc
 50
61.5193509354
 51
98.7784377208
  0
LINE
  5
17A
330
1F
100
AcDbEntity
  8
0
  6
Continuous
 62
     7
370
    15
100
AcDbLine
 10
359.1556146794
 20
967.1176497919
 30
0.0
 11
359.1556146794
 21
966.3297955972
 31
0.0
  0
LINE
  5
17B
330
1F
100
AcDbEntity
  8
0
  6
Continuous
 62
     7
370
    15
100
AcDbLine
 10
614.1556248122
 20
966.3297955972
 30
0.0
 11
614.1556248122
 21
964.0913431627
 31
0.0
  0
ARC
  5
17C
330
1F
100
AcDbEntity
  8
0
  6
Continuous
 62
     7
370
    15
100
AcDbCircle
 10
616.428280026
 20
962.1407120722
 30
0.0
 40
4.765855904275419
100
AcDbArc
 50
81.2215622792
 51
118.4806490646
  0
LINE
  5
17D
330
1F
100
AcDbEntity
  8
0
  6
Continuous
 62
     7
370
    15
100
AcDbLine
 10
617.1556159907
 20
966.8507401925
 30
0.0
 11
679.3082699233
 21
966.8507401925
 31
0.0
  0
LINE
  5
17E
330
1F
100
AcDbEntity
  8
0
  6
Continuous
 62
     7
370
    15
100
AcDbLine
 10
695.696075266
 20
966.8507401925
 30
0.0
 11
767.1556219512
 21
966.8507401925
 31
0.0
  0
LINE
  5
17F
330
1F
100
AcDbEntity
  8
0
  6
Continuous
 62
     7
370
    15
100
AcDbLine
 10
614.1556248122
 20
966.3297955972
 30
0.0
 11
614.1556248122
 21
967.1176497919
 31
0.0
  0
ARC
  5
180
330
1F
100
AcDbEntity
  8
0
  6
Continuous
 62
     7
370
    15
100
AcDbCircle
 10
616.428280026
 20
962.9285662668
 30
0.0
 40
4.765855904275419
100
AcDbArc
 50
81.2215622792
 51
118.4806490646
  0
LINE
  5
181
330
1F
100
AcDbEntity
  8
0
  6
Continuous
 62
     7
370
    15
100
AcDbLine
 10
617.1556159907
 20
967.6385943872
 30
0.0
 11
674.7630879336
 21
967.6385943872
 31
0.0
  0
LINE
  5
182
330
1F
100
AcDbEntity
  8
0
  6
Continuous
 62
     7
370
    15
100
AcDbLine
 10
359.1556146794
 20
964.0601997358
 30
0.0
 11
359.1556146794
 21
964.0913431627
 31
0.0
  0
LINE
  5
183
330
1F
100
AcDbEntity
  8
0
  6
Continuous
 62
     7
370
    15
100
AcDbLine
 10
359.1556146794
 20
964.0601997358
 30
0.0
 11
292.9279401952
 21
964.0601997358
 31
0.0
  0
LINE
  5
184
330
1F
100
AcDbEntity
  8
0
  6
Continuous
 62
     7
370
    15
100
AcDbLine
 10
281.3180282765
 20
964.0601997358
 30
0.0
 11
207.155619567
 21
964.0601997358
 31
0.0
  0
LINE
  5
185
330
1F
100
AcDbEntity
  8
0
  6
Continuous
 62
     7
370
    15
100
AcDbLine
 10
767.1556219512
 20
964.0601997358
 30
0.0
 11
693.0448010617
 21
964.0601997358
 31
0.0
  0
LINE
  5
186
330
1F
100
AcDbEntity
  8
0
  6
Continuous
 62
     7
370
    15
100
AcDbLine
 10
681.4072027856
 20
964.0601997358
 30
0.0
 11
614.1556248122
 21
964.0601997358
 31
0.0
  0
LINE
  5
187
330
1F
100
AcDbEntity
  8
0
  6
Continuous
 62
     7
370
    15
100
AcDbLine
 10
614.1556248122
 20
964.0913431627
 30
0.0
 11
614.1556248122
 21
964.0601997358
 31
0.0
  0
LINE
  5
188
330
1F
100
AcDbEntity
  8
0
  6
Continuous
 62
     7
370
    15
100
AcDbLine
 10
359.1556146794
 20
964.0601997358
 30
0.0
 11
359.1556146794
 21
962.8102009279
 31
0.0
  0
LINE
  5
189
330
1F
100
AcDbEntity
  8
0
  6
Continuous
 62
     7
370
    15
100
AcDbLine
 10
614.1556248122
 20
962.8102009279
 30
0.0
 11
614.1556248122
 21
964.0601997358
 31
0.0
  0
LINE
  5
18A
330
1F
100
AcDbEntity
  8
0
  6
Continuous
 62
     7
370
    15
100
AcDbLine
 10
614.1556248122
 20
926.2856965047
 30
0.0
 11
614.1556248122
 21
962.8102009279
 31
0.0
  0
LINE
  5
18B
330
1F
100
AcDbEntity
  8
0
  6
Continuous
 62
     7
370
    15
100
AcDbLine
 10
359.1556146794
 20
962.8102009279
 30
0.0
 11
359.1556146794
 21
926.2949948293
 31
0.0
  0
CIRCLE
  5
18C
330
1F
100
AcDbEntity
  8
0
  6
Continuous
 62
     7
370
    15
100
AcDbCircle
 10
354.684910081
 20
946.8602088133
 30
0.0
 40
1.649999999999977
  0
CIRCLE
  5
18D
330
1F
100
AcDbEntity
  8
0
  6
Continuous
 62
     7
370
    15
100
AcDbCircle
 10
619.684910081
 20
946.8602088133
 30
0.0
 40
1.649999999999977
  0
LINE
  5
18E
330
1F
100
AcDbEntity
  8
0
  6
Continuous
 62
     7
370
    15
100
AcDbLine
 10
878.3556267672
 20
945.3666930181
 30
0.0
 11
878.3556267672
 21
949.7530286294
 31
0.0
  0
CIRCLE
  5
18F
330
1F
100
AcDbEntity
  8
0
  6
Continuous
 62
     7
370
    15
100
AcDbCircle
 10
877.15562075
 20
947.5598567356
 30
0.0
 40
2.5
  0
CIRCLE
  5
190
330
1F
100
AcDbEntity
  8
0
  6
Continuous
 62
     7
370
    15
100
AcDbCircle
 10
97.1556207682
 20
947.5598567357
 30
0.0
 40
2.500000000000114
  0
LINE
  5
191
330
1F
100
AcDbEntity
  8
0
  6
Continuous
 62
     7
370
    15
100
AcDbLine
 10
95.9556147509
 20
945.3666930181
 30
0.0
 11
95.9556147509
 21
949.7530286294
 31
0.0
  0
ENDSEC
  0
SECTION
  2
OBJECTS
  0
DICTIONARY
  5
C
330
0
100
AcDbDictionary
281
     1
  3
ACAD_GROUP
350
D
  3
ACAD_LAYOUT
350
1A
  3
ACAD_MLINESTYLE
350
17
  3
ACAD_PLOTSETTINGS
350
19
  3
ACAD_PLOTSTYLENAME
350
E
  0
DICTIONARY
  5
D
102
{ACAD_REACTORS
330
C
102
}
330
C
100
AcDbDictionary
281
     1
  0
DICTIONARY
  5
1A
102
{ACAD_REACTORS
330
C
102
}
330
C
100
AcDbDictionary
281
     1
  3
Layout1
350
1E
  3
Layout2
350
26
  3
Model
350
22
  0
DICTIONARY
  5
17
102
{ACAD_REACTORS
330
C
102
}
330
C
100
AcDbDictionary
281
     1
  3
Standard
350
18
  0
DICTIONARY
  5
19
102
{ACAD_REACTORS
330
C
102
}
330
C
100
AcDbDictionary
281
     1
  0
ACDBDICTIONARYWDFLT
  5
E
102
{ACAD_REACTORS
330
C
102
}
330
C
100
AcDbDictionary
281
     1
  3
Normal
350
F
100
AcDbDictionaryWithDefault
340
F
  0
LAYOUT
  5
1E
102
{ACAD_REACTORS
330
1A
102
}
330
1A
100
AcDbPlotSettings
  1

  2
none_device
  4

  6

 40
0.0
 41
0.0
 42
0.0
 43
0.0
 44
0.0
 45
0.0
 46
0.0
 47
0.0
 48
0.0
 49
0.0
140
0.0
141
0.0
142
1.0
143
1.0
 70
   688
 72
     0
 73
     0
 74
     5
  7

 75
    16
147
1.0
148
0.0
149
0.0
100
AcDbLayout
  1
Layout1
 70
     1
 71
     1
 10
0.0
 20
0.0
 11
420.0
 21
297.0
 12
0.0
 22
0.0
 32
0.0
 14
1.0000000000E+20
 24
1.0000000000E+20
 34
1.0000000000E+20
 15
-1.0000000000E+20
 25
-1.0000000000E+20
 35
-1.0000000000E+20
146
0.0
 13
0.0
 23
0.0
 33
0.0
 16
1.0
 26
0.0
 36
0.0
 17
0.0
 27
1.0
 37
0.0
 76
     0
330
1B
  0
LAYOUT
  5
26
102
{ACAD_REACTORS
330
1A
102
}
330
1A
100
AcDbPlotSettings
  1

  2
none_device
  4

  6

 40
0.0
 41
0.0
 42
0.0
 43
0.0
 44
0.0
 45
0.0
 46
0.0
 47
0.0
 48
0.0
 49
0.0
140
0.0
141
0.0
142
1.0
143
1.0
 70
   688
 72
     0
 73
     0
 74
     5
  7

 75
    16
147
1.0
148
0.0
149
0.0
100
AcDbLayout
  1
Layout2
 70
     1
 71
     2
 10
0.0
 20
0.0
 11
0.0
 21
0.0
 12
0.0
 22
0.0
 32
0.0
 14
0.0
 24
0.0
 34
0.0
 15
0.0
 25
0.0
 35
0.0
146
0.0
 13
0.0
 23
0.0
 33
0.0
 16
1.0
 26
0.0
 36
0.0
 17
0.0
 27
1.0
 37
0.0
 76
     0
330
23
  0
LAYOUT
  5
22
102
{ACAD_REACTORS
330
1A
102
}
330
1A
100
AcDbPlotSettings
  1

  2
none_device
  4

  6

 40
0.0
 41
0.0
 42
0.0
 43
0.0
 44
0.0
 45
0.0
 46
0.0
 47
0.0
 48
0.0
 49
0.0
140
0.0
141
0.0
142
1.0
143
1.0
 70
  1712
 72
     0
 73
     0
 74
     0
  7

 75
     0
147
1.0
148
0.0
149
0.0
100
AcDbLayout
  1
Model
 70
     1
 71
     0
 10
0.0
 20
0.0
 11
1000.0
 21
1000.0
 12
0.0
 22
0.0
 32
0.0
 14
0.0
 24
0.0
 34
0.0
 15
1000.0
 25
1000.0
 35
0.0
146
0.0
 13
0.0
 23
0.0
 33
0.0
 16
1.0
 26
0.0
 36
0.0
 17
0.0
 27
1.0
 37
0.0
 76
     0
330
1F
331
29
  0
MLINESTYLE
  5
18
102
{ACAD_REACTORS
330
17
102
}
330
17
100
AcDbMlineStyle
  2
Standard
 70
     0
  3

 62
   256
 51
90.0
 52
90.0
 71
     2
 49
0.5
 62
   256
  6
BYLAYER
 49
-0.5
 62
   256
  6
BYLAYER
  0
ACDBPLACEHOLDER
  5
F
102
{ACAD_REACTORS
330
E
102
}
330
E
  0
ENDSEC
  0
EOF
