  0
SECTION
  2
HEADER
  9
$ACADVER
  1
AC1015
  9
$ACADMAINTVER
 70
     6
  9
$DWGCODEPAGE
  3
ANSI_1252
  9
$INSBASE
 10
0.0
 20
0.0
 30
0.0
  9
$EXTMIN
 10
0.0
 20
0.0
 30
0.0
  9
$EXTMAX
 10
1000.0
 20
1000.0
 30
0.0
  9
$LIMMIN
 10
0.0
 20
0.0
  9
$LIMMAX
 10
1000.0
 20
1000.0
  9
$ORTHOMODE
 70
     0
  9
$REGENMODE
 70
     1
  9
$FILLMODE
 70
     1
  9
$QTEXTMODE
 70
     0
  9
$MIRRTEXT
 70
     1
  9
$LTSCALE
 40
1.0
  9
$ATTMODE
 70
     1
  9
$TEXTSIZE
 40
3.5
  9
$TRACEWID
 40
1.0
  9
$TEXTSTYLE
  7
Standard
  9
$CLAYER
  8
0
  9
$CELTYPE
  6
ByLayer
  9
$CECOLOR
 62
   256
  9
$CELTSCALE
 40
1.0
  9
$DISPSILH
 70
     0
  9
$DIMSCALE
 40
1.0
  9
$DIMASZ
 40
3.302
  9
$DIMEXO
 40
1.0
  9
$DIMDLI
 40
3.75
  9
$DIMRND
 40
0.0
  9
$DIMDLE
 40
0.0
  9
$DIMEXE
 40
1.0
  9
$DIMTP
 40
0.0
  9
$DIMTM
 40
0.0
  9
$DIMTXT
 40
3.5
  9
$DIMCEN
 40
2.5
  9
$DIMTSZ
 40
0.0
  9
$DIMTOL
 70
     0
  9
$DIMLIM
 70
     0
  9
$DIMTIH
 70
     1
  9
$DIMTOH
 70
     1
  9
$DIMSE1
 70
     0
  9
$DIMSE2
 70
     0
  9
$DIMTAD
 70
     1
  9
$DIMZIN
 70
     0
  9
$DIMBLK
  1

  9
$DIMASO
 70
     1
  9
$DIMSHO
 70
     1
  9
$DIMPOST
  1

  9
$DIMAPOST
  1

  9
$DIMALT
 70
     0
  9
$DIMALTD
 70
     3
  9
$DIMALTF
 40
0.0393700787
  9
$DIMLFAC
 40
1.0
  9
$DIMTOFL
 70
     1
  9
$DIMTVP
 40
0.0
  9
$DIMTIX
 70
     0
  9
$DIMSOXD
 70
     0
  9
$DIMSAH
 70
     0
  9
$DIMBLK1
  1

  9
$DIMBLK2
  1

  9
$DIMSTYLE
  2
ISO-25
  9
$DIMCLRD
 70
     0
  9
$DIMCLRE
 70
     0
  9
$DIMCLRT
 70
     0
  9
$DIMTFAC
 40
1.0
  9
$DIMGAP
 40
1.524
  9
$DIMJUST
 70
     0
  9
$DIMSD1
 70
     0
  9
$DIMSD2
 70
     0
  9
$DIMTOLJ
 70
     0
  9
$DIMTZIN
 70
     0
  9
$DIMALTZ
 70
     0
  9
$DIMALTTZ
 70
     0
  9
$DIMUPT
 70
     0
  9
$DIMDEC
 70
     3
  9
$DIMTDEC
 70
     3
  9
$DIMALTU
 70
     2
  9
$DIMALTTD
 70
     3
  9
$DIMTXSTY
  7
Standard
  9
$DIMAUNIT
 70
     0
  9
$DIMADEC
 70
     2
  9
$DIMALTRND
 40
0.0
  9
$DIMAZIN
 70
     0
  9
$DIMDSEP
 70
    44
  9
$DIMATFIT
 70
     3
  9
$DIMFRAC
 70
     0
  9
$DIMLDRBLK
  1

  9
$DIMLUNIT
 70
     2
  9
$DIMLWD
 70
    -2
  9
$DIMLWE
 70
    -2
  9
$DIMTMOVE
 70
     0
  9
$LUNITS
 70
     2
  9
$LUPREC
 70
     8
  9
$SKETCHINC
 40
1.0
  9
$FILLETRAD
 40
10.0
  9
$AUNITS
 70
     0
  9
$AUPREC
 70
     8
  9
$MENU
  1
.
  9
$ELEVATION
 40
0.0
  9
$PELEVATION
 40
0.0
  9
$THICKNESS
 40
0.0
  9
$LIMCHECK
 70
     0
  9
$CHAMFERA
 40
10.0
  9
$CHAMFERB
 40
10.0
  9
$CHAMFERC
 40
20.0
  9
$CHAMFERD
 40
0.0
  9
$SKPOLY
 70
     0
  9
$TDCREATE
 40
2457053.462578599
  9
$TDUCREATE
 40
2457053.462578599
  9
$TDUPDATE
 40
2457053.462579317
  9
$TDUUPDATE
 40
2457053.462579317
  9
$TDINDWG
 40
0.0000000116
  9
$TDUSRTIMER
 40
0.0000000116
  9
$USRTIMER
 70
     1
  9
$ANGBASE
 50
0.0
  9
$ANGDIR
 70
     0
  9
$PDMODE
 70
     0
  9
$PDSIZE
 40
-1.0
  9
$PLINEWID
 40
0.0
  9
$SPLFRAME
 70
     0
  9
$SPLINETYPE
 70
     6
  9
$SPLINESEGS
 70
     8
  9
$HANDSEED
  5
21E
  9
$SURFTAB1
 70
     6
  9
$SURFTAB2
 70
     6
  9
$SURFTYPE
 70
     6
  9
$SURFU
 70
     6
  9
$SURFV
 70
     6
  9
$UCSBASE
  2

  9
$UCSNAME
  2

  9
$UCSORG
 10
0.0
 20
0.0
 30
0.0
  9
$UCSXDIR
 10
1.0
 20
0.0
 30
0.0
  9
$UCSYDIR
 10
0.0
 20
1.0
 30
0.0
  9
$UCSORTHOREF
  2

  9
$UCSORTHOVIEW
 70
     0
  9
$UCSORGTOP
 10
0.0
 20
0.0
 30
0.0
  9
$UCSORGBOTTOM
 10
0.0
 20
0.0
 30
0.0
  9
$UCSORGLEFT
 10
0.0
 20
0.0
 30
0.0
  9
$UCSORGRIGHT
 10
0.0
 20
0.0
 30
0.0
  9
$UCSORGFRONT
 10
0.0
 20
0.0
 30
0.0
  9
$UCSORGBACK
 10
0.0
 20
0.0
 30
0.0
  9
$PUCSBASE
  2

  9
$PUCSNAME
  2

  9
$PUCSORG
 10
0.0
 20
0.0
 30
0.0
  9
$PUCSXDIR
 10
1.0
 20
0.0
 30
0.0
  9
$PUCSYDIR
 10
0.0
 20
1.0
 30
0.0
  9
$PUCSORTHOREF
  2

  9
$PUCSORTHOVIEW
 70
     0
  9
$PUCSORGTOP
 10
0.0
 20
0.0
 30
0.0
  9
$PUCSORGBOTTOM
 10
0.0
 20
0.0
 30
0.0
  9
$PUCSORGLEFT
 10
0.0
 20
0.0
 30
0.0
  9
$PUCSORGRIGHT
 10
0.0
 20
0.0
 30
0.0
  9
$PUCSORGFRONT
 10
0.0
 20
0.0
 30
0.0
  9
$PUCSORGBACK
 10
0.0
 20
0.0
 30
0.0
  9
$USERI1
 70
     0
  9
$USERI2
 70
     0
  9
$USERI3
 70
     0
  9
$USERI4
 70
     0
  9
$USERI5
 70
     0
  9
$USERR1
 40
0.0
  9
$USERR2
 40
0.0
  9
$USERR3
 40
0.0
  9
$USERR4
 40
0.0
  9
$USERR5
 40
0.0
  9
$WORLDVIEW
 70
     1
  9
$SHADEDGE
 70
     3
  9
$SHADEDIF
 70
    70
  9
$TILEMODE
 70
     1
  9
$MAXACTVP
 70
    64
  9
$PINSBASE
 10
0.0
 20
0.0
 30
0.0
  9
$PLIMCHECK
 70
     0
  9
$PEXTMIN
 10
1.0000000000E+20
 20
1.0000000000E+20
 30
1.0000000000E+20
  9
$PEXTMAX
 10
-1.0000000000E+20
 20
-1.0000000000E+20
 30
-1.0000000000E+20
  9
$PLIMMIN
 10
0.0
 20
0.0
  9
$PLIMMAX
 10
420.0
 20
297.0
  9
$UNITMODE
 70
     0
  9
$VISRETAIN
 70
     1
  9
$PLINEGEN
 70
     0
  9
$PSLTSCALE
 70
     1
  9
$TREEDEPTH
 70
  3020
  9
$CMLSTYLE
  2
Standard
  9
$CMLJUST
 70
     0
  9
$CMLSCALE
 40
20.0
  9
$PROXYGRAPHICS
 70
     1
  9
$MEASUREMENT
 70
     1
  9
$CELWEIGHT
370
    -1
  9
$ENDCAPS
280
     0
  9
$JOINSTYLE
280
     0
  9
$LWDISPLAY
290
     1
  9
$INSUNITS
 70
     4
  9
$HYPERLINKBASE
  1

  9
$STYLESHEET
  1

  9
$XEDIT
290
     1
  9
$CEPSNTYPE
380
     0
  9
$PSTYLEMODE
290
     1
  9
$FINGERPRINTGUID
  2
{75BF0C66-3167-4059-8407-5F02996A064A}
  9
$VERSIONGUID
  2
{FAEB1C32-E019-11D5-929B-00C0DF256EC4}
  9
$EXTNAMES
290
     1
  9
$PSVPSCALE
 40
0.0
  9
$OLESTARTUP
290
     0
  0
ENDSEC
  0
SECTION
  2
CLASSES
  0
CLASS
  1
ACDBDICTIONARYWDFLT
  2
AcDbDictionaryWithDefault
  3
ObjectDBX Classes
 90
        0
280
     0
281
     0
  0
CLASS
  1
VISUALSTYLE
  2
AcDbVisualStyle
  3
ObjectDBX Classes
 90
     4095
280
     0
281
     0
  0
CLASS
  1
MATERIAL
  2
AcDbMaterial
  3
ObjectDBX Classes
 90
     1153
280
     0
281
     0
  0
CLASS
  1
ACDBPLACEHOLDER
  2
AcDbPlaceHolder
  3
ObjectDBX Classes
 90
        0
280
     0
281
     0
  0
CLASS
  1
LAYOUT
  2
AcDbLayout
  3
ObjectDBX Classes
 90
        0
280
     0
281
     0
  0
ENDSEC
  0
SECTION
  2
TABLES
  0
TABLE
  2
VPORT
  5
8
330
0
100
AcDbSymbolTable
 70
     1
  0
VPORT
  5
29
330
8
100
AcDbSymbolTableRecord
100
AcDbViewportTableRecord
  2
*Active
 70
     0
 10
0.0
 20
0.0
 11
1.0
 21
1.0
 12
500.0
 22
500.0
 13
0.0
 23
0.0
 14
10.0
 24
10.0
 15
10.0
 25
10.0
 16
0.0
 26
0.0
 36
1.0
 17
0.0
 27
0.0
 37
0.0
 40
1000.0
 41
1.0
 42
50.0
 43
0.0
 44
0.0
 50
0.0
 51
0.0
 71
     0
 72
  2000
 73
     1
 74
     3
 75
     0
 76
     0
 77
     0
 78
     0
281
     0
 65
     1
110
0.0
120
0.0
130
0.0
111
1.0
121
0.0
131
0.0
112
0.0
122
1.0
132
0.0
 79
     0
146
0.0
  0
ENDTAB
  0
TABLE
  2
LTYPE
  5
5
330
0
100
AcDbSymbolTable
 70
     6
  0
LTYPE
  5
14
330
5
100
AcDbSymbolTableRecord
100
AcDbLinetypeTableRecord
  2
ByBlock
 70
     0
  3

 72
    65
 73
     0
 40
0.0
  0
LTYPE
  5
15
330
5
100
AcDbSymbolTableRecord
100
AcDbLinetypeTableRecord
  2
ByLayer
 70
     0
  3

 72
    65
 73
     0
 40
0.0
  0
LTYPE
  5
16
330
5
100
AcDbSymbolTableRecord
100
AcDbLinetypeTableRecord
  2
Continuous
 70
     0
  3
Solid line
 72
    65
 73
     0
 40
0.0
  0
LTYPE
  5
3F
330
5
100
AcDbSymbolTableRecord
100
AcDbLinetypeTableRecord
  2
HIDDEN
 70
     0
  3
Hidden __ __ __ __ __ __ __ __ __ __ __ __ __ __
 72
    65
 73
     2
 40
1.905
 49
1.27
 74
     0
 49
-0.635
 74
     0
  0
LTYPE
  5
40
330
5
100
AcDbSymbolTableRecord
100
AcDbLinetypeTableRecord
  2
PHANTOM
 70
     0
  3
Phantom ______  __  __  ______  __  __  ______
 72
    65
 73
     6
 40
12.7
 49
6.35
 74
     0
 49
-1.27
 74
     0
 49
1.27
 74
     0
 49
-1.27
 74
     0
 49
1.27
 74
     0
 49
-1.27
 74
     0
  0
LTYPE
  5
41
330
5
100
AcDbSymbolTableRecord
100
AcDbLinetypeTableRecord
  2
CENTER
 70
     0
  3
Center ____ _ ____ _ ____ _ ____ _ ____ _ ____
 72
    65
 73
     4
 40
10.16
 49
6.35
 74
     0
 49
-1.27
 74
     0
 49
1.27
 74
     0
 49
-1.27
 74
     0
  0
LTYPE
  5
42
330
5
100
AcDbSymbolTableRecord
100
AcDbLinetypeTableRecord
  2
CENTERX2
 70
     0
  3
Center (2x) ________  __  ________  __  _____
 72
    65
 73
     4
 40
20.32
 49
12.7
 74
     0
 49
-2.54
 74
     0
 49
2.54
 74
     0
 49
-2.54
 74
     0
  0
LTYPE
  5
43
330
5
100
AcDbSymbolTableRecord
100
AcDbLinetypeTableRecord
  2
DOT2
 70
     0
  3
Dot (.5x) ........................................
 72
    65
 73
     2
 40
0.635
 49
0.0
 74
     0
 49
-0.635
 74
     0
  0
ENDTAB
  0
TABLE
  2
LAYER
  5
2
330
0
100
AcDbSymbolTable
 70
     1
  0
LAYER
  5
10
330
2
100
AcDbSymbolTableRecord
100
AcDbLayerTableRecord
  2
0
 70
     0
 62
     7
  6
Continuous
370
    -3
390
F
  0
ENDTAB
  0
TABLE
  2
STYLE
  5
3
330
0
100
AcDbSymbolTable
 70
     1
  0
STYLE
  5
11
330
3
100
AcDbSymbolTableRecord
100
AcDbTextStyleTableRecord
  2
Standard
 70
     0
 40
0.0
 41
1.0
 50
0.0
 71
     0
 42
3.5
  3
txt
  4

  0
ENDTAB
  0
TABLE
  2
VIEW
  5
6
330
0
100
AcDbSymbolTable
 70
     0
  0
ENDTAB
  0
TABLE
  2
UCS
  5
7
330
0
100
AcDbSymbolTable
 70
     0
  0
ENDTAB
  0
TABLE
  2
APPID
  5
9
330
0
100
AcDbSymbolTable
 70
     1
  0
APPID
  5
12
330
9
100
AcDbSymbolTableRecord
100
AcDbRegAppTableRecord
  2
ACAD
 70
     0
  0
ENDTAB
  0
TABLE
  2
DIMSTYLE
  5
A
330
0
100
AcDbSymbolTable
 70
     1
100
AcDbDimStyleTable
  0
DIMSTYLE
105
27
330
A
100
AcDbSymbolTableRecord
100
AcDbDimStyleTableRecord
  2
ISO-25
 70
     0
 41
2.5
 42
0.625
 43
3.75
 44
1.25
 73
     0
 74
     0
 77
     1
 78
     8
140
2.5
141
2.5
143
0.0393700787
147
0.625
171
     3
172
     1
178
     0
271
     2
272
     2
274
     3
278
    44
283
     0
284
     8
340
11
  0
ENDTAB
  0
TABLE
  2
BLOCK_RECORD
  5
1
330
0
100
AcDbSymbolTable
 70
     1
  0
BLOCK_RECORD
  5
1F
330
1
100
AcDbSymbolTableRecord
100
AcDbBlockTableRecord
  2
*Model_Space
340
22
  0
BLOCK_RECORD
  5
1B
330
1
100
AcDbSymbolTableRecord
100
AcDbBlockTableRecord
  2
*Paper_Space
340
1E
  0
BLOCK_RECORD
  5
23
330
1
100
AcDbSymbolTableRecord
100
AcDbBlockTableRecord
  2
*Paper_Space0
340
26
  0
ENDTAB
  0
ENDSEC
  0
SECTION
  2
BLOCKS
  0
BLOCK
  5
20
330
1F
100
AcDbEntity
  8
0
100
AcDbBlockBegin
  2
*Model_Space
 70
     0
 10
0.0
 20
0.0
 30
0.0
  3
*Model_Space
  1

  0
ENDBLK
  5
21
330
1F
100
AcDbEntity
  8
0
100
AcDbBlockEnd
  0
BLOCK
  5
1C
330
1B
100
AcDbEntity
 67
     1
  8
0
100
AcDbBlockBegin
  2
*Paper_Space
 70
     0
 10
0.0
 20
0.0
 30
0.0
  3
*Paper_Space
  1

  0
ENDBLK
  5
1D
330
1B
100
AcDbEntity
 67
     1
  8
0
100
AcDbBlockEnd
  0
BLOCK
  5
24
330
23
100
AcDbEntity
  8
0
100
AcDbBlockBegin
  2
*Paper_Space0
 70
     0
 10
0.0
 20
0.0
 30
0.0
  3
*Paper_Space0
  1

  0
ENDBLK
  5
25
330
23
100
AcDbEntity
  8
0
100
AcDbBlockEnd
  0
ENDSEC
  0
SECTION
  2
ENTITIES
  0
LINE
  5
44
330
1F
100
AcDbEntity
  8
0
  6
Continuous
 62
     7
370
    15
100
AcDbLine
 10
890.3496786143
 20
756.42251615
 30
0.0
 11
890.6701205379
 21
756.7637689623
 31
0.0
  0
LINE
  5
45
330
1F
100
AcDbEntity
  8
0
  6
Continuous
 62
     7
370
    15
100
AcDbLine
 10
863.3468825198
 20
815.3586419828
 30
0.0
 11
862.8794916012
 21
815.3325223074
 31
0.0
  0
LINE
  5
46
330
1F
100
AcDbEntity
  8
0
  6
Continuous
 62
     7
370
    15
100
AcDbLine
 10
830.1148432245
 20
183.3475718789
 30
0.0
 11
830.1148432245
 21
184.4045865838
 31
0.0
  0
LINE
  5
47
330
1F
100
AcDbEntity
  8
0
  6
Continuous
 62
     7
370
    15
100
AcDbLine
 10
822.1148432245
 20
183.9853243495
 30
0.0
 11
822.1148432245
 21
183.3475718789
 31
0.0
  0
ARC
  5
48
330
1F
100
AcDbEntity
  8
0
  6
Continuous
 62
     7
370
    15
100
AcDbCircle
 10
829.7548432245
 20
183.3475718789
 30
0.0
 40
0.3600000000000269
100
AcDbArc
 50
306.3583676093
 51
0.0
  0
ARC
  5
49
330
1F
100
AcDbEntity
  8
0
  6
Continuous
 62
     7
370
    15
100
AcDbCircle
 10
822.4748432245
 20
183.3475718789
 30
0.0
 40
0.360000000000241
100
AcDbArc
 50
180.0
 51
233.6416323907
  0
ARC
  5
4A
330
1F
100
AcDbEntity
  8
0
  6
Continuous
 62
     7
370
    15
100
AcDbCircle
 10
826.1148432245
 20
188.2922660049
 30
0.0
 40
6.500000000000015
100
AcDbArc
 50
233.6416323907
 51
252.1374195081
  0
ARC
  5
4B
330
1F
100
AcDbEntity
  8
0
  6
Continuous
 62
     7
370
    15
100
AcDbCircle
 10
826.1148432245
 20
188.2922660049
 30
0.0
 40
6.500000000000082
100
AcDbArc
 50
287.8625804919
 51
306.3583676093
  0
ELLIPSE
  5
4C
330
1F
100
AcDbEntity
  8
0
  6
Continuous
 62
     7
370
    15
100
AcDbEllipse
 10
914.6148432245
 20
566.73740854
 30
0.0
 11
0.0
 21
-19.99999999999989
 31
0.0
210
-6.123233995736001E-17
220
0.0
230
1.0
 40
0.5
 41
0.0
 42
3.141592653589782
  0
LINE
  5
4D
330
1F
100
AcDbEntity
  8
0
  6
Continuous
 62
     7
370
    15
100
AcDbLine
 10
864.7235595957
 20
546.73740854
 30
0.0
 11
914.6148432245
 21
546.73740854
 31
0.0
  0
LINE
  5
4E
330
1F
100
AcDbEntity
  8
0
  6
Continuous
 62
     7
370
    15
100
AcDbLine
 10
914.6148432245
 20
586.73740854
 30
0.0
 11
864.788652224
 21
586.73740854
 31
0.0
  0
ARC
  5
4F
330
1F
100
AcDbEntity
  8
0
  6
Continuous
 62
     7
370
    15
100
AcDbCircle
 10
821.2625692647
 20
385.6922660049
 30
0.0
 40
9.609375000000046
100
AcDbArc
 50
183.5798212165
 51
208.9405882001
  0
ARC
  5
50
330
1F
100
AcDbEntity
  8
0
  6
Continuous
 62
     7
370
    15
100
AcDbCircle
 10
821.2625692647
 20
385.6922660049
 30
0.0
 40
9.609375000000048
100
AcDbArc
 50
151.0594117999
 51
176.4201787835
  0
ARC
  5
51
330
1F
100
AcDbEntity
  8
0
  6
Continuous
 62
     7
370
    15
100
AcDbCircle
 10
821.2625692647
 20
256.1922660049
 30
0.0
 40
9.609375000000048
100
AcDbArc
 50
183.5798212165
 51
208.9405882001
  0
ARC
  5
52
330
1F
100
AcDbEntity
  8
0
  6
Continuous
 62
     7
370
    15
100
AcDbCircle
 10
821.2625692647
 20
256.1922660049
 30
0.0
 40
9.609375000000076
100
AcDbArc
 50
151.0594117999
 51
176.4201787835
  0
LINE
  5
53
330
1F
100
AcDbEntity
  8
0
  6
Continuous
 62
     7
370
    15
100
AcDbLine
 10
168.1148432245
 20
15.8922660049
 30
0.0
 11
168.1148432245
 21
19.8922660049
 31
0.0
  0
LINE
  5
54
330
1F
100
AcDbEntity
  8
0
  6
Continuous
 62
     7
370
    15
100
AcDbLine
 10
111.1148432245
 20
19.8922660049
 30
0.0
 11
111.1148432245
 21
15.8922660049
 31
0.0
  0
ARC
  5
55
330
1F
100
AcDbEntity
  8
0
  6
Continuous
 62
     7
370
    15
100
AcDbCircle
 10
166.1148432245
 20
15.8922660049
 30
0.0
 40
2.000000000000002
100
AcDbArc
 50
270.0
 51
0.0
  0
ARC
  5
56
330
1F
100
AcDbEntity
  8
0
  6
Continuous
 62
     7
370
    15
100
AcDbCircle
 10
113.1148432245
 20
15.8922660049
 30
0.0
 40
2.000000000000002
100
AcDbArc
 50
180.0
 51
270.0
  0
ARC
  5
57
330
1F
100
AcDbEntity
  8
0
  6
Continuous
 62
     7
370
    15
100
AcDbCircle
 10
745.1148432245
 20
15.8922660049
 30
0.0
 40
2.000000000000002
100
AcDbArc
 50
270.0
 51
0.0
  0
ARC
  5
58
330
1F
100
AcDbEntity
  8
0
  6
Continuous
 62
     7
370
    15
100
AcDbCircle
 10
692.1148432245
 20
15.8922660049
 30
0.0
 40
2.000000000000002
100
AcDbArc
 50
180.0
 51
270.0
  0
LINE
  5
59
330
1F
100
AcDbEntity
  8
0
  6
Continuous
 62
     7
370
    15
100
AcDbLine
 10
747.1148432245
 20
15.8922660049
 30
0.0
 11
747.1148432245
 21
19.8922660049
 31
0.0
  0
LINE
  5
5A
330
1F
100
AcDbEntity
  8
0
  6
Continuous
 62
     7
370
    15
100
AcDbLine
 10
690.1148432245
 20
19.8922660049
 30
0.0
 11
690.1148432245
 21
15.8922660049
 31
0.0
  0
LINE
  5
5B
330
1F
100
AcDbEntity
  8
0
  6
Continuous
 62
     7
370
    15
100
AcDbLine
 10
167.9148432245
 20
19.8922660049
 30
0.0
 11
167.9148432245
 21
87.8922660049
 31
0.0
  0
LINE
  5
5C
330
1F
100
AcDbEntity
  8
0
  6
Continuous
 62
     7
370
    15
100
AcDbLine
 10
111.3148432245
 20
87.8922660049
 30
0.0
 11
111.3148432245
 21
19.8922660049
 31
0.0
  0
LINE
  5
5D
330
1F
100
AcDbEntity
  8
0
  6
Continuous
 62
     7
370
    15
100
AcDbLine
 10
746.9148432245
 20
19.8922660049
 30
0.0
 11
746.9148432245
 21
87.8922660049
 31
0.0
  0
LINE
  5
5E
330
1F
100
AcDbEntity
  8
0
  6
Continuous
 62
     7
370
    15
100
AcDbLine
 10
690.3148432245
 20
87.8922660049
 30
0.0
 11
690.3148432245
 21
19.8922660049
 31
0.0
  0
ARC
  5
5F
330
1F
100
AcDbEntity
  8
0
  6
Continuous
 62
     7
370
    15
100
AcDbCircle
 10
752.0148432245
 20
180.3922660049
 30
0.0
 40
1.5
100
AcDbArc
 50
90.0
 51
180.0
  0
ARC
  5
60
330
1F
100
AcDbEntity
  8
0
  6
Continuous
 62
     7
370
    15
100
AcDbCircle
 10
685.2148432245
 20
180.3922660049
 30
0.0
 40
1.5
100
AcDbArc
 50
0.0
 51
90.0
  0
LINE
  5
61
330
1F
100
AcDbEntity
  8
0
  6
Continuous
 62
     7
370
    15
100
AcDbLine
 10
750.5148432245
 20
93.9248319506
 30
0.0
 11
750.5148432245
 21
180.3922660049
 31
0.0
  0
LINE
  5
62
330
1F
100
AcDbEntity
  8
0
  6
Continuous
 62
     7
370
    15
100
AcDbLine
 10
686.7148432245
 20
180.3922660049
 30
0.0
 11
686.7148432245
 21
93.9248319506
 31
0.0
  0
ARC
  5
63
330
1F
100
AcDbEntity
  8
0
  6
Continuous
 62
     7
370
    15
100
AcDbCircle
 10
745.8148432245
 20
93.9248319506
 30
0.0
 40
4.700000000000116
100
AcDbArc
 50
350.5402980318
 51
0.0
  0
ARC
  5
64
330
1F
100
AcDbEntity
  8
0
  6
Continuous
 62
     7
370
    15
100
AcDbCircle
 10
691.4148432245
 20
93.9248319506
 30
0.0
 40
4.699999999999932
100
AcDbArc
 50
180.0
 51
189.4597019682
  0
LINE
  5
65
330
1F
100
AcDbEntity
  8
0
  6
Continuous
 62
     7
370
    15
100
AcDbLine
 10
686.7787564515
 20
93.1523687261
 30
0.0
 11
687.6551930041
 21
87.8922660049
 31
0.0
  0
LINE
  5
66
330
1F
100
AcDbEntity
  8
0
  6
Continuous
 62
     7
370
    15
100
AcDbLine
 10
749.5744934448
 20
87.8922660049
 30
0.0
 11
750.4509299975
 21
93.1523687261
 31
0.0
  0
ARC
  5
67
330
1F
100
AcDbEntity
  8
0
  6
Continuous
 62
     7
370
    15
100
AcDbCircle
 10
173.0148432245
 20
180.3922660049
 30
0.0
 40
1.5
100
AcDbArc
 50
90.0
 51
180.0
  0
ARC
  5
68
330
1F
100
AcDbEntity
  8
0
  6
Continuous
 62
     7
370
    15
100
AcDbCircle
 10
106.2148432245
 20
180.3922660049
 30
0.0
 40
1.5
100
AcDbArc
 50
0.0
 51
90.0
  0
ARC
  5
69
330
1F
100
AcDbEntity
  8
0
  6
Continuous
 62
     7
370
    15
100
AcDbCircle
 10
166.8148432245
 20
93.9248319506
 30
0.0
 40
4.699999999999975
100
AcDbArc
 50
350.5402980318
 51
0.0
  0
ARC
  5
6A
330
1F
100
AcDbEntity
  8
0
  6
Continuous
 62
     7
370
    15
100
AcDbCircle
 10
112.4148432245
 20
93.9248319506
 30
0.0
 40
4.699999999999975
100
AcDbArc
 50
180.0
 51
189.4597019682
  0
LINE
  5
6B
330
1F
100
AcDbEntity
  8
0
  6
Continuous
 62
     7
370
    15
100
AcDbLine
 10
171.5148432245
 20
93.9248319506
 30
0.0
 11
171.5148432245
 21
180.3922660049
 31
0.0
  0
LINE
  5
6C
330
1F
100
AcDbEntity
  8
0
  6
Continuous
 62
     7
370
    15
100
AcDbLine
 10
107.7148432245
 20
180.3922660049
 30
0.0
 11
107.7148432245
 21
93.9248319506
 31
0.0
  0
LINE
  5
6D
330
1F
100
AcDbEntity
  8
0
  6
Continuous
 62
     7
370
    15
100
AcDbLine
 10
107.7787564515
 20
93.1523687261
 30
0.0
 11
108.6551930041
 21
87.8922660049
 31
0.0
  0
LINE
  5
6E
330
1F
100
AcDbEntity
  8
0
  6
Continuous
 62
     7
370
    15
100
AcDbLine
 10
170.5744934448
 20
87.8922660049
 30
0.0
 11
171.4509299975
 21
93.1523687261
 31
0.0
  0
ARC
  5
6F
330
1F
100
AcDbEntity
  8
0
  6
Continuous
 62
     7
370
    15
100
AcDbCircle
 10
73.6648432245
 20
169.8422660049
 30
0.0
 40
0.2500000000000022
100
AcDbArc
 50
180.0
 51
209.4734267879
  0
LINE
  5
70
330
1F
100
AcDbEntity
  8
0
  6
Continuous
 62
     7
370
    15
100
AcDbLine
 10
73.4148432245
 20
170.5422660049
 30
0.0
 11
73.4148432245
 21
169.8422660049
 31
0.0
  0
SPLINE
  5
71
330
1F
100
AcDbEntity
  8
0
  6
Continuous
 62
     7
370
    15
100
AcDbSpline
210
0.0
220
0.0
230
1.0
 70
     8
 71
     3
 72
    13
 73
     9
 74
     0
 42
0.00000001
 43
0.00000001
 12
1.0
 22
0.0
 32
0.0
 13
1.0
 23
0.0
 33
0.0
 40
0.0
 40
0.0
 40
0.0
 40
0.0
 40
0.0546880530908465
 40
0.2134688124168516
 40
0.37457711522605
 40
0.5445034158414896
 40
0.7475374221054475
 40
1.0
 40
1.0
 40
1.0
 40
1.0
 10
86.06911813534884
 20
171.0421739398375
 30
0.0
 10
86.06961209323572
 20
171.0325902124216
 30
0.0
 10
86.071540203628
 20
170.9951811844103
 30
0.0
 10
86.05750585551064
 20
170.9313354517422
 30
0.0
 10
86.0298651112123
 20
170.8639444327629
 30
0.0
 10
85.99295913563914
 20
170.8163484170564
 30
0.0
 10
85.95818223288964
 20
170.7934739245794
 30
0.0
 10
85.94635206040257
 20
170.7930199845409
 30
0.0
 10
85.93979509390282
 20
170.7927683846908
 30
0.0
  0
LINE
  5
72
330
1F
100
AcDbEntity
  8
0
  6
Continuous
 62
     7
370
    15
100
AcDbLine
 10
86.0709929741
 20
176.1422660049
 30
0.0
 11
86.0709929741
 21
171.0422660049
 31
0.0
  0
ARC
  5
73
330
1F
100
AcDbEntity
  8
0
  6
Continuous
 62
     7
370
    15
100
AcDbCircle
 10
86.3209929741
 20
176.1422660049
 30
0.0
 40
0.2499999999999716
100
AcDbArc
 50
90.0
 51
180.0
  0
ARC
  5
74
330
1F
100
AcDbEntity
  8
0
  6
Continuous
 62
     7
370
    15
100
AcDbCircle
 10
91.0209633734
 20
176.1422660049
 30
0.0
 40
0.2500000000000284
100
AcDbArc
 50
0.0
 51
90.0
  0
LINE
  5
75
330
1F
100
AcDbEntity
  8
0
  6
Continuous
 62
     7
370
    15
100
AcDbLine
 10
91.2709633734
 20
171.0422660049
 30
0.0
 11
91.2709633734
 21
176.1422660049
 31
0.0
  0
ARC
  5
76
330
1F
100
AcDbEntity
  8
0
  6
Continuous
 62
     7
370
    15
100
AcDbCircle
 10
90.5648432245
 20
169.8422660049
 30
0.0
 40
0.2499999999999716
100
AcDbArc
 50
270.0
 51
0.0
  0
LINE
  5
77
330
1F
100
AcDbEntity
  8
0
  6
Continuous
 62
     7
370
    15
100
AcDbLine
 10
72.9587230755
 20
176.1422660049
 30
0.0
 11
72.9587230755
 21
171.0422660049
 31
0.0
  0
ARC
  5
78
330
1F
100
AcDbEntity
  8
0
  6
Continuous
 62
     7
370
    15
100
AcDbCircle
 10
73.2087230755
 20
176.1422660049
 30
0.0
 40
0.2500000000000142
100
AcDbArc
 50
90.0
 51
180.0
  0
SPLINE
  5
79
330
1F
100
AcDbEntity
  8
0
  6
Continuous
 62
     7
370
    15
100
AcDbSpline
210
0.0
220
0.0
230
1.0
 70
     8
 71
     3
 72
    13
 73
     9
 74
     0
 42
0.00000001
 43
0.00000001
 12
1.0
 22
0.0
 32
0.0
 13
1.0
 23
0.0
 33
0.0
 40
0.0
 40
0.0
 40
0.0
 40
0.0
 40
0.063488816968606
 40
0.2470479163429009
 40
0.4311284030645909
 40
0.6187780680117839
 40
0.8315552681906531
 40
1.0
 40
1.0
 40
1.0
 40
1.0
 10
79.00568666318291
 20
170.5423748952417
 30
0.0
 10
79.00521433135054
 20
170.5526009573949
 30
0.0
 10
79.00337639200022
 20
170.592392647774
 30
0.0
 10
79.01672140894107
 20
170.6599520912642
 30
0.0
 10
79.04266935404969
 20
170.7300516048369
 30
0.0
 10
79.07463746771349
 20
170.7765197682252
 30
0.0
 10
79.09765275187047
 20
170.7925463937609
 30
0.0
 10
79.09691026109978
 20
170.7918458159122
 30
0.0
 10
79.09658218800575
 20
170.791536262243
 30
0.0
  0
LINE
  5
7A
330
1F
100
AcDbEntity
  8
0
  6
Continuous
 62
     7
370
    15
100
AcDbLine
 10
79.0038914008
 20
165.4422660049
 30
0.0
 11
79.0038914008
 21
170.5422660049
 31
0.0
  0
ARC
  5
7B
330
1F
100
AcDbEntity
  8
0
  6
Continuous
 62
     7
370
    15
100
AcDbCircle
 10
78.7538914008
 20
165.4422660049
 30
0.0
 40
0.2500000000000284
100
AcDbArc
 50
270.0
 51
0.0
  0
ARC
  5
7C
330
1F
100
AcDbEntity
  8
0
  6
Continuous
 62
     7
370
    15
100
AcDbCircle
 10
73.6971972286
 20
165.4422660049
 30
0.0
 40
0.2500000000000284
100
AcDbArc
 50
180.0
 51
270.0
  0
LINE
  5
7D
330
1F
100
AcDbEntity
  8
0
  6
Continuous
 62
     7
370
    15
100
AcDbLine
 10
73.4471972286
 20
170.5422660049
 30
0.0
 11
73.4471972286
 21
165.4422660049
 31
0.0
  0
ARC
  5
7E
330
1F
100
AcDbEntity
  8
0
  6
Continuous
 62
     7
370
    15
100
AcDbCircle
 10
73.6648432245
 20
171.0422660049
 30
0.0
 40
0.2500000000000105
100
AcDbArc
 50
180.0
 51
232.7089330724
  0
ARC
  5
7F
330
1F
100
AcDbEntity
  8
0
  6
Continuous
 62
     7
370
    15
100
AcDbCircle
 10
73.6648432245
 20
171.7422660049
 30
0.0
 40
0.2499999999999716
100
AcDbArc
 50
90.0
 51
180.0
  0
LINE
  5
80
330
1F
100
AcDbEntity
  8
0
  6
Continuous
 62
     7
370
    15
100
AcDbLine
 10
73.4148432245
 20
171.7422660049
 30
0.0
 11
73.4148432245
 21
171.0422660049
 31
0.0
  0
ARC
  5
81
330
1F
100
AcDbEntity
  8
0
  6
Continuous
 62
     7
370
    15
100
AcDbCircle
 10
90.5324892203
 20
165.4422660049
 30
0.0
 40
0.2500000000000284
100
AcDbArc
 50
270.0
 51
0.0
  0
LINE
  5
82
330
1F
100
AcDbEntity
  8
0
  6
Continuous
 62
     7
370
    15
100
AcDbLine
 10
90.7824892203
 20
165.4422660049
 30
0.0
 11
90.7824892203
 21
169.7192610437
 31
0.0
  0
LINE
  5
83
330
1F
100
AcDbEntity
  8
0
  6
Continuous
 62
     7
370
    15
100
AcDbLine
 10
76.6531518206
 20
164.6588236612
 30
0.0
 11
77.1148432245
 21
164.3922660049
 31
0.0
  0
LINE
  5
84
330
1F
100
AcDbEntity
  8
0
  6
Continuous
 62
     7
370
    15
100
AcDbLine
 10
87.5765346283
 20
169.3257083486
 30
0.0
 11
87.1148432245
 21
169.5922660049
 31
0.0
  0
LINE
  5
85
330
1F
100
AcDbEntity
  8
0
  6
Continuous
 62
     7
370
    15
100
AcDbLine
 10
87.1148432245
 20
164.3922660049
 30
0.0
 11
87.5765346283
 21
164.6588236612
 31
0.0
  0
LINE
  5
86
330
1F
100
AcDbEntity
  8
0
  6
Continuous
 62
     7
370
    15
100
AcDbLine
 10
87.362224278
 20
177.0494404871
 30
0.0
 11
87.1148432245
 21
177.1922660049
 31
0.0
  0
LINE
  5
87
330
1F
100
AcDbEntity
  8
0
  6
Continuous
 62
     7
370
    15
100
AcDbLine
 10
77.1148432245
 20
177.1922660049
 30
0.0
 11
76.867462171
 21
177.0494404871
 31
0.0
  0
LINE
  5
88
330
1F
100
AcDbEntity
  8
0
  6
Continuous
 62
     7
370
    15
100
AcDbLine
 10
76.867462171
 20
172.1350915227
 30
0.0
 11
77.1148432245
 21
171.9922660049
 31
0.0
  0
LINE
  5
89
330
1F
100
AcDbEntity
  8
0
  6
Continuous
 62
     7
370
    15
100
AcDbLine
 10
77.0255920747
 20
177.4937951803
 30
0.0
 11
77.1148432245
 21
177.4422660049
 31
0.0
  0
LINE
  5
8A
330
1F
100
AcDbEntity
  8
0
  6
Continuous
 62
     7
370
    15
100
AcDbLine
 10
77.1148432245
 20
182.6422660049
 30
0.0
 11
77.0255920747
 21
182.5907368296
 31
0.0
  0
LINE
  5
8B
330
1F
100
AcDbEntity
  8
0
  6
Continuous
 62
     7
370
    15
100
AcDbLine
 10
87.1148432245
 20
177.4422660049
 30
0.0
 11
87.2040943743
 21
177.4937951803
 31
0.0
  0
LINE
  5
8C
330
1F
100
AcDbEntity
  8
0
  6
Continuous
 62
     7
370
    15
100
AcDbLine
 10
87.2040943743
 20
182.5907368296
 30
0.0
 11
87.1148432245
 21
182.6422660049
 31
0.0
  0
LINE
  5
8D
330
1F
100
AcDbEntity
  8
0
  6
Continuous
 62
     7
370
    15
100
AcDbLine
 10
88.2148432245
 20
182.6422660049
 30
0.0
 11
88.2148432245
 21
183.1922660049
 31
0.0
  0
LINE
  5
8E
330
1F
100
AcDbEntity
  8
0
  6
Continuous
 62
     7
370
    15
100
AcDbLine
 10
76.0148432245
 20
183.1922660049
 30
0.0
 11
76.0148432245
 21
182.6422660049
 31
0.0
  0
LINE
  5
8F
330
1F
100
AcDbEntity
  8
0
  6
Continuous
 62
     7
370
    15
100
AcDbLine
 10
79.1148432245
 20
183.5922660049
 30
0.0
 11
79.1148432245
 21
183.1922660049
 31
0.0
  0
LINE
  5
90
330
1F
100
AcDbEntity
  8
0
  6
Continuous
 62
     7
370
    15
100
AcDbLine
 10
79.1148432245
 20
177.4422660049
 30
0.0
 11
79.1148432245
 21
177.1922660049
 31
0.0
  0
LINE
  5
91
330
1F
100
AcDbEntity
  8
0
  6
Continuous
 62
     7
370
    15
100
AcDbLine
 10
85.1148432245
 20
177.1922660049
 30
0.0
 11
85.1148432245
 21
177.4422660049
 31
0.0
  0
LINE
  5
92
330
1F
100
AcDbEntity
  8
0
  6
Continuous
 62
     7
370
    15
100
AcDbLine
 10
85.1148432245
 20
183.1922660049
 30
0.0
 11
85.1148432245
 21
183.5922660049
 31
0.0
  0
ARC
  5
93
330
1F
100
AcDbEntity
  8
0
  6
Continuous
 62
     7
370
    15
100
AcDbCircle
 10
866.9088002593
 20
807.7200847402
 30
0.0
 40
2.000000000000051
100
AcDbArc
 50
205.0
 51
292.0
  0
ARC
  5
94
330
1F
100
AcDbEntity
  8
0
  6
Continuous
 62
     7
370
    15
100
AcDbCircle
 10
887.1082027984
 20
764.4023262048
 30
0.0
 40
2.000000000000042
100
AcDbArc
 50
118.0
 51
205.0
  0
LINE
  5
95
330
1F
100
AcDbEntity
  8
0
  6
Continuous
 62
     7
370
    15
100
AcDbLine
 10
886.1692596729
 20
766.1682213906
 30
0.0
 11
886.261806318
 21
766.2174293146
 31
0.0
  0
LINE
  5
96
330
1F
100
AcDbEntity
  8
0
  6
Continuous
 62
     7
370
    15
100
AcDbLine
 10
867.7551967397
 20
805.9049816304
 30
0.0
 11
867.6580134461
 21
805.8657170311
 31
0.0
  0
LINE
  5
97
330
1F
100
AcDbEntity
  8
0
  6
Continuous
 62
     7
370
    15
100
AcDbLine
 10
898.1345340328
 20
724.192871483
 30
0.0
 11
898.576613684
 21
724.4279294031
 31
0.0
  0
LINE
  5
98
330
1F
100
AcDbEntity
  8
0
  6
Continuous
 62
     7
370
    15
100
AcDbLine
 10
890.7435950354
 20
756.6062023938
 30
0.0
 11
898.1161998588
 21
764.4576161594
 31
0.0
  0
LINE
  5
99
330
1F
100
AcDbEntity
  8
0
  6
Continuous
 62
     7
370
    15
100
AcDbLine
 10
874.0269589396
 20
816.1171600205
 30
0.0
 11
863.2734080223
 21
815.5162085512
 31
0.0
  0
LINE
  5
9A
330
1F
100
AcDbEntity
  8
0
  6
Continuous
 62
     7
370
    15
100
AcDbLine
 10
898.1161998588
 20
764.4576161594
 30
0.0
 11
912.0165359543
 21
780.5770848344
 31
0.0
  0
LINE
  5
9B
330
1F
100
AcDbEntity
  8
0
  6
Continuous
 62
     7
370
    15
100
AcDbLine
 10
874.5269135236
 20
816.1238990099
 30
0.0
 11
874.0269589396
 21
816.1171600205
 31
0.0
  0
ARC
  5
9C
330
1F
100
AcDbEntity
  8
0
  6
Continuous
 62
     7
370
    15
100
AcDbCircle
 10
911.2592245703
 20
781.2301387891
 30
0.0
 40
0.9999999999999104
100
AcDbArc
 50
319.227745318
 51
25.0
  0
ARC
  5
9D
330
1F
100
AcDbEntity
  8
0
  6
Continuous
 62
     7
370
    15
100
AcDbCircle
 10
888.8296577327
 20
718.5922660049
 30
0.0
 40
10.79999999999996
100
AcDbArc
 50
335.0
 51
25.0
  0
ARC
  5
9E
330
1F
100
AcDbEntity
  8
0
  6
Continuous
 62
     7
370
    15
100
AcDbCircle
 10
888.8296577327
 20
718.5922660049
 30
0.0
 40
9.999999999999977
100
AcDbArc
 50
335.0
 51
25.0
  0
ARC
  5
9F
330
1F
100
AcDbEntity
  8
0
  6
Continuous
 62
     7
370
    15
100
AcDbCircle
 10
868.2188592422
 20
674.3922660049
 30
0.0
 40
10.80000000000006
100
AcDbArc
 50
270.0
 51
335.0
  0
ARC
  5
A0
330
1F
100
AcDbEntity
  8
0
  6
Continuous
 62
     7
370
    15
100
AcDbCircle
 10
868.2188592422
 20
674.3922660049
 30
0.0
 40
10.00000000000003
100
AcDbArc
 50
270.0
 51
335.0
  0
LINE
  5
A1
330
1F
100
AcDbEntity
  8
0
  6
Continuous
 62
     7
370
    15
100
AcDbLine
 10
878.0069833422
 20
669.8279887781
 30
0.0
 11
898.6177818327
 21
714.0279887781
 31
0.0
  0
LINE
  5
A2
330
1F
100
AcDbEntity
  8
0
  6
Continuous
 62
     7
370
    15
100
AcDbLine
 10
877.2819371126
 20
670.1660833875
 30
0.0
 11
897.8927356031
 21
714.3660833875
 31
0.0
  0
LINE
  5
A3
330
1F
100
AcDbEntity
  8
0
  6
Continuous
 62
     7
370
    15
100
AcDbLine
 10
897.8927356031
 20
722.8184486223
 30
0.0
 11
841.9858659769
 21
842.7111174396
 31
0.0
  0
LINE
  5
A4
330
1F
100
AcDbEntity
  8
0
  6
Continuous
 62
     7
370
    15
100
AcDbLine
 10
898.6177818327
 20
723.1565432317
 30
0.0
 11
842.7109122066
 21
843.049212049
 31
0.0
  0
LINE
  5
A5
330
1F
100
AcDbEntity
  8
0
  6
Continuous
 62
     7
370
    15
100
AcDbLine
 10
809.5895618503
 20
663.5922660049
 30
0.0
 11
807.5895618503
 21
663.5922660049
 31
0.0
  0
LINE
  5
A6
330
1F
100
AcDbEntity
  8
0
  6
Continuous
 62
     7
370
    15
100
AcDbLine
 10
807.5895618503
 20
663.5922660049
 30
0.0
 11
807.5895618503
 21
664.3922660049
 31
0.0
  0
LINE
  5
A7
330
1F
100
AcDbEntity
  8
0
  6
Continuous
 62
     7
370
    15
100
AcDbLine
 10
807.5895618503
 20
664.3922660049
 30
0.0
 11
809.5895618503
 21
664.3922660049
 31
0.0
  0
ARC
  5
A8
330
1F
100
AcDbEntity
  8
0
  6
Continuous
 62
     7
370
    15
100
AcDbCircle
 10
843.8437969403
 20
843.5774848761
 30
0.0
 40
1.249999999999977
100
AcDbArc
 50
115.0
 51
205.0
  0
ARC
  5
A9
330
1F
100
AcDbEntity
  8
0
  6
Continuous
 62
     7
370
    15
100
AcDbCircle
 10
843.8437969403
 20
843.5774848761
 30
0.0
 40
2.050000000000057
100
AcDbArc
 50
115.0
 51
205.0
  0
LINE
  5
AA
330
1F
100
AcDbEntity
  8
0
  6
Continuous
 62
     7
370
    15
100
AcDbLine
 10
842.9774295038
 20
845.4354158396
 30
0.0
 11
855.6204231329
 21
851.3309405909
 31
0.0
  0
LINE
  5
AB
330
1F
100
AcDbEntity
  8
0
  6
Continuous
 62
     7
370
    15
100
AcDbLine
 10
843.3155241132
 20
844.7103696099
 30
0.0
 11
855.9585177423
 21
850.6058943612
 31
0.0
  0
LINE
  5
AC
330
1F
100
AcDbEntity
  8
0
  6
Continuous
 62
     7
370
    15
100
AcDbLine
 10
809.5895618503
 20
663.5922660049
 30
0.0
 11
868.2188592422
 21
663.5922660049
 31
0.0
  0
LINE
  5
AD
330
1F
100
AcDbEntity
  8
0
  6
Continuous
 62
     7
370
    15
100
AcDbLine
 10
809.5895618503
 20
664.3922660049
 30
0.0
 11
868.2188592422
 21
664.3922660049
 31
0.0
  0
LINE
  5
AE
330
1F
100
AcDbEntity
  8
0
  6
Continuous
 62
     7
370
    15
100
AcDbLine
 10
855.6204231329
 20
851.3309405909
 30
0.0
 11
857.433038707
 21
852.1761771143
 31
0.0
  0
LINE
  5
AF
330
1F
100
AcDbEntity
  8
0
  6
Continuous
 62
     7
370
    15
100
AcDbLine
 10
857.433038707
 20
852.1761771143
 30
0.0
 11
857.7711333164
 21
851.4511308847
 31
0.0
  0
LINE
  5
B0
330
1F
100
AcDbEntity
  8
0
  6
Continuous
 62
     7
370
    15
100
AcDbLine
 10
857.7711333164
 20
851.4511308847
 30
0.0
 11
855.9585177423
 21
850.6058943612
 31
0.0
  0
LINE
  5
B1
330
1F
100
AcDbEntity
  8
0
  6
Continuous
 62
     7
370
    15
100
AcDbLine
 10
890.3496786143
 20
756.42251615
 30
0.0
 11
885.889250533
 21
765.9879350389
 31
0.0
  0
LINE
  5
B2
330
1F
100
AcDbEntity
  8
0
  6
Continuous
 62
     7
370
    15
100
AcDbLine
 10
867.3399196825
 20
805.7671034185
 30
0.0
 11
862.8794916012
 21
815.3325223074
 31
0.0
  0
LINE
  5
B3
330
1F
100
AcDbEntity
  8
0
  6
Continuous
 62
     7
370
    15
100
AcDbLine
 10
828.0993986389
 20
182.124096519
 30
0.0
 11
828.1086211929
 21
182.1055989367
 31
0.0
  0
ARC
  5
B4
330
1F
100
AcDbEntity
  8
0
  6
Continuous
 62
     7
370
    15
100
AcDbCircle
 10
826.1148432245
 20
188.2922660049
 30
0.0
 40
6.479565957685779
100
AcDbArc
 50
277.6967647031
 51
287.8351321796
  0
LINE
  5
B5
330
1F
100
AcDbEntity
  8
0
  6
Continuous
 62
     7
370
    15
100
AcDbLine
 10
826.9826529691
 20
181.8710759869
 30
0.0
 11
826.6298432245
 21
181.8710759869
 31
0.0
  0
LINE
  5
B6
330
1F
100
AcDbEntity
  8
0
  6
Continuous
 62
     7
370
    15
100
AcDbLine
 10
826.6298432245
 20
181.8710759869
 30
0.0
 11
826.6298432245
 21
182.124096519
 31
0.0
  0
ARC
  5
B7
330
1F
100
AcDbEntity
  8
0
  6
Continuous
 62
     7
370
    15
100
AcDbCircle
 10
826.1148432245
 20
189.2836445612
 30
0.0
 40
7.178046612356243
100
AcDbArc
 50
265.8856911893
 51
274.1143088107
  0
LINE
  5
B8
330
1F
100
AcDbEntity
  8
0
  6
Continuous
 62
     7
370
    15
100
AcDbLine
 10
825.5998432245
 20
182.124096519
 30
0.0
 11
825.5998432245
 21
181.8710759869
 31
0.0
  0
LINE
  5
B9
330
1F
100
AcDbEntity
  8
0
  6
Continuous
 62
     7
370
    15
100
AcDbLine
 10
825.5998432245
 20
181.8710759869
 30
0.0
 11
825.2470334799
 21
181.8710759869
 31
0.0
  0
ARC
  5
BA
330
1F
100
AcDbEntity
  8
0
  6
Continuous
 62
     7
370
    15
100
AcDbCircle
 10
826.1148432245
 20
188.2922660049
 30
0.0
 40
6.479565957685779
100
AcDbArc
 50
252.1648678204
 51
262.3032352969
  0
LINE
  5
BB
330
1F
100
AcDbEntity
  8
0
  6
Continuous
 62
     7
370
    15
100
AcDbLine
 10
824.1210652561
 20
182.1055989367
 30
0.0
 11
824.1302878101
 21
182.124096519
 31
0.0
  0
LINE
  5
BC
330
1F
100
AcDbEntity
  8
0
  6
Continuous
 62
     7
370
    15
100
AcDbLine
 10
811.6719442647
 20
385.0922660049
 30
0.0
 11
812.8531942647
 21
385.0922660049
 31
0.0
  0
LINE
  5
BD
330
1F
100
AcDbEntity
  8
0
  6
Continuous
 62
     7
370
    15
100
AcDbLine
 10
812.8531942647
 20
386.2922660049
 30
0.0
 11
811.6719442647
 21
386.2922660049
 31
0.0
  0
LINE
  5
BE
330
1F
100
AcDbEntity
  8
0
  6
Continuous
 62
     7
370
    15
100
AcDbLine
 10
811.6719442647
 20
255.5922660049
 30
0.0
 11
812.8531942647
 21
255.5922660049
 31
0.0
  0
LINE
  5
BF
330
1F
100
AcDbEntity
  8
0
  6
Continuous
 62
     7
370
    15
100
AcDbLine
 10
812.8531942647
 20
256.7922660049
 30
0.0
 11
811.6719442647
 21
256.7922660049
 31
0.0
  0
LWPOLYLINE
  5
C0
330
1F
100
AcDbEntity
  8
0
  6
Continuous
 62
     7
370
    15
100
AcDbPolyline
 90
        3
 70
   128
 43
0.0
 10
811.6915109128
 20
255.5922660049
 10
811.6719442647
 20
256.2044548523
 10
811.6899821908
 20
256.7922660049
  0
LWPOLYLINE
  5
C1
330
1F
100
AcDbEntity
  8
0
  6
Continuous
 62
     7
370
    15
100
AcDbPolyline
 90
        3
 70
   128
 43
0.0
 10
811.6915109128
 20
256.7922660049
 10
811.6719442647
 20
256.1800771576
 10
811.6899821908
 20
255.5922660049
  0
ARC
  5
C2
330
1F
100
AcDbEntity
  8
0
  6
Continuous
 62
     7
370
    15
100
AcDbCircle
 10
810.5211276981
 20
243.0545964538
 30
0.0
 40
3.600000000195445
100
AcDbArc
 50
285.4651068405
 51
309.5791235989
  0
ARC
  5
C3
330
1F
100
AcDbEntity
  8
0
  6
Continuous
 62
     7
370
    15
100
AcDbCircle
 10
812.6914005725
 20
207.5041462529
 30
0.0
 40
4.000000003603429
100
AcDbArc
 50
256.2993793871
 51
271.7684665275
  0
LINE
  5
C4
330
1F
100
AcDbEntity
  8
0
  6
Continuous
 62
     7
370
    15
100
AcDbLine
 10
806.7148432245
 20
204.8439954504
 30
0.0
 11
811.7440058932
 21
203.6179600311
 31
0.0
  0
LINE
  5
C5
330
1F
100
AcDbEntity
  8
0
  6
Continuous
 62
     7
370
    15
100
AcDbLine
 10
809.5497881512
 20
241.6426451205
 30
0.0
 11
806.7148432245
 21
246.0037597984
 31
0.0
  0
ARC
  5
C6
330
1F
100
AcDbEntity
  8
0
  6
Continuous
 62
     7
370
    15
100
AcDbCircle
 10
816.2571821965
 20
246.0027902039
 30
0.0
 40
8.000000001677135
100
AcDbArc
 50
213.0259029438
 51
239.9977841758
  0
LINE
  5
C7
330
1F
100
AcDbEntity
  8
0
  6
Continuous
 62
     7
370
    15
100
AcDbLine
 10
812.8148432245
 20
238.7525924645
 30
0.0
 11
812.2569142615
 21
239.0747416715
 31
0.0
  0
ARC
  5
C8
330
1F
100
AcDbEntity
  8
0
  6
Continuous
 62
     7
370
    15
100
AcDbCircle
 10
809.1148432245
 20
229.4422660049
 30
0.0
 40
2.5
100
AcDbArc
 50
196.2602047062
 51
0.0
  0
ARC
  5
C9
330
1F
100
AcDbEntity
  8
0
  6
Continuous
 62
     7
370
    15
100
AcDbCircle
 10
809.1148432245
 20
229.4422660049
 30
0.0
 40
2.5
100
AcDbArc
 50
0.0
 51
163.7397952938
  0
ARC
  5
CA
330
1F
100
AcDbEntity
  8
0
  6
Continuous
 62
     7
370
    15
100
AcDbCircle
 10
812.691400572
 20
207.5041462529
 30
0.0
 40
2.750000000102499
100
AcDbArc
 50
87.4272289583
 51
180.0
  0
ARC
  5
CB
330
1F
100
AcDbEntity
  8
0
  6
Continuous
 62
     7
370
    15
100
AcDbCircle
 10
812.691400572
 20
207.5041462529
 30
0.0
 40
2.750000000102499
100
AcDbArc
 50
180.0
 51
272.5727710417
  0
ARC
  5
CC
330
1F
100
AcDbEntity
  8
0
  6
Continuous
 62
     7
370
    15
100
AcDbCircle
 10
812.6914005725
 20
207.5041462529
 30
0.0
 40
1.550000000000061
100
AcDbArc
 50
180.0
 51
274.5678974093
  0
ARC
  5
CD
330
1F
100
AcDbEntity
  8
0
  6
Continuous
 62
     7
370
    15
100
AcDbCircle
 10
812.6914005725
 20
207.5041462529
 30
0.0
 40
1.550000000000032
100
AcDbArc
 50
85.4321025907
 51
180.0
  0
ARC
  5
CE
330
1F
100
AcDbEntity
  8
0
  6
Continuous
 62
     7
370
    15
100
AcDbCircle
 10
827.8148432245
 20
609.7421776858
 30
0.0
 40
10.00000000000008
100
AcDbArc
 50
0.0
 51
76.0
  0
ARC
  5
CF
330
1F
100
AcDbEntity
  8
0
  6
Continuous
 62
     7
370
    15
100
AcDbCircle
 10
827.8148432245
 20
227.442354324
 30
0.0
 40
10.00000000000011
100
AcDbArc
 50
284.0
 51
0.0
  0
LINE
  5
D0
330
1F
100
AcDbEntity
  8
0
  6
Continuous
 62
     7
370
    15
100
AcDbLine
 10
818.8148432245
 20
608.4483332099
 30
0.0
 11
818.8148432245
 21
608.7361987999
 31
0.0
  0
LINE
  5
D1
330
1F
100
AcDbEntity
  8
0
  6
Continuous
 62
     7
370
    15
100
AcDbLine
 10
818.8148432245
 20
418.4483332099
 30
0.0
 11
818.8148432245
 21
418.7361987999
 31
0.0
  0
LINE
  5
D2
330
1F
100
AcDbEntity
  8
0
  6
Continuous
 62
     7
370
    15
100
AcDbLine
 10
818.8148432245
 20
228.4483332099
 30
0.0
 11
818.8148432245
 21
228.7361987999
 31
0.0
  0
LINE
  5
D3
330
1F
100
AcDbEntity
  8
0
  6
Continuous
 62
     7
370
    15
100
AcDbLine
 10
812.8148432245
 20
632.2922660049
 30
0.0
 11
812.8148432245
 21
649.9922660049
 31
0.0
  0
ARC
  5
D4
330
1F
100
AcDbEntity
  8
0
  6
Continuous
 62
     7
370
    15
100
AcDbCircle
 10
815.1148432245
 20
649.9922660049
 30
0.0
 40
2.300000000000068
100
AcDbArc
 50
102.5558577986
 51
180.0
  0
LINE
  5
D5
330
1F
100
AcDbEntity
  8
0
  6
Continuous
 62
     7
370
    15
100
AcDbLine
 10
812.8148432245
 20
204.8922660049
 30
0.0
 11
812.8148432245
 21
632.2922660049
 31
0.0
  0
ARC
  5
D6
330
1F
100
AcDbEntity
  8
0
  6
Continuous
 62
     7
370
    15
100
AcDbCircle
 10
815.1148432245
 20
187.1922660049
 30
0.0
 40
2.300000000000068
100
AcDbArc
 50
180.0
 51
257.4441422014
  0
LINE
  5
D7
330
1F
100
AcDbEntity
  8
0
  6
Continuous
 62
     7
370
    15
100
AcDbLine
 10
812.8148432245
 20
187.1922660049
 30
0.0
 11
812.8148432245
 21
204.8922660049
 31
0.0
  0
ARC
  5
D8
330
1F
100
AcDbEntity
  8
0
  6
Continuous
 62
     7
370
    15
100
AcDbCircle
 10
811.8148432245
 20
274.7922660049
 30
0.0
 40
1.0
100
AcDbArc
 50
0.0
 51
90.0
  0
ARC
  5
D9
330
1F
100
AcDbEntity
  8
0
  6
Continuous
 62
     7
370
    15
100
AcDbCircle
 10
811.8148432245
 20
632.0922660049
 30
0.0
 40
1.0
100
AcDbArc
 50
270.0
 51
0.0
  0
LINE
  5
DA
330
1F
100
AcDbEntity
  8
0
  6
Continuous
 62
     7
370
    15
100
AcDbLine
 10
811.7148432245
 20
631.0922660049
 30
0.0
 11
811.8148432245
 21
631.0922660049
 31
0.0
  0
LINE
  5
DB
330
1F
100
AcDbEntity
  8
0
  6
Continuous
 62
     7
370
    15
100
AcDbLine
 10
807.3148432245
 20
320.7922660049
 30
0.0
 11
807.3148432245
 21
586.0922660049
 31
0.0
  0
LINE
  5
DC
330
1F
100
AcDbEntity
  8
0
  6
Continuous
 62
     7
370
    15
100
AcDbLine
 10
811.7148432245
 20
275.7922660049
 30
0.0
 11
811.8148432245
 21
275.7922660049
 31
0.0
  0
LINE
  5
DD
330
1F
100
AcDbEntity
  8
0
  6
Continuous
 62
     7
370
    15
100
AcDbLine
 10
807.3148432245
 20
280.1922660049
 30
0.0
 11
807.3148432245
 21
320.7922660049
 31
0.0
  0
ARC
  5
DE
330
1F
100
AcDbEntity
  8
0
  6
Continuous
 62
     7
370
    15
100
AcDbCircle
 10
811.7148432245
 20
280.1922660049
 30
0.0
 40
4.400000000000091
100
AcDbArc
 50
180.0
 51
270.0
  0
LINE
  5
DF
330
1F
100
AcDbEntity
  8
0
  6
Continuous
 62
     7
370
    15
100
AcDbLine
 10
807.3148432245
 20
586.0922660049
 30
0.0
 11
807.3148432245
 21
626.6922660049
 31
0.0
  0
ARC
  5
E0
330
1F
100
AcDbEntity
  8
0
  6
Continuous
 62
     7
370
    15
100
AcDbCircle
 10
811.7148432245
 20
626.6922660049
 30
0.0
 40
4.400000000000091
100
AcDbArc
 50
90.0
 51
180.0
  0
LINE
  5
E1
330
1F
100
AcDbEntity
  8
0
  6
Continuous
 62
     7
370
    15
100
AcDbLine
 10
814.6148432245
 20
633.5922660049
 30
0.0
 11
814.6148432245
 21
203.5922660049
 31
0.0
  0
CIRCLE
  5
E2
330
1F
100
AcDbEntity
  8
0
  6
Continuous
 62
     7
370
    15
100
AcDbCircle
 10
820.6082034845
 20
228.5928949189
 30
0.0
 40
1.79911632400653
  0
CIRCLE
  5
E3
330
1F
100
AcDbEntity
  8
0
  6
Continuous
 62
     7
370
    15
100
AcDbCircle
 10
820.6082034845
 20
418.5928949189
 30
0.0
 40
1.799116324006303
  0
CIRCLE
  5
E4
330
1F
100
AcDbEntity
  8
0
  6
Continuous
 62
     7
370
    15
100
AcDbCircle
 10
820.6082034845
 20
608.5928949189
 30
0.0
 40
1.799116324006189
  0
LINE
  5
E5
330
1F
100
AcDbEntity
  8
0
  6
Continuous
 62
     7
370
    15
100
AcDbLine
 10
850.3998825681
 20
651.7168515613
 30
0.0
 11
814.6148432245
 21
653.5922660049
 31
0.0
  0
LINE
  5
E6
330
1F
100
AcDbEntity
  8
0
  6
Continuous
 62
     7
370
    15
100
AcDbLine
 10
814.6148432245
 20
653.5922660049
 30
0.0
 11
814.6148432245
 21
633.5922660049
 31
0.0
  0
LINE
  5
E7
330
1F
100
AcDbEntity
  8
0
  6
Continuous
 62
     7
370
    15
100
AcDbLine
 10
850.3998825681
 20
185.4676804485
 30
0.0
 11
814.6148432245
 21
183.5922660049
 31
0.0
  0
LINE
  5
E8
330
1F
100
AcDbEntity
  8
0
  6
Continuous
 62
     7
370
    15
100
AcDbLine
 10
814.6148432245
 20
203.5922660049
 30
0.0
 11
814.6148432245
 21
183.5922660049
 31
0.0
  0
ARC
  5
E9
330
1F
100
AcDbEntity
  8
0
  6
Continuous
 62
     7
370
    15
100
AcDbCircle
 10
820.5522979571
 20
608.5922660049
 30
0.0
 40
1.800001096183249
100
AcDbArc
 50
270.0632328581
 51
89.9367671419
  0
LWPOLYLINE
  5
EA
330
1F
100
AcDbEntity
  8
0
  6
Continuous
 62
     7
370
    15
100
AcDbPolyline
 90
       10
 70
   128
 43
0.0
 10
820.5542844768
 20
420.3922660049
 10
821.2421706372
 20
420.2552491634
 10
821.8253323654
 20
419.865058211
 10
822.2149885747
 20
419.2810961832
 10
822.3518176393
 20
418.5922660049
 10
822.2149885747
 20
417.9034358266
 10
821.8253323654
 20
417.3194737988
 10
821.2421706372
 20
416.9292828464
 10
820.5542844768
 20
416.7922660049
 10
820.5542844768
 20
416.7922660049
  0
ARC
  5
EB
330
1F
100
AcDbEntity
  8
0
  6
Continuous
 62
     7
370
    15
100
AcDbCircle
 10
820.5522979571
 20
228.5922660049
 30
0.0
 40
1.800001096183107
100
AcDbArc
 50
270.0632328581
 51
89.9367671419
  0
LINE
  5
EC
330
1F
100
AcDbEntity
  8
0
  6
Continuous
 62
     7
370
    15
100
AcDbLine
 10
864.6148432245
 20
633.5922660049
 30
0.0
 11
864.6148432245
 21
203.5922660049
 31
0.0
  0
ARC
  5
ED
330
1F
100
AcDbEntity
  8
0
  6
Continuous
 62
     7
370
    15
100
AcDbCircle
 10
849.6148432245
 20
636.73740854
 30
0.0
 40
15.0
100
AcDbArc
 50
0.0
 51
87.0
  0
LINE
  5
EE
330
1F
100
AcDbEntity
  8
0
  6
Continuous
 62
     7
370
    15
100
AcDbLine
 10
864.6148432245
 20
636.73740854
 30
0.0
 11
864.6148432245
 21
633.5922660049
 31
0.0
  0
LINE
  5
EF
330
1F
100
AcDbEntity
  8
0
  6
Continuous
 62
     7
370
    15
100
AcDbLine
 10
864.6148432245
 20
203.5922660049
 30
0.0
 11
864.6148432245
 21
200.4471234698
 31
0.0
  0
ARC
  5
F0
330
1F
100
AcDbEntity
  8
0
  6
Continuous
 62
     7
370
    15
100
AcDbCircle
 10
849.6148432245
 20
200.4471234698
 30
0.0
 40
15.00000000000003
100
AcDbArc
 50
273.0
 51
0.0
  0
LINE
  5
F1
330
1F
100
AcDbEntity
  8
0
  6
Continuous
 62
     7
370
    15
100
AcDbLine
 10
877.0082793715
 20
862.2585080475
 30
0.0
 11
877.3463739809
 21
861.5334618179
 31
0.0
  0
LINE
  5
F2
330
1F
100
AcDbEntity
  8
0
  6
Continuous
 62
     7
370
    15
100
AcDbLine
 10
857.9513873383
 20
852.4894310166
 30
0.0
 11
841.9530880093
 21
845.0293015221
 31
0.0
  0
SPLINE
  5
F3
330
1F
100
AcDbEntity
  8
0
  6
Continuous
 62
     7
370
    15
100
AcDbSpline
210
0.0
220
0.0
230
1.0
 70
     8
 71
     3
 72
    14
 73
    10
 74
     0
 42
0.00000001
 43
0.00000001
 12
1.0
 22
0.0
 32
0.0
 13
1.0
 23
0.0
 33
0.0
 40
0.0
 40
0.0
 40
0.0
 40
0.0
 40
0.1424979789611897
 40
0.2891107491289876
 40
0.4316087267216782
 40
0.5782214232936166
 40
0.7209671108983708
 40
0.8678498166733737
 40
1.0
 40
1.0
 40
1.0
 40
1.0
 10
841.953088009255
 20
845.0293015220581
 30
0.0
 10
841.8084708810774
 20
844.9741720513792
 30
0.0
 10
841.5150606406718
 20
844.8623211838569
 30
0.0
 10
841.0148464605251
 20
844.8285041048617
 30
0.0
 10
840.4681622522901
 20
844.8840617015295
 30
0.0
 10
839.8862065352115
 20
845.0248762105944
 30
0.0
 10
839.2675746066252
 20
845.2334059315456
 30
0.0
 10
838.6484011634111
 20
845.4798363671763
 30
0.0
 10
838.2325249721516
 20
845.6565896131417
 30
0.0
 10
838.0355656993823
 20
845.7403000815852
 30
0.0
  0
LINE
  5
F4
330
1F
100
AcDbEntity
  8
0
  6
Continuous
 62
     7
370
    15
100
AcDbLine
 10
841.4917968983
 20
843.7706519979
 30
0.0
 11
841.9858659769
 21
842.7111174396
 31
0.0
  0
LINE
  5
F5
330
1F
100
AcDbEntity
  8
0
  6
Continuous
 62
     7
370
    15
100
AcDbLine
 10
897.892735603
 20
722.8184486223
 30
0.0
 11
897.1676893734
 21
722.4803540129
 31
0.0
  0
SPLINE
  5
F6
330
1F
100
AcDbEntity
  8
0
  6
Continuous
 62
     7
370
    15
100
AcDbSpline
210
0.0
220
0.0
230
1.0
 70
     8
 71
     3
 72
    11
 73
     7
 74
     0
 42
0.00000001
 43
0.00000001
 12
1.0
 22
0.0
 32
0.0
 13
1.0
 23
0.0
 33
0.0
 40
0.0
 40
0.0
 40
0.0
 40
0.0
 40
0.2888077077192577
 40
0.5776153362194943
 40
0.8669345414319966
 40
1.0
 40
1.0
 40
1.0
 40
1.0
 10
838.0355656993822
 20
845.740300081585
 30
0.0
 10
838.4832637241597
 20
845.6040913267287
 30
0.0
 10
839.3786596509125
 20
845.3316738543779
 30
0.0
 10
840.5258212399733
 20
844.8316645272638
 30
0.0
 10
841.2007087887052
 20
844.2954137968352
 30
0.0
 10
841.4220628731551
 20
843.8963656607829
 30
0.0
 10
841.4917968982725
 20
843.7706519979354
 30
0.0
  0
LINE
  5
F7
330
1F
100
AcDbEntity
  8
0
  6
Continuous
 62
     7
370
    15
100
AcDbLine
 10
897.1676893734
 20
714.7041779969
 30
0.0
 11
897.892735603
 21
714.3660833875
 31
0.0
  0
LINE
  5
F8
330
1F
100
AcDbEntity
  8
0
  6
Continuous
 62
     7
370
    15
100
AcDbLine
 10
877.2819371126
 20
670.1660833875
 30
0.0
 11
876.556890883
 21
670.5041779969
 31
0.0
  0
SPLINE
  5
F9
330
1F
100
AcDbEntity
  8
0
  6
Continuous
 62
     7
370
    15
100
AcDbSpline
210
0.0
220
0.0
230
1.0
 70
     8
 71
     3
 72
    12
 73
     8
 74
     0
 42
0.00000001
 43
0.00000001
 12
1.0
 22
0.0
 32
0.0
 13
1.0
 23
0.0
 33
0.0
 40
0.0
 40
0.0
 40
0.0
 40
0.0
 40
0.2096821001529187
 40
0.4420453733185646
 40
0.67443329666811
 40
0.9068208701180525
 40
1.0
 40
1.0
 40
1.0
 40
1.0
 10
1.92651350498918
 20
909.2922660049086
 30
0.0
 10
1.822228297061745
 20
909.5445969628838
 30
0.0
 10
1.602377419775036
 20
910.076553350371
 30
0.0
 10
1.266409289891968
 20
910.7979347801859
 30
0.0
 10
0.9195040214753925
 20
911.341293714172
 30
0.0
 10
0.6411273592422106
 20
911.5699155543158
 30
0.0
 10
0.4797668980207059
 20
911.5872925929399
 30
0.0
 10
0.4335845728010712
 20
911.5922660049085
 30
0.0
  0
LINE
  5
FA
330
1F
100
AcDbEntity
  8
0
  6
Continuous
 62
     7
370
    15
100
AcDbLine
 10
0.4335845728
 20
911.5922660049
 30
0.0
 11
3.823735915
 21
911.5922660049
 31
0.0
  0
LINE
  5
FB
330
1F
100
AcDbEntity
  8
0
  6
Continuous
 62
     7
370
    15
100
AcDbLine
 10
14.573735915
 20
911.5922660049
 30
0.0
 11
74.573735915
 21
911.5922660049
 31
0.0
  0
LINE
  5
FC
330
1F
100
AcDbEntity
  8
0
  6
Continuous
 62
     7
370
    15
100
AcDbLine
 10
887.573735915
 20
911.5922660049
 30
0.0
 11
887.573735915
 21
910.7922660049
 31
0.0
  0
LINE
  5
FD
330
1F
100
AcDbEntity
  8
0
  6
Continuous
 62
     7
370
    15
100
AcDbLine
 10
868.2188592422
 20
665.1922660049
 30
0.0
 11
868.2188592422
 21
664.3922660049
 31
0.0
  0
SPLINE
  5
FE
330
1F
100
AcDbEntity
  8
0
  6
Continuous
 62
     7
370
    15
100
AcDbSpline
210
0.0
220
0.0
230
1.0
 70
     8
 71
     3
 72
    11
 73
     7
 74
     0
 42
0.00000001
 43
0.00000001
 12
1.0
 22
0.0
 32
0.0
 13
1.0
 23
0.0
 33
0.0
 40
0.0
 40
0.0
 40
0.0
 40
0.0
 40
0.2999401068833942
 40
0.5998801778523176
 40
0.9004866520642025
 40
1.0
 40
1.0
 40
1.0
 40
1.0
 10
807.9340739937005
 20
664.392266004908
 30
0.0
 10
807.5820329835967
 20
664.4423765597453
 30
0.0
 10
806.8779510055417
 20
664.5425976634194
 30
0.0
 10
805.8218038224614
 20
665.2962284469173
 30
0.0
 10
804.9983859280169
 20
666.0926975296085
 30
0.0
 10
804.5310690708918
 20
666.5728482603181
 30
0.0
 10
804.4148432244698
 20
666.6922660049082
 30
0.0
  0
CIRCLE
  5
FF
330
1F
100
AcDbEntity
  8
0
  6
Continuous
 62
     7
370
    15
100
AcDbCircle
 10
77.173735915
 20
891.5922660049
 30
0.0
 40
6.34766310537168
  0
CIRCLE
  5
100
330
1F
100
AcDbEntity
  8
0
  6
Continuous
 62
     7
370
    15
100
AcDbCircle
 10
847.173735915
 20
891.5922660049
 30
0.0
 40
6.347663105371566
  0
SPLINE
  5
101
330
1F
100
AcDbEntity
  8
0
  6
Continuous
 62
     7
370
    15
100
AcDbSpline
210
0.0
220
0.0
230
1.0
 70
     8
 71
     3
 72
    12
 73
     8
 74
     0
 42
0.00000001
 43
0.00000001
 12
1.0
 22
0.0
 32
0.0
 13
1.0
 23
0.0
 33
0.0
 40
0.0
 40
0.0
 40
0.0
 40
0.0
 40
0.2096821001528616
 40
0.4420453733185855
 40
0.6744332966681573
 40
0.9068208701180815
 40
0.9999999999999999
 40
0.9999999999999999
 40
0.9999999999999999
 40
0.9999999999999999
 10
1.92651350498918
 20
666.692266004908
 30
0.0
 10
1.674182547013847
 20
666.5879807969804
 30
0.0
 10
1.142226159526805
 20
666.3681299196937
 30
0.0
 10
0.4208447297117113
 20
666.0321617898107
 30
0.0
 10
-0.1225142042746707
 20
665.685256521394
 30
0.0
 10
-0.3511360444179989
 20
665.406879859161
 30
0.0
 10
-0.3685130830422545
 20
665.2455193979396
 30
0.0
 10
-0.3734864950108441
 20
665.1993370727198
 30
0.0
  0
LINE
  5
102
330
1F
100
AcDbEntity
  8
0
  6
Continuous
 62
     7
370
    15
100
AcDbLine
 10
-0.373486495
 20
910.7851949371
 30
0.0
 11
-0.373486495
 21
665.1993370727
 31
0.0
  0
SPLINE
  5
103
330
1F
100
AcDbEntity
  8
0
  6
Continuous
 62
     7
370
    15
100
AcDbSpline
210
0.0
220
0.0
230
1.0
 70
     8
 71
     3
 72
    12
 73
     8
 74
     0
 42
0.00000001
 43
0.00000001
 12
1.0
 22
0.0
 32
0.0
 13
1.0
 23
0.0
 33
0.0
 40
0.0
 40
0.0
 40
0.0
 40
0.0
 40
0.2096821001528849
 40
0.4420453733185992
 40
0.6744332966681071
 40
0.9068208701180748
 40
1.0
 40
1.0
 40
1.0
 40
1.0
 10
-0.3734864950107886
 20
910.7851949370967
 30
0.0
 10
-0.3491465248420811
 20
910.6809097291691
 30
0.0
 10
-0.2978337461549962
 20
910.4610588518824
 30
0.0
 10
0.1230968407732735
 20
910.1250907219993
 30
0.0
 10
0.7748863186688437
 20
909.7781854535831
 30
0.0
 10
1.424327357771427
 20
909.4998087913498
 30
0.0
 10
1.814767274877727
 20
909.3384483301284
 30
0.0
 10
1.92651350498918
 20
909.2922660049086
 30
0.0
  0
SPLINE
  5
104
330
1F
100
AcDbEntity
  8
0
  6
Continuous
 62
     7
370
    15
100
AcDbSpline
210
0.0
220
0.0
230
1.0
 70
     8
 71
     3
 72
    12
 73
     8
 74
     0
 42
0.00000001
 43
0.00000001
 12
1.0
 22
0.0
 32
0.0
 13
1.0
 23
0.0
 33
0.0
 40
0.0
 40
0.0
 40
0.0
 40
0.0
 40
0.2096821001529041
 40
0.4420453733186234
 40
0.6744332966681669
 40
0.906820870118068
 40
1.0
 40
1.0
 40
1.0
 40
1.0
 10
63.72651350498526
 20
185.8922660049085
 30
0.0
 10
63.47418254700987
 20
185.787980796981
 30
0.0
 10
62.94222615952266
 20
185.5681299196942
 30
0.0
 10
62.22084472970779
 20
185.2321617898112
 30
0.0
 10
61.67748579572135
 20
184.8852565213947
 30
0.0
 10
61.44886395557852
 20
184.6068798591616
 30
0.0
 10
61.43148691695399
 20
184.4455193979402
 30
0.0
 10
61.42651350498529
 20
184.3993370727204
 30
0.0
  0
SPLINE
  5
105
330
1F
100
AcDbEntity
  8
0
  6
Continuous
 62
     7
370
    15
100
AcDbSpline
210
0.0
220
0.0
230
1.0
 70
     8
 71
     3
 72
    11
 73
     7
 74
     0
 42
0.00000001
 43
0.00000001
 12
1.0
 22
0.0
 32
0.0
 13
1.0
 23
0.0
 33
0.0
 40
0.0
 40
0.0
 40
0.0
 40
0.0
 40
0.2543211584722065
 40
0.5088664984542695
 40
0.7634130007197969
 40
0.9999999999999999
 40
0.9999999999999999
 40
0.9999999999999999
 40
0.9999999999999999
 10
63.72651350498526
 20
185.8922660049085
 30
0.0
 10
63.52653831484589
 20
185.7656848971232
 30
0.0
 10
63.12641165847466
 20
185.5124111015955
 30
0.0
 10
62.62478790437925
 20
185.1324664321101
 30
0.0
 10
62.28872265752061
 20
184.7612413004391
 30
0.0
 10
62.24673813340975
 20
184.5169946557699
 30
0.0
 10
62.22651350498531
 20
184.3993370727204
 30
0.0
  0
LINE
  5
106
330
1F
100
AcDbEntity
  8
0
  6
Continuous
 62
     7
370
    15
100
AcDbLine
 10
61.426513505
 20
184.3993370727
 30
0.0
 11
62.226513505
 21
184.3993370727
 31
0.0
  0
LINE
  5
107
330
1F
100
AcDbEntity
  8
0
  6
Continuous
 62
     7
370
    15
100
AcDbLine
 10
895.9117675557
 20
897.7041779969
 30
0.0
 11
896.6368137854
 21
897.3660833875
 31
0.0
  0
LINE
  5
108
330
1F
100
AcDbEntity
  8
0
  6
Continuous
 62
     7
370
    15
100
AcDbLine
 10
882.1832692338
 20
866.3703570708
 30
0.0
 11
881.4582230042
 21
866.7084516802
 31
0.0
  0
LINE
  5
109
330
1F
100
AcDbEntity
  8
0
  6
Continuous
 62
     7
370
    15
100
AcDbLine
 10
806.7148432245
 20
184.3993370727
 30
0.0
 11
806.7148432245
 21
663.4422660049
 31
0.0
  0
SPLINE
  5
10A
330
1F
100
AcDbEntity
  8
0
  6
Continuous
 62
     7
370
    15
100
AcDbSpline
210
0.0
220
0.0
230
1.0
 70
     8
 71
     3
 72
    12
 73
     8
 74
     0
 42
0.00000001
 43
0.00000001
 12
1.0
 22
0.0
 32
0.0
 13
1.0
 23
0.0
 33
0.0
 40
0.0
 40
0.0
 40
0.0
 40
0.0
 40
0.2096821001528617
 40
0.4420453733185995
 40
0.6744332966681201
 40
0.9068208701180493
 40
0.9999999999999999
 40
0.9999999999999999
 40
0.9999999999999999
 40
0.9999999999999999
 10
806.7148432244697
 20
184.3993370727204
 30
0.0
 10
806.6905032543012
 20
184.5036222806479
 30
0.0
 10
806.6391904756144
 20
184.7234731579346
 30
0.0
 10
806.2182598886856
 20
185.0594412878177
 30
0.0
 10
805.56647041079
 20
185.4063465562344
 30
0.0
 10
804.9170293716876
 20
185.6847232184672
 30
0.0
 10
804.5265894545812
 20
185.8460836796888
 30
0.0
 10
804.4148432244698
 20
185.8922660049086
 30
0.0
  0
SPLINE
  5
10B
330
1F
100
AcDbEntity
  8
0
  6
Continuous
 62
     7
370
    15
100
AcDbSpline
210
0.0
220
0.0
230
1.0
 70
     8
 71
     3
 72
    11
 73
     7
 74
     0
 42
0.00000001
 43
0.00000001
 12
1.0
 22
0.0
 32
0.0
 13
1.0
 23
0.0
 33
0.0
 40
0.0
 40
0.0
 40
0.0
 40
0.0
 40
0.2889759275644278
 40
0.5779517763249469
 40
0.8674414070449212
 40
1.0
 40
1.0
 40
1.0
 40
1.0
 10
804.4148432244698
 20
666.6922660049081
 30
0.0
 10
804.7632327396412
 20
666.379024270898
 30
0.0
 10
805.4600116749783
 20
665.7525408882989
 30
0.0
 10
806.2886321660751
 20
664.8127991511227
 30
0.0
 10
806.6730173708934
 20
664.040744863348
 30
0.0
 10
806.7048462750399
 20
663.5853106141869
 30
0.0
 10
806.7148432244697
 20
663.4422660049082
 30
0.0
  0
SPLINE
  5
10C
330
1F
100
AcDbEntity
  8
0
  6
Continuous
 62
     7
370
    15
100
AcDbSpline
210
0.0
220
0.0
230
1.0
 70
     8
 71
     3
 72
    11
 73
     7
 74
     0
 42
0.00000001
 43
0.00000001
 12
1.0
 22
0.0
 32
0.0
 13
1.0
 23
0.0
 33
0.0
 40
0.0
 40
0.0
 40
0.0
 40
0.0
 40
0.2543211584721767
 40
0.5088664984542728
 40
0.7634130007197569
 40
0.9999999999999999
 40
0.9999999999999999
 40
0.9999999999999999
 40
0.9999999999999999
 10
1.92651350498918
 20
666.692266004908
 30
0.0
 10
1.726538314849868
 20
666.5656848971225
 30
0.0
 10
1.326411658478799
 20
666.3124111015948
 30
0.0
 10
0.8247879043828954
 20
665.9324664321094
 30
0.0
 10
0.4887226575245873
 20
665.5612413004386
 30
0.0
 10
0.4467381334136711
 20
665.3169946557693
 30
0.0
 10
0.4265135049892343
 20
665.1993370727198
 30
0.0
  0
LINE
  5
10D
330
1F
100
AcDbEntity
  8
0
  6
Continuous
 62
     7
370
    15
100
AcDbLine
 10
-0.373486495
 20
665.1993370727
 30
0.0
 11
0.426513505
 21
665.1993370727
 31
0.0
  0
SPLINE
  5
10E
330
1F
100
AcDbEntity
  8
0
  6
Continuous
 62
     7
370
    15
100
AcDbSpline
210
0.0
220
0.0
230
1.0
 70
     8
 71
     3
 72
    11
 73
     7
 74
     0
 42
0.00000001
 43
0.00000001
 12
1.0
 22
0.0
 32
0.0
 13
1.0
 23
0.0
 33
0.0
 40
0.0
 40
0.0
 40
0.0
 40
0.0
 40
0.2543211584721143
 40
0.5088664984542164
 40
0.7634130007198013
 40
0.9999999999999999
 40
0.9999999999999999
 40
0.9999999999999999
 40
0.9999999999999999
 10
1.92651350498918
 20
909.2922660049086
 30
0.0
 10
1.799932397203829
 20
909.4922411950477
 30
0.0
 10
1.546658601676076
 20
909.892367851419
 30
0.0
 10
1.16671393219081
 20
910.3939916055144
 30
0.0
 10
0.7954888005196059
 20
910.7300568523738
 30
0.0
 10
0.551242155850562
 20
910.7720413764841
 30
0.0
 10
0.4335845728010712
 20
910.7922660049086
 30
0.0
  0
LINE
  5
10F
330
1F
100
AcDbEntity
  8
0
  6
Continuous
 62
     7
370
    15
100
AcDbLine
 10
0.4335845728
 20
911.5922660049
 30
0.0
 11
0.4335845728
 21
910.7922660049
 31
0.0
  0
LINE
  5
110
330
1F
100
AcDbEntity
  8
0
  6
Continuous
 62
     7
370
    15
100
AcDbLine
 10
61.426513505
 20
663.4422660049
 30
0.0
 11
61.426513505
 21
184.3993370727
 31
0.0
  0
SPLINE
  5
111
330
1F
100
AcDbEntity
  8
0
  6
Continuous
 62
     7
370
    15
100
AcDbSpline
210
0.0
220
0.0
230
1.0
 70
     8
 71
     3
 72
    11
 73
     7
 74
     0
 42
0.00000001
 43
0.00000001
 12
1.0
 22
0.0
 32
0.0
 13
1.0
 23
0.0
 33
0.0
 40
0.0
 40
0.0
 40
0.0
 40
0.0
 40
0.2889759275644807
 40
0.5779517763250348
 40
0.8674414070449761
 40
1.0
 40
1.0
 40
1.0
 40
1.0
 10
61.42651350498529
 20
663.4422660049081
 30
0.0
 10
61.4729726587287
 20
663.7555077389184
 30
0.0
 10
61.56589095354609
 20
664.3819911215176
 30
0.0
 10
62.26823335115795
 20
665.3217328586937
 30
0.0
 10
63.06052988679728
 20
666.0937871464685
 30
0.0
 10
63.56733433749051
 20
666.5492213956294
 30
0.0
 10
63.72651350498526
 20
666.692266004908
 30
0.0
  0
LINE
  5
112
330
1F
100
AcDbEntity
  8
0
  6
Continuous
 62
     7
370
    15
100
AcDbLine
 10
895.8082276929
 20
715.3381053895
 30
0.0
 11
897.1676893734
 21
714.7041779969
 31
0.0
  0
LINE
  5
113
330
1F
100
AcDbEntity
  8
0
  6
Continuous
 62
     7
370
    15
100
AcDbLine
 10
876.556890883
 20
670.5041779969
 30
0.0
 11
875.1974292024
 21
671.1381053895
 31
0.0
  0
ARC
  5
114
330
1F
100
AcDbEntity
  8
0
  6
Continuous
 62
     7
370
    15
100
AcDbCircle
 10
868.2188592422
 20
674.3922660049
 30
0.0
 40
9.199999999999951
100
AcDbArc
 50
270.0
 51
335.0
  0
CIRCLE
  5
115
330
1F
100
AcDbEntity
  8
0
  6
Continuous
 62
     7
370
    15
100
AcDbCircle
 10
467.173735915
 20
891.5922660049
 30
0.0
 40
6.34766310537168
  0
LINE
  5
116
330
1F
100
AcDbEntity
  8
0
  6
Continuous
 62
     7
370
    15
100
AcDbLine
 10
868.2188592422
 20
666.6922660049
 30
0.0
 11
868.2188592422
 21
665.1922660049
 31
0.0
  0
ARC
  5
117
330
1F
100
AcDbEntity
  8
0
  6
Continuous
 62
     7
370
    15
100
AcDbCircle
 10
888.8296577327
 20
718.5922660049
 30
0.0
 40
9.199999999999994
100
AcDbArc
 50
335.0
 51
25.0
  0
ARC
  5
118
330
1F
100
AcDbEntity
  8
0
  6
Continuous
 62
     7
370
    15
100
AcDbCircle
 10
873.1201913635
 20
870.5965396883
 30
0.0
 40
9.200000000000152
100
AcDbArc
 50
295.0
 51
335.0
  0
LINE
  5
119
330
1F
100
AcDbEntity
  8
0
  6
Continuous
 62
     7
370
    15
100
AcDbLine
 10
887.573735915
 20
910.7922660049
 30
0.0
 11
887.573735915
 21
909.2922660049
 31
0.0
  0
ARC
  5
11A
330
1F
100
AcDbEntity
  8
0
  6
Continuous
 62
     7
370
    15
100
AcDbCircle
 10
887.573735915
 20
901.5922660049
 30
0.0
 40
9.199999999999818
100
AcDbArc
 50
335.0
 51
90.0
  0
LINE
  5
11B
330
1F
100
AcDbEntity
  8
0
  6
Continuous
 62
     7
370
    15
100
AcDbLine
 10
897.1676893734
 20
722.4803540129
 30
0.0
 11
895.8082276929
 21
721.8464266203
 31
0.0
  0
LINE
  5
11C
330
1F
100
AcDbEntity
  8
0
  6
Continuous
 62
     7
370
    15
100
AcDbLine
 10
876.3743519789
 20
863.6179697281
 30
0.0
 11
877.0082793715
 21
862.2585080475
 31
0.0
  0
LINE
  5
11D
330
1F
100
AcDbEntity
  8
0
  6
Continuous
 62
     7
370
    15
100
AcDbLine
 10
894.5523058752
 20
898.3381053895
 30
0.0
 11
895.9117675557
 21
897.7041779969
 31
0.0
  0
LINE
  5
11E
330
1F
100
AcDbEntity
  8
0
  6
Continuous
 62
     7
370
    15
100
AcDbLine
 10
881.4582230042
 20
866.7084516802
 30
0.0
 11
880.0987613236
 21
867.3423790729
 31
0.0
  0
LINE
  5
11F
330
1F
100
AcDbEntity
  8
0
  6
Continuous
 62
     7
370
    15
100
AcDbLine
 10
-0.373486495
 20
910.7851949371
 30
0.0
 11
0.426513505
 21
910.7851949371
 31
0.0
  0
SPLINE
  5
120
330
1F
100
AcDbEntity
  8
0
  6
Continuous
 62
     7
370
    15
100
AcDbSpline
210
0.0
220
0.0
230
1.0
 70
     8
 71
     3
 72
    11
 73
     7
 74
     0
 42
0.00000001
 43
0.00000001
 12
1.0
 22
0.0
 32
0.0
 13
1.0
 23
0.0
 33
0.0
 40
0.0
 40
0.0
 40
0.0
 40
0.0
 40
0.2543211584721311
 40
0.5088664984543031
 40
0.7634130007197656
 40
1.0
 40
1.0
 40
1.0
 40
1.0
 10
0.4265135049892343
 20
910.7851949370967
 30
0.0
 10
0.4498675670082108
 20
910.6586138293111
 30
0.0
 10
0.4965962774137189
 20
910.4053400337834
 30
0.0
 10
0.8554838936096765
 20
910.0253953642982
 30
0.0
 10
1.354706872899014
 20
909.6541702326272
 30
0.0
 10
1.740615189494199
 20
909.409923587958
 30
0.0
 10
1.92651350498918
 20
909.2922660049086
 30
0.0
  0
SPLINE
  5
121
330
1F
100
AcDbEntity
  8
0
  6
Continuous
 62
     7
370
    15
100
AcDbSpline
210
0.0
220
0.0
230
1.0
 70
     8
 71
     3
 72
    12
 73
     8
 74
     0
 42
0.00000001
 43
0.00000001
 12
1.0
 22
0.0
 32
0.0
 13
1.0
 23
0.0
 33
0.0
 40
0.0
 40
0.0
 40
0.0
 40
0.0
 40
0.2096821001528734
 40
0.442045373318593
 40
0.6744332966681323
 40
0.9068208701180663
 40
1.0
 40
1.0
 40
1.0
 40
1.0
 10
804.4148432244698
 20
185.8922660049085
 30
0.0
 10
804.5191284323973
 20
185.6399350469332
 30
0.0
 10
804.738979309684
 20
185.107978659446
 30
0.0
 10
805.0749474395668
 20
184.3865972296314
 30
0.0
 10
805.4218527079837
 20
183.8432382956448
 30
0.0
 10
805.7002293702164
 20
183.6146164555016
 30
0.0
 10
805.8615898314382
 20
183.5972394168772
 30
0.0
 10
805.9077721566579
 20
183.5922660049086
 30
0.0
  0
SPLINE
  5
122
330
1F
100
AcDbEntity
  8
0
  6
Continuous
 62
     7
370
    15
100
AcDbSpline
210
0.0
220
0.0
230
1.0
 70
     8
 71
     3
 72
    11
 73
     7
 74
     0
 42
0.00000001
 43
0.00000001
 12
1.0
 22
0.0
 32
0.0
 13
1.0
 23
0.0
 33
0.0
 40
0.0
 40
0.0
 40
0.0
 40
0.0
 40
0.2543211584721066
 40
0.5088664984542034
 40
0.7634130007197119
 40
1.0
 40
1.0
 40
1.0
 40
1.0
 10
804.4148432244698
 20
185.8922660049086
 30
0.0
 10
804.541424332255
 20
185.6922908147694
 30
0.0
 10
804.7946981277827
 20
185.2921641583982
 30
0.0
 10
805.1746427972681
 20
184.7905404043026
 30
0.0
 10
805.5458679289393
 20
184.4544751574437
 30
0.0
 10
805.7901145736084
 20
184.4124906333331
 30
0.0
 10
805.9077721566579
 20
184.3922660049086
 30
0.0
  0
LINE
  5
123
330
1F
100
AcDbEntity
  8
0
  6
Continuous
 62
     7
370
    15
100
AcDbLine
 10
805.9077721567
 20
183.5922660049
 30
0.0
 11
805.9077721567
 21
184.3922660049
 31
0.0
  0
LINE
  5
124
330
1F
100
AcDbEntity
  8
0
  6
Continuous
 62
     7
370
    15
100
AcDbLine
 10
806.7148432245
 20
184.3993370727
 30
0.0
 11
805.9148432245
 21
184.3993370727
 31
0.0
  0
SPLINE
  5
125
330
1F
100
AcDbEntity
  8
0
  6
Continuous
 62
     7
370
    15
100
AcDbSpline
210
0.0
220
0.0
230
1.0
 70
     8
 71
     3
 72
    11
 73
     7
 74
     0
 42
0.00000001
 43
0.00000001
 12
1.0
 22
0.0
 32
0.0
 13
1.0
 23
0.0
 33
0.0
 40
0.0
 40
0.0
 40
0.0
 40
0.0
 40
0.2543211584721415
 40
0.5088664984542446
 40
0.7634130007197266
 40
0.9999999999999999
 40
0.9999999999999999
 40
0.9999999999999999
 40
0.9999999999999999
 10
805.9148432244698
 20
184.3993370727204
 30
0.0
 10
805.8914891624506
 20
184.5259181805059
 30
0.0
 10
805.8447604520446
 20
184.7791919760337
 30
0.0
 10
805.4858728358498
 20
185.1591366455187
 30
0.0
 10
804.9866498565599
 20
185.53036177719
 30
0.0
 10
804.6007415399647
 20
185.7746084218591
 30
0.0
 10
804.4148432244698
 20
185.8922660049085
 30
0.0
  0
SPLINE
  5
126
330
1F
100
AcDbEntity
  8
0
  6
Continuous
 62
     7
370
    15
100
AcDbSpline
210
0.0
220
0.0
230
1.0
 70
     8
 71
     3
 72
    11
 73
     7
 74
     0
 42
0.00000001
 43
0.00000001
 12
1.0
 22
0.0
 32
0.0
 13
1.0
 23
0.0
 33
0.0
 40
0.0
 40
0.0
 40
0.0
 40
0.0
 40
0.2889759275644319
 40
0.5779517763249601
 40
0.8674414070449391
 40
1.0
 40
1.0
 40
1.0
 40
1.0
 10
63.72651350498543
 20
666.692266004908
 30
0.0
 10
63.41327177097534
 20
666.3438764897364
 30
0.0
 10
62.78678838837609
 20
665.6470975543994
 30
0.0
 10
61.84704665120005
 20
664.8184770633021
 30
0.0
 10
61.07499236342506
 20
664.4340918584844
 30
0.0
 10
60.61955811426406
 20
664.4022629543376
 30
0.0
 10
60.4765135049854
 20
664.3922660049079
 30
0.0
  0
LINE
  5
127
330
1F
100
AcDbEntity
  8
0
  6
Continuous
 62
     7
370
    15
100
AcDbLine
 10
0.4335845728
 20
664.3922660049
 30
0.0
 11
60.476513505
 21
664.3922660049
 31
0.0
  0
SPLINE
  5
128
330
1F
100
AcDbEntity
  8
0
  6
Continuous
 62
     7
370
    15
100
AcDbSpline
210
0.0
220
0.0
230
1.0
 70
     8
 71
     3
 72
    12
 73
     8
 74
     0
 42
0.00000001
 43
0.00000001
 12
1.0
 22
0.0
 32
0.0
 13
1.0
 23
0.0
 33
0.0
 40
0.0
 40
0.0
 40
0.0
 40
0.0
 40
0.2096821001528692
 40
0.4420453733186106
 40
0.6744332966681301
 40
0.9068208701180698
 40
0.9999999999999999
 40
0.9999999999999999
 40
0.9999999999999999
 40
0.9999999999999999
 10
0.4335845728009602
 20
664.3922660049079
 30
0.0
 10
0.5378697807285615
 20
664.4166059750765
 30
0.0
 10
0.7577206580153817
 20
664.4679187537635
 30
0.0
 10
1.093688787897895
 20
664.8888493406922
 30
0.0
 10
1.440594056315081
 20
665.5406388185876
 30
0.0
 10
1.718970718547597
 20
666.1900798576903
 30
0.0
 10
1.880331179769434
 20
666.5805197747966
 30
0.0
 10
1.92651350498918
 20
666.692266004908
 30
0.0
  0
LINE
  5
129
330
1F
100
AcDbEntity
  8
0
  6
Continuous
 62
     7
370
    15
100
AcDbLine
 10
0.4335845728
 20
664.3922660049
 30
0.0
 11
0.4335845728
 21
665.1922660049
 31
0.0
  0
SPLINE
  5
12A
330
1F
100
AcDbEntity
  8
0
  6
Continuous
 62
     7
370
    15
100
AcDbSpline
210
0.0
220
0.0
230
1.0
 70
     8
 71
     3
 72
    11
 73
     7
 74
     0
 42
0.00000001
 43
0.00000001
 12
1.0
 22
0.0
 32
0.0
 13
1.0
 23
0.0
 33
0.0
 40
0.0
 40
0.0
 40
0.0
 40
0.0
 40
0.254321158472106
 40
0.5088664984542279
 40
0.763413000719696
 40
1.0
 40
1.0
 40
1.0
 40
1.0
 10
0.4335845728009602
 20
665.192266004908
 30
0.0
 10
0.5601656805863664
 20
665.215620066927
 30
0.0
 10
0.8134394761141195
 20
665.2623487773328
 30
0.0
 10
1.193384145599385
 20
665.6212363935281
 30
0.0
 10
1.564609277270257
 20
666.1204593728177
 30
0.0
 10
1.808855921939523
 20
666.506367689413
 30
0.0
 10
1.92651350498918
 20
666.692266004908
 30
0.0
  0
LINE
  5
12B
330
1F
100
AcDbEntity
  8
0
  6
Continuous
 62
     7
370
    15
100
AcDbLine
 10
805.9077721567
 20
183.5922660049
 30
0.0
 11
62.2335845728
 21
183.5922660049
 31
0.0
  0
SPLINE
  5
12C
330
1F
100
AcDbEntity
  8
0
  6
Continuous
 62
     7
370
    15
100
AcDbSpline
210
0.0
220
0.0
230
1.0
 70
     8
 71
     3
 72
    12
 73
     8
 74
     0
 42
0.00000001
 43
0.00000001
 12
1.0
 22
0.0
 32
0.0
 13
1.0
 23
0.0
 33
0.0
 40
0.0
 40
0.0
 40
0.0
 40
0.0
 40
0.2096821001528658
 40
0.4420453733186058
 40
0.674433296668123
 40
0.9068208701180432
 40
1.0
 40
1.0
 40
1.0
 40
1.0
 10
62.23358457279704
 20
183.5922660049086
 30
0.0
 10
62.33786978072465
 20
183.6166059750772
 30
0.0
 10
62.55772065801118
 20
183.6679187537639
 30
0.0
 10
62.89368878789448
 20
184.0888493406929
 30
0.0
 10
63.24059405631088
 20
184.7406388185882
 30
0.0
 10
63.51897071854395
 20
185.3900798576909
 30
0.0
 10
63.68033117976552
 20
185.7805197747971
 30
0.0
 10
63.72651350498526
 20
185.8922660049086
 30
0.0
  0
LINE
  5
12D
330
1F
100
AcDbEntity
  8
0
  6
Continuous
 62
     7
370
    15
100
AcDbLine
 10
62.2335845728
 20
183.5922660049
 30
0.0
 11
62.2335845728
 21
184.3922660049
 31
0.0
  0
SPLINE
  5
12E
330
1F
100
AcDbEntity
  8
0
  6
Continuous
 62
     7
370
    15
100
AcDbSpline
210
0.0
220
0.0
230
1.0
 70
     8
 71
     3
 72
    11
 73
     7
 74
     0
 42
0.00000001
 43
0.00000001
 12
1.0
 22
0.0
 32
0.0
 13
1.0
 23
0.0
 33
0.0
 40
0.0
 40
0.0
 40
0.0
 40
0.0
 40
0.2543211584721718
 40
0.5088664984542631
 40
0.7634130007196949
 40
1.0
 40
1.0
 40
1.0
 40
1.0
 10
62.23358457279704
 20
184.3922660049086
 30
0.0
 10
62.3601656805825
 20
184.4156200669276
 30
0.0
 10
62.61343947611042
 20
184.4623487773334
 30
0.0
 10
62.99338414559558
 20
184.821236393529
 30
0.0
 10
63.36460927726656
 20
185.3204593728182
 30
0.0
 10
63.60885592193571
 20
185.7063676894134
 30
0.0
 10
63.72651350498521
 20
185.8922660049085
 30
0.0
  0
CIRCLE
  5
12F
330
1F
100
AcDbEntity
  8
0
  6
Continuous
 62
     7
370
    15
100
AcDbCircle
 10
467.173735915
 20
891.5922660049
 30
0.0
 40
2.699999999999932
  0
CIRCLE
  5
130
330
1F
100
AcDbEntity
  8
0
  6
Continuous
 62
     7
370
    15
100
AcDbCircle
 10
77.173735915
 20
891.5922660049
 30
0.0
 40
2.700000000000159
  0
CIRCLE
  5
131
330
1F
100
AcDbEntity
  8
0
  6
Continuous
 62
     7
370
    15
100
AcDbCircle
 10
847.173735915
 20
891.5922660049
 30
0.0
 40
2.700000000000045
  0
LWPOLYLINE
  5
132
330
1F
100
AcDbEntity
  8
0
  6
Continuous
 62
     7
370
    15
100
AcDbPolyline
 90
        3
 70
   128
 43
0.0
 10
61.9022477326
 20
664.7254898121
 10
61.8755033962
 20
664.7529261767
 10
61.7661246333
 20
664.85203481
  0
LINE
  5
133
330
1F
100
AcDbEntity
  8
0
  6
Continuous
 62
     7
370
    15
100
AcDbLine
 10
805.9014500992
 20
184.3922660049
 30
0.0
 11
805.9148432245
 21
184.3922660049
 31
0.0
  0
LINE
  5
134
330
1F
100
AcDbEntity
  8
0
  6
Continuous
 62
     7
370
    15
100
AcDbLine
 10
805.9148432245
 20
184.3993370727
 30
0.0
 11
805.9148432245
 21
184.3922660049
 31
0.0
  0
LINE
  5
135
330
1F
100
AcDbEntity
  8
0
  6
Continuous
 62
     7
370
    15
100
AcDbLine
 10
805.1148432245
 20
185.421272446
 30
0.0
 11
805.1148432245
 21
184.8942346105
 31
0.0
  0
LINE
  5
136
330
1F
100
AcDbEntity
  8
0
  6
Continuous
 62
     7
370
    15
100
AcDbLine
 10
807.1648432245
 20
664.3922660049
 30
0.0
 11
807.5895618503
 21
664.3922660049
 31
0.0
  0
ARC
  5
137
330
1F
100
AcDbEntity
  8
0
  6
Continuous
 62
     7
370
    15
100
AcDbCircle
 10
803.8648432245
 20
185.6422660049
 30
0.0
 40
1.249999999999291
100
AcDbArc
 50
333.2171327463
 51
350.9211733065
  0
ARC
  5
138
330
1F
100
AcDbEntity
  8
0
  6
Continuous
 62
     7
370
    15
100
AcDbCircle
 10
807.1648432245
 20
663.1422660049
 30
0.0
 40
1.249999999999965
100
AcDbArc
 50
90.0
 51
121.7672943121
  0
ARC
  5
139
330
1F
100
AcDbEntity
  8
0
  6
Continuous
 62
     7
370
    15
100
AcDbCircle
 10
810.9148432245
 20
285.592815472
 30
0.0
 40
5.000000000000047
100
AcDbArc
 50
136.0544804373
 51
147.1401196212
  0
ARC
  5
13A
330
1F
100
AcDbEntity
  8
0
  6
Continuous
 62
     7
370
    15
100
AcDbCircle
 10
810.9148432245
 20
621.2917165378
 30
0.0
 40
5.000000000000047
100
AcDbArc
 50
212.8598803788
 51
223.9455195627
  0
LINE
  5
13B
330
1F
100
AcDbEntity
  8
0
  6
Continuous
 62
     7
370
    15
100
AcDbLine
 10
18.666609764
 20
911.5922660049
 30
0.0
 11
18.647171733
 21
911.6922660049
 31
0.0
  0
LINE
  5
13C
330
1F
100
AcDbEntity
  8
0
  6
Continuous
 62
     7
370
    15
100
AcDbLine
 10
46.5773918143
 20
911.5922660049
 30
0.0
 11
47.0918472159
 21
911.6922660049
 31
0.0
  0
LINE
  5
13D
330
1F
100
AcDbEntity
  8
0
  6
Continuous
 62
     7
370
    15
100
AcDbLine
 10
58.3813522328
 20
911.6922660049
 30
0.0
 11
58.4007902637
 21
911.5922660049
 31
0.0
  0
LINE
  5
13E
330
1F
100
AcDbEntity
  8
0
  6
Continuous
 62
     7
370
    15
100
AcDbLine
 10
168.1148432245
 20
19.8922660049
 30
0.0
 11
111.1148432245
 21
19.8922660049
 31
0.0
  0
LINE
  5
13F
330
1F
100
AcDbEntity
  8
0
  6
Continuous
 62
     7
370
    15
100
AcDbLine
 10
166.1148432245
 20
13.8922660049
 30
0.0
 11
113.1148432245
 21
13.8922660049
 31
0.0
  0
LINE
  5
140
330
1F
100
AcDbEntity
  8
0
  6
Continuous
 62
     7
370
    15
100
AcDbLine
 10
745.1148432245
 20
13.8922660049
 30
0.0
 11
692.1148432245
 21
13.8922660049
 31
0.0
  0
LINE
  5
141
330
1F
100
AcDbEntity
  8
0
  6
Continuous
 62
     7
370
    15
100
AcDbLine
 10
747.1148432245
 20
19.8922660049
 30
0.0
 11
690.1148432245
 21
19.8922660049
 31
0.0
  0
LINE
  5
142
330
1F
100
AcDbEntity
  8
0
  6
Continuous
 62
     7
370
    15
100
AcDbLine
 10
763.6148432245
 20
181.8922660049
 30
0.0
 11
763.6148432245
 21
183.5922660049
 31
0.0
  0
LINE
  5
143
330
1F
100
AcDbEntity
  8
0
  6
Continuous
 62
     7
370
    15
100
AcDbLine
 10
673.6148432245
 20
181.8922660049
 30
0.0
 11
673.6148432245
 21
183.5922660049
 31
0.0
  0
LINE
  5
144
330
1F
100
AcDbEntity
  8
0
  6
Continuous
 62
     7
370
    15
100
AcDbLine
 10
673.6148432245
 20
181.8922660049
 30
0.0
 11
763.6148432245
 21
181.8922660049
 31
0.0
  0
LINE
  5
145
330
1F
100
AcDbEntity
  8
0
  6
Continuous
 62
     7
370
    15
100
AcDbLine
 10
749.5744934448
 20
87.8922660049
 30
0.0
 11
687.6551930041
 21
87.8922660049
 31
0.0
  0
LINE
  5
146
330
1F
100
AcDbEntity
  8
0
  6
Continuous
 62
     7
370
    15
100
AcDbLine
 10
184.6148432245
 20
181.8922660049
 30
0.0
 11
184.6148432245
 21
183.5922660049
 31
0.0
  0
LINE
  5
147
330
1F
100
AcDbEntity
  8
0
  6
Continuous
 62
     7
370
    15
100
AcDbLine
 10
94.6148432245
 20
181.8922660049
 30
0.0
 11
184.6148432245
 21
181.8922660049
 31
0.0
  0
LINE
  5
148
330
1F
100
AcDbEntity
  8
0
  6
Continuous
 62
     7
370
    15
100
AcDbLine
 10
94.6148432245
 20
181.8922660049
 30
0.0
 11
94.6148432245
 21
183.5922660049
 31
0.0
  0
LINE
  5
149
330
1F
100
AcDbEntity
  8
0
  6
Continuous
 62
     7
370
    15
100
AcDbLine
 10
170.5744934448
 20
87.8922660049
 30
0.0
 11
108.6551930041
 21
87.8922660049
 31
0.0
  0
SPLINE
  5
14A
330
1F
100
AcDbEntity
  8
0
  6
Continuous
 62
     7
370
    15
100
AcDbSpline
210
0.0
220
0.0
230
1.0
 70
     8
 71
     3
 72
    13
 73
     9
 74
     0
 42
0.00000001
 43
0.00000001
 12
1.0
 22
0.0
 32
0.0
 13
1.0
 23
0.0
 33
0.0
 40
0.0
 40
0.0
 40
0.0
 40
0.0
 40
0.1695411050600456
 40
0.3386458383077976
 40
0.5184804584267965
 40
0.7277236211487069
 40
0.9924537768853263
 40
0.9999999999999999
 40
0.9999999999999999
 40
0.9999999999999999
 40
0.9999999999999999
 10
85.65843876770668
 20
170.5422660049275
 30
0.0
 10
85.65888875894284
 20
170.566877152214
 30
0.0
 10
85.65978758320941
 20
170.6160361016126
 30
0.0
 10
85.66658672533694
 20
170.6821718949929
 30
0.0
 10
85.67677241694854
 20
170.7378434980974
 30
0.0
 10
85.69126993172615
 20
170.7805622773689
 30
0.0
 10
85.70288489015937
 20
170.792147936984
 30
0.0
 10
85.70932811534487
 20
170.7922628208848
 30
0.0
 10
85.70950669130156
 20
170.7922660049274
 30
0.0
  0
LINE
  5
14B
330
1F
100
AcDbEntity
  8
0
  6
Continuous
 62
     7
370
    15
100
AcDbLine
 10
79.2916017573
 20
170.7922660049
 30
0.0
 11
85.7095066913
 21
170.7922660049
 31
0.0
  0
SPLINE
  5
14C
330
1F
100
AcDbEntity
  8
0
  6
Continuous
 62
     7
370
    15
100
AcDbSpline
210
0.0
220
0.0
230
1.0
 70
     8
 71
     3
 72
    13
 73
     9
 74
     0
 42
0.00000001
 43
0.00000001
 12
1.0
 22
0.0
 32
0.0
 13
1.0
 23
0.0
 33
0.0
 40
0.0
 40
0.0
 40
0.0
 40
0.0
 40
0.0075462231145515
 40
0.272276378851297
 40
0.4815195415731516
 40
0.6613541616926318
 40
0.8304588949398211
 40
1.0
 40
1.0
 40
1.0
 40
1.0
 10
85.70950669130156
 20
169.5922660049274
 30
0.0
 10
85.70932811534482
 20
169.5922691889699
 30
0.0
 10
85.70288489015698
 20
169.5923840728713
 30
0.0
 10
85.69126993172648
 20
169.6039697324859
 30
0.0
 10
85.67677241694832
 20
169.6466885117576
 30
0.0
 10
85.66658672533688
 20
169.7023601148618
 30
0.0
 10
85.65978758320931
 20
169.7684959082425
 30
0.0
 10
85.65888875894274
 20
169.8176548576408
 30
0.0
 10
85.65843876770663
 20
169.8422660049274
 30
0.0
  0
LINE
  5
14D
330
1F
100
AcDbEntity
  8
0
  6
Continuous
 62
     7
370
    15
100
AcDbLine
 10
85.7095066913
 20
169.5922660049
 30
0.0
 11
79.0038914008
 21
169.5922660049
 31
0.0
  0
LINE
  5
14E
330
1F
100
AcDbEntity
  8
0
  6
Continuous
 62
     7
370
    15
100
AcDbLine
 10
85.6584387677
 20
170.5422660049
 30
0.0
 11
85.6584387677
 21
169.8422660049
 31
0.0
  0
SPLINE
  5
14F
330
1F
100
AcDbEntity
  8
0
  6
Continuous
 62
     7
370
    15
100
AcDbSpline
210
0.0
220
0.0
230
1.0
 70
     8
 71
     3
 72
    12
 73
     8
 74
     0
 42
0.00000001
 43
0.00000001
 12
1.0
 22
0.0
 32
0.0
 13
1.0
 23
0.0
 33
0.0
 40
0.0
 40
0.0
 40
0.0
 40
0.0
 40
0.2289440738516383
 40
0.4594214300241659
 40
0.6825355698157354
 40
0.8947175231628403
 40
1.0
 40
1.0
 40
1.0
 40
1.0
 10
90.10976517138336
 20
169.5922660049272
 30
0.0
 10
90.24385718800293
 20
169.6096004895049
 30
0.0
 10
90.51293926116489
 20
169.644385551024
 30
0.0
 10
90.86554631660692
 20
169.9182553968361
 30
0.0
 10
91.1185558852739
 20
170.3152919313193
 30
0.0
 10
91.23189873014009
 20
170.7161679206719
 30
0.0
 10
91.24153838472016
 20
170.961053313759
 30
0.0
 10
91.24473523644139
 20
171.0422660049273
 30
0.0
  0
LINE
  5
150
330
1F
100
AcDbEntity
  8
0
  6
Continuous
 62
     7
370
    15
100
AcDbLine
 10
90.1097651714
 20
169.5922660049
 30
0.0
 11
85.9396680668
 21
169.5922660049
 31
0.0
  0
LINE
  5
151
330
1F
100
AcDbEntity
  8
0
  6
Continuous
 62
     7
370
    15
100
AcDbLine
 10
86.8508662688
 20
176.3922660049
 30
0.0
 11
91.0209633734
 21
176.3922660049
 31
0.0
  0
LINE
  5
152
330
1F
100
AcDbEntity
  8
0
  6
Continuous
 62
     7
370
    15
100
AcDbLine
 10
86.3209929741
 20
176.3922660049
 30
0.0
 11
86.8508662688
 21
176.3922660049
 31
0.0
  0
LINE
  5
153
330
1F
100
AcDbEntity
  8
0
  6
Continuous
 62
     7
370
    15
100
AcDbLine
 10
85.7095066913
 20
170.7922660049
 30
0.0
 11
85.9396680668
 21
170.7922660049
 31
0.0
  0
LINE
  5
154
330
1F
100
AcDbEntity
  8
0
  6
Continuous
 62
     7
370
    15
100
AcDbLine
 10
85.9396680668
 20
169.5922660049
 30
0.0
 11
85.7095066913
 21
169.5922660049
 31
0.0
  0
LINE
  5
155
330
1F
100
AcDbEntity
  8
0
  6
Continuous
 62
     7
370
    15
100
AcDbLine
 10
91.2447352364
 20
171.0422660049
 30
0.0
 11
91.2709633734
 21
171.0422660049
 31
0.0
  0
LINE
  5
156
330
1F
100
AcDbEntity
  8
0
  6
Continuous
 62
     7
370
    15
100
AcDbLine
 10
90.5648432245
 20
169.5922660049
 30
0.0
 11
90.1097651714
 21
169.5922660049
 31
0.0
  0
SPLINE
  5
157
330
1F
100
AcDbEntity
  8
0
  6
Continuous
 62
     7
370
    15
100
AcDbSpline
210
0.0
220
0.0
230
1.0
 70
     8
 71
     3
 72
    11
 73
     7
 74
     0
 42
0.00000001
 43
0.00000001
 12
1.0
 22
0.0
 32
0.0
 13
1.0
 23
0.0
 33
0.0
 40
0.0
 40
0.0
 40
0.0
 40
0.0
 40
0.0796332959750882
 40
0.4594981978903774
 40
0.8207504115405818
 40
1.0
 40
1.0
 40
1.0
 40
1.0
 10
73.44719722860249
 20
169.8907566349009
 30
0.0
 10
73.4231340640425
 20
169.9077193653219
 30
0.0
 10
73.28428534987735
 20
170.0055973190631
 30
0.0
 10
73.1150400544967
 20
170.323938396105
 30
0.0
 10
72.9973668342036
 20
170.7152370670148
 30
0.0
 10
72.98804324553937
 20
170.9608214904695
 30
0.0
 10
72.98495121249803
 20
171.0422660049271
 30
0.0
  0
ARC
  5
158
330
1F
100
AcDbEntity
  8
0
  6
Continuous
 62
     7
370
    15
100
AcDbCircle
 10
73.7261730575
 20
176.153515814
 30
0.0
 40
0.2390731945686805
100
AcDbArc
 50
357.3028984187
 51
87.0213133887
  0
LINE
  5
159
330
1F
100
AcDbEntity
  8
0
  6
Continuous
 62
     7
370
    15
100
AcDbLine
 10
73.2087230755
 20
176.3922660049
 30
0.0
 11
73.7385963702
 21
176.3922660049
 31
0.0
  0
LINE
  5
15A
330
1F
100
AcDbEntity
  8
0
  6
Continuous
 62
     7
370
    15
100
AcDbLine
 10
73.7385963702
 20
176.3922660049
 30
0.0
 11
76.474657967
 21
176.3922660049
 31
0.0
  0
SPLINE
  5
15B
330
1F
100
AcDbEntity
  8
0
  6
Continuous
 62
     7
370
    15
100
AcDbSpline
210
0.0
220
0.0
230
1.0
 70
     8
 71
     3
 72
    13
 73
     9
 74
     0
 42
0.00000001
 43
0.00000001
 12
1.0
 22
0.0
 32
0.0
 13
1.0
 23
0.0
 33
0.0
 40
0.0
 40
0.0
 40
0.0
 40
0.0
 40
0.1695411050601332
 40
0.3386458383075326
 40
0.5184804584265619
 40
0.7277236211484831
 40
0.9924537768854523
 40
1.0
 40
1.0
 40
1.0
 40
1.0
 10
79.38383796984994
 20
171.7422660049272
 30
0.0
 10
79.38313516645457
 20
171.7668771522139
 30
0.0
 10
79.38173136856797
 20
171.8160361016123
 30
0.0
 10
79.37109344287607
 20
171.8821718949927
 30
0.0
 10
79.35510077854696
 20
171.9378434980972
 30
0.0
 10
79.3322245334665
 20
171.9805622773693
 30
0.0
 10
79.3137599342858
 20
171.992147936981
 30
0.0
 10
79.30346759164209
 20
171.9922628208847
 30
0.0
 10
79.30318233621786
 20
171.9922660049272
 30
0.0
  0
LINE
  5
15C
330
1F
100
AcDbEntity
  8
0
  6
Continuous
 62
     7
370
    15
100
AcDbLine
 10
79.3031823362
 20
171.9922660049
 30
0.0
 11
86.0709929741
 21
171.9922660049
 31
0.0
  0
SPLINE
  5
15D
330
1F
100
AcDbEntity
  8
0
  6
Continuous
 62
     7
370
    15
100
AcDbSpline
210
0.0
220
0.0
230
1.0
 70
     8
 71
     3
 72
    13
 73
     9
 74
     0
 42
0.00000001
 43
0.00000001
 12
1.0
 22
0.0
 32
0.0
 13
1.0
 23
0.0
 33
0.0
 40
0.0
 40
0.0
 40
0.0
 40
0.0
 40
0.0075462231147278
 40
0.2722763788518154
 40
0.481519541573783
 40
0.6613541616926806
 40
0.8304588949399402
 40
1.0
 40
1.0
 40
1.0
 40
1.0
 10
79.30318233621814
 20
170.7922660049272
 30
0.0
 10
79.30346759164236
 20
170.7922691889697
 30
0.0
 10
79.31375993428536
 20
170.7923840728734
 30
0.0
 10
79.33222453346733
 20
170.8039697324851
 30
0.0
 10
79.35510077854669
 20
170.8466885117574
 30
0.0
 10
79.37109344287646
 20
170.9023601148617
 30
0.0
 10
79.38173136856813
 20
170.9684959082423
 30
0.0
 10
79.38313516645468
 20
171.0176548576405
 30
0.0
 10
79.38383796984999
 20
171.0422660049272
 30
0.0
  0
LINE
  5
15E
330
1F
100
AcDbEntity
  8
0
  6
Continuous
 62
     7
370
    15
100
AcDbLine
 10
85.7257026242
 20
170.7922660049
 30
0.0
 11
79.3031823362
 21
170.7922660049
 31
0.0
  0
LINE
  5
15F
330
1F
100
AcDbEntity
  8
0
  6
Continuous
 62
     7
370
    15
100
AcDbLine
 10
79.3838379699
 20
171.0422660049
 30
0.0
 11
79.3838379698
 21
171.7422660049
 31
0.0
  0
SPLINE
  5
160
330
1F
100
AcDbEntity
  8
0
  6
Continuous
 62
     7
370
    15
100
AcDbSpline
210
0.0
220
0.0
230
1.0
 70
     8
 71
     3
 72
    12
 73
     8
 74
     0
 42
0.00000001
 43
0.00000001
 12
1.0
 22
0.0
 32
0.0
 13
1.0
 23
0.0
 33
0.0
 40
0.0
 40
0.0
 40
0.0
 40
0.0
 40
0.228944073851559
 40
0.4594214300241035
 40
0.6825355698157662
 40
0.8947175231628791
 40
0.9999999999999999
 40
0.9999999999999999
 40
0.9999999999999999
 40
0.9999999999999999
 10
74.51571585569327
 20
171.9922660049272
 30
0.0
 10
74.39390494132908
 20
171.9749315203495
 30
0.0
 10
74.14946732157219
 20
171.9401464588304
 30
0.0
 10
73.82952756017907
 20
171.6662766130181
 30
0.0
 10
73.60008106968546
 20
171.2692400785353
 30
0.0
 10
73.49733486031312
 20
170.8683640891825
 30
0.0
 10
73.4885965270583
 20
170.6234786960954
 30
0.0
 10
73.48569858549058
 20
170.5422660049272
 30
0.0
  0
LINE
  5
161
330
1F
100
AcDbEntity
  8
0
  6
Continuous
 62
     7
370
    15
100
AcDbLine
 10
74.5157158557
 20
171.9922660049
 30
0.0
 11
79.0964310799
 21
171.9922660049
 31
0.0
  0
LINE
  5
162
330
1F
100
AcDbEntity
  8
0
  6
Continuous
 62
     7
370
    15
100
AcDbLine
 10
78.2779124528
 20
165.1922660049
 30
0.0
 11
73.6971972286
 21
165.1922660049
 31
0.0
  0
LINE
  5
163
330
1F
100
AcDbEntity
  8
0
  6
Continuous
 62
     7
370
    15
100
AcDbLine
 10
78.7538914008
 20
165.1922660049
 30
0.0
 11
78.2779124528
 21
165.1922660049
 31
0.0
  0
LINE
  5
164
330
1F
100
AcDbEntity
  8
0
  6
Continuous
 62
     7
370
    15
100
AcDbLine
 10
79.0964310799
 20
171.9922660049
 30
0.0
 11
79.3031823362
 21
171.9922660049
 31
0.0
  0
LINE
  5
165
330
1F
100
AcDbEntity
  8
0
  6
Continuous
 62
     7
370
    15
100
AcDbLine
 10
79.3031823362
 20
170.7922660049
 30
0.0
 11
79.0964310799
 21
170.7922660049
 31
0.0
  0
LINE
  5
166
330
1F
100
AcDbEntity
  8
0
  6
Continuous
 62
     7
370
    15
100
AcDbLine
 10
73.4856985855
 20
170.5422660049
 30
0.0
 11
73.4471972286
 21
170.5422660049
 31
0.0
  0
LINE
  5
167
330
1F
100
AcDbEntity
  8
0
  6
Continuous
 62
     7
370
    15
100
AcDbLine
 10
73.6648432245
 20
171.9922660049
 30
0.0
 11
74.5157158557
 21
171.9922660049
 31
0.0
  0
ARC
  5
168
330
1F
100
AcDbEntity
  8
0
  6
Continuous
 62
     7
370
    15
100
AcDbCircle
 10
90.0756467886
 20
165.4258361843
 30
0.0
 40
0.2343528001293549
100
AcDbArc
 50
175.9798550466
 51
265.316190911
  0
LINE
  5
169
330
1F
100
AcDbEntity
  8
0
  6
Continuous
 62
     7
370
    15
100
AcDbLine
 10
90.0565102723
 20
165.1922660049
 30
0.0
 11
87.8446312609
 21
165.1922660049
 31
0.0
  0
LINE
  5
16A
330
1F
100
AcDbEntity
  8
0
  6
Continuous
 62
     7
370
    15
100
AcDbLine
 10
90.5324892203
 20
165.1922660049
 30
0.0
 11
90.0565102723
 21
165.1922660049
 31
0.0
  0
LINE
  5
16B
330
1F
100
AcDbEntity
  8
0
  6
Continuous
 62
     7
370
    15
100
AcDbLine
 10
79.8640719899
 20
169.1456840175
 30
0.0
 11
82.7289660081
 21
169.5922660049
 31
0.0
  0
SPLINE
  5
16C
330
1F
100
AcDbEntity
  8
0
  6
Continuous
 62
     7
370
    15
100
AcDbSpline
210
0.0
220
0.0
230
1.0
 70
     8
 71
     3
 72
     9
 73
     5
 74
     0
 42
0.00000001
 43
0.00000001
 12
1.0
 22
0.0
 32
0.0
 13
1.0
 23
0.0
 33
0.0
 40
0.0
 40
0.0
 40
0.0
 40
0.0
 40
0.0702005767033231
 40
1.0
 40
1.0
 40
1.0
 40
1.0
 10
82.72896600809592
 20
169.592266004927
 30
0.0
 10
82.79688094772753
 20
169.5918198886594
 30
0.0
 10
83.76432228255526
 20
169.5854650082788
 30
0.0
 10
84.71236782638681
 20
169.3575755263835
 30
0.0
 10
85.59386002630032
 20
169.145684017542
 30
0.0
  0
LINE
  5
16D
330
1F
100
AcDbEntity
  8
0
  6
Continuous
 62
     7
370
    15
100
AcDbLine
 10
85.5938600263
 20
169.1456840175
 30
0.0
 11
85.5938600263
 21
164.8388479923
 31
0.0
  0
SPLINE
  5
16E
330
1F
100
AcDbEntity
  8
0
  6
Continuous
 62
     7
370
    15
100
AcDbSpline
210
0.0
220
0.0
230
1.0
 70
     8
 71
     3
 72
     9
 73
     5
 74
     0
 42
0.00000001
 43
0.00000001
 12
1.0
 22
0.0
 32
0.0
 13
1.0
 23
0.0
 33
0.0
 40
0.0
 40
0.0
 40
0.0
 40
0.0
 40
0.0702005767033411
 40
1.0
 40
1.0
 40
1.0
 40
1.0
 10
82.72896600809587
 20
164.392266004927
 30
0.0
 10
82.79688094772742
 20
164.3927121211946
 30
0.0
 10
83.76432228255543
 20
164.399067001575
 30
0.0
 10
84.71236782638691
 20
164.6269564834705
 30
0.0
 10
85.59386002630043
 20
164.8388479923125
 30
0.0
  0
LINE
  5
16F
330
1F
100
AcDbEntity
  8
0
  6
Continuous
 62
     7
370
    15
100
AcDbLine
 10
79.8640719899
 20
164.8388479923
 30
0.0
 11
82.7289660081
 21
164.3922660049
 31
0.0
  0
LINE
  5
170
330
1F
100
AcDbEntity
  8
0
  6
Continuous
 62
     7
370
    15
100
AcDbLine
 10
79.8640719899
 20
169.1456840175
 30
0.0
 11
79.8640719899
 21
164.8388479923
 31
0.0
  0
SPLINE
  5
171
330
1F
100
AcDbEntity
  8
0
  6
Continuous
 62
     7
370
    15
100
AcDbSpline
210
0.0
220
0.0
230
1.0
 70
     8
 71
     3
 72
     9
 73
     5
 74
     0
 42
0.00000001
 43
0.00000001
 12
1.0
 22
0.0
 32
0.0
 13
1.0
 23
0.0
 33
0.0
 40
0.0
 40
0.0
 40
0.0
 40
0.0
 40
0.2575513451037681
 40
1.0
 40
1.0
 40
1.0
 40
1.0
 10
79.86407198989149
 20
164.838847992312
 30
0.0
 10
79.71803723736504
 20
164.7714327695371
 30
0.0
 10
79.1510250461936
 20
164.5096782725933
 30
0.0
 10
78.56193368081338
 20
164.4422947848006
 30
0.0
 10
78.1245635889759
 20
164.3922660049266
 30
0.0
  0
LINE
  5
172
330
1F
100
AcDbEntity
  8
0
  6
Continuous
 62
     7
370
    15
100
AcDbLine
 10
82.7289660081
 20
164.3922660049
 30
0.0
 11
78.124563589
 21
164.3922660049
 31
0.0
  0
SPLINE
  5
173
330
1F
100
AcDbEntity
  8
0
  6
Continuous
 62
     7
370
    15
100
AcDbSpline
210
0.0
220
0.0
230
1.0
 70
     8
 71
     3
 72
     9
 73
     5
 74
     0
 42
0.00000001
 43
0.00000001
 12
1.0
 22
0.0
 32
0.0
 13
1.0
 23
0.0
 33
0.0
 40
0.0
 40
0.0
 40
0.0
 40
0.0
 40
0.5174000252721668
 40
0.9999999999999999
 40
0.9999999999999999
 40
0.9999999999999999
 40
0.9999999999999999
 10
79.86407198989126
 20
169.1456840175416
 30
0.0
 10
79.71852978235854
 20
169.2174352932212
 30
0.0
 10
79.43723445877171
 20
169.3561118919356
 30
0.0
 10
79.14494856553172
 20
169.3980345045445
 30
0.0
 10
79.0038914008408
 20
169.4182663563302
 30
0.0
  0
LINE
  5
174
330
1F
100
AcDbEntity
  8
0
  6
Continuous
 62
     7
370
    15
100
AcDbLine
 10
85.5938600263
 20
164.8388479923
 30
0.0
 11
86.7192456436
 21
164.3922660049
 31
0.0
  0
LINE
  5
175
330
1F
100
AcDbEntity
  8
0
  6
Continuous
 62
     7
370
    15
100
AcDbLine
 10
86.7192456436
 20
164.3922660049
 30
0.0
 11
82.7289660081
 21
164.3922660049
 31
0.0
  0
LINE
  5
176
330
1F
100
AcDbEntity
  8
0
  6
Continuous
 62
     7
370
    15
100
AcDbLine
 10
85.5938600263
 20
169.1456840175
 30
0.0
 11
86.7192456436
 21
169.5922660049
 31
0.0
  0
SPLINE
  5
177
330
1F
100
AcDbEntity
  8
0
  6
Continuous
 62
     7
370
    15
100
AcDbSpline
210
0.0
220
0.0
230
1.0
 70
     8
 71
     3
 72
     9
 73
     5
 74
     0
 42
0.00000001
 43
0.00000001
 12
1.0
 22
0.0
 32
0.0
 13
1.0
 23
0.0
 33
0.0
 40
0.0
 40
0.0
 40
0.0
 40
0.0
 40
0.2686336050555741
 40
1.0
 40
1.0
 40
1.0
 40
1.0
 10
78.1245635889759
 20
164.3922660049266
 30
0.0
 10
77.9663936006878
 20
164.3988949575111
 30
0.0
 10
77.37759910397784
 20
164.4235715149475
 30
0.0
 10
76.80432708090107
 20
164.6634262785475
 30
0.0
 10
76.38505518806078
 20
164.8388479923117
 30
0.0
  0
LINE
  5
178
330
1F
100
AcDbEntity
  8
0
  6
Continuous
 62
     7
370
    15
100
AcDbLine
 10
76.3850551881
 20
165.1922660049
 30
0.0
 11
76.3850551881
 21
164.8388479923
 31
0.0
  0
LINE
  5
179
330
1F
100
AcDbEntity
  8
0
  6
Continuous
 62
     7
370
    15
100
AcDbLine
 10
87.8446312609
 20
169.1456840175
 30
0.0
 11
87.8446312609
 21
164.8388479923
 31
0.0
  0
SPLINE
  5
17A
330
1F
100
AcDbEntity
  8
0
  6
Continuous
 62
     7
370
    15
100
AcDbSpline
210
0.0
220
0.0
230
1.0
 70
     8
 71
     3
 72
     9
 73
     5
 74
     0
 42
0.00000001
 43
0.00000001
 12
1.0
 22
0.0
 32
0.0
 13
1.0
 23
0.0
 33
0.0
 40
0.0
 40
0.0
 40
0.0
 40
0.0
 40
0.070200576703406
 40
1.0
 40
1.0
 40
1.0
 40
1.0
 10
86.71924564358952
 20
164.3922660049272
 30
0.0
 10
86.74592394155611
 20
164.3927121211948
 30
0.0
 10
87.1259535541234
 20
164.3990670015749
 30
0.0
 10
87.49836412595762
 20
164.6269564834705
 30
0.0
 10
87.8446312608786
 20
164.8388479923124
 30
0.0
  0
LINE
  5
17B
330
1F
100
AcDbEntity
  8
0
  6
Continuous
 62
     7
370
    15
100
AcDbLine
 10
76.6838060526
 20
164.7119183485
 30
0.0
 11
76.3850551881
 21
164.8388479923
 31
0.0
  0
LINE
  5
17C
330
1F
100
AcDbEntity
  8
0
  6
Continuous
 62
     7
370
    15
100
AcDbLine
 10
78.124563589
 20
164.3922660049
 30
0.0
 11
77.1148432245
 21
164.3922660049
 31
0.0
  0
LINE
  5
17D
330
1F
100
AcDbEntity
  8
0
  6
Continuous
 62
     7
370
    15
100
AcDbLine
 10
87.1148432245
 20
164.3922660049
 30
0.0
 11
86.7192456436
 21
164.3922660049
 31
0.0
  0
LINE
  5
17E
330
1F
100
AcDbEntity
  8
0
  6
Continuous
 62
     7
370
    15
100
AcDbLine
 10
78.2264656635
 20
176.7456840175
 30
0.0
 11
81.0465582923
 21
177.1922660049
 31
0.0
  0
SPLINE
  5
17F
330
1F
100
AcDbEntity
  8
0
  6
Continuous
 62
     7
370
    15
100
AcDbSpline
210
0.0
220
0.0
230
1.0
 70
     8
 71
     3
 72
     9
 73
     5
 74
     0
 42
0.00000001
 43
0.00000001
 12
1.0
 22
0.0
 32
0.0
 13
1.0
 23
0.0
 33
0.0
 40
0.0
 40
0.0
 40
0.0
 40
0.0
 40
0.0702005767033172
 40
1.0
 40
1.0
 40
1.0
 40
1.0
 10
81.04655829225621
 20
177.192266004927
 30
0.0
 10
81.11341117386984
 20
177.1918198886594
 30
0.0
 10
82.06572360138952
 20
177.1854650082792
 30
0.0
 10
82.99894355048953
 20
176.9575755263837
 30
0.0
 10
83.86665092097157
 20
176.745684017542
 30
0.0
  0
LINE
  5
180
330
1F
100
AcDbEntity
  8
0
  6
Continuous
 62
     7
370
    15
100
AcDbLine
 10
83.866650921
 20
176.7456840175
 30
0.0
 11
83.866650921
 21
172.4388479923
 31
0.0
  0
SPLINE
  5
181
330
1F
100
AcDbEntity
  8
0
  6
Continuous
 62
     7
370
    15
100
AcDbSpline
210
0.0
220
0.0
230
1.0
 70
     8
 71
     3
 72
     9
 73
     5
 74
     0
 42
0.00000001
 43
0.00000001
 12
1.0
 22
0.0
 32
0.0
 13
1.0
 23
0.0
 33
0.0
 40
0.0
 40
0.0
 40
0.0
 40
0.0
 40
0.07020057670334
 40
1.0
 40
1.0
 40
1.0
 40
1.0
 10
81.0465582922561
 20
171.992266004927
 30
0.0
 10
81.11341117386978
 20
171.9927121211947
 30
0.0
 10
82.06572360138897
 20
171.9990670015746
 30
0.0
 10
82.99894355048926
 20
172.2269564834704
 30
0.0
 10
83.86665092097162
 20
172.4388479923124
 30
0.0
  0
LINE
  5
182
330
1F
100
AcDbEntity
  8
0
  6
Continuous
 62
     7
370
    15
100
AcDbLine
 10
78.2264656635
 20
172.4388479923
 30
0.0
 11
81.0465582923
 21
171.9922660049
 31
0.0
  0
LINE
  5
183
330
1F
100
AcDbEntity
  8
0
  6
Continuous
 62
     7
370
    15
100
AcDbLine
 10
78.2264656635
 20
176.7456840175
 30
0.0
 11
78.2264656635
 21
172.4388479923
 31
0.0
  0
LINE
  5
184
330
1F
100
AcDbEntity
  8
0
  6
Continuous
 62
     7
370
    15
100
AcDbLine
 10
83.866650921
 20
172.4388479923
 30
0.0
 11
85.8108397014
 21
171.9922660049
 31
0.0
  0
LINE
  5
185
330
1F
100
AcDbEntity
  8
0
  6
Continuous
 62
     7
370
    15
100
AcDbLine
 10
83.866650921
 20
176.7456840175
 30
0.0
 11
85.8108397014
 21
177.1922660049
 31
0.0
  0
LINE
  5
186
330
1F
100
AcDbEntity
  8
0
  6
Continuous
 62
     7
370
    15
100
AcDbLine
 10
81.0465582923
 20
177.1922660049
 30
0.0
 11
85.8108397014
 21
177.1922660049
 31
0.0
  0
SPLINE
  5
187
330
1F
100
AcDbEntity
  8
0
  6
Continuous
 62
     7
370
    15
100
AcDbSpline
210
0.0
220
0.0
230
1.0
 70
     8
 71
     3
 72
     9
 73
     5
 74
     0
 42
0.00000001
 43
0.00000001
 12
1.0
 22
0.0
 32
0.0
 13
1.0
 23
0.0
 33
0.0
 40
0.0
 40
0.0
 40
0.0
 40
0.0
 40
0.2575513451037599
 40
1.0
 40
1.0
 40
1.0
 40
1.0
 10
78.22646566354081
 20
172.438847992312
 30
0.0
 10
78.15293201366069
 20
172.3714327695372
 30
0.0
 10
77.86742137169367
 20
172.1096782725933
 30
0.0
 10
77.57079308657794
 20
172.0422947848005
 30
0.0
 10
77.3505618152896
 20
171.9922660049266
 30
0.0
  0
SPLINE
  5
188
330
1F
100
AcDbEntity
  8
0
  6
Continuous
 62
     7
370
    15
100
AcDbSpline
210
0.0
220
0.0
230
1.0
 70
     8
 71
     3
 72
     9
 73
     5
 74
     0
 42
0.00000001
 43
0.00000001
 12
1.0
 22
0.0
 32
0.0
 13
1.0
 23
0.0
 33
0.0
 40
0.0
 40
0.0
 40
0.0
 40
0.0
 40
0.2575513451037454
 40
1.0
 40
1.0
 40
1.0
 40
1.0
 10
78.22646566354058
 20
176.7456840175416
 30
0.0
 10
78.15293201366057
 20
176.8130992403166
 30
0.0
 10
77.86742137169361
 20
177.0748537372603
 30
0.0
 10
77.57079308657799
 20
177.1422372250527
 30
0.0
 10
77.35056181528977
 20
177.1922660049266
 30
0.0
  0
LINE
  5
189
330
1F
100
AcDbEntity
  8
0
  6
Continuous
 62
     7
370
    15
100
AcDbLine
 10
77.3505618153
 20
177.1922660049
 30
0.0
 11
81.0465582923
 21
177.1922660049
 31
0.0
  0
SPLINE
  5
18A
330
1F
100
AcDbEntity
  8
0
  6
Continuous
 62
     7
370
    15
100
AcDbSpline
210
0.0
220
0.0
230
1.0
 70
     8
 71
     3
 72
     9
 73
     5
 74
     0
 42
0.00000001
 43
0.00000001
 12
1.0
 22
0.0
 32
0.0
 13
1.0
 23
0.0
 33
0.0
 40
0.0
 40
0.0
 40
0.0
 40
0.0
 40
0.0702005767034029
 40
1.0
 40
1.0
 40
1.0
 40
1.0
 10
85.81083970143617
 20
177.1922660049272
 30
0.0
 10
85.85692847917758
 20
177.1918198886597
 30
0.0
 10
86.51345838114827
 20
177.1854650082792
 30
0.0
 10
87.15682581393102
 20
176.9575755263836
 30
0.0
 10
87.75502848190037
 20
176.7456840175419
 30
0.0
  0
LINE
  5
18B
330
1F
100
AcDbEntity
  8
0
  6
Continuous
 62
     7
370
    15
100
AcDbLine
 10
87.7550284819
 20
176.7456840175
 30
0.0
 11
87.7550284819
 21
176.3922660049
 31
0.0
  0
SPLINE
  5
18C
330
1F
100
AcDbEntity
  8
0
  6
Continuous
 62
     7
370
    15
100
AcDbSpline
210
0.0
220
0.0
230
1.0
 70
     8
 71
     3
 72
     9
 73
     5
 74
     0
 42
0.00000001
 43
0.00000001
 12
1.0
 22
0.0
 32
0.0
 13
1.0
 23
0.0
 33
0.0
 40
0.0
 40
0.0
 40
0.0
 40
0.0
 40
0.5278771639352908
 40
1.0
 40
1.0
 40
1.0
 40
1.0
 10
85.81083970143617
 20
171.9922660049272
 30
0.0
 10
85.85706944553867
 20
171.9903395476152
 30
0.0
 10
85.94464615326719
 20
171.9866901052
 30
0.0
 10
86.03047242928352
 20
172.0125017909575
 30
0.0
 10
86.07099297412529
 20
172.0246880772409
 30
0.0
  0
LINE
  5
18D
330
1F
100
AcDbEntity
  8
0
  6
Continuous
 62
     7
370
    15
100
AcDbLine
 10
76.8785813501
 20
172.1783448535
 30
0.0
 11
76.474657967
 21
172.4388479923
 31
0.0
  0
LINE
  5
18E
330
1F
100
AcDbEntity
  8
0
  6
Continuous
 62
     7
370
    15
100
AcDbLine
 10
76.474657967
 20
176.7456840175
 30
0.0
 11
76.474657967
 21
172.4388479923
 31
0.0
  0
SPLINE
  5
18F
330
1F
100
AcDbEntity
  8
0
  6
Continuous
 62
     7
370
    15
100
AcDbSpline
210
0.0
220
0.0
230
1.0
 70
     8
 71
     3
 72
     9
 73
     5
 74
     0
 42
0.00000001
 43
0.00000001
 12
1.0
 22
0.0
 32
0.0
 13
1.0
 23
0.0
 33
0.0
 40
0.0
 40
0.0
 40
0.0
 40
0.0
 40
0.2686336050555346
 40
1.0
 40
1.0
 40
1.0
 40
1.0
 10
77.35056181528977
 20
177.1922660049266
 30
0.0
 10
77.2709176460828
 20
177.1856370523421
 30
0.0
 10
76.97443884481558
 20
177.1609604949058
 30
0.0
 10
76.68577615664273
 20
176.9211057313057
 30
0.0
 10
76.47465796703895
 20
176.7456840175414
 30
0.0
  0
SPLINE
  5
190
330
1F
100
AcDbEntity
  8
0
  6
Continuous
 62
     7
370
    15
100
AcDbSpline
210
0.0
220
0.0
230
1.0
 70
     8
 71
     3
 72
     9
 73
     5
 74
     0
 42
0.00000001
 43
0.00000001
 12
1.0
 22
0.0
 32
0.0
 13
1.0
 23
0.0
 33
0.0
 40
0.0
 40
0.0
 40
0.0
 40
0.0
 40
0.5569342110492639
 40
1.0
 40
1.0
 40
1.0
 40
1.0
 10
87.75502848190042
 20
176.745684017542
 30
0.0
 10
87.68178057938869
 20
176.8180949937862
 30
0.0
 10
87.55026073187638
 20
176.9481121031824
 30
0.0
 10
87.41359958779654
 20
176.9882433447988
 30
0.0
 10
87.35304971017594
 20
177.0060241250274
 30
0.0
  0
LINE
  5
191
330
1F
100
AcDbEntity
  8
0
  6
Continuous
 62
     7
370
    15
100
AcDbLine
 10
85.8108397014
 20
177.1922660049
 30
0.0
 11
87.1148432245
 21
177.1922660049
 31
0.0
  0
LINE
  5
192
330
1F
100
AcDbEntity
  8
0
  6
Continuous
 62
     7
370
    15
100
AcDbLine
 10
77.3505618153
 20
177.1922660049
 30
0.0
 11
77.1148432245
 21
177.1922660049
 31
0.0
  0
LINE
  5
193
330
1F
100
AcDbEntity
  8
0
  6
Continuous
 62
     7
370
    15
100
AcDbLine
 10
81.0383238124
 20
182.1956840175
 30
0.0
 11
83.7636106976
 21
182.6422660049
 31
0.0
  0
SPLINE
  5
194
330
1F
100
AcDbEntity
  8
0
  6
Continuous
 62
     7
370
    15
100
AcDbSpline
210
0.0
220
0.0
230
1.0
 70
     8
 71
     3
 72
     9
 73
     5
 74
     0
 42
0.00000001
 43
0.00000001
 12
1.0
 22
0.0
 32
0.0
 13
1.0
 23
0.0
 33
0.0
 40
0.0
 40
0.0
 40
0.0
 40
0.0
 40
0.0702005767034088
 40
1.0
 40
1.0
 40
1.0
 40
1.0
 10
83.76361069758597
 20
182.6422660049272
 30
0.0
 10
83.82821612211816
 20
182.6418198886597
 30
0.0
 10
84.74851375450231
 20
182.6354650082787
 30
0.0
 10
85.65036075852406
 20
182.4075755263835
 30
0.0
 10
86.48889758276518
 20
182.195684017542
 30
0.0
  0
LINE
  5
195
330
1F
100
AcDbEntity
  8
0
  6
Continuous
 62
     7
370
    15
100
AcDbLine
 10
86.4888975828
 20
182.1956840175
 30
0.0
 11
86.4888975828
 21
177.8888479923
 31
0.0
  0
SPLINE
  5
196
330
1F
100
AcDbEntity
  8
0
  6
Continuous
 62
     7
370
    15
100
AcDbSpline
210
0.0
220
0.0
230
1.0
 70
     8
 71
     3
 72
     9
 73
     5
 74
     0
 42
0.00000001
 43
0.00000001
 12
1.0
 22
0.0
 32
0.0
 13
1.0
 23
0.0
 33
0.0
 40
0.0
 40
0.0
 40
0.0
 40
0.0
 40
0.0702005767034051
 40
1.0
 40
1.0
 40
1.0
 40
1.0
 10
83.76361069758597
 20
177.4422660049272
 30
0.0
 10
83.82821612211822
 20
177.4427121211949
 30
0.0
 10
84.74851375450298
 20
177.4490670015757
 30
0.0
 10
85.65036075852444
 20
177.6769564834709
 30
0.0
 10
86.48889758276535
 20
177.8888479923123
 30
0.0
  0
LINE
  5
197
330
1F
100
AcDbEntity
  8
0
  6
Continuous
 62
     7
370
    15
100
AcDbLine
 10
81.0383238124
 20
177.8888479923
 30
0.0
 11
83.7636106976
 21
177.4422660049
 31
0.0
  0
LINE
  5
198
330
1F
100
AcDbEntity
  8
0
  6
Continuous
 62
     7
370
    15
100
AcDbLine
 10
81.0383238124
 20
182.1956840175
 30
0.0
 11
81.0383238124
 21
177.8888479923
 31
0.0
  0
SPLINE
  5
199
330
1F
100
AcDbEntity
  8
0
  6
Continuous
 62
     7
370
    15
100
AcDbSpline
210
0.0
220
0.0
230
1.0
 70
     8
 71
     3
 72
     9
 73
     5
 74
     0
 42
0.00000001
 43
0.00000001
 12
1.0
 22
0.0
 32
0.0
 13
1.0
 23
0.0
 33
0.0
 40
0.0
 40
0.0
 40
0.0
 40
0.0
 40
0.0702005767033403
 40
1.0
 40
1.0
 40
1.0
 40
1.0
 10
78.85129663325851
 20
177.442266004927
 30
0.0
 10
78.90314211790839
 20
177.4427121211945
 30
0.0
 10
79.6416757181238
 20
177.4490670015753
 30
0.0
 10
80.36540279432775
 20
177.6769564834707
 30
0.0
 10
81.03832381240639
 20
177.8888479923125
 30
0.0
  0
LINE
  5
19A
330
1F
100
AcDbEntity
  8
0
  6
Continuous
 62
     7
370
    15
100
AcDbLine
 10
83.7636106976
 20
177.4422660049
 30
0.0
 11
78.8512966333
 21
177.4422660049
 31
0.0
  0
SPLINE
  5
19B
330
1F
100
AcDbEntity
  8
0
  6
Continuous
 62
     7
370
    15
100
AcDbSpline
210
0.0
220
0.0
230
1.0
 70
     8
 71
     3
 72
     9
 73
     5
 74
     0
 42
0.00000001
 43
0.00000001
 12
1.0
 22
0.0
 32
0.0
 13
1.0
 23
0.0
 33
0.0
 40
0.0
 40
0.0
 40
0.0
 40
0.0
 40
0.0702005767033169
 40
1.0
 40
1.0
 40
1.0
 40
1.0
 10
78.85129663325863
 20
182.642266004927
 30
0.0
 10
78.9031421179085
 20
182.6418198886593
 30
0.0
 10
79.64167571812347
 20
182.635465008279
 30
0.0
 10
80.36540279432764
 20
182.4075755263837
 30
0.0
 10
81.03832381240645
 20
182.195684017542
 30
0.0
  0
LINE
  5
19C
330
1F
100
AcDbEntity
  8
0
  6
Continuous
 62
     7
370
    15
100
AcDbLine
 10
76.6642694541
 20
182.1956840175
 30
0.0
 11
78.8512966333
 21
182.6422660049
 31
0.0
  0
LINE
  5
19D
330
1F
100
AcDbEntity
  8
0
  6
Continuous
 62
     7
370
    15
100
AcDbLine
 10
76.6642694541
 20
177.8888479923
 30
0.0
 11
78.8512966333
 21
177.4422660049
 31
0.0
  0
LINE
  5
19E
330
1F
100
AcDbEntity
  8
0
  6
Continuous
 62
     7
370
    15
100
AcDbLine
 10
76.6642694541
 20
182.1956840175
 30
0.0
 11
76.6642694541
 21
177.8888479923
 31
0.0
  0
SPLINE
  5
19F
330
1F
100
AcDbEntity
  8
0
  6
Continuous
 62
     7
370
    15
100
AcDbSpline
210
0.0
220
0.0
230
1.0
 70
     8
 71
     3
 72
     9
 73
     5
 74
     0
 42
0.00000001
 43
0.00000001
 12
1.0
 22
0.0
 32
0.0
 13
1.0
 23
0.0
 33
0.0
 40
0.0
 40
0.0
 40
0.0
 40
0.0
 40
0.2575513451038618
 40
1.0
 40
1.0
 40
1.0
 40
1.0
 10
86.48889758276518
 20
182.195684017542
 30
0.0
 10
86.53408542027391
 20
182.2630992403169
 30
0.0
 10
86.70953718306879
 20
182.5248537372608
 30
0.0
 10
86.89182095070575
 20
182.5922372250534
 30
0.0
 10
87.02715728879723
 20
182.6422660049272
 30
0.0
  0
SPLINE
  5
1A0
330
1F
100
AcDbEntity
  8
0
  6
Continuous
 62
     7
370
    15
100
AcDbSpline
210
0.0
220
0.0
230
1.0
 70
     8
 71
     3
 72
     9
 73
     5
 74
     0
 42
0.00000001
 43
0.00000001
 12
1.0
 22
0.0
 32
0.0
 13
1.0
 23
0.0
 33
0.0
 40
0.0
 40
0.0
 40
0.0
 40
0.0
 40
0.2575513451038455
 40
1.0
 40
1.0
 40
1.0
 40
1.0
 10
86.48889758276529
 20
177.8888479923123
 30
0.0
 10
86.5340854202738
 20
177.8214327695374
 30
0.0
 10
86.70953718306795
 20
177.5596782725935
 30
0.0
 10
86.89182095070541
 20
177.4922947848011
 30
0.0
 10
87.02715728879707
 20
177.4422660049272
 30
0.0
  0
LINE
  5
1A1
330
1F
100
AcDbEntity
  8
0
  6
Continuous
 62
     7
370
    15
100
AcDbLine
 10
87.0271572888
 20
177.4422660049
 30
0.0
 11
83.7636106976
 21
177.4422660049
 31
0.0
  0
SPLINE
  5
1A2
330
1F
100
AcDbEntity
  8
0
  6
Continuous
 62
     7
370
    15
100
AcDbSpline
210
0.0
220
0.0
230
1.0
 70
     8
 71
     3
 72
     9
 73
     5
 74
     0
 42
0.00000001
 43
0.00000001
 12
1.0
 22
0.0
 32
0.0
 13
1.0
 23
0.0
 33
0.0
 40
0.0
 40
0.0
 40
0.0
 40
0.0
 40
0.2575513451037493
 40
1.0
 40
1.0
 40
1.0
 40
1.0
 10
76.66426945411087
 20
177.888847992312
 30
0.0
 10
76.70945729161926
 20
177.8214327695371
 30
0.0
 10
76.88490905441337
 20
177.5596782725932
 30
0.0
 10
77.06719282205054
 20
177.4922947848004
 30
0.0
 10
77.2025291601423
 20
177.4422660049266
 30
0.0
  0
LINE
  5
1A3
330
1F
100
AcDbEntity
  8
0
  6
Continuous
 62
     7
370
    15
100
AcDbLine
 10
78.8512966333
 20
177.4422660049
 30
0.0
 11
77.1228660119
 21
177.4422660049
 31
0.0
  0
SPLINE
  5
1A4
330
1F
100
AcDbEntity
  8
0
  6
Continuous
 62
     7
370
    15
100
AcDbSpline
210
0.0
220
0.0
230
1.0
 70
     8
 71
     3
 72
     9
 73
     5
 74
     0
 42
0.00000001
 43
0.00000001
 12
1.0
 22
0.0
 32
0.0
 13
1.0
 23
0.0
 33
0.0
 40
0.0
 40
0.0
 40
0.0
 40
0.0
 40
0.3767353991795792
 40
1.0
 40
1.0
 40
1.0
 40
1.0
 10
76.66426945411064
 20
182.1956840175417
 30
0.0
 10
76.70938738651506
 20
182.2650880453531
 30
0.0
 10
76.82914765460386
 20
182.4493129097075
 30
0.0
 10
76.95357855370038
 20
182.5006579996498
 30
0.0
 10
77.03113192835553
 20
182.5326595766367
 30
0.0
  0
SPLINE
  5
1A5
330
1F
100
AcDbEntity
  8
0
  6
Continuous
 62
     7
370
    15
100
AcDbSpline
210
0.0
220
0.0
230
1.0
 70
     8
 71
     3
 72
     9
 73
     5
 74
     0
 42
0.00000001
 43
0.00000001
 12
1.0
 22
0.0
 32
0.0
 13
1.0
 23
0.0
 33
0.0
 40
0.0
 40
0.0
 40
0.0
 40
0.0
 40
0.2686336050555756
 40
1.0
 40
1.0
 40
1.0
 40
1.0
 10
87.02715728879723
 20
182.6422660049272
 30
0.0
 10
87.07610015757211
 20
182.6356370523428
 30
0.0
 10
87.25829206451851
 20
182.6109604949065
 30
0.0
 10
87.43568082013186
 20
182.3711057313064
 30
0.0
 10
87.56541699482861
 20
182.195684017542
 30
0.0
  0
LINE
  5
1A6
330
1F
100
AcDbEntity
  8
0
  6
Continuous
 62
     7
370
    15
100
AcDbLine
 10
87.5654169948
 20
182.1956840175
 30
0.0
 11
87.5654169948
 21
177.8888479923
 31
0.0
  0
SPLINE
  5
1A7
330
1F
100
AcDbEntity
  8
0
  6
Continuous
 62
     7
370
    15
100
AcDbSpline
210
0.0
220
0.0
230
1.0
 70
     8
 71
     3
 72
     9
 73
     5
 74
     0
 42
0.00000001
 43
0.00000001
 12
1.0
 22
0.0
 32
0.0
 13
1.0
 23
0.0
 33
0.0
 40
0.0
 40
0.0
 40
0.0
 40
0.0
 40
0.2686336050555991
 40
1.0
 40
1.0
 40
1.0
 40
1.0
 10
87.02715728879707
 20
177.4422660049272
 30
0.0
 10
87.07610015757211
 20
177.4488949575117
 30
0.0
 10
87.25829206451851
 20
177.4735715149481
 30
0.0
 10
87.43568082013209
 20
177.7134262785481
 30
0.0
 10
87.56541699482878
 20
177.8888479923125
 30
0.0
  0
LINE
  5
1A8
330
1F
100
AcDbEntity
  8
0
  6
Continuous
 62
     7
370
    15
100
AcDbLine
 10
87.5654169948
 20
177.8888479923
 30
0.0
 11
86.628107758
 21
177.6974532873
 31
0.0
  0
LINE
  5
1A9
330
1F
100
AcDbEntity
  8
0
  6
Continuous
 62
     7
370
    15
100
AcDbLine
 10
87.5654169948
 20
182.1956840175
 30
0.0
 11
85.3783898157
 21
182.6422660049
 31
0.0
  0
LINE
  5
1AA
330
1F
100
AcDbEntity
  8
0
  6
Continuous
 62
     7
370
    15
100
AcDbLine
 10
76.0148432245
 20
183.1922660049
 30
0.0
 11
88.2148432245
 21
183.1922660049
 31
0.0
  0
LINE
  5
1AB
330
1F
100
AcDbEntity
  8
0
  6
Continuous
 62
     7
370
    15
100
AcDbLine
 10
76.0148432245
 20
182.6422660049
 30
0.0
 11
88.2148432245
 21
182.6422660049
 31
0.0
  0
LINE
  5
1AC
330
1F
100
AcDbEntity
  8
0
  6
Continuous
 62
     7
370
    15
100
AcDbLine
 10
90.573735915
 20
913.5922660049
 30
0.0
 11
90.073735915
 21
914.0922660049
 31
0.0
  0
ARC
  5
1AD
330
1F
100
AcDbEntity
  8
0
  6
Continuous
 62
     7
370
    15
100
AcDbCircle
 10
93.073735915
 20
914.0922660049
 30
0.0
 40
0.5
100
AcDbArc
 50
270.0
 51
0.0
  0
LINE
  5
1AE
330
1F
100
AcDbEntity
  8
0
  6
Continuous
 62
     7
370
    15
100
AcDbLine
 10
93.573735915
 20
930.0922660049
 30
0.0
 11
93.573735915
 21
914.0922660049
 31
0.0
  0
ARC
  5
1AF
330
1F
100
AcDbEntity
  8
0
  6
Continuous
 62
     7
370
    15
100
AcDbCircle
 10
92.573735915
 20
930.0922660049
 30
0.0
 40
1.0
100
AcDbArc
 50
0.0
 51
90.0
  0
LINE
  5
1B0
330
1F
100
AcDbEntity
  8
0
  6
Continuous
 62
     7
370
    15
100
AcDbLine
 10
75.573735915
 20
931.0922660049
 30
0.0
 11
92.573735915
 21
931.0922660049
 31
0.0
  0
LINE
  5
1B1
330
1F
100
AcDbEntity
  8
0
  6
Continuous
 62
     7
370
    15
100
AcDbLine
 10
74.573735915
 20
927.3422660049
 30
0.0
 11
74.573735915
 21
930.0922660049
 31
0.0
  0
ARC
  5
1B2
330
1F
100
AcDbEntity
  8
0
  6
Continuous
 62
     7
370
    15
100
AcDbCircle
 10
75.573735915
 20
930.0922660049
 30
0.0
 40
1.000000000000014
100
AcDbArc
 50
90.0
 51
180.0
  0
LINE
  5
1B3
330
1F
100
AcDbEntity
  8
0
  6
Continuous
 62
     7
370
    15
100
AcDbLine
 10
67.3887738655
 20
965.1390357373
 30
0.0
 11
70.323735915
 21
931.5922660049
 31
0.0
  0
LINE
  5
1B4
330
1F
100
AcDbEntity
  8
0
  6
Continuous
 62
     7
370
    15
100
AcDbLine
 10
4.323735915
 20
931.5922660049
 30
0.0
 11
8.4921965656
 21
979.2379892634
 31
0.0
  0
LINE
  5
1B5
330
1F
100
AcDbEntity
  8
0
  6
Continuous
 62
     7
370
    15
100
AcDbLine
 10
10.9819657361
 20
981.0008441001
 30
0.0
 11
65.8937642436
 21
966.9018905741
 31
0.0
  0
ARC
  5
1B6
330
1F
100
AcDbEntity
  8
0
  6
Continuous
 62
     7
370
    15
100
AcDbCircle
 10
65.3963844693
 20
964.9647242518
 30
0.0
 40
2.00000000000002
100
AcDbArc
 50
5.0
 51
75.6
  0
ARC
  5
1B7
330
1F
100
AcDbEntity
  8
0
  6
Continuous
 62
     7
370
    15
100
AcDbCircle
 10
10.4845859618
 20
979.0636777779
 30
0.0
 40
1.999999999999967
100
AcDbArc
 50
75.6
 51
175.0
  0
LINE
  5
1B8
330
1F
100
AcDbEntity
  8
0
  6
Continuous
 62
     7
370
    15
100
AcDbLine
 10
864.2734025896
 20
808.639310115
 30
0.0
 11
886.11836932
 21
761.7926277831
 31
0.0
  0
SPLINE
  5
1B9
330
1F
100
AcDbEntity
  8
0
  6
Continuous
 62
     7
370
    15
100
AcDbSpline
210
0.0
220
0.0
230
1.0
 70
    24
 71
     3
 72
    11
 73
     7
 74
     0
 42
0.00000001
 43
0.00000001
 12
1.0
 22
0.0
 32
0.0
 13
1.0
 23
0.0
 33
0.0
 40
0.0
 40
0.0
 40
0.0
 40
0.0
 40
0.1499516226907081
 40
0.433174957825375
 40
0.7165923401616995
 40
0.9999999999999999
 40
0.9999999999999999
 40
0.9999999999999999
 40
0.9999999999999999
 10
887.6855391412698
 20
758.4318212558912
 30
0.0
 10
887.585415815775
 20
758.6465364203193
 30
0.0
 10
887.2961830851095
 20
759.2667980128693
 30
0.0
 10
886.8398449790648
 20
760.2454182393757
 30
0.0
 10
886.3820784935119
 20
761.2271016356193
 30
0.0
 10
886.2062713726859
 20
761.6041212229059
 30
0.0
 10
886.1183693200437
 20
761.7926277831245
 30
0.0
  0
SPLINE
  5
1BA
330
1F
100
AcDbEntity
  8
0
  6
Continuous
 62
     7
370
    15
100
AcDbSpline
210
0.0
220
0.0
230
1.0
 70
    24
 71
     3
 72
    11
 73
     7
 74
     0
 42
0.00000001
 43
0.00000001
 12
1.0
 22
0.0
 32
0.0
 13
1.0
 23
0.0
 33
0.0
 40
0.0
 40
0.0
 40
0.0
 40
0.0
 40
0.149951595075685
 40
0.4331749432232026
 40
0.7165923323728176
 40
1.0
 40
1.0
 40
1.0
 40
1.0
 10
864.2734025895527
 20
808.6393101149624
 30
0.0
 10
864.2312440741431
 20
808.7297193430168
 30
0.0
 10
864.1094580237201
 20
808.9908903709705
 30
0.0
 10
863.7795215148182
 20
809.6984414976387
 30
0.0
 10
863.2761934607576
 20
810.7778319928591
 30
0.0
 10
862.896217493502
 20
811.592693084266
 30
0.0
 10
862.7062327683266
 20
812.0001166421957
 30
0.0
  0
LINE
  5
1BB
330
1F
100
AcDbEntity
  8
0
  6
Continuous
 62
     7
370
    15
100
AcDbLine
 10
849.5819873468
 20
828.4378838449
 30
0.0
 11
849.9976620684
 21
828.6058273338
 31
0.0
  0
SPLINE
  5
1BC
330
1F
100
AcDbEntity
  8
0
  6
Continuous
 62
     7
370
    15
100
AcDbSpline
210
0.0
220
0.0
230
1.0
 70
     8
 71
     3
 72
    14
 73
    10
 74
     0
 42
0.00000001
 43
0.00000001
 12
1.0
 22
0.0
 32
0.0
 13
1.0
 23
0.0
 33
0.0
 40
0.0
 40
0.0
 40
0.0
 40
0.0
 40
0.0000064140457922
 40
0.0730558909548048
 40
0.2154935957733473
 40
0.4037789030075405
 40
0.5887468703998088
 40
0.8882363243876868
 40
1.0
 40
1.0
 40
1.0
 40
1.0
 10
849.997662068389
 20
828.6058273338099
 30
0.0
 10
849.9976806083587
 20
828.6058348243118
 30
0.0
 10
850.2088506008945
 20
828.691151534359
 30
0.0
 10
850.8598655367667
 20
828.8772936572803
 30
0.0
 10
852.1377964390315
 20
828.8831589569755
 30
0.0
 10
853.7094084124857
 20
828.409120561744
 30
0.0
 10
855.4010795055167
 20
827.1022886818566
 30
0.0
 10
856.3938970178843
 20
825.4907032470887
 30
0.0
 10
856.9490244307309
 20
824.3366042122977
 30
0.0
 10
857.0998879151092
 20
824.0229619786828
 30
0.0
  0
SPLINE
  5
1BD
330
1F
100
AcDbEntity
  8
0
  6
Continuous
 62
     7
370
    15
100
AcDbSpline
210
0.0
220
0.0
230
1.0
 70
     8
 71
     3
 72
    15
 73
    11
 74
     0
 42
0.00000001
 43
0.00000001
 12
1.0
 22
0.0
 32
0.0
 13
1.0
 23
0.0
 33
0.0
 40
0.0
 40
0.0
 40
0.0
 40
0.0
 40
0.0125258353877939
 40
0.2274813526119254
 40
0.4424404199769156
 40
0.4999991763207025
 40
0.7148755009569736
 40
0.9297495265588387
 40
0.9874741646146636
 40
1.0
 40
1.0
 40
1.0
 40
1.0
 10
850.4260704161737
 20
826.6277543824958
 30
0.0
 10
850.4208677893079
 20
826.6397118204247
 30
0.0
 10
850.32638302562
 20
826.8568705223895
 30
0.0
 10
850.139892172829
 20
827.2798845901812
 30
0.0
 10
849.955160263435
 20
827.6876024019967
 30
0.0
 10
849.7975637282804
 20
828.027563808751
 30
0.0
 10
849.6677413761553
 20
828.2984256042334
 30
0.0
 10
849.5992884799824
 20
828.4231878658458
 30
0.0
 10
849.5842953688726
 20
828.4382375148112
 30
0.0
 10
849.5823407698697
 20
828.437939047407
 30
0.0
 10
849.5819922599713
 20
828.4378858299212
 30
0.0
  0
SPLINE
  5
1BE
330
1F
100
AcDbEntity
  8
0
  6
Continuous
 62
     7
370
    15
100
AcDbSpline
210
0.0
220
0.0
230
1.0
 70
     8
 71
     3
 72
     9
 73
     5
 74
     0
 42
0.00000001
 43
0.00000001
 12
1.0
 22
0.0
 32
0.0
 13
1.0
 23
0.0
 33
0.0
 40
0.0
 40
0.0
 40
0.0
 40
0.0
 40
0.0000220488581404
 40
1.0
 40
1.0
 40
1.0
 40
1.0
 10
899.631157920598
 20
732.8143591138545
 30
0.0
 10
899.631166372959
 20
732.8143409876961
 30
0.0
 10
900.0145132581779
 20
731.9922504190482
 30
0.0
 10
900.3054513192208
 20
731.1311561763532
 30
0.0
 10
900.5963829654117
 20
730.270080919803
 30
0.0
  0
LINE
  5
1BF
330
1F
100
AcDbEntity
  8
0
  6
Continuous
 62
     7
370
    15
100
AcDbLine
 10
849.5819873468
 20
828.4378838449
 30
0.0
 11
849.5334339326
 21
828.4182669922
 31
0.0
  0
LINE
  5
1C0
330
1F
100
AcDbEntity
  8
0
  6
Continuous
 62
     7
370
    15
100
AcDbLine
 10
887.6855391413
 20
758.4318212559
 30
0.0
 11
899.6311579206
 21
732.8143591139
 31
0.0
  0
LINE
  5
1C1
330
1F
100
AcDbEntity
  8
0
  6
Continuous
 62
     7
370
    15
100
AcDbLine
 10
857.0998879151
 20
824.0229619787
 30
0.0
 11
862.7062327683
 21
812.0001166422
 31
0.0
  0
SPLINE
  5
1C2
330
1F
100
AcDbEntity
  8
0
  6
Continuous
 62
     7
370
    15
100
AcDbSpline
210
0.0
220
0.0
230
1.0
 70
     8
 71
     3
 72
    20
 73
    16
 74
     0
 42
0.00000001
 43
0.00000001
 12
1.0
 22
0.0
 32
0.0
 13
1.0
 23
0.0
 33
0.0
 40
0.0
 40
0.0
 40
0.0
 40
0.0
 40
0.2070577373168141
 40
0.420377050276054
 40
0.7011163025568201
 40
0.8834527988431042
 40
0.9282286404934965
 40
0.9524788585968947
 40
0.967501820722137
 40
0.9773827146382278
 40
0.9840938553685366
 40
0.9887393639099438
 40
0.9919933949590769
 40
0.9977340800222533
 40
0.9999999999999999
 40
0.9999999999999999
 40
0.9999999999999999
 40
0.9999999999999999
 10
900.5963829654117
 20
730.270080919803
 30
0.0
 10
900.701248299025
 20
729.7809664475429
 30
0.0
 10
900.9141501697391
 20
728.7879463278387
 30
0.0
 10
900.7157188611145
 20
727.0791888409983
 30
0.0
 10
900.0816319671158
 20
725.7823750193726
 30
0.0
 10
899.4108784515093
 20
725.0146878924841
 30
0.0
 10
899.0005267010084
 20
724.6931617757758
 30
0.0
 10
898.8550437015765
 20
724.5930662966032
 30
0.0
 10
898.7671475611614
 20
724.5371947136548
 30
0.0
 10
898.7094727790035
 20
724.5024229804847
 30
0.0
 10
898.6702214803865
 20
724.4796072464339
 30
0.0
 10
898.6429814514543
 20
724.4641727504343
 30
0.0
 10
898.6173961021865
 20
724.4499394557763
 30
0.0
 10
898.5961387002124
 20
724.4383456886336
 30
0.0
 10
898.5809205242488
 20
724.4302270338316
 30
0.0
 10
898.5766136839882
 20
724.4279294030612
 30
0.0
  0
SPLINE
  5
1C3
330
1F
100
AcDbEntity
  8
0
  6
Continuous
 62
     7
370
    15
100
AcDbSpline
210
0.0
220
0.0
230
1.0
 70
     8
 71
     3
 72
    10
 73
     6
 74
     0
 42
0.00000001
 43
0.00000001
 12
1.0
 22
0.0
 32
0.0
 13
1.0
 23
0.0
 33
0.0
 40
0.0
 40
0.0
 40
0.0
 40
0.0
 40
0.4527378322259519
 40
0.9055954617464039
 40
1.0
 40
1.0
 40
1.0
 40
1.0
 10
900.7184647075965
 20
727.4731590199635
 30
0.0
 10
900.7260877544444
 20
727.5256584440027
 30
0.0
 10
900.7413358652469
 20
727.6306711837608
 30
0.0
 10
900.8646968825864
 20
728.1133400427402
 30
0.0
 10
900.8226763503768
 20
728.5897858231999
 30
0.0
 10
900.8154276692621
 20
728.6719742998675
 30
0.0
  0
SPLINE
  5
1C4
330
1F
100
AcDbEntity
  8
0
  6
Continuous
 62
     7
370
    15
100
AcDbSpline
210
0.0
220
0.0
230
1.0
 70
     8
 71
     3
 72
    12
 73
     8
 74
     0
 42
0.00000001
 43
0.00000001
 12
1.0
 22
0.0
 32
0.0
 13
1.0
 23
0.0
 33
0.0
 40
0.0
 40
0.0
 40
0.0
 40
0.0
 40
0.4616906276046063
 40
0.7307729957152305
 40
0.9175829515524275
 40
0.9719359527204036
 40
1.0
 40
1.0
 40
1.0
 40
1.0
 10
900.5753322210195
 20
730.3454667186023
 30
0.0
 10
900.5453184281278
 20
730.4540265586232
 30
0.0
 10
900.49781200709
 20
730.6258572061677
 30
0.0
 10
900.4261886265101
 20
730.849956200216
 30
0.0
 10
900.3846973976504
 20
730.9743249501269
 30
0.0
 10
900.3622101777956
 20
731.039996553129
 30
0.0
 10
900.3552659820461
 20
731.0600844574708
 30
0.0
 10
900.352901395574
 20
731.0669246429399
 30
0.0
  0
LINE
  5
1C5
330
1F
100
AcDbEntity
  8
0
  6
Continuous
 62
     7
370
    15
100
AcDbLine
 10
855.730048075
 20
826.2841063267
 30
0.0
 11
855.2844353515
 21
827.0189953445
 31
0.0
  0
LINE
  5
1C6
330
1F
100
AcDbEntity
  8
0
  6
Continuous
 62
     7
370
    15
100
AcDbLine
 10
899.6773396677
 20
732.7148136532
 30
0.0
 11
899.6353057103
 21
732.8054601419
 31
0.0
  0
SPLINE
  5
1C7
330
1F
100
AcDbEntity
  8
0
  6
Continuous
 62
     7
370
    15
100
AcDbSpline
210
0.0
220
0.0
230
1.0
 70
     8
 71
     3
 72
     9
 73
     5
 74
     0
 42
0.00000001
 43
0.00000001
 12
1.0
 22
0.0
 32
0.0
 13
1.0
 23
0.0
 33
0.0
 40
0.0
 40
0.0
 40
0.0
 40
0.0
 40
0.5000138394956776
 40
1.0
 40
1.0
 40
1.0
 40
1.0
 10
900.1451465077712
 20
731.6271783721924
 30
0.0
 10
900.0771770953332
 20
731.795895367492
 30
0.0
 10
899.9412420330029
 20
732.1333200185175
 30
0.0
 10
899.7653054995401
 20
732.520986018398
 30
0.0
 10
899.6773396676816
 20
732.7148136532364
 30
0.0
  0
SPLINE
  5
1C8
330
1F
100
AcDbEntity
  8
0
  6
Continuous
 62
     7
370
    15
100
AcDbSpline
210
0.0
220
0.0
230
1.0
 70
     8
 71
     3
 72
    13
 73
     9
 74
     0
 42
0.00000001
 43
0.00000001
 12
1.0
 22
0.0
 32
0.0
 13
1.0
 23
0.0
 33
0.0
 40
0.0
 40
0.0
 40
0.0
 40
0.0
 40
0.1254648118065544
 40
0.2502435788816346
 40
0.3760698054095775
 40
0.5019139201694182
 40
0.7508310514861705
 40
1.0
 40
1.0
 40
1.0
 40
1.0
 10
855.2844353511431
 20
827.0189953449645
 30
0.0
 10
855.196758378853
 20
827.1162676233297
 30
0.0
 10
855.0218838541521
 20
827.310280292807
 30
0.0
 10
854.7482018219712
 20
827.5696804300562
 30
0.0
 10
854.4812011949456
 20
827.7931525984502
 30
0.0
 10
854.1563421792359
 20
828.0316263524826
 30
0.0
 10
853.823655839494
 20
828.229187187917
 30
0.0
 10
853.7707411495595
 20
828.2561513881308
 30
0.0
 10
853.744270428562
 20
828.2696403043782
 30
0.0
  0
SPLINE
  5
1C9
330
1F
100
AcDbEntity
  8
0
  6
Continuous
 62
     7
370
    15
100
AcDbSpline
210
0.0
220
0.0
230
1.0
 70
     8
 71
     3
 72
     9
 73
     5
 74
     0
 42
0.00000001
 43
0.00000001
 12
1.0
 22
0.0
 32
0.0
 13
1.0
 23
0.0
 33
0.0
 40
0.0
 40
0.0
 40
0.0
 40
0.0
 40
0.7838918077705064
 40
1.0
 40
1.0
 40
1.0
 40
1.0
 10
900.8346002054277
 20
728.4642954036912
 30
0.0
 10
900.8408145913982
 20
728.4818732381633
 30
0.0
 10
900.8487421981279
 20
728.5042970398891
 30
0.0
 10
900.8255546831567
 20
728.7948105656978
 30
0.0
 10
900.8205436712141
 20
728.8575929185787
 30
0.0
  0
SPLINE
  5
1CA
330
1F
100
AcDbEntity
  8
0
  6
Continuous
 62
     7
370
    15
100
AcDbSpline
210
0.0
220
0.0
230
1.0
 70
     8
 71
     3
 72
     9
 73
     5
 74
     0
 42
0.00000001
 43
0.00000001
 12
1.0
 22
0.0
 32
0.0
 13
1.0
 23
0.0
 33
0.0
 40
0.0
 40
0.0
 40
0.0
 40
0.0
 40
0.0370163330246635
 40
1.0
 40
1.0
 40
1.0
 40
1.0
 10
900.5883396086978
 20
730.291282749578
 30
0.0
 10
900.5857763314765
 20
730.3041581522616
 30
0.0
 10
900.5165291367418
 20
730.6519884647629
 30
0.0
 10
900.3273362080291
 20
731.148778083462
 30
0.0
 10
900.1451465077712
 20
731.6271783721924
 30
0.0
  0
LINE
  5
1CB
330
1F
100
AcDbEntity
  8
0
  6
Continuous
 62
     7
370
    15
100
AcDbLine
 10
900.3529013958
 20
731.0669246424
 30
0.0
 11
900.1837972412
 21
731.512020909
 31
0.0
  0
LINE
  5
1CC
330
1F
100
AcDbEntity
  8
0
  6
Continuous
 62
     7
370
    15
100
AcDbLine
 10
890.7435950354
 20
756.6062023938
 30
0.0
 11
863.2734080223
 21
815.5162085512
 31
0.0
  0
LINE
  5
1CD
330
1F
100
AcDbEntity
  8
0
  6
Continuous
 62
     7
370
    15
100
AcDbLine
 10
876.0556202843
 20
811.7666817275
 30
0.0
 11
874.0269589396
 21
816.1171600205
 31
0.0
  0
LINE
  5
1CE
330
1F
100
AcDbEntity
  8
0
  6
Continuous
 62
     7
370
    15
100
AcDbLine
 10
898.1161998588
 20
764.4576161594
 30
0.0
 11
896.0875385142
 21
768.8080944524
 31
0.0
  0
LINE
  5
1CF
330
1F
100
AcDbEntity
  8
0
  6
Continuous
 62
     7
370
    15
100
AcDbLine
 10
876.8308623751
 20
810.1041696986
 30
0.0
 11
895.3122964234
 21
770.4706064812
 31
0.0
  0
SPLINE
  5
1D0
330
1F
100
AcDbEntity
  8
0
  6
Continuous
 62
     7
370
    15
100
AcDbSpline
210
0.0
220
0.0
230
1.0
 70
     8
 71
     3
 72
    12
 73
     8
 74
     0
 42
0.00000001
 43
0.00000001
 12
1.0
 22
0.0
 32
0.0
 13
1.0
 23
0.0
 33
0.0
 40
0.0
 40
0.0
 40
0.0
 40
0.0
 40
0.0304717459459226
 40
0.0888135668586111
 40
0.3925556175487167
 40
0.6962774394173084
 40
1.0
 40
1.0
 40
1.0
 40
1.0
 10
896.0857532080553
 20
769.8925916219215
 30
0.0
 10
896.0904558582686
 20
769.8830856109078
 30
0.0
 10
896.1041622976657
 20
769.8553791990004
 30
0.0
 10
896.1589915990797
 20
769.7286344213776
 30
0.0
 10
896.2160824765825
 20
769.4904878063556
 30
0.0
 10
896.2075230843192
 20
769.1453048271678
 30
0.0
 10
896.1276026739865
 20
768.9409483134599
 30
0.0
 10
896.0876424202245
 20
768.8387699323468
 30
0.0
  0
SPLINE
  5
1D1
330
1F
100
AcDbEntity
  8
0
  6
Continuous
 62
     7
370
    15
100
AcDbSpline
210
0.0
220
0.0
230
1.0
 70
     8
 71
     3
 72
    10
 73
     6
 74
     0
 42
0.00000001
 43
0.00000001
 12
1.0
 22
0.0
 32
0.0
 13
1.0
 23
0.0
 33
0.0
 40
0.0
 40
0.0
 40
0.0
 40
0.0
 40
0.2117958997122082
 40
0.4880069094707171
 40
1.0
 40
1.0
 40
1.0
 40
1.0
 10
896.0876424202245
 20
768.8387699323468
 30
0.0
 10
896.0865274163516
 20
768.8360297136009
 30
0.0
 10
896.0839582939337
 20
768.8297158723826
 30
0.0
 10
896.0835543145795
 20
768.8185493142234
 30
0.0
 10
896.0859696116519
 20
768.8122113794543
 30
0.0
 10
896.0875385141889
 20
768.8080944523681
 30
0.0
  0
SPLINE
  5
1D2
330
1F
100
AcDbEntity
  8
0
  6
Continuous
 62
     7
370
    15
100
AcDbSpline
210
0.0
220
0.0
230
1.0
 70
     8
 71
     3
 72
    12
 73
     8
 74
     0
 42
0.00000001
 43
0.00000001
 12
1.0
 22
0.0
 32
0.0
 13
1.0
 23
0.0
 33
0.0
 40
0.0
 40
0.0
 40
0.0
 40
0.0
 40
0.0304717459516284
 40
0.0888135668586142
 40
0.3925556175488016
 40
0.6962774394174368
 40
1.0
 40
1.0
 40
1.0
 40
1.0
 10
876.88524574193
 20
811.068212760321
 30
0.0
 10
876.8809865203051
 20
811.0779255454829
 30
0.0
 10
876.86857250684
 20
811.1062346254988
 30
0.0
 10
876.8067239698531
 20
811.2297062798256
 30
0.0
 10
876.6609903874455
 20
811.4265181227029
 30
0.0
 10
876.3910630130887
 20
811.6418405899227
 30
0.0
 10
876.1831449918245
 20
811.7119758386655
 30
0.0
 10
876.0791858547677
 20
811.7470435056828
 30
0.0
  0
SPLINE
  5
1D3
330
1F
100
AcDbEntity
  8
0
  6
Continuous
 62
     7
370
    15
100
AcDbSpline
210
0.0
220
0.0
230
1.0
 70
     8
 71
     3
 72
    11
 73
     7
 74
     0
 42
0.00000001
 43
0.00000001
 12
1.0
 22
0.0
 32
0.0
 13
1.0
 23
0.0
 33
0.0
 40
0.0
 40
0.0
 40
0.0
 40
0.0
 40
0.3704320937871786
 40
0.7442498469279888
 40
0.9442480537676807
 40
1.0
 40
1.0
 40
1.0
 40
1.0
 10
876.0556202842782
 20
811.7666817274933
 30
0.0
 10
876.0571098504381
 20
811.7638946639362
 30
0.0
 10
876.0601025970305
 20
811.7582950637378
 30
0.0
 10
876.0673697773514
 20
811.7515931721919
 30
0.0
 10
876.0748928522181
 20
811.7481782772369
 30
0.0
 10
876.0784175028116
 20
811.7472466045472
 30
0.0
 10
876.0791858547676
 20
811.7470435056828
 30
0.0
  0
SPLINE
  5
1D4
330
1F
100
AcDbEntity
  8
0
  6
Continuous
 62
     7
370
    15
100
AcDbSpline
210
0.0
220
0.0
230
1.0
 70
     8
 71
     3
 72
    12
 73
     8
 74
     0
 42
0.00000001
 43
0.00000001
 12
1.0
 22
0.0
 32
0.0
 13
1.0
 23
0.0
 33
0.0
 40
0.0
 40
0.0
 40
0.0
 40
0.0
 40
0.2238925571849915
 40
0.447784898419987
 40
0.6716824862032371
 40
0.8955821585469531
 40
1.0
 40
1.0
 40
1.0
 40
1.0
 10
874.7607745226629
 20
816.125914589398
 30
0.0
 10
874.7329067615319
 20
816.125579095645
 30
0.0
 10
874.6771712661492
 20
816.1249081084624
 30
0.0
 10
874.6052098001222
 20
816.1243046960727
 30
0.0
 10
874.552817332492
 20
816.1239760052684
 30
0.0
 10
874.5294819882483
 20
816.1238818167866
 30
0.0
 10
874.5275333273172
 20
816.1238918690851
 30
0.0
 10
874.5269135767418
 20
816.1238950661102
 30
0.0
  0
LINE
  5
1D5
330
1F
100
AcDbEntity
  8
0
  6
Continuous
 62
     7
370
    15
100
AcDbLine
 10
874.7607745227
 20
816.1259145894
 30
0.0
 11
893.8556050485
 21
816.3340021311
 31
0.0
  0
LINE
  5
1D6
330
1F
100
AcDbEntity
  8
0
  6
Continuous
 62
     7
370
    15
100
AcDbLine
 10
893.8556050485
 20
816.3340021311
 30
0.0
 11
895.3342414053
 21
816.3523809447
 31
0.0
  0
LINE
  5
1D7
330
1F
100
AcDbEntity
  8
0
  6
Continuous
 62
     7
370
    15
100
AcDbLine
 10
897.6185556153
 20
812.8488493467
 30
0.0
 11
910.7769146646
 21
784.6306573028
 31
0.0
  0
LINE
  5
1D8
330
1F
100
AcDbEntity
  8
0
  6
Continuous
 62
     7
370
    15
100
AcDbLine
 10
910.7769146646
 20
784.6306573028
 30
0.0
 11
912.1655323574
 21
781.6527570508
 31
0.0
  0
LINE
  5
1D9
330
1F
100
AcDbEntity
  8
0
  6
Continuous
 62
     7
370
    15
100
AcDbLine
 10
896.2551959642
 20
815.7725835536
 30
0.0
 11
897.6185556153
 21
812.8488493467
 31
0.0
  0
SPLINE
  5
1DA
330
1F
100
AcDbEntity
  8
0
  6
Continuous
 62
     7
370
    15
100
AcDbSpline
210
0.0
220
0.0
230
1.0
 70
     8
 71
     3
 72
    11
 73
     7
 74
     0
 42
0.00000001
 43
0.00000001
 12
1.0
 22
0.0
 32
0.0
 13
1.0
 23
0.0
 33
0.0
 40
0.0
 40
0.0
 40
0.0
 40
0.0
 40
0.2933118760927386
 40
0.5865991201419563
 40
0.8805021461502759
 40
1.0
 40
1.0
 40
1.0
 40
1.0
 10
895.3342414052761
 20
816.3523809446945
 30
0.0
 10
895.4469422739613
 20
816.3427105203324
 30
0.0
 10
895.6723345468233
 20
816.3233704837209
 30
0.0
 10
895.9730910265296
 20
816.154166110899
 30
0.0
 10
896.1615390861259
 20
815.9535656338035
 30
0.0
 10
896.2341942330754
 20
815.8131671932039
 30
0.0
 10
896.2551959642149
 20
815.7725835535625
 30
0.0
  0
LWPOLYLINE
  5
1DB
330
1F
100
AcDbEntity
  8
0
  6
Continuous
 62
     7
370
    15
100
AcDbPolyline
 90
        3
 70
   128
 43
0.0
 10
72.573735915
 20
925.3422660049
 10
72.4920733567
 20
926.1713998735
 10
72.472128859
 20
926.2660278694
  0
LWPOLYLINE
  5
1DC
330
1F
100
AcDbEntity
  8
0
  6
Continuous
 62
     7
370
    15
100
AcDbPolyline
 90
        3
 70
   128
 43
0.0
 10
69.2402510518
 20
929.4922660054
 10
69.1528697836
 20
929.5106034466
 10
68.323735915
 20
929.5922660049
  0
LINE
  5
1DD
330
1F
100
AcDbEntity
  8
0
  6
Continuous
 62
     7
370
    15
100
AcDbLine
 10
70.573735915
 20
911.5922660049
 30
0.0
 11
70.573735915
 21
911.6922660049
 31
0.0
  0
LINE
  5
1DE
330
1F
100
AcDbEntity
  8
0
  6
Continuous
 62
     7
370
    15
100
AcDbLine
 10
60.573735915
 20
929.5922660049
 30
0.0
 11
60.573735915
 21
929.4922660054
 31
0.0
  0
LWPOLYLINE
  5
1DF
330
1F
100
AcDbEntity
  8
0
  6
Continuous
 62
     7
370
    15
100
AcDbPolyline
 90
        3
 70
   128
 43
0.0
 10
74.4829667293
 20
891.7334624844
 10
74.4793395288
 20
891.5922660049
 10
74.5021787126
 20
891.2385798698
  0
CIRCLE
  5
1E0
330
1F
100
AcDbEntity
  8
0
  6
Continuous
 62
     7
370
    15
100
AcDbCircle
 10
77.2293395288
 20
891.5922660049
 30
0.0
 40
2.09999999999998
  0
LWPOLYLINE
  5
1E1
330
1F
100
AcDbEntity
  8
0
  6
Continuous
 62
     7
370
    15
100
AcDbPolyline
 90
        3
 70
   128
 43
0.0
 10
464.4793395288
 20
891.5922660049
 10
464.665040898
 20
890.5988514229
 10
464.7511558111
 20
890.4001647253
  0
LWPOLYLINE
  5
1E2
330
1F
100
AcDbEntity
  8
0
  6
Continuous
 62
     7
370
    15
100
AcDbPolyline
 90
        3
 70
   128
 43
0.0
 10
464.7511557838
 20
892.7843672279
 10
464.665040898
 20
892.5856805869
 10
464.4793395288
 20
891.5922660049
  0
CIRCLE
  5
1E3
330
1F
100
AcDbEntity
  8
0
  6
Continuous
 62
     7
370
    15
100
AcDbCircle
 10
467.2293395288
 20
891.5922660049
 30
0.0
 40
2.099999999999966
  0
ARC
  5
1E4
330
1F
100
AcDbEntity
  8
0
  6
Continuous
 62
     7
370
    15
100
AcDbCircle
 10
887.573735915
 20
901.5922660049
 30
0.0
 40
12.0
100
AcDbArc
 50
335.0
 51
90.0
  0
ARC
  5
1E5
330
1F
100
AcDbEntity
  8
0
  6
Continuous
 62
     7
370
    15
100
AcDbCircle
 10
887.573735915
 20
901.5922660049
 30
0.0
 40
10.0
100
AcDbArc
 50
335.0
 51
90.0
  0
LINE
  5
1E6
330
1F
100
AcDbEntity
  8
0
  6
Continuous
 62
     7
370
    15
100
AcDbLine
 10
878.1916105043
 20
859.7208462438
 30
0.0
 11
860.6092394358
 21
851.522051966
 31
0.0
  0
LINE
  5
1E7
330
1F
100
AcDbEntity
  8
0
  6
Continuous
 62
     7
370
    15
100
AcDbLine
 10
877.3463739809
 20
861.5334618179
 30
0.0
 11
859.7640029124
 21
853.3346675401
 31
0.0
  0
ARC
  5
1E8
330
1F
100
AcDbEntity
  8
0
  6
Continuous
 62
     7
370
    15
100
AcDbCircle
 10
873.1201913635
 20
870.5965396883
 30
0.0
 40
12.00000000000011
100
AcDbArc
 50
295.0
 51
335.0
  0
ARC
  5
1E9
330
1F
100
AcDbEntity
  8
0
  6
Continuous
 62
     7
370
    15
100
AcDbCircle
 10
873.1201913635
 20
870.5965396883
 30
0.0
 40
10.00000000000008
100
AcDbArc
 50
295.0
 51
335.0
  0
LINE
  5
1EA
330
1F
100
AcDbEntity
  8
0
  6
Continuous
 62
     7
370
    15
100
AcDbLine
 10
828.573735915
 20
913.5922660049
 30
0.0
 11
887.573735915
 21
913.5922660049
 31
0.0
  0
LINE
  5
1EB
330
1F
100
AcDbEntity
  8
0
  6
Continuous
 62
     7
370
    15
100
AcDbLine
 10
828.573735915
 20
911.5922660049
 30
0.0
 11
828.573735915
 21
913.5922660049
 31
0.0
  0
LINE
  5
1EC
330
1F
100
AcDbEntity
  8
0
  6
Continuous
 62
     7
370
    15
100
AcDbLine
 10
828.573735915
 20
911.5922660049
 30
0.0
 11
887.573735915
 21
911.5922660049
 31
0.0
  0
LINE
  5
1ED
330
1F
100
AcDbEntity
  8
0
  6
Continuous
 62
     7
370
    15
100
AcDbLine
 10
898.4494293594
 20
896.520846864
 30
0.0
 11
883.9958848079
 21
865.5251205474
 31
0.0
  0
LINE
  5
1EE
330
1F
100
AcDbEntity
  8
0
  6
Continuous
 62
     7
370
    15
100
AcDbLine
 10
896.6368137854
 20
897.3660833875
 30
0.0
 11
882.1832692338
 21
866.3703570708
 31
0.0
  0
LINE
  5
1EF
330
1F
100
AcDbEntity
  8
0
  6
Continuous
 62
     7
370
    15
100
AcDbLine
 10
860.6092394358
 20
851.522051966
 30
0.0
 11
858.7966238618
 21
850.6768154426
 31
0.0
  0
LINE
  5
1F0
330
1F
100
AcDbEntity
  8
0
  6
Continuous
 62
     7
370
    15
100
AcDbLine
 10
858.7966238618
 20
850.6768154426
 30
0.0
 11
857.9513873383
 21
852.4894310166
 31
0.0
  0
LINE
  5
1F1
330
1F
100
AcDbEntity
  8
0
  6
Continuous
 62
     7
370
    15
100
AcDbLine
 10
857.9513873383
 20
852.4894310166
 30
0.0
 11
859.7640029124
 21
853.3346675401
 31
0.0
  0
LINE
  5
1F2
330
1F
100
AcDbEntity
  8
0
  6
Continuous
 62
     7
370
    15
100
AcDbLine
 10
74.573735915
 20
911.5922660049
 30
0.0
 11
74.573735915
 21
913.5922660049
 31
0.0
  0
LINE
  5
1F3
330
1F
100
AcDbEntity
  8
0
  6
Continuous
 62
     7
370
    15
100
AcDbLine
 10
74.573735915
 20
913.5922660049
 30
0.0
 11
828.573735915
 21
913.5922660049
 31
0.0
  0
LINE
  5
1F4
330
1F
100
AcDbEntity
  8
0
  6
Continuous
 62
     7
370
    15
100
AcDbLine
 10
74.573735915
 20
911.5922660049
 30
0.0
 11
828.573735915
 21
911.5922660049
 31
0.0
  0
LINE
  5
1F5
330
1F
100
AcDbEntity
  8
0
  6
Continuous
 62
     7
370
    15
100
AcDbLine
 10
79.2689473343
 20
891.0922660049
 30
0.0
 11
75.1897317234
 21
891.0922660049
 31
0.0
  0
LINE
  5
1F6
330
1F
100
AcDbEntity
  8
0
  6
Continuous
 62
     7
370
    15
100
AcDbLine
 10
465.1897317234
 20
891.0922660049
 30
0.0
 11
469.2689473343
 21
891.0922660049
 31
0.0
  0
LINE
  5
1F7
330
1F
100
AcDbEntity
  8
0
  6
Continuous
 62
     7
370
    15
100
AcDbLine
 10
74.573735915
 20
927.3422660049
 30
0.0
 11
74.573735915
 21
915.5922660049
 31
0.0
  0
LINE
  5
1F8
330
1F
100
AcDbEntity
  8
0
  6
Continuous
 62
     7
370
    15
100
AcDbLine
 10
72.573735915
 20
927.3422660049
 30
0.0
 11
72.573735915
 21
915.5922660049
 31
0.0
  0
LINE
  5
1F9
330
1F
100
AcDbEntity
  8
0
  6
Continuous
 62
     7
370
    15
100
AcDbLine
 10
74.573735915
 20
915.5922660049
 30
0.0
 11
74.573735915
 21
913.5922660049
 31
0.0
  0
LINE
  5
1FA
330
1F
100
AcDbEntity
  8
0
  6
Continuous
 62
     7
370
    15
100
AcDbLine
 10
74.573735915
 20
913.5922660049
 30
0.0
 11
73.0992267652
 21
913.5922660049
 31
0.0
  0
LINE
  5
1FB
330
1F
100
AcDbEntity
  8
0
  6
Continuous
 62
     7
370
    15
100
AcDbLine
 10
72.573735915
 20
914.9075695871
 30
0.0
 11
72.573735915
 21
915.5922660049
 31
0.0
  0
LINE
  5
1FC
330
1F
100
AcDbEntity
  8
0
  6
Continuous
 62
     7
370
    15
100
AcDbLine
 10
3.823735915
 20
931.5922660049
 30
0.0
 11
70.323735915
 21
931.5922660049
 31
0.0
  0
LINE
  5
1FD
330
1F
100
AcDbEntity
  8
0
  6
Continuous
 62
     7
370
    15
100
AcDbLine
 10
3.823735915
 20
929.5922660049
 30
0.0
 11
70.323735915
 21
929.5922660049
 31
0.0
  0
ARC
  5
1FE
330
1F
100
AcDbEntity
  8
0
  6
Continuous
 62
     7
370
    15
100
AcDbCircle
 10
70.323735915
 20
927.3422660049
 30
0.0
 40
4.25
100
AcDbArc
 50
0.0
 51
90.0
  0
ARC
  5
1FF
330
1F
100
AcDbEntity
  8
0
  6
Continuous
 62
     7
370
    15
100
AcDbCircle
 10
70.323735915
 20
927.3422660049
 30
0.0
 40
2.25
100
AcDbArc
 50
0.0
 51
90.0
  0
LINE
  5
200
330
1F
100
AcDbEntity
  8
0
  6
Continuous
 62
     7
370
    15
100
AcDbLine
 10
14.573735915
 20
913.5922660049
 30
0.0
 11
3.823735915
 21
913.5922660049
 31
0.0
  0
LINE
  5
201
330
1F
100
AcDbEntity
  8
0
  6
Continuous
 62
     7
370
    15
100
AcDbLine
 10
14.573735915
 20
911.5922660049
 30
0.0
 11
3.823735915
 21
911.5922660049
 31
0.0
  0
LINE
  5
202
330
1F
100
AcDbEntity
  8
0
  6
Continuous
 62
     7
370
    15
100
AcDbLine
 10
14.573735915
 20
913.5922660049
 30
0.0
 11
14.573735915
 21
911.5922660049
 31
0.0
  0
ARC
  5
203
330
1F
100
AcDbEntity
  8
0
  6
Continuous
 62
     7
370
    15
100
AcDbCircle
 10
3.823735915
 20
915.8422660049
 30
0.0
 40
2.249999999999974
100
AcDbArc
 50
180.0
 51
270.0
  0
ARC
  5
204
330
1F
100
AcDbEntity
  8
0
  6
Continuous
 62
     7
370
    15
100
AcDbCircle
 10
3.823735915
 20
915.8422660049
 30
0.0
 40
4.249999999999976
100
AcDbArc
 50
180.0
 51
270.0
  0
LINE
  5
205
330
1F
100
AcDbEntity
  8
0
  6
Continuous
 62
     7
370
    15
100
AcDbLine
 10
1.573735915
 20
915.8422660049
 30
0.0
 11
1.573735915
 21
927.3422660049
 31
0.0
  0
LINE
  5
206
330
1F
100
AcDbEntity
  8
0
  6
Continuous
 62
     7
370
    15
100
AcDbLine
 10
-0.426264085
 20
915.8422660049
 30
0.0
 11
-0.426264085
 21
927.3422660049
 31
0.0
  0
ARC
  5
207
330
1F
100
AcDbEntity
  8
0
  6
Continuous
 62
     7
370
    15
100
AcDbCircle
 10
3.823735915
 20
927.3422660049
 30
0.0
 40
2.250000000000114
100
AcDbArc
 50
90.0
 51
180.0
  0
ARC
  5
208
330
1F
100
AcDbEntity
  8
0
  6
Continuous
 62
     7
370
    15
100
AcDbCircle
 10
3.823735915
 20
927.3422660049
 30
0.0
 40
4.250000000000114
100
AcDbArc
 50
90.0
 51
180.0
  0
LINE
  5
209
330
1F
100
AcDbEntity
  8
0
  6
Continuous
 62
     7
370
    15
100
AcDbLine
 10
72.573735915
 20
911.5922660049
 30
0.0
 11
72.573735915
 21
911.6922660049
 31
0.0
  0
LINE
  5
20A
330
1F
100
AcDbEntity
  8
0
  6
Continuous
 62
     7
370
    15
100
AcDbLine
 10
868.3154213287
 20
665.1927727709
 30
0.0
 11
868.3154213287
 21
665.1922660049
 31
0.0
  0
LINE
  5
20B
330
1F
100
AcDbEntity
  8
0
  6
Continuous
 62
     7
370
    15
100
AcDbLine
 10
868.2188592422
 20
665.1922660049
 30
0.0
 11
868.3154213287
 21
665.1922660049
 31
0.0
  0
LINE
  5
20C
330
1F
100
AcDbEntity
  8
0
  6
Continuous
 62
     7
370
    15
100
AcDbLine
 10
876.556890883
 20
670.5041779969
 30
0.0
 11
876.5160819818
 21
670.416663026
 31
0.0
  0
LINE
  5
20D
330
1F
100
AcDbEntity
  8
0
  6
Continuous
 62
     7
370
    15
100
AcDbLine
 10
876.5160819818
 20
670.416663026
 30
0.0
 11
876.5156226959
 21
670.4168771945
 31
0.0
  0
LINE
  5
20E
330
1F
100
AcDbEntity
  8
0
  6
Continuous
 62
     7
370
    15
100
AcDbLine
 10
70.322128859
 20
911.6922660049
 30
0.0
 11
14.6721288578
 21
911.6922660049
 31
0.0
  0
LINE
  5
20F
330
1F
100
AcDbEntity
  8
0
  6
Continuous
 62
     7
370
    15
100
AcDbLine
 10
14.6721288578
 20
911.6922660049
 30
0.0
 11
14.6721288578
 21
913.6922660054
 31
0.0
  0
LINE
  5
210
330
1F
100
AcDbEntity
  8
0
  6
Continuous
 62
     7
370
    15
100
AcDbLine
 10
3.8237359148
 20
929.4922660054
 30
0.0
 11
70.322128859
 21
929.4922660054
 31
0.0
  0
LINE
  5
211
330
1F
100
AcDbEntity
  8
0
  6
Continuous
 62
     7
370
    15
100
AcDbLine
 10
14.6721288578
 20
913.6922660054
 30
0.0
 11
3.822128859
 21
913.6922660054
 31
0.0
  0
ARC
  5
212
330
1F
100
AcDbEntity
  8
0
  6
Continuous
 62
     7
370
    15
100
AcDbCircle
 10
3.822128859
 20
915.8422660054
 30
0.0
 40
2.149999999999985
100
AcDbArc
 50
180.0
 51
270.0
  0
LINE
  5
213
330
1F
100
AcDbEntity
  8
0
  6
Continuous
 62
     7
370
    15
100
AcDbLine
 10
1.672128859
 20
915.8422660054
 30
0.0
 11
1.672128859
 21
927.3422660054
 31
0.0
  0
ARC
  5
214
330
1F
100
AcDbEntity
  8
0
  6
Continuous
 62
     7
370
    15
100
AcDbCircle
 10
3.822128859
 20
927.3422660054
 30
0.0
 40
2.149999999999985
100
AcDbArc
 50
90.0
 51
180.0
  0
LINE
  5
215
330
1F
100
AcDbEntity
  8
0
  6
Continuous
 62
     7
370
    15
100
AcDbLine
 10
3.822128859
 20
929.4922660054
 30
0.0
 11
3.8237359148
 21
929.4922660054
 31
0.0
  0
LINE
  5
216
330
1F
100
AcDbEntity
  8
0
  6
Continuous
 62
     7
370
    15
100
AcDbLine
 10
72.472128859
 20
927.3422660052
 30
0.0
 11
72.472128859
 21
915.8422660052
 31
0.0
  0
LINE
  5
217
330
1F
100
AcDbEntity
  8
0
  6
Continuous
 62
     7
370
    15
100
AcDbLine
 10
75.5182883779
 20
911.6922660049
 30
0.0
 11
70.322128859
 21
911.6922660049
 31
0.0
  0
LINE
  5
218
330
1F
100
AcDbEntity
  8
0
  6
Continuous
 62
     7
370
    15
100
AcDbLine
 10
14.6721288578
 20
913.9922660049
 30
0.0
 11
14.6721288578
 21
913.6922660054
 31
0.0
  0
LINE
  5
219
330
1F
100
AcDbEntity
  8
0
  6
Continuous
 62
     7
370
    15
100
AcDbLine
 10
3.8237359148
 20
929.4922660054
 30
0.0
 11
3.8237359148
 21
927.1922660054
 31
0.0
  0
LINE
  5
21A
330
1F
100
AcDbEntity
  8
0
  6
Continuous
 62
     7
370
    15
100
AcDbLine
 10
70.322128859
 20
927.1922660054
 30
0.0
 11
70.322128859
 21
929.4922660054
 31
0.0
  0
ARC
  5
21B
330
1F
100
AcDbEntity
  8
0
  6
Continuous
 62
     7
370
    15
100
AcDbCircle
 10
70.322128859
 20
927.3422660054
 30
0.0
 40
2.149999999999991
100
AcDbArc
 50
359.9999999959
 51
90.0
  0
ARC
  5
21C
330
1F
100
AcDbEntity
  8
0
  6
Continuous
 62
     7
370
    15
100
AcDbCircle
 10
76.822128859
 20
915.8422660049
 30
0.0
 40
4.350000000000076
100
AcDbArc
 50
179.999999996
 51
252.5584061437
  0
LINE
  5
21D
330
1F
100
AcDbEntity
  8
0
  6
Continuous
 62
     7
370
    15
100
AcDbLine
 10
70.322128859
 20
911.6922660049
 30
0.0
 11
70.322128859
 21
913.9922660049
 31
0.0
  0
ENDSEC
  0
SECTION
  2
OBJECTS
  0
DICTIONARY
  5
C
330
0
100
AcDbDictionary
281
     1
  3
ACAD_GROUP
350
D
  3
ACAD_LAYOUT
350
1A
  3
ACAD_MLINESTYLE
350
17
  3
ACAD_PLOTSETTINGS
350
19
  3
ACAD_PLOTSTYLENAME
350
E
  0
DICTIONARY
  5
D
102
{ACAD_REACTORS
330
C
102
}
330
C
100
AcDbDictionary
281
     1
  0
DICTIONARY
  5
1A
102
{ACAD_REACTORS
330
C
102
}
330
C
100
AcDbDictionary
281
     1
  3
Layout1
350
1E
  3
Layout2
350
26
  3
Model
350
22
  0
DICTIONARY
  5
17
102
{ACAD_REACTORS
330
C
102
}
330
C
100
AcDbDictionary
281
     1
  3
Standard
350
18
  0
DICTIONARY
  5
19
102
{ACAD_REACTORS
330
C
102
}
330
C
100
AcDbDictionary
281
     1
  0
ACDBDICTIONARYWDFLT
  5
E
102
{ACAD_REACTORS
330
C
102
}
330
C
100
AcDbDictionary
281
     1
  3
Normal
350
F
100
AcDbDictionaryWithDefault
340
F
  0
LAYOUT
  5
1E
102
{ACAD_REACTORS
330
1A
102
}
330
1A
100
AcDbPlotSettings
  1

  2
none_device
  4

  6

 40
0.0
 41
0.0
 42
0.0
 43
0.0
 44
0.0
 45
0.0
 46
0.0
 47
0.0
 48
0.0
 49
0.0
140
0.0
141
0.0
142
1.0
143
1.0
 70
   688
 72
     0
 73
     0
 74
     5
  7

 75
    16
147
1.0
148
0.0
149
0.0
100
AcDbLayout
  1
Layout1
 70
     1
 71
     1
 10
0.0
 20
0.0
 11
420.0
 21
297.0
 12
0.0
 22
0.0
 32
0.0
 14
1.0000000000E+20
 24
1.0000000000E+20
 34
1.0000000000E+20
 15
-1.0000000000E+20
 25
-1.0000000000E+20
 35
-1.0000000000E+20
146
0.0
 13
0.0
 23
0.0
 33
0.0
 16
1.0
 26
0.0
 36
0.0
 17
0.0
 27
1.0
 37
0.0
 76
     0
330
1B
  0
LAYOUT
  5
26
102
{ACAD_REACTORS
330
1A
102
}
330
1A
100
AcDbPlotSettings
  1

  2
none_device
  4

  6

 40
0.0
 41
0.0
 42
0.0
 43
0.0
 44
0.0
 45
0.0
 46
0.0
 47
0.0
 48
0.0
 49
0.0
140
0.0
141
0.0
142
1.0
143
1.0
 70
   688
 72
     0
 73
     0
 74
     5
  7

 75
    16
147
1.0
148
0.0
149
0.0
100
AcDbLayout
  1
Layout2
 70
     1
 71
     2
 10
0.0
 20
0.0
 11
0.0
 21
0.0
 12
0.0
 22
0.0
 32
0.0
 14
0.0
 24
0.0
 34
0.0
 15
0.0
 25
0.0
 35
0.0
146
0.0
 13
0.0
 23
0.0
 33
0.0
 16
1.0
 26
0.0
 36
0.0
 17
0.0
 27
1.0
 37
0.0
 76
     0
330
23
  0
LAYOUT
  5
22
102
{ACAD_REACTORS
330
1A
102
}
330
1A
100
AcDbPlotSettings
  1

  2
none_device
  4

  6

 40
0.0
 41
0.0
 42
0.0
 43
0.0
 44
0.0
 45
0.0
 46
0.0
 47
0.0
 48
0.0
 49
0.0
140
0.0
141
0.0
142
1.0
143
1.0
 70
  1712
 72
     0
 73
     0
 74
     0
  7

 75
     0
147
1.0
148
0.0
149
0.0
100
AcDbLayout
  1
Model
 70
     1
 71
     0
 10
0.0
 20
0.0
 11
1000.0
 21
1000.0
 12
0.0
 22
0.0
 32
0.0
 14
0.0
 24
0.0
 34
0.0
 15
1000.0
 25
1000.0
 35
0.0
146
0.0
 13
0.0
 23
0.0
 33
0.0
 16
1.0
 26
0.0
 36
0.0
 17
0.0
 27
1.0
 37
0.0
 76
     0
330
1F
331
29
  0
MLINESTYLE
  5
18
102
{ACAD_REACTORS
330
17
102
}
330
17
100
AcDbMlineStyle
  2
Standard
 70
     0
  3

 62
   256
 51
90.0
 52
90.0
 71
     2
 49
0.5
 62
   256
  6
BYLAYER
 49
-0.5
 62
   256
  6
BYLAYER
  0
ACDBPLACEHOLDER
  5
F
102
{ACAD_REACTORS
330
E
102
}
330
E
  0
ENDSEC
  0
EOF
