  0
SECTION
  2
HEADER
  9
$ACADVER
  1
AC1015
  9
$ACADMAINTVER
 70
     6
  9
$DWGCODEPAGE
  3
ANSI_1252
  9
$INSBASE
 10
0.0
 20
0.0
 30
0.0
  9
$EXTMIN
 10
0.0
 20
0.0
 30
0.0
  9
$EXTMAX
 10
1000.0
 20
1000.0
 30
0.0
  9
$LIMMIN
 10
0.0
 20
0.0
  9
$LIMMAX
 10
1000.0
 20
1000.0
  9
$ORTHOMODE
 70
     0
  9
$REGENMODE
 70
     1
  9
$FILLMODE
 70
     1
  9
$QTEXTMODE
 70
     0
  9
$MIRRTEXT
 70
     1
  9
$LTSCALE
 40
1.0
  9
$ATTMODE
 70
     1
  9
$TEXTSIZE
 40
3.5
  9
$TRACEWID
 40
1.0
  9
$TEXTSTYLE
  7
Standard
  9
$CLAYER
  8
0
  9
$CELTYPE
  6
ByLayer
  9
$CECOLOR
 62
   256
  9
$CELTSCALE
 40
1.0
  9
$DISPSILH
 70
     0
  9
$DIMSCALE
 40
1.0
  9
$DIMASZ
 40
3.302
  9
$DIMEXO
 40
1.0
  9
$DIMDLI
 40
3.75
  9
$DIMRND
 40
0.0
  9
$DIMDLE
 40
0.0
  9
$DIMEXE
 40
1.0
  9
$DIMTP
 40
0.0
  9
$DIMTM
 40
0.0
  9
$DIMTXT
 40
3.5
  9
$DIMCEN
 40
2.5
  9
$DIMTSZ
 40
0.0
  9
$DIMTOL
 70
     0
  9
$DIMLIM
 70
     0
  9
$DIMTIH
 70
     1
  9
$DIMTOH
 70
     1
  9
$DIMSE1
 70
     0
  9
$DIMSE2
 70
     0
  9
$DIMTAD
 70
     1
  9
$DIMZIN
 70
     0
  9
$DIMBLK
  1

  9
$DIMASO
 70
     1
  9
$DIMSHO
 70
     1
  9
$DIMPOST
  1

  9
$DIMAPOST
  1

  9
$DIMALT
 70
     0
  9
$DIMALTD
 70
     3
  9
$DIMALTF
 40
0.0393700787
  9
$DIMLFAC
 40
1.0
  9
$DIMTOFL
 70
     1
  9
$DIMTVP
 40
0.0
  9
$DIMTIX
 70
     0
  9
$DIMSOXD
 70
     0
  9
$DIMSAH
 70
     0
  9
$DIMBLK1
  1

  9
$DIMBLK2
  1

  9
$DIMSTYLE
  2
ISO-25
  9
$DIMCLRD
 70
     0
  9
$DIMCLRE
 70
     0
  9
$DIMCLRT
 70
     0
  9
$DIMTFAC
 40
1.0
  9
$DIMGAP
 40
1.524
  9
$DIMJUST
 70
     0
  9
$DIMSD1
 70
     0
  9
$DIMSD2
 70
     0
  9
$DIMTOLJ
 70
     0
  9
$DIMTZIN
 70
     0
  9
$DIMALTZ
 70
     0
  9
$DIMALTTZ
 70
     0
  9
$DIMUPT
 70
     0
  9
$DIMDEC
 70
     3
  9
$DIMTDEC
 70
     3
  9
$DIMALTU
 70
     2
  9
$DIMALTTD
 70
     3
  9
$DIMTXSTY
  7
Standard
  9
$DIMAUNIT
 70
     0
  9
$DIMADEC
 70
     2
  9
$DIMALTRND
 40
0.0
  9
$DIMAZIN
 70
     0
  9
$DIMDSEP
 70
    44
  9
$DIMATFIT
 70
     3
  9
$DIMFRAC
 70
     0
  9
$DIMLDRBLK
  1

  9
$DIMLUNIT
 70
     2
  9
$DIMLWD
 70
    -2
  9
$DIMLWE
 70
    -2
  9
$DIMTMOVE
 70
     0
  9
$LUNITS
 70
     2
  9
$LUPREC
 70
     8
  9
$SKETCHINC
 40
1.0
  9
$FILLETRAD
 40
10.0
  9
$AUNITS
 70
     0
  9
$AUPREC
 70
     8
  9
$MENU
  1
.
  9
$ELEVATION
 40
0.0
  9
$PELEVATION
 40
0.0
  9
$THICKNESS
 40
0.0
  9
$LIMCHECK
 70
     0
  9
$CHAMFERA
 40
10.0
  9
$CHAMFERB
 40
10.0
  9
$CHAMFERC
 40
20.0
  9
$CHAMFERD
 40
0.0
  9
$SKPOLY
 70
     0
  9
$TDCREATE
 40
2457053.45245912
  9
$TDUCREATE
 40
2457053.45245912
  9
$TDUPDATE
 40
2457053.452460567
  9
$TDUUPDATE
 40
2457053.452460567
  9
$TDINDWG
 40
0.0000000116
  9
$TDUSRTIMER
 40
0.0000000116
  9
$USRTIMER
 70
     1
  9
$ANGBASE
 50
0.0
  9
$ANGDIR
 70
     0
  9
$PDMODE
 70
     0
  9
$PDSIZE
 40
-1.0
  9
$PLINEWID
 40
0.0
  9
$SPLFRAME
 70
     0
  9
$SPLINETYPE
 70
     6
  9
$SPLINESEGS
 70
     8
  9
$HANDSEED
  5
28F
  9
$SURFTAB1
 70
     6
  9
$SURFTAB2
 70
     6
  9
$SURFTYPE
 70
     6
  9
$SURFU
 70
     6
  9
$SURFV
 70
     6
  9
$UCSBASE
  2

  9
$UCSNAME
  2

  9
$UCSORG
 10
0.0
 20
0.0
 30
0.0
  9
$UCSXDIR
 10
1.0
 20
0.0
 30
0.0
  9
$UCSYDIR
 10
0.0
 20
1.0
 30
0.0
  9
$UCSORTHOREF
  2

  9
$UCSORTHOVIEW
 70
     0
  9
$UCSORGTOP
 10
0.0
 20
0.0
 30
0.0
  9
$UCSORGBOTTOM
 10
0.0
 20
0.0
 30
0.0
  9
$UCSORGLEFT
 10
0.0
 20
0.0
 30
0.0
  9
$UCSORGRIGHT
 10
0.0
 20
0.0
 30
0.0
  9
$UCSORGFRONT
 10
0.0
 20
0.0
 30
0.0
  9
$UCSORGBACK
 10
0.0
 20
0.0
 30
0.0
  9
$PUCSBASE
  2

  9
$PUCSNAME
  2

  9
$PUCSORG
 10
0.0
 20
0.0
 30
0.0
  9
$PUCSXDIR
 10
1.0
 20
0.0
 30
0.0
  9
$PUCSYDIR
 10
0.0
 20
1.0
 30
0.0
  9
$PUCSORTHOREF
  2

  9
$PUCSORTHOVIEW
 70
     0
  9
$PUCSORGTOP
 10
0.0
 20
0.0
 30
0.0
  9
$PUCSORGBOTTOM
 10
0.0
 20
0.0
 30
0.0
  9
$PUCSORGLEFT
 10
0.0
 20
0.0
 30
0.0
  9
$PUCSORGRIGHT
 10
0.0
 20
0.0
 30
0.0
  9
$PUCSORGFRONT
 10
0.0
 20
0.0
 30
0.0
  9
$PUCSORGBACK
 10
0.0
 20
0.0
 30
0.0
  9
$USERI1
 70
     0
  9
$USERI2
 70
     0
  9
$USERI3
 70
     0
  9
$USERI4
 70
     0
  9
$USERI5
 70
     0
  9
$USERR1
 40
0.0
  9
$USERR2
 40
0.0
  9
$USERR3
 40
0.0
  9
$USERR4
 40
0.0
  9
$USERR5
 40
0.0
  9
$WORLDVIEW
 70
     1
  9
$SHADEDGE
 70
     3
  9
$SHADEDIF
 70
    70
  9
$TILEMODE
 70
     1
  9
$MAXACTVP
 70
    64
  9
$PINSBASE
 10
0.0
 20
0.0
 30
0.0
  9
$PLIMCHECK
 70
     0
  9
$PEXTMIN
 10
1.0000000000E+20
 20
1.0000000000E+20
 30
1.0000000000E+20
  9
$PEXTMAX
 10
-1.0000000000E+20
 20
-1.0000000000E+20
 30
-1.0000000000E+20
  9
$PLIMMIN
 10
0.0
 20
0.0
  9
$PLIMMAX
 10
420.0
 20
297.0
  9
$UNITMODE
 70
     0
  9
$VISRETAIN
 70
     1
  9
$PLINEGEN
 70
     0
  9
$PSLTSCALE
 70
     1
  9
$TREEDEPTH
 70
  3020
  9
$CMLSTYLE
  2
Standard
  9
$CMLJUST
 70
     0
  9
$CMLSCALE
 40
20.0
  9
$PROXYGRAPHICS
 70
     1
  9
$MEASUREMENT
 70
     1
  9
$CELWEIGHT
370
    -1
  9
$ENDCAPS
280
     0
  9
$JOINSTYLE
280
     0
  9
$LWDISPLAY
290
     1
  9
$INSUNITS
 70
     4
  9
$HYPERLINKBASE
  1

  9
$STYLESHEET
  1

  9
$XEDIT
290
     1
  9
$CEPSNTYPE
380
     0
  9
$PSTYLEMODE
290
     1
  9
$FINGERPRINTGUID
  2
{BCC27B1D-2094-4CF5-A29C-585E82FC5957}
  9
$VERSIONGUID
  2
{FAEB1C32-E019-11D5-929B-00C0DF256EC4}
  9
$EXTNAMES
290
     1
  9
$PSVPSCALE
 40
0.0
  9
$OLESTARTUP
290
     0
  0
ENDSEC
  0
SECTION
  2
CLASSES
  0
CLASS
  1
ACDBDICTIONARYWDFLT
  2
AcDbDictionaryWithDefault
  3
ObjectDBX Classes
 90
        0
280
     0
281
     0
  0
CLASS
  1
VISUALSTYLE
  2
AcDbVisualStyle
  3
ObjectDBX Classes
 90
     4095
280
     0
281
     0
  0
CLASS
  1
MATERIAL
  2
AcDbMaterial
  3
ObjectDBX Classes
 90
     1153
280
     0
281
     0
  0
CLASS
  1
ACDBPLACEHOLDER
  2
AcDbPlaceHolder
  3
ObjectDBX Classes
 90
        0
280
     0
281
     0
  0
CLASS
  1
LAYOUT
  2
AcDbLayout
  3
ObjectDBX Classes
 90
        0
280
     0
281
     0
  0
ENDSEC
  0
SECTION
  2
TABLES
  0
TABLE
  2
VPORT
  5
8
330
0
100
AcDbSymbolTable
 70
     1
  0
VPORT
  5
29
330
8
100
AcDbSymbolTableRecord
100
AcDbViewportTableRecord
  2
*Active
 70
     0
 10
0.0
 20
0.0
 11
1.0
 21
1.0
 12
500.0
 22
500.0
 13
0.0
 23
0.0
 14
10.0
 24
10.0
 15
10.0
 25
10.0
 16
0.0
 26
0.0
 36
1.0
 17
0.0
 27
0.0
 37
0.0
 40
1000.0
 41
1.0
 42
50.0
 43
0.0
 44
0.0
 50
0.0
 51
0.0
 71
     0
 72
  2000
 73
     1
 74
     3
 75
     0
 76
     0
 77
     0
 78
     0
281
     0
 65
     1
110
0.0
120
0.0
130
0.0
111
1.0
121
0.0
131
0.0
112
0.0
122
1.0
132
0.0
 79
     0
146
0.0
  0
ENDTAB
  0
TABLE
  2
LTYPE
  5
5
330
0
100
AcDbSymbolTable
 70
     6
  0
LTYPE
  5
14
330
5
100
AcDbSymbolTableRecord
100
AcDbLinetypeTableRecord
  2
ByBlock
 70
     0
  3

 72
    65
 73
     0
 40
0.0
  0
LTYPE
  5
15
330
5
100
AcDbSymbolTableRecord
100
AcDbLinetypeTableRecord
  2
ByLayer
 70
     0
  3

 72
    65
 73
     0
 40
0.0
  0
LTYPE
  5
16
330
5
100
AcDbSymbolTableRecord
100
AcDbLinetypeTableRecord
  2
Continuous
 70
     0
  3
Solid line
 72
    65
 73
     0
 40
0.0
  0
LTYPE
  5
3F
330
5
100
AcDbSymbolTableRecord
100
AcDbLinetypeTableRecord
  2
HIDDEN
 70
     0
  3
Hidden __ __ __ __ __ __ __ __ __ __ __ __ __ __
 72
    65
 73
     2
 40
1.905
 49
1.27
 74
     0
 49
-0.635
 74
     0
  0
LTYPE
  5
40
330
5
100
AcDbSymbolTableRecord
100
AcDbLinetypeTableRecord
  2
PHANTOM
 70
     0
  3
Phantom ______  __  __  ______  __  __  ______
 72
    65
 73
     6
 40
12.7
 49
6.35
 74
     0
 49
-1.27
 74
     0
 49
1.27
 74
     0
 49
-1.27
 74
     0
 49
1.27
 74
     0
 49
-1.27
 74
     0
  0
LTYPE
  5
41
330
5
100
AcDbSymbolTableRecord
100
AcDbLinetypeTableRecord
  2
CENTER
 70
     0
  3
Center ____ _ ____ _ ____ _ ____ _ ____ _ ____
 72
    65
 73
     4
 40
10.16
 49
6.35
 74
     0
 49
-1.27
 74
     0
 49
1.27
 74
     0
 49
-1.27
 74
     0
  0
LTYPE
  5
42
330
5
100
AcDbSymbolTableRecord
100
AcDbLinetypeTableRecord
  2
CENTERX2
 70
     0
  3
Center (2x) ________  __  ________  __  _____
 72
    65
 73
     4
 40
20.32
 49
12.7
 74
     0
 49
-2.54
 74
     0
 49
2.54
 74
     0
 49
-2.54
 74
     0
  0
LTYPE
  5
43
330
5
100
AcDbSymbolTableRecord
100
AcDbLinetypeTableRecord
  2
DOT2
 70
     0
  3
Dot (.5x) ........................................
 72
    65
 73
     2
 40
0.635
 49
0.0
 74
     0
 49
-0.635
 74
     0
  0
ENDTAB
  0
TABLE
  2
LAYER
  5
2
330
0
100
AcDbSymbolTable
 70
     1
  0
LAYER
  5
10
330
2
100
AcDbSymbolTableRecord
100
AcDbLayerTableRecord
  2
0
 70
     0
 62
     7
  6
Continuous
370
    -3
390
F
  0
ENDTAB
  0
TABLE
  2
STYLE
  5
3
330
0
100
AcDbSymbolTable
 70
     1
  0
STYLE
  5
11
330
3
100
AcDbSymbolTableRecord
100
AcDbTextStyleTableRecord
  2
Standard
 70
     0
 40
0.0
 41
1.0
 50
0.0
 71
     0
 42
3.5
  3
txt
  4

  0
ENDTAB
  0
TABLE
  2
VIEW
  5
6
330
0
100
AcDbSymbolTable
 70
     0
  0
ENDTAB
  0
TABLE
  2
UCS
  5
7
330
0
100
AcDbSymbolTable
 70
     0
  0
ENDTAB
  0
TABLE
  2
APPID
  5
9
330
0
100
AcDbSymbolTable
 70
     1
  0
APPID
  5
12
330
9
100
AcDbSymbolTableRecord
100
AcDbRegAppTableRecord
  2
ACAD
 70
     0
  0
ENDTAB
  0
TABLE
  2
DIMSTYLE
  5
A
330
0
100
AcDbSymbolTable
 70
     1
100
AcDbDimStyleTable
  0
DIMSTYLE
105
27
330
A
100
AcDbSymbolTableRecord
100
AcDbDimStyleTableRecord
  2
ISO-25
 70
     0
 41
2.5
 42
0.625
 43
3.75
 44
1.25
 73
     0
 74
     0
 77
     1
 78
     8
140
2.5
141
2.5
143
0.0393700787
147
0.625
171
     3
172
     1
178
     0
271
     2
272
     2
274
     3
278
    44
283
     0
284
     8
340
11
  0
ENDTAB
  0
TABLE
  2
BLOCK_RECORD
  5
1
330
0
100
AcDbSymbolTable
 70
     1
  0
BLOCK_RECORD
  5
1F
330
1
100
AcDbSymbolTableRecord
100
AcDbBlockTableRecord
  2
*Model_Space
340
22
  0
BLOCK_RECORD
  5
1B
330
1
100
AcDbSymbolTableRecord
100
AcDbBlockTableRecord
  2
*Paper_Space
340
1E
  0
BLOCK_RECORD
  5
23
330
1
100
AcDbSymbolTableRecord
100
AcDbBlockTableRecord
  2
*Paper_Space0
340
26
  0
ENDTAB
  0
ENDSEC
  0
SECTION
  2
BLOCKS
  0
BLOCK
  5
20
330
1F
100
AcDbEntity
  8
0
100
AcDbBlockBegin
  2
*Model_Space
 70
     0
 10
0.0
 20
0.0
 30
0.0
  3
*Model_Space
  1

  0
ENDBLK
  5
21
330
1F
100
AcDbEntity
  8
0
100
AcDbBlockEnd
  0
BLOCK
  5
1C
330
1B
100
AcDbEntity
 67
     1
  8
0
100
AcDbBlockBegin
  2
*Paper_Space
 70
     0
 10
0.0
 20
0.0
 30
0.0
  3
*Paper_Space
  1

  0
ENDBLK
  5
1D
330
1B
100
AcDbEntity
 67
     1
  8
0
100
AcDbBlockEnd
  0
BLOCK
  5
24
330
23
100
AcDbEntity
  8
0
100
AcDbBlockBegin
  2
*Paper_Space0
 70
     0
 10
0.0
 20
0.0
 30
0.0
  3
*Paper_Space0
  1

  0
ENDBLK
  5
25
330
23
100
AcDbEntity
  8
0
100
AcDbBlockEnd
  0
ENDSEC
  0
SECTION
  2
ENTITIES
  0
LINE
  5
44
330
1F
100
AcDbEntity
  8
0
  6
Continuous
 62
     7
100
AcDbLine
 10
879.3304850114
 20
735.7776889679
 30
0.0
 11
871.9329753401
 21
732.3281735569
 31
0.0
  0
LINE
  5
45
330
1F
100
AcDbEntity
  8
0
  6
Continuous
 62
     7
100
AcDbLine
 10
890.914718689
 20
814.1099241368
 30
0.0
 11
888.3906830224
 21
819.5227360914
 31
0.0
  0
LINE
  5
46
330
1F
100
AcDbEntity
  8
0
  6
Continuous
 62
     7
100
AcDbLine
 10
927.3448468846
 20
735.9852621063
 30
0.0
 11
922.2967755514
 21
746.8108860155
 31
0.0
  0
LINE
  5
47
330
1F
100
AcDbEntity
  8
0
  6
Continuous
 62
     7
100
AcDbLine
 10
926.0828290513
 20
738.6916680836
 30
0.0
 11
923.5587933847
 21
744.1044800382
 31
0.0
  0
LINE
  5
48
330
1F
100
AcDbEntity
  8
0
  6
CENTERX2
 62
     7
100
AcDbLine
 10
924.6408335199
 20
729.9530295643
 30
0.0
 11
926.7441965754
 21
725.4423529354
 31
0.0
  0
LINE
  5
49
330
1F
100
AcDbEntity
  8
0
  6
CENTERX2
 62
     7
100
AcDbLine
 10
883.2242438693
 20
818.7711926939
 30
0.0
 11
885.3276069248
 21
814.260516065
 31
0.0
  0
LINE
  5
4A
330
1F
100
AcDbEntity
  8
0
  6
Continuous
 62
     7
100
AcDbLine
 10
604.6317301757
 20
664.5529312624
 30
0.0
 11
604.6317301757
 21
699.5529312624
 31
0.0
  0
LINE
  5
4B
330
1F
100
AcDbEntity
  8
0
  6
Continuous
 62
     7
100
AcDbLine
 10
604.6317301757
 20
699.5529312624
 30
0.0
 11
604.6317301757
 21
729.5529312624
 31
0.0
  0
LINE
  5
4C
330
1F
100
AcDbEntity
  8
0
  6
CENTERX2
 62
     7
100
AcDbLine
 10
604.6317301757
 20
734.0529312624
 30
0.0
 11
604.6317301757
 21
664.5529312624
 31
0.0
  0
LINE
  5
4D
330
1F
100
AcDbEntity
  8
0
  6
CENTERX2
 62
     7
100
AcDbLine
 10
604.6317301757
 20
734.0529312624
 30
0.0
 11
604.6317301757
 21
664.5529312624
 31
0.0
  0
LINE
  5
4E
330
1F
100
AcDbEntity
  8
0
  6
Continuous
 62
     7
100
AcDbLine
 10
604.6317301757
 20
729.5529312624
 30
0.0
 11
604.6317301757
 21
664.5529312624
 31
0.0
  0
ARC
  5
4F
330
1F
100
AcDbEntity
  8
0
  6
Continuous
 62
     7
370
    15
100
AcDbCircle
 10
775.6058706974
 20
13.4529312625
 30
0.0
 40
2.000000000000002
100
AcDbArc
 50
270.0
 51
0.0
  0
ARC
  5
50
330
1F
100
AcDbEntity
  8
0
  6
Continuous
 62
     7
370
    15
100
AcDbCircle
 10
722.6058706974
 20
13.4529312625
 30
0.0
 40
2.000000000000002
100
AcDbArc
 50
180.0
 51
270.0
  0
LINE
  5
51
330
1F
100
AcDbEntity
  8
0
  6
Continuous
 62
     7
370
    15
100
AcDbLine
 10
777.6058706974
 20
13.4529312625
 30
0.0
 11
777.6058706974
 21
17.4529312625
 31
0.0
  0
LINE
  5
52
330
1F
100
AcDbEntity
  8
0
  6
Continuous
 62
     7
370
    15
100
AcDbLine
 10
720.6058706974
 20
17.4529312625
 30
0.0
 11
720.6058706974
 21
13.4529312625
 31
0.0
  0
ARC
  5
53
330
1F
100
AcDbEntity
  8
0
  6
Continuous
 62
     7
370
    15
100
AcDbCircle
 10
196.6058706974
 20
13.4529312625
 30
0.0
 40
2.000000000000002
100
AcDbArc
 50
270.0
 51
0.0
  0
ARC
  5
54
330
1F
100
AcDbEntity
  8
0
  6
Continuous
 62
     7
370
    15
100
AcDbCircle
 10
143.6058706974
 20
13.4529312625
 30
0.0
 40
2.000000000000002
100
AcDbArc
 50
180.0
 51
270.0
  0
LINE
  5
55
330
1F
100
AcDbEntity
  8
0
  6
Continuous
 62
     7
370
    15
100
AcDbLine
 10
198.6058706974
 20
13.4529312625
 30
0.0
 11
198.6058706974
 21
17.4529312625
 31
0.0
  0
LINE
  5
56
330
1F
100
AcDbEntity
  8
0
  6
Continuous
 62
     7
370
    15
100
AcDbLine
 10
141.6058706974
 20
17.4529312625
 30
0.0
 11
141.6058706974
 21
13.4529312625
 31
0.0
  0
LINE
  5
57
330
1F
100
AcDbEntity
  8
0
  6
Continuous
 62
     7
370
    15
100
AcDbLine
 10
198.4058706974
 20
17.4529312625
 30
0.0
 11
198.4058706974
 21
85.4529312625
 31
0.0
  0
LINE
  5
58
330
1F
100
AcDbEntity
  8
0
  6
Continuous
 62
     7
370
    15
100
AcDbLine
 10
141.8058706974
 20
85.4529312625
 30
0.0
 11
141.8058706974
 21
17.4529312625
 31
0.0
  0
LINE
  5
59
330
1F
100
AcDbEntity
  8
0
  6
Continuous
 62
     7
370
    15
100
AcDbLine
 10
777.4058706974
 20
17.4529312625
 30
0.0
 11
777.4058706974
 21
85.4529312625
 31
0.0
  0
LINE
  5
5A
330
1F
100
AcDbEntity
  8
0
  6
Continuous
 62
     7
370
    15
100
AcDbLine
 10
720.8058706974
 20
85.4529312625
 30
0.0
 11
720.8058706974
 21
17.4529312625
 31
0.0
  0
ARC
  5
5B
330
1F
100
AcDbEntity
  8
0
  6
Continuous
 62
     7
370
    15
100
AcDbCircle
 10
203.5058706974
 20
177.9529312625
 30
0.0
 40
1.5
100
AcDbArc
 50
90.0
 51
180.0
  0
ARC
  5
5C
330
1F
100
AcDbEntity
  8
0
  6
Continuous
 62
     7
370
    15
100
AcDbCircle
 10
136.7058706974
 20
177.9529312625
 30
0.0
 40
1.5
100
AcDbArc
 50
0.0
 51
90.0
  0
ARC
  5
5D
330
1F
100
AcDbEntity
  8
0
  6
Continuous
 62
     7
370
    15
100
AcDbCircle
 10
197.3058706974
 20
91.4854972082
 30
0.0
 40
4.699999999999989
100
AcDbArc
 50
350.5402980318
 51
0.0
  0
ARC
  5
5E
330
1F
100
AcDbEntity
  8
0
  6
Continuous
 62
     7
370
    15
100
AcDbCircle
 10
142.9058706974
 20
91.4854972082
 30
0.0
 40
4.699999999999989
100
AcDbArc
 50
180.0
 51
189.4597019682
  0
LINE
  5
5F
330
1F
100
AcDbEntity
  8
0
  6
Continuous
 62
     7
370
    15
100
AcDbLine
 10
202.0058706974
 20
91.4854972082
 30
0.0
 11
202.0058706974
 21
177.9529312625
 31
0.0
  0
LINE
  5
60
330
1F
100
AcDbEntity
  8
0
  6
Continuous
 62
     7
370
    15
100
AcDbLine
 10
138.2058706974
 20
177.9529312625
 30
0.0
 11
138.2058706974
 21
91.4854972082
 31
0.0
  0
LINE
  5
61
330
1F
100
AcDbEntity
  8
0
  6
Continuous
 62
     7
370
    15
100
AcDbLine
 10
138.2697839243
 20
90.7130339837
 30
0.0
 11
139.146220477
 21
85.4529312625
 31
0.0
  0
LINE
  5
62
330
1F
100
AcDbEntity
  8
0
  6
Continuous
 62
     7
370
    15
100
AcDbLine
 10
201.0655209177
 20
85.4529312625
 30
0.0
 11
201.9419574704
 21
90.7130339837
 31
0.0
  0
ARC
  5
63
330
1F
100
AcDbEntity
  8
0
  6
Continuous
 62
     7
370
    15
100
AcDbCircle
 10
782.5058706974
 20
177.9529312625
 30
0.0
 40
1.500000000000114
100
AcDbArc
 50
90.0
 51
180.0
  0
ARC
  5
64
330
1F
100
AcDbEntity
  8
0
  6
Continuous
 62
     7
370
    15
100
AcDbCircle
 10
715.7058706974
 20
177.9529312625
 30
0.0
 40
1.499999999999943
100
AcDbArc
 50
0.0
 51
90.0
  0
LINE
  5
65
330
1F
100
AcDbEntity
  8
0
  6
Continuous
 62
     7
370
    15
100
AcDbLine
 10
781.0058706974
 20
91.4854972082
 30
0.0
 11
781.0058706974
 21
177.9529312625
 31
0.0
  0
LINE
  5
66
330
1F
100
AcDbEntity
  8
0
  6
Continuous
 62
     7
370
    15
100
AcDbLine
 10
717.2058706974
 20
177.9529312625
 30
0.0
 11
717.2058706974
 21
91.4854972082
 31
0.0
  0
ARC
  5
67
330
1F
100
AcDbEntity
  8
0
  6
Continuous
 62
     7
370
    15
100
AcDbCircle
 10
776.3058706974
 20
91.4854972082
 30
0.0
 40
4.700000000000006
100
AcDbArc
 50
350.5402980318
 51
0.0
  0
ARC
  5
68
330
1F
100
AcDbEntity
  8
0
  6
Continuous
 62
     7
370
    15
100
AcDbCircle
 10
721.9058706974
 20
91.4854972082
 30
0.0
 40
4.700000000000045
100
AcDbArc
 50
180.0
 51
189.4597019682
  0
LINE
  5
69
330
1F
100
AcDbEntity
  8
0
  6
Continuous
 62
     7
370
    15
100
AcDbLine
 10
717.2697839243
 20
90.7130339837
 30
0.0
 11
718.146220477
 21
85.4529312625
 31
0.0
  0
LINE
  5
6A
330
1F
100
AcDbEntity
  8
0
  6
Continuous
 62
     7
370
    15
100
AcDbLine
 10
780.0655209177
 20
85.4529312625
 30
0.0
 11
780.9419574704
 21
90.7130339837
 31
0.0
  0
ARC
  5
6B
330
1F
100
AcDbEntity
  8
0
  6
Continuous
 62
     7
370
    15
100
AcDbCircle
 10
94.7558706974
 20
167.4029312625
 30
0.0
 40
0.2499999999999871
100
AcDbArc
 50
180.0
 51
209.473426788
  0
LINE
  5
6C
330
1F
100
AcDbEntity
  8
0
  6
Continuous
 62
     7
370
    15
100
AcDbLine
 10
94.5058706974
 20
168.1029312625
 30
0.0
 11
94.5058706974
 21
167.4029312625
 31
0.0
  0
SPLINE
  5
6D
330
1F
100
AcDbEntity
  8
0
  6
Continuous
 62
     7
370
    15
100
AcDbSpline
210
0.0
220
0.0
230
1.0
 70
     8
 71
     3
 72
    13
 73
     9
 74
     0
 42
0.00000001
 43
0.00000001
 12
1.0
 22
0.0
 32
0.0
 13
1.0
 23
0.0
 33
0.0
 40
0.0
 40
0.0
 40
0.0
 40
0.0
 40
0.0546880530910642
 40
0.2134688124179649
 40
0.3745771152279128
 40
0.5445034158408074
 40
0.7475374221057959
 40
1.0
 40
1.0
 40
1.0
 40
1.0
 10
107.1601456082292
 20
168.6028391974526
 30
0.0
 10
107.1606395661162
 20
168.5932554700368
 30
0.0
 10
107.1625676765085
 20
168.5558464420251
 30
0.0
 10
107.1485333283908
 20
168.4920007093571
 30
0.0
 10
107.1208925840927
 20
168.424609690378
 30
0.0
 10
107.0839866085195
 20
168.3770136746716
 30
0.0
 10
107.0492097057701
 20
168.3541391821946
 30
0.0
 10
107.037379533283
 20
168.3536852421562
 30
0.0
 10
107.0308225667833
 20
168.3534336423061
 30
0.0
  0
LINE
  5
6E
330
1F
100
AcDbEntity
  8
0
  6
Continuous
 62
     7
370
    15
100
AcDbLine
 10
107.162020447
 20
173.7029312625
 30
0.0
 11
107.162020447
 21
168.6029312625
 31
0.0
  0
ARC
  5
6F
330
1F
100
AcDbEntity
  8
0
  6
Continuous
 62
     7
370
    15
100
AcDbCircle
 10
107.412020447
 20
173.7029312625
 30
0.0
 40
0.2499999999999716
100
AcDbArc
 50
90.0
 51
180.0
  0
ARC
  5
70
330
1F
100
AcDbEntity
  8
0
  6
Continuous
 62
     7
370
    15
100
AcDbCircle
 10
112.1119908463
 20
173.7029312625
 30
0.0
 40
0.2500000000000853
100
AcDbArc
 50
0.0
 51
90.0
  0
LINE
  5
71
330
1F
100
AcDbEntity
  8
0
  6
Continuous
 62
     7
370
    15
100
AcDbLine
 10
112.3619908463
 20
168.6029312625
 30
0.0
 11
112.3619908463
 21
173.7029312625
 31
0.0
  0
ARC
  5
72
330
1F
100
AcDbEntity
  8
0
  6
Continuous
 62
     7
370
    15
100
AcDbCircle
 10
111.6558706974
 20
167.4029312625
 30
0.0
 40
0.2499999999999716
100
AcDbArc
 50
270.0
 51
0.0
  0
LINE
  5
73
330
1F
100
AcDbEntity
  8
0
  6
Continuous
 62
     7
370
    15
100
AcDbLine
 10
94.0497505484
 20
173.7029312625
 30
0.0
 11
94.0497505484
 21
168.6029312625
 31
0.0
  0
ARC
  5
74
330
1F
100
AcDbEntity
  8
0
  6
Continuous
 62
     7
370
    15
100
AcDbCircle
 10
94.2997505484
 20
173.7029312625
 30
0.0
 40
0.2499999999999716
100
AcDbArc
 50
90.0
 51
180.0
  0
SPLINE
  5
75
330
1F
100
AcDbEntity
  8
0
  6
Continuous
 62
     7
370
    15
100
AcDbSpline
210
0.0
220
0.0
230
1.0
 70
     8
 71
     3
 72
    13
 73
     9
 74
     0
 42
0.00000001
 43
0.00000001
 12
1.0
 22
0.0
 32
0.0
 13
1.0
 23
0.0
 33
0.0
 40
0.0
 40
0.0
 40
0.0
 40
0.0
 40
0.0634888169688677
 40
0.2470479163435575
 40
0.4311284030640119
 40
0.6187780680135966
 40
0.831555268186546
 40
1.0
 40
1.0
 40
1.0
 40
1.0
 10
100.0967141360635
 20
168.1030401528569
 30
0.0
 10
100.0962418042312
 20
168.1132662150103
 30
0.0
 10
100.094403864881
 20
168.1530579053897
 30
0.0
 10
100.1077488818217
 20
168.2206173488798
 30
0.0
 10
100.1336968269303
 20
168.2907168624523
 30
0.0
 10
100.165664940594
 20
168.3371850258403
 30
0.0
 10
100.188680224751
 20
168.3532116513761
 30
0.0
 10
100.1879377339802
 20
168.3525110735273
 30
0.0
 10
100.1876096608861
 20
168.352201519858
 30
0.0
  0
ARC
  5
76
330
1F
100
AcDbEntity
  8
0
  6
Continuous
 62
     7
370
    15
100
AcDbCircle
 10
99.8449188737
 20
163.0029312625
 30
0.0
 40
0.2500000000000284
100
AcDbArc
 50
270.0
 51
0.0
  0
LINE
  5
77
330
1F
100
AcDbEntity
  8
0
  6
Continuous
 62
     7
370
    15
100
AcDbLine
 10
100.0949188737
 20
163.0029312625
 30
0.0
 11
100.0949188737
 21
168.1029312625
 31
0.0
  0
ARC
  5
78
330
1F
100
AcDbEntity
  8
0
  6
Continuous
 62
     7
370
    15
100
AcDbCircle
 10
94.7882247015
 20
163.0029312625
 30
0.0
 40
0.2500000000000853
100
AcDbArc
 50
180.0
 51
270.0
  0
LINE
  5
79
330
1F
100
AcDbEntity
  8
0
  6
Continuous
 62
     7
370
    15
100
AcDbLine
 10
94.5382247015
 20
168.1029312625
 30
0.0
 11
94.5382247015
 21
163.0029312625
 31
0.0
  0
ARC
  5
7A
330
1F
100
AcDbEntity
  8
0
  6
Continuous
 62
     7
370
    15
100
AcDbCircle
 10
94.7558706974
 20
168.6029312625
 30
0.0
 40
0.2499999999999761
100
AcDbArc
 50
180.0
 51
232.7089330724
  0
ARC
  5
7B
330
1F
100
AcDbEntity
  8
0
  6
Continuous
 62
     7
370
    15
100
AcDbCircle
 10
94.7558706974
 20
169.3029312625
 30
0.0
 40
0.2499999999999716
100
AcDbArc
 50
90.0
 51
180.0
  0
LINE
  5
7C
330
1F
100
AcDbEntity
  8
0
  6
Continuous
 62
     7
370
    15
100
AcDbLine
 10
94.5058706974
 20
169.3029312625
 30
0.0
 11
94.5058706974
 21
168.6029312625
 31
0.0
  0
ARC
  5
7D
330
1F
100
AcDbEntity
  8
0
  6
Continuous
 62
     7
370
    15
100
AcDbCircle
 10
111.6235166932
 20
163.0029312625
 30
0.0
 40
0.2500000000000284
100
AcDbArc
 50
270.0
 51
0.0
  0
LINE
  5
7E
330
1F
100
AcDbEntity
  8
0
  6
Continuous
 62
     7
370
    15
100
AcDbLine
 10
111.8735166932
 20
163.0029312625
 30
0.0
 11
111.8735166932
 21
167.2799263013
 31
0.0
  0
LINE
  5
7F
330
1F
100
AcDbEntity
  8
0
  6
Continuous
 62
     7
370
    15
100
AcDbLine
 10
97.7441792935
 20
162.2194889188
 30
0.0
 11
98.2058706974
 21
161.9529312625
 31
0.0
  0
LINE
  5
80
330
1F
100
AcDbEntity
  8
0
  6
Continuous
 62
     7
370
    15
100
AcDbLine
 10
108.6675621012
 20
166.8863736062
 30
0.0
 11
108.2058706974
 21
167.1529312625
 31
0.0
  0
LINE
  5
81
330
1F
100
AcDbEntity
  8
0
  6
Continuous
 62
     7
370
    15
100
AcDbLine
 10
108.2058706974
 20
161.9529312625
 30
0.0
 11
108.6675621012
 21
162.2194889188
 31
0.0
  0
LINE
  5
82
330
1F
100
AcDbEntity
  8
0
  6
Continuous
 62
     7
370
    15
100
AcDbLine
 10
98.1166195476
 20
175.0544604379
 30
0.0
 11
98.2058706974
 21
175.0029312625
 31
0.0
  0
LINE
  5
83
330
1F
100
AcDbEntity
  8
0
  6
Continuous
 62
     7
370
    15
100
AcDbLine
 10
108.2058706974
 20
175.0029312625
 30
0.0
 11
108.2951218471
 21
175.0544604379
 31
0.0
  0
LINE
  5
84
330
1F
100
AcDbEntity
  8
0
  6
Continuous
 62
     7
370
    15
100
AcDbLine
 10
108.4532517508
 20
174.6101057447
 30
0.0
 11
108.2058706974
 21
174.7529312625
 31
0.0
  0
LINE
  5
85
330
1F
100
AcDbEntity
  8
0
  6
Continuous
 62
     7
370
    15
100
AcDbLine
 10
98.2058706974
 20
174.7529312625
 30
0.0
 11
97.9584896439
 21
174.6101057447
 31
0.0
  0
LINE
  5
86
330
1F
100
AcDbEntity
  8
0
  6
Continuous
 62
     7
370
    15
100
AcDbLine
 10
97.9584896439
 20
169.6957567804
 30
0.0
 11
98.2058706974
 21
169.5529312625
 31
0.0
  0
LINE
  5
87
330
1F
100
AcDbEntity
  8
0
  6
Continuous
 62
     7
370
    15
100
AcDbLine
 10
100.2058706974
 20
175.0029312625
 30
0.0
 11
100.2058706974
 21
174.7529312625
 31
0.0
  0
LINE
  5
88
330
1F
100
AcDbEntity
  8
0
  6
Continuous
 62
     7
370
    15
100
AcDbLine
 10
106.2058706974
 20
174.7529312625
 30
0.0
 11
106.2058706974
 21
175.0029312625
 31
0.0
  0
LINE
  5
89
330
1F
100
AcDbEntity
  8
0
  6
Continuous
 62
     7
370
    15
100
AcDbLine
 10
77.090044762
 20
928.7529312625
 30
0.0
 11
77.090044762
 21
938.2529312625
 31
0.0
  0
LINE
  5
8A
330
1F
100
AcDbEntity
  8
0
  6
Continuous
 62
     7
370
    15
100
AcDbLine
 10
58.090044762
 20
938.2529312625
 30
0.0
 11
58.090044762
 21
928.7529312625
 31
0.0
  0
ARC
  5
8B
330
1F
100
AcDbEntity
  8
0
  6
Continuous
 62
     7
370
    15
100
AcDbCircle
 10
60.090044762
 20
938.2529312625
 30
0.0
 40
2.0
100
AcDbArc
 50
90.0
 51
180.0
  0
ARC
  5
8C
330
1F
100
AcDbEntity
  8
0
  6
Continuous
 62
     7
370
    15
100
AcDbCircle
 10
75.090044762
 20
938.2529312625
 30
0.0
 40
2.0
100
AcDbArc
 50
0.0
 51
90.0
  0
ARC
  5
8D
330
1F
100
AcDbEntity
  8
0
  6
Continuous
 62
     7
370
    15
100
AcDbCircle
 10
897.4251091063
 20
804.8807499978
 30
0.0
 40
2.00000000000013
100
AcDbArc
 50
205.0
 51
292.0
  0
ARC
  5
8E
330
1F
100
AcDbEntity
  8
0
  6
Continuous
 62
     7
370
    15
100
AcDbCircle
 10
917.6245116455
 20
761.5629914625
 30
0.0
 40
2.000000000000075
100
AcDbArc
 50
118.0
 51
205.0
  0
LINE
  5
8F
330
1F
100
AcDbEntity
  8
0
  6
Continuous
 62
     7
370
    15
100
AcDbLine
 10
916.6855685199
 20
763.3288866482
 30
0.0
 11
917.9935255212
 21
764.024339722
 31
0.0
  0
LINE
  5
90
330
1F
100
AcDbEntity
  8
0
  6
Continuous
 62
     7
370
    15
100
AcDbLine
 10
899.5478088102
 20
803.5813068624
 30
0.0
 11
898.1743222932
 21
803.0263822887
 31
0.0
  0
LINE
  5
91
330
1F
100
AcDbEntity
  8
0
  6
Continuous
 62
     7
370
    15
100
AcDbLine
 10
928.6508428798
 20
721.3535367406
 30
0.0
 11
929.092922531
 21
721.5885946607
 31
0.0
  0
LINE
  5
92
330
1F
100
AcDbEntity
  8
0
  6
Continuous
 62
     7
370
    15
100
AcDbLine
 10
922.1274802474
 20
755.1590452024
 30
0.0
 11
929.5000850708
 21
763.010458968
 31
0.0
  0
LINE
  5
93
330
1F
100
AcDbEntity
  8
0
  6
Continuous
 62
     7
370
    15
100
AcDbLine
 10
905.4108441516
 20
814.6700028291
 30
0.0
 11
894.6572932343
 21
814.0690513598
 31
0.0
  0
LINE
  5
94
330
1F
100
AcDbEntity
  8
0
  6
Continuous
 62
     7
370
    15
100
AcDbLine
 10
929.5000850708
 20
763.010458968
 30
0.0
 11
943.4004211663
 21
779.129927643
 31
0.0
  0
LINE
  5
95
330
1F
100
AcDbEntity
  8
0
  6
Continuous
 62
     7
370
    15
100
AcDbLine
 10
905.9107987356
 20
814.6767418184
 30
0.0
 11
905.4108441516
 21
814.6700028291
 31
0.0
  0
ARC
  5
96
330
1F
100
AcDbEntity
  8
0
  6
Continuous
 62
     7
370
    15
100
AcDbCircle
 10
942.6431097823
 20
779.7829815977
 30
0.0
 40
1.000000000000013
100
AcDbArc
 50
319.227745318
 51
25.0
  0
LINE
  5
97
330
1F
100
AcDbEntity
  8
0
  6
Continuous
 62
     7
370
    15
100
AcDbLine
 10
775.6058706974
 20
11.4529312625
 30
0.0
 11
722.6058706974
 21
11.4529312625
 31
0.0
  0
LINE
  5
98
330
1F
100
AcDbEntity
  8
0
  6
Continuous
 62
     7
370
    15
100
AcDbLine
 10
777.6058706974
 20
17.4529312625
 30
0.0
 11
720.6058706974
 21
17.4529312625
 31
0.0
  0
LINE
  5
99
330
1F
100
AcDbEntity
  8
0
  6
Continuous
 62
     7
370
    15
100
AcDbLine
 10
196.6058706974
 20
11.4529312625
 30
0.0
 11
143.6058706974
 21
11.4529312625
 31
0.0
  0
LINE
  5
9A
330
1F
100
AcDbEntity
  8
0
  6
Continuous
 62
     7
370
    15
100
AcDbLine
 10
198.6058706974
 20
17.4529312625
 30
0.0
 11
141.6058706974
 21
17.4529312625
 31
0.0
  0
LINE
  5
9B
330
1F
100
AcDbEntity
  8
0
  6
Continuous
 62
     7
370
    15
100
AcDbLine
 10
215.1058706974
 20
179.4529312625
 30
0.0
 11
215.1058706974
 21
179.9529312625
 31
0.0
  0
LINE
  5
9C
330
1F
100
AcDbEntity
  8
0
  6
Continuous
 62
     7
370
    15
100
AcDbLine
 10
125.1058706974
 20
179.4529312625
 30
0.0
 11
125.1058706974
 21
179.9529312625
 31
0.0
  0
LINE
  5
9D
330
1F
100
AcDbEntity
  8
0
  6
Continuous
 62
     7
370
    15
100
AcDbLine
 10
125.1058706974
 20
179.4529312625
 30
0.0
 11
215.1058706974
 21
179.4529312625
 31
0.0
  0
LINE
  5
9E
330
1F
100
AcDbEntity
  8
0
  6
Continuous
 62
     7
370
    15
100
AcDbLine
 10
201.0655209177
 20
85.4529312625
 30
0.0
 11
139.146220477
 21
85.4529312625
 31
0.0
  0
LINE
  5
9F
330
1F
100
AcDbEntity
  8
0
  6
Continuous
 62
     7
370
    15
100
AcDbLine
 10
794.1058706974
 20
179.4529312625
 30
0.0
 11
794.1058706974
 21
179.9529312625
 31
0.0
  0
LINE
  5
A0
330
1F
100
AcDbEntity
  8
0
  6
Continuous
 62
     7
370
    15
100
AcDbLine
 10
704.1058706974
 20
179.4529312625
 30
0.0
 11
704.1058706974
 21
179.9529312625
 31
0.0
  0
LINE
  5
A1
330
1F
100
AcDbEntity
  8
0
  6
Continuous
 62
     7
370
    15
100
AcDbLine
 10
704.1058706974
 20
179.4529312625
 30
0.0
 11
794.1058706974
 21
179.4529312625
 31
0.0
  0
LINE
  5
A2
330
1F
100
AcDbEntity
  8
0
  6
Continuous
 62
     7
370
    15
100
AcDbLine
 10
780.0655209177
 20
85.4529312625
 30
0.0
 11
718.146220477
 21
85.4529312625
 31
0.0
  0
LINE
  5
A3
330
1F
100
AcDbEntity
  8
0
  6
Continuous
 62
     7
370
    15
100
AcDbLine
 10
94.4751151564
 20
181.9731016775
 30
0.0
 11
94.5840658709
 21
181.7893386822
 31
0.0
  0
LWPOLYLINE
  5
A4
330
1F
100
AcDbEntity
  8
0
  6
Continuous
 62
     7
370
    15
100
AcDbPolyline
 90
        3
 70
   128
 43
0.0
 10
835.3216056842
 20
181.6411570393
 10
835.4182508056
 20
181.7751197266
 10
835.4837890982
 20
181.8791174785
  0
SPLINE
  5
A5
330
1F
100
AcDbEntity
  8
0
  6
Continuous
 62
     7
370
    15
100
AcDbSpline
210
0.0
220
0.0
230
1.0
 70
     8
 71
     3
 72
    12
 73
     8
 74
     0
 42
0.00000001
 43
0.00000001
 12
1.0
 22
0.0
 32
0.0
 13
1.0
 23
0.0
 33
0.0
 40
0.0
 40
0.0
 40
0.0
 40
0.0
 40
0.2096821001528785
 40
0.4420453733186285
 40
0.6744332966681278
 40
0.9068208701180489
 40
1.0
 40
1.0
 40
1.0
 40
1.0
 10
836.3987996295479
 20
661.552931262547
 30
0.0
 10
836.2945144216205
 20
661.5285912923785
 30
0.0
 10
836.0746635443337
 20
661.4772785136915
 30
0.0
 10
835.7386954144508
 20
661.0563479267626
 30
0.0
 10
835.391790146034
 20
660.4045584488673
 30
0.0
 10
835.1134134838012
 20
659.7551174097647
 30
0.0
 10
834.9520530225795
 20
659.3646774926584
 30
0.0
 10
834.9058706973598
 20
659.2529312625469
 30
0.0
  0
LINE
  5
A6
330
1F
100
AcDbEntity
  8
0
  6
Continuous
 62
     7
370
    15
100
AcDbLine
 10
836.3987996295
 20
661.5529312625
 30
0.0
 11
836.3987996295
 21
660.7529312625
 31
0.0
  0
SPLINE
  5
A7
330
1F
100
AcDbEntity
  8
0
  6
Continuous
 62
     7
370
    15
100
AcDbSpline
210
0.0
220
0.0
230
1.0
 70
     8
 71
     3
 72
    11
 73
     7
 74
     0
 42
0.00000001
 43
0.00000001
 12
1.0
 22
0.0
 32
0.0
 13
1.0
 23
0.0
 33
0.0
 40
0.0
 40
0.0
 40
0.0
 40
0.0
 40
0.2543211584721375
 40
0.5088664984542202
 40
0.7634130007197455
 40
1.0
 40
1.0
 40
1.0
 40
1.0
 10
836.3987996295479
 20
660.7529312625469
 30
0.0
 10
836.2722185217626
 20
660.7295772005278
 30
0.0
 10
836.018944726235
 20
660.6828484901218
 30
0.0
 10
835.6390000567495
 20
660.3239608739268
 30
0.0
 10
835.2677749250785
 20
659.8247378946372
 30
0.0
 10
835.0235282804092
 20
659.438829578042
 30
0.0
 10
834.9058706973598
 20
659.2529312625469
 30
0.0
  0
SPLINE
  5
A8
330
1F
100
AcDbEntity
  8
0
  6
Continuous
 62
     7
370
    15
100
AcDbSpline
210
0.0
220
0.0
230
1.0
 70
     8
 71
     3
 72
    12
 73
     8
 74
     0
 42
0.00000001
 43
0.00000001
 12
1.0
 22
0.0
 32
0.0
 13
1.0
 23
0.0
 33
0.0
 40
0.0
 40
0.0
 40
0.0
 40
0.0
 40
0.2096821001528935
 40
0.4420453733186377
 40
0.6744332966681174
 40
0.9068208701180545
 40
0.9999999999999999
 40
0.9999999999999999
 40
0.9999999999999999
 40
0.9999999999999999
 10
94.90587069735973
 20
182.2529312625469
 30
0.0
 10
94.6535397393844
 20
182.1486460546194
 30
0.0
 10
94.1215833518973
 20
181.9287951773327
 30
0.0
 10
93.40020192208209
 20
181.5928270474497
 30
0.0
 10
92.85684298809616
 20
181.2459217790327
 30
0.0
 10
92.62822114795271
 20
180.9675451168002
 30
0.0
 10
92.61084410932835
 20
180.8061846555784
 30
0.0
 10
92.60587069735976
 20
180.7600023303587
 30
0.0
  0
SPLINE
  5
A9
330
1F
100
AcDbEntity
  8
0
  6
Continuous
 62
     7
370
    15
100
AcDbSpline
210
0.0
220
0.0
230
1.0
 70
     8
 71
     3
 72
    11
 73
     7
 74
     0
 42
0.00000001
 43
0.00000001
 12
1.0
 22
0.0
 32
0.0
 13
1.0
 23
0.0
 33
0.0
 40
0.0
 40
0.0
 40
0.0
 40
0.0
 40
0.2543211584722136
 40
0.5088664984543175
 40
0.7634130007197989
 40
1.0
 40
1.0
 40
1.0
 40
1.0
 10
94.90587069735973
 20
182.2529312625469
 30
0.0
 10
94.70589550722036
 20
182.1263501547615
 30
0.0
 10
94.30576885084918
 20
181.8730763592338
 30
0.0
 10
93.80414509675344
 20
181.4931316897481
 30
0.0
 10
93.46807984989496
 20
181.1219065580775
 30
0.0
 10
93.42609532578422
 20
180.8776599134083
 30
0.0
 10
93.40587069735979
 20
180.7600023303587
 30
0.0
  0
LINE
  5
AA
330
1F
100
AcDbEntity
  8
0
  6
Continuous
 62
     7
370
    15
100
AcDbLine
 10
92.6058706974
 20
180.7600023304
 30
0.0
 11
93.4058706974
 21
180.7600023304
 31
0.0
  0
SPLINE
  5
AB
330
1F
100
AcDbEntity
  8
0
  6
Continuous
 62
     7
370
    15
100
AcDbSpline
210
0.0
220
0.0
230
1.0
 70
     8
 71
     3
 72
    12
 73
     8
 74
     0
 42
0.00000001
 43
0.00000001
 12
1.0
 22
0.0
 32
0.0
 13
1.0
 23
0.0
 33
0.0
 40
0.0
 40
0.0
 40
0.0
 40
0.0
 40
0.2096821001528548
 40
0.4420453733185808
 40
0.6744332966681452
 40
0.9068208701180696
 40
1.0
 40
1.0
 40
1.0
 40
1.0
 10
93.4129417651714
 20
179.9529312625469
 30
0.0
 10
93.51722697309889
 20
179.9772712327155
 30
0.0
 10
93.73707785038549
 20
180.0285840114024
 30
0.0
 10
94.07304598026889
 20
180.4495145983311
 30
0.0
 10
94.4199512486853
 20
181.1013040762263
 30
0.0
 10
94.69832791091831
 20
181.7507451153295
 30
0.0
 10
94.85968837214004
 20
182.1411850324354
 30
0.0
 10
94.90587069735973
 20
182.2529312625469
 30
0.0
  0
LINE
  5
AC
330
1F
100
AcDbEntity
  8
0
  6
Continuous
 62
     7
370
    15
100
AcDbLine
 10
93.4129417652
 20
179.9529312625
 30
0.0
 11
93.4129417652
 21
180.7529312625
 31
0.0
  0
SPLINE
  5
AD
330
1F
100
AcDbEntity
  8
0
  6
Continuous
 62
     7
370
    15
100
AcDbSpline
210
0.0
220
0.0
230
1.0
 70
     8
 71
     3
 72
    11
 73
     7
 74
     0
 42
0.00000001
 43
0.00000001
 12
1.0
 22
0.0
 32
0.0
 13
1.0
 23
0.0
 33
0.0
 40
0.0
 40
0.0
 40
0.0
 40
0.0
 40
0.2543211584720677
 40
0.5088664984542013
 40
0.7634130007197871
 40
1.0
 40
1.0
 40
1.0
 40
1.0
 10
93.4129417651714
 20
180.7529312625469
 30
0.0
 10
93.53952287295675
 20
180.7762853245659
 30
0.0
 10
93.79279666848433
 20
180.8230140349719
 30
0.0
 10
94.17274133797
 20
181.1819016511669
 30
0.0
 10
94.54396646964081
 20
181.6811246304568
 30
0.0
 10
94.78821311431018
 20
182.0670329470519
 30
0.0
 10
94.90587069735973
 20
182.2529312625469
 30
0.0
  0
LINE
  5
AE
330
1F
100
AcDbEntity
  8
0
  6
Continuous
 62
     7
370
    15
100
AcDbLine
 10
94.9058706974
 20
182.2529312625
 30
0.0
 11
834.9058706974
 21
182.2529312625
 31
0.0
  0
LINE
  5
AF
330
1F
100
AcDbEntity
  8
0
  6
Continuous
 62
     7
370
    15
100
AcDbLine
 10
94.9058706974
 20
660.7529312625
 30
0.0
 11
94.9058706974
 21
182.2529312625
 31
0.0
  0
LINE
  5
B0
330
1F
100
AcDbEntity
  8
0
  6
Continuous
 62
     7
370
    15
100
AcDbLine
 10
94.9058706974
 20
660.7529312625
 30
0.0
 11
95.9058706974
 21
660.7529312625
 31
0.0
  0
ARC
  5
B1
330
1F
100
AcDbEntity
  8
0
  6
Continuous
 62
     7
370
    15
100
AcDbCircle
 10
96.0058706974
 20
659.2529312625
 30
0.0
 40
0.0999999999999943
100
AcDbArc
 50
180.0
 51
0.0
  0
LINE
  5
B2
330
1F
100
AcDbEntity
  8
0
  6
Continuous
 62
     7
370
    15
100
AcDbLine
 10
834.9058706974
 20
659.2529312625
 30
0.0
 11
96.1058706974
 21
659.2529312625
 31
0.0
  0
LINE
  5
B3
330
1F
100
AcDbEntity
  8
0
  6
Continuous
 62
     7
370
    15
100
AcDbLine
 10
834.9058706974
 20
182.2529312625
 30
0.0
 11
834.9058706974
 21
659.2529312625
 31
0.0
  0
LINE
  5
B4
330
1F
100
AcDbEntity
  8
0
  6
Continuous
 62
     7
370
    15
100
AcDbLine
 10
95.9058706974
 20
659.2529312625
 30
0.0
 11
95.9058706974
 21
660.7529312625
 31
0.0
  0
SPLINE
  5
B5
330
1F
100
AcDbEntity
  8
0
  6
Continuous
 62
     7
370
    15
100
AcDbSpline
210
0.0
220
0.0
230
1.0
 70
     8
 71
     3
 72
    12
 73
     8
 74
     0
 42
0.00000001
 43
0.00000001
 12
1.0
 22
0.0
 32
0.0
 13
1.0
 23
0.0
 33
0.0
 40
0.0
 40
0.0
 40
0.0
 40
0.0
 40
0.2096821001528671
 40
0.4420453733186139
 40
0.6744332966681512
 40
0.9068208701180742
 40
0.9999999999999999
 40
0.9999999999999999
 40
0.9999999999999999
 40
0.9999999999999999
 10
834.9058706973598
 20
659.2529312625469
 30
0.0
 10
835.158201655335
 20
659.3572164704744
 30
0.0
 10
835.6901580428222
 20
659.5770673477613
 30
0.0
 10
836.4115394726373
 20
659.9130354776443
 30
0.0
 10
836.9548984066234
 20
660.2599407460609
 30
0.0
 10
837.183520246767
 20
660.5383174082937
 30
0.0
 10
837.2008972853912
 20
660.6996778695153
 30
0.0
 10
837.2058706973597
 20
660.745860194735
 30
0.0
  0
SPLINE
  5
B6
330
1F
100
AcDbEntity
  8
0
  6
Continuous
 62
     7
370
    15
100
AcDbSpline
210
0.0
220
0.0
230
1.0
 70
     8
 71
     3
 72
    11
 73
     7
 74
     0
 42
0.00000001
 43
0.00000001
 12
1.0
 22
0.0
 32
0.0
 13
1.0
 23
0.0
 33
0.0
 40
0.0
 40
0.0
 40
0.0
 40
0.0
 40
0.2543211584721161
 40
0.5088664984542149
 40
0.763413000719713
 40
1.0
 40
1.0
 40
1.0
 40
1.0
 10
834.9058706973598
 20
659.2529312625469
 30
0.0
 10
835.1058458874991
 20
659.3795123703323
 30
0.0
 10
835.5059725438701
 20
659.63278616586
 30
0.0
 10
836.007596297966
 20
660.0127308353455
 30
0.0
 10
836.3436615448245
 20
660.3839559670164
 30
0.0
 10
836.3856460689353
 20
660.6282026116854
 30
0.0
 10
836.4058706973599
 20
660.745860194735
 30
0.0
  0
LINE
  5
B7
330
1F
100
AcDbEntity
  8
0
  6
Continuous
 62
     7
370
    15
100
AcDbLine
 10
837.2058706974
 20
660.7458601947
 30
0.0
 11
836.4058706974
 21
660.7458601947
 31
0.0
  0
SPLINE
  5
B8
330
1F
100
AcDbEntity
  8
0
  6
Continuous
 62
     7
370
    15
100
AcDbSpline
210
0.0
220
0.0
230
1.0
 70
     8
 71
     3
 72
    12
 73
     8
 74
     0
 42
0.00000001
 43
0.00000001
 12
1.0
 22
0.0
 32
0.0
 13
1.0
 23
0.0
 33
0.0
 40
0.0
 40
0.0
 40
0.0
 40
0.0
 40
0.2096821001528487
 40
0.4420453733185979
 40
0.6744332966681376
 40
0.9068208701180603
 40
1.0
 40
1.0
 40
1.0
 40
1.0
 10
834.9058706973598
 20
182.2529312625468
 30
0.0
 10
835.0101559052873
 20
182.0006003045716
 30
0.0
 10
835.230006782574
 20
181.4686439170843
 30
0.0
 10
835.5659749124571
 20
180.7472624872695
 30
0.0
 10
835.9128801808737
 20
180.2039035532833
 30
0.0
 10
836.1912568431065
 20
179.9752817131399
 30
0.0
 10
836.3526173043283
 20
179.9579046745155
 30
0.0
 10
836.3987996295479
 20
179.9529312625469
 30
0.0
  0
SPLINE
  5
B9
330
1F
100
AcDbEntity
  8
0
  6
Continuous
 62
     7
370
    15
100
AcDbSpline
210
0.0
220
0.0
230
1.0
 70
     8
 71
     3
 72
    11
 73
     7
 74
     0
 42
0.00000001
 43
0.00000001
 12
1.0
 22
0.0
 32
0.0
 13
1.0
 23
0.0
 33
0.0
 40
0.0
 40
0.0
 40
0.0
 40
0.0
 40
0.2543211584721405
 40
0.5088664984542591
 40
0.7634130007197693
 40
1.0
 40
1.0
 40
1.0
 40
1.0
 10
834.9058706973598
 20
182.2529312625469
 30
0.0
 10
835.0324518051452
 20
182.0529560724076
 30
0.0
 10
835.2857256006729
 20
181.6528294160364
 30
0.0
 10
835.6656702701583
 20
181.1512056619409
 30
0.0
 10
836.0368954018292
 20
180.815140415082
 30
0.0
 10
836.2811420464984
 20
180.7731558909714
 30
0.0
 10
836.3987996295479
 20
180.7529312625469
 30
0.0
  0
LINE
  5
BA
330
1F
100
AcDbEntity
  8
0
  6
Continuous
 62
     7
370
    15
100
AcDbLine
 10
836.3987996295
 20
179.9529312625
 30
0.0
 11
836.3987996295
 21
180.7529312625
 31
0.0
  0
LINE
  5
BB
330
1F
100
AcDbEntity
  8
0
  6
Continuous
 62
     7
370
    15
100
AcDbLine
 10
96.1058706974
 20
661.5529312625
 30
0.0
 11
836.3987996295
 21
661.5529312625
 31
0.0
  0
LINE
  5
BC
330
1F
100
AcDbEntity
  8
0
  6
Continuous
 62
     7
370
    15
100
AcDbLine
 10
96.1058706974
 20
659.2529312625
 30
0.0
 11
96.1058706974
 21
661.5529312625
 31
0.0
  0
SPLINE
  5
BD
330
1F
100
AcDbEntity
  8
0
  6
Continuous
 62
     7
370
    15
100
AcDbSpline
210
0.0
220
0.0
230
1.0
 70
     8
 71
     3
 72
    12
 73
     8
 74
     0
 42
0.00000001
 43
0.00000001
 12
1.0
 22
0.0
 32
0.0
 13
1.0
 23
0.0
 33
0.0
 40
0.0
 40
0.0
 40
0.0
 40
0.0
 40
0.2096821001528628
 40
0.4420453733186019
 40
0.6744332966681185
 40
0.9068208701180543
 40
1.0
 40
1.0
 40
1.0
 40
1.0
 10
837.2058706973597
 20
180.7600023303588
 30
0.0
 10
837.1815307271912
 20
180.8642875382862
 30
0.0
 10
837.1302179485044
 20
181.0841384155731
 30
0.0
 10
836.7092873615757
 20
181.4201065454559
 30
0.0
 10
836.0574978836801
 20
181.7670118138727
 30
0.0
 10
835.4080568445777
 20
182.0453884761056
 30
0.0
 10
835.0176169274712
 20
182.2067489373271
 30
0.0
 10
834.9058706973598
 20
182.2529312625469
 30
0.0
  0
LINE
  5
BE
330
1F
100
AcDbEntity
  8
0
  6
Continuous
 62
     7
370
    15
100
AcDbLine
 10
837.2058706974
 20
180.7600023304
 30
0.0
 11
836.4058706974
 21
180.7600023304
 31
0.0
  0
SPLINE
  5
BF
330
1F
100
AcDbEntity
  8
0
  6
Continuous
 62
     7
370
    15
100
AcDbSpline
210
0.0
220
0.0
230
1.0
 70
     8
 71
     3
 72
    11
 73
     7
 74
     0
 42
0.00000001
 43
0.00000001
 12
1.0
 22
0.0
 32
0.0
 13
1.0
 23
0.0
 33
0.0
 40
0.0
 40
0.0
 40
0.0
 40
0.0
 40
0.2543211584721335
 40
0.5088664984542501
 40
0.763413000719735
 40
1.0
 40
1.0
 40
1.0
 40
1.0
 10
836.4058706973599
 20
180.7600023303588
 30
0.0
 10
836.3825166353408
 20
180.8865834381441
 30
0.0
 10
836.335787924935
 20
181.1398572336717
 30
0.0
 10
835.9769003087396
 20
181.5198019031574
 30
0.0
 10
835.4776773294501
 20
181.8910270348281
 30
0.0
 10
835.091769012855
 20
182.1352736794973
 30
0.0
 10
834.9058706973598
 20
182.2529312625469
 30
0.0
  0
LINE
  5
C0
330
1F
100
AcDbEntity
  8
0
  6
Continuous
 62
     7
370
    15
100
AcDbLine
 10
92.6058706974
 20
659.0029312625
 30
0.0
 11
92.6058706974
 21
180.7600023304
 31
0.0
  0
SPLINE
  5
C1
330
1F
100
AcDbEntity
  8
0
  6
Continuous
 62
     7
370
    15
100
AcDbSpline
210
0.0
220
0.0
230
1.0
 70
     8
 71
     3
 72
    12
 73
     8
 74
     0
 42
0.00000001
 43
0.00000001
 12
1.0
 22
0.0
 32
0.0
 13
1.0
 23
0.0
 33
0.0
 40
0.0
 40
0.0
 40
0.0
 40
0.0
 40
0.2039309378941906
 40
0.4425616402550568
 40
0.6812426816310113
 40
0.9199234516442952
 40
1.0
 40
1.0
 40
1.0
 40
1.0
 10
92.60587069735976
 20
659.0029312625469
 30
0.0
 10
92.62893532105987
 20
659.1217666014371
 30
0.0
 10
92.678989117713
 20
659.3796576455454
 30
0.0
 10
93.10145333277625
 20
659.7775393206573
 30
0.0
 10
93.77464925511237
 20
660.1951513324666
 30
0.0
 10
94.4276273680869
 20
660.5212515792501
 30
0.0
 10
94.8098505790162
 20
660.7064153798439
 30
0.0
 10
94.90587069735973
 20
660.7529312625469
 30
0.0
  0
LINE
  5
C2
330
1F
100
AcDbEntity
  8
0
  6
Continuous
 62
     7
370
    15
100
AcDbLine
 10
836.3987996295
 20
179.9529312625
 30
0.0
 11
93.4129417652
 21
179.9529312625
 31
0.0
  0
LINE
  5
C3
330
1F
100
AcDbEntity
  8
0
  6
Continuous
 62
     7
370
    15
100
AcDbLine
 10
837.2058706974
 20
180.7600023304
 30
0.0
 11
837.2058706974
 21
660.7458601947
 31
0.0
  0
LINE
  5
C4
330
1F
100
AcDbEntity
  8
0
  6
Continuous
 62
     7
370
    15
100
AcDbLine
 10
94.2058706974
 20
181.2270890501
 30
0.0
 11
94.2058706974
 21
181.7636112161
 31
0.0
  0
LINE
  5
C5
330
1F
100
AcDbEntity
  8
0
  6
Continuous
 62
     7
370
    15
100
AcDbLine
 10
93.4129417652
 20
180.7529312625
 30
0.0
 11
93.4058706974
 21
180.7529312625
 31
0.0
  0
LINE
  5
C6
330
1F
100
AcDbEntity
  8
0
  6
Continuous
 62
     7
370
    15
100
AcDbLine
 10
93.4058706974
 20
180.7529312625
 30
0.0
 11
93.4058706974
 21
180.7955939384
 31
0.0
  0
LINE
  5
C7
330
1F
100
AcDbEntity
  8
0
  6
Continuous
 62
     7
370
    15
100
AcDbLine
 10
95.9058706974
 20
660.7529312625
 30
0.0
 11
96.1058706974
 21
660.7529312625
 31
0.0
  0
LINE
  5
C8
330
1F
100
AcDbEntity
  8
0
  6
Continuous
 62
     7
370
    15
100
AcDbLine
 10
95.9058706974
 20
659.9529312625
 30
0.0
 11
96.1058706974
 21
659.9529312625
 31
0.0
  0
SPLINE
  5
C9
330
1F
100
AcDbEntity
  8
0
  6
Continuous
 62
     7
370
    15
100
AcDbSpline
210
0.0
220
0.0
230
1.0
 70
     8
 71
     3
 72
    13
 73
     9
 74
     0
 42
0.00000001
 43
0.00000001
 12
1.0
 22
0.0
 32
0.0
 13
1.0
 23
0.0
 33
0.0
 40
0.0
 40
0.0
 40
0.0
 40
0.0
 40
0.1695411050600001
 40
0.3386458383077541
 40
0.5184804584269568
 40
0.7277236211485731
 40
0.9924537768851792
 40
1.0
 40
1.0
 40
1.0
 40
1.0
 10
106.7494662405871
 20
168.1029312625427
 30
0.0
 10
106.7499162318233
 20
168.1275424098293
 30
0.0
 10
106.75081505609
 20
168.1767013592278
 30
0.0
 10
106.7576141982174
 20
168.242837152608
 30
0.0
 10
106.7677998898291
 20
168.2985087557124
 30
0.0
 10
106.7822974046063
 20
168.3412275349855
 30
0.0
 10
106.7939123630398
 20
168.3528131945951
 30
0.0
 10
106.8003555882254
 20
168.3529280785002
 30
0.0
 10
106.800534164182
 20
168.3529312625426
 30
0.0
  0
LINE
  5
CA
330
1F
100
AcDbEntity
  8
0
  6
Continuous
 62
     7
370
    15
100
AcDbLine
 10
100.3826292302
 20
168.3529312625
 30
0.0
 11
106.8005341642
 21
168.3529312625
 31
0.0
  0
SPLINE
  5
CB
330
1F
100
AcDbEntity
  8
0
  6
Continuous
 62
     7
370
    15
100
AcDbSpline
210
0.0
220
0.0
230
1.0
 70
     8
 71
     3
 72
    13
 73
     9
 74
     0
 42
0.00000001
 43
0.00000001
 12
1.0
 22
0.0
 32
0.0
 13
1.0
 23
0.0
 33
0.0
 40
0.0
 40
0.0
 40
0.0
 40
0.0
 40
0.0075462231143622
 40
0.2722763788513441
 40
0.4815195415729996
 40
0.6613541616925612
 40
0.8304588949398899
 40
0.9999999999999999
 40
0.9999999999999999
 40
0.9999999999999999
 40
0.9999999999999999
 10
106.800534164182
 20
167.1529312625427
 30
0.0
 10
106.8003555882253
 20
167.1529344465851
 30
0.0
 10
106.7939123630375
 20
167.1530493304872
 30
0.0
 10
106.7822974046072
 20
167.164634990101
 30
0.0
 10
106.7677998898287
 20
167.2073537693728
 30
0.0
 10
106.7576141982176
 20
167.2630253724772
 30
0.0
 10
106.7508150560896
 20
167.3291611658576
 30
0.0
 10
106.7499162318232
 20
167.3783201152559
 30
0.0
 10
106.7494662405872
 20
167.4029312625426
 30
0.0
  0
LINE
  5
CC
330
1F
100
AcDbEntity
  8
0
  6
Continuous
 62
     7
370
    15
100
AcDbLine
 10
106.8005341642
 20
167.1529312625
 30
0.0
 11
100.0949188737
 21
167.1529312625
 31
0.0
  0
LINE
  5
CD
330
1F
100
AcDbEntity
  8
0
  6
Continuous
 62
     7
370
    15
100
AcDbLine
 10
106.7494662406
 20
168.1029312625
 30
0.0
 11
106.7494662406
 21
167.4029312625
 31
0.0
  0
SPLINE
  5
CE
330
1F
100
AcDbEntity
  8
0
  6
Continuous
 62
     7
370
    15
100
AcDbSpline
210
0.0
220
0.0
230
1.0
 70
     8
 71
     3
 72
    12
 73
     8
 74
     0
 42
0.00000001
 43
0.00000001
 12
1.0
 22
0.0
 32
0.0
 13
1.0
 23
0.0
 33
0.0
 40
0.0
 40
0.0
 40
0.0
 40
0.0
 40
0.2289440738516693
 40
0.4594214300241787
 40
0.682535569815751
 40
0.8947175231628415
 40
1.0
 40
1.0
 40
1.0
 40
1.0
 10
111.2007926442638
 20
167.1529312625423
 30
0.0
 10
111.3348846608833
 20
167.1702657471199
 30
0.0
 10
111.6039667340453
 20
167.205050808639
 30
0.0
 10
111.9565737894875
 20
167.4789206544515
 30
0.0
 10
112.2095833581543
 20
167.8759571889342
 30
0.0
 10
112.3229262030204
 20
168.2768331782873
 30
0.0
 10
112.3325658576006
 20
168.5217185713742
 30
0.0
 10
112.3357627093218
 20
168.6029312625424
 30
0.0
  0
SPLINE
  5
CF
330
1F
100
AcDbEntity
  8
0
  6
Continuous
 62
     7
370
    15
100
AcDbSpline
210
0.0
220
0.0
230
1.0
 70
     8
 71
     3
 72
    12
 73
     8
 74
     0
 42
0.00000001
 43
0.00000001
 12
1.0
 22
0.0
 32
0.0
 13
1.0
 23
0.0
 33
0.0
 40
0.0
 40
0.0
 40
0.0
 40
0.0
 40
0.202820202046752
 40
0.4049472449426878
 40
0.6098312030740743
 40
0.8226939241827865
 40
1.0
 40
1.0
 40
1.0
 40
1.0
 10
108.060889295533
 20
168.6029312625427
 30
0.0
 10
108.0502623452962
 20
168.4457904220073
 30
0.0
 10
108.0290447635312
 20
168.1320457861148
 30
0.0
 10
107.8644615095183
 20
167.7116495356452
 30
0.0
 10
107.6206894396806
 20
167.3845710002058
 30
0.0
 10
107.3287862027948
 20
167.1863617339398
 30
0.0
 10
107.1238332066259
 20
167.1633765280174
 30
0.0
 10
107.0306955396367
 20
167.1529312625427
 30
0.0
  0
LINE
  5
D0
330
1F
100
AcDbEntity
  8
0
  6
Continuous
 62
     7
370
    15
100
AcDbLine
 10
108.0608892955
 20
168.6029312625
 30
0.0
 11
112.3357627093
 21
168.6029312625
 31
0.0
  0
LINE
  5
D1
330
1F
100
AcDbEntity
  8
0
  6
Continuous
 62
     7
370
    15
100
AcDbLine
 10
111.2007926443
 20
167.1529312625
 30
0.0
 11
107.0306955396
 21
167.1529312625
 31
0.0
  0
LINE
  5
D2
330
1F
100
AcDbEntity
  8
0
  6
Continuous
 62
     7
370
    15
100
AcDbLine
 10
112.3357627093
 20
168.6029312625
 30
0.0
 11
112.3357627093
 21
173.7029312625
 31
0.0
  0
LINE
  5
D3
330
1F
100
AcDbEntity
  8
0
  6
Continuous
 62
     7
370
    15
100
AcDbLine
 10
108.0608892955
 20
173.7029312625
 30
0.0
 11
108.0608892955
 21
168.6029312625
 31
0.0
  0
LINE
  5
D4
330
1F
100
AcDbEntity
  8
0
  6
Continuous
 62
     7
370
    15
100
AcDbLine
 10
112.3357627093
 20
173.7029312625
 30
0.0
 11
108.0608892955
 21
173.7029312625
 31
0.0
  0
LWPOLYLINE
  5
D5
330
1F
100
AcDbEntity
  8
0
  6
Continuous
 62
     7
370
    15
100
AcDbPolyline
 90
        9
 70
   128
 43
0.0
 10
108.0608892955
 20
173.7029312625
 10
108.0586028293
 20
173.751703843
 10
108.0518312983
 20
173.7986021206
 10
108.0408349287
 20
173.8418238208
 10
108.0260363047
 20
173.8797079578
 10
108.0080041293
 20
173.9107986656
 10
107.9874313687
 20
173.9339011457
 10
107.9651086226
 20
173.9481275826
 10
107.9418937417
 20
173.9529312625
  0
LINE
  5
D6
330
1F
100
AcDbEntity
  8
0
  6
Continuous
 62
     7
370
    15
100
AcDbLine
 10
107.9418937417
 20
173.9529312625
 30
0.0
 11
112.1119908463
 21
173.9529312625
 31
0.0
  0
ARC
  5
D7
330
1F
100
AcDbEntity
  8
0
  6
Continuous
 62
     7
370
    15
100
AcDbCircle
 10
112.0981082326
 20
173.7153574159
 30
0.0
 40
0.2379791158746409
100
AcDbArc
 50
357.0069219841
 51
86.6557275501
  0
SPLINE
  5
D8
330
1F
100
AcDbEntity
  8
0
  6
Continuous
 62
     7
370
    15
100
AcDbSpline
210
0.0
220
0.0
230
1.0
 70
     8
 71
     3
 72
    12
 73
     8
 74
     0
 42
0.00000001
 43
0.00000001
 12
1.0
 22
0.0
 32
0.0
 13
1.0
 23
0.0
 33
0.0
 40
0.0
 40
0.0
 40
0.0
 40
0.0
 40
0.1789601577903815
 40
0.3929009169381206
 40
0.5976976172812793
 40
0.7987833678438198
 40
1.0
 40
1.0
 40
1.0
 40
1.0
 10
106.8569414936108
 20
167.4029312625425
 30
0.0
 10
106.9399551231227
 20
167.4115432323964
 30
0.0
 10
107.1222087127277
 20
167.4304505182081
 30
0.0
 10
107.380399519751
 20
167.5939865433606
 30
0.0
 10
107.5953588979296
 20
167.8645588551259
 30
0.0
 10
107.7401465812329
 20
168.212688974686
 30
0.0
 10
107.7588066339307
 20
168.4728222900793
 30
0.0
 10
107.7681396956301
 20
168.6029312625426
 30
0.0
  0
LINE
  5
D9
330
1F
100
AcDbEntity
  8
0
  6
Continuous
 62
     7
370
    15
100
AcDbLine
 10
107.7681396956
 20
168.6029312625
 30
0.0
 11
108.0608892955
 21
168.6029312625
 31
0.0
  0
ARC
  5
DA
330
1F
100
AcDbEntity
  8
0
  6
Continuous
 62
     7
370
    15
100
AcDbCircle
 10
107.0771829916
 20
167.3706217311
 30
0.0
 40
0.2225987944100949
100
AcDbArc
 50
171.6542123667
 51
257.9456391699
  0
LINE
  5
DB
330
1F
100
AcDbEntity
  8
0
  6
Continuous
 62
     7
370
    15
100
AcDbLine
 10
107.7681396956
 20
168.6029312625
 30
0.0
 11
107.7681396956
 21
173.7029312625
 31
0.0
  0
LINE
  5
DC
330
1F
100
AcDbEntity
  8
0
  6
Continuous
 62
     7
370
    15
100
AcDbLine
 10
107.7681396956
 20
173.7029312625
 30
0.0
 11
108.0608892955
 21
173.7029312625
 31
0.0
  0
ARC
  5
DD
330
1F
100
AcDbEntity
  8
0
  6
Continuous
 62
     7
370
    15
100
AcDbCircle
 10
107.9883811936
 20
173.735240794
 30
0.0
 40
0.2225987944093917
100
AcDbArc
 50
102.0543608299
 51
188.3457876334
  0
LINE
  5
DE
330
1F
100
AcDbEntity
  8
0
  6
Continuous
 62
     7
370
    15
100
AcDbLine
 10
107.238266401
 20
173.7029312625
 30
0.0
 11
107.238266401
 21
168.6029312625
 31
0.0
  0
LINE
  5
DF
330
1F
100
AcDbEntity
  8
0
  6
Continuous
 62
     7
370
    15
100
AcDbLine
 10
107.7681396956
 20
173.7029312625
 30
0.0
 11
107.238266401
 21
173.7029312625
 31
0.0
  0
LINE
  5
E0
330
1F
100
AcDbEntity
  8
0
  6
Continuous
 62
     7
370
    15
100
AcDbLine
 10
106.7494662406
 20
167.4029312625
 30
0.0
 11
106.8569414936
 21
167.4029312625
 31
0.0
  0
LINE
  5
E1
330
1F
100
AcDbEntity
  8
0
  6
Continuous
 62
     7
370
    15
100
AcDbLine
 10
106.8569414936
 20
168.1029312625
 30
0.0
 11
106.7494662406
 21
168.1029312625
 31
0.0
  0
SPLINE
  5
E2
330
1F
100
AcDbEntity
  8
0
  6
Continuous
 62
     7
370
    15
100
AcDbSpline
210
0.0
220
0.0
230
1.0
 70
     8
 71
     3
 72
    12
 73
     8
 74
     0
 42
0.00000001
 43
0.00000001
 12
1.0
 22
0.0
 32
0.0
 13
1.0
 23
0.0
 33
0.0
 40
0.0
 40
0.0
 40
0.0
 40
0.0
 40
0.1818603118646787
 40
0.3964966430177408
 40
0.6005836871107707
 40
0.8002123703305261
 40
1.0
 40
1.0
 40
1.0
 40
1.0
 10
106.8569414936109
 20
168.1029312625427
 30
0.0
 10
106.8921634541821
 20
168.1066490141365
 30
0.0
 10
106.9689553005381
 20
168.1147545541054
 30
0.0
 10
107.0770902435672
 20
168.1839092531121
 30
0.0
 10
107.1664789559643
 20
168.2967486600657
 30
0.0
 10
107.2266215183515
 20
168.4411697608111
 30
0.0
 10
107.2343837437859
 20
168.5489964588684
 30
0.0
 10
107.2382664009796
 20
168.6029312625427
 30
0.0
  0
ARC
  5
E3
330
1F
100
AcDbEntity
  8
0
  6
Continuous
 62
     7
370
    15
100
AcDbCircle
 10
107.458507899
 20
173.735240794
 30
0.0
 40
0.2225987944092436
100
AcDbArc
 50
102.0543608298
 51
188.3457876335
  0
LINE
  5
E4
330
1F
100
AcDbEntity
  8
0
  6
Continuous
 62
     7
370
    15
100
AcDbLine
 10
107.412020447
 20
173.9529312625
 30
0.0
 11
107.9418937417
 21
173.9529312625
 31
0.0
  0
ARC
  5
E5
330
1F
100
AcDbEntity
  8
0
  6
Continuous
 62
     7
370
    15
100
AcDbCircle
 10
107.0771829916
 20
168.135240794
 30
0.0
 40
0.222598794410163
100
AcDbArc
 50
102.0543608302
 51
188.3457876333
  0
LINE
  5
E6
330
1F
100
AcDbEntity
  8
0
  6
Continuous
 62
     7
370
    15
100
AcDbLine
 10
106.8005341642
 20
168.3529312625
 30
0.0
 11
107.0306955396
 21
168.3529312625
 31
0.0
  0
LINE
  5
E7
330
1F
100
AcDbEntity
  8
0
  6
Continuous
 62
     7
370
    15
100
AcDbLine
 10
107.0306955396
 20
167.1529312625
 30
0.0
 11
106.8005341642
 21
167.1529312625
 31
0.0
  0
LINE
  5
E8
330
1F
100
AcDbEntity
  8
0
  6
Continuous
 62
     7
370
    15
100
AcDbLine
 10
112.3357627093
 20
168.6029312625
 30
0.0
 11
112.3619908463
 21
168.6029312625
 31
0.0
  0
LINE
  5
E9
330
1F
100
AcDbEntity
  8
0
  6
Continuous
 62
     7
370
    15
100
AcDbLine
 10
111.6558706974
 20
167.1529312625
 30
0.0
 11
111.2007926443
 21
167.1529312625
 31
0.0
  0
LINE
  5
EA
330
1F
100
AcDbEntity
  8
0
  6
Continuous
 62
     7
370
    15
100
AcDbLine
 10
94.1259965024
 20
173.7029312625
 30
0.0
 11
94.1259965024
 21
168.6029312625
 31
0.0
  0
LINE
  5
EB
330
1F
100
AcDbEntity
  8
0
  6
Continuous
 62
     7
370
    15
100
AcDbLine
 10
94.655869797
 20
173.7029312625
 30
0.0
 11
94.1259965024
 21
173.7029312625
 31
0.0
  0
SPLINE
  5
EC
330
1F
100
AcDbEntity
  8
0
  6
Continuous
 62
     7
370
    15
100
AcDbSpline
210
0.0
220
0.0
230
1.0
 70
     8
 71
     3
 72
    11
 73
     7
 74
     0
 42
0.00000001
 43
0.00000001
 12
1.0
 22
0.0
 32
0.0
 13
1.0
 23
0.0
 33
0.0
 40
0.0
 40
0.0
 40
0.0
 40
0.0
 40
0.0796332959752195
 40
0.4594981978904319
 40
0.8207504115406021
 40
1.0
 40
1.0
 40
1.0
 40
1.0
 10
94.53822470148299
 20
167.4514218925161
 30
0.0
 10
94.51416153692294
 20
167.4683846229371
 30
0.0
 10
94.37531282275796
 20
167.5662625766787
 30
0.0
 10
94.20606752737687
 20
167.8846036537203
 30
0.0
 10
94.08839430708416
 20
168.2759023246304
 30
0.0
 10
94.0790707184197
 20
168.5214867480847
 30
0.0
 10
94.07597868537832
 20
168.6029312625424
 30
0.0
  0
LINE
  5
ED
330
1F
100
AcDbEntity
  8
0
  6
Continuous
 62
     7
370
    15
100
AcDbLine
 10
95.0560088932
 20
173.7029312625
 30
0.0
 11
94.655869797
 21
173.7029312625
 31
0.0
  0
ARC
  5
EE
330
1F
100
AcDbEntity
  8
0
  6
Continuous
 62
     7
370
    15
100
AcDbCircle
 10
94.8761112951
 20
173.735240794
 30
0.0
 40
0.222598794410221
100
AcDbArc
 50
102.05436083
 51
188.3457876332
  0
ARC
  5
EF
330
1F
100
AcDbEntity
  8
0
  6
Continuous
 62
     7
370
    15
100
AcDbCircle
 10
94.8172005304
 20
173.7141810716
 30
0.0
 40
0.2390731945686872
100
AcDbArc
 50
357.3028984187
 51
87.0213133887
  0
LINE
  5
F0
330
1F
100
AcDbEntity
  8
0
  6
Continuous
 62
     7
370
    15
100
AcDbLine
 10
94.2997505484
 20
173.9529312625
 30
0.0
 11
94.8296238431
 21
173.9529312625
 31
0.0
  0
ARC
  5
F1
330
1F
100
AcDbEntity
  8
0
  6
Continuous
 62
     7
370
    15
100
AcDbCircle
 10
94.3462380004
 20
173.735240794
 30
0.0
 40
0.2225987944094957
100
AcDbArc
 50
102.05436083
 51
188.3457876334
  0
LINE
  5
F2
330
1F
100
AcDbEntity
  8
0
  6
Continuous
 62
     7
370
    15
100
AcDbLine
 10
94.8296238431
 20
173.9529312625
 30
0.0
 11
97.5656854399
 21
173.9529312625
 31
0.0
  0
SPLINE
  5
F3
330
1F
100
AcDbEntity
  8
0
  6
Continuous
 62
     7
370
    15
100
AcDbSpline
210
0.0
220
0.0
230
1.0
 70
     8
 71
     3
 72
    13
 73
     9
 74
     0
 42
0.00000001
 43
0.00000001
 12
1.0
 22
0.0
 32
0.0
 13
1.0
 23
0.0
 33
0.0
 40
0.0
 40
0.0
 40
0.0
 40
0.0
 40
0.1695411050600695
 40
0.3386458383076271
 40
0.5184804584265745
 40
0.7277236211485048
 40
0.9924537768854855
 40
1.0
 40
1.0
 40
1.0
 40
1.0
 10
100.4748654427304
 20
169.3029312625424
 30
0.0
 10
100.4741626393351
 20
169.3275424098291
 30
0.0
 10
100.4727588414485
 20
169.3767013592275
 30
0.0
 10
100.4621209157567
 20
169.4428371526078
 30
0.0
 10
100.4461282514272
 20
169.4985087557122
 30
0.0
 10
100.4232520063478
 20
169.5412275349852
 30
0.0
 10
100.4047874071647
 20
169.5528131945948
 30
0.0
 10
100.3944950645227
 20
169.5529280784999
 30
0.0
 10
100.3942098090985
 20
169.5529312625424
 30
0.0
  0
LINE
  5
F4
330
1F
100
AcDbEntity
  8
0
  6
Continuous
 62
     7
370
    15
100
AcDbLine
 10
100.3942098091
 20
169.5529312625
 30
0.0
 11
107.162020447
 21
169.5529312625
 31
0.0
  0
SPLINE
  5
F5
330
1F
100
AcDbEntity
  8
0
  6
Continuous
 62
     7
370
    15
100
AcDbSpline
210
0.0
220
0.0
230
1.0
 70
     8
 71
     3
 72
    13
 73
     9
 74
     0
 42
0.00000001
 43
0.00000001
 12
1.0
 22
0.0
 32
0.0
 13
1.0
 23
0.0
 33
0.0
 40
0.0
 40
0.0
 40
0.0
 40
0.0
 40
0.007546223114572
 40
0.27227637885161
 40
0.4815195415735332
 40
0.6613541616924414
 40
0.8304588949399406
 40
1.0
 40
1.0
 40
1.0
 40
1.0
 10
100.3942098090987
 20
168.3529312625424
 30
0.0
 10
100.394495064523
 20
168.3529344465849
 30
0.0
 10
100.4047874071653
 20
168.3530493304897
 30
0.0
 10
100.4232520063479
 20
168.3646349901
 30
0.0
 10
100.4461282514272
 20
168.4073537693726
 30
0.0
 10
100.4621209157571
 20
168.4630253724767
 30
0.0
 10
100.4727588414487
 20
168.5291611658574
 30
0.0
 10
100.4741626393351
 20
168.5783201152557
 30
0.0
 10
100.4748654427304
 20
168.6029312625424
 30
0.0
  0
LINE
  5
F6
330
1F
100
AcDbEntity
  8
0
  6
Continuous
 62
     7
370
    15
100
AcDbLine
 10
106.8167300971
 20
168.3529312625
 30
0.0
 11
100.3942098091
 21
168.3529312625
 31
0.0
  0
LINE
  5
F7
330
1F
100
AcDbEntity
  8
0
  6
Continuous
 62
     7
370
    15
100
AcDbLine
 10
100.4748654427
 20
168.6029312625
 30
0.0
 11
100.4748654427
 21
169.3029312625
 31
0.0
  0
SPLINE
  5
F8
330
1F
100
AcDbEntity
  8
0
  6
Continuous
 62
     7
370
    15
100
AcDbSpline
210
0.0
220
0.0
230
1.0
 70
     8
 71
     3
 72
    12
 73
     8
 74
     0
 42
0.00000001
 43
0.00000001
 12
1.0
 22
0.0
 32
0.0
 13
1.0
 23
0.0
 33
0.0
 40
0.0
 40
0.0
 40
0.0
 40
0.0
 40
0.2028202020467055
 40
0.4049472449427004
 40
0.6098312030740999
 40
0.8226939241827171
 40
1.0
 40
1.0
 40
1.0
 40
1.0
 10
99.27253462989239
 20
168.1029312625427
 30
0.0
 10
99.28198629481511
 20
168.2600721030781
 30
0.0
 10
99.3008573226119
 20
168.5738167389706
 30
0.0
 10
99.44720343121844
 20
168.99421298944
 30
0.0
 10
99.66384006523205
 20
169.3212915248798
 30
0.0
 10
99.92306812562701
 20
169.5195007911455
 30
0.0
 10
100.1048504385112
 20
169.5424859970675
 30
0.0
 10
100.1874585527541
 20
169.5529312625424
 30
0.0
  0
LINE
  5
F9
330
1F
100
AcDbEntity
  8
0
  6
Continuous
 62
     7
370
    15
100
AcDbLine
 10
99.2725346299
 20
168.1029312625
 30
0.0
 11
94.5767260584
 21
168.1029312625
 31
0.0
  0
SPLINE
  5
FA
330
1F
100
AcDbEntity
  8
0
  6
Continuous
 62
     7
370
    15
100
AcDbSpline
210
0.0
220
0.0
230
1.0
 70
     8
 71
     3
 72
    12
 73
     8
 74
     0
 42
0.00000001
 43
0.00000001
 12
1.0
 22
0.0
 32
0.0
 13
1.0
 23
0.0
 33
0.0
 40
0.0
 40
0.0
 40
0.0
 40
0.0
 40
0.228944073851555
 40
0.4594214300241347
 40
0.6825355698157652
 40
0.8947175231628817
 40
1.0
 40
1.0
 40
1.0
 40
1.0
 10
95.60674332857388
 20
169.5529312625425
 30
0.0
 10
95.48493241420964
 20
169.5355967779649
 30
0.0
 10
95.24049479445279
 20
169.5008117164459
 30
0.0
 10
94.92055503305963
 20
169.2269418706335
 30
0.0
 10
94.69110854256574
 20
168.8299053361503
 30
0.0
 10
94.58836233319373
 20
168.4290293467981
 30
0.0
 10
94.57962399993858
 20
168.1841439537104
 30
0.0
 10
94.57672605837098
 20
168.1029312625425
 30
0.0
  0
LINE
  5
FB
330
1F
100
AcDbEntity
  8
0
  6
Continuous
 62
     7
370
    15
100
AcDbLine
 10
95.6067433286
 20
169.5529312625
 30
0.0
 11
100.1874585528
 21
169.5529312625
 31
0.0
  0
LINE
  5
FC
330
1F
100
AcDbEntity
  8
0
  6
Continuous
 62
     7
370
    15
100
AcDbLine
 10
99.3689399257
 20
162.7529312625
 30
0.0
 11
94.7882247015
 21
162.7529312625
 31
0.0
  0
ARC
  5
FD
330
1F
100
AcDbEntity
  8
0
  6
Continuous
 62
     7
370
    15
100
AcDbCircle
 10
94.8092275832
 20
162.9851629386
 30
0.0
 40
0.2331794853687059
100
AcDbArc
 50
175.6298138038
 51
264.8322658056
  0
LINE
  5
FE
330
1F
100
AcDbEntity
  8
0
  6
Continuous
 62
     7
370
    15
100
AcDbLine
 10
94.5767260584
 20
163.0029312625
 30
0.0
 11
99.2725346299
 21
163.0029312625
 31
0.0
  0
LWPOLYLINE
  5
FF
330
1F
100
AcDbEntity
  8
0
  6
Continuous
 62
     7
370
    15
100
AcDbPolyline
 90
        9
 70
   128
 43
0.0
 10
99.3689399257
 20
162.7529312625
 10
99.3501321855
 20
162.7577349424
 10
99.3320472162
 20
162.7719613794
 10
99.315380013
 20
162.7950638595
 10
99.3007710873
 20
162.8261545672
 10
99.2887818518
 20
162.8640387043
 10
99.2798730461
 20
162.9072604045
 10
99.2743870306
 20
162.954158682
 10
99.2725346299
 20
163.0029312625
  0
LINE
  5
100
330
1F
100
AcDbEntity
  8
0
  6
Continuous
 62
     7
370
    15
100
AcDbLine
 10
99.2725346299
 20
163.0029312625
 30
0.0
 11
99.2725346299
 21
168.1029312625
 31
0.0
  0
LINE
  5
101
330
1F
100
AcDbEntity
  8
0
  6
Continuous
 62
     7
370
    15
100
AcDbLine
 10
94.5767260584
 20
168.1029312625
 30
0.0
 11
94.5767260584
 21
163.0029312625
 31
0.0
  0
SPLINE
  5
102
330
1F
100
AcDbEntity
  8
0
  6
Continuous
 62
     7
370
    15
100
AcDbSpline
210
0.0
220
0.0
230
1.0
 70
     8
 71
     3
 72
    12
 73
     8
 74
     0
 42
0.00000001
 43
0.00000001
 12
1.0
 22
0.0
 32
0.0
 13
1.0
 23
0.0
 33
0.0
 40
0.0
 40
0.0
 40
0.0
 40
0.0
 40
0.1789601577905041
 40
0.3929009169381938
 40
0.5976976172812912
 40
0.7987833678438351
 40
0.9999999999999999
 40
0.9999999999999999
 40
0.9999999999999999
 40
0.9999999999999999
 10
100.3783216870949
 20
169.3029312625424
 30
0.0
 10
100.3037515201352
 20
169.2943192926885
 30
0.0
 10
100.1400352643136
 20
169.2754120068768
 30
0.0
 10
99.9081054992817
 20
169.111875981725
 30
0.0
 10
99.71501001827954
 20
168.8413036699594
 30
0.0
 10
99.58494894540415
 20
168.4931735503994
 30
0.0
 10
99.5681868395507
 20
168.233040235006
 30
0.0
 10
99.55980306000434
 20
168.1029312625427
 30
0.0
  0
LINE
  5
103
330
1F
100
AcDbEntity
  8
0
  6
Continuous
 62
     7
370
    15
100
AcDbLine
 10
99.55980306
 20
168.1029312625
 30
0.0
 11
99.2725346299
 21
168.1029312625
 31
0.0
  0
ARC
  5
104
330
1F
100
AcDbEntity
  8
0
  6
Continuous
 62
     7
370
    15
100
AcDbCircle
 10
100.1533093913
 20
169.3290025265
 30
0.0
 40
0.2265176462356599
100
AcDbArc
 50
353.390840606
 51
81.329191247
  0
LINE
  5
105
330
1F
100
AcDbEntity
  8
0
  6
Continuous
 62
     7
370
    15
100
AcDbLine
 10
99.55980306
 20
168.1029312625
 30
0.0
 11
99.55980306
 21
163.0029312625
 31
0.0
  0
LINE
  5
106
330
1F
100
AcDbEntity
  8
0
  6
Continuous
 62
     7
370
    15
100
AcDbLine
 10
99.55980306
 20
163.0029312625
 30
0.0
 11
99.2725346299
 21
163.0029312625
 31
0.0
  0
ARC
  5
107
330
1F
100
AcDbEntity
  8
0
  6
Continuous
 62
     7
370
    15
100
AcDbCircle
 10
99.3347907642
 20
162.9768599986
 30
0.0
 40
0.2265176462360049
100
AcDbArc
 50
278.6708087531
 51
6.609159394
  0
LINE
  5
108
330
1F
100
AcDbEntity
  8
0
  6
Continuous
 62
     7
370
    15
100
AcDbLine
 10
100.0357820081
 20
163.0029312625
 30
0.0
 11
100.0357820081
 21
168.1029312625
 31
0.0
  0
LINE
  5
109
330
1F
100
AcDbEntity
  8
0
  6
Continuous
 62
     7
370
    15
100
AcDbLine
 10
99.55980306
 20
163.0029312625
 30
0.0
 11
100.0357820081
 21
163.0029312625
 31
0.0
  0
LINE
  5
10A
330
1F
100
AcDbEntity
  8
0
  6
Continuous
 62
     7
370
    15
100
AcDbLine
 10
100.4748654427
 20
169.3029312625
 30
0.0
 11
100.3783216871
 21
169.3029312625
 31
0.0
  0
LINE
  5
10B
330
1F
100
AcDbEntity
  8
0
  6
Continuous
 62
     7
370
    15
100
AcDbLine
 10
100.3783216871
 20
168.6029312625
 30
0.0
 11
100.4748654427
 21
168.6029312625
 31
0.0
  0
SPLINE
  5
10C
330
1F
100
AcDbEntity
  8
0
  6
Continuous
 62
     7
370
    15
100
AcDbSpline
210
0.0
220
0.0
230
1.0
 70
     8
 71
     3
 72
    12
 73
     8
 74
     0
 42
0.00000001
 43
0.00000001
 12
1.0
 22
0.0
 32
0.0
 13
1.0
 23
0.0
 33
0.0
 40
0.0
 40
0.0
 40
0.0
 40
0.0
 40
0.1818603118646638
 40
0.3964966430181163
 40
0.600583687111089
 40
0.8002123703308687
 40
1.0
 40
1.0
 40
1.0
 40
1.0
 10
100.378321687095
 20
168.6029312625424
 30
0.0
 10
100.346682214205
 20
168.5992135109486
 30
0.0
 10
100.2777010018715
 20
168.5911079709796
 30
0.0
 10
100.1805646544635
 20
168.5219532719731
 30
0.0
 10
100.1002678255347
 20
168.4091138650194
 30
0.0
 10
100.0462424691561
 20
168.264692764274
 30
0.0
 10
100.0392697533503
 20
168.1568660662169
 30
0.0
 10
100.0357820080623
 20
168.1029312625427
 30
0.0
  0
ARC
  5
10D
330
1F
100
AcDbEntity
  8
0
  6
Continuous
 62
     7
370
    15
100
AcDbCircle
 10
99.8107697123
 20
162.9768599986
 30
0.0
 40
0.2265176462361237
100
AcDbArc
 50
278.6708087531
 51
6.609159394
  0
LINE
  5
10E
330
1F
100
AcDbEntity
  8
0
  6
Continuous
 62
     7
370
    15
100
AcDbLine
 10
99.8449188737
 20
162.7529312625
 30
0.0
 11
99.3689399257
 21
162.7529312625
 31
0.0
  0
ARC
  5
10F
330
1F
100
AcDbEntity
  8
0
  6
Continuous
 62
     7
370
    15
100
AcDbCircle
 10
100.1533093913
 20
168.5768599986
 30
0.0
 40
0.2265176462357068
100
AcDbArc
 50
278.670808753
 51
6.609159394
  0
LINE
  5
110
330
1F
100
AcDbEntity
  8
0
  6
Continuous
 62
     7
370
    15
100
AcDbLine
 10
100.1874585528
 20
169.5529312625
 30
0.0
 11
100.3942098091
 21
169.5529312625
 31
0.0
  0
LINE
  5
111
330
1F
100
AcDbEntity
  8
0
  6
Continuous
 62
     7
370
    15
100
AcDbLine
 10
100.3942098091
 20
168.3529312625
 30
0.0
 11
100.1874585528
 21
168.3529312625
 31
0.0
  0
LINE
  5
112
330
1F
100
AcDbEntity
  8
0
  6
Continuous
 62
     7
370
    15
100
AcDbLine
 10
94.5767260584
 20
168.1029312625
 30
0.0
 11
94.5382247015
 21
168.1029312625
 31
0.0
  0
LINE
  5
113
330
1F
100
AcDbEntity
  8
0
  6
Continuous
 62
     7
370
    15
100
AcDbLine
 10
94.7558706974
 20
169.5529312625
 30
0.0
 11
95.6067433286
 21
169.5529312625
 31
0.0
  0
LINE
  5
114
330
1F
100
AcDbEntity
  8
0
  6
Continuous
 62
     7
370
    15
100
AcDbLine
 10
111.3384008795
 20
163.0029312625
 30
0.0
 11
111.8143798276
 21
163.0029312625
 31
0.0
  0
LINE
  5
115
330
1F
100
AcDbEntity
  8
0
  6
Continuous
 62
     7
370
    15
100
AcDbLine
 10
110.9328980952
 20
163.0029312625
 30
0.0
 11
111.3384008795
 21
163.0029312625
 31
0.0
  0
ARC
  5
116
330
1F
100
AcDbEntity
  8
0
  6
Continuous
 62
     7
370
    15
100
AcDbCircle
 10
111.1133885837
 20
162.9768599986
 30
0.0
 40
0.226517646235454
100
AcDbArc
 50
278.6708087529
 51
6.6091593941
  0
ARC
  5
117
330
1F
100
AcDbEntity
  8
0
  6
Continuous
 62
     7
370
    15
100
AcDbCircle
 10
111.1666742615
 20
162.9865014419
 30
0.0
 40
0.2343528001292109
100
AcDbArc
 50
175.9798550465
 51
265.316190911
  0
LINE
  5
118
330
1F
100
AcDbEntity
  8
0
  6
Continuous
 62
     7
370
    15
100
AcDbLine
 10
111.1475377452
 20
162.7529312625
 30
0.0
 11
108.9356587338
 21
162.7529312625
 31
0.0
  0
LINE
  5
119
330
1F
100
AcDbEntity
  8
0
  6
Continuous
 62
     7
370
    15
100
AcDbLine
 10
111.6235166932
 20
162.7529312625
 30
0.0
 11
111.1475377452
 21
162.7529312625
 31
0.0
  0
ARC
  5
11A
330
1F
100
AcDbEntity
  8
0
  6
Continuous
 62
     7
370
    15
100
AcDbCircle
 10
111.5893675318
 20
162.9768599986
 30
0.0
 40
0.226517646236258
100
AcDbArc
 50
278.670808753
 51
6.6091593939
  0
LINE
  5
11B
330
1F
100
AcDbEntity
  8
0
  6
Continuous
 62
     7
370
    15
100
AcDbLine
 10
100.9550994628
 20
166.7063492752
 30
0.0
 11
103.819993481
 21
167.1529312625
 31
0.0
  0
SPLINE
  5
11C
330
1F
100
AcDbEntity
  8
0
  6
Continuous
 62
     7
370
    15
100
AcDbSpline
210
0.0
220
0.0
230
1.0
 70
     8
 71
     3
 72
     9
 73
     5
 74
     0
 42
0.00000001
 43
0.00000001
 12
1.0
 22
0.0
 32
0.0
 13
1.0
 23
0.0
 33
0.0
 40
0.0
 40
0.0
 40
0.0
 40
0.0
 40
0.0702005767033825
 40
1.0
 40
1.0
 40
1.0
 40
1.0
 10
103.8199934809763
 20
167.1529312625422
 30
0.0
 10
103.8879084206079
 20
167.1524851462747
 30
0.0
 10
104.8553497554359
 20
167.1461302658942
 30
0.0
 10
105.8033952992674
 20
166.9182407839988
 30
0.0
 10
106.6848874991808
 20
166.7063492751571
 30
0.0
  0
LINE
  5
11D
330
1F
100
AcDbEntity
  8
0
  6
Continuous
 62
     7
370
    15
100
AcDbLine
 10
106.6848874992
 20
166.7063492752
 30
0.0
 11
106.6848874992
 21
162.3995132499
 31
0.0
  0
SPLINE
  5
11E
330
1F
100
AcDbEntity
  8
0
  6
Continuous
 62
     7
370
    15
100
AcDbSpline
210
0.0
220
0.0
230
1.0
 70
     8
 71
     3
 72
     9
 73
     5
 74
     0
 42
0.00000001
 43
0.00000001
 12
1.0
 22
0.0
 32
0.0
 13
1.0
 23
0.0
 33
0.0
 40
0.0
 40
0.0
 40
0.0
 40
0.0
 40
0.0702005767034005
 40
1.0
 40
1.0
 40
1.0
 40
1.0
 10
103.8199934809763
 20
161.9529312625423
 30
0.0
 10
103.8879084206079
 20
161.9533773788098
 30
0.0
 10
104.8553497554361
 20
161.9597322591905
 30
0.0
 10
105.8033952992675
 20
162.187621741086
 30
0.0
 10
106.6848874991808
 20
162.3995132499277
 30
0.0
  0
LINE
  5
11F
330
1F
100
AcDbEntity
  8
0
  6
Continuous
 62
     7
370
    15
100
AcDbLine
 10
100.9550994628
 20
162.3995132499
 30
0.0
 11
103.819993481
 21
161.9529312625
 31
0.0
  0
LINE
  5
120
330
1F
100
AcDbEntity
  8
0
  6
Continuous
 62
     7
370
    15
100
AcDbLine
 10
100.9550994628
 20
166.7063492752
 30
0.0
 11
100.9550994628
 21
162.3995132499
 31
0.0
  0
SPLINE
  5
121
330
1F
100
AcDbEntity
  8
0
  6
Continuous
 62
     7
370
    15
100
AcDbSpline
210
0.0
220
0.0
230
1.0
 70
     8
 71
     3
 72
     9
 73
     5
 74
     0
 42
0.00000001
 43
0.00000001
 12
1.0
 22
0.0
 32
0.0
 13
1.0
 23
0.0
 33
0.0
 40
0.0
 40
0.0
 40
0.0
 40
0.0
 40
0.5174000252722699
 40
0.9999999999999999
 40
0.9999999999999999
 40
0.9999999999999999
 40
0.9999999999999999
 10
100.9550994627718
 20
166.7063492751571
 30
0.0
 10
100.8095572552389
 20
166.7781005508366
 30
0.0
 10
100.5282619316523
 20
166.9167771495511
 30
0.0
 10
100.2359760384122
 20
166.9586997621601
 30
0.0
 10
100.0949188737214
 20
166.9789316139457
 30
0.0
  0
SPLINE
  5
122
330
1F
100
AcDbEntity
  8
0
  6
Continuous
 62
     7
370
    15
100
AcDbSpline
210
0.0
220
0.0
230
1.0
 70
     8
 71
     3
 72
     9
 73
     5
 74
     0
 42
0.00000001
 43
0.00000001
 12
1.0
 22
0.0
 32
0.0
 13
1.0
 23
0.0
 33
0.0
 40
0.0
 40
0.0
 40
0.0
 40
0.0
 40
0.257551345103804
 40
1.0
 40
1.0
 40
1.0
 40
1.0
 10
100.9550994627719
 20
162.3995132499275
 30
0.0
 10
100.8090647102455
 20
162.3320980271526
 30
0.0
 10
100.242052519074
 20
162.0703435302085
 30
0.0
 10
99.65296115369382
 20
162.0029600424159
 30
0.0
 10
99.2155910618564
 20
161.9529312625421
 30
0.0
  0
LINE
  5
123
330
1F
100
AcDbEntity
  8
0
  6
Continuous
 62
     7
370
    15
100
AcDbLine
 10
103.819993481
 20
161.9529312625
 30
0.0
 11
99.2155910619
 21
161.9529312625
 31
0.0
  0
LINE
  5
124
330
1F
100
AcDbEntity
  8
0
  6
Continuous
 62
     7
370
    15
100
AcDbLine
 10
106.6848874992
 20
162.3995132499
 30
0.0
 11
107.8102731165
 21
161.9529312625
 31
0.0
  0
LINE
  5
125
330
1F
100
AcDbEntity
  8
0
  6
Continuous
 62
     7
370
    15
100
AcDbLine
 10
107.8102731165
 20
161.9529312625
 30
0.0
 11
103.819993481
 21
161.9529312625
 31
0.0
  0
LINE
  5
126
330
1F
100
AcDbEntity
  8
0
  6
Continuous
 62
     7
370
    15
100
AcDbLine
 10
106.6848874992
 20
166.7063492752
 30
0.0
 11
107.8102731165
 21
167.1529312625
 31
0.0
  0
SPLINE
  5
127
330
1F
100
AcDbEntity
  8
0
  6
Continuous
 62
     7
370
    15
100
AcDbSpline
210
0.0
220
0.0
230
1.0
 70
     8
 71
     3
 72
     9
 73
     5
 74
     0
 42
0.00000001
 43
0.00000001
 12
1.0
 22
0.0
 32
0.0
 13
1.0
 23
0.0
 33
0.0
 40
0.0
 40
0.0
 40
0.0
 40
0.0
 40
0.2686336050555631
 40
1.0
 40
1.0
 40
1.0
 40
1.0
 10
99.2155910618564
 20
161.9529312625421
 30
0.0
 10
99.05742107356835
 20
161.9595602151266
 30
0.0
 10
98.46862657685811
 20
161.9842367725631
 30
0.0
 10
97.89535455378129
 20
162.2240915361631
 30
0.0
 10
97.4760826609411
 20
162.3995132499273
 30
0.0
  0
LINE
  5
128
330
1F
100
AcDbEntity
  8
0
  6
Continuous
 62
     7
370
    15
100
AcDbLine
 10
97.4760826609
 20
162.7529312625
 30
0.0
 11
97.4760826609
 21
162.3995132499
 31
0.0
  0
LINE
  5
129
330
1F
100
AcDbEntity
  8
0
  6
Continuous
 62
     7
370
    15
100
AcDbLine
 10
108.9356587338
 20
166.7063492752
 30
0.0
 11
108.9356587338
 21
162.3995132499
 31
0.0
  0
SPLINE
  5
12A
330
1F
100
AcDbEntity
  8
0
  6
Continuous
 62
     7
370
    15
100
AcDbSpline
210
0.0
220
0.0
230
1.0
 70
     8
 71
     3
 72
     9
 73
     5
 74
     0
 42
0.00000001
 43
0.00000001
 12
1.0
 22
0.0
 32
0.0
 13
1.0
 23
0.0
 33
0.0
 40
0.0
 40
0.0
 40
0.0
 40
0.0
 40
0.0702005767034128
 40
1.0
 40
1.0
 40
1.0
 40
1.0
 10
107.8102731164699
 20
161.9529312625424
 30
0.0
 10
107.8369514144366
 20
161.9533773788102
 30
0.0
 10
108.2169810270045
 20
161.9597322591906
 30
0.0
 10
108.5893915988383
 20
162.1876217410859
 30
0.0
 10
108.9356587337589
 20
162.3995132499275
 30
0.0
  0
LINE
  5
12B
330
1F
100
AcDbEntity
  8
0
  6
Continuous
 62
     7
370
    15
100
AcDbLine
 10
97.7748335255
 20
162.2725836061
 30
0.0
 11
97.4760826609
 21
162.3995132499
 31
0.0
  0
LINE
  5
12C
330
1F
100
AcDbEntity
  8
0
  6
Continuous
 62
     7
370
    15
100
AcDbLine
 10
99.2155910619
 20
161.9529312625
 30
0.0
 11
98.2058706974
 21
161.9529312625
 31
0.0
  0
LINE
  5
12D
330
1F
100
AcDbEntity
  8
0
  6
Continuous
 62
     7
370
    15
100
AcDbLine
 10
108.2058706974
 20
161.9529312625
 30
0.0
 11
107.8102731165
 21
161.9529312625
 31
0.0
  0
LINE
  5
12E
330
1F
100
AcDbEntity
  8
0
  6
Continuous
 62
     7
370
    15
100
AcDbLine
 10
102.1293512853
 20
179.7563492752
 30
0.0
 11
103.3290018024
 21
179.9529312625
 31
0.0
  0
LINE
  5
12F
330
1F
100
AcDbEntity
  8
0
  6
Continuous
 62
     7
370
    15
100
AcDbLine
 10
106.4594538599
 20
179.9529312625
 30
0.0
 11
107.5799250556
 21
179.7563492752
 31
0.0
  0
LINE
  5
130
330
1F
100
AcDbEntity
  8
0
  6
Continuous
 62
     7
370
    15
100
AcDbLine
 10
107.5799250556
 20
179.7563492752
 30
0.0
 11
107.5799250556
 21
175.4495132499
 31
0.0
  0
SPLINE
  5
131
330
1F
100
AcDbEntity
  8
0
  6
Continuous
 62
     7
370
    15
100
AcDbSpline
210
0.0
220
0.0
230
1.0
 70
     8
 71
     3
 72
     9
 73
     5
 74
     0
 42
0.00000001
 43
0.00000001
 12
1.0
 22
0.0
 32
0.0
 13
1.0
 23
0.0
 33
0.0
 40
0.0
 40
0.0
 40
0.0
 40
0.0
 40
0.070200576703414
 40
1.0
 40
1.0
 40
1.0
 40
1.0
 10
104.8546381704663
 20
175.0029312625425
 30
0.0
 10
104.9192435949985
 20
175.0033773788101
 30
0.0
 10
105.8395412273833
 20
175.0097322591907
 30
0.0
 10
106.7413882314049
 20
175.237621741086
 30
0.0
 10
107.5799250556458
 20
175.4495132499276
 30
0.0
  0
LINE
  5
132
330
1F
100
AcDbEntity
  8
0
  6
Continuous
 62
     7
370
    15
100
AcDbLine
 10
102.1293512853
 20
175.4495132499
 30
0.0
 11
104.8546381705
 21
175.0029312625
 31
0.0
  0
LINE
  5
133
330
1F
100
AcDbEntity
  8
0
  6
Continuous
 62
     7
370
    15
100
AcDbLine
 10
102.1293512853
 20
179.7563492752
 30
0.0
 11
102.1293512853
 21
175.4495132499
 31
0.0
  0
SPLINE
  5
134
330
1F
100
AcDbEntity
  8
0
  6
Continuous
 62
     7
370
    15
100
AcDbSpline
210
0.0
220
0.0
230
1.0
 70
     8
 71
     3
 72
     9
 73
     5
 74
     0
 42
0.00000001
 43
0.00000001
 12
1.0
 22
0.0
 32
0.0
 13
1.0
 23
0.0
 33
0.0
 40
0.0
 40
0.0
 40
0.0
 40
0.0
 40
0.0702005767034015
 40
0.9999999999999999
 40
0.9999999999999999
 40
0.9999999999999999
 40
0.9999999999999999
 10
99.9423241061389
 20
175.0029312625423
 30
0.0
 10
99.99416959078883
 20
175.0033773788099
 30
0.0
 10
100.7327031910043
 20
175.0097322591907
 30
0.0
 10
101.4564302672083
 20
175.2376217410861
 30
0.0
 10
102.1293512852868
 20
175.4495132499277
 30
0.0
  0
LINE
  5
135
330
1F
100
AcDbEntity
  8
0
  6
Continuous
 62
     7
370
    15
100
AcDbLine
 10
104.8546381705
 20
175.0029312625
 30
0.0
 11
99.9423241061
 21
175.0029312625
 31
0.0
  0
LINE
  5
136
330
1F
100
AcDbEntity
  8
0
  6
Continuous
 62
     7
370
    15
100
AcDbLine
 10
101.2301795424
 20
179.9529312625
 30
0.0
 11
102.1293512853
 21
179.7563492752
 31
0.0
  0
LINE
  5
137
330
1F
100
AcDbEntity
  8
0
  6
Continuous
 62
     7
370
    15
100
AcDbLine
 10
97.755296927
 20
179.7563492752
 30
0.0
 11
98.7180096236
 21
179.9529312625
 31
0.0
  0
LINE
  5
138
330
1F
100
AcDbEntity
  8
0
  6
Continuous
 62
     7
370
    15
100
AcDbLine
 10
97.755296927
 20
175.4495132499
 30
0.0
 11
99.9423241061
 21
175.0029312625
 31
0.0
  0
LINE
  5
139
330
1F
100
AcDbEntity
  8
0
  6
Continuous
 62
     7
370
    15
100
AcDbLine
 10
97.755296927
 20
179.7563492752
 30
0.0
 11
97.755296927
 21
175.4495132499
 31
0.0
  0
SPLINE
  5
13A
330
1F
100
AcDbEntity
  8
0
  6
Continuous
 62
     7
370
    15
100
AcDbSpline
210
0.0
220
0.0
230
1.0
 70
     8
 71
     3
 72
     9
 73
     5
 74
     0
 42
0.00000001
 43
0.00000001
 12
1.0
 22
0.0
 32
0.0
 13
1.0
 23
0.0
 33
0.0
 40
0.0
 40
0.0
 40
0.0
 40
0.0
 40
0.9250528692966553
 40
1.0
 40
1.0
 40
1.0
 40
1.0
 10
107.5799250556457
 20
179.7563492751572
 30
0.0
 10
107.6247213830321
 20
179.8349029879217
 30
0.0
 10
107.6731470772526
 20
179.9198210670626
 30
0.0
 10
107.7234749244153
 20
179.9506227637587
 30
0.0
 10
107.7272468521546
 20
179.9529312625469
 30
0.0
  0
SPLINE
  5
13B
330
1F
100
AcDbEntity
  8
0
  6
Continuous
 62
     7
370
    15
100
AcDbSpline
210
0.0
220
0.0
230
1.0
 70
     8
 71
     3
 72
     9
 73
     5
 74
     0
 42
0.00000001
 43
0.00000001
 12
1.0
 22
0.0
 32
0.0
 13
1.0
 23
0.0
 33
0.0
 40
0.0
 40
0.0
 40
0.0
 40
0.0
 40
0.2575513451038112
 40
1.0
 40
1.0
 40
1.0
 40
1.0
 10
107.5799250556458
 20
175.4495132499276
 30
0.0
 10
107.6251128931542
 20
175.3820980271527
 30
0.0
 10
107.8005646559487
 20
175.1203435302089
 30
0.0
 10
107.9828484235859
 20
175.0529600424165
 30
0.0
 10
108.1181847616775
 20
175.0029312625425
 30
0.0
  0
LINE
  5
13C
330
1F
100
AcDbEntity
  8
0
  6
Continuous
 62
     7
370
    15
100
AcDbLine
 10
108.1181847617
 20
175.0029312625
 30
0.0
 11
104.8546381705
 21
175.0029312625
 31
0.0
  0
SPLINE
  5
13D
330
1F
100
AcDbEntity
  8
0
  6
Continuous
 62
     7
370
    15
100
AcDbSpline
210
0.0
220
0.0
230
1.0
 70
     8
 71
     3
 72
     9
 73
     5
 74
     0
 42
0.00000001
 43
0.00000001
 12
1.0
 22
0.0
 32
0.0
 13
1.0
 23
0.0
 33
0.0
 40
0.0
 40
0.0
 40
0.0
 40
0.0
 40
0.2575513451038017
 40
1.0
 40
1.0
 40
1.0
 40
1.0
 10
97.7552969269911
 20
175.4495132499275
 30
0.0
 10
97.8004847644996
 20
175.3820980271526
 30
0.0
 10
97.97593652729402
 20
175.1203435302087
 30
0.0
 10
98.15822029493116
 20
175.0529600424161
 30
0.0
 10
98.29355663302275
 20
175.0029312625421
 30
0.0
  0
LINE
  5
13E
330
1F
100
AcDbEntity
  8
0
  6
Continuous
 62
     7
370
    15
100
AcDbLine
 10
99.9423241061
 20
175.0029312625
 30
0.0
 11
98.2138934848
 21
175.0029312625
 31
0.0
  0
SPLINE
  5
13F
330
1F
100
AcDbEntity
  8
0
  6
Continuous
 62
     7
370
    15
100
AcDbSpline
210
0.0
220
0.0
230
1.0
 70
     8
 71
     3
 72
     9
 73
     5
 74
     0
 42
0.00000001
 43
0.00000001
 12
1.0
 22
0.0
 32
0.0
 13
1.0
 23
0.0
 33
0.0
 40
0.0
 40
0.0
 40
0.0
 40
0.0
 40
0.925052869294502
 40
1.0
 40
1.0
 40
1.0
 40
1.0
 10
97.75529692699114
 20
179.7563492751571
 30
0.0
 10
97.8000932543775
 20
179.8349029879212
 30
0.0
 10
97.84851894859803
 20
179.9198210670619
 30
0.0
 10
97.89884679576078
 20
179.9506227637587
 30
0.0
 10
97.9026187235002
 20
179.9529312625469
 30
0.0
  0
LINE
  5
140
330
1F
100
AcDbEntity
  8
0
  6
Continuous
 62
     7
370
    15
100
AcDbLine
 10
108.4691326444
 20
179.9529312625
 30
0.0
 11
108.6564444677
 21
179.7563492752
 31
0.0
  0
LINE
  5
141
330
1F
100
AcDbEntity
  8
0
  6
Continuous
 62
     7
370
    15
100
AcDbLine
 10
108.6564444677
 20
179.7563492752
 30
0.0
 11
108.6564444677
 21
175.4495132499
 31
0.0
  0
SPLINE
  5
142
330
1F
100
AcDbEntity
  8
0
  6
Continuous
 62
     7
370
    15
100
AcDbSpline
210
0.0
220
0.0
230
1.0
 70
     8
 71
     3
 72
     9
 73
     5
 74
     0
 42
0.00000001
 43
0.00000001
 12
1.0
 22
0.0
 32
0.0
 13
1.0
 23
0.0
 33
0.0
 40
0.0
 40
0.0
 40
0.0
 40
0.0
 40
0.2686336050555796
 40
1.0
 40
1.0
 40
1.0
 40
1.0
 10
108.1181847616775
 20
175.0029312625425
 30
0.0
 10
108.1671276304525
 20
175.0095602151269
 30
0.0
 10
108.3493195373989
 20
175.0342367725632
 30
0.0
 10
108.5267082930124
 20
175.2740915361632
 30
0.0
 10
108.6564444677092
 20
175.4495132499277
 30
0.0
  0
LINE
  5
143
330
1F
100
AcDbEntity
  8
0
  6
Continuous
 62
     7
370
    15
100
AcDbLine
 10
108.6564444677
 20
175.4495132499
 30
0.0
 11
106.4694172886
 21
175.0029312625
 31
0.0
  0
LINE
  5
144
330
1F
100
AcDbEntity
  8
0
  6
Continuous
 62
     7
370
    15
100
AcDbLine
 10
108.6564444677
 20
179.7563492752
 30
0.0
 11
107.6937317711
 21
179.9529312625
 31
0.0
  0
LINE
  5
145
330
1F
100
AcDbEntity
  8
0
  6
Continuous
 62
     7
370
    15
100
AcDbLine
 10
99.3174931364
 20
174.3063492752
 30
0.0
 11
102.1375857651
 21
174.7529312625
 31
0.0
  0
SPLINE
  5
146
330
1F
100
AcDbEntity
  8
0
  6
Continuous
 62
     7
370
    15
100
AcDbSpline
210
0.0
220
0.0
230
1.0
 70
     8
 71
     3
 72
     9
 73
     5
 74
     0
 42
0.00000001
 43
0.00000001
 12
1.0
 22
0.0
 32
0.0
 13
1.0
 23
0.0
 33
0.0
 40
0.0
 40
0.0
 40
0.0
 40
0.0
 40
0.0702005767033874
 40
1.0
 40
1.0
 40
1.0
 40
1.0
 10
102.1375857651366
 20
174.7529312625423
 30
0.0
 10
102.2044386467502
 20
174.7524851462747
 30
0.0
 10
103.1567510742698
 20
174.7461302658944
 30
0.0
 10
104.0899710233699
 20
174.518240783999
 30
0.0
 10
104.9576783938521
 20
174.3063492751573
 30
0.0
  0
LINE
  5
147
330
1F
100
AcDbEntity
  8
0
  6
Continuous
 62
     7
370
    15
100
AcDbLine
 10
104.9576783939
 20
174.3063492752
 30
0.0
 11
104.9576783939
 21
169.9995132499
 31
0.0
  0
SPLINE
  5
148
330
1F
100
AcDbEntity
  8
0
  6
Continuous
 62
     7
370
    15
100
AcDbSpline
210
0.0
220
0.0
230
1.0
 70
     8
 71
     3
 72
     9
 73
     5
 74
     0
 42
0.00000001
 43
0.00000001
 12
1.0
 22
0.0
 32
0.0
 13
1.0
 23
0.0
 33
0.0
 40
0.0
 40
0.0
 40
0.0
 40
0.0
 40
0.0702005767034002
 40
1.0
 40
1.0
 40
1.0
 40
1.0
 10
102.1375857651365
 20
169.5529312625424
 30
0.0
 10
102.2044386467503
 20
169.55337737881
 30
0.0
 10
103.1567510742702
 20
169.5597322591906
 30
0.0
 10
104.08997102337
 20
169.7876217410859
 30
0.0
 10
104.957678393852
 20
169.9995132499276
 30
0.0
  0
LINE
  5
149
330
1F
100
AcDbEntity
  8
0
  6
Continuous
 62
     7
370
    15
100
AcDbLine
 10
99.3174931364
 20
169.9995132499
 30
0.0
 11
102.1375857651
 21
169.5529312625
 31
0.0
  0
LINE
  5
14A
330
1F
100
AcDbEntity
  8
0
  6
Continuous
 62
     7
370
    15
100
AcDbLine
 10
99.3174931364
 20
174.3063492752
 30
0.0
 11
99.3174931364
 21
169.9995132499
 31
0.0
  0
LINE
  5
14B
330
1F
100
AcDbEntity
  8
0
  6
Continuous
 62
     7
370
    15
100
AcDbLine
 10
104.9576783939
 20
169.9995132499
 30
0.0
 11
106.9018671743
 21
169.5529312625
 31
0.0
  0
LINE
  5
14C
330
1F
100
AcDbEntity
  8
0
  6
Continuous
 62
     7
370
    15
100
AcDbLine
 10
104.9576783939
 20
174.3063492752
 30
0.0
 11
106.9018671743
 21
174.7529312625
 31
0.0
  0
LINE
  5
14D
330
1F
100
AcDbEntity
  8
0
  6
Continuous
 62
     7
370
    15
100
AcDbLine
 10
102.1375857651
 20
174.7529312625
 30
0.0
 11
106.9018671743
 21
174.7529312625
 31
0.0
  0
SPLINE
  5
14E
330
1F
100
AcDbEntity
  8
0
  6
Continuous
 62
     7
370
    15
100
AcDbSpline
210
0.0
220
0.0
230
1.0
 70
     8
 71
     3
 72
     9
 73
     5
 74
     0
 42
0.00000001
 43
0.00000001
 12
1.0
 22
0.0
 32
0.0
 13
1.0
 23
0.0
 33
0.0
 40
0.0
 40
0.0
 40
0.0
 40
0.0
 40
0.2575513451038105
 40
1.0
 40
1.0
 40
1.0
 40
1.0
 10
99.31749313642113
 20
169.9995132499275
 30
0.0
 10
99.24395948654113
 20
169.9320980271526
 30
0.0
 10
98.95844884457405
 20
169.6703435302087
 30
0.0
 10
98.66182055945832
 20
169.6029600424159
 30
0.0
 10
98.44158928817009
 20
169.5529312625421
 30
0.0
  0
SPLINE
  5
14F
330
1F
100
AcDbEntity
  8
0
  6
Continuous
 62
     7
370
    15
100
AcDbSpline
210
0.0
220
0.0
230
1.0
 70
     8
 71
     3
 72
     9
 73
     5
 74
     0
 42
0.00000001
 43
0.00000001
 12
1.0
 22
0.0
 32
0.0
 13
1.0
 23
0.0
 33
0.0
 40
0.0
 40
0.0
 40
0.0
 40
0.0
 40
0.2575513451037947
 40
1.0
 40
1.0
 40
1.0
 40
1.0
 10
99.31749313642113
 20
174.3063492751571
 30
0.0
 10
99.24395948654102
 20
174.3737644979319
 30
0.0
 10
98.958448844574
 20
174.6355189948756
 30
0.0
 10
98.66182055945849
 20
174.7029024826683
 30
0.0
 10
98.44158928817026
 20
174.7529312625421
 30
0.0
  0
LINE
  5
150
330
1F
100
AcDbEntity
  8
0
  6
Continuous
 62
     7
370
    15
100
AcDbLine
 10
98.4415892882
 20
174.7529312625
 30
0.0
 11
102.1375857651
 21
174.7529312625
 31
0.0
  0
SPLINE
  5
151
330
1F
100
AcDbEntity
  8
0
  6
Continuous
 62
     7
370
    15
100
AcDbSpline
210
0.0
220
0.0
230
1.0
 70
     8
 71
     3
 72
     9
 73
     5
 74
     0
 42
0.00000001
 43
0.00000001
 12
1.0
 22
0.0
 32
0.0
 13
1.0
 23
0.0
 33
0.0
 40
0.0
 40
0.0
 40
0.0
 40
0.0
 40
0.0702005767034368
 40
1.0
 40
1.0
 40
1.0
 40
1.0
 10
106.9018671743166
 20
174.7529312625425
 30
0.0
 10
106.947955952058
 20
174.7524851462749
 30
0.0
 10
107.6044858540289
 20
174.7461302658939
 30
0.0
 10
108.2478532868117
 20
174.5182407839987
 30
0.0
 10
108.846055954781
 20
174.3063492751573
 30
0.0
  0
LINE
  5
152
330
1F
100
AcDbEntity
  8
0
  6
Continuous
 62
     7
370
    15
100
AcDbLine
 10
108.8460559548
 20
174.3063492752
 30
0.0
 11
108.8460559548
 21
173.9529312625
 31
0.0
  0
SPLINE
  5
153
330
1F
100
AcDbEntity
  8
0
  6
Continuous
 62
     7
370
    15
100
AcDbSpline
210
0.0
220
0.0
230
1.0
 70
     8
 71
     3
 72
     9
 73
     5
 74
     0
 42
0.00000001
 43
0.00000001
 12
1.0
 22
0.0
 32
0.0
 13
1.0
 23
0.0
 33
0.0
 40
0.0
 40
0.0
 40
0.0
 40
0.0
 40
0.5278771639352736
 40
1.0
 40
1.0
 40
1.0
 40
1.0
 10
106.9018671743165
 20
169.5529312625425
 30
0.0
 10
106.9480969184191
 20
169.5510048052304
 30
0.0
 10
107.0356736261476
 20
169.5473553628152
 30
0.0
 10
107.121499902164
 20
169.5731670485727
 30
0.0
 10
107.1620204470058
 20
169.5853533348561
 30
0.0
  0
LINE
  5
154
330
1F
100
AcDbEntity
  8
0
  6
Continuous
 62
     7
370
    15
100
AcDbLine
 10
97.969608823
 20
169.7390101111
 30
0.0
 11
97.5656854399
 21
169.9995132499
 31
0.0
  0
LINE
  5
155
330
1F
100
AcDbEntity
  8
0
  6
Continuous
 62
     7
370
    15
100
AcDbLine
 10
97.5656854399
 20
174.3063492752
 30
0.0
 11
97.5656854399
 21
169.9995132499
 31
0.0
  0
SPLINE
  5
156
330
1F
100
AcDbEntity
  8
0
  6
Continuous
 62
     7
370
    15
100
AcDbSpline
210
0.0
220
0.0
230
1.0
 70
     8
 71
     3
 72
     9
 73
     5
 74
     0
 42
0.00000001
 43
0.00000001
 12
1.0
 22
0.0
 32
0.0
 13
1.0
 23
0.0
 33
0.0
 40
0.0
 40
0.0
 40
0.0
 40
0.0
 40
0.2686336050555791
 40
0.9999999999999999
 40
0.9999999999999999
 40
0.9999999999999999
 40
0.9999999999999999
 10
98.44158928817026
 20
174.7529312625421
 30
0.0
 10
98.36194511896329
 20
174.7463023099576
 30
0.0
 10
98.06546631769619
 20
174.7216257525214
 30
0.0
 10
97.77680362952329
 20
174.4817709889214
 30
0.0
 10
97.56568543991922
 20
174.3063492751569
 30
0.0
  0
SPLINE
  5
157
330
1F
100
AcDbEntity
  8
0
  6
Continuous
 62
     7
370
    15
100
AcDbSpline
210
0.0
220
0.0
230
1.0
 70
     8
 71
     3
 72
     9
 73
     5
 74
     0
 42
0.00000001
 43
0.00000001
 12
1.0
 22
0.0
 32
0.0
 13
1.0
 23
0.0
 33
0.0
 40
0.0
 40
0.0
 40
0.0
 40
0.0
 40
0.5569342110492315
 40
1.0
 40
1.0
 40
1.0
 40
1.0
 10
108.846055954781
 20
174.3063492751573
 30
0.0
 10
108.7728080522693
 20
174.3787602514017
 30
0.0
 10
108.6412882047567
 20
174.5087773607976
 30
0.0
 10
108.504627060677
 20
174.5489086024141
 30
0.0
 10
108.4440771830564
 20
174.5666893826426
 30
0.0
  0
LINE
  5
158
330
1F
100
AcDbEntity
  8
0
  6
Continuous
 62
     7
370
    15
100
AcDbLine
 10
106.9018671743
 20
174.7529312625
 30
0.0
 11
108.2058706974
 21
174.7529312625
 31
0.0
  0
LINE
  5
159
330
1F
100
AcDbEntity
  8
0
  6
Continuous
 62
     7
370
    15
100
AcDbLine
 10
98.4415892882
 20
174.7529312625
 30
0.0
 11
98.2058706974
 21
174.7529312625
 31
0.0
  0
LINE
  5
15A
330
1F
100
AcDbEntity
  8
0
  6
Continuous
 62
     7
370
    15
100
AcDbLine
 10
60.0900456654
 20
940.2529312625
 30
0.0
 11
75.090044762
 21
940.2529312625
 31
0.0
  0
LINE
  5
15B
330
1F
100
AcDbEntity
  8
0
  6
Continuous
 62
     7
370
    15
100
AcDbLine
 10
123.590044762
 20
911.2529312626
 30
0.0
 11
123.590044762
 21
927.2529312626
 31
0.0
  0
LINE
  5
15C
330
1F
100
AcDbEntity
  8
0
  6
Continuous
 62
     7
370
    15
100
AcDbLine
 10
123.590044762
 20
927.2529312626
 30
0.0
 11
124.090044762
 21
927.2529312626
 31
0.0
  0
LINE
  5
15D
330
1F
100
AcDbEntity
  8
0
  6
Continuous
 62
     7
370
    15
100
AcDbLine
 10
124.090044762
 20
927.2529312626
 30
0.0
 11
124.090044762
 21
911.2529312626
 31
0.0
  0
LINE
  5
15E
330
1F
100
AcDbEntity
  8
0
  6
Continuous
 62
     7
370
    15
100
AcDbLine
 10
124.090044762
 20
911.2529312626
 30
0.0
 11
123.590044762
 21
911.2529312626
 31
0.0
  0
LINE
  5
15F
330
1F
100
AcDbEntity
  8
0
  6
Continuous
 62
     7
370
    15
100
AcDbLine
 10
123.590044762
 20
910.7529312626
 30
0.0
 11
123.590044762
 21
911.2529312626
 31
0.0
  0
ARC
  5
160
330
1F
100
AcDbEntity
  8
0
  6
Continuous
 62
     7
370
    15
100
AcDbCircle
 10
123.590044762
 20
911.2529312626
 30
0.0
 40
0.5
100
AcDbArc
 50
270.0
 51
0.0
  0
LINE
  5
161
330
1F
100
AcDbEntity
  8
0
  6
Continuous
 62
     7
370
    15
100
AcDbLine
 10
121.090044762
 20
910.7529312626
 30
0.0
 11
120.590044762
 21
911.2529312626
 31
0.0
  0
LINE
  5
162
330
1F
100
AcDbEntity
  8
0
  6
Continuous
 62
     7
370
    15
100
AcDbLine
 10
120.590044762
 20
911.2529312626
 30
0.0
 11
123.590044762
 21
911.2529312626
 31
0.0
  0
ARC
  5
163
330
1F
100
AcDbEntity
  8
0
  6
Continuous
 62
     7
370
    15
100
AcDbCircle
 10
106.090044762
 20
927.2529312626
 30
0.0
 40
0.5000000000001137
100
AcDbArc
 50
90.0
 51
180.0
  0
LINE
  5
164
330
1F
100
AcDbEntity
  8
0
  6
Continuous
 62
     7
370
    15
100
AcDbLine
 10
105.590044762
 20
927.2529312626
 30
0.0
 11
105.090044762
 21
927.2529312626
 31
0.0
  0
ARC
  5
165
330
1F
100
AcDbEntity
  8
0
  6
Continuous
 62
     7
370
    15
100
AcDbCircle
 10
106.090044762
 20
927.2529312626
 30
0.0
 40
1.0
100
AcDbArc
 50
90.0
 51
180.0
  0
LINE
  5
166
330
1F
100
AcDbEntity
  8
0
  6
Continuous
 62
     7
370
    15
100
AcDbLine
 10
106.090044762
 20
927.7529312626
 30
0.0
 11
106.090044762
 21
928.2529312626
 31
0.0
  0
LINE
  5
167
330
1F
100
AcDbEntity
  8
0
  6
Continuous
 62
     7
370
    15
100
AcDbLine
 10
105.090044762
 20
924.5029312626
 30
0.0
 11
105.090044762
 21
927.2529312626
 31
0.0
  0
LINE
  5
168
330
1F
100
AcDbEntity
  8
0
  6
Continuous
 62
     7
370
    15
100
AcDbLine
 10
123.090044762
 20
927.7529312626
 30
0.0
 11
106.090044762
 21
927.7529312626
 31
0.0
  0
LINE
  5
169
330
1F
100
AcDbEntity
  8
0
  6
Continuous
 62
     7
370
    15
100
AcDbLine
 10
106.090044762
 20
928.2529312626
 30
0.0
 11
123.090044762
 21
928.2529312626
 31
0.0
  0
LINE
  5
16A
330
1F
100
AcDbEntity
  8
0
  6
Continuous
 62
     7
370
    15
100
AcDbLine
 10
123.090044762
 20
927.7529312626
 30
0.0
 11
123.090044762
 21
928.2529312626
 31
0.0
  0
ARC
  5
16B
330
1F
100
AcDbEntity
  8
0
  6
Continuous
 62
     7
370
    15
100
AcDbCircle
 10
123.090044762
 20
927.2529312626
 30
0.0
 40
0.5000000000001137
100
AcDbArc
 50
0.0
 51
90.0
  0
ARC
  5
16C
330
1F
100
AcDbEntity
  8
0
  6
Continuous
 62
     7
370
    15
100
AcDbCircle
 10
123.090044762
 20
927.2529312626
 30
0.0
 40
1.0
100
AcDbArc
 50
0.0
 51
90.0
  0
LINE
  5
16D
330
1F
100
AcDbEntity
  8
0
  6
Continuous
 62
     7
370
    15
100
AcDbLine
 10
34.590044762
 20
928.7529312626
 30
0.0
 11
38.7585054126
 21
976.398654521
 31
0.0
  0
ARC
  5
16E
330
1F
100
AcDbEntity
  8
0
  6
Continuous
 62
     7
370
    15
100
AcDbCircle
 10
39.7547001107
 20
970.6329518612
 30
0.0
 40
5.851130748655242
100
AcDbArc
 50
80.1972507075
 51
99.8027492925
  0
LINE
  5
16F
330
1F
100
AcDbEntity
  8
0
  6
Continuous
 62
     7
370
    15
100
AcDbLine
 10
40.7508948088
 20
976.398654521
 30
0.0
 11
36.5824341582
 21
928.7529312626
 31
0.0
  0
LINE
  5
170
330
1F
100
AcDbEntity
  8
0
  6
Continuous
 62
     7
370
    15
100
AcDbLine
 10
98.5976553659
 20
928.7529312626
 30
0.0
 11
95.6626933164
 21
962.299700995
 31
0.0
  0
LINE
  5
171
330
1F
100
AcDbEntity
  8
0
  6
Continuous
 62
     7
370
    15
100
AcDbLine
 10
95.6626933164
 20
962.299700995
 30
0.0
 11
40.7508948088
 21
976.398654521
 31
0.0
  0
ARC
  5
172
330
1F
100
AcDbEntity
  8
0
  6
Continuous
 62
     7
370
    15
100
AcDbCircle
 10
96.6588880144
 20
956.5339983352
 30
0.0
 40
5.851130748647574
100
AcDbArc
 50
80.1972507075
 51
99.8027492925
  0
LINE
  5
173
330
1F
100
AcDbEntity
  8
0
  6
Continuous
 62
     7
370
    15
100
AcDbLine
 10
97.6550827125
 20
962.299700995
 30
0.0
 11
100.590044762
 21
928.7529312626
 31
0.0
  0
ARC
  5
174
330
1F
100
AcDbEntity
  8
0
  6
Continuous
 62
     7
370
    15
100
AcDbCircle
 10
115.5596372738
 20
957.6374818398
 30
0.0
 40
20.43586715299695
100
AcDbArc
 50
161.6752935119
 51
166.812465909
  0
ARC
  5
175
330
1F
100
AcDbEntity
  8
0
  6
Continuous
 62
     7
370
    15
100
AcDbCircle
 10
95.6626933164
 20
962.1253895095
 30
0.0
 40
2.000000000000067
100
AcDbArc
 50
5.0
 51
75.6
  0
ARC
  5
176
330
1F
100
AcDbEntity
  8
0
  6
Continuous
 62
     7
370
    15
100
AcDbCircle
 10
60.6478387662
 20
971.7364353659
 30
0.0
 40
20.43586715298999
100
AcDbArc
 50
161.6752935119
 51
166.812465909
  0
LINE
  5
177
330
1F
100
AcDbEntity
  8
0
  6
Continuous
 62
     7
370
    15
100
AcDbLine
 10
41.2482745832
 20
978.1615093578
 30
0.0
 11
96.1600730907
 21
964.0625558317
 31
0.0
  0
ARC
  5
178
330
1F
100
AcDbEntity
  8
0
  6
Continuous
 62
     7
370
    15
100
AcDbCircle
 10
40.7508948088
 20
976.2243430355
 30
0.0
 40
2.000000000000067
100
AcDbArc
 50
75.6
 51
175.0
  0
LINE
  5
179
330
1F
100
AcDbEntity
  8
0
  6
Continuous
 62
     7
370
    15
100
AcDbLine
 10
873.2272210536
 20
840.2098773066
 30
0.0
 11
872.502174824
 21
839.8717826972
 31
0.0
  0
LINE
  5
17A
330
1F
100
AcDbEntity
  8
0
  6
Continuous
 62
     7
370
    15
100
AcDbLine
 10
929.1340906797
 20
720.3172084893
 30
0.0
 11
873.2272210536
 21
840.2098773066
 31
0.0
  0
LINE
  5
17B
330
1F
100
AcDbEntity
  8
0
  6
Continuous
 62
     7
370
    15
100
AcDbLine
 10
928.4090444501
 20
719.97911388
 30
0.0
 11
929.1340906797
 21
720.3172084893
 31
0.0
  0
LINE
  5
17C
330
1F
100
AcDbEntity
  8
0
  6
Continuous
 62
     7
370
    15
100
AcDbLine
 10
928.4090444501
 20
719.97911388
 30
0.0
 11
872.502174824
 21
839.8717826972
 31
0.0
  0
ARC
  5
17D
330
1F
100
AcDbEntity
  8
0
  6
Continuous
 62
     7
370
    15
100
AcDbCircle
 10
874.3601057874
 20
840.7381501338
 30
0.0
 40
1.250000000000231
100
AcDbArc
 50
115.0
 51
205.0
  0
LINE
  5
17E
330
1F
100
AcDbEntity
  8
0
  6
Continuous
 62
     7
370
    15
100
AcDbLine
 10
873.4937383508
 20
842.5960810972
 30
0.0
 11
873.8318329602
 21
841.8710348676
 31
0.0
  0
ARC
  5
17F
330
1F
100
AcDbEntity
  8
0
  6
Continuous
 62
     7
370
    15
100
AcDbCircle
 10
874.3601057874
 20
840.7381501338
 30
0.0
 40
2.05000000000016
100
AcDbArc
 50
115.0
 51
205.0
  0
LINE
  5
180
330
1F
100
AcDbEntity
  8
0
  6
Continuous
 62
     7
370
    15
100
AcDbLine
 10
873.4937383508
 20
842.5960810972
 30
0.0
 11
886.13673198
 21
848.4916058485
 31
0.0
  0
LINE
  5
181
330
1F
100
AcDbEntity
  8
0
  6
Continuous
 62
     7
370
    15
100
AcDbLine
 10
886.4748265894
 20
847.7665596189
 30
0.0
 11
886.13673198
 21
848.4916058485
 31
0.0
  0
LINE
  5
182
330
1F
100
AcDbEntity
  8
0
  6
Continuous
 62
     7
370
    15
100
AcDbLine
 10
873.8318329602
 20
841.8710348676
 30
0.0
 11
886.4748265894
 21
847.7665596189
 31
0.0
  0
LINE
  5
183
330
1F
100
AcDbEntity
  8
0
  6
Continuous
 62
     7
370
    15
100
AcDbLine
 10
929.1340906797
 20
711.1886540357
 30
0.0
 11
928.4090444501
 21
711.5267486451
 31
0.0
  0
LINE
  5
184
330
1F
100
AcDbEntity
  8
0
  6
Continuous
 62
     7
370
    15
100
AcDbLine
 10
907.7982459597
 20
667.3267486451
 30
0.0
 11
908.5232921893
 21
666.9886540357
 31
0.0
  0
LINE
  5
185
330
1F
100
AcDbEntity
  8
0
  6
Continuous
 62
     7
370
    15
100
AcDbLine
 10
907.7982459597
 20
667.3267486451
 30
0.0
 11
928.4090444501
 21
711.5267486451
 31
0.0
  0
LINE
  5
186
330
1F
100
AcDbEntity
  8
0
  6
Continuous
 62
     7
370
    15
100
AcDbLine
 10
908.5232921893
 20
666.9886540357
 30
0.0
 11
929.1340906797
 21
711.1886540357
 31
0.0
  0
LINE
  5
187
330
1F
100
AcDbEntity
  8
0
  6
Continuous
 62
     7
370
    15
100
AcDbLine
 10
898.7351680893
 20
660.7529312625
 30
0.0
 11
898.7351680893
 21
661.5529312625
 31
0.0
  0
ARC
  5
188
330
1F
100
AcDbEntity
  8
0
  6
Continuous
 62
     7
370
    15
100
AcDbCircle
 10
898.7351680893
 20
671.5529312625
 30
0.0
 40
10.00000000000011
100
AcDbArc
 50
270.0
 51
335.0
  0
ARC
  5
189
330
1F
100
AcDbEntity
  8
0
  6
Continuous
 62
     7
370
    15
100
AcDbCircle
 10
898.7351680893
 20
671.5529312625
 30
0.0
 40
10.80000000000007
100
AcDbArc
 50
270.0
 51
335.0
  0
LINE
  5
18A
330
1F
100
AcDbEntity
  8
0
  6
Continuous
 62
     7
370
    15
100
AcDbLine
 10
887.9493475541
 20
849.336842372
 30
0.0
 11
888.2874421635
 21
848.6117961423
 31
0.0
  0
LINE
  5
18B
330
1F
100
AcDbEntity
  8
0
  6
Continuous
 62
     7
370
    15
100
AcDbLine
 10
888.2874421635
 20
848.6117961423
 30
0.0
 11
886.4748265894
 21
847.7665596189
 31
0.0
  0
LINE
  5
18C
330
1F
100
AcDbEntity
  8
0
  6
Continuous
 62
     7
370
    15
100
AcDbLine
 10
886.13673198
 20
848.4916058485
 30
0.0
 11
887.9493475541
 21
849.336842372
 31
0.0
  0
LINE
  5
18D
330
1F
100
AcDbEntity
  8
0
  6
Continuous
 62
     7
370
    15
100
AcDbLine
 10
840.1058706974
 20
661.5529312625
 30
0.0
 11
840.1058706974
 21
660.7529312625
 31
0.0
  0
LINE
  5
18E
330
1F
100
AcDbEntity
  8
0
  6
Continuous
 62
     7
370
    15
100
AcDbLine
 10
838.1058706974
 20
660.7529312625
 30
0.0
 11
838.1058706974
 21
661.5529312625
 31
0.0
  0
LINE
  5
18F
330
1F
100
AcDbEntity
  8
0
  6
Continuous
 62
     7
370
    15
100
AcDbLine
 10
840.1058706974
 20
660.7529312625
 30
0.0
 11
838.1058706974
 21
660.7529312625
 31
0.0
  0
LINE
  5
190
330
1F
100
AcDbEntity
  8
0
  6
Continuous
 62
     7
370
    15
100
AcDbLine
 10
838.1058706974
 20
661.5529312625
 30
0.0
 11
840.1058706974
 21
661.5529312625
 31
0.0
  0
LINE
  5
191
330
1F
100
AcDbEntity
  8
0
  6
Continuous
 62
     7
370
    15
100
AcDbLine
 10
840.1058706974
 20
660.7529312625
 30
0.0
 11
898.7351680893
 21
660.7529312625
 31
0.0
  0
LINE
  5
192
330
1F
100
AcDbEntity
  8
0
  6
Continuous
 62
     7
370
    15
100
AcDbLine
 10
840.1058706974
 20
661.5529312625
 30
0.0
 11
898.7351680893
 21
661.5529312625
 31
0.0
  0
ARC
  5
193
330
1F
100
AcDbEntity
  8
0
  6
Continuous
 62
     7
370
    15
100
AcDbCircle
 10
919.3459665797
 20
715.7529312625
 30
0.0
 40
10.00000000000008
100
AcDbArc
 50
335.0
 51
25.0
  0
ARC
  5
194
330
1F
100
AcDbEntity
  8
0
  6
Continuous
 62
     7
370
    15
100
AcDbCircle
 10
919.3459665797
 20
715.7529312625
 30
0.0
 40
10.80000000000011
100
AcDbArc
 50
335.0
 51
25.0
  0
LINE
  5
195
330
1F
100
AcDbEntity
  8
0
  6
Continuous
 62
     7
370
    15
100
AcDbLine
 10
892.2883759213
 20
806.6793783744
 30
0.0
 11
889.4270528808
 21
805.4692258421
 31
0.0
  0
LINE
  5
196
330
1F
100
AcDbEntity
  8
0
  6
Continuous
 62
     7
370
    15
100
AcDbLine
 10
915.700512473
 20
756.4718895154
 30
0.0
 11
892.2883759213
 21
806.6793783744
 31
0.0
  0
LINE
  5
197
330
1F
100
AcDbEntity
  8
0
  6
Continuous
 62
     7
370
    15
100
AcDbLine
 10
912.9342588525
 20
755.0578599538
 30
0.0
 11
915.700512473
 21
756.4718895154
 31
0.0
  0
LINE
  5
198
330
1F
100
AcDbEntity
  8
0
  6
Continuous
 62
     7
370
    15
100
AcDbLine
 10
894.7897114366
 20
805.7999753726
 30
0.0
 11
916.6346781671
 21
758.9532930408
 31
0.0
  0
ARC
  5
199
330
1F
100
AcDbEntity
  8
0
  6
Continuous
 62
     7
370
    15
100
AcDbCircle
 10
914.8632398236
 20
758.2036376336
 30
0.0
 40
1.923532436518241
100
AcDbArc
 50
295.8030276957
 51
22.9376068066
  0
ARC
  5
19A
330
1F
100
AcDbEntity
  8
0
  6
Continuous
 62
     7
370
    15
100
AcDbCircle
 10
893.0767834591
 20
804.9248440805
 30
0.0
 40
1.923532436518315
100
AcDbArc
 50
27.0623931934
 51
114.1969723043
  0
SPLINE
  5
19B
330
1F
100
AcDbEntity
  8
0
  6
Continuous
 62
     7
370
    15
100
AcDbSpline
210
0.0
220
0.0
230
1.0
 70
     8
 71
     3
 72
    11
 73
     7
 74
     0
 42
0.00000001
 43
0.00000001
 12
1.0
 22
0.0
 32
0.0
 13
1.0
 23
0.0
 33
0.0
 40
0.0
 40
0.0
 40
0.0
 40
0.0
 40
0.2835227646035696
 40
0.5667788824161167
 40
0.8499302227267556
 40
0.9999999999999999
 40
0.9999999999999999
 40
0.9999999999999999
 40
0.9999999999999999
 10
915.7005124730007
 20
756.4718895153721
 30
0.0
 10
915.7504966615993
 20
756.3807684681359
 30
0.0
 10
915.8504180297895
 20
756.1986120709612
 30
0.0
 10
916.082144411021
 20
755.708868198604
 30
0.0
 10
916.3029087004325
 20
755.2155078621769
 30
0.0
 10
916.4374809430534
 20
754.9005790375268
 30
0.0
 10
916.4840973836137
 20
754.7914862517555
 30
0.0
  0
LWPOLYLINE
  5
19C
330
1F
100
AcDbEntity
  8
0
  6
Continuous
 62
     7
370
    15
100
AcDbPolyline
 90
        3
 70
   128
 43
0.0
 10
916.4840973836
 20
754.7914862518
 10
915.9905125891
 20
754.5396603157
 10
913.7167585246
 20
753.3797839917
  0
LWPOLYLINE
  5
19D
330
1F
100
AcDbEntity
  8
0
  6
Continuous
 62
     7
370
    15
100
AcDbPolyline
 90
        3
 70
   128
 43
0.0
 10
888.6445532087
 20
807.1473018042
 10
890.9946109615
 20
808.1435443405
 10
891.5047910107
 20
808.3597816381
  0
SPLINE
  5
19E
330
1F
100
AcDbEntity
  8
0
  6
Continuous
 62
     7
370
    15
100
AcDbSpline
210
0.0
220
0.0
230
1.0
 70
     8
 71
     3
 72
    11
 73
     7
 74
     0
 42
0.00000001
 43
0.00000001
 12
1.0
 22
0.0
 32
0.0
 13
1.0
 23
0.0
 33
0.0
 40
0.0
 40
0.0
 40
0.0
 40
0.0
 40
0.2835227523786649
 40
0.5667788888047247
 40
0.8499302218874322
 40
1.0
 40
1.0
 40
1.0
 40
1.0
 10
891.5047910106704
 20
808.3597816380599
 30
0.0
 10
891.6060175556819
 20
808.1587693895975
 30
0.0
 10
891.8083754554197
 20
807.7569339183212
 30
0.0
 10
892.0630566521038
 20
807.217969734092
 30
0.0
 10
892.2202762961526
 20
806.8608842974692
 30
0.0
 10
892.2708551682362
 20
806.7260764355593
 30
0.0
 10
892.2883759212989
 20
806.6793783744495
 30
0.0
  0
LINE
  5
19F
330
1F
100
AcDbEntity
  8
0
  6
Continuous
 62
     7
370
    15
100
AcDbLine
 10
918.2018479883
 20
755.5924865135
 30
0.0
 11
916.4840973836
 21
754.7914862518
 31
0.0
  0
SPLINE
  5
1A0
330
1F
100
AcDbEntity
  8
0
  6
Continuous
 62
     7
370
    15
100
AcDbSpline
210
0.0
220
0.0
230
1.0
 70
    24
 71
     3
 72
    11
 73
     7
 74
     0
 42
0.00000001
 43
0.00000001
 12
1.0
 22
0.0
 32
0.0
 13
1.0
 23
0.0
 33
0.0
 40
0.0
 40
0.0
 40
0.0
 40
0.0
 40
0.1499516226907091
 40
0.4331749578253681
 40
0.7165923401616999
 40
1.0
 40
1.0
 40
1.0
 40
1.0
 10
918.2018479883171
 20
755.592486513529
 30
0.0
 10
918.1017246628224
 20
755.8072016779571
 30
0.0
 10
917.8124919321571
 20
756.4274632705071
 30
0.0
 10
917.3561538261117
 20
757.4060834970132
 30
0.0
 10
916.8983873405595
 20
758.3877668932571
 30
0.0
 10
916.7225802197335
 20
758.7647864805436
 30
0.0
 10
916.6346781670911
 20
758.9532930407622
 30
0.0
  0
LINE
  5
1A1
330
1F
100
AcDbEntity
  8
0
  6
Continuous
 62
     7
370
    15
100
AcDbLine
 10
893.2225416154
 20
809.1607818998
 30
0.0
 11
891.5047910107
 21
808.3597816381
 31
0.0
  0
SPLINE
  5
1A2
330
1F
100
AcDbEntity
  8
0
  6
Continuous
 62
     7
370
    15
100
AcDbSpline
210
0.0
220
0.0
230
1.0
 70
    24
 71
     3
 72
    11
 73
     7
 74
     0
 42
0.00000001
 43
0.00000001
 12
1.0
 22
0.0
 32
0.0
 13
1.0
 23
0.0
 33
0.0
 40
0.0
 40
0.0
 40
0.0
 40
0.0
 40
0.1499515950756841
 40
0.4331749432232067
 40
0.716592332372816
 40
1.0
 40
1.0
 40
1.0
 40
1.0
 10
894.7897114365999
 20
805.7999753726003
 30
0.0
 10
894.7475529211904
 20
805.8903846006544
 30
0.0
 10
894.6257668707674
 20
806.1515556286082
 30
0.0
 10
894.2958303618656
 20
806.8591067552765
 30
0.0
 10
893.7925023078049
 20
807.9384972504968
 30
0.0
 10
893.4125263405492
 20
808.7533583419037
 30
0.0
 10
893.2225416153738
 20
809.1607818998334
 30
0.0
  0
LINE
  5
1A3
330
1F
100
AcDbEntity
  8
0
  6
Continuous
 62
     7
370
    15
100
AcDbLine
 10
880.9423792632
 20
823.7884196401
 30
0.0
 11
880.8949793031
 21
823.7663166757
 31
0.0
  0
SPLINE
  5
1A4
330
1F
100
AcDbEntity
  8
0
  6
Continuous
 62
     7
370
    15
100
AcDbSpline
210
0.0
220
0.0
230
1.0
 70
     8
 71
     3
 72
    13
 73
     9
 74
     0
 42
0.00000001
 43
0.00000001
 12
1.0
 22
0.0
 32
0.0
 13
1.0
 23
0.0
 33
0.0
 40
0.0
 40
0.0
 40
0.0
 40
0.0
 40
0.2359779310481729
 40
0.4700664405346267
 40
0.6281567545471183
 40
0.7867756990089753
 40
0.8916100492377275
 40
1.0
 40
1.0
 40
1.0
 40
1.0
 10
885.8984461574532
 20
820.3826269745471
 30
0.0
 10
885.6687915657759
 20
820.8642650816504
 30
0.0
 10
885.2113211744446
 20
821.8236849292023
 30
0.0
 10
884.3963927505938
 20
823.0046179842972
 30
0.0
 10
883.4030907724025
 20
823.7941776185451
 30
0.0
 10
882.472152683401
 20
824.0691188883507
 30
0.0
 10
881.6143489091176
 20
824.0855870159298
 30
0.0
 10
881.1688454612685
 20
823.8885705415787
 30
0.0
 10
880.942379263221
 20
823.7884196401335
 30
0.0
  0
LINE
  5
1A5
330
1F
100
AcDbEntity
  8
0
  6
Continuous
 62
     7
370
    15
100
AcDbLine
 10
891.5047910107
 20
808.3597816381
 30
0.0
 11
885.8984461575
 21
820.3826269745
 31
0.0
  0
LINE
  5
1A6
330
1F
100
AcDbEntity
  8
0
  6
Continuous
 62
     7
370
    15
100
AcDbLine
 10
880.0982961939
 20
825.5985491025
 30
0.0
 11
880.5139709154
 21
825.7664925914
 31
0.0
  0
SPLINE
  5
1A7
330
1F
100
AcDbEntity
  8
0
  6
Continuous
 62
     7
370
    15
100
AcDbSpline
210
0.0
220
0.0
230
1.0
 70
     8
 71
     3
 72
    14
 73
    10
 74
     0
 42
0.00000001
 43
0.00000001
 12
1.0
 22
0.0
 32
0.0
 13
1.0
 23
0.0
 33
0.0
 40
0.0
 40
0.0
 40
0.0
 40
0.0
 40
0.0000064140457966
 40
0.0730558909548026
 40
0.2154935957733512
 40
0.403778903007533
 40
0.5887468703998096
 40
0.8882363243876894
 40
1.0
 40
1.0
 40
1.0
 40
1.0
 10
880.5139709154362
 20
825.7664925914477
 30
0.0
 10
880.513989455406
 20
825.7665000819494
 30
0.0
 10
880.7251594485197
 20
825.8518167921636
 30
0.0
 10
881.3761743832813
 20
826.0379589147642
 30
0.0
 10
882.6541052863222
 20
826.0438242146835
 30
0.0
 10
884.2257172594625
 20
825.5697858193614
 30
0.0
 10
885.9173883525967
 20
824.2629539395037
 30
0.0
 10
886.9102058649288
 20
822.6513685047256
 30
0.0
 10
887.4653332777777
 20
821.4972694699352
 30
0.0
 10
887.6161967621565
 20
821.1836272363206
 30
0.0
  0
LINE
  5
1A8
330
1F
100
AcDbEntity
  8
0
  6
Continuous
 62
     7
370
    15
100
AcDbLine
 10
887.6161967622
 20
821.1836272363
 30
0.0
 11
885.8984461575
 21
820.3826269745
 31
0.0
  0
SPLINE
  5
1A9
330
1F
100
AcDbEntity
  8
0
  6
Continuous
 62
     7
370
    15
100
AcDbSpline
210
0.0
220
0.0
230
1.0
 70
     8
 71
     3
 72
    15
 73
    11
 74
     0
 42
0.00000001
 43
0.00000001
 12
1.0
 22
0.0
 32
0.0
 13
1.0
 23
0.0
 33
0.0
 40
0.0
 40
0.0
 40
0.0
 40
0.0
 40
0.0125258353877938
 40
0.2274813526119396
 40
0.4424404199769164
 40
0.4999991763207139
 40
0.7148755009569809
 40
0.9297495265588461
 40
0.9874741646146632
 40
1.0
 40
1.0
 40
1.0
 40
1.0
 10
880.942379263221
 20
823.7884196401335
 30
0.0
 10
880.9371766363552
 20
823.8003770780624
 30
0.0
 10
880.8426918726682
 20
824.0175357800277
 30
0.0
 10
880.6562010198759
 20
824.4405498478187
 30
0.0
 10
880.4714691104826
 20
824.8482676596348
 30
0.0
 10
880.3138725753272
 20
825.1882290663884
 30
0.0
 10
880.1840502232026
 20
825.4590908618715
 30
0.0
 10
880.1155973270301
 20
825.5838531234831
 30
0.0
 10
880.1006042159198
 20
825.5989027724492
 30
0.0
 10
880.098649616917
 20
825.5986043050449
 30
0.0
 10
880.0983011070186
 20
825.5985510875589
 30
0.0
  0
LINE
  5
1AA
330
1F
100
AcDbEntity
  8
0
  6
Continuous
 62
     7
370
    15
100
AcDbLine
 10
928.4297161629
 20
729.1740241097
 30
0.0
 11
916.4840973836
 21
754.7914862518
 31
0.0
  0
LINE
  5
1AB
330
1F
100
AcDbEntity
  8
0
  6
Continuous
 62
     7
370
    15
100
AcDbLine
 10
929.2911361235
 20
726.8965199562
 30
0.0
 11
928.4297161629
 21
729.1740241097
 31
0.0
  0
LINE
  5
1AC
330
1F
100
AcDbEntity
  8
0
  6
Continuous
 62
     7
370
    15
100
AcDbLine
 10
929.2911361235
 20
726.8965199562
 30
0.0
 11
926.6421174746
 21
725.6612622736
 31
0.0
  0
SPLINE
  5
1AD
330
1F
100
AcDbEntity
  8
0
  6
Continuous
 62
     7
370
    15
100
AcDbSpline
210
0.0
220
0.0
230
1.0
 70
     8
 71
     3
 72
     9
 73
     5
 74
     0
 42
0.00000001
 43
0.00000001
 12
1.0
 22
0.0
 32
0.0
 13
1.0
 23
0.0
 33
0.0
 40
0.0
 40
0.0
 40
0.0
 40
0.0
 40
0.0000220488581392
 40
0.9999999999999999
 40
0.9999999999999999
 40
0.9999999999999999
 40
0.9999999999999999
 10
930.147466767645
 20
729.9750243714922
 30
0.0
 10
930.1474752200062
 20
729.9750062453338
 30
0.0
 10
930.5308221063361
 20
729.1529156773222
 30
0.0
 10
930.8217601668237
 20
728.291821434309
 30
0.0
 10
931.112691812459
 20
727.4307461774408
 30
0.0
  0
SPLINE
  5
1AE
330
1F
100
AcDbEntity
  8
0
  6
Continuous
 62
     7
370
    15
100
AcDbSpline
210
0.0
220
0.0
230
1.0
 70
     8
 71
     3
 72
    11
 73
     7
 74
     0
 42
0.00000001
 43
0.00000001
 12
1.0
 22
0.0
 32
0.0
 13
1.0
 23
0.0
 33
0.0
 40
0.0
 40
0.0
 40
0.0
 40
0.0
 40
0.2499768814500301
 40
0.4998058427200036
 40
0.7495361389842473
 40
0.9999999999999999
 40
0.9999999999999999
 40
0.9999999999999999
 40
0.9999999999999999
 10
931.112691812459
 20
727.4307461774409
 30
0.0
 10
931.0873422434931
 20
727.4167152560276
 30
0.0
 10
931.0366581057995
 20
727.3886617157943
 30
0.0
 10
930.6218367803148
 20
727.2613974399973
 30
0.0
 10
930.0218055332982
 20
727.0909990506447
 30
0.0
 10
929.5349306038507
 20
726.9614096711919
 30
0.0
 10
929.2911361234745
 20
726.8965199561641
 30
0.0
  0
LINE
  5
1AF
330
1F
100
AcDbEntity
  8
0
  6
Continuous
 62
     7
370
    15
100
AcDbLine
 10
930.1474667676
 20
729.9750243715
 30
0.0
 11
928.4297161629
 21
729.1740241097
 31
0.0
  0
LINE
  5
1B0
330
1F
100
AcDbEntity
  8
0
  6
Continuous
 62
     7
370
    15
100
AcDbLine
 10
880.0982961939
 20
825.5985491025
 30
0.0
 11
880.0497427796
 21
825.5789322498
 31
0.0
  0
SPLINE
  5
1B1
330
1F
100
AcDbEntity
  8
0
  6
Continuous
 62
     7
370
    15
100
AcDbSpline
210
0.0
220
0.0
230
1.0
 70
     8
 71
     3
 72
    11
 73
     7
 74
     0
 42
0.00000001
 43
0.00000001
 12
1.0
 22
0.0
 32
0.0
 13
1.0
 23
0.0
 33
0.0
 40
0.0
 40
0.0
 40
0.0
 40
0.0
 40
0.2440033155445688
 40
0.4919416665511687
 40
0.7439093003410303
 40
1.0
 40
1.0
 40
1.0
 40
1.0
 10
929.9259952798149
 20
725.5873661510626
 30
0.0
 10
929.8890528455747
 20
725.6703848990684
 30
0.0
 10
929.8145722073673
 20
725.8377612363854
 30
0.0
 10
929.6616761701564
 20
726.1585547671681
 30
0.0
 10
929.4858311389318
 20
726.5162902863933
 30
0.0
 10
929.3563846294182
 20
726.7690928732997
 30
0.0
 10
929.2911361234745
 20
726.8965199561641
 30
0.0
  0
LINE
  5
1B2
330
1F
100
AcDbEntity
  8
0
  6
Continuous
 62
     7
370
    15
100
AcDbLine
 10
929.9259952798
 20
725.5873661511
 30
0.0
 11
927.3083557085
 21
724.2325097701
 31
0.0
  0
SPLINE
  5
1B3
330
1F
100
AcDbEntity
  8
0
  6
Continuous
 62
     7
370
    15
100
AcDbSpline
210
0.0
220
0.0
230
1.0
 70
     8
 71
     3
 72
    11
 73
     7
 74
     0
 42
0.00000001
 43
0.00000001
 12
1.0
 22
0.0
 32
0.0
 13
1.0
 23
0.0
 33
0.0
 40
0.0
 40
0.0
 40
0.0
 40
0.0
 40
0.2501480011265687
 40
0.5002880311525107
 40
0.7504202668475572
 40
1.0
 40
1.0
 40
1.0
 40
1.0
 10
931.112691812459
 20
727.4307461774409
 30
0.0
 10
931.1343450555771
 20
727.2569160639982
 30
0.0
 10
931.1776508518208
 20
726.909261376303
 30
0.0
 10
930.9455121393542
 20
726.3764804179696
 30
0.0
 10
930.5285320646144
 20
725.901361359103
 30
0.0
 10
930.1266927779501
 20
725.6919540439015
 30
0.0
 10
929.9259952798151
 20
725.5873661510626
 30
0.0
  0
LINE
  5
1B4
330
1F
100
AcDbEntity
  8
0
  6
Continuous
 62
     7
370
    15
100
AcDbLine
 10
887.6161967622
 20
821.1836272363
 30
0.0
 11
893.2225416154
 21
809.1607818998
 31
0.0
  0
LINE
  5
1B5
330
1F
100
AcDbEntity
  8
0
  6
Continuous
 62
     7
370
    15
100
AcDbLine
 10
918.2018479883
 20
755.5924865135
 30
0.0
 11
930.1474667676
 21
729.9750243715
 31
0.0
  0
SPLINE
  5
1B6
330
1F
100
AcDbEntity
  8
0
  6
Continuous
 62
     7
370
    15
100
AcDbSpline
210
0.0
220
0.0
230
1.0
 70
     8
 71
     3
 72
    14
 73
    10
 74
     0
 42
0.00000001
 43
0.00000001
 12
1.0
 22
0.0
 32
0.0
 13
1.0
 23
0.0
 33
0.0
 40
0.0
 40
0.0
 40
0.0
 40
0.0
 40
0.0024045749465557
 40
0.0051901321609373
 40
0.0347267574258785
 40
0.2932094380103032
 40
0.5746449636639237
 40
0.7844996086191857
 40
1.0
 40
1.0
 40
1.0
 40
1.0
 10
929.0929225310356
 20
721.588594660699
 30
0.0
 10
929.094792460897
 20
721.5895930666967
 30
0.0
 10
929.0988285934061
 20
721.5917480667255
 30
0.0
 10
929.1257919749153
 20
721.6064155508554
 30
0.0
 10
929.3497902901362
 20
721.7396269053925
 30
0.0
 10
929.7603404394779
 20
722.1838684013999
 30
0.0
 10
930.1694689977448
 20
723.1739932731895
 30
0.0
 10
930.2377671474129
 20
724.3315911788476
 30
0.0
 10
930.0308347749385
 20
725.1650868251892
 30
0.0
 10
929.925995279815
 20
725.5873661510626
 30
0.0
  0
SPLINE
  5
1B7
330
1F
100
AcDbEntity
  8
0
  6
Continuous
 62
     7
370
    15
100
AcDbSpline
210
0.0
220
0.0
230
1.0
 70
     8
 71
     3
 72
    20
 73
    16
 74
     0
 42
0.00000001
 43
0.00000001
 12
1.0
 22
0.0
 32
0.0
 13
1.0
 23
0.0
 33
0.0
 40
0.0
 40
0.0
 40
0.0
 40
0.0
 40
0.2070577373168114
 40
0.4203770502760553
 40
0.7011163025568234
 40
0.8834527988431007
 40
0.9282286404934952
 40
0.9524788585968946
 40
0.9675018207221366
 40
0.9773827146382337
 40
0.9840938553685414
 40
0.9887393639099431
 40
0.9919933949590752
 40
0.9977340800222559
 40
0.9999999999999999
 40
0.9999999999999999
 40
0.9999999999999999
 40
0.9999999999999999
 10
931.112691812459
 20
727.4307461774408
 30
0.0
 10
931.2175571460723
 20
726.9416317051807
 30
0.0
 10
931.4304590167867
 20
725.9486115854766
 30
0.0
 10
931.2320277081618
 20
724.239854098636
 30
0.0
 10
930.5979408141625
 20
722.9430402770103
 30
0.0
 10
929.9271872985569
 20
722.1753531501219
 30
0.0
 10
929.5168355480555
 20
721.8538270334136
 30
0.0
 10
929.3713525486238
 20
721.7537315542409
 30
0.0
 10
929.2834564082086
 20
721.6978599712927
 30
0.0
 10
929.2257816260509
 20
721.6630882381223
 30
0.0
 10
929.1865303274338
 20
721.6402725040717
 30
0.0
 10
929.1592902985016
 20
721.624838008072
 30
0.0
 10
929.1337049492338
 20
721.6106047134141
 30
0.0
 10
929.1124475472596
 20
721.5990109462713
 30
0.0
 10
929.0972293712961
 20
721.5908922914693
 30
0.0
 10
929.0929225310356
 20
721.588594660699
 30
0.0
  0
SPLINE
  5
1B8
330
1F
100
AcDbEntity
  8
0
  6
Continuous
 62
     7
370
    15
100
AcDbSpline
210
0.0
220
0.0
230
1.0
 70
     8
 71
     3
 72
    10
 73
     6
 74
     0
 42
0.00000001
 43
0.00000001
 12
1.0
 22
0.0
 32
0.0
 13
1.0
 23
0.0
 33
0.0
 40
0.0
 40
0.0
 40
0.0
 40
0.0
 40
0.4527378322259663
 40
0.9055954617464347
 40
1.0
 40
1.0
 40
1.0
 40
1.0
 10
931.2347735546437
 20
724.6338242776012
 30
0.0
 10
931.2423966014917
 20
724.6863237016404
 30
0.0
 10
931.2576447122945
 20
724.7913364413986
 30
0.0
 10
931.3810057296328
 20
725.2740053003778
 30
0.0
 10
931.3389851974241
 20
725.7504510808376
 30
0.0
 10
931.3317365163094
 20
725.8326395575052
 30
0.0
  0
SPLINE
  5
1B9
330
1F
100
AcDbEntity
  8
0
  6
Continuous
 62
     7
370
    15
100
AcDbSpline
210
0.0
220
0.0
230
1.0
 70
     8
 71
     3
 72
    12
 73
     8
 74
     0
 42
0.00000001
 43
0.00000001
 12
1.0
 22
0.0
 32
0.0
 13
1.0
 23
0.0
 33
0.0
 40
0.0
 40
0.0
 40
0.0
 40
0.0
 40
0.4616906276046116
 40
0.7307729957152407
 40
0.917582951552438
 40
0.9719359527204184
 40
1.0
 40
1.0
 40
1.0
 40
1.0
 10
931.0916410680668
 20
727.5061319762401
 30
0.0
 10
931.061627275175
 20
727.614691816261
 30
0.0
 10
931.0141208541373
 20
727.7865224638053
 30
0.0
 10
930.9424974735572
 20
728.0106214578536
 30
0.0
 10
930.9010062446977
 20
728.1349902077645
 30
0.0
 10
930.8785190248427
 20
728.2006618107666
 30
0.0
 10
930.8715748290933
 20
728.2207497151086
 30
0.0
 10
930.8692102426213
 20
728.2275899005775
 30
0.0
  0
LINE
  5
1BA
330
1F
100
AcDbEntity
  8
0
  6
Continuous
 62
     7
370
    15
100
AcDbLine
 10
886.246356922
 20
823.4447715843
 30
0.0
 11
885.8007441986
 21
824.1796606022
 31
0.0
  0
LINE
  5
1BB
330
1F
100
AcDbEntity
  8
0
  6
Continuous
 62
     7
370
    15
100
AcDbLine
 10
930.1936485147
 20
729.8754789109
 30
0.0
 11
930.1516145573
 21
729.9661253995
 31
0.0
  0
SPLINE
  5
1BC
330
1F
100
AcDbEntity
  8
0
  6
Continuous
 62
     7
370
    15
100
AcDbSpline
210
0.0
220
0.0
230
1.0
 70
     8
 71
     3
 72
     9
 73
     5
 74
     0
 42
0.00000001
 43
0.00000001
 12
1.0
 22
0.0
 32
0.0
 13
1.0
 23
0.0
 33
0.0
 40
0.0
 40
0.0
 40
0.0
 40
0.0
 40
0.5000138394956876
 40
1.0
 40
1.0
 40
1.0
 40
1.0
 10
930.6614553548184
 20
728.78784362983
 30
0.0
 10
930.5934859423805
 20
728.9565606251298
 30
0.0
 10
930.4575508800501
 20
729.2939852761552
 30
0.0
 10
930.2816143465875
 20
729.6816512760358
 30
0.0
 10
930.1936485147288
 20
729.8754789108741
 30
0.0
  0
SPLINE
  5
1BD
330
1F
100
AcDbEntity
  8
0
  6
Continuous
 62
     7
370
    15
100
AcDbSpline
210
0.0
220
0.0
230
1.0
 70
     8
 71
     3
 72
    13
 73
     9
 74
     0
 42
0.00000001
 43
0.00000001
 12
1.0
 22
0.0
 32
0.0
 13
1.0
 23
0.0
 33
0.0
 40
0.0
 40
0.0
 40
0.0
 40
0.0
 40
0.1254648118065536
 40
0.2502435788816473
 40
0.3760698054095874
 40
0.5019139201694274
 40
0.7508310514861739
 40
1.0
 40
1.0
 40
1.0
 40
1.0
 10
885.8007441981904
 20
824.1796606026024
 30
0.0
 10
885.7130672259004
 20
824.2769328809675
 30
0.0
 10
885.5381927011994
 20
824.4709455504448
 30
0.0
 10
885.2645106690185
 20
824.7303456876939
 30
0.0
 10
884.9975100419931
 20
824.953817856088
 30
0.0
 10
884.6726510262831
 20
825.1922916101203
 30
0.0
 10
884.3399646865414
 20
825.3898524455545
 30
0.0
 10
884.2870499966068
 20
825.4168166457684
 30
0.0
 10
884.2605792756092
 20
825.4303055620159
 30
0.0
  0
SPLINE
  5
1BE
330
1F
100
AcDbEntity
  8
0
  6
Continuous
 62
     7
370
    15
100
AcDbSpline
210
0.0
220
0.0
230
1.0
 70
     8
 71
     3
 72
     9
 73
     5
 74
     0
 42
0.00000001
 43
0.00000001
 12
1.0
 22
0.0
 32
0.0
 13
1.0
 23
0.0
 33
0.0
 40
0.0
 40
0.0
 40
0.0
 40
0.0
 40
0.7838918077691942
 40
1.0
 40
1.0
 40
1.0
 40
1.0
 10
931.350909052475
 20
725.6249606613288
 30
0.0
 10
931.3571234384455
 20
725.642538495801
 30
0.0
 10
931.3650510451753
 20
725.6649622975272
 30
0.0
 10
931.341863530204
 20
725.9554758233364
 30
0.0
 10
931.3368525182613
 20
726.0182581762178
 30
0.0
  0
SPLINE
  5
1BF
330
1F
100
AcDbEntity
  8
0
  6
Continuous
 62
     7
370
    15
100
AcDbSpline
210
0.0
220
0.0
230
1.0
 70
     8
 71
     3
 72
     9
 73
     5
 74
     0
 42
0.00000001
 43
0.00000001
 12
1.0
 22
0.0
 32
0.0
 13
1.0
 23
0.0
 33
0.0
 40
0.0
 40
0.0
 40
0.0
 40
0.0
 40
0.0370163330249226
 40
1.0
 40
1.0
 40
1.0
 40
1.0
 10
931.1046484557451
 20
727.4519480072154
 30
0.0
 10
931.1020851785237
 20
727.464823409899
 30
0.0
 10
931.0328379837886
 20
727.8126537224005
 30
0.0
 10
930.8436450550759
 20
728.3094433410998
 30
0.0
 10
930.6614553548184
 20
728.78784362983
 30
0.0
  0
LINE
  5
1C0
330
1F
100
AcDbEntity
  8
0
  6
Continuous
 62
     7
370
    15
100
AcDbLine
 10
930.8692102428
 20
728.2275899
 30
0.0
 11
930.7001060882
 21
728.6726861666
 31
0.0
  0
LINE
  5
1C1
330
1F
100
AcDbEntity
  8
0
  6
Continuous
 62
     7
370
    15
100
AcDbLine
 10
922.1274802474
 20
755.1590452024
 30
0.0
 11
894.6572932343
 21
814.0690513598
 31
0.0
  0
LINE
  5
1C2
330
1F
100
AcDbEntity
  8
0
  6
Continuous
 62
     7
370
    15
100
AcDbLine
 10
907.4395054963
 20
810.3195245361
 30
0.0
 11
905.4108441516
 21
814.6700028291
 31
0.0
  0
SPLINE
  5
1C3
330
1F
100
AcDbEntity
  8
0
  6
Continuous
 62
     7
370
    15
100
AcDbSpline
210
0.0
220
0.0
230
1.0
 70
     8
 71
     3
 72
     9
 73
     5
 74
     0
 42
0.00000001
 43
0.00000001
 12
1.0
 22
0.0
 32
0.0
 13
1.0
 23
0.0
 33
0.0
 40
0.0
 40
0.0
 40
0.0
 40
0.0
 40
0.5209744652335244
 40
1.0
 40
1.0
 40
1.0
 40
1.0
 10
907.3366632707132
 20
809.0526540237273
 30
0.0
 10
907.2591047265366
 20
809.2854502653688
 30
0.0
 10
907.1102326620646
 20
809.7322979655474
 30
0.0
 10
907.3328608902278
 20
810.1293340928675
 30
0.0
 10
907.4395054962779
 20
810.3195245360785
 30
0.0
  0
LINE
  5
1C4
330
1F
100
AcDbEntity
  8
0
  6
Continuous
 62
     7
370
    15
100
AcDbLine
 10
926.4348389017
 20
768.096484214
 30
0.0
 11
907.3366632707
 21
809.0526540237
 31
0.0
  0
SPLINE
  5
1C5
330
1F
100
AcDbEntity
  8
0
  6
Continuous
 62
     7
370
    15
100
AcDbSpline
210
0.0
220
0.0
230
1.0
 70
     8
 71
     3
 72
     9
 73
     5
 74
     0
 42
0.00000001
 43
0.00000001
 12
1.0
 22
0.0
 32
0.0
 13
1.0
 23
0.0
 33
0.0
 40
0.0
 40
0.0
 40
0.0
 40
0.0
 40
0.4790255347664908
 40
1.0
 40
1.0
 40
1.0
 40
1.0
 10
927.4714237261885
 20
767.3609372609533
 30
0.0
 10
927.2571795626234
 20
767.4014948134768
 30
0.0
 10
926.8099295769425
 20
767.4861615996501
 30
0.0
 10
926.5633174977714
 20
767.8874323824665
 30
0.0
 10
926.434838901705
 20
768.096484213958
 30
0.0
  0
LINE
  5
1C6
330
1F
100
AcDbEntity
  8
0
  6
Continuous
 62
     7
370
    15
100
AcDbLine
 10
929.5000850708
 20
763.010458968
 30
0.0
 11
927.4714237262
 21
767.360937261
 31
0.0
  0
LINE
  5
1C7
330
1F
100
AcDbEntity
  8
0
  6
Continuous
 62
     7
370
    15
100
AcDbLine
 10
908.2147475871
 20
808.6570125072
 30
0.0
 11
926.6961816354
 21
769.0234492898
 31
0.0
  0
ARC
  5
1C8
330
1F
100
AcDbEntity
  8
0
  6
Continuous
 62
     7
370
    15
100
AcDbCircle
 10
925.933473168
 20
768.7381593375
 30
0.0
 40
0.8143184653804096
100
AcDbArc
 50
308.001895257
 51
20.508234223
  0
ARC
  5
1C9
330
1F
100
AcDbEntity
  8
0
  6
Continuous
 62
     7
370
    15
100
AcDbCircle
 10
907.5059432518
 20
808.2561247706
 30
0.0
 40
0.8143184653804691
100
AcDbArc
 50
29.491765777
 51
101.998104743
  0
SPLINE
  5
1CA
330
1F
100
AcDbEntity
  8
0
  6
Continuous
 62
     7
370
    15
100
AcDbSpline
210
0.0
220
0.0
230
1.0
 70
     8
 71
     3
 72
     9
 73
     5
 74
     0
 42
0.00000001
 43
0.00000001
 12
1.0
 22
0.0
 32
0.0
 13
1.0
 23
0.0
 33
0.0
 40
0.0
 40
0.0
 40
0.0
 40
0.0
 40
0.531558942674784
 40
1.0
 40
1.0
 40
1.0
 40
1.0
 10
926.6961816353584
 20
769.0234492898087
 30
0.0
 10
926.798779253839
 20
768.8523583631315
 30
0.0
 10
926.9917919383108
 20
768.5304920319658
 30
0.0
 10
927.3172026719318
 20
768.4725682896167
 30
0.0
 10
927.4696384200543
 20
768.4454344305062
 30
0.0
  0
SPLINE
  5
1CB
330
1F
100
AcDbEntity
  8
0
  6
Continuous
 62
     7
370
    15
100
AcDbSpline
210
0.0
220
0.0
230
1.0
 70
     8
 71
     3
 72
    12
 73
     8
 74
     0
 42
0.00000001
 43
0.00000001
 12
1.0
 22
0.0
 32
0.0
 13
1.0
 23
0.0
 33
0.0
 40
0.0
 40
0.0
 40
0.0
 40
0.0
 40
0.0304717459459235
 40
0.0888135668586097
 40
0.3925556175487425
 40
0.6962774394173789
 40
1.0
 40
1.0
 40
1.0
 40
1.0
 10
927.4696384200543
 20
768.4454344305062
 30
0.0
 10
927.4743410702675
 20
768.4359284194926
 30
0.0
 10
927.4880475096645
 20
768.4082220075851
 30
0.0
 10
927.5428768110792
 20
768.2814772299628
 30
0.0
 10
927.5999676885816
 20
768.0433306149405
 30
0.0
 10
927.5914082963179
 20
767.6981476357527
 30
0.0
 10
927.5114878859854
 20
767.4937911220447
 30
0.0
 10
927.4715276322236
 20
767.3916127409317
 30
0.0
  0
SPLINE
  5
1CC
330
1F
100
AcDbEntity
  8
0
  6
Continuous
 62
     7
370
    15
100
AcDbSpline
210
0.0
220
0.0
230
1.0
 70
     8
 71
     3
 72
    10
 73
     6
 74
     0
 42
0.00000001
 43
0.00000001
 12
1.0
 22
0.0
 32
0.0
 13
1.0
 23
0.0
 33
0.0
 40
0.0
 40
0.0
 40
0.0
 40
0.0
 40
0.2117958997116486
 40
0.4880069094707133
 40
1.0
 40
1.0
 40
1.0
 40
1.0
 10
927.4715276322236
 20
767.3916127409317
 30
0.0
 10
927.4704126283508
 20
767.3888725221858
 30
0.0
 10
927.4678435059329
 20
767.3825586809675
 30
0.0
 10
927.4674395265782
 20
767.3713921228082
 30
0.0
 10
927.4698548236508
 20
767.3650541880392
 30
0.0
 10
927.471423726188
 20
767.3609372609529
 30
0.0
  0
SPLINE
  5
1CD
330
1F
100
AcDbEntity
  8
0
  6
Continuous
 62
     7
370
    15
100
AcDbSpline
210
0.0
220
0.0
230
1.0
 70
     8
 71
     3
 72
    12
 73
     8
 74
     0
 42
0.00000001
 43
0.00000001
 12
1.0
 22
0.0
 32
0.0
 13
1.0
 23
0.0
 33
0.0
 40
0.0
 40
0.0
 40
0.0
 40
0.0
 40
0.0304717459516272
 40
0.0888135668586642
 40
0.3925556175487613
 40
0.6962774394174077
 40
1.0
 40
1.0
 40
1.0
 40
1.0
 10
908.2691309539299
 20
809.6210555689062
 30
0.0
 10
908.264871732305
 20
809.6307683540682
 30
0.0
 10
908.25245771884
 20
809.6590774340841
 30
0.0
 10
908.1906091818522
 20
809.7825490884104
 30
0.0
 10
908.0448755994453
 20
809.9793609312879
 30
0.0
 10
907.7749482250886
 20
810.1946833985081
 30
0.0
 10
907.5670302038243
 20
810.2648186472508
 30
0.0
 10
907.4630710667675
 20
810.2998863142678
 30
0.0
  0
SPLINE
  5
1CE
330
1F
100
AcDbEntity
  8
0
  6
Continuous
 62
     7
370
    15
100
AcDbSpline
210
0.0
220
0.0
230
1.0
 70
     8
 71
     3
 72
     9
 73
     5
 74
     0
 42
0.00000001
 43
0.00000001
 12
1.0
 22
0.0
 32
0.0
 13
1.0
 23
0.0
 33
0.0
 40
0.0
 40
0.0
 40
0.0
 40
0.0
 40
0.4684410573252
 40
1.0
 40
1.0
 40
1.0
 40
1.0
 10
908.2691309539298
 20
809.6210555689062
 30
0.0
 10
908.1919328857553
 20
809.4868417026853
 30
0.0
 10
908.0271350590758
 20
809.200329954575
 30
0.0
 10
908.1496328114017
 20
808.8455819705351
 30
0.0
 10
908.214747587108
 20
808.657012507223
 30
0.0
  0
SPLINE
  5
1CF
330
1F
100
AcDbEntity
  8
0
  6
Continuous
 62
     7
370
    15
100
AcDbSpline
210
0.0
220
0.0
230
1.0
 70
     8
 71
     3
 72
    11
 73
     7
 74
     0
 42
0.00000001
 43
0.00000001
 12
1.0
 22
0.0
 32
0.0
 13
1.0
 23
0.0
 33
0.0
 40
0.0
 40
0.0
 40
0.0
 40
0.0
 40
0.3704320937875284
 40
0.744249846928775
 40
0.9442480537678059
 40
0.9999999999999999
 40
0.9999999999999999
 40
0.9999999999999999
 40
0.9999999999999999
 10
907.4395054962779
 20
810.3195245360785
 30
0.0
 10
907.4409950624378
 20
810.3167374725213
 30
0.0
 10
907.4439878090301
 20
810.3111378723228
 30
0.0
 10
907.4512549893515
 20
810.3044359807772
 30
0.0
 10
907.4587780642175
 20
810.301021085822
 30
0.0
 10
907.4623027148115
 20
810.3000894131325
 30
0.0
 10
907.4630710667675
 20
810.2998863142678
 30
0.0
  0
SPLINE
  5
1D0
330
1F
100
AcDbEntity
  8
0
  6
Continuous
 62
     7
370
    15
100
AcDbSpline
210
0.0
220
0.0
230
1.0
 70
     8
 71
     3
 72
    11
 73
     7
 74
     0
 42
0.00000001
 43
0.00000001
 12
1.0
 22
0.0
 32
0.0
 13
1.0
 23
0.0
 33
0.0
 40
0.0
 40
0.0
 40
0.0
 40
0.0
 40
0.3658281109894665
 40
0.7252591430831348
 40
0.9820690181776589
 40
1.0
 40
1.0
 40
1.0
 40
1.0
 10
910.7623449335855
 20
810.1683893812625
 30
0.0
 10
910.3820734662396
 20
810.1768486835612
 30
0.0
 10
909.6281801752064
 20
810.1936193639764
 30
0.0
 10
908.7716355337947
 20
809.9954720710834
 30
0.0
 10
908.3904143445803
 20
809.7564904790936
 30
0.0
 10
908.2765615638664
 20
809.6293531930409
 30
0.0
 10
908.2691309539298
 20
809.6210555689062
 30
0.0
  0
LINE
  5
1D1
330
1F
100
AcDbEntity
  8
0
  6
Continuous
 62
     7
370
    15
100
AcDbLine
 10
910.7623449336
 20
810.1683893813
 30
0.0
 11
929.4915275
 21
770.0035277522
 31
0.0
  0
SPLINE
  5
1D2
330
1F
100
AcDbEntity
  8
0
  6
Continuous
 62
     7
370
    15
100
AcDbSpline
210
0.0
220
0.0
230
1.0
 70
     8
 71
     3
 72
    11
 73
     7
 74
     0
 42
0.00000001
 43
0.00000001
 12
1.0
 22
0.0
 32
0.0
 13
1.0
 23
0.0
 33
0.0
 40
0.0
 40
0.0
 40
0.0
 40
0.0
 40
0.235794853775869
 40
0.2749019968044887
 40
0.634253169613846
 40
1.0
 40
1.0
 40
1.0
 40
1.0
 10
927.4696384200543
 20
768.4454344305062
 30
0.0
 10
927.6219169131126
 20
768.468617041899
 30
0.0
 10
927.7994511601148
 20
768.4956445450907
 30
0.0
 10
928.2335099381711
 20
768.7080394317272
 30
0.0
 10
928.7824945769934
 20
769.1180356978562
 30
0.0
 10
929.253797498194
 20
769.7066331781501
 30
0.0
 10
929.491527499961
 20
770.003527752183
 30
0.0
  0
LINE
  5
1D3
330
1F
100
AcDbEntity
  8
0
  6
Continuous
 62
     7
370
    15
100
AcDbLine
 10
941.9446373725
 20
782.2518660635
 30
0.0
 11
930.3332200802
 21
769.1282218263
 31
0.0
  0
SPLINE
  5
1D4
330
1F
100
AcDbEntity
  8
0
  6
Continuous
 62
     7
370
    15
100
AcDbSpline
210
0.0
220
0.0
230
1.0
 70
     8
 71
     3
 72
    10
 73
     6
 74
     0
 42
0.00000001
 43
0.00000001
 12
1.0
 22
0.0
 32
0.0
 13
1.0
 23
0.0
 33
0.0
 40
0.0
 40
0.0
 40
0.0
 40
0.0
 40
0.3554439450436968
 40
0.7142330220663096
 40
1.0
 40
1.0
 40
1.0
 40
1.0
 10
930.3332200802404
 20
769.1282218262554
 30
0.0
 10
929.9902412489797
 20
768.7859807156063
 30
0.0
 10
929.3010557653841
 20
768.0982776160243
 30
0.0
 10
928.2761738591915
 20
767.4792780305544
 30
0.0
 10
927.7186905127039
 20
767.4185408551452
 30
0.0
 10
927.4715276322236
 20
767.3916127409317
 30
0.0
  0
ARC
  5
1D5
330
1F
100
AcDbEntity
  8
0
  6
Continuous
 62
     7
370
    15
100
AcDbCircle
 10
926.9223815629
 20
766.6907037226
 30
0.0
 40
4.19229220079496
100
AcDbArc
 50
35.5510775205
 51
52.205872348
  0
SPLINE
  5
1D6
330
1F
100
AcDbEntity
  8
0
  6
Continuous
 62
     7
370
    15
100
AcDbSpline
210
0.0
220
0.0
230
1.0
 70
     8
 71
     3
 72
    12
 73
     8
 74
     0
 42
0.00000001
 43
0.00000001
 12
1.0
 22
0.0
 32
0.0
 13
1.0
 23
0.0
 33
0.0
 40
0.0
 40
0.0
 40
0.0
 40
0.0
 40
0.2238925571849833
 40
0.4477848984199476
 40
0.6716824862031477
 40
0.8955821585469376
 40
1.0
 40
1.0
 40
1.0
 40
1.0
 10
906.1446597346625
 20
814.6787573979832
 30
0.0
 10
906.1167919735316
 20
814.6784219042302
 30
0.0
 10
906.0610564781489
 20
814.6777509170475
 30
0.0
 10
905.9890950121219
 20
814.6771475046579
 30
0.0
 10
905.9367025444918
 20
814.6768188138535
 30
0.0
 10
905.9133672002483
 20
814.6767246253719
 30
0.0
 10
905.9114185393169
 20
814.6767346776702
 30
0.0
 10
905.9107987887413
 20
814.6767378746953
 30
0.0
  0
LINE
  5
1D7
330
1F
100
AcDbEntity
  8
0
  6
Continuous
 62
     7
370
    15
100
AcDbLine
 10
906.1446597347
 20
814.678757398
 30
0.0
 11
925.2394902605
 21
814.8868449397
 31
0.0
  0
LINE
  5
1D8
330
1F
100
AcDbEntity
  8
0
  6
Continuous
 62
     7
370
    15
100
AcDbLine
 10
925.2394902605
 20
814.8868449397
 30
0.0
 11
926.7181266173
 21
814.9052237533
 31
0.0
  0
LINE
  5
1D9
330
1F
100
AcDbEntity
  8
0
  6
Continuous
 62
     7
370
    15
100
AcDbLine
 10
928.1498211626
 20
811.8349448929
 30
0.0
 11
926.7181266173
 21
814.9052237533
 31
0.0
  0
LINE
  5
1DA
330
1F
100
AcDbEntity
  8
0
  6
Continuous
 62
     7
370
    15
100
AcDbLine
 10
910.6328512548
 20
811.3757991091
 30
0.0
 11
928.1498211626
 21
811.8349448929
 31
0.0
  0
SPLINE
  5
1DB
330
1F
100
AcDbEntity
  8
0
  6
Continuous
 62
     7
370
    15
100
AcDbSpline
210
0.0
220
0.0
230
1.0
 70
     8
 71
     3
 72
    10
 73
     6
 74
     0
 42
0.00000001
 43
0.00000001
 12
1.0
 22
0.0
 32
0.0
 13
1.0
 23
0.0
 33
0.0
 40
0.0
 40
0.0
 40
0.0
 40
0.0
 40
0.2857669779336526
 40
0.6445560549562829
 40
1.0
 40
1.0
 40
1.0
 40
1.0
 10
907.4630710667675
 20
810.2998863142678
 30
0.0
 10
907.6425724361717
 20
810.4719150072365
 30
0.0
 10
908.0474431996133
 20
810.8599309231442
 30
0.0
 10
909.1804057830482
 20
811.2471507482951
 30
0.0
 10
910.1502168106297
 20
811.3330504267276
 30
0.0
 10
910.6328512547684
 20
811.3757991090715
 30
0.0
  0
ARC
  5
1DC
330
1F
100
AcDbEntity
  8
0
  6
Continuous
 62
     7
370
    15
100
AcDbCircle
 10
906.5731593189
 20
810.329751652
 30
0.0
 40
4.192292200788358
100
AcDbArc
 50
357.794127652
 51
14.4489224795
  0
LINE
  5
1DD
330
1F
100
AcDbEntity
  8
0
  6
Continuous
 62
     7
370
    15
100
AcDbLine
 10
929.4915275
 20
770.0035277522
 30
0.0
 11
941.1651120237
 21
782.9938539313
 31
0.0
  0
ARC
  5
1DE
330
1F
100
AcDbEntity
  8
0
  6
Continuous
 62
     7
370
    15
100
AcDbCircle
 10
937.6761531321
 20
778.5479122618
 30
0.0
 40
5.651480467563552
100
AcDbArc
 50
40.9496313682
 51
51.8769008127
  0
LINE
  5
1DF
330
1F
100
AcDbEntity
  8
0
  6
Continuous
 62
     7
370
    15
100
AcDbLine
 10
928.2171476099
 20
810.7608532232
 30
0.0
 11
910.7623449336
 21
810.1683893813
 31
0.0
  0
ARC
  5
1E0
330
1F
100
AcDbEntity
  8
0
  6
Continuous
 62
     7
370
    15
100
AcDbCircle
 10
922.5686991534
 20
810.9459518706
 30
0.0
 40
5.651480467550843
100
AcDbArc
 50
358.1230991873
 51
9.0503686318
  0
LINE
  5
1E1
330
1F
100
AcDbEntity
  8
0
  6
Continuous
 62
     7
370
    15
100
AcDbLine
 10
941.1651120237
 20
782.9938539313
 30
0.0
 11
928.2171476099
 21
810.7608532232
 31
0.0
  0
ARC
  5
1E2
330
1F
100
AcDbEntity
  8
0
  6
Continuous
 62
     7
370
    15
100
AcDbCircle
 10
941.8645345936
 20
782.0303408789
 30
0.0
 40
1.190608807907539
100
AcDbArc
 50
75.5914088265
 51
125.9762263586
  0
ARC
  5
1E3
330
1F
100
AcDbEntity
  8
0
  6
Continuous
 62
     7
370
    15
100
AcDbCircle
 10
941.3850236575
 20
782.8726050941
 30
0.0
 40
0.8357538238399842
100
AcDbArc
 50
312.0355498024
 51
21.8386162464
  0
ARC
  5
1E4
330
1F
100
AcDbEntity
  8
0
  6
Continuous
 62
     7
370
    15
100
AcDbCircle
 10
927.9286339521
 20
811.9159762482
 30
0.0
 40
1.190608807907049
100
AcDbArc
 50
284.0237736414
 51
334.4085911735
  0
ARC
  5
1E5
330
1F
100
AcDbEntity
  8
0
  6
Continuous
 62
     7
370
    15
100
AcDbCircle
 10
928.2656220853
 20
811.0072525585
 30
0.0
 40
0.8357538238402955
100
AcDbArc
 50
28.1613837536
 51
97.9644501975
  0
LINE
  5
1E6
330
1F
100
AcDbEntity
  8
0
  6
Continuous
 62
     7
370
    15
100
AcDbLine
 10
929.0024408273
 20
811.4016921553
 30
0.0
 11
942.1607998766
 21
783.1835001114
 31
0.0
  0
LINE
  5
1E7
330
1F
100
AcDbEntity
  8
0
  6
Continuous
 62
     7
370
    15
100
AcDbLine
 10
942.1607998766
 20
783.1835001114
 30
0.0
 11
943.5494175694
 21
780.2055998594
 31
0.0
  0
LINE
  5
1E8
330
1F
100
AcDbEntity
  8
0
  6
Continuous
 62
     7
370
    15
100
AcDbLine
 10
927.6390811762
 20
814.3254263621
 30
0.0
 11
929.0024408273
 21
811.4016921553
 31
0.0
  0
SPLINE
  5
1E9
330
1F
100
AcDbEntity
  8
0
  6
Continuous
 62
     7
370
    15
100
AcDbSpline
210
0.0
220
0.0
230
1.0
 70
     8
 71
     3
 72
    11
 73
     7
 74
     0
 42
0.00000001
 43
0.00000001
 12
1.0
 22
0.0
 32
0.0
 13
1.0
 23
0.0
 33
0.0
 40
0.0
 40
0.0
 40
0.0
 40
0.0
 40
0.2933118760927512
 40
0.5865991201419234
 40
0.8805021461502722
 40
1.0
 40
1.0
 40
1.0
 40
1.0
 10
926.718126617276
 20
814.9052237532792
 30
0.0
 10
926.8308274859611
 20
814.8955533289171
 30
0.0
 10
927.0562197588232
 20
814.8762132923057
 30
0.0
 10
927.3569762385295
 20
814.7070089194839
 30
0.0
 10
927.5454242981258
 20
814.5064084423885
 30
0.0
 10
927.6180794450752
 20
814.3660100017887
 30
0.0
 10
927.6390811762146
 20
814.3254263621474
 30
0.0
  0
LINE
  5
1EA
330
1F
100
AcDbEntity
  8
0
  6
Continuous
 62
     7
370
    15
100
AcDbLine
 10
91.090044762
 20
926.7529312626
 30
0.0
 11
91.090044762
 21
926.652931263
 31
0.0
  0
LWPOLYLINE
  5
1EB
330
1F
100
AcDbEntity
  8
0
  6
Continuous
 62
     7
370
    15
100
AcDbPolyline
 90
        3
 70
   128
 43
0.0
 10
103.090044762
 20
922.5029312626
 10
103.0083822038
 20
923.3320651311
 10
102.990044762
 20
923.4194464015
  0
LWPOLYLINE
  5
1EC
330
1F
100
AcDbEntity
  8
0
  6
Continuous
 62
     7
370
    15
100
AcDbPolyline
 90
        3
 70
   128
 43
0.0
 10
99.756559899
 20
926.652931263
 10
99.6691786306
 20
926.6712687043
 10
98.840044762
 20
926.7529312626
  0
LINE
  5
1ED
330
1F
100
AcDbEntity
  8
0
  6
Continuous
 62
     7
370
    15
100
AcDbLine
 10
101.090044762
 20
908.7529312625
 30
0.0
 11
101.090044762
 21
908.8529312625
 31
0.0
  0
LWPOLYLINE
  5
1EE
330
1F
100
AcDbEntity
  8
0
  6
Continuous
 62
     7
370
    15
100
AcDbPolyline
 90
        3
 70
   128
 43
0.0
 10
494.9956483759
 20
888.7529312626
 10
495.181349745
 20
887.7595166805
 10
495.2674726229
 20
887.5608134256
  0
LWPOLYLINE
  5
1EF
330
1F
100
AcDbEntity
  8
0
  6
Continuous
 62
     7
370
    15
100
AcDbPolyline
 90
        3
 70
   128
 43
0.0
 10
495.2674727773
 20
889.9450494205
 10
495.181349745
 20
889.7463458446
 10
494.9956483759
 20
888.7529312626
  0
CIRCLE
  5
1F0
330
1F
100
AcDbEntity
  8
0
  6
Continuous
 62
     7
370
    15
100
AcDbCircle
 10
497.7456483759
 20
888.7529312626
 30
0.0
 40
2.100000000000023
  0
LWPOLYLINE
  5
1F1
330
1F
100
AcDbEntity
  8
0
  6
Continuous
 62
     7
370
    15
100
AcDbPolyline
 90
        3
 70
   128
 43
0.0
 10
104.9956483759
 20
888.7529312626
 10
105.181349745
 20
887.7595166805
 10
105.2668179563
 20
887.5621753048
  0
LWPOLYLINE
  5
1F2
330
1F
100
AcDbEntity
  8
0
  6
Continuous
 62
     7
370
    15
100
AcDbPolyline
 90
        3
 70
   128
 43
0.0
 10
105.2668021866
 20
889.9436543915
 10
105.181349745
 20
889.7463458446
 10
104.9956483759
 20
888.7529312626
  0
CIRCLE
  5
1F3
330
1F
100
AcDbEntity
  8
0
  6
Continuous
 62
     7
370
    15
100
AcDbCircle
 10
107.7456483759
 20
888.7529312626
 30
0.0
 40
2.09999999999998
  0
LINE
  5
1F4
330
1F
100
AcDbEntity
  8
0
  6
Continuous
 62
     7
370
    15
100
AcDbLine
 10
907.8626828279
 20
858.6941270755
 30
0.0
 11
908.7079193514
 21
856.8815115015
 31
0.0
  0
LINE
  5
1F5
330
1F
100
AcDbEntity
  8
0
  6
Continuous
 62
     7
370
    15
100
AcDbLine
 10
908.7079193514
 20
856.8815115015
 30
0.0
 11
891.1255482829
 21
848.6827172237
 31
0.0
  0
LINE
  5
1F6
330
1F
100
AcDbEntity
  8
0
  6
Continuous
 62
     7
370
    15
100
AcDbLine
 10
890.2803117594
 20
850.4953327978
 30
0.0
 11
891.1255482829
 21
848.6827172237
 31
0.0
  0
LINE
  5
1F7
330
1F
100
AcDbEntity
  8
0
  6
Continuous
 62
     7
370
    15
100
AcDbLine
 10
907.8626828279
 20
858.6941270755
 30
0.0
 11
890.2803117594
 21
850.4953327978
 31
0.0
  0
LINE
  5
1F8
330
1F
100
AcDbEntity
  8
0
  6
Continuous
 62
     7
370
    15
100
AcDbLine
 10
891.1255482829
 20
848.6827172237
 30
0.0
 11
889.3129327088
 21
847.8374807002
 31
0.0
  0
LINE
  5
1F9
330
1F
100
AcDbEntity
  8
0
  6
Continuous
 62
     7
370
    15
100
AcDbLine
 10
889.3129327088
 20
847.8374807002
 30
0.0
 11
888.4676961853
 21
849.6500962743
 31
0.0
  0
LINE
  5
1FA
330
1F
100
AcDbEntity
  8
0
  6
Continuous
 62
     7
370
    15
100
AcDbLine
 10
888.4676961853
 20
849.6500962743
 30
0.0
 11
890.2803117594
 21
850.4953327978
 31
0.0
  0
LINE
  5
1FB
330
1F
100
AcDbEntity
  8
0
  6
Continuous
 62
     7
370
    15
100
AcDbLine
 10
928.9657382065
 20
893.6815121217
 30
0.0
 11
914.5121936549
 21
862.685785805
 31
0.0
  0
LINE
  5
1FC
330
1F
100
AcDbEntity
  8
0
  6
Continuous
 62
     7
370
    15
100
AcDbLine
 10
912.6995780809
 20
863.5310223285
 30
0.0
 11
914.5121936549
 21
862.685785805
 31
0.0
  0
LINE
  5
1FD
330
1F
100
AcDbEntity
  8
0
  6
Continuous
 62
     7
370
    15
100
AcDbLine
 10
927.1531226324
 20
894.5267486452
 30
0.0
 11
928.9657382065
 21
893.6815121217
 31
0.0
  0
LINE
  5
1FE
330
1F
100
AcDbEntity
  8
0
  6
Continuous
 62
     7
370
    15
100
AcDbLine
 10
927.1531226324
 20
894.5267486452
 30
0.0
 11
912.6995780809
 21
863.5310223285
 31
0.0
  0
ARC
  5
1FF
330
1F
100
AcDbEntity
  8
0
  6
Continuous
 62
     7
370
    15
100
AcDbCircle
 10
903.6365002105
 20
867.7572049459
 30
0.0
 40
12.00000000000011
100
AcDbArc
 50
295.0
 51
335.0
  0
ARC
  5
200
330
1F
100
AcDbEntity
  8
0
  6
Continuous
 62
     7
370
    15
100
AcDbCircle
 10
903.6365002105
 20
867.7572049459
 30
0.0
 40
10.00000000000014
100
AcDbArc
 50
295.0
 51
335.0
  0
LINE
  5
201
330
1F
100
AcDbEntity
  8
0
  6
Continuous
 62
     7
370
    15
100
AcDbLine
 10
918.090044762
 20
908.7529312626
 30
0.0
 11
918.090044762
 21
910.7529312626
 31
0.0
  0
ARC
  5
202
330
1F
100
AcDbEntity
  8
0
  6
Continuous
 62
     7
370
    15
100
AcDbCircle
 10
918.090044762
 20
898.7529312626
 30
0.0
 40
10.0
100
AcDbArc
 50
335.0
 51
90.0
  0
ARC
  5
203
330
1F
100
AcDbEntity
  8
0
  6
Continuous
 62
     7
370
    15
100
AcDbCircle
 10
918.090044762
 20
898.7529312626
 30
0.0
 40
12.0
100
AcDbArc
 50
335.0
 51
90.0
  0
LINE
  5
204
330
1F
100
AcDbEntity
  8
0
  6
Continuous
 62
     7
370
    15
100
AcDbLine
 10
859.090044762
 20
908.7529312626
 30
0.0
 11
859.090044762
 21
910.7529312626
 31
0.0
  0
LINE
  5
205
330
1F
100
AcDbEntity
  8
0
  6
Continuous
 62
     7
370
    15
100
AcDbLine
 10
859.090044762
 20
910.7529312626
 30
0.0
 11
918.090044762
 21
910.7529312626
 31
0.0
  0
LINE
  5
206
330
1F
100
AcDbEntity
  8
0
  6
Continuous
 62
     7
370
    15
100
AcDbLine
 10
859.090044762
 20
908.7529312626
 30
0.0
 11
918.090044762
 21
908.7529312626
 31
0.0
  0
LINE
  5
207
330
1F
100
AcDbEntity
  8
0
  6
Continuous
 62
     7
370
    15
100
AcDbLine
 10
105.090044762
 20
908.7529312626
 30
0.0
 11
105.090044762
 21
910.7529312626
 31
0.0
  0
LINE
  5
208
330
1F
100
AcDbEntity
  8
0
  6
Continuous
 62
     7
370
    15
100
AcDbLine
 10
105.090044762
 20
910.7529312626
 30
0.0
 11
859.090044762
 21
910.7529312626
 31
0.0
  0
LINE
  5
209
330
1F
100
AcDbEntity
  8
0
  6
Continuous
 62
     7
370
    15
100
AcDbLine
 10
105.090044762
 20
908.7529312626
 30
0.0
 11
859.090044762
 21
908.7529312626
 31
0.0
  0
LINE
  5
20A
330
1F
100
AcDbEntity
  8
0
  6
Continuous
 62
     7
370
    15
100
AcDbLine
 10
109.7852561813
 20
888.2529312626
 30
0.0
 11
105.7060405705
 21
888.2529312626
 31
0.0
  0
LINE
  5
20B
330
1F
100
AcDbEntity
  8
0
  6
Continuous
 62
     7
370
    15
100
AcDbLine
 10
495.7060405705
 20
888.2529312626
 30
0.0
 11
499.7852561813
 21
888.2529312626
 31
0.0
  0
ARC
  5
20C
330
1F
100
AcDbEntity
  8
0
  6
Continuous
 62
     7
370
    15
100
AcDbCircle
 10
100.840044762
 20
924.5029312626
 30
0.0
 40
4.249999999999972
100
AcDbArc
 50
0.0
 51
90.0
  0
LINE
  5
20D
330
1F
100
AcDbEntity
  8
0
  6
Continuous
 62
     7
370
    15
100
AcDbLine
 10
103.090044762
 20
924.5029312626
 30
0.0
 11
105.090044762
 21
924.5029312626
 31
0.0
  0
ARC
  5
20E
330
1F
100
AcDbEntity
  8
0
  6
Continuous
 62
     7
370
    15
100
AcDbCircle
 10
100.840044762
 20
924.5029312626
 30
0.0
 40
2.249999999999972
100
AcDbArc
 50
0.0
 51
90.0
  0
LINE
  5
20F
330
1F
100
AcDbEntity
  8
0
  6
Continuous
 62
     7
370
    15
100
AcDbLine
 10
100.840044762
 20
926.7529312626
 30
0.0
 11
100.840044762
 21
928.7529312626
 31
0.0
  0
LINE
  5
210
330
1F
100
AcDbEntity
  8
0
  6
Continuous
 62
     7
370
    15
100
AcDbLine
 10
45.090044762
 20
908.7529312626
 30
0.0
 11
34.340044762
 21
908.7529312626
 31
0.0
  0
LINE
  5
211
330
1F
100
AcDbEntity
  8
0
  6
Continuous
 62
     7
370
    15
100
AcDbLine
 10
34.340044762
 20
910.7529312626
 30
0.0
 11
34.340044762
 21
908.7529312626
 31
0.0
  0
LINE
  5
212
330
1F
100
AcDbEntity
  8
0
  6
Continuous
 62
     7
370
    15
100
AcDbLine
 10
45.090044762
 20
910.7529312626
 30
0.0
 11
34.340044762
 21
910.7529312626
 31
0.0
  0
LINE
  5
213
330
1F
100
AcDbEntity
  8
0
  6
Continuous
 62
     7
370
    15
100
AcDbLine
 10
45.090044762
 20
910.7529312626
 30
0.0
 11
45.090044762
 21
908.7529312626
 31
0.0
  0
LINE
  5
214
330
1F
100
AcDbEntity
  8
0
  6
Continuous
 62
     7
370
    15
100
AcDbLine
 10
34.340044762
 20
928.7529312626
 30
0.0
 11
100.840044762
 21
928.7529312626
 31
0.0
  0
LINE
  5
215
330
1F
100
AcDbEntity
  8
0
  6
Continuous
 62
     7
370
    15
100
AcDbLine
 10
34.340044762
 20
926.7529312626
 30
0.0
 11
100.840044762
 21
926.7529312626
 31
0.0
  0
LINE
  5
216
330
1F
100
AcDbEntity
  8
0
  6
Continuous
 62
     7
370
    15
100
AcDbLine
 10
34.340044762
 20
926.7529312626
 30
0.0
 11
34.340044762
 21
928.7529312626
 31
0.0
  0
LINE
  5
217
330
1F
100
AcDbEntity
  8
0
  6
Continuous
 62
     7
370
    15
100
AcDbLine
 10
103.090044762
 20
912.7529312626
 30
0.0
 11
105.090044762
 21
912.7529312626
 31
0.0
  0
LINE
  5
218
330
1F
100
AcDbEntity
  8
0
  6
Continuous
 62
     7
370
    15
100
AcDbLine
 10
105.090044762
 20
924.5029312626
 30
0.0
 11
105.090044762
 21
912.7529312626
 31
0.0
  0
LINE
  5
219
330
1F
100
AcDbEntity
  8
0
  6
Continuous
 62
     7
370
    15
100
AcDbLine
 10
103.090044762
 20
924.5029312626
 30
0.0
 11
103.090044762
 21
912.7529312626
 31
0.0
  0
LINE
  5
21A
330
1F
100
AcDbEntity
  8
0
  6
Continuous
 62
     7
370
    15
100
AcDbLine
 10
32.090044762
 20
913.0029312626
 30
0.0
 11
30.090044762
 21
913.0029312626
 31
0.0
  0
ARC
  5
21B
330
1F
100
AcDbEntity
  8
0
  6
Continuous
 62
     7
370
    15
100
AcDbCircle
 10
34.340044762
 20
913.0029312626
 30
0.0
 40
2.25
100
AcDbArc
 50
180.0
 51
270.0
  0
ARC
  5
21C
330
1F
100
AcDbEntity
  8
0
  6
Continuous
 62
     7
370
    15
100
AcDbCircle
 10
34.340044762
 20
913.0029312626
 30
0.0
 40
4.25
100
AcDbArc
 50
180.0
 51
270.0
  0
ARC
  5
21D
330
1F
100
AcDbEntity
  8
0
  6
Continuous
 62
     7
370
    15
100
AcDbCircle
 10
34.340044762
 20
924.5029312626
 30
0.0
 40
4.25
100
AcDbArc
 50
90.0
 51
180.0
  0
LINE
  5
21E
330
1F
100
AcDbEntity
  8
0
  6
Continuous
 62
     7
370
    15
100
AcDbLine
 10
32.090044762
 20
924.5029312626
 30
0.0
 11
30.090044762
 21
924.5029312626
 31
0.0
  0
ARC
  5
21F
330
1F
100
AcDbEntity
  8
0
  6
Continuous
 62
     7
370
    15
100
AcDbCircle
 10
34.340044762
 20
924.5029312626
 30
0.0
 40
2.25
100
AcDbArc
 50
90.0
 51
180.0
  0
LINE
  5
220
330
1F
100
AcDbEntity
  8
0
  6
Continuous
 62
     7
370
    15
100
AcDbLine
 10
30.090044762
 20
913.0029312626
 30
0.0
 11
30.090044762
 21
924.5029312626
 31
0.0
  0
LINE
  5
221
330
1F
100
AcDbEntity
  8
0
  6
Continuous
 62
     7
370
    15
100
AcDbLine
 10
32.090044762
 20
913.0029312626
 30
0.0
 11
32.090044762
 21
924.5029312626
 31
0.0
  0
LINE
  5
222
330
1F
100
AcDbEntity
  8
0
  6
Continuous
 62
     7
370
    15
100
AcDbLine
 10
105.090044762
 20
910.7529312626
 30
0.0
 11
103.6171426682
 21
910.7529312626
 31
0.0
  0
LINE
  5
223
330
1F
100
AcDbEntity
  8
0
  6
Continuous
 62
     7
370
    15
100
AcDbLine
 10
105.090044762
 20
912.7529312626
 30
0.0
 11
105.090044762
 21
910.7529312626
 31
0.0
  0
LINE
  5
224
330
1F
100
AcDbEntity
  8
0
  6
Continuous
 62
     7
370
    15
100
AcDbLine
 10
103.090044762
 20
912.075569413
 30
0.0
 11
103.090044762
 21
912.7529312626
 31
0.0
  0
LINE
  5
225
330
1F
100
AcDbEntity
  8
0
  6
Continuous
 62
     7
370
    15
100
AcDbLine
 10
103.090044762
 20
908.7529312625
 30
0.0
 11
103.090044762
 21
908.8529312625
 31
0.0
  0
LINE
  5
226
330
1F
100
AcDbEntity
  8
0
  6
Continuous
 62
     7
370
    15
100
AcDbLine
 10
906.8906608259
 20
860.7786349857
 30
0.0
 11
907.8626828279
 21
858.6941270755
 31
0.0
  0
LINE
  5
227
330
1F
100
AcDbEntity
  8
0
  6
Continuous
 62
     7
370
    15
100
AcDbLine
 10
888.4676961853
 20
849.6500962743
 30
0.0
 11
872.4693968563
 21
842.1899667797
 31
0.0
  0
LINE
  5
228
330
1F
100
AcDbEntity
  8
0
  6
Continuous
 62
     7
370
    15
100
AcDbLine
 10
868.5518745464
 20
842.9009653392
 30
0.0
 11
906.8906608259
 21
860.7786349857
 31
0.0
  0
SPLINE
  5
229
330
1F
100
AcDbEntity
  8
0
  6
Continuous
 62
     7
370
    15
100
AcDbSpline
210
0.0
220
0.0
230
1.0
 70
     8
 71
     3
 72
    11
 73
     7
 74
     0
 42
0.00000001
 43
0.00000001
 12
1.0
 22
0.0
 32
0.0
 13
1.0
 23
0.0
 33
0.0
 40
0.0
 40
0.0
 40
0.0
 40
0.0
 40
0.2889759275645127
 40
0.5779517763250721
 40
0.8674414070450548
 40
1.0
 40
1.0
 40
1.0
 40
1.0
 10
872.4693968563068
 20
842.1899667796969
 30
0.0
 10
872.1658689467513
 20
842.0996913953816
 30
0.0
 10
871.5588132104127
 20
841.9191406513692
 30
0.0
 10
870.4102952329811
 20
842.1585270160402
 30
0.0
 10
869.3757374352808
 20
842.5503072948635
 30
0.0
 10
868.7487890127887
 20
842.8171532843138
 30
0.0
 10
868.551874546434
 20
842.9009653392236
 30
0.0
  0
SPLINE
  5
22A
330
1F
100
AcDbEntity
  8
0
  6
Continuous
 62
     7
370
    15
100
AcDbSpline
210
0.0
220
0.0
230
1.0
 70
     8
 71
     3
 72
    11
 73
     7
 74
     0
 42
0.00000001
 43
0.00000001
 12
1.0
 22
0.0
 32
0.0
 13
1.0
 23
0.0
 33
0.0
 40
0.0
 40
0.0
 40
0.0
 40
0.0
 40
0.2888077077194141
 40
0.57761533621972
 40
0.8669345414323495
 40
0.9999999999999999
 40
0.9999999999999999
 40
0.9999999999999999
 40
0.9999999999999999
 10
868.5518745464343
 20
842.9009653392238
 30
0.0
 10
868.9995725712121
 20
842.7647565843675
 30
0.0
 10
869.8949684979654
 20
842.4923391120166
 30
0.0
 10
871.0421300870261
 20
841.9923297849022
 30
0.0
 10
871.7170176357575
 20
841.4560790544734
 30
0.0
 10
871.9383717202072
 20
841.0570309184211
 30
0.0
 10
872.0081057453243
 20
840.931317255574
 30
0.0
  0
LINE
  5
22B
330
1F
100
AcDbEntity
  8
0
  6
Continuous
 62
     7
370
    15
100
AcDbLine
 10
872.0081057453
 20
840.9313172556
 30
0.0
 11
872.502174824
 21
839.8717826972
 31
0.0
  0
LINE
  5
22C
330
1F
100
AcDbEntity
  8
0
  6
Continuous
 62
     7
370
    15
100
AcDbLine
 10
928.4090444501
 20
719.97911388
 30
0.0
 11
926.3245365399
 21
719.007091878
 31
0.0
  0
LINE
  5
22D
330
1F
100
AcDbEntity
  8
0
  6
Continuous
 62
     7
370
    15
100
AcDbLine
 10
926.3245365399
 20
719.007091878
 30
0.0
 11
868.5518745464
 21
842.9009653392
 31
0.0
  0
LINE
  5
22E
330
1F
100
AcDbEntity
  8
0
  6
Continuous
 62
     7
370
    15
100
AcDbLine
 10
926.3245365399
 20
712.4987706471
 30
0.0
 11
928.4090444501
 21
711.5267486451
 31
0.0
  0
ARC
  5
22F
330
1F
100
AcDbEntity
  8
0
  6
Continuous
 62
     7
370
    15
100
AcDbCircle
 10
919.3459665797
 20
715.7529312625
 30
0.0
 40
7.69999999999975
100
AcDbArc
 50
335.0
 51
25.0
  0
CIRCLE
  5
230
330
1F
100
AcDbEntity
  8
0
  6
Continuous
 62
     7
370
    15
100
AcDbCircle
 10
877.690044762
 20
888.7529312625
 30
0.0
 40
6.34766310537168
  0
CIRCLE
  5
231
330
1F
100
AcDbEntity
  8
0
  6
Continuous
 62
     7
370
    15
100
AcDbCircle
 10
877.690044762
 20
888.7529312625
 30
0.0
 40
4.700000000000045
  0
SPLINE
  5
232
330
1F
100
AcDbEntity
  8
0
  6
Continuous
 62
     7
370
    15
100
AcDbSpline
210
0.0
220
0.0
230
1.0
 70
     8
 71
     3
 72
    12
 73
     8
 74
     0
 42
0.00000001
 43
0.00000001
 12
1.0
 22
0.0
 32
0.0
 13
1.0
 23
0.0
 33
0.0
 40
0.0
 40
0.0
 40
0.0
 40
0.0
 40
0.2096821001528664
 40
0.4420453733186088
 40
0.674433296668131
 40
0.906820870118063
 40
1.0
 40
1.0
 40
1.0
 40
1.0
 10
32.44282235204082
 20
663.8529312625467
 30
0.0
 10
32.19049139406549
 20
663.7486460546191
 30
0.0
 10
31.65853500657828
 20
663.5287951773324
 30
0.0
 10
30.93715357676358
 20
663.1928270474496
 30
0.0
 10
30.39379464277708
 20
662.8459217790328
 30
0.0
 10
30.1651728026337
 20
662.5675451167999
 30
0.0
 10
30.14779576400939
 20
662.4061846555783
 30
0.0
 10
30.1428223520408
 20
662.3600023303586
 30
0.0
  0
LINE
  5
233
330
1F
100
AcDbEntity
  8
0
  6
Continuous
 62
     7
370
    15
100
AcDbLine
 10
30.142822352
 20
907.9458601947
 30
0.0
 11
30.142822352
 21
662.3600023304
 31
0.0
  0
SPLINE
  5
234
330
1F
100
AcDbEntity
  8
0
  6
Continuous
 62
     7
370
    15
100
AcDbSpline
210
0.0
220
0.0
230
1.0
 70
     8
 71
     3
 72
    12
 73
     8
 74
     0
 42
0.00000001
 43
0.00000001
 12
1.0
 22
0.0
 32
0.0
 13
1.0
 23
0.0
 33
0.0
 40
0.0
 40
0.0
 40
0.0
 40
0.0
 40
0.2096821001528779
 40
0.4420453733185962
 40
0.6744332966681126
 40
0.9068208701180277
 40
1.0
 40
1.0
 40
1.0
 40
1.0
 10
30.14282235204074
 20
907.9458601947354
 30
0.0
 10
30.16716232220929
 20
907.8415749868078
 30
0.0
 10
30.21847510089615
 20
907.621724109521
 30
0.0
 10
30.63940568782497
 20
907.2857559796381
 30
0.0
 10
31.29119516572049
 20
906.9388507112213
 30
0.0
 10
31.94063620482268
 20
906.6604740489886
 30
0.0
 10
32.33107612192926
 20
906.4991135877669
 30
0.0
 10
32.44282235204076
 20
906.4529312625472
 30
0.0
  0
LINE
  5
235
330
1F
100
AcDbEntity
  8
0
  6
Continuous
 62
     7
370
    15
100
AcDbLine
 10
32.442822352
 20
906.4529312625
 30
0.0
 11
32.442822352
 21
663.8529312625
 31
0.0
  0
LINE
  5
236
330
1F
100
AcDbEntity
  8
0
  6
Continuous
 62
     7
370
    15
100
AcDbLine
 10
925.0686147222
 20
895.4987706471
 30
0.0
 11
927.1531226324
 21
894.5267486451
 31
0.0
  0
LINE
  5
237
330
1F
100
AcDbEntity
  8
0
  6
Continuous
 62
     7
370
    15
100
AcDbLine
 10
912.6995780809
 20
863.5310223285
 30
0.0
 11
910.6150701707
 21
864.5030443305
 31
0.0
  0
LINE
  5
238
330
1F
100
AcDbEntity
  8
0
  6
Continuous
 62
     7
370
    15
100
AcDbLine
 10
910.6150701707
 20
864.5030443305
 30
0.0
 11
925.0686147222
 21
895.4987706471
 31
0.0
  0
LINE
  5
239
330
1F
100
AcDbEntity
  8
0
  6
Continuous
 62
     7
370
    15
100
AcDbLine
 10
898.7351680893
 20
663.8529312625
 30
0.0
 11
898.7351680893
 21
661.5529312625
 31
0.0
  0
LINE
  5
23A
330
1F
100
AcDbEntity
  8
0
  6
Continuous
 62
     7
370
    15
100
AcDbLine
 10
838.1058706974
 20
661.5529312625
 30
0.0
 11
30.9498934199
 21
661.5529312625
 31
0.0
  0
SPLINE
  5
23B
330
1F
100
AcDbEntity
  8
0
  6
Continuous
 62
     7
370
    15
100
AcDbSpline
210
0.0
220
0.0
230
1.0
 70
     8
 71
     3
 72
    12
 73
     8
 74
     0
 42
0.00000001
 43
0.00000001
 12
1.0
 22
0.0
 32
0.0
 13
1.0
 23
0.0
 33
0.0
 40
0.0
 40
0.0
 40
0.0
 40
0.0
 40
0.2096821001528683
 40
0.4420453733186099
 40
0.6744332966681333
 40
0.9068208701180586
 40
1.0
 40
1.0
 40
1.0
 40
1.0
 10
30.94989341985266
 20
661.5529312625467
 30
0.0
 10
31.0541786277802
 20
661.5772712327154
 30
0.0
 10
31.27402950506697
 20
661.6285840114023
 30
0.0
 10
31.60999763494993
 20
662.0495145983308
 30
0.0
 10
31.9569029033665
 20
662.7013040762264
 30
0.0
 10
32.23527956559946
 20
663.3507451153289
 30
0.0
 10
32.39664002682103
 20
663.7411850324353
 30
0.0
 10
32.44282235204076
 20
663.8529312625467
 30
0.0
  0
LINE
  5
23C
330
1F
100
AcDbEntity
  8
0
  6
Continuous
 62
     7
370
    15
100
AcDbLine
 10
32.442822352
 20
663.8529312625
 30
0.0
 11
898.7351680893
 21
663.8529312625
 31
0.0
  0
ARC
  5
23D
330
1F
100
AcDbEntity
  8
0
  6
Continuous
 62
     7
370
    15
100
AcDbCircle
 10
918.090044762
 20
898.7529312625
 30
0.0
 40
7.699999999999704
100
AcDbArc
 50
335.0
 51
90.0
  0
LINE
  5
23E
330
1F
100
AcDbEntity
  8
0
  6
Continuous
 62
     7
370
    15
100
AcDbLine
 10
918.090044762
 20
908.7529312625
 30
0.0
 11
918.090044762
 21
906.4529312625
 31
0.0
  0
CIRCLE
  5
23F
330
1F
100
AcDbEntity
  8
0
  6
Continuous
 62
     7
370
    15
100
AcDbCircle
 10
107.690044762
 20
888.7529312625
 30
0.0
 40
6.34766310537168
  0
CIRCLE
  5
240
330
1F
100
AcDbEntity
  8
0
  6
Continuous
 62
     7
370
    15
100
AcDbCircle
 10
107.690044762
 20
888.7529312625
 30
0.0
 40
4.700000000000045
  0
LINE
  5
241
330
1F
100
AcDbEntity
  8
0
  6
Continuous
 62
     7
370
    15
100
AcDbLine
 10
907.7982459596
 20
667.3267486451
 30
0.0
 11
905.7137380495
 21
668.2987706471
 31
0.0
  0
LINE
  5
242
330
1F
100
AcDbEntity
  8
0
  6
Continuous
 62
     7
370
    15
100
AcDbLine
 10
905.7137380495
 20
668.2987706471
 30
0.0
 11
926.3245365399
 21
712.4987706471
 31
0.0
  0
CIRCLE
  5
243
330
1F
100
AcDbEntity
  8
0
  6
Continuous
 62
     7
370
    15
100
AcDbCircle
 10
497.690044762
 20
888.7529312625
 30
0.0
 40
6.34766310537168
  0
CIRCLE
  5
244
330
1F
100
AcDbEntity
  8
0
  6
Continuous
 62
     7
370
    15
100
AcDbCircle
 10
497.690044762
 20
888.7529312625
 30
0.0
 40
4.700000000000045
  0
LINE
  5
245
330
1F
100
AcDbEntity
  8
0
  6
Continuous
 62
     7
370
    15
100
AcDbLine
 10
918.090044762
 20
906.4529312625
 30
0.0
 11
32.442822352
 21
906.4529312625
 31
0.0
  0
ARC
  5
246
330
1F
100
AcDbEntity
  8
0
  6
Continuous
 62
     7
370
    15
100
AcDbCircle
 10
903.6365002105
 20
867.7572049459
 30
0.0
 40
7.700000000000148
100
AcDbArc
 50
295.0
 51
335.0
  0
ARC
  5
247
330
1F
100
AcDbEntity
  8
0
  6
Continuous
 62
     7
370
    15
100
AcDbCircle
 10
898.7351680893
 20
671.5529312625
 30
0.0
 40
7.699999999999853
100
AcDbArc
 50
270.0
 51
335.0
  0
SPLINE
  5
248
330
1F
100
AcDbEntity
  8
0
  6
Continuous
 62
     7
370
    15
100
AcDbSpline
210
0.0
220
0.0
230
1.0
 70
     8
 71
     3
 72
    11
 73
     7
 74
     0
 42
0.00000001
 43
0.00000001
 12
1.0
 22
0.0
 32
0.0
 13
1.0
 23
0.0
 33
0.0
 40
0.0
 40
0.0
 40
0.0
 40
0.0
 40
0.2543211584721369
 40
0.5088664984542349
 40
0.7634130007197295
 40
0.9999999999999999
 40
0.9999999999999999
 40
0.9999999999999999
 40
0.9999999999999999
 10
32.44282235204082
 20
663.8529312625467
 30
0.0
 10
32.24284716190157
 20
663.7263501547613
 30
0.0
 10
31.84272050553027
 20
663.4730763592336
 30
0.0
 10
31.34109675143482
 20
663.0931316897481
 30
0.0
 10
31.00503150457573
 20
662.7219065580773
 30
0.0
 10
30.96304698046526
 20
662.4776599134082
 30
0.0
 10
30.94282235204077
 20
662.3600023303586
 30
0.0
  0
LINE
  5
249
330
1F
100
AcDbEntity
  8
0
  6
Continuous
 62
     7
370
    15
100
AcDbLine
 10
30.142822352
 20
662.3600023304
 30
0.0
 11
30.942822352
 21
662.3600023304
 31
0.0
  0
LINE
  5
24A
330
1F
100
AcDbEntity
  8
0
  6
Continuous
 62
     7
370
    15
100
AcDbLine
 10
30.142822352
 20
907.9458601947
 30
0.0
 11
30.942822352
 21
907.9458601947
 31
0.0
  0
SPLINE
  5
24B
330
1F
100
AcDbEntity
  8
0
  6
Continuous
 62
     7
370
    15
100
AcDbSpline
210
0.0
220
0.0
230
1.0
 70
     8
 71
     3
 72
    11
 73
     7
 74
     0
 42
0.00000001
 43
0.00000001
 12
1.0
 22
0.0
 32
0.0
 13
1.0
 23
0.0
 33
0.0
 40
0.0
 40
0.0
 40
0.0
 40
0.0
 40
0.2543211584721124
 40
0.508866498454213
 40
0.7634130007197003
 40
1.0
 40
1.0
 40
1.0
 40
1.0
 10
30.94282235204071
 20
907.9458601947354
 30
0.0
 10
30.96617641405974
 20
907.8192790869499
 30
0.0
 10
31.0129051244657
 20
907.5660052914222
 30
0.0
 10
31.37179274066077
 20
907.1860606219368
 30
0.0
 10
31.87101571995038
 20
906.814835490266
 30
0.0
 10
32.25692403654562
 20
906.5705888455968
 30
0.0
 10
32.44282235204076
 20
906.4529312625472
 30
0.0
  0
SPLINE
  5
24C
330
1F
100
AcDbEntity
  8
0
  6
Continuous
 62
     7
370
    15
100
AcDbSpline
210
0.0
220
0.0
230
1.0
 70
     8
 71
     3
 72
    12
 73
     8
 74
     0
 42
0.00000001
 43
0.00000001
 12
1.0
 22
0.0
 32
0.0
 13
1.0
 23
0.0
 33
0.0
 40
0.0
 40
0.0
 40
0.0
 40
0.0
 40
0.2096821001528805
 40
0.4420453733185747
 40
0.6744332966681248
 40
0.9068208701180618
 40
0.9999999999999999
 40
0.9999999999999999
 40
0.9999999999999999
 40
0.9999999999999999
 10
32.44282235204076
 20
906.4529312625472
 30
0.0
 10
32.33853714411333
 20
906.7052622205225
 30
0.0
 10
32.11868626682662
 20
907.2372186080098
 30
0.0
 10
31.78271813694355
 20
907.9586000378245
 30
0.0
 10
31.43581286852687
 20
908.5019589718108
 30
0.0
 10
31.15743620629369
 20
908.7305808119544
 30
0.0
 10
30.99607574507235
 20
908.7479578505786
 30
0.0
 10
30.94989341985266
 20
908.7529312625472
 30
0.0
  0
LINE
  5
24D
330
1F
100
AcDbEntity
  8
0
  6
Continuous
 62
     7
370
    15
100
AcDbLine
 10
30.9498934199
 20
908.7529312625
 30
0.0
 11
34.340044762
 21
908.7529312625
 31
0.0
  0
LINE
  5
24E
330
1F
100
AcDbEntity
  8
0
  6
Continuous
 62
     7
370
    15
100
AcDbLine
 10
45.090044762
 20
908.7529312625
 30
0.0
 11
105.090044762
 21
908.7529312625
 31
0.0
  0
SPLINE
  5
24F
330
1F
100
AcDbEntity
  8
0
  6
Continuous
 62
     7
370
    15
100
AcDbSpline
210
0.0
220
0.0
230
1.0
 70
     8
 71
     3
 72
    11
 73
     7
 74
     0
 42
0.00000001
 43
0.00000001
 12
1.0
 22
0.0
 32
0.0
 13
1.0
 23
0.0
 33
0.0
 40
0.0
 40
0.0
 40
0.0
 40
0.0
 40
0.2543211584720588
 40
0.5088664984541689
 40
0.7634130007196562
 40
1.0
 40
1.0
 40
1.0
 40
1.0
 10
32.44282235204076
 20
906.4529312625472
 30
0.0
 10
32.31624124425542
 20
906.6529064526865
 30
0.0
 10
32.06296744872772
 20
907.0530331090577
 30
0.0
 10
31.68302277924251
 20
907.5546568631529
 30
0.0
 10
31.31179764757142
 20
907.890722110012
 30
0.0
 10
31.06755100290232
 20
907.9327066341227
 30
0.0
 10
30.94989341985266
 20
907.9529312625472
 30
0.0
  0
LINE
  5
250
330
1F
100
AcDbEntity
  8
0
  6
Continuous
 62
     7
370
    15
100
AcDbLine
 10
30.9498934199
 20
908.7529312625
 30
0.0
 11
30.9498934199
 21
907.9529312625
 31
0.0
  0
LINE
  5
251
330
1F
100
AcDbEntity
  8
0
  6
Continuous
 62
     7
370
    15
100
AcDbLine
 10
30.9498934199
 20
661.5529312625
 30
0.0
 11
30.9498934199
 21
662.3529312625
 31
0.0
  0
SPLINE
  5
252
330
1F
100
AcDbEntity
  8
0
  6
Continuous
 62
     7
370
    15
100
AcDbSpline
210
0.0
220
0.0
230
1.0
 70
     8
 71
     3
 72
    11
 73
     7
 74
     0
 42
0.00000001
 43
0.00000001
 12
1.0
 22
0.0
 32
0.0
 13
1.0
 23
0.0
 33
0.0
 40
0.0
 40
0.0
 40
0.0
 40
0.0
 40
0.2543211584721305
 40
0.5088664984542399
 40
0.7634130007197251
 40
0.9999999999999999
 40
0.9999999999999999
 40
0.9999999999999999
 40
0.9999999999999999
 10
30.94989341985266
 20
662.3529312625467
 30
0.0
 10
31.07647452763818
 20
662.3762853245659
 30
0.0
 10
31.32974832316565
 20
662.4230140349716
 30
0.0
 10
31.70969299265136
 20
662.7819016511669
 30
0.0
 10
32.08091812432179
 20
663.2811246304564
 30
0.0
 10
32.32516476899116
 20
663.6670329470517
 30
0.0
 10
32.44282235204076
 20
663.8529312625467
 30
0.0
  0
CIRCLE
  5
253
330
1F
100
AcDbEntity
  8
0
  6
Continuous
 62
     7
370
    15
100
AcDbCircle
 10
877.690044762
 20
888.7529312625
 30
0.0
 40
2.700000000000045
  0
CIRCLE
  5
254
330
1F
100
AcDbEntity
  8
0
  6
Continuous
 62
     7
370
    15
100
AcDbCircle
 10
497.690044762
 20
888.7529312625
 30
0.0
 40
2.700000000000045
  0
CIRCLE
  5
255
330
1F
100
AcDbEntity
  8
0
  6
Continuous
 62
     7
370
    15
100
AcDbCircle
 10
107.690044762
 20
888.7529312625
 30
0.0
 40
2.700000000000045
  0
LINE
  5
256
330
1F
100
AcDbEntity
  8
0
  6
Continuous
 62
     7
370
    15
100
AcDbLine
 10
45.1900447609
 20
910.852931263
 30
0.0
 11
34.340044762
 21
910.852931263
 31
0.0
  0
ARC
  5
257
330
1F
100
AcDbEntity
  8
0
  6
Continuous
 62
     7
370
    15
100
AcDbCircle
 10
34.340044762
 20
913.002931263
 30
0.0
 40
2.149999999999984
100
AcDbArc
 50
180.0
 51
270.0
  0
LINE
  5
258
330
1F
100
AcDbEntity
  8
0
  6
Continuous
 62
     7
370
    15
100
AcDbLine
 10
32.190044762
 20
913.002931263
 30
0.0
 11
32.190044762
 21
924.502931263
 31
0.0
  0
ARC
  5
259
330
1F
100
AcDbEntity
  8
0
  6
Continuous
 62
     7
370
    15
100
AcDbCircle
 10
34.340044762
 20
924.502931263
 30
0.0
 40
2.149999999999984
100
AcDbArc
 50
90.0
 51
180.0
  0
LINE
  5
25A
330
1F
100
AcDbEntity
  8
0
  6
Continuous
 62
     7
370
    15
100
AcDbLine
 10
34.340044762
 20
926.652931263
 30
0.0
 11
34.3416518178
 21
926.652931263
 31
0.0
  0
LINE
  5
25B
330
1F
100
AcDbEntity
  8
0
  6
Continuous
 62
     7
370
    15
100
AcDbLine
 10
34.3416518178
 20
926.652931263
 30
0.0
 11
34.3416518178
 21
924.352931263
 31
0.0
  0
LINE
  5
25C
330
1F
100
AcDbEntity
  8
0
  6
Continuous
 62
     7
370
    15
100
AcDbLine
 10
100.840044762
 20
924.352931263
 30
0.0
 11
34.3416518178
 21
924.352931263
 31
0.0
  0
LINE
  5
25D
330
1F
100
AcDbEntity
  8
0
  6
Continuous
 62
     7
370
    15
100
AcDbLine
 10
100.840044762
 20
924.352931263
 30
0.0
 11
100.840044762
 21
926.652931263
 31
0.0
  0
ARC
  5
25E
330
1F
100
AcDbEntity
  8
0
  6
Continuous
 62
     7
370
    15
100
AcDbCircle
 10
100.840044762
 20
924.502931263
 30
0.0
 40
2.149999999999977
100
AcDbArc
 50
359.9999999959
 51
90.0
  0
LINE
  5
25F
330
1F
100
AcDbEntity
  8
0
  6
Continuous
 62
     7
370
    15
100
AcDbLine
 10
102.990044762
 20
924.5029312629
 30
0.0
 11
102.990044762
 21
913.0029312629
 31
0.0
  0
ARC
  5
260
330
1F
100
AcDbEntity
  8
0
  6
Continuous
 62
     7
370
    15
100
AcDbCircle
 10
107.340044762
 20
913.0029312625
 30
0.0
 40
4.349999999999964
100
AcDbArc
 50
179.999999996
 51
252.5584061437
  0
LINE
  5
261
330
1F
100
AcDbEntity
  8
0
  6
Continuous
 62
     7
370
    15
100
AcDbLine
 10
106.036204281
 20
908.8529312625
 30
0.0
 11
100.840044762
 21
908.8529312625
 31
0.0
  0
LINE
  5
262
330
1F
100
AcDbEntity
  8
0
  6
Continuous
 62
     7
370
    15
100
AcDbLine
 10
100.840044762
 20
908.8529312625
 30
0.0
 11
100.840044762
 21
911.1529312625
 31
0.0
  0
LINE
  5
263
330
1F
100
AcDbEntity
  8
0
  6
Continuous
 62
     7
370
    15
100
AcDbLine
 10
45.1900447609
 20
911.1529312625
 30
0.0
 11
100.840044762
 21
911.1529312625
 31
0.0
  0
LINE
  5
264
330
1F
100
AcDbEntity
  8
0
  6
Continuous
 62
     7
370
    15
100
AcDbLine
 10
45.1900447609
 20
911.1529312625
 30
0.0
 11
45.1900447609
 21
910.852931263
 31
0.0
  0
LINE
  5
265
330
1F
100
AcDbEntity
  8
0
  6
Continuous
 62
     7
370
    15
100
AcDbLine
 10
100.840044762
 20
908.8529312625
 30
0.0
 11
45.1900447609
 21
908.8529312625
 31
0.0
  0
LINE
  5
266
330
1F
100
AcDbEntity
  8
0
  6
Continuous
 62
     7
370
    15
100
AcDbLine
 10
45.1900447609
 20
908.8529312625
 30
0.0
 11
45.1900447609
 21
910.852931263
 31
0.0
  0
LINE
  5
267
330
1F
100
AcDbEntity
  8
0
  6
Continuous
 62
     7
370
    15
100
AcDbLine
 10
34.3416518178
 20
926.652931263
 30
0.0
 11
100.840044762
 21
926.652931263
 31
0.0
  0
LINE
  5
268
330
1F
100
AcDbEntity
  8
0
  6
Continuous
 62
     8
370
    15
100
AcDbLine
 10
777.6058706974
 20
13.4529312625
 30
0.0
 11
720.6058706974
 21
13.4529312625
 31
0.0
  0
LINE
  5
269
330
1F
100
AcDbEntity
  8
0
  6
Continuous
 62
     8
370
    15
100
AcDbLine
 10
198.6058706974
 20
13.4529312625
 30
0.0
 11
141.6058706974
 21
13.4529312625
 31
0.0
  0
LINE
  5
26A
330
1F
100
AcDbEntity
  8
0
  6
Continuous
 62
     8
370
    15
100
AcDbLine
 10
202.0058706974
 20
177.9529312625
 30
0.0
 11
138.2058706974
 21
177.9529312625
 31
0.0
  0
LINE
  5
26B
330
1F
100
AcDbEntity
  8
0
  6
Continuous
 62
     8
370
    15
100
AcDbLine
 10
201.9419574704
 20
90.7130339837
 30
0.0
 11
138.2697839243
 21
90.7130339837
 31
0.0
  0
LINE
  5
26C
330
1F
100
AcDbEntity
  8
0
  6
Continuous
 62
     8
370
    15
100
AcDbLine
 10
202.0058706974
 20
91.4854972082
 30
0.0
 11
138.2058706974
 21
91.4854972082
 31
0.0
  0
LINE
  5
26D
330
1F
100
AcDbEntity
  8
0
  6
Continuous
 62
     8
370
    15
100
AcDbLine
 10
781.0058706974
 20
177.9529312625
 30
0.0
 11
717.2058706974
 21
177.9529312625
 31
0.0
  0
LINE
  5
26E
330
1F
100
AcDbEntity
  8
0
  6
Continuous
 62
     8
370
    15
100
AcDbLine
 10
781.0058706974
 20
91.4854972082
 30
0.0
 11
717.2058706974
 21
91.4854972082
 31
0.0
  0
LINE
  5
26F
330
1F
100
AcDbEntity
  8
0
  6
Continuous
 62
     8
370
    15
100
AcDbLine
 10
780.9419574704
 20
90.7130339837
 30
0.0
 11
717.2697839243
 21
90.7130339837
 31
0.0
  0
LINE
  5
270
330
1F
100
AcDbEntity
  8
0
  6
Continuous
 62
     8
370
    15
100
AcDbLine
 10
106.7494662406
 20
168.1029312625
 30
0.0
 11
100.0949188737
 21
168.1029312625
 31
0.0
  0
LINE
  5
271
330
1F
100
AcDbEntity
  8
0
  6
Continuous
 62
     8
370
    15
100
AcDbLine
 10
94.5382247015
 20
168.1029312625
 30
0.0
 11
94.5058706974
 21
168.1029312625
 31
0.0
  0
LINE
  5
272
330
1F
100
AcDbEntity
  8
0
  6
Continuous
 62
     8
370
    15
100
AcDbLine
 10
94.5058706974
 20
167.4029312625
 30
0.0
 11
94.5382247015
 21
167.4029312625
 31
0.0
  0
LINE
  5
273
330
1F
100
AcDbEntity
  8
0
  6
Continuous
 62
     8
370
    15
100
AcDbLine
 10
100.0949188737
 20
167.4029312625
 30
0.0
 11
106.7494662406
 21
167.4029312625
 31
0.0
  0
LINE
  5
274
330
1F
100
AcDbEntity
  8
0
  6
Continuous
 62
     8
370
    15
100
AcDbLine
 10
107.238266401
 20
168.6029312625
 30
0.0
 11
107.1620330696
 21
168.6029312625
 31
0.0
  0
LINE
  5
275
330
1F
100
AcDbEntity
  8
0
  6
Continuous
 62
     8
370
    15
100
AcDbLine
 10
107.238266401
 20
173.7029312625
 30
0.0
 11
107.162020447
 21
173.7029312625
 31
0.0
  0
LINE
  5
276
330
1F
100
AcDbEntity
  8
0
  6
Continuous
 62
     8
370
    15
100
AcDbLine
 10
112.3357627093
 20
173.7029312625
 30
0.0
 11
112.3619908463
 21
173.7029312625
 31
0.0
  0
SPLINE
  5
277
330
1F
100
AcDbEntity
  8
0
  6
Continuous
 62
     8
370
    15
100
AcDbSpline
210
0.0
220
0.0
230
1.0
 70
     8
 71
     3
 72
    11
 73
     7
 74
     0
 42
0.00000001
 43
0.00000001
 12
1.0
 22
0.0
 32
0.0
 13
1.0
 23
0.0
 33
0.0
 40
0.0
 40
0.0
 40
0.0
 40
0.0
 40
0.1689135268328874
 40
0.509833416227713
 40
0.8698760745624186
 40
1.0
 40
1.0
 40
1.0
 40
1.0
 10
94.12599650239062
 20
168.6029312625425
 30
0.0
 10
94.1285095638682
 20
168.5355595707531
 30
0.0
 10
94.13609476288876
 20
168.3322109081205
 30
0.0
 10
94.23012663097285
 20
168.0061638439114
 30
0.0
 10
94.37903237754541
 20
167.7302675945851
 30
0.0
 10
94.50482949426514
 20
167.6419219115254
 30
0.0
 10
94.53822470148299
 20
167.6184688907448
 30
0.0
  0
LINE
  5
278
330
1F
100
AcDbEntity
  8
0
  6
Continuous
 62
     8
370
    15
100
AcDbLine
 10
94.655869797
 20
169.5320596544
 30
0.0
 11
94.655869797
 21
173.7029312625
 31
0.0
  0
LINE
  5
279
330
1F
100
AcDbEntity
  8
0
  6
Continuous
 62
     8
370
    15
100
AcDbLine
 10
94.0497505484
 20
168.6029312625
 30
0.0
 11
94.1259965024
 21
168.6029312625
 31
0.0
  0
LINE
  5
27A
330
1F
100
AcDbEntity
  8
0
  6
Continuous
 62
     8
370
    15
100
AcDbLine
 10
95.0560088932
 20
173.7029312625
 30
0.0
 11
95.0560088932
 21
169.5529312625
 31
0.0
  0
LINE
  5
27B
330
1F
100
AcDbEntity
  8
0
  6
Continuous
 62
     8
370
    15
100
AcDbLine
 10
97.5656854399
 20
173.7029312625
 30
0.0
 11
95.0560088932
 21
173.7029312625
 31
0.0
  0
LINE
  5
27C
330
1F
100
AcDbEntity
  8
0
  6
Continuous
 62
     8
370
    15
100
AcDbLine
 10
94.0497505484
 20
173.7029312625
 30
0.0
 11
94.1259965024
 21
173.7029312625
 31
0.0
  0
LINE
  5
27D
330
1F
100
AcDbEntity
  8
0
  6
Continuous
 62
     8
370
    15
100
AcDbLine
 10
107.162020447
 20
169.3029312625
 30
0.0
 11
100.4748654427
 21
169.3029312625
 31
0.0
  0
LINE
  5
27E
330
1F
100
AcDbEntity
  8
0
  6
Continuous
 62
     8
370
    15
100
AcDbLine
 10
100.4748654427
 20
168.6029312625
 30
0.0
 11
107.1781117066
 21
168.6029312625
 31
0.0
  0
LINE
  5
27F
330
1F
100
AcDbEntity
  8
0
  6
Continuous
 62
     8
370
    15
100
AcDbLine
 10
100.0357820081
 20
168.1029312625
 30
0.0
 11
100.094904413
 21
168.1029312625
 31
0.0
  0
LINE
  5
280
330
1F
100
AcDbEntity
  8
0
  6
Continuous
 62
     8
370
    15
100
AcDbLine
 10
100.0357820081
 20
163.0029312625
 30
0.0
 11
100.0949188737
 21
163.0029312625
 31
0.0
  0
LINE
  5
281
330
1F
100
AcDbEntity
  8
0
  6
Continuous
 62
     8
370
    15
100
AcDbLine
 10
94.5767260584
 20
163.0029312625
 30
0.0
 11
94.5382247015
 21
163.0029312625
 31
0.0
  0
LINE
  5
282
330
1F
100
AcDbEntity
  8
0
  6
Continuous
 62
     8
370
    15
100
AcDbLine
 10
94.8883096897
 20
169.3029312625
 30
0.0
 11
94.5058706974
 21
169.3029312625
 31
0.0
  0
LINE
  5
283
330
1F
100
AcDbEntity
  8
0
  6
Continuous
 62
     8
370
    15
100
AcDbLine
 10
111.8143798276
 20
163.0029312625
 30
0.0
 11
111.8143798276
 21
167.2096054866
 31
0.0
  0
LINE
  5
284
330
1F
100
AcDbEntity
  8
0
  6
Continuous
 62
     8
370
    15
100
AcDbLine
 10
111.3384008795
 20
167.1529312625
 30
0.0
 11
111.3384008795
 21
163.0029312625
 31
0.0
  0
LINE
  5
285
330
1F
100
AcDbEntity
  8
0
  6
Continuous
 62
     8
370
    15
100
AcDbLine
 10
110.9328980952
 20
163.0029312625
 30
0.0
 11
110.9328980952
 21
167.1529312625
 31
0.0
  0
LINE
  5
286
330
1F
100
AcDbEntity
  8
0
  6
Continuous
 62
     8
370
    15
100
AcDbLine
 10
108.9356587338
 20
163.0029312625
 30
0.0
 11
110.9328980952
 21
163.0029312625
 31
0.0
  0
LINE
  5
287
330
1F
100
AcDbEntity
  8
0
  6
Continuous
 62
     8
370
    15
100
AcDbLine
 10
111.8735166932
 20
163.0029312625
 30
0.0
 11
111.8143798276
 21
163.0029312625
 31
0.0
  0
LINE
  5
288
330
1F
100
AcDbEntity
  8
0
  6
Continuous
 62
     8
370
    15
100
AcDbLine
 10
77.090044762
 20
938.2529312625
 30
0.0
 11
58.090044762
 21
938.2529312625
 31
0.0
  0
LINE
  5
289
330
1F
100
AcDbEntity
  8
0
  6
Continuous
 62
     8
370
    15
100
AcDbLine
 10
120.590044762
 20
910.7529312626
 30
0.0
 11
120.590044762
 21
911.2529312626
 31
0.0
  0
LINE
  5
28A
330
1F
100
AcDbEntity
  8
0
  6
Continuous
 62
     8
370
    15
100
AcDbLine
 10
105.590044762
 20
927.2529312626
 30
0.0
 11
105.590044762
 21
910.7529312626
 31
0.0
  0
LINE
  5
28B
330
1F
100
AcDbEntity
  8
0
  6
Continuous
 62
     8
370
    15
100
AcDbLine
 10
898.1743222932
 20
803.0263822887
 30
0.0
 11
916.6855685199
 21
763.3288866482
 31
0.0
  0
LINE
  5
28C
330
1F
100
AcDbEntity
  8
0
  6
Continuous
 62
     8
370
    15
100
AcDbLine
 10
943.4004211663
 20
779.129927643
 30
0.0
 11
941.9446373725
 21
782.2518660635
 31
0.0
  0
LINE
  5
28D
330
1F
100
AcDbEntity
  8
0
  6
Continuous
 62
     8
370
    15
100
AcDbLine
 10
98.840044762
 20
926.652931263
 30
0.0
 11
98.840044762
 21
926.7529312626
 31
0.0
  0
LINE
  5
28E
330
1F
100
AcDbEntity
  8
0
  6
Continuous
 62
     8
370
    15
100
AcDbLine
 10
102.990044762
 20
922.5029312626
 30
0.0
 11
103.090044762
 21
922.5029312626
 31
0.0
  0
ENDSEC
  0
SECTION
  2
OBJECTS
  0
DICTIONARY
  5
C
330
0
100
AcDbDictionary
281
     1
  3
ACAD_GROUP
350
D
  3
ACAD_LAYOUT
350
1A
  3
ACAD_MLINESTYLE
350
17
  3
ACAD_PLOTSETTINGS
350
19
  3
ACAD_PLOTSTYLENAME
350
E
  0
DICTIONARY
  5
D
102
{ACAD_REACTORS
330
C
102
}
330
C
100
AcDbDictionary
281
     1
  0
DICTIONARY
  5
1A
102
{ACAD_REACTORS
330
C
102
}
330
C
100
AcDbDictionary
281
     1
  3
Layout1
350
1E
  3
Layout2
350
26
  3
Model
350
22
  0
DICTIONARY
  5
17
102
{ACAD_REACTORS
330
C
102
}
330
C
100
AcDbDictionary
281
     1
  3
Standard
350
18
  0
DICTIONARY
  5
19
102
{ACAD_REACTORS
330
C
102
}
330
C
100
AcDbDictionary
281
     1
  0
ACDBDICTIONARYWDFLT
  5
E
102
{ACAD_REACTORS
330
C
102
}
330
C
100
AcDbDictionary
281
     1
  3
Normal
350
F
100
AcDbDictionaryWithDefault
340
F
  0
LAYOUT
  5
1E
102
{ACAD_REACTORS
330
1A
102
}
330
1A
100
AcDbPlotSettings
  1

  2
none_device
  4

  6

 40
0.0
 41
0.0
 42
0.0
 43
0.0
 44
0.0
 45
0.0
 46
0.0
 47
0.0
 48
0.0
 49
0.0
140
0.0
141
0.0
142
1.0
143
1.0
 70
   688
 72
     0
 73
     0
 74
     5
  7

 75
    16
147
1.0
148
0.0
149
0.0
100
AcDbLayout
  1
Layout1
 70
     1
 71
     1
 10
0.0
 20
0.0
 11
420.0
 21
297.0
 12
0.0
 22
0.0
 32
0.0
 14
1.0000000000E+20
 24
1.0000000000E+20
 34
1.0000000000E+20
 15
-1.0000000000E+20
 25
-1.0000000000E+20
 35
-1.0000000000E+20
146
0.0
 13
0.0
 23
0.0
 33
0.0
 16
1.0
 26
0.0
 36
0.0
 17
0.0
 27
1.0
 37
0.0
 76
     0
330
1B
  0
LAYOUT
  5
26
102
{ACAD_REACTORS
330
1A
102
}
330
1A
100
AcDbPlotSettings
  1

  2
none_device
  4

  6

 40
0.0
 41
0.0
 42
0.0
 43
0.0
 44
0.0
 45
0.0
 46
0.0
 47
0.0
 48
0.0
 49
0.0
140
0.0
141
0.0
142
1.0
143
1.0
 70
   688
 72
     0
 73
     0
 74
     5
  7

 75
    16
147
1.0
148
0.0
149
0.0
100
AcDbLayout
  1
Layout2
 70
     1
 71
     2
 10
0.0
 20
0.0
 11
0.0
 21
0.0
 12
0.0
 22
0.0
 32
0.0
 14
0.0
 24
0.0
 34
0.0
 15
0.0
 25
0.0
 35
0.0
146
0.0
 13
0.0
 23
0.0
 33
0.0
 16
1.0
 26
0.0
 36
0.0
 17
0.0
 27
1.0
 37
0.0
 76
     0
330
23
  0
LAYOUT
  5
22
102
{ACAD_REACTORS
330
1A
102
}
330
1A
100
AcDbPlotSettings
  1

  2
none_device
  4

  6

 40
0.0
 41
0.0
 42
0.0
 43
0.0
 44
0.0
 45
0.0
 46
0.0
 47
0.0
 48
0.0
 49
0.0
140
0.0
141
0.0
142
1.0
143
1.0
 70
  1712
 72
     0
 73
     0
 74
     0
  7

 75
     0
147
1.0
148
0.0
149
0.0
100
AcDbLayout
  1
Model
 70
     1
 71
     0
 10
0.0
 20
0.0
 11
1000.0
 21
1000.0
 12
0.0
 22
0.0
 32
0.0
 14
0.0
 24
0.0
 34
0.0
 15
1000.0
 25
1000.0
 35
0.0
146
0.0
 13
0.0
 23
0.0
 33
0.0
 16
1.0
 26
0.0
 36
0.0
 17
0.0
 27
1.0
 37
0.0
 76
     0
330
1F
331
29
  0
MLINESTYLE
  5
18
102
{ACAD_REACTORS
330
17
102
}
330
17
100
AcDbMlineStyle
  2
Standard
 70
     0
  3

 62
   256
 51
90.0
 52
90.0
 71
     2
 49
0.5
 62
   256
  6
BYLAYER
 49
-0.5
 62
   256
  6
BYLAYER
  0
ACDBPLACEHOLDER
  5
F
102
{ACAD_REACTORS
330
E
102
}
330
E
  0
ENDSEC
  0
EOF
