  0
SECTION
  2
HEADER
  9
$ACADVER
  1
AC1015
  9
$ACADMAINTVER
 70
     6
  9
$DWGCODEPAGE
  3
ANSI_1252
  9
$INSBASE
 10
0.0
 20
0.0
 30
0.0
  9
$EXTMIN
 10
0.0
 20
0.0
 30
0.0
  9
$EXTMAX
 10
431.8
 20
279.4
 30
0.0
  9
$LIMMIN
 10
0.0
 20
0.0
  9
$LIMMAX
 10
431.8
 20
279.4
  9
$ORTHOMODE
 70
     0
  9
$REGENMODE
 70
     1
  9
$FILLMODE
 70
     1
  9
$QTEXTMODE
 70
     0
  9
$MIRRTEXT
 70
     1
  9
$LTSCALE
 40
1.0
  9
$ATTMODE
 70
     1
  9
$TEXTSIZE
 40
3.5
  9
$TRACEWID
 40
1.0
  9
$TEXTSTYLE
  7
Standard
  9
$CLAYER
  8
0
  9
$CELTYPE
  6
ByLayer
  9
$CECOLOR
 62
   256
  9
$CELTSCALE
 40
1.0
  9
$DISPSILH
 70
     0
  9
$DIMSCALE
 40
1.0
  9
$DIMASZ
 40
3.302
  9
$DIMEXO
 40
1.0
  9
$DIMDLI
 40
3.75
  9
$DIMRND
 40
0.0
  9
$DIMDLE
 40
0.0
  9
$DIMEXE
 40
1.0
  9
$DIMTP
 40
0.0
  9
$DIMTM
 40
0.0
  9
$DIMTXT
 40
3.5
  9
$DIMCEN
 40
2.5
  9
$DIMTSZ
 40
0.0
  9
$DIMTOL
 70
     0
  9
$DIMLIM
 70
     0
  9
$DIMTIH
 70
     1
  9
$DIMTOH
 70
     1
  9
$DIMSE1
 70
     0
  9
$DIMSE2
 70
     0
  9
$DIMTAD
 70
     1
  9
$DIMZIN
 70
     0
  9
$DIMBLK
  1

  9
$DIMASO
 70
     1
  9
$DIMSHO
 70
     1
  9
$DIMPOST
  1

  9
$DIMAPOST
  1

  9
$DIMALT
 70
     0
  9
$DIMALTD
 70
     3
  9
$DIMALTF
 40
0.0393700787
  9
$DIMLFAC
 40
5.0
  9
$DIMTOFL
 70
     1
  9
$DIMTVP
 40
0.0
  9
$DIMTIX
 70
     0
  9
$DIMSOXD
 70
     0
  9
$DIMSAH
 70
     0
  9
$DIMBLK1
  1

  9
$DIMBLK2
  1

  9
$DIMSTYLE
  2
ISO-25
  9
$DIMCLRD
 70
     0
  9
$DIMCLRE
 70
     0
  9
$DIMCLRT
 70
     0
  9
$DIMTFAC
 40
1.0
  9
$DIMGAP
 40
1.524
  9
$DIMJUST
 70
     0
  9
$DIMSD1
 70
     0
  9
$DIMSD2
 70
     0
  9
$DIMTOLJ
 70
     0
  9
$DIMTZIN
 70
     0
  9
$DIMALTZ
 70
     0
  9
$DIMALTTZ
 70
     0
  9
$DIMUPT
 70
     0
  9
$DIMDEC
 70
     3
  9
$DIMTDEC
 70
     3
  9
$DIMALTU
 70
     2
  9
$DIMALTTD
 70
     3
  9
$DIMTXSTY
  7
Standard
  9
$DIMAUNIT
 70
     0
  9
$DIMADEC
 70
     2
  9
$DIMALTRND
 40
0.0
  9
$DIMAZIN
 70
     0
  9
$DIMDSEP
 70
    44
  9
$DIMATFIT
 70
     3
  9
$DIMFRAC
 70
     0
  9
$DIMLDRBLK
  1

  9
$DIMLUNIT
 70
     2
  9
$DIMLWD
 70
    -2
  9
$DIMLWE
 70
    -2
  9
$DIMTMOVE
 70
     0
  9
$LUNITS
 70
     2
  9
$LUPREC
 70
     8
  9
$SKETCHINC
 40
1.0
  9
$FILLETRAD
 40
10.0
  9
$AUNITS
 70
     0
  9
$AUPREC
 70
     8
  9
$MENU
  1
.
  9
$ELEVATION
 40
0.0
  9
$PELEVATION
 40
0.0
  9
$THICKNESS
 40
0.0
  9
$LIMCHECK
 70
     0
  9
$CHAMFERA
 40
10.0
  9
$CHAMFERB
 40
10.0
  9
$CHAMFERC
 40
20.0
  9
$CHAMFERD
 40
0.0
  9
$SKPOLY
 70
     0
  9
$TDCREATE
 40
2457053.423151204
  9
$TDUCREATE
 40
2457053.423151204
  9
$TDUPDATE
 40
2457053.423151933
  9
$TDUUPDATE
 40
2457053.423151933
  9
$TDINDWG
 40
0.0000000116
  9
$TDUSRTIMER
 40
0.0000000116
  9
$USRTIMER
 70
     1
  9
$ANGBASE
 50
0.0
  9
$ANGDIR
 70
     0
  9
$PDMODE
 70
     0
  9
$PDSIZE
 40
-1.0
  9
$PLINEWID
 40
0.0
  9
$SPLFRAME
 70
     0
  9
$SPLINETYPE
 70
     6
  9
$SPLINESEGS
 70
     8
  9
$HANDSEED
  5
19F
  9
$SURFTAB1
 70
     6
  9
$SURFTAB2
 70
     6
  9
$SURFTYPE
 70
     6
  9
$SURFU
 70
     6
  9
$SURFV
 70
     6
  9
$UCSBASE
  2

  9
$UCSNAME
  2

  9
$UCSORG
 10
0.0
 20
0.0
 30
0.0
  9
$UCSXDIR
 10
1.0
 20
0.0
 30
0.0
  9
$UCSYDIR
 10
0.0
 20
1.0
 30
0.0
  9
$UCSORTHOREF
  2

  9
$UCSORTHOVIEW
 70
     0
  9
$UCSORGTOP
 10
0.0
 20
0.0
 30
0.0
  9
$UCSORGBOTTOM
 10
0.0
 20
0.0
 30
0.0
  9
$UCSORGLEFT
 10
0.0
 20
0.0
 30
0.0
  9
$UCSORGRIGHT
 10
0.0
 20
0.0
 30
0.0
  9
$UCSORGFRONT
 10
0.0
 20
0.0
 30
0.0
  9
$UCSORGBACK
 10
0.0
 20
0.0
 30
0.0
  9
$PUCSBASE
  2

  9
$PUCSNAME
  2

  9
$PUCSORG
 10
0.0
 20
0.0
 30
0.0
  9
$PUCSXDIR
 10
1.0
 20
0.0
 30
0.0
  9
$PUCSYDIR
 10
0.0
 20
1.0
 30
0.0
  9
$PUCSORTHOREF
  2

  9
$PUCSORTHOVIEW
 70
     0
  9
$PUCSORGTOP
 10
0.0
 20
0.0
 30
0.0
  9
$PUCSORGBOTTOM
 10
0.0
 20
0.0
 30
0.0
  9
$PUCSORGLEFT
 10
0.0
 20
0.0
 30
0.0
  9
$PUCSORGRIGHT
 10
0.0
 20
0.0
 30
0.0
  9
$PUCSORGFRONT
 10
0.0
 20
0.0
 30
0.0
  9
$PUCSORGBACK
 10
0.0
 20
0.0
 30
0.0
  9
$USERI1
 70
     0
  9
$USERI2
 70
     0
  9
$USERI3
 70
     0
  9
$USERI4
 70
     0
  9
$USERI5
 70
     0
  9
$USERR1
 40
0.0
  9
$USERR2
 40
0.0
  9
$USERR3
 40
0.0
  9
$USERR4
 40
0.0
  9
$USERR5
 40
0.0
  9
$WORLDVIEW
 70
     1
  9
$SHADEDGE
 70
     3
  9
$SHADEDIF
 70
    70
  9
$TILEMODE
 70
     1
  9
$MAXACTVP
 70
    64
  9
$PINSBASE
 10
0.0
 20
0.0
 30
0.0
  9
$PLIMCHECK
 70
     0
  9
$PEXTMIN
 10
1.0000000000E+20
 20
1.0000000000E+20
 30
1.0000000000E+20
  9
$PEXTMAX
 10
-1.0000000000E+20
 20
-1.0000000000E+20
 30
-1.0000000000E+20
  9
$PLIMMIN
 10
0.0
 20
0.0
  9
$PLIMMAX
 10
420.0
 20
297.0
  9
$UNITMODE
 70
     0
  9
$VISRETAIN
 70
     1
  9
$PLINEGEN
 70
     0
  9
$PSLTSCALE
 70
     1
  9
$TREEDEPTH
 70
  3020
  9
$CMLSTYLE
  2
Standard
  9
$CMLJUST
 70
     0
  9
$CMLSCALE
 40
20.0
  9
$PROXYGRAPHICS
 70
     1
  9
$MEASUREMENT
 70
     1
  9
$CELWEIGHT
370
    -1
  9
$ENDCAPS
280
     0
  9
$JOINSTYLE
280
     0
  9
$LWDISPLAY
290
     1
  9
$INSUNITS
 70
     4
  9
$HYPERLINKBASE
  1

  9
$STYLESHEET
  1

  9
$XEDIT
290
     1
  9
$CEPSNTYPE
380
     0
  9
$PSTYLEMODE
290
     1
  9
$FINGERPRINTGUID
  2
{80959BC0-AFAA-49F0-9529-BAD9DF1C8415}
  9
$VERSIONGUID
  2
{FAEB1C32-E019-11D5-929B-00C0DF256EC4}
  9
$EXTNAMES
290
     1
  9
$PSVPSCALE
 40
0.0
  9
$OLESTARTUP
290
     0
  0
ENDSEC
  0
SECTION
  2
CLASSES
  0
CLASS
  1
ACDBDICTIONARYWDFLT
  2
AcDbDictionaryWithDefault
  3
ObjectDBX Classes
 90
        0
280
     0
281
     0
  0
CLASS
  1
VISUALSTYLE
  2
AcDbVisualStyle
  3
ObjectDBX Classes
 90
     4095
280
     0
281
     0
  0
CLASS
  1
MATERIAL
  2
AcDbMaterial
  3
ObjectDBX Classes
 90
     1153
280
     0
281
     0
  0
CLASS
  1
ACDBPLACEHOLDER
  2
AcDbPlaceHolder
  3
ObjectDBX Classes
 90
        0
280
     0
281
     0
  0
CLASS
  1
LAYOUT
  2
AcDbLayout
  3
ObjectDBX Classes
 90
        0
280
     0
281
     0
  0
ENDSEC
  0
SECTION
  2
TABLES
  0
TABLE
  2
VPORT
  5
8
330
0
100
AcDbSymbolTable
 70
     1
  0
VPORT
  5
29
330
8
100
AcDbSymbolTableRecord
100
AcDbViewportTableRecord
  2
*Active
 70
     0
 10
0.0
 20
0.0
 11
1.0
 21
1.0
 12
215.9
 22
139.7
 13
0.0
 23
0.0
 14
10.0
 24
10.0
 15
10.0
 25
10.0
 16
0.0
 26
0.0
 36
1.0
 17
0.0
 27
0.0
 37
0.0
 40
279.4
 41
1.5454545455
 42
50.0
 43
0.0
 44
0.0
 50
0.0
 51
0.0
 71
     0
 72
  2000
 73
     1
 74
     3
 75
     0
 76
     0
 77
     0
 78
     0
281
     0
 65
     1
110
0.0
120
0.0
130
0.0
111
1.0
121
0.0
131
0.0
112
0.0
122
1.0
132
0.0
 79
     0
146
0.0
  0
ENDTAB
  0
TABLE
  2
LTYPE
  5
5
330
0
100
AcDbSymbolTable
 70
     6
  0
LTYPE
  5
14
330
5
100
AcDbSymbolTableRecord
100
AcDbLinetypeTableRecord
  2
ByBlock
 70
     0
  3

 72
    65
 73
     0
 40
0.0
  0
LTYPE
  5
15
330
5
100
AcDbSymbolTableRecord
100
AcDbLinetypeTableRecord
  2
ByLayer
 70
     0
  3

 72
    65
 73
     0
 40
0.0
  0
LTYPE
  5
16
330
5
100
AcDbSymbolTableRecord
100
AcDbLinetypeTableRecord
  2
Continuous
 70
     0
  3
Solid line
 72
    65
 73
     0
 40
0.0
  0
LTYPE
  5
3F
330
5
100
AcDbSymbolTableRecord
100
AcDbLinetypeTableRecord
  2
HIDDEN
 70
     0
  3
Hidden __ __ __ __ __ __ __ __ __ __ __ __ __ __
 72
    65
 73
     2
 40
1.905
 49
1.27
 74
     0
 49
-0.635
 74
     0
  0
LTYPE
  5
40
330
5
100
AcDbSymbolTableRecord
100
AcDbLinetypeTableRecord
  2
PHANTOM
 70
     0
  3
Phantom ______  __  __  ______  __  __  ______
 72
    65
 73
     6
 40
12.7
 49
6.35
 74
     0
 49
-1.27
 74
     0
 49
1.27
 74
     0
 49
-1.27
 74
     0
 49
1.27
 74
     0
 49
-1.27
 74
     0
  0
LTYPE
  5
41
330
5
100
AcDbSymbolTableRecord
100
AcDbLinetypeTableRecord
  2
CENTER
 70
     0
  3
Center ____ _ ____ _ ____ _ ____ _ ____ _ ____
 72
    65
 73
     4
 40
10.16
 49
6.35
 74
     0
 49
-1.27
 74
     0
 49
1.27
 74
     0
 49
-1.27
 74
     0
  0
LTYPE
  5
42
330
5
100
AcDbSymbolTableRecord
100
AcDbLinetypeTableRecord
  2
CENTERX2
 70
     0
  3
Center (2x) ________  __  ________  __  _____
 72
    65
 73
     4
 40
20.32
 49
12.7
 74
     0
 49
-2.54
 74
     0
 49
2.54
 74
     0
 49
-2.54
 74
     0
  0
LTYPE
  5
43
330
5
100
AcDbSymbolTableRecord
100
AcDbLinetypeTableRecord
  2
DOT2
 70
     0
  3
Dot (.5x) ........................................
 72
    65
 73
     2
 40
0.635
 49
0.0
 74
     0
 49
-0.635
 74
     0
  0
ENDTAB
  0
TABLE
  2
LAYER
  5
2
330
0
100
AcDbSymbolTable
 70
     1
  0
LAYER
  5
10
330
2
100
AcDbSymbolTableRecord
100
AcDbLayerTableRecord
  2
0
 70
     0
 62
     7
  6
Continuous
370
    -3
390
F
  0
ENDTAB
  0
TABLE
  2
STYLE
  5
3
330
0
100
AcDbSymbolTable
 70
     1
  0
STYLE
  5
11
330
3
100
AcDbSymbolTableRecord
100
AcDbTextStyleTableRecord
  2
Standard
 70
     0
 40
0.0
 41
1.0
 50
0.0
 71
     0
 42
3.5
  3
txt
  4

  0
ENDTAB
  0
TABLE
  2
VIEW
  5
6
330
0
100
AcDbSymbolTable
 70
     0
  0
ENDTAB
  0
TABLE
  2
UCS
  5
7
330
0
100
AcDbSymbolTable
 70
     0
  0
ENDTAB
  0
TABLE
  2
APPID
  5
9
330
0
100
AcDbSymbolTable
 70
     1
  0
APPID
  5
12
330
9
100
AcDbSymbolTableRecord
100
AcDbRegAppTableRecord
  2
ACAD
 70
     0
  0
ENDTAB
  0
TABLE
  2
DIMSTYLE
  5
A
330
0
100
AcDbSymbolTable
 70
     1
100
AcDbDimStyleTable
  0
DIMSTYLE
105
27
330
A
100
AcDbSymbolTableRecord
100
AcDbDimStyleTableRecord
  2
ISO-25
 70
     0
 41
2.5
 42
0.625
 43
3.75
 44
1.25
 73
     0
 74
     0
 77
     1
 78
     8
140
2.5
141
2.5
143
0.0393700787
147
0.625
171
     3
172
     1
178
     0
271
     2
272
     2
274
     3
278
    44
283
     0
284
     8
340
11
  0
ENDTAB
  0
TABLE
  2
BLOCK_RECORD
  5
1
330
0
100
AcDbSymbolTable
 70
     1
  0
BLOCK_RECORD
  5
1F
330
1
100
AcDbSymbolTableRecord
100
AcDbBlockTableRecord
  2
*Model_Space
340
22
  0
BLOCK_RECORD
  5
1B
330
1
100
AcDbSymbolTableRecord
100
AcDbBlockTableRecord
  2
*Paper_Space
340
1E
  0
BLOCK_RECORD
  5
23
330
1
100
AcDbSymbolTableRecord
100
AcDbBlockTableRecord
  2
*Paper_Space0
340
26
  0
ENDTAB
  0
ENDSEC
  0
SECTION
  2
BLOCKS
  0
BLOCK
  5
20
330
1F
100
AcDbEntity
  8
0
100
AcDbBlockBegin
  2
*Model_Space
 70
     0
 10
0.0
 20
0.0
 30
0.0
  3
*Model_Space
  1

  0
ENDBLK
  5
21
330
1F
100
AcDbEntity
  8
0
100
AcDbBlockEnd
  0
BLOCK
  5
1C
330
1B
100
AcDbEntity
 67
     1
  8
0
100
AcDbBlockBegin
  2
*Paper_Space
 70
     0
 10
0.0
 20
0.0
 30
0.0
  3
*Paper_Space
  1

  0
ENDBLK
  5
1D
330
1B
100
AcDbEntity
 67
     1
  8
0
100
AcDbBlockEnd
  0
BLOCK
  5
24
330
23
100
AcDbEntity
  8
0
100
AcDbBlockBegin
  2
*Paper_Space0
 70
     0
 10
0.0
 20
0.0
 30
0.0
  3
*Paper_Space0
  1

  0
ENDBLK
  5
25
330
23
100
AcDbEntity
  8
0
100
AcDbBlockEnd
  0
ENDSEC
  0
SECTION
  2
ENTITIES
  0
LINE
  5
44
330
1F
100
AcDbEntity
  8
0
  6
Continuous
 62
     7
100
AcDbLine
 10
289.9909548115
 20
166.144048544
 30
0.0
 11
289.4861476781
 21
167.2266109349
 31
0.0
  0
LINE
  5
45
330
1F
100
AcDbEntity
  8
0
  6
Continuous
 62
     7
100
AcDbLine
 10
297.2769804506
 20
150.5191161379
 30
0.0
 11
296.2673661839
 21
152.6842409197
 31
0.0
  0
LINE
  5
46
330
1F
100
AcDbEntity
  8
0
  6
Continuous
 62
     7
100
AcDbLine
 10
297.0245768839
 20
151.0603973333
 30
0.0
 11
296.5197697506
 21
152.1429597242
 31
0.0
  0
LINE
  5
47
330
1F
100
AcDbEntity
  8
0
  6
CENTERX2
 62
     7
100
AcDbLine
 10
296.7361777776
 20
149.3126696295
 30
0.0
 11
297.1568503887
 21
148.4105343037
 31
0.0
  0
LINE
  5
48
330
1F
100
AcDbEntity
  8
0
  6
CENTERX2
 62
     7
100
AcDbLine
 10
288.4528598475
 20
167.0763022554
 30
0.0
 11
288.8735324586
 21
166.1741669296
 31
0.0
  0
LINE
  5
49
330
1F
100
AcDbEntity
  8
0
  6
Continuous
 62
     7
370
    15
100
AcDbLine
 10
127.2260200261
 20
189.0726499691
 30
0.0
 11
127.2260200261
 21
190.9726499691
 31
0.0
  0
LINE
  5
4A
330
1F
100
AcDbEntity
  8
0
  6
Continuous
 62
     7
370
    15
100
AcDbLine
 10
123.4260200261
 20
190.9726499691
 30
0.0
 11
123.4260200261
 21
189.0726499691
 31
0.0
  0
ARC
  5
4B
330
1F
100
AcDbEntity
  8
0
  6
Continuous
 62
     7
370
    15
100
AcDbCircle
 10
123.8260200261
 20
190.9726499691
 30
0.0
 40
0.4000000000000341
100
AcDbArc
 50
90.0
 51
180.0
  0
ARC
  5
4C
330
1F
100
AcDbEntity
  8
0
  6
Continuous
 62
     7
370
    15
100
AcDbCircle
 10
126.8260200261
 20
190.9726499691
 30
0.0
 40
0.4000000000000341
100
AcDbArc
 50
0.0
 51
90.0
  0
ARC
  5
4D
330
1F
100
AcDbEntity
  8
0
  6
Continuous
 62
     7
370
    15
100
AcDbCircle
 10
291.2930328949
 20
164.2982137162
 30
0.0
 40
0.4000000000000157
100
AcDbArc
 50
205.0
 51
292.0
  0
ARC
  5
4E
330
1F
100
AcDbEntity
  8
0
  6
Continuous
 62
     7
370
    15
100
AcDbCircle
 10
295.3329134028
 20
155.6346620091
 30
0.0
 40
0.4000000000000277
100
AcDbArc
 50
118.0
 51
205.0
  0
LINE
  5
4F
330
1F
100
AcDbEntity
  8
0
  6
Continuous
 62
     7
370
    15
100
AcDbLine
 10
295.1451247776
 20
155.9878410463
 30
0.0
 11
295.4067161779
 21
156.126931661
 31
0.0
  0
LINE
  5
50
330
1F
100
AcDbEntity
  8
0
  6
Continuous
 62
     7
370
    15
100
AcDbLine
 10
291.7175728357
 20
164.0383250891
 30
0.0
 11
291.4428755323
 21
163.9273401744
 31
0.0
  0
LINE
  5
51
330
1F
100
AcDbEntity
  8
0
  6
Continuous
 62
     7
370
    15
100
AcDbLine
 10
297.5381796496
 20
147.5927710647
 30
0.0
 11
297.6265955799
 21
147.6397826488
 31
0.0
  0
LINE
  5
52
330
1F
100
AcDbEntity
  8
0
  6
Continuous
 62
     7
370
    15
100
AcDbLine
 10
296.2335071231
 20
154.3538727571
 30
0.0
 11
297.7080280878
 21
155.9241555102
 31
0.0
  0
LINE
  5
53
330
1F
100
AcDbEntity
  8
0
  6
Continuous
 62
     7
370
    15
100
AcDbLine
 10
292.890179904
 20
166.2560642824
 30
0.0
 11
290.7394697205
 21
166.1358739886
 31
0.0
  0
LINE
  5
54
330
1F
100
AcDbEntity
  8
0
  6
Continuous
 62
     7
370
    15
100
AcDbLine
 10
297.7080280878
 20
155.9241555102
 30
0.0
 11
300.4880953069
 21
159.1480492452
 31
0.0
  0
LINE
  5
55
330
1F
100
AcDbEntity
  8
0
  6
Continuous
 62
     7
370
    15
100
AcDbLine
 10
292.9901708208
 20
166.2574120803
 30
0.0
 11
292.890179904
 21
166.2560642824
 31
0.0
  0
ARC
  5
56
330
1F
100
AcDbEntity
  8
0
  6
Continuous
 62
     7
370
    15
100
AcDbCircle
 10
300.3366330301
 20
159.2786600362
 30
0.0
 40
0.2000000000000154
100
AcDbArc
 50
319.227745318
 51
25.0
  0
ARC
  5
57
330
1F
100
AcDbEntity
  8
0
  6
Continuous
 62
     7
370
    15
100
AcDbCircle
 10
151.1483495523
 20
116.0926499691
 30
0.0
 40
0.4000000000000341
100
AcDbArc
 50
270.0
 51
0.0
  0
ARC
  5
58
330
1F
100
AcDbEntity
  8
0
  6
Continuous
 62
     7
370
    15
100
AcDbCircle
 10
140.5483495523
 20
116.0926499691
 30
0.0
 40
0.4000000000000057
100
AcDbArc
 50
180.0
 51
270.0
  0
LINE
  5
59
330
1F
100
AcDbEntity
  8
0
  6
Continuous
 62
     7
370
    15
100
AcDbLine
 10
151.5483495523
 20
116.0926499691
 30
0.0
 11
151.5483495523
 21
116.8926499691
 31
0.0
  0
LINE
  5
5A
330
1F
100
AcDbEntity
  8
0
  6
Continuous
 62
     7
370
    15
100
AcDbLine
 10
140.1483495523
 20
116.8926499691
 30
0.0
 11
140.1483495523
 21
116.0926499691
 31
0.0
  0
LINE
  5
5B
330
1F
100
AcDbEntity
  8
0
  6
Continuous
 62
     7
370
    15
100
AcDbLine
 10
267.3483495523
 20
116.0926499691
 30
0.0
 11
267.3483495523
 21
116.8926499691
 31
0.0
  0
LINE
  5
5C
330
1F
100
AcDbEntity
  8
0
  6
Continuous
 62
     7
370
    15
100
AcDbLine
 10
255.9483495523
 20
116.8926499691
 30
0.0
 11
255.9483495523
 21
116.0926499691
 31
0.0
  0
ARC
  5
5D
330
1F
100
AcDbEntity
  8
0
  6
Continuous
 62
     7
370
    15
100
AcDbCircle
 10
266.9483495523
 20
116.0926499691
 30
0.0
 40
0.4000000000000341
100
AcDbArc
 50
270.0
 51
0.0
  0
ARC
  5
5E
330
1F
100
AcDbEntity
  8
0
  6
Continuous
 62
     7
370
    15
100
AcDbCircle
 10
256.3483495523
 20
116.0926499691
 30
0.0
 40
0.4000000000000057
100
AcDbArc
 50
180.0
 51
270.0
  0
LINE
  5
5F
330
1F
100
AcDbEntity
  8
0
  6
Continuous
 62
     7
370
    15
100
AcDbLine
 10
267.3083495523
 20
116.8926499691
 30
0.0
 11
267.3083495523
 21
122.6926499691
 31
0.0
  0
LINE
  5
60
330
1F
100
AcDbEntity
  8
0
  6
Continuous
 62
     7
370
    15
100
AcDbLine
 10
255.9883495523
 20
122.6926499691
 30
0.0
 11
255.9883495523
 21
116.8926499691
 31
0.0
  0
LINE
  5
61
330
1F
100
AcDbEntity
  8
0
  6
Continuous
 62
     7
370
    15
100
AcDbLine
 10
151.5083495523
 20
116.8926499691
 30
0.0
 11
151.5083495523
 21
122.6926499691
 31
0.0
  0
LINE
  5
62
330
1F
100
AcDbEntity
  8
0
  6
Continuous
 62
     7
370
    15
100
AcDbLine
 10
140.1883495523
 20
122.6926499691
 30
0.0
 11
140.1883495523
 21
116.8926499691
 31
0.0
  0
ARC
  5
63
330
1F
100
AcDbEntity
  8
0
  6
Continuous
 62
     7
370
    15
100
AcDbCircle
 10
152.5283495523
 20
134.9926499691
 30
0.0
 40
0.2999999999999829
100
AcDbArc
 50
90.0
 51
180.0
  0
ARC
  5
64
330
1F
100
AcDbEntity
  8
0
  6
Continuous
 62
     7
370
    15
100
AcDbCircle
 10
139.1683495523
 20
134.9926499691
 30
0.0
 40
0.3000000000000114
100
AcDbArc
 50
0.0
 51
90.0
  0
LINE
  5
65
330
1F
100
AcDbEntity
  8
0
  6
Continuous
 62
     7
370
    15
100
AcDbLine
 10
152.2283495523
 20
123.8991631583
 30
0.0
 11
152.2283495523
 21
134.9926499691
 31
0.0
  0
LINE
  5
66
330
1F
100
AcDbEntity
  8
0
  6
Continuous
 62
     7
370
    15
100
AcDbLine
 10
139.4683495523
 20
134.9926499691
 30
0.0
 11
139.4683495523
 21
123.8991631583
 31
0.0
  0
ARC
  5
67
330
1F
100
AcDbEntity
  8
0
  6
Continuous
 62
     7
370
    15
100
AcDbCircle
 10
151.2883495523
 20
123.8991631583
 30
0.0
 40
0.9400000000000025
100
AcDbArc
 50
350.5402980318
 51
0.0
  0
ARC
  5
68
330
1F
100
AcDbEntity
  8
0
  6
Continuous
 62
     7
370
    15
100
AcDbCircle
 10
140.4083495523
 20
123.8991631583
 30
0.0
 40
0.9400000000000305
100
AcDbArc
 50
180.0
 51
189.4597019682
  0
LINE
  5
69
330
1F
100
AcDbEntity
  8
0
  6
Continuous
 62
     7
370
    15
100
AcDbLine
 10
139.4811321977
 20
123.7446705134
 30
0.0
 11
139.6564195082
 21
122.6926499691
 31
0.0
  0
LINE
  5
6A
330
1F
100
AcDbEntity
  8
0
  6
Continuous
 62
     7
370
    15
100
AcDbLine
 10
152.0402795964
 20
122.6926499691
 30
0.0
 11
152.2155669069
 21
123.7446705134
 31
0.0
  0
ARC
  5
6B
330
1F
100
AcDbEntity
  8
0
  6
Continuous
 62
     7
370
    15
100
AcDbCircle
 10
268.3283495523
 20
134.9926499691
 30
0.0
 40
0.3000000000000114
100
AcDbArc
 50
90.0
 51
180.0
  0
ARC
  5
6C
330
1F
100
AcDbEntity
  8
0
  6
Continuous
 62
     7
370
    15
100
AcDbCircle
 10
254.9683495523
 20
134.9926499691
 30
0.0
 40
0.3000000000000114
100
AcDbArc
 50
0.0
 51
90.0
  0
LINE
  5
6D
330
1F
100
AcDbEntity
  8
0
  6
Continuous
 62
     7
370
    15
100
AcDbLine
 10
268.0283495523
 20
123.8991631583
 30
0.0
 11
268.0283495523
 21
134.9926499691
 31
0.0
  0
LINE
  5
6E
330
1F
100
AcDbEntity
  8
0
  6
Continuous
 62
     7
370
    15
100
AcDbLine
 10
255.2683495523
 20
134.9926499691
 30
0.0
 11
255.2683495523
 21
123.8991631583
 31
0.0
  0
ARC
  5
6F
330
1F
100
AcDbEntity
  8
0
  6
Continuous
 62
     7
370
    15
100
AcDbCircle
 10
267.0883495523
 20
123.8991631583
 30
0.0
 40
0.9400000000000048
100
AcDbArc
 50
350.5402980318
 51
0.0
  0
ARC
  5
70
330
1F
100
AcDbEntity
  8
0
  6
Continuous
 62
     7
370
    15
100
AcDbCircle
 10
256.2083495523
 20
123.8991631583
 30
0.0
 40
0.9400000000000328
100
AcDbArc
 50
180.0
 51
189.4597019682
  0
LINE
  5
71
330
1F
100
AcDbEntity
  8
0
  6
Continuous
 62
     7
370
    15
100
AcDbLine
 10
255.2811321977
 20
123.7446705134
 30
0.0
 11
255.4564195082
 21
122.6926499691
 31
0.0
  0
LINE
  5
72
330
1F
100
AcDbEntity
  8
0
  6
Continuous
 62
     7
370
    15
100
AcDbLine
 10
267.8402795964
 20
122.6926499691
 30
0.0
 11
268.0155669069
 21
123.7446705134
 31
0.0
  0
LINE
  5
73
330
1F
100
AcDbEntity
  8
0
  6
Continuous
 62
     7
370
    15
100
AcDbLine
 10
123.8260202067
 20
191.3726499691
 30
0.0
 11
126.8260200261
 21
191.3726499691
 31
0.0
  0
LINE
  5
74
330
1F
100
AcDbEntity
  8
0
  6
Continuous
 62
     7
370
    15
100
AcDbLine
 10
136.5260200261
 20
185.5726499691
 30
0.0
 11
136.5260200261
 21
188.7726499691
 31
0.0
  0
LINE
  5
75
330
1F
100
AcDbEntity
  8
0
  6
Continuous
 62
     7
370
    15
100
AcDbLine
 10
136.5260200261
 20
188.7726499691
 30
0.0
 11
136.6260200261
 21
188.7726499691
 31
0.0
  0
LINE
  5
76
330
1F
100
AcDbEntity
  8
0
  6
Continuous
 62
     7
370
    15
100
AcDbLine
 10
136.6260200261
 20
188.7726499691
 30
0.0
 11
136.6260200261
 21
185.5726499691
 31
0.0
  0
LINE
  5
77
330
1F
100
AcDbEntity
  8
0
  6
Continuous
 62
     7
370
    15
100
AcDbLine
 10
136.6260200261
 20
185.5726499691
 30
0.0
 11
136.5260200261
 21
185.5726499691
 31
0.0
  0
LINE
  5
78
330
1F
100
AcDbEntity
  8
0
  6
Continuous
 62
     7
370
    15
100
AcDbLine
 10
136.0260200261
 20
185.4726499691
 30
0.0
 11
135.9260200261
 21
185.5726499691
 31
0.0
  0
LINE
  5
79
330
1F
100
AcDbEntity
  8
0
  6
Continuous
 62
     7
370
    15
100
AcDbLine
 10
135.9260200261
 20
185.5726499691
 30
0.0
 11
136.5260200261
 21
185.5726499691
 31
0.0
  0
LINE
  5
7A
330
1F
100
AcDbEntity
  8
0
  6
Continuous
 62
     7
370
    15
100
AcDbLine
 10
136.5260200261
 20
185.4726499691
 30
0.0
 11
136.5260200261
 21
185.5726499691
 31
0.0
  0
ARC
  5
7B
330
1F
100
AcDbEntity
  8
0
  6
Continuous
 62
     7
370
    15
100
AcDbCircle
 10
136.5260200261
 20
185.5726499691
 30
0.0
 40
0.0999999999999943
100
AcDbArc
 50
270.0
 51
0.0
  0
ARC
  5
7C
330
1F
100
AcDbEntity
  8
0
  6
Continuous
 62
     7
370
    15
100
AcDbCircle
 10
136.4260200261
 20
188.7726499691
 30
0.0
 40
0.1000000000000227
100
AcDbArc
 50
0.0
 51
90.0
  0
LINE
  5
7D
330
1F
100
AcDbEntity
  8
0
  6
Continuous
 62
     7
370
    15
100
AcDbLine
 10
136.4260200261
 20
188.8726499691
 30
0.0
 11
136.4260200261
 21
188.9726499691
 31
0.0
  0
ARC
  5
7E
330
1F
100
AcDbEntity
  8
0
  6
Continuous
 62
     7
370
    15
100
AcDbCircle
 10
136.4260200261
 20
188.7726499691
 30
0.0
 40
0.2000000000000171
100
AcDbArc
 50
0.0
 51
90.0
  0
ARC
  5
7F
330
1F
100
AcDbEntity
  8
0
  6
Continuous
 62
     7
370
    15
100
AcDbCircle
 10
133.0260200261
 20
188.7726499691
 30
0.0
 40
0.1000000000000227
100
AcDbArc
 50
90.0
 51
180.0
  0
LINE
  5
80
330
1F
100
AcDbEntity
  8
0
  6
Continuous
 62
     7
370
    15
100
AcDbLine
 10
136.4260200261
 20
188.8726499691
 30
0.0
 11
133.0260200261
 21
188.8726499691
 31
0.0
  0
LINE
  5
81
330
1F
100
AcDbEntity
  8
0
  6
Continuous
 62
     7
370
    15
100
AcDbLine
 10
132.8260200261
 20
188.2226499691
 30
0.0
 11
132.8260200261
 21
188.7726499691
 31
0.0
  0
LINE
  5
82
330
1F
100
AcDbEntity
  8
0
  6
Continuous
 62
     7
370
    15
100
AcDbLine
 10
132.9260200261
 20
188.7726499691
 30
0.0
 11
132.8260200261
 21
188.7726499691
 31
0.0
  0
ARC
  5
83
330
1F
100
AcDbEntity
  8
0
  6
Continuous
 62
     7
370
    15
100
AcDbCircle
 10
133.0260200261
 20
188.7726499691
 30
0.0
 40
0.2000000000000171
100
AcDbArc
 50
90.0
 51
180.0
  0
LINE
  5
84
330
1F
100
AcDbEntity
  8
0
  6
Continuous
 62
     7
370
    15
100
AcDbLine
 10
133.0260200261
 20
188.8726499691
 30
0.0
 11
133.0260200261
 21
188.9726499691
 31
0.0
  0
LINE
  5
85
330
1F
100
AcDbEntity
  8
0
  6
Continuous
 62
     7
370
    15
100
AcDbLine
 10
133.0260200261
 20
188.9726499691
 30
0.0
 11
136.4260200261
 21
188.9726499691
 31
0.0
  0
LINE
  5
86
330
1F
100
AcDbEntity
  8
0
  6
Continuous
 62
     7
370
    15
100
AcDbLine
 10
118.7260200261
 20
189.0726499691
 30
0.0
 11
119.5597121562
 21
198.6017946208
 31
0.0
  0
ARC
  5
87
330
1F
100
AcDbEntity
  8
0
  6
Continuous
 62
     7
370
    15
100
AcDbCircle
 10
119.7589510958
 20
197.4486540889
 30
0.0
 40
1.170226149729935
100
AcDbArc
 50
80.1972507075
 51
99.8027492925
  0
LINE
  5
88
330
1F
100
AcDbEntity
  8
0
  6
Continuous
 62
     7
370
    15
100
AcDbLine
 10
119.9581900354
 20
198.6017946208
 30
0.0
 11
119.1244979053
 21
189.0726499691
 31
0.0
  0
LINE
  5
89
330
1F
100
AcDbEntity
  8
0
  6
Continuous
 62
     7
370
    15
100
AcDbLine
 10
131.5275421468
 20
189.0726499691
 30
0.0
 11
130.9405497369
 21
195.7820039156
 31
0.0
  0
ARC
  5
8A
330
1F
100
AcDbEntity
  8
0
  6
Continuous
 62
     7
370
    15
100
AcDbCircle
 10
131.1397886765
 20
194.6288633837
 30
0.0
 40
1.170226149728683
100
AcDbArc
 50
80.1972507075
 51
99.8027492925
  0
LINE
  5
8B
330
1F
100
AcDbEntity
  8
0
  6
Continuous
 62
     7
370
    15
100
AcDbLine
 10
131.3390276162
 20
195.7820039156
 30
0.0
 11
131.9260200261
 21
189.0726499691
 31
0.0
  0
LINE
  5
8C
330
1F
100
AcDbEntity
  8
0
  6
Continuous
 62
     7
370
    15
100
AcDbLine
 10
130.9405497369
 20
195.7820039156
 30
0.0
 11
119.9581900354
 21
198.6017946208
 31
0.0
  0
ARC
  5
8D
330
1F
100
AcDbEntity
  8
0
  6
Continuous
 62
     7
370
    15
100
AcDbCircle
 10
123.9375788269
 20
197.6693507898
 30
0.0
 40
4.087173430594274
100
AcDbArc
 50
161.6752935119
 51
166.812465909
  0
LINE
  5
8E
330
1F
100
AcDbEntity
  8
0
  6
Continuous
 62
     7
370
    15
100
AcDbLine
 10
120.0576659903
 20
198.9543655882
 30
0.0
 11
131.0400256918
 21
196.134574883
 31
0.0
  0
ARC
  5
8F
330
1F
100
AcDbEntity
  8
0
  6
Continuous
 62
     7
370
    15
100
AcDbCircle
 10
134.9199385284
 20
194.8495600846
 30
0.0
 40
4.087173430591188
100
AcDbArc
 50
161.6752935119
 51
166.812465909
  0
ARC
  5
90
330
1F
100
AcDbEntity
  8
0
  6
Continuous
 62
     7
370
    15
100
AcDbCircle
 10
130.9405497369
 20
195.7471416185
 30
0.0
 40
0.3999999999999986
100
AcDbArc
 50
5.0
 51
75.6
  0
ARC
  5
91
330
1F
100
AcDbEntity
  8
0
  6
Continuous
 62
     7
370
    15
100
AcDbCircle
 10
119.9581900354
 20
198.5669323237
 30
0.0
 40
0.4000000000000057
100
AcDbArc
 50
75.6
 51
175.0
  0
LINE
  5
92
330
1F
100
AcDbEntity
  8
0
  6
Continuous
 62
     7
370
    15
100
AcDbLine
 10
289.1029763915
 20
172.8753756404
 30
0.0
 11
289.0353574697
 21
173.0203848863
 31
0.0
  0
LINE
  5
93
330
1F
100
AcDbEntity
  8
0
  6
Continuous
 62
     7
370
    15
100
AcDbLine
 10
289.0353574697
 20
173.0203848863
 30
0.0
 11
289.3978805845
 21
173.189432191
 31
0.0
  0
LINE
  5
94
330
1F
100
AcDbEntity
  8
0
  6
Continuous
 62
     7
370
    15
100
AcDbLine
 10
289.3978805845
 20
173.189432191
 30
0.0
 11
289.4654995063
 21
173.0444229451
 31
0.0
  0
LINE
  5
95
330
1F
100
AcDbEntity
  8
0
  6
Continuous
 62
     7
370
    15
100
AcDbLine
 10
289.4654995063
 20
173.0444229451
 30
0.0
 11
289.1029763915
 21
172.8753756404
 31
0.0
  0
LINE
  5
96
330
1F
100
AcDbEntity
  8
0
  6
Continuous
 62
     7
370
    15
100
AcDbLine
 10
279.8291852131
 20
135.6326499691
 30
0.0
 11
279.8291852131
 21
135.4726499691
 31
0.0
  0
LINE
  5
97
330
1F
100
AcDbEntity
  8
0
  6
Continuous
 62
     7
370
    15
100
AcDbLine
 10
279.4291852131
 20
135.4726499691
 30
0.0
 11
279.4291852131
 21
135.6326499691
 31
0.0
  0
LINE
  5
98
330
1F
100
AcDbEntity
  8
0
  6
Continuous
 62
     7
370
    15
100
AcDbLine
 10
279.4291852131
 20
135.6326499691
 30
0.0
 11
279.8291852131
 21
135.6326499691
 31
0.0
  0
LINE
  5
99
330
1F
100
AcDbEntity
  8
0
  6
Continuous
 62
     7
370
    15
100
AcDbLine
 10
279.8291852131
 20
135.4726499691
 30
0.0
 11
279.4291852131
 21
135.4726499691
 31
0.0
  0
LINE
  5
9A
330
1F
100
AcDbEntity
  8
0
  6
Continuous
 62
     7
370
    15
100
AcDbLine
 10
291.5550446915
 20
135.4726499691
 30
0.0
 11
291.5550446915
 21
135.6326499691
 31
0.0
  0
LINE
  5
9B
330
1F
100
AcDbEntity
  8
0
  6
Continuous
 62
     7
370
    15
100
AcDbLine
 10
279.8291852131
 20
135.6326499691
 30
0.0
 11
291.5550446915
 21
135.6326499691
 31
0.0
  0
LINE
  5
9C
330
1F
100
AcDbEntity
  8
0
  6
Continuous
 62
     7
370
    15
100
AcDbLine
 10
279.8291852131
 20
135.4726499691
 30
0.0
 11
291.5550446915
 21
135.4726499691
 31
0.0
  0
LINE
  5
9D
330
1F
100
AcDbEntity
  8
0
  6
Continuous
 62
     7
370
    15
100
AcDbLine
 10
286.5067587438
 20
171.8412799361
 30
0.0
 11
286.5743776657
 21
171.6962706901
 31
0.0
  0
LINE
  5
9E
330
1F
100
AcDbEntity
  8
0
  6
Continuous
 62
     7
370
    15
100
AcDbLine
 10
286.5067587438
 20
171.8412799361
 30
0.0
 11
289.0353574697
 21
173.0203848863
 31
0.0
  0
LINE
  5
9F
330
1F
100
AcDbEntity
  8
0
  6
Continuous
 62
     7
370
    15
100
AcDbLine
 10
286.5743776657
 20
171.6962706901
 30
0.0
 11
289.1029763915
 21
172.8753756404
 31
0.0
  0
LINE
  5
A0
330
1F
100
AcDbEntity
  8
0
  6
Continuous
 62
     7
370
    15
100
AcDbLine
 10
297.6348292096
 20
145.5597945238
 30
0.0
 11
297.4898199637
 21
145.6274134456
 31
0.0
  0
LINE
  5
A1
330
1F
100
AcDbEntity
  8
0
  6
Continuous
 62
     7
370
    15
100
AcDbLine
 10
293.5126695115
 20
136.7197945238
 30
0.0
 11
297.6348292096
 21
145.5597945238
 31
0.0
  0
LINE
  5
A2
330
1F
100
AcDbEntity
  8
0
  6
Continuous
 62
     7
370
    15
100
AcDbLine
 10
293.3676602656
 20
136.7874134456
 30
0.0
 11
293.5126695115
 21
136.7197945238
 31
0.0
  0
LINE
  5
A3
330
1F
100
AcDbEntity
  8
0
  6
Continuous
 62
     7
370
    15
100
AcDbLine
 10
293.3676602656
 20
136.7874134456
 30
0.0
 11
297.4898199637
 21
145.6274134456
 31
0.0
  0
LINE
  5
A4
330
1F
100
AcDbEntity
  8
0
  6
Continuous
 62
     7
370
    15
100
AcDbLine
 10
286.4534552844
 20
171.3640391779
 30
0.0
 11
286.3084460385
 21
171.2964202561
 31
0.0
  0
LINE
  5
A5
330
1F
100
AcDbEntity
  8
0
  6
Continuous
 62
     7
370
    15
100
AcDbLine
 10
297.4898199637
 20
147.3178864926
 30
0.0
 11
297.6348292096
 21
147.3855054145
 31
0.0
  0
LINE
  5
A6
330
1F
100
AcDbEntity
  8
0
  6
Continuous
 62
     7
370
    15
100
AcDbLine
 10
297.6348292096
 20
147.3855054145
 30
0.0
 11
286.4534552844
 21
171.3640391779
 31
0.0
  0
LINE
  5
A7
330
1F
100
AcDbEntity
  8
0
  6
Continuous
 62
     7
370
    15
100
AcDbLine
 10
297.4898199637
 20
147.3178864926
 30
0.0
 11
286.3084460385
 21
171.2964202561
 31
0.0
  0
ARC
  5
A8
330
1F
100
AcDbEntity
  8
0
  6
Continuous
 62
     7
370
    15
100
AcDbCircle
 10
295.6772043896
 20
146.4726499691
 30
0.0
 40
2.160000000000034
100
AcDbArc
 50
335.0
 51
25.0
  0
ARC
  5
A9
330
1F
100
AcDbEntity
  8
0
  6
Continuous
 62
     7
370
    15
100
AcDbCircle
 10
295.6772043896
 20
146.4726499691
 30
0.0
 40
1.999999999999987
100
AcDbArc
 50
335.0
 51
25.0
  0
ARC
  5
AA
330
1F
100
AcDbEntity
  8
0
  6
Continuous
 62
     7
370
    15
100
AcDbCircle
 10
291.5550446915
 20
137.6326499691
 30
0.0
 40
2.000000000000027
100
AcDbArc
 50
270.0
 51
335.0
  0
ARC
  5
AB
330
1F
100
AcDbEntity
  8
0
  6
Continuous
 62
     7
370
    15
100
AcDbCircle
 10
291.5550446915
 20
137.6326499691
 30
0.0
 40
2.160000000000022
100
AcDbArc
 50
270.0
 51
335.0
  0
ARC
  5
AC
330
1F
100
AcDbEntity
  8
0
  6
Continuous
 62
     7
370
    15
100
AcDbCircle
 10
286.6800322311
 20
171.4696937434
 30
0.0
 40
0.2500000000000154
100
AcDbArc
 50
115.0
 51
205.0
  0
ARC
  5
AD
330
1F
100
AcDbEntity
  8
0
  6
Continuous
 62
     7
370
    15
100
AcDbCircle
 10
286.6800322311
 20
171.4696937434
 30
0.0
 40
0.4100000000000106
100
AcDbArc
 50
115.0
 51
205.0
  0
LINE
  5
AE
330
1F
100
AcDbEntity
  8
0
  6
Continuous
 62
     7
370
    15
100
AcDbLine
 10
290.2656862579
 20
164.6579393915
 30
0.0
 11
289.6934216498
 21
164.415908885
 31
0.0
  0
LINE
  5
AF
330
1F
100
AcDbEntity
  8
0
  6
Continuous
 62
     7
370
    15
100
AcDbLine
 10
294.9481135683
 20
154.6164416197
 30
0.0
 11
290.2656862579
 21
164.6579393915
 31
0.0
  0
LINE
  5
B0
330
1F
100
AcDbEntity
  8
0
  6
Continuous
 62
     7
370
    15
100
AcDbLine
 10
294.3948628442
 20
154.3336357074
 30
0.0
 11
294.9481135683
 21
154.6164416197
 31
0.0
  0
LINE
  5
B1
330
1F
100
AcDbEntity
  8
0
  6
Continuous
 62
     7
370
    15
100
AcDbLine
 10
290.765953361
 20
164.4820587911
 30
0.0
 11
295.1349467071
 21
155.1127223248
 31
0.0
  0
ARC
  5
B2
330
1F
100
AcDbEntity
  8
0
  6
Continuous
 62
     7
370
    15
100
AcDbCircle
 10
294.7806590384
 20
154.9627912433
 30
0.0
 40
0.3847064873037567
100
AcDbArc
 50
295.8030276957
 51
22.9376068066
  0
ARC
  5
B3
330
1F
100
AcDbEntity
  8
0
  6
Continuous
 62
     7
370
    15
100
AcDbCircle
 10
290.4233677655
 20
164.3070325327
 30
0.0
 40
0.3847064873036215
100
AcDbArc
 50
27.0623931934
 51
114.1969723043
  0
SPLINE
  5
B4
330
1F
100
AcDbEntity
  8
0
  6
Continuous
 62
     7
370
    15
100
AcDbSpline
210
0.0
220
0.0
230
1.0
 70
     8
 71
     3
 72
    11
 73
     7
 74
     0
 42
0.00000001
 43
0.00000001
 12
1.0
 22
0.0
 32
0.0
 13
1.0
 23
0.0
 33
0.0
 40
0.0
 40
0.0
 40
0.0
 40
0.0
 40
0.2835227646035643
 40
0.5667788824161025
 40
0.84993022272677
 40
1.0
 40
1.0
 40
1.0
 40
1.0
 10
294.948113568259
 20
154.6164416196918
 30
0.0
 10
294.9581104059786
 20
154.5982174102446
 30
0.0
 10
294.9780946796167
 20
154.5617861308097
 30
0.0
 10
295.0244399558631
 20
154.4638373563382
 30
0.0
 10
295.0685928137453
 20
154.3651652890528
 30
0.0
 10
295.0955072622695
 20
154.3021795241228
 30
0.0
 10
295.1048305503816
 20
154.2803609669685
 30
0.0
  0
LWPOLYLINE
  5
B5
330
1F
100
AcDbEntity
  8
0
  6
Continuous
 62
     7
370
    15
100
AcDbPolyline
 90
        3
 70
   128
 43
0.0
 10
295.1048305504
 20
154.280360967
 10
295.0061135915
 20
154.2299957798
 10
294.5513627786
 20
153.998020515
  0
LWPOLYLINE
  5
B6
330
1F
100
AcDbEntity
  8
0
  6
Continuous
 62
     7
370
    15
100
AcDbPolyline
 90
        3
 70
   128
 43
0.0
 10
289.5369217154
 20
164.7515240775
 10
290.006933266
 20
164.9507725847
 10
290.1089692758
 20
164.9940200442
  0
SPLINE
  5
B7
330
1F
100
AcDbEntity
  8
0
  6
Continuous
 62
     7
370
    15
100
AcDbSpline
210
0.0
220
0.0
230
1.0
 70
     8
 71
     3
 72
    11
 73
     7
 74
     0
 42
0.00000001
 43
0.00000001
 12
1.0
 22
0.0
 32
0.0
 13
1.0
 23
0.0
 33
0.0
 40
0.0
 40
0.0
 40
0.0
 40
0.0
 40
0.2835227523786686
 40
0.5667788888047269
 40
0.849930221887433
 40
1.0
 40
1.0
 40
1.0
 40
1.0
 10
290.1089692757929
 20
164.9940200442294
 30
0.0
 10
290.1292145847952
 20
164.953817594537
 30
0.0
 10
290.1696861647428
 20
164.8734505002817
 30
0.0
 10
290.2206224040795
 20
164.7656576634358
 30
0.0
 10
290.2520663328893
 20
164.6942405761113
 30
0.0
 10
290.262182107306
 20
164.6672790037293
 30
0.0
 10
290.2656862579186
 20
164.6579393915073
 30
0.0
  0
LINE
  5
B8
330
1F
100
AcDbEntity
  8
0
  6
Continuous
 62
     7
370
    15
100
AcDbLine
 10
295.4483806713
 20
154.4405610193
 30
0.0
 11
295.1048305504
 21
154.280360967
 31
0.0
  0
SPLINE
  5
B9
330
1F
100
AcDbEntity
  8
0
  6
Continuous
 62
     7
370
    15
100
AcDbSpline
210
0.0
220
0.0
230
1.0
 70
    24
 71
     3
 72
    11
 73
     7
 74
     0
 42
0.00000001
 43
0.00000001
 12
1.0
 22
0.0
 32
0.0
 13
1.0
 23
0.0
 33
0.0
 40
0.0
 40
0.0
 40
0.0
 40
0.0
 40
0.1499516226907157
 40
0.4331749578253687
 40
0.7165923401617
 40
1.0
 40
1.0
 40
1.0
 40
1.0
 10
295.4483806713223
 20
154.4405610193232
 30
0.0
 10
295.4283560062233
 20
154.4835040522089
 30
0.0
 10
295.3705094600902
 20
154.6075563707188
 30
0.0
 10
295.2792418388811
 20
154.8032804160201
 30
0.0
 10
295.1876885417707
 20
154.9996170952689
 30
0.0
 10
295.1525271176055
 20
155.0750210127262
 30
0.0
 10
295.134946707077
 20
155.1127223247699
 30
0.0
  0
LINE
  5
BA
330
1F
100
AcDbEntity
  8
0
  6
Continuous
 62
     7
370
    15
100
AcDbLine
 10
290.4525193967
 20
165.1542200966
 30
0.0
 11
290.1089692758
 21
164.9940200442
 31
0.0
  0
SPLINE
  5
BB
330
1F
100
AcDbEntity
  8
0
  6
Continuous
 62
     7
370
    15
100
AcDbSpline
210
0.0
220
0.0
230
1.0
 70
    24
 71
     3
 72
    11
 73
     7
 74
     0
 42
0.00000001
 43
0.00000001
 12
1.0
 22
0.0
 32
0.0
 13
1.0
 23
0.0
 33
0.0
 40
0.0
 40
0.0
 40
0.0
 40
0.0
 40
0.1499515950756872
 40
0.4331749432232079
 40
0.7165923323728141
 40
1.0
 40
1.0
 40
1.0
 40
1.0
 10
290.7659533609788
 20
164.4820587911375
 30
0.0
 10
290.7575216578969
 20
164.5001406367483
 30
0.0
 10
290.7331644478123
 20
164.552374842339
 30
0.0
 10
290.667177146032
 20
164.6938850676727
 30
0.0
 10
290.5665115352197
 20
164.9097631667168
 30
0.0
 10
290.4905163417687
 20
165.0727353849982
 30
0.0
 10
290.4525193967336
 20
165.1542200965841
 30
0.0
  0
LINE
  5
BC
330
1F
100
AcDbEntity
  8
0
  6
Continuous
 62
     7
370
    15
100
AcDbLine
 10
287.8276703124
 20
168.4417735371
 30
0.0
 11
287.9108052567
 21
168.4753622349
 31
0.0
  0
SPLINE
  5
BD
330
1F
100
AcDbEntity
  8
0
  6
Continuous
 62
     7
370
    15
100
AcDbSpline
210
0.0
220
0.0
230
1.0
 70
     8
 71
     3
 72
    14
 73
    10
 74
     0
 42
0.00000001
 43
0.00000001
 12
1.0
 22
0.0
 32
0.0
 13
1.0
 23
0.0
 33
0.0
 40
0.0
 40
0.0
 40
0.0
 40
0.0
 40
0.0000064140457977
 40
0.0730558909548036
 40
0.2154935957733521
 40
0.4037789030075337
 40
0.5887468703998119
 40
0.8882363243876842
 40
1.0
 40
1.0
 40
1.0
 40
1.0
 10
287.9108052567461
 20
168.475362234907
 30
0.0
 10
287.9108089647401
 20
168.4753637330073
 30
0.0
 10
287.9530429632559
 20
168.4924270750216
 30
0.0
 10
288.0832459504136
 20
168.5296554995966
 30
0.0
 10
288.3388321308783
 20
168.5308285595421
 30
0.0
 10
288.6531545255643
 20
168.4360208804932
 30
0.0
 10
288.9914887441722
 20
168.1746545045166
 30
0.0
 10
289.1900522466452
 20
167.8523374175627
 30
0.0
 10
289.3010777292145
 20
167.6215176106045
 30
0.0
 10
289.3312504260901
 20
167.5587891638816
 30
0.0
  0
LINE
  5
BE
330
1F
100
AcDbEntity
  8
0
  6
Continuous
 62
     7
370
    15
100
AcDbLine
 10
289.3312504261
 20
167.5587891639
 30
0.0
 11
288.9877003051
 21
167.3985891115
 31
0.0
  0
SPLINE
  5
BF
330
1F
100
AcDbEntity
  8
0
  6
Continuous
 62
     7
370
    15
100
AcDbSpline
210
0.0
220
0.0
230
1.0
 70
     8
 71
     3
 72
    13
 73
     9
 74
     0
 42
0.00000001
 43
0.00000001
 12
1.0
 22
0.0
 32
0.0
 13
1.0
 23
0.0
 33
0.0
 40
0.0
 40
0.0
 40
0.0
 40
0.0
 40
0.2359779310481726
 40
0.4700664405346262
 40
0.628156754547111
 40
0.7867756990089757
 40
0.8916100492377196
 40
0.9999999999999999
 40
0.9999999999999999
 40
0.9999999999999999
 40
0.9999999999999999
 10
288.9877003051494
 20
167.3985891115268
 30
0.0
 10
288.941769386814
 20
167.4949167329475
 30
0.0
 10
288.8502753085477
 20
167.6868007024579
 30
0.0
 10
288.6872896237776
 20
167.9229873134769
 30
0.0
 10
288.4886292281394
 20
168.0808992403265
 30
0.0
 10
288.302441610339
 20
168.1358874942875
 30
0.0
 10
288.1308808554822
 20
168.1391811198034
 30
0.0
 10
288.0417801659125
 20
168.0997778249332
 30
0.0
 10
287.996486926303
 20
168.0797476446442
 30
0.0
  0
SPLINE
  5
C0
330
1F
100
AcDbEntity
  8
0
  6
Continuous
 62
     7
370
    15
100
AcDbSpline
210
0.0
220
0.0
230
1.0
 70
     8
 71
     3
 72
    15
 73
    11
 74
     0
 42
0.00000001
 43
0.00000001
 12
1.0
 22
0.0
 32
0.0
 13
1.0
 23
0.0
 33
0.0
 40
0.0
 40
0.0
 40
0.0
 40
0.0
 40
0.0125258353877867
 40
0.2274813526119545
 40
0.4424404199769163
 40
0.4999991763207135
 40
0.7148755009569838
 40
0.9297495265588456
 40
0.9874741646146632
 40
0.9999999999999999
 40
0.9999999999999999
 40
0.9999999999999999
 40
0.9999999999999999
 10
287.996486926303
 20
168.0797476446442
 30
0.0
 10
287.9954464009299
 20
168.0821391322299
 30
0.0
 10
287.9765494481924
 20
168.125570872623
 30
0.0
 10
287.939251277634
 20
168.2101736861812
 30
0.0
 10
287.9023048957553
 20
168.2917172485444
 30
0.0
 10
287.8707855887243
 20
168.3597095298951
 30
0.0
 10
287.8448211182994
 20
168.4138818889917
 30
0.0
 10
287.8311305390647
 20
168.438834341314
 30
0.0
 10
287.8281319168429
 20
168.4418442711073
 30
0.0
 10
287.8277409970422
 20
168.4417845776264
 30
0.0
 10
287.8276712950625
 20
168.4417739341292
 30
0.0
  0
LINE
  5
C1
330
1F
100
AcDbEntity
  8
0
  6
Continuous
 62
     7
370
    15
100
AcDbLine
 10
287.9964869263
 20
168.0797476446
 30
0.0
 11
287.9870069343
 21
168.0753270518
 31
0.0
  0
LINE
  5
C2
330
1F
100
AcDbEntity
  8
0
  6
Continuous
 62
     7
370
    15
100
AcDbLine
 10
290.1089692758
 20
164.9940200442
 30
0.0
 11
288.9877003051
 21
167.3985891115
 31
0.0
  0
SPLINE
  5
C3
330
1F
100
AcDbEntity
  8
0
  6
Continuous
 62
     7
370
    15
100
AcDbSpline
210
0.0
220
0.0
230
1.0
 70
     8
 71
     3
 72
     9
 73
     5
 74
     0
 42
0.00000001
 43
0.00000001
 12
1.0
 22
0.0
 32
0.0
 13
1.0
 23
0.0
 33
0.0
 40
0.0
 40
0.0
 40
0.0
 40
0.0
 40
0.0000220488581531
 40
1.0
 40
1.0
 40
1.0
 40
1.0
 10
297.8375044271878
 20
149.3170685909159
 30
0.0
 10
297.8375061176601
 20
149.3170649656842
 30
0.0
 10
297.9141754947623
 20
149.152646852075
 30
0.0
 10
297.9723631069417
 20
148.9804280034758
 30
0.0
 10
298.0305494361506
 20
148.8082129521056
 30
0.0
  0
SPLINE
  5
C4
330
1F
100
AcDbEntity
  8
0
  6
Continuous
 62
     7
370
    15
100
AcDbSpline
210
0.0
220
0.0
230
1.0
 70
     8
 71
     3
 72
    11
 73
     7
 74
     0
 42
0.00000001
 43
0.00000001
 12
1.0
 22
0.0
 32
0.0
 13
1.0
 23
0.0
 33
0.0
 40
0.0
 40
0.0
 40
0.0
 40
0.0
 40
0.2499768814500224
 40
0.4998058427199973
 40
0.7495361389842347
 40
1.0
 40
1.0
 40
1.0
 40
1.0
 10
298.0305494361506
 20
148.8082129521056
 30
0.0
 10
298.0254795223575
 20
148.8054067678229
 30
0.0
 10
298.0153426948188
 20
148.7997960597763
 30
0.0
 10
297.9323784297218
 20
148.7743432046169
 30
0.0
 10
297.8123721803184
 20
148.7402635267464
 30
0.0
 10
297.714997194429
 20
148.7143456508558
 30
0.0
 10
297.6662382983537
 20
148.7013677078502
 30
0.0
  0
LINE
  5
C5
330
1F
100
AcDbEntity
  8
0
  6
Continuous
 62
     7
370
    15
100
AcDbLine
 10
297.6662382984
 20
148.7013677079
 30
0.0
 11
297.4939543062
 21
149.1568685386
 31
0.0
  0
LINE
  5
C6
330
1F
100
AcDbEntity
  8
0
  6
Continuous
 62
     7
370
    15
100
AcDbLine
 10
297.8375044272
 20
149.3170685909
 30
0.0
 11
297.4939543062
 21
149.1568685386
 31
0.0
  0
LINE
  5
C7
330
1F
100
AcDbEntity
  8
0
  6
Continuous
 62
     7
370
    15
100
AcDbLine
 10
297.4939543062
 20
149.1568685386
 30
0.0
 11
295.1048305504
 21
154.280360967
 31
0.0
  0
LINE
  5
C8
330
1F
100
AcDbEntity
  8
0
  6
Continuous
 62
     7
370
    15
100
AcDbLine
 10
297.6662382984
 20
148.7013677079
 30
0.0
 11
297.1364345686
 21
148.4543161713
 31
0.0
  0
LINE
  5
C9
330
1F
100
AcDbEntity
  8
0
  6
Continuous
 62
     7
370
    15
100
AcDbLine
 10
287.8276703124
 20
168.4417735371
 30
0.0
 11
287.8179596296
 21
168.4378501666
 31
0.0
  0
SPLINE
  5
CA
330
1F
100
AcDbEntity
  8
0
  6
Continuous
 62
     7
370
    15
100
AcDbSpline
210
0.0
220
0.0
230
1.0
 70
     8
 71
     3
 72
    11
 73
     7
 74
     0
 42
0.00000001
 43
0.00000001
 12
1.0
 22
0.0
 32
0.0
 13
1.0
 23
0.0
 33
0.0
 40
0.0
 40
0.0
 40
0.0
 40
0.0
 40
0.2440033155445693
 40
0.4919416665511683
 40
0.7439093003410298
 40
1.0
 40
1.0
 40
1.0
 40
1.0
 10
297.7932101296218
 20
148.4395369468299
 30
0.0
 10
297.7858216427738
 20
148.4561406964311
 30
0.0
 10
297.7709255151323
 20
148.4896159638945
 30
0.0
 10
297.7403463076901
 20
148.553774670051
 30
0.0
 10
297.7051773014452
 20
148.6253217738961
 30
0.0
 10
297.6792879995425
 20
148.6758822912773
 30
0.0
 10
297.6662382983537
 20
148.7013677078502
 30
0.0
  0
LINE
  5
CB
330
1F
100
AcDbEntity
  8
0
  6
Continuous
 62
     7
370
    15
100
AcDbLine
 10
297.7932101296
 20
148.4395369468
 30
0.0
 11
297.2696822154
 21
148.1685656706
 31
0.0
  0
SPLINE
  5
CC
330
1F
100
AcDbEntity
  8
0
  6
Continuous
 62
     7
370
    15
100
AcDbSpline
210
0.0
220
0.0
230
1.0
 70
     8
 71
     3
 72
    11
 73
     7
 74
     0
 42
0.00000001
 43
0.00000001
 12
1.0
 22
0.0
 32
0.0
 13
1.0
 23
0.0
 33
0.0
 40
0.0
 40
0.0
 40
0.0
 40
0.0
 40
0.2501480011265489
 40
0.5002880311524645
 40
0.750420266847527
 40
1.0
 40
1.0
 40
1.0
 40
1.0
 10
298.0305494361506
 20
148.8082129521056
 30
0.0
 10
298.0348800847743
 20
148.7734469294171
 30
0.0
 10
298.043541244023
 20
148.703915991878
 30
0.0
 10
297.9971135015297
 20
148.5973598002113
 30
0.0
 10
297.9137174865817
 20
148.502335988438
 30
0.0
 10
297.8333496292489
 20
148.4604545253977
 30
0.0
 10
297.7932101296218
 20
148.4395369468299
 30
0.0
  0
LINE
  5
CD
330
1F
100
AcDbEntity
  8
0
  6
Continuous
 62
     7
370
    15
100
AcDbLine
 10
295.4483806713
 20
154.4405610193
 30
0.0
 11
297.8375044272
 21
149.3170685909
 31
0.0
  0
LINE
  5
CE
330
1F
100
AcDbEntity
  8
0
  6
Continuous
 62
     7
370
    15
100
AcDbLine
 10
289.3312504261
 20
167.5587891639
 30
0.0
 11
290.4525193967
 21
165.1542200966
 31
0.0
  0
SPLINE
  5
CF
330
1F
100
AcDbEntity
  8
0
  6
Continuous
 62
     7
370
    15
100
AcDbSpline
210
0.0
220
0.0
230
1.0
 70
     8
 71
     3
 72
    14
 73
    10
 74
     0
 42
0.00000001
 43
0.00000001
 12
1.0
 22
0.0
 32
0.0
 13
1.0
 23
0.0
 33
0.0
 40
0.0
 40
0.0
 40
0.0
 40
0.0
 40
0.0024045749465577
 40
0.0051901321609401
 40
0.0347267574258785
 40
0.2932094380103032
 40
0.5746449636639227
 40
0.7844996086191877
 40
1.0
 40
1.0
 40
1.0
 40
1.0
 10
297.6265955798659
 20
147.6397826487572
 30
0.0
 10
297.6269695658382
 20
147.6399823299568
 30
0.0
 10
297.6277767923401
 20
147.6404133299625
 30
0.0
 10
297.6331694686418
 20
147.6433468267885
 30
0.0
 10
297.6779691316863
 20
147.6699890976961
 30
0.0
 10
297.7600791615544
 20
147.7588373968973
 30
0.0
 10
297.8419048732078
 20
147.9568623712553
 30
0.0
 10
297.8555645031414
 20
148.1883819523869
 30
0.0
 10
297.8141780286465
 20
148.3550810816553
 30
0.0
 10
297.7932101296218
 20
148.4395369468299
 30
0.0
  0
SPLINE
  5
D0
330
1F
100
AcDbEntity
  8
0
  6
Continuous
 62
     7
370
    15
100
AcDbSpline
210
0.0
220
0.0
230
1.0
 70
     8
 71
     3
 72
    20
 73
    16
 74
     0
 42
0.00000001
 43
0.00000001
 12
1.0
 22
0.0
 32
0.0
 13
1.0
 23
0.0
 33
0.0
 40
0.0
 40
0.0
 40
0.0
 40
0.0
 40
0.2070577373168125
 40
0.4203770502760588
 40
0.7011163025568192
 40
0.8834527988431004
 40
0.9282286404934952
 40
0.9524788585968953
 40
0.9675018207221376
 40
0.9773827146382306
 40
0.984093855368542
 40
0.9887393639099429
 40
0.9919933949590715
 40
0.9977340800222594
 40
1.0
 40
1.0
 40
1.0
 40
1.0
 10
298.0305494361506
 20
148.8082129521056
 30
0.0
 10
298.0515225028733
 20
148.7103900576536
 30
0.0
 10
298.0941028770161
 20
148.5117860337127
 30
0.0
 10
298.0544166152912
 20
148.1700345363446
 30
0.0
 10
297.9275992364913
 20
147.9106717720195
 30
0.0
 10
297.7934485333702
 20
147.7571343466418
 30
0.0
 10
297.7113781832699
 20
147.6928291233002
 30
0.0
 10
297.6822815833836
 20
147.6728100274656
 30
0.0
 10
297.6647023553006
 20
147.6616357108759
 30
0.0
 10
297.653167398869
 20
147.6546813642419
 30
0.0
 10
297.6453171391456
 20
147.6501182174318
 30
0.0
 10
297.6398691333591
 20
147.6470313182318
 30
0.0
 10
297.6347520635056
 20
147.6441846593003
 30
0.0
 10
297.6305005831107
 20
147.6418659058717
 30
0.0
 10
297.6274569479181
 20
147.6402421749113
 30
0.0
 10
297.6265955798659
 20
147.6397826487572
 30
0.0
  0
SPLINE
  5
D1
330
1F
100
AcDbEntity
  8
0
  6
Continuous
 62
     7
370
    15
100
AcDbSpline
210
0.0
220
0.0
230
1.0
 70
     8
 71
     3
 72
    10
 73
     6
 74
     0
 42
0.00000001
 43
0.00000001
 12
1.0
 22
0.0
 32
0.0
 13
1.0
 23
0.0
 33
0.0
 40
0.0
 40
0.0
 40
0.0
 40
0.0
 40
0.4527378322259347
 40
0.9055954617464297
 40
1.0
 40
1.0
 40
1.0
 40
1.0
 10
298.0549657845876
 20
148.2488285721377
 30
0.0
 10
298.0564903939572
 20
148.2593284569455
 30
0.0
 10
298.0595400161177
 20
148.2803310048972
 30
0.0
 10
298.0842122195854
 20
148.376864776693
 30
0.0
 10
298.0758081131436
 20
148.4721539327849
 30
0.0
 10
298.0743583769207
 20
148.4885916281185
 30
0.0
  0
SPLINE
  5
D2
330
1F
100
AcDbEntity
  8
0
  6
Continuous
 62
     7
370
    15
100
AcDbSpline
210
0.0
220
0.0
230
1.0
 70
     8
 71
     3
 72
    12
 73
     8
 74
     0
 42
0.00000001
 43
0.00000001
 12
1.0
 22
0.0
 32
0.0
 13
1.0
 23
0.0
 33
0.0
 40
0.0
 40
0.0
 40
0.0
 40
0.0
 40
0.4616906276038975
 40
0.7307729957148758
 40
0.9175829515523191
 40
0.9719359527203711
 40
1.0
 40
1.0
 40
1.0
 40
1.0
 10
298.0263392872722
 20
148.8232901118656
 30
0.0
 10
298.0203365286938
 20
148.8450020798697
 30
0.0
 10
298.0108352444863
 20
148.8793682093786
 30
0.0
 10
297.9965105683703
 20
148.9241880081882
 30
0.0
 10
297.9882123225984
 20
148.9490617581704
 30
0.0
 10
297.9837148786273
 20
148.9621960787707
 30
0.0
 10
297.9823260394775
 20
148.9662136596391
 30
0.0
 10
297.9818531221831
 20
148.9675816967329
 30
0.0
  0
LINE
  5
D3
330
1F
100
AcDbEntity
  8
0
  6
Continuous
 62
     7
370
    15
100
AcDbLine
 10
289.0572824581
 20
168.0110180335
 30
0.0
 11
288.9681599134
 21
168.157995837
 31
0.0
  0
LINE
  5
D4
330
1F
100
AcDbEntity
  8
0
  6
Continuous
 62
     7
370
    15
100
AcDbLine
 10
297.8467407766
 20
149.2971594988
 30
0.0
 11
297.8383339851
 21
149.3152887965
 31
0.0
  0
SPLINE
  5
D5
330
1F
100
AcDbEntity
  8
0
  6
Continuous
 62
     7
370
    15
100
AcDbSpline
210
0.0
220
0.0
230
1.0
 70
     8
 71
     3
 72
    13
 73
     9
 74
     0
 42
0.00000001
 43
0.00000001
 12
1.0
 22
0.0
 32
0.0
 13
1.0
 23
0.0
 33
0.0
 40
0.0
 40
0.0
 40
0.0
 40
0.0
 40
0.1254648118065616
 40
0.2502435788816379
 40
0.3760698054095804
 40
0.5019139201694203
 40
0.7508310514861714
 40
1.0
 40
1.0
 40
1.0
 40
1.0
 10
288.9681599132969
 20
168.1579958371379
 30
0.0
 10
288.9506245188389
 20
168.177450292811
 30
0.0
 10
288.9156496138987
 20
168.2162528267064
 30
0.0
 10
288.8609132074625
 20
168.2681328541562
 30
0.0
 10
288.8075130820574
 20
168.312827287835
 30
0.0
 10
288.7425412789154
 20
168.3605220386415
 30
0.0
 10
288.6760040109671
 20
168.4000342057284
 30
0.0
 10
288.6654210729802
 20
168.4054270457711
 30
0.0
 10
288.6601269287807
 20
168.4081248290206
 30
0.0
  0
SPLINE
  5
D6
330
1F
100
AcDbEntity
  8
0
  6
Continuous
 62
     7
370
    15
100
AcDbSpline
210
0.0
220
0.0
230
1.0
 70
     8
 71
     3
 72
     9
 73
     5
 74
     0
 42
0.00000001
 43
0.00000001
 12
1.0
 22
0.0
 32
0.0
 13
1.0
 23
0.0
 33
0.0
 40
0.0
 40
0.0
 40
0.0
 40
0.0
 40
0.5000138394957061
 40
1.0
 40
1.0
 40
1.0
 40
1.0
 10
297.9403021446225
 20
149.0796324425834
 30
0.0
 10
297.9267082621349
 20
149.1133758416434
 30
0.0
 10
297.8995212496689
 20
149.1808607718485
 30
0.0
 10
297.8643339429763
 20
149.2583939718246
 30
0.0
 10
297.8467407766046
 20
149.2971594987923
 30
0.0
  0
SPLINE
  5
D7
330
1F
100
AcDbEntity
  8
0
  6
Continuous
 62
     7
370
    15
100
AcDbSpline
210
0.0
220
0.0
230
1.0
 70
     8
 71
     3
 72
     9
 73
     5
 74
     0
 42
0.00000001
 43
0.00000001
 12
1.0
 22
0.0
 32
0.0
 13
1.0
 23
0.0
 33
0.0
 40
0.0
 40
0.0
 40
0.0
 40
0.0
 40
0.7838918077678483
 40
1.0
 40
1.0
 40
1.0
 40
1.0
 10
298.0781928841539
 20
148.4470558488832
 30
0.0
 10
298.079435761348
 20
148.4505714157777
 30
0.0
 10
298.0810212826938
 20
148.4550561761229
 30
0.0
 10
298.0763837796996
 20
148.5131588812849
 30
0.0
 10
298.0753815773111
 20
148.5257153518613
 30
0.0
  0
SPLINE
  5
D8
330
1F
100
AcDbEntity
  8
0
  6
Continuous
 62
     7
370
    15
100
AcDbSpline
210
0.0
220
0.0
230
1.0
 70
     8
 71
     3
 72
     9
 73
     5
 74
     0
 42
0.00000001
 43
0.00000001
 12
1.0
 22
0.0
 32
0.0
 13
1.0
 23
0.0
 33
0.0
 40
0.0
 40
0.0
 40
0.0
 40
0.0
 40
0.0370163330248521
 40
1.0
 40
1.0
 40
1.0
 40
1.0
 10
298.0289407648078
 20
148.8124533180605
 30
0.0
 10
298.0284281093636
 20
148.8150283985973
 30
0.0
 10
298.0145786704167
 20
148.8845944610975
 30
0.0
 10
297.9767400846741
 20
148.9839523848374
 30
0.0
 10
297.9403021446225
 20
149.0796324425834
 30
0.0
  0
LINE
  5
D9
330
1F
100
AcDbEntity
  8
0
  6
Continuous
 62
     7
370
    15
100
AcDbLine
 10
297.9818531222
 20
148.9675816966
 30
0.0
 11
297.9480322913
 21
149.0566009499
 31
0.0
  0
LINE
  5
DA
330
1F
100
AcDbEntity
  8
0
  6
Continuous
 62
     7
370
    15
100
AcDbLine
 10
296.2335071231
 20
154.3538727571
 30
0.0
 11
290.7394697205
 21
166.1358739886
 31
0.0
  0
LINE
  5
DB
330
1F
100
AcDbEntity
  8
0
  6
Continuous
 62
     7
370
    15
100
AcDbLine
 10
293.2959121729
 20
165.3859686238
 30
0.0
 11
292.890179904
 21
166.2560642824
 31
0.0
  0
SPLINE
  5
DC
330
1F
100
AcDbEntity
  8
0
  6
Continuous
 62
     7
370
    15
100
AcDbSpline
210
0.0
220
0.0
230
1.0
 70
     8
 71
     3
 72
     9
 73
     5
 74
     0
 42
0.00000001
 43
0.00000001
 12
1.0
 22
0.0
 32
0.0
 13
1.0
 23
0.0
 33
0.0
 40
0.0
 40
0.0
 40
0.0
 40
0.0
 40
0.5209744652335256
 40
1.0
 40
1.0
 40
1.0
 40
1.0
 10
293.2753437278014
 20
165.1325945213629
 30
0.0
 10
293.2598320189662
 20
165.1791537696912
 30
0.0
 10
293.2300576060717
 20
165.2685233097269
 30
0.0
 10
293.2745832517044
 20
165.3479305351909
 30
0.0
 10
293.2959121729144
 20
165.3859686238331
 30
0.0
  0
LINE
  5
DD
330
1F
100
AcDbEntity
  8
0
  6
Continuous
 62
     7
370
    15
100
AcDbLine
 10
297.094978854
 20
156.9413605594
 30
0.0
 11
293.2753437278
 21
165.1325945214
 31
0.0
  0
SPLINE
  5
DE
330
1F
100
AcDbEntity
  8
0
  6
Continuous
 62
     7
370
    15
100
AcDbSpline
210
0.0
220
0.0
230
1.0
 70
     8
 71
     3
 72
     9
 73
     5
 74
     0
 42
0.00000001
 43
0.00000001
 12
1.0
 22
0.0
 32
0.0
 13
1.0
 23
0.0
 33
0.0
 40
0.0
 40
0.0
 40
0.0
 40
0.0
 40
0.4790255347664728
 40
1.0
 40
1.0
 40
1.0
 40
1.0
 10
297.3022958188965
 20
156.7942511688081
 30
0.0
 10
297.2594469861835
 20
156.8023626793128
 30
0.0
 10
297.1699969890473
 20
156.8192960365475
 30
0.0
 10
297.1206745732131
 20
156.8995501931107
 30
0.0
 10
297.0949788539998
 20
156.941360559409
 30
0.0
  0
LINE
  5
DF
330
1F
100
AcDbEntity
  8
0
  6
Continuous
 62
     7
370
    15
100
AcDbLine
 10
297.7080280878
 20
155.9241555102
 30
0.0
 11
297.3022958189
 21
156.7942511688
 31
0.0
  0
LINE
  5
E0
330
1F
100
AcDbEntity
  8
0
  6
Continuous
 62
     7
370
    15
100
AcDbLine
 10
293.4509605911
 20
165.0534662181
 30
0.0
 11
297.1472474007
 21
157.1267535746
 31
0.0
  0
ARC
  5
E1
330
1F
100
AcDbEntity
  8
0
  6
Continuous
 62
     7
370
    15
100
AcDbCircle
 10
296.9947057073
 20
157.0696955841
 30
0.0
 40
0.162863693076146
100
AcDbArc
 50
308.001895257
 51
20.508234223
  0
ARC
  5
E2
330
1F
100
AcDbEntity
  8
0
  6
Continuous
 62
     7
370
    15
100
AcDbCircle
 10
293.309199724
 20
164.9732886707
 30
0.0
 40
0.1628636930762214
100
AcDbArc
 50
29.491765777
 51
101.998104743
  0
SPLINE
  5
E3
330
1F
100
AcDbEntity
  8
0
  6
Continuous
 62
     7
370
    15
100
AcDbSpline
210
0.0
220
0.0
230
1.0
 70
     8
 71
     3
 72
     9
 73
     5
 74
     0
 42
0.00000001
 43
0.00000001
 12
1.0
 22
0.0
 32
0.0
 13
1.0
 23
0.0
 33
0.0
 40
0.0
 40
0.0
 40
0.0
 40
0.0
 40
0.5315589426747965
 40
1.0
 40
1.0
 40
1.0
 40
1.0
 10
297.1472474007305
 20
157.1267535745792
 30
0.0
 10
297.1677669244266
 20
157.0925353892437
 30
0.0
 10
297.2063694613209
 20
157.0281621230106
 30
0.0
 10
297.2714516080452
 20
157.0165773745408
 30
0.0
 10
297.3019387576696
 20
157.0111506027187
 30
0.0
  0
SPLINE
  5
E4
330
1F
100
AcDbEntity
  8
0
  6
Continuous
 62
     7
370
    15
100
AcDbSpline
210
0.0
220
0.0
230
1.0
 70
     8
 71
     3
 72
    12
 73
     8
 74
     0
 42
0.00000001
 43
0.00000001
 12
1.0
 22
0.0
 32
0.0
 13
1.0
 23
0.0
 33
0.0
 40
0.0
 40
0.0
 40
0.0
 40
0.0
 40
0.0304717459459235
 40
0.0888135668585908
 40
0.3925556175487384
 40
0.6962774394174133
 40
1.0
 40
1.0
 40
1.0
 40
1.0
 10
297.3019387576697
 20
157.0111506027187
 30
0.0
 10
297.3028792877124
 20
157.009249400516
 30
0.0
 10
297.3056205755917
 20
157.0037081181344
 30
0.0
 10
297.3165864358747
 20
156.97835916261
 30
0.0
 10
297.3280046113751
 20
156.9307298396055
 30
0.0
 10
297.3262927329224
 20
156.861693243768
 30
0.0
 10
297.310308650856
 20
156.8208219410264
 30
0.0
 10
297.3023166001036
 20
156.8003862648038
 30
0.0
  0
SPLINE
  5
E5
330
1F
100
AcDbEntity
  8
0
  6
Continuous
 62
     7
370
    15
100
AcDbSpline
210
0.0
220
0.0
230
1.0
 70
     8
 71
     3
 72
    10
 73
     6
 74
     0
 42
0.00000001
 43
0.00000001
 12
1.0
 22
0.0
 32
0.0
 13
1.0
 23
0.0
 33
0.0
 40
0.0
 40
0.0
 40
0.0
 40
0.0
 40
0.2117958997116893
 40
0.4880069094703494
 40
1.0
 40
1.0
 40
1.0
 40
1.0
 10
297.3023166001036
 20
156.8003862648038
 30
0.0
 10
297.302093599329
 20
156.7998382210546
 30
0.0
 10
297.3015797748454
 20
156.7985754528109
 30
0.0
 10
297.3014989789745
 20
156.7963421411791
 30
0.0
 10
297.301982038389
 20
156.7950745542253
 30
0.0
 10
297.3022958188964
 20
156.794251168808
 30
0.0
  0
SPLINE
  5
E6
330
1F
100
AcDbEntity
  8
0
  6
Continuous
 62
     7
370
    15
100
AcDbSpline
210
0.0
220
0.0
230
1.0
 70
     8
 71
     3
 72
    12
 73
     8
 74
     0
 42
0.00000001
 43
0.00000001
 12
1.0
 22
0.0
 32
0.0
 13
1.0
 23
0.0
 33
0.0
 40
0.0
 40
0.0
 40
0.0
 40
0.0
 40
0.0304717459515778
 40
0.0888135668586363
 40
0.3925556175487442
 40
0.6962774394174069
 40
1.0
 40
1.0
 40
1.0
 40
1.0
 10
293.4618372644447
 20
165.2462748303987
 30
0.0
 10
293.4609854201198
 20
165.2482173874311
 30
0.0
 10
293.4585026174268
 20
165.2538792034343
 30
0.0
 10
293.4461329100293
 20
165.2785735342995
 30
0.0
 10
293.4169861935478
 20
165.317935902875
 30
0.0
 10
293.3630007186766
 20
165.361000396319
 30
0.0
 10
293.3214171144236
 20
165.3750274460676
 30
0.0
 10
293.3006252870123
 20
165.382040979471
 30
0.0
  0
SPLINE
  5
E7
330
1F
100
AcDbEntity
  8
0
  6
Continuous
 62
     7
370
    15
100
AcDbSpline
210
0.0
220
0.0
230
1.0
 70
     8
 71
     3
 72
     9
 73
     5
 74
     0
 42
0.00000001
 43
0.00000001
 12
1.0
 22
0.0
 32
0.0
 13
1.0
 23
0.0
 33
0.0
 40
0.0
 40
0.0
 40
0.0
 40
0.0
 40
0.4684410573252052
 40
1.0
 40
1.0
 40
1.0
 40
1.0
 10
293.4618372644447
 20
165.2462748303987
 30
0.0
 10
293.4463976508099
 20
165.2194320571545
 30
0.0
 10
293.413438085474
 20
165.1621297075324
 30
0.0
 10
293.4379376359392
 20
165.0911801107245
 30
0.0
 10
293.4509605910804
 20
165.053466218062
 30
0.0
  0
SPLINE
  5
E8
330
1F
100
AcDbEntity
  8
0
  6
Continuous
 62
     7
370
    15
100
AcDbSpline
210
0.0
220
0.0
230
1.0
 70
     8
 71
     3
 72
    11
 73
     7
 74
     0
 42
0.00000001
 43
0.00000001
 12
1.0
 22
0.0
 32
0.0
 13
1.0
 23
0.0
 33
0.0
 40
0.0
 40
0.0
 40
0.0
 40
0.0
 40
0.370432093787767
 40
0.7442498469289406
 40
0.9442480537680769
 40
1.0
 40
1.0
 40
1.0
 40
1.0
 10
293.2959121729144
 20
165.3859686238332
 30
0.0
 10
293.2962100861463
 20
165.3854112111217
 30
0.0
 10
293.2968086354648
 20
165.384291291082
 30
0.0
 10
293.2982620715291
 20
165.3829509127729
 30
0.0
 10
293.2997666865024
 20
165.3822679337818
 30
0.0
 10
293.3004716166211
 20
165.3820815992439
 30
0.0
 10
293.3006252870123
 20
165.382040979471
 30
0.0
  0
SPLINE
  5
E9
330
1F
100
AcDbEntity
  8
0
  6
Continuous
 62
     7
370
    15
100
AcDbSpline
210
0.0
220
0.0
230
1.0
 70
     8
 71
     3
 72
    11
 73
     7
 74
     0
 42
0.00000001
 43
0.00000001
 12
1.0
 22
0.0
 32
0.0
 13
1.0
 23
0.0
 33
0.0
 40
0.0
 40
0.0
 40
0.0
 40
0.0
 40
0.3658281109894512
 40
0.7252591430831351
 40
0.9820690181776814
 40
0.9999999999999999
 40
0.9999999999999999
 40
0.9999999999999999
 40
0.9999999999999999
 10
293.9604800603759
 20
165.3557415928699
 30
0.0
 10
293.8844257669068
 20
165.3574334533297
 30
0.0
 10
293.7336471087001
 20
165.3607875894127
 30
0.0
 10
293.5623381804178
 20
165.3211581308342
 30
0.0
 10
293.4860939425749
 20
165.273361812436
 30
0.0
 10
293.4633233864321
 20
165.2479343552256
 30
0.0
 10
293.4618372644447
 20
165.2462748303987
 30
0.0
  0
LINE
  5
EA
330
1F
100
AcDbEntity
  8
0
  6
Continuous
 62
     7
370
    15
100
AcDbLine
 10
293.9604800604
 20
165.3557415929
 30
0.0
 11
297.7063165737
 21
157.3227692671
 31
0.0
  0
SPLINE
  5
EB
330
1F
100
AcDbEntity
  8
0
  6
Continuous
 62
     7
370
    15
100
AcDbSpline
210
0.0
220
0.0
230
1.0
 70
     8
 71
     3
 72
    11
 73
     7
 74
     0
 42
0.00000001
 43
0.00000001
 12
1.0
 22
0.0
 32
0.0
 13
1.0
 23
0.0
 33
0.0
 40
0.0
 40
0.0
 40
0.0
 40
0.0
 40
0.2357948537758644
 40
0.2749019968044816
 40
0.6342531696138358
 40
1.0
 40
1.0
 40
1.0
 40
1.0
 10
297.3019387576697
 20
157.0111506027187
 30
0.0
 10
297.3323944562813
 20
157.0157871249972
 30
0.0
 10
297.3679013056818
 20
157.0211926256356
 30
0.0
 10
297.4547130612931
 20
157.0636716029629
 30
0.0
 10
297.5645099890575
 20
157.1456708561887
 30
0.0
 10
297.6587705732977
 20
157.2633903522475
 30
0.0
 10
297.706316573651
 20
157.322769267054
 30
0.0
  0
LINE
  5
EC
330
1F
100
AcDbEntity
  8
0
  6
Continuous
 62
     7
370
    15
100
AcDbLine
 10
300.1969385482
 20
159.7724369293
 30
0.0
 11
297.8746550897
 21
157.1477080819
 31
0.0
  0
SPLINE
  5
ED
330
1F
100
AcDbEntity
  8
0
  6
Continuous
 62
     7
370
    15
100
AcDbSpline
210
0.0
220
0.0
230
1.0
 70
     8
 71
     3
 72
    10
 73
     6
 74
     0
 42
0.00000001
 43
0.00000001
 12
1.0
 22
0.0
 32
0.0
 13
1.0
 23
0.0
 33
0.0
 40
0.0
 40
0.0
 40
0.0
 40
0.0
 40
0.3554439450437161
 40
0.7142330220663375
 40
1.0
 40
1.0
 40
1.0
 40
1.0
 10
297.8746550897069
 20
157.1477080818685
 30
0.0
 10
297.8060593234548
 20
157.0792598597387
 30
0.0
 10
297.6682222267357
 20
156.9417192398223
 30
0.0
 10
297.4632458454971
 20
156.8179193227283
 30
0.0
 10
297.3517491761996
 20
156.8057718876465
 30
0.0
 10
297.3023166001036
 20
156.8003862648038
 30
0.0
  0
ARC
  5
EE
330
1F
100
AcDbEntity
  8
0
  6
Continuous
 62
     7
370
    15
100
AcDbCircle
 10
297.1924873862
 20
156.6602044611
 30
0.0
 40
0.8384584401572728
100
AcDbArc
 50
35.5510775205
 51
52.205872348
  0
SPLINE
  5
EF
330
1F
100
AcDbEntity
  8
0
  6
Continuous
 62
     7
370
    15
100
AcDbSpline
210
0.0
220
0.0
230
1.0
 70
     8
 71
     3
 72
    12
 73
     8
 74
     0
 42
0.00000001
 43
0.00000001
 12
1.0
 22
0.0
 32
0.0
 13
1.0
 23
0.0
 33
0.0
 40
0.0
 40
0.0
 40
0.0
 40
0.0
 40
0.2238925571850149
 40
0.4477848984197608
 40
0.6716824862031741
 40
0.8955821585468999
 40
0.9999999999999999
 40
0.9999999999999999
 40
0.9999999999999999
 40
0.9999999999999999
 10
293.0369430205914
 20
166.2578151962141
 30
0.0
 10
293.0313694683651
 20
166.2577480974635
 30
0.0
 10
293.0202223692886
 20
166.2576139000269
 30
0.0
 10
293.0058300760832
 20
166.257493217549
 30
0.0
 10
292.9953515825572
 20
166.2574274793882
 30
0.0
 10
292.9906845137085
 20
166.2574086416918
 30
0.0
 10
292.9902947815222
 20
166.2574106521515
 30
0.0
 10
292.9901708314071
 20
166.2574112915565
 30
0.0
  0
LINE
  5
F0
330
1F
100
AcDbEntity
  8
0
  6
Continuous
 62
     7
370
    15
100
AcDbLine
 10
293.0369430206
 20
166.2578151962
 30
0.0
 11
296.8559091258
 21
166.2994327046
 31
0.0
  0
LINE
  5
F1
330
1F
100
AcDbEntity
  8
0
  6
Continuous
 62
     7
370
    15
100
AcDbLine
 10
296.8559091258
 20
166.2994327046
 30
0.0
 11
297.1516363971
 21
166.3031084673
 31
0.0
  0
LINE
  5
F2
330
1F
100
AcDbEntity
  8
0
  6
Continuous
 62
     7
370
    15
100
AcDbLine
 10
297.4379753062
 20
165.6890526952
 30
0.0
 11
297.1516363971
 21
166.3031084673
 31
0.0
  0
LINE
  5
F3
330
1F
100
AcDbEntity
  8
0
  6
Continuous
 62
     7
370
    15
100
AcDbLine
 10
293.9345813246
 20
165.5972235384
 30
0.0
 11
297.4379753062
 21
165.6890526952
 31
0.0
  0
SPLINE
  5
F4
330
1F
100
AcDbEntity
  8
0
  6
Continuous
 62
     7
370
    15
100
AcDbSpline
210
0.0
220
0.0
230
1.0
 70
     8
 71
     3
 72
    10
 73
     6
 74
     0
 42
0.00000001
 43
0.00000001
 12
1.0
 22
0.0
 32
0.0
 13
1.0
 23
0.0
 33
0.0
 40
0.0
 40
0.0
 40
0.0
 40
0.0
 40
0.2857669779336481
 40
0.6445560549562793
 40
1.0
 40
1.0
 40
1.0
 40
1.0
 10
293.3006252870123
 20
165.382040979471
 30
0.0
 10
293.3365255608931
 20
165.4164467180647
 30
0.0
 10
293.4174997135814
 20
165.4940499012463
 30
0.0
 10
293.6440922302685
 20
165.5714938662765
 30
0.0
 10
293.8380544357848
 20
165.5886738019629
 30
0.0
 10
293.9345813246125
 20
165.5972235384318
 30
0.0
  0
ARC
  5
F5
330
1F
100
AcDbEntity
  8
0
  6
Continuous
 62
     7
370
    15
100
AcDbCircle
 10
293.1226429374
 20
165.388014047
 30
0.0
 40
0.838458440157298
100
AcDbArc
 50
357.794127652
 51
14.4489224795
  0
LINE
  5
F6
330
1F
100
AcDbEntity
  8
0
  6
Continuous
 62
     7
370
    15
100
AcDbLine
 10
297.7063165737
 20
157.3227692671
 30
0.0
 11
300.0410334784
 21
159.9208345029
 31
0.0
  0
ARC
  5
F7
330
1F
100
AcDbEntity
  8
0
  6
Continuous
 62
     7
370
    15
100
AcDbCircle
 10
299.3432417001
 20
159.031646169
 30
0.0
 40
1.130296093512619
100
AcDbArc
 50
40.9496313682
 51
51.8769008127
  0
LINE
  5
F8
330
1F
100
AcDbEntity
  8
0
  6
Continuous
 62
     7
370
    15
100
AcDbLine
 10
297.4514405956
 20
165.4742343613
 30
0.0
 11
293.9604800604
 21
165.3557415929
 31
0.0
  0
ARC
  5
F9
330
1F
100
AcDbEntity
  8
0
  6
Continuous
 62
     7
370
    15
100
AcDbCircle
 10
296.3217509043
 20
165.5112540907
 30
0.0
 40
1.130296093510063
100
AcDbArc
 50
358.1230991873
 51
9.0503686318
  0
LINE
  5
FA
330
1F
100
AcDbEntity
  8
0
  6
Continuous
 62
     7
370
    15
100
AcDbLine
 10
300.0410334784
 20
159.9208345029
 30
0.0
 11
297.4514405956
 21
165.4742343613
 31
0.0
  0
ARC
  5
FB
330
1F
100
AcDbEntity
  8
0
  6
Continuous
 62
     7
370
    15
100
AcDbCircle
 10
300.1809179924
 20
159.7281318924
 30
0.0
 40
0.2381217615817289
100
AcDbArc
 50
75.5914088265
 51
125.9762263586
  0
ARC
  5
FC
330
1F
100
AcDbEntity
  8
0
  6
Continuous
 62
     7
370
    15
100
AcDbCircle
 10
300.0850158051
 20
159.8965847354
 30
0.0
 40
0.1671507647681029
100
AcDbArc
 50
312.0355498025
 51
21.8386162464
  0
ARC
  5
FD
330
1F
100
AcDbEntity
  8
0
  6
Continuous
 62
     7
370
    15
100
AcDbCircle
 10
297.3937378641
 20
165.7052589662
 30
0.0
 40
0.2381217615810187
100
AcDbArc
 50
284.0237736413
 51
334.4085911735
  0
ARC
  5
FE
330
1F
100
AcDbEntity
  8
0
  6
Continuous
 62
     7
370
    15
100
AcDbCircle
 10
297.4611354907
 20
165.5235142283
 30
0.0
 40
0.1671507647678827
100
AcDbArc
 50
28.1613837536
 51
97.9644501976
  0
LINE
  5
FF
330
1F
100
AcDbEntity
  8
0
  6
Continuous
 62
     7
370
    15
100
AcDbLine
 10
297.6084992391
 20
165.6024021477
 30
0.0
 11
300.240171049
 21
159.9587637389
 31
0.0
  0
LINE
  5
100
330
1F
100
AcDbEntity
  8
0
  6
Continuous
 62
     7
370
    15
100
AcDbLine
 10
300.240171049
 20
159.9587637389
 30
0.0
 11
300.5178945875
 21
159.3631836885
 31
0.0
  0
LINE
  5
101
330
1F
100
AcDbEntity
  8
0
  6
Continuous
 62
     7
370
    15
100
AcDbLine
 10
297.3358273089
 20
166.187148989
 30
0.0
 11
297.6084992391
 21
165.6024021477
 31
0.0
  0
SPLINE
  5
102
330
1F
100
AcDbEntity
  8
0
  6
Continuous
 62
     7
370
    15
100
AcDbSpline
210
0.0
220
0.0
230
1.0
 70
     8
 71
     3
 72
    11
 73
     7
 74
     0
 42
0.00000001
 43
0.00000001
 12
1.0
 22
0.0
 32
0.0
 13
1.0
 23
0.0
 33
0.0
 40
0.0
 40
0.0
 40
0.0
 40
0.0
 40
0.2933118760927483
 40
0.5865991201419741
 40
0.8805021461502818
 40
1.0
 40
1.0
 40
1.0
 40
1.0
 10
297.151636397114
 20
166.3031084672733
 30
0.0
 10
297.174176570851
 20
166.3011743824009
 30
0.0
 10
297.2192550254235
 20
166.2973063750785
 30
0.0
 10
297.2794063213647
 20
166.2634655005142
 30
0.0
 10
297.317095933284
 20
166.2233454050951
 30
0.0
 10
297.3316269626739
 20
166.1952657169751
 30
0.0
 10
297.3358273089017
 20
166.1871489890469
 30
0.0
  0
LINE
  5
103
330
1F
100
AcDbEntity
  8
0
  6
Continuous
 62
     7
370
    15
100
AcDbLine
 10
295.4260200261
 20
185.0726499691
 30
0.0
 11
295.4260200261
 21
185.4726499691
 31
0.0
  0
LINE
  5
104
330
1F
100
AcDbEntity
  8
0
  6
Continuous
 62
     7
370
    15
100
AcDbLine
 10
283.6260200261
 20
185.0726499691
 30
0.0
 11
295.4260200261
 21
185.0726499691
 31
0.0
  0
LINE
  5
105
330
1F
100
AcDbEntity
  8
0
  6
Continuous
 62
     7
370
    15
100
AcDbLine
 10
283.6260200261
 20
185.0726499691
 30
0.0
 11
283.6260200261
 21
185.4726499691
 31
0.0
  0
LINE
  5
106
330
1F
100
AcDbEntity
  8
0
  6
Continuous
 62
     7
370
    15
100
AcDbLine
 10
283.6260200261
 20
185.4726499691
 30
0.0
 11
295.4260200261
 21
185.4726499691
 31
0.0
  0
LINE
  5
107
330
1F
100
AcDbEntity
  8
0
  6
Continuous
 62
     7
370
    15
100
AcDbLine
 10
297.601158715
 20
182.058366141
 30
0.0
 11
294.7104498046
 21
175.8592208776
 31
0.0
  0
LINE
  5
108
330
1F
100
AcDbEntity
  8
0
  6
Continuous
 62
     7
370
    15
100
AcDbLine
 10
294.3479266898
 20
176.0282681823
 30
0.0
 11
294.7104498046
 21
175.8592208776
 31
0.0
  0
LINE
  5
109
330
1F
100
AcDbEntity
  8
0
  6
Continuous
 62
     7
370
    15
100
AcDbLine
 10
297.2386356001
 20
182.2274134456
 30
0.0
 11
294.3479266898
 21
176.0282681823
 31
0.0
  0
LINE
  5
10A
330
1F
100
AcDbEntity
  8
0
  6
Continuous
 62
     7
370
    15
100
AcDbLine
 10
297.2386356001
 20
182.2274134456
 30
0.0
 11
297.601158715
 21
182.058366141
 31
0.0
  0
ARC
  5
10B
330
1F
100
AcDbEntity
  8
0
  6
Continuous
 62
     7
370
    15
100
AcDbCircle
 10
292.5353111158
 20
176.8735047058
 30
0.0
 40
2.400000000000015
100
AcDbArc
 50
295.0
 51
335.0
  0
LINE
  5
10C
330
1F
100
AcDbEntity
  8
0
  6
Continuous
 62
     7
370
    15
100
AcDbLine
 10
293.3805476392
 20
175.0608891317
 30
0.0
 11
293.5495949439
 21
174.6983660169
 31
0.0
  0
ARC
  5
10D
330
1F
100
AcDbEntity
  8
0
  6
Continuous
 62
     7
370
    15
100
AcDbCircle
 10
292.5353111158
 20
176.8735047058
 30
0.0
 40
2.000000000000027
100
AcDbArc
 50
295.0
 51
335.0
  0
LINE
  5
10E
330
1F
100
AcDbEntity
  8
0
  6
Continuous
 62
     7
370
    15
100
AcDbLine
 10
289.8640734255
 20
173.4211302762
 30
0.0
 11
290.0331207302
 21
173.0586071614
 31
0.0
  0
LINE
  5
10F
330
1F
100
AcDbEntity
  8
0
  6
Continuous
 62
     7
370
    15
100
AcDbLine
 10
290.0331207302
 20
173.0586071614
 30
0.0
 11
289.6705976154
 21
172.8895598567
 31
0.0
  0
LINE
  5
110
330
1F
100
AcDbEntity
  8
0
  6
Continuous
 62
     7
370
    15
100
AcDbLine
 10
289.6705976154
 20
172.8895598567
 30
0.0
 11
289.5015503107
 21
173.2520829715
 31
0.0
  0
LINE
  5
111
330
1F
100
AcDbEntity
  8
0
  6
Continuous
 62
     7
370
    15
100
AcDbLine
 10
289.5015503107
 20
173.2520829715
 30
0.0
 11
289.8640734255
 21
173.4211302762
 31
0.0
  0
ARC
  5
112
330
1F
100
AcDbEntity
  8
0
  6
Continuous
 62
     7
370
    15
100
AcDbCircle
 10
295.4260200261
 20
183.0726499691
 30
0.0
 40
2.400000000000006
100
AcDbArc
 50
335.0
 51
90.0
  0
ARC
  5
113
330
1F
100
AcDbEntity
  8
0
  6
Continuous
 62
     7
370
    15
100
AcDbCircle
 10
295.4260200261
 20
183.0726499691
 30
0.0
 40
2.0
100
AcDbArc
 50
335.0
 51
90.0
  0
LINE
  5
114
330
1F
100
AcDbEntity
  8
0
  6
Continuous
 62
     7
370
    15
100
AcDbLine
 10
293.5495949439
 20
174.6983660169
 30
0.0
 11
290.0331207302
 21
173.0586071614
 31
0.0
  0
LINE
  5
115
330
1F
100
AcDbEntity
  8
0
  6
Continuous
 62
     7
370
    15
100
AcDbLine
 10
293.3805476392
 20
175.0608891317
 30
0.0
 11
289.8640734255
 21
173.4211302762
 31
0.0
  0
LINE
  5
116
330
1F
100
AcDbEntity
  8
0
  6
Continuous
 62
     7
370
    15
100
AcDbLine
 10
132.8260200261
 20
185.0726499691
 30
0.0
 11
283.6260200261
 21
185.0726499691
 31
0.0
  0
LINE
  5
117
330
1F
100
AcDbEntity
  8
0
  6
Continuous
 62
     7
370
    15
100
AcDbLine
 10
132.8260200261
 20
185.0726499691
 30
0.0
 11
132.8260200261
 21
185.4726499691
 31
0.0
  0
LINE
  5
118
330
1F
100
AcDbEntity
  8
0
  6
Continuous
 62
     7
370
    15
100
AcDbLine
 10
132.8260200261
 20
185.4726499691
 30
0.0
 11
283.6260200261
 21
185.4726499691
 31
0.0
  0
LINE
  5
119
330
1F
100
AcDbEntity
  8
0
  6
Continuous
 62
     7
370
    15
100
AcDbLine
 10
132.8260200261
 20
180.9726499691
 30
0.0
 11
132.8260200261
 21
181.2182521669
 31
0.0
  0
LINE
  5
11A
330
1F
100
AcDbEntity
  8
0
  6
Continuous
 62
     7
370
    15
100
AcDbLine
 10
133.8766799925
 20
180.9726499691
 30
0.0
 11
132.8260200261
 21
180.9726499691
 31
0.0
  0
LINE
  5
11B
330
1F
100
AcDbEntity
  8
0
  6
Continuous
 62
     7
370
    15
100
AcDbLine
 10
210.8153600596
 20
180.9726499691
 30
0.0
 11
211.8766799925
 21
180.9726499691
 31
0.0
  0
LINE
  5
11C
330
1F
100
AcDbEntity
  8
0
  6
Continuous
 62
     7
370
    15
100
AcDbLine
 10
118.6760200261
 20
185.4726499691
 30
0.0
 11
118.6760200261
 21
185.0726499691
 31
0.0
  0
LINE
  5
11D
330
1F
100
AcDbEntity
  8
0
  6
Continuous
 62
     7
370
    15
100
AcDbLine
 10
120.8260200261
 20
185.4726499691
 30
0.0
 11
118.6760200261
 21
185.4726499691
 31
0.0
  0
LINE
  5
11E
330
1F
100
AcDbEntity
  8
0
  6
Continuous
 62
     7
370
    15
100
AcDbLine
 10
120.8260200261
 20
185.4726499691
 30
0.0
 11
120.8260200261
 21
185.0726499691
 31
0.0
  0
LINE
  5
11F
330
1F
100
AcDbEntity
  8
0
  6
Continuous
 62
     7
370
    15
100
AcDbLine
 10
120.8260200261
 20
185.0726499691
 30
0.0
 11
118.6760200261
 21
185.0726499691
 31
0.0
  0
LINE
  5
120
330
1F
100
AcDbEntity
  8
0
  6
Continuous
 62
     7
370
    15
100
AcDbLine
 10
132.4260200261
 20
188.2226499691
 30
0.0
 11
132.8260200261
 21
188.2226499691
 31
0.0
  0
LINE
  5
121
330
1F
100
AcDbEntity
  8
0
  6
Continuous
 62
     7
370
    15
100
AcDbLine
 10
132.8260200261
 20
188.2226499691
 30
0.0
 11
132.8260200261
 21
185.8726499691
 31
0.0
  0
LINE
  5
122
330
1F
100
AcDbEntity
  8
0
  6
Continuous
 62
     7
370
    15
100
AcDbLine
 10
132.4260200261
 20
185.8726499691
 30
0.0
 11
132.8260200261
 21
185.8726499691
 31
0.0
  0
LINE
  5
123
330
1F
100
AcDbEntity
  8
0
  6
Continuous
 62
     7
370
    15
100
AcDbLine
 10
132.4260200261
 20
188.2226499691
 30
0.0
 11
132.4260200261
 21
185.8726499691
 31
0.0
  0
LINE
  5
124
330
1F
100
AcDbEntity
  8
0
  6
Continuous
 62
     7
370
    15
100
AcDbLine
 10
118.6760200261
 20
188.6726499691
 30
0.0
 11
118.6760200261
 21
189.0726499691
 31
0.0
  0
LINE
  5
125
330
1F
100
AcDbEntity
  8
0
  6
Continuous
 62
     7
370
    15
100
AcDbLine
 10
118.2260200261
 20
188.2226499691
 30
0.0
 11
117.8260200261
 21
188.2226499691
 31
0.0
  0
ARC
  5
126
330
1F
100
AcDbEntity
  8
0
  6
Continuous
 62
     7
370
    15
100
AcDbCircle
 10
118.6760200261
 20
188.2226499691
 30
0.0
 40
0.8499999999999943
100
AcDbArc
 50
90.0
 51
180.0
  0
ARC
  5
127
330
1F
100
AcDbEntity
  8
0
  6
Continuous
 62
     7
370
    15
100
AcDbCircle
 10
118.6760200261
 20
188.2226499691
 30
0.0
 40
0.4500000000000171
100
AcDbArc
 50
90.0
 51
180.0
  0
ARC
  5
128
330
1F
100
AcDbEntity
  8
0
  6
Continuous
 62
     7
370
    15
100
AcDbCircle
 10
131.9760200261
 20
188.2226499691
 30
0.0
 40
0.4499999999999886
100
AcDbArc
 50
0.0
 51
90.0
  0
LINE
  5
129
330
1F
100
AcDbEntity
  8
0
  6
Continuous
 62
     7
370
    15
100
AcDbLine
 10
131.9760200261
 20
188.6726499691
 30
0.0
 11
131.9760200261
 21
189.0726499691
 31
0.0
  0
ARC
  5
12A
330
1F
100
AcDbEntity
  8
0
  6
Continuous
 62
     7
370
    15
100
AcDbCircle
 10
131.9760200261
 20
188.2226499691
 30
0.0
 40
0.8499999999999943
100
AcDbArc
 50
0.0
 51
90.0
  0
LINE
  5
12B
330
1F
100
AcDbEntity
  8
0
  6
Continuous
 62
     7
370
    15
100
AcDbLine
 10
117.8260200261
 20
185.9226499691
 30
0.0
 11
117.8260200261
 21
188.2226499691
 31
0.0
  0
LINE
  5
12C
330
1F
100
AcDbEntity
  8
0
  6
Continuous
 62
     7
370
    15
100
AcDbLine
 10
118.2260200261
 20
185.9226499691
 30
0.0
 11
117.8260200261
 21
185.9226499691
 31
0.0
  0
LINE
  5
12D
330
1F
100
AcDbEntity
  8
0
  6
Continuous
 62
     7
370
    15
100
AcDbLine
 10
118.2260200261
 20
185.9226499691
 30
0.0
 11
118.2260200261
 21
188.2226499691
 31
0.0
  0
LINE
  5
12E
330
1F
100
AcDbEntity
  8
0
  6
Continuous
 62
     7
370
    15
100
AcDbLine
 10
132.8260200261
 20
185.4726499691
 30
0.0
 11
132.5314396073
 21
185.4726499691
 31
0.0
  0
LINE
  5
12F
330
1F
100
AcDbEntity
  8
0
  6
Continuous
 62
     7
370
    15
100
AcDbLine
 10
132.8260200261
 20
185.8726499691
 30
0.0
 11
132.8260200261
 21
185.4726499691
 31
0.0
  0
LINE
  5
130
330
1F
100
AcDbEntity
  8
0
  6
Continuous
 62
     7
370
    15
100
AcDbLine
 10
132.4260200261
 20
185.7371775992
 30
0.0
 11
132.4260200261
 21
185.8726499691
 31
0.0
  0
ARC
  5
131
330
1F
100
AcDbEntity
  8
0
  6
Continuous
 62
     7
370
    15
100
AcDbCircle
 10
118.6760200261
 20
185.9226499691
 30
0.0
 40
0.4500000000000171
100
AcDbArc
 50
180.0
 51
270.0
  0
ARC
  5
132
330
1F
100
AcDbEntity
  8
0
  6
Continuous
 62
     7
370
    15
100
AcDbCircle
 10
118.6760200261
 20
185.9226499691
 30
0.0
 40
0.8500000000000227
100
AcDbArc
 50
180.0
 51
270.0
  0
LINE
  5
133
330
1F
100
AcDbEntity
  8
0
  6
Continuous
 62
     7
370
    15
100
AcDbLine
 10
118.6760200261
 20
189.0726499691
 30
0.0
 11
131.9760200261
 21
189.0726499691
 31
0.0
  0
LINE
  5
134
330
1F
100
AcDbEntity
  8
0
  6
Continuous
 62
     7
370
    15
100
AcDbLine
 10
118.6760200261
 20
188.6726499691
 30
0.0
 11
131.9760200261
 21
188.6726499691
 31
0.0
  0
LINE
  5
135
330
1F
100
AcDbEntity
  8
0
  6
Continuous
 62
     7
370
    15
100
AcDbLine
 10
132.4260200261
 20
185.0726499691
 30
0.0
 11
132.4260200261
 21
185.0926499691
 31
0.0
  0
LINE
  5
136
330
1F
100
AcDbEntity
  8
0
  6
Continuous
 62
     7
370
    15
100
AcDbLine
 10
293.1861432388
 20
175.4777907138
 30
0.0
 11
293.3805476392
 21
175.0608891317
 31
0.0
  0
LINE
  5
137
330
1F
100
AcDbEntity
  8
0
  6
Continuous
 62
     7
370
    15
100
AcDbLine
 10
289.5015503107
 20
173.2520829715
 30
0.0
 11
286.3018904449
 21
171.7600570726
 31
0.0
  0
SPLINE
  5
138
330
1F
100
AcDbEntity
  8
0
  6
Continuous
 62
     7
370
    15
100
AcDbSpline
210
0.0
220
0.0
230
1.0
 70
     8
 71
     3
 72
    11
 73
     7
 74
     0
 42
0.00000001
 43
0.00000001
 12
1.0
 22
0.0
 32
0.0
 13
1.0
 23
0.0
 33
0.0
 40
0.0
 40
0.0
 40
0.0
 40
0.0
 40
0.2889759275645127
 40
0.5779517763250721
 40
0.8674414070450548
 40
1.0
 40
1.0
 40
1.0
 40
1.0
 10
286.3018904449195
 20
171.7600570725555
 30
0.0
 10
286.2411848630084
 20
171.7420019956924
 30
0.0
 10
286.1197737157407
 20
171.70589184689
 30
0.0
 10
285.8900701202543
 20
171.7537691198241
 30
0.0
 10
285.6831585607143
 20
171.8321251755888
 30
0.0
 10
285.5577688762158
 20
171.8854943734789
 30
0.0
 10
285.5183859829449
 20
171.9022567844608
 30
0.0
  0
LINE
  5
139
330
1F
100
AcDbEntity
  8
0
  6
Continuous
 62
     7
370
    15
100
AcDbLine
 10
285.5183859829
 20
171.9022567845
 30
0.0
 11
293.1861432388
 21
175.4777907138
 31
0.0
  0
SPLINE
  5
13A
330
1F
100
AcDbEntity
  8
0
  6
Continuous
 62
     7
370
    15
100
AcDbSpline
210
0.0
220
0.0
230
1.0
 70
     8
 71
     3
 72
    11
 73
     7
 74
     0
 42
0.00000001
 43
0.00000001
 12
1.0
 22
0.0
 32
0.0
 13
1.0
 23
0.0
 33
0.0
 40
0.0
 40
0.0
 40
0.0
 40
0.0
 40
0.2888077077194141
 40
0.57761533621972
 40
0.8669345414323495
 40
0.9999999999999999
 40
0.9999999999999999
 40
0.9999999999999999
 40
0.9999999999999999
 10
285.518385982945
 20
171.9022567844609
 30
0.0
 10
285.6079255879005
 20
171.8750150334896
 30
0.0
 10
285.7870047732512
 20
171.8205315390194
 30
0.0
 10
286.0164370910633
 20
171.7205296735965
 30
0.0
 10
286.1514146008097
 20
171.6132795275108
 30
0.0
 10
286.1956854176996
 20
171.5334699003004
 30
0.0
 10
286.209632222723
 20
171.5083271677309
 30
0.0
  0
LINE
  5
13B
330
1F
100
AcDbEntity
  8
0
  6
Continuous
 62
     7
370
    15
100
AcDbLine
 10
286.2096322227
 20
171.5083271677
 30
0.0
 11
286.3084460385
 21
171.2964202561
 31
0.0
  0
LINE
  5
13C
330
1F
100
AcDbEntity
  8
0
  6
Continuous
 62
     7
370
    15
100
AcDbLine
 10
297.4898199637
 20
147.3178864926
 30
0.0
 11
297.0729183816
 21
147.1234820922
 31
0.0
  0
LINE
  5
13D
330
1F
100
AcDbEntity
  8
0
  6
Continuous
 62
     7
370
    15
100
AcDbLine
 10
297.0729183816
 20
147.1234820922
 30
0.0
 11
285.5183859829
 21
171.9022567845
 31
0.0
  0
LINE
  5
13E
330
1F
100
AcDbEntity
  8
0
  6
Continuous
 62
     7
370
    15
100
AcDbLine
 10
297.0729183816
 20
145.821817846
 30
0.0
 11
297.4898199637
 21
145.6274134456
 31
0.0
  0
ARC
  5
13F
330
1F
100
AcDbEntity
  8
0
  6
Continuous
 62
     7
370
    15
100
AcDbCircle
 10
295.6772043896
 20
146.4726499691
 30
0.0
 40
1.539999999999955
100
AcDbArc
 50
335.0
 51
25.0
  0
ARC
  5
140
330
1F
100
AcDbEntity
  8
0
  6
Continuous
 62
     7
370
    15
100
AcDbCircle
 10
292.5353111158
 20
176.8735047058
 30
0.0
 40
1.540000000000043
100
AcDbArc
 50
295.0
 51
335.0
  0
LINE
  5
141
330
1F
100
AcDbEntity
  8
0
  6
Continuous
 62
     7
370
    15
100
AcDbLine
 10
294.3479266898
 20
176.0282681823
 30
0.0
 11
293.9310251078
 21
176.2226725827
 31
0.0
  0
SPLINE
  5
142
330
1F
100
AcDbEntity
  8
0
  6
Continuous
 62
     7
370
    15
100
AcDbSpline
210
0.0
220
0.0
230
1.0
 70
     8
 71
     3
 72
    12
 73
     8
 74
     0
 42
0.00000001
 43
0.00000001
 12
1.0
 22
0.0
 32
0.0
 13
1.0
 23
0.0
 33
0.0
 40
0.0
 40
0.0
 40
0.0
 40
0.0
 40
0.2096821001528664
 40
0.4420453733186088
 40
0.674433296668131
 40
0.906820870118063
 40
1.0
 40
1.0
 40
1.0
 40
1.0
 10
118.2965755440663
 20
136.0926499691255
 30
0.0
 10
118.2461093524712
 20
136.0717929275399
 30
0.0
 10
118.1397180749738
 20
136.0278227520826
 30
0.0
 10
117.9954417890109
 20
135.960629126106
 30
0.0
 10
117.8867700022136
 20
135.8912480724227
 30
0.0
 10
117.8410456341849
 20
135.8355727399761
 30
0.0
 10
117.83757022646
 20
135.8033006477318
 30
0.0
 10
117.8365755440663
 20
135.7940641826878
 30
0.0
  0
SPLINE
  5
143
330
1F
100
AcDbEntity
  8
0
  6
Continuous
 62
     7
370
    15
100
AcDbSpline
210
0.0
220
0.0
230
1.0
 70
     8
 71
     3
 72
    11
 73
     7
 74
     0
 42
0.00000001
 43
0.00000001
 12
1.0
 22
0.0
 32
0.0
 13
1.0
 23
0.0
 33
0.0
 40
0.0
 40
0.0
 40
0.0
 40
0.0
 40
0.2543211584721369
 40
0.5088664984542349
 40
0.7634130007197295
 40
0.9999999999999999
 40
0.9999999999999999
 40
0.9999999999999999
 40
0.9999999999999999
 10
118.2965755440663
 20
136.0926499691255
 30
0.0
 10
118.2565805060384
 20
136.0673337475684
 30
0.0
 10
118.1765551747642
 20
136.0166789884628
 30
0.0
 10
118.0762304239451
 20
135.9406900545657
 30
0.0
 10
118.0090173745733
 20
135.8664450282316
 30
0.0
 10
118.0006204697512
 20
135.8175956992978
 30
0.0
 10
117.9965755440663
 20
135.7940641826878
 30
0.0
  0
LINE
  5
144
330
1F
100
AcDbEntity
  8
0
  6
Continuous
 62
     7
370
    15
100
AcDbLine
 10
117.8365755441
 20
135.7940641827
 30
0.0
 11
117.9965755441
 21
135.7940641827
 31
0.0
  0
LINE
  5
145
330
1F
100
AcDbEntity
  8
0
  6
Continuous
 62
     7
370
    15
100
AcDbLine
 10
296.8217340181
 20
182.421817846
 30
0.0
 11
297.2386356001
 21
182.2274134456
 31
0.0
  0
ARC
  5
146
330
1F
100
AcDbEntity
  8
0
  6
Continuous
 62
     7
370
    15
100
AcDbCircle
 10
295.4260200261
 20
183.0726499691
 30
0.0
 40
1.539999999999964
100
AcDbArc
 50
335.0
 51
90.0
  0
LINE
  5
147
330
1F
100
AcDbEntity
  8
0
  6
Continuous
 62
     7
370
    15
100
AcDbLine
 10
295.4260200261
 20
185.0726499691
 30
0.0
 11
295.4260200261
 21
184.6126499691
 31
0.0
  0
CIRCLE
  5
148
330
1F
100
AcDbEntity
  8
0
  6
Continuous
 62
     7
370
    15
100
AcDbCircle
 10
287.3460200261
 20
181.0726499691
 30
0.0
 40
1.269532621074319
  0
CIRCLE
  5
149
330
1F
100
AcDbEntity
  8
0
  6
Continuous
 62
     7
370
    15
100
AcDbCircle
 10
287.3460200261
 20
181.0726499691
 30
0.0
 40
0.9399999999999977
  0
SPLINE
  5
14A
330
1F
100
AcDbEntity
  8
0
  6
Continuous
 62
     7
370
    15
100
AcDbSpline
210
0.0
220
0.0
230
1.0
 70
     8
 71
     3
 72
    12
 73
     8
 74
     0
 42
0.00000001
 43
0.00000001
 12
1.0
 22
0.0
 32
0.0
 13
1.0
 23
0.0
 33
0.0
 40
0.0
 40
0.0
 40
0.0
 40
0.0
 40
0.2096821001528805
 40
0.4420453733185747
 40
0.6744332966681248
 40
0.9068208701180618
 40
0.9999999999999999
 40
0.9999999999999999
 40
0.9999999999999999
 40
0.9999999999999999
 10
118.2965755440663
 20
184.6126499691256
 30
0.0
 10
118.2757185024808
 20
184.6631161607206
 30
0.0
 10
118.2317483270235
 20
184.7695074382181
 30
0.0
 10
118.1645547010468
 20
184.913783724181
 30
0.0
 10
118.0951736473635
 20
185.0224555109783
 30
0.0
 10
118.0394983149169
 20
185.068179879007
 30
0.0
 10
118.0072262226726
 20
185.0716552867318
 30
0.0
 10
117.9979897576287
 20
185.0726499691255
 30
0.0
  0
LINE
  5
14B
330
1F
100
AcDbEntity
  8
0
  6
Continuous
 62
     7
370
    15
100
AcDbLine
 10
117.9979897576
 20
185.0726499691
 30
0.0
 11
118.6760200261
 21
185.0726499691
 31
0.0
  0
LINE
  5
14C
330
1F
100
AcDbEntity
  8
0
  6
Continuous
 62
     7
370
    15
100
AcDbLine
 10
120.8260200261
 20
185.0726499691
 30
0.0
 11
132.8260200261
 21
185.0726499691
 31
0.0
  0
LINE
  5
14D
330
1F
100
AcDbEntity
  8
0
  6
Continuous
 62
     7
370
    15
100
AcDbLine
 10
295.4260200261
 20
184.6126499691
 30
0.0
 11
118.2965755441
 21
184.6126499691
 31
0.0
  0
CIRCLE
  5
14E
330
1F
100
AcDbEntity
  8
0
  6
Continuous
 62
     7
370
    15
100
AcDbCircle
 10
133.3460200261
 20
181.0726499691
 30
0.0
 40
1.269532621074319
  0
LINE
  5
14F
330
1F
100
AcDbEntity
  8
0
  6
Continuous
 62
     7
370
    15
100
AcDbLine
 10
118.2965755441
 20
136.0926499691
 30
0.0
 11
291.5550446915
 21
136.0926499691
 31
0.0
  0
LINE
  5
150
330
1F
100
AcDbEntity
  8
0
  6
Continuous
 62
     7
370
    15
100
AcDbLine
 10
118.2965755441
 20
184.6126499691
 30
0.0
 11
118.2965755441
 21
136.0926499691
 31
0.0
  0
LINE
  5
151
330
1F
100
AcDbEntity
  8
0
  6
Continuous
 62
     7
370
    15
100
AcDbLine
 10
293.9310251078
 20
176.2226725827
 30
0.0
 11
296.8217340181
 21
182.421817846
 31
0.0
  0
LINE
  5
152
330
1F
100
AcDbEntity
  8
0
  6
Continuous
 62
     7
370
    15
100
AcDbLine
 10
292.9507586836
 20
136.981817846
 30
0.0
 11
297.0729183816
 21
145.821817846
 31
0.0
  0
ARC
  5
153
330
1F
100
AcDbEntity
  8
0
  6
Continuous
 62
     7
370
    15
100
AcDbCircle
 10
291.5550446915
 20
137.6326499691
 30
0.0
 40
1.539999999999992
100
AcDbArc
 50
270.0
 51
335.0
  0
CIRCLE
  5
154
330
1F
100
AcDbEntity
  8
0
  6
Continuous
 62
     7
370
    15
100
AcDbCircle
 10
211.3460200261
 20
181.0726499691
 30
0.0
 40
1.269532621074319
  0
LINE
  5
155
330
1F
100
AcDbEntity
  8
0
  6
Continuous
 62
     7
370
    15
100
AcDbLine
 10
291.5550446915
 20
136.0926499691
 30
0.0
 11
291.5550446915
 21
135.6326499691
 31
0.0
  0
LINE
  5
156
330
1F
100
AcDbEntity
  8
0
  6
Continuous
 62
     7
370
    15
100
AcDbLine
 10
293.3676602656
 20
136.7874134456
 30
0.0
 11
292.9507586836
 21
136.981817846
 31
0.0
  0
LINE
  5
157
330
1F
100
AcDbEntity
  8
0
  6
Continuous
 62
     7
370
    15
100
AcDbLine
 10
279.4291852131
 20
135.6326499691
 30
0.0
 11
117.9979897576
 21
135.6326499691
 31
0.0
  0
SPLINE
  5
158
330
1F
100
AcDbEntity
  8
0
  6
Continuous
 62
     7
370
    15
100
AcDbSpline
210
0.0
220
0.0
230
1.0
 70
     8
 71
     3
 72
    12
 73
     8
 74
     0
 42
0.00000001
 43
0.00000001
 12
1.0
 22
0.0
 32
0.0
 13
1.0
 23
0.0
 33
0.0
 40
0.0
 40
0.0
 40
0.0
 40
0.0
 40
0.2096821001528683
 40
0.4420453733186099
 40
0.6744332966681333
 40
0.9068208701180586
 40
1.0
 40
1.0
 40
1.0
 40
1.0
 10
117.9979897576287
 20
135.6326499691255
 30
0.0
 10
118.0188467992142
 20
135.6375179631592
 30
0.0
 10
118.0628169746715
 20
135.6477805188965
 30
0.0
 10
118.1300106006481
 20
135.7319666362823
 30
0.0
 10
118.1993916543314
 20
135.8623245318614
 30
0.0
 10
118.255066986778
 20
135.9922127396819
 30
0.0
 10
118.2873390790223
 20
136.0703007231032
 30
0.0
 10
118.2965755440663
 20
136.0926499691255
 30
0.0
  0
CIRCLE
  5
159
330
1F
100
AcDbEntity
  8
0
  6
Continuous
 62
     7
370
    15
100
AcDbCircle
 10
211.3460200261
 20
181.0726499691
 30
0.0
 40
0.9399999999999977
  0
SPLINE
  5
15A
330
1F
100
AcDbEntity
  8
0
  6
Continuous
 62
     7
370
    15
100
AcDbSpline
210
0.0
220
0.0
230
1.0
 70
     8
 71
     3
 72
    11
 73
     7
 74
     0
 42
0.00000001
 43
0.00000001
 12
1.0
 22
0.0
 32
0.0
 13
1.0
 23
0.0
 33
0.0
 40
0.0
 40
0.0
 40
0.0
 40
0.0
 40
0.2543211584720588
 40
0.5088664984541689
 40
0.7634130007196562
 40
1.0
 40
1.0
 40
1.0
 40
1.0
 10
118.2965755440663
 20
184.6126499691256
 30
0.0
 10
118.2712593225092
 20
184.6526450071534
 30
0.0
 10
118.2206045634037
 20
184.7326703384276
 30
0.0
 10
118.1446156295066
 20
184.8329950892467
 30
0.0
 10
118.0703706031724
 20
184.9002081386185
 30
0.0
 10
118.0215212742386
 20
184.9086050434406
 30
0.0
 10
117.9979897576287
 20
184.9126499691255
 30
0.0
  0
LINE
  5
15B
330
1F
100
AcDbEntity
  8
0
  6
Continuous
 62
     7
370
    15
100
AcDbLine
 10
117.9979897576
 20
185.0726499691
 30
0.0
 11
117.9979897576
 21
184.9126499691
 31
0.0
  0
LINE
  5
15C
330
1F
100
AcDbEntity
  8
0
  6
Continuous
 62
     7
370
    15
100
AcDbLine
 10
117.8365755441
 20
184.9112357556
 30
0.0
 11
117.8365755441
 21
135.7940641827
 31
0.0
  0
SPLINE
  5
15D
330
1F
100
AcDbEntity
  8
0
  6
Continuous
 62
     7
370
    15
100
AcDbSpline
210
0.0
220
0.0
230
1.0
 70
     8
 71
     3
 72
    12
 73
     8
 74
     0
 42
0.00000001
 43
0.00000001
 12
1.0
 22
0.0
 32
0.0
 13
1.0
 23
0.0
 33
0.0
 40
0.0
 40
0.0
 40
0.0
 40
0.0
 40
0.2096821001528779
 40
0.4420453733185962
 40
0.6744332966681126
 40
0.9068208701180277
 40
1.0
 40
1.0
 40
1.0
 40
1.0
 10
117.8365755440663
 20
184.9112357555632
 30
0.0
 10
117.8414435381
 20
184.8903787139777
 30
0.0
 10
117.8517060938374
 20
184.8464085385203
 30
0.0
 10
117.9358922112231
 20
184.7792149125437
 30
0.0
 10
118.0662501068022
 20
184.7098338588604
 30
0.0
 10
118.1961383146227
 20
184.6541585264139
 30
0.0
 10
118.274226298044
 20
184.6218864341695
 30
0.0
 10
118.2965755440663
 20
184.6126499691256
 30
0.0
  0
LINE
  5
15E
330
1F
100
AcDbEntity
  8
0
  6
Continuous
 62
     7
370
    15
100
AcDbLine
 10
117.8365755441
 20
184.9112357556
 30
0.0
 11
117.9965755441
 21
184.9112357556
 31
0.0
  0
SPLINE
  5
15F
330
1F
100
AcDbEntity
  8
0
  6
Continuous
 62
     7
370
    15
100
AcDbSpline
210
0.0
220
0.0
230
1.0
 70
     8
 71
     3
 72
    11
 73
     7
 74
     0
 42
0.00000001
 43
0.00000001
 12
1.0
 22
0.0
 32
0.0
 13
1.0
 23
0.0
 33
0.0
 40
0.0
 40
0.0
 40
0.0
 40
0.0
 40
0.2543211584721124
 40
0.508866498454213
 40
0.7634130007197003
 40
1.0
 40
1.0
 40
1.0
 40
1.0
 10
117.9965755440663
 20
184.9112357555632
 30
0.0
 10
118.0012463564701
 20
184.8859195340061
 30
0.0
 10
118.0105920985512
 20
184.8352647749006
 30
0.0
 10
118.0823696217903
 20
184.7592758410035
 30
0.0
 10
118.1822142176482
 20
184.6850308146693
 30
0.0
 10
118.2593958809673
 20
184.6361814857354
 30
0.0
 10
118.2965755440663
 20
184.6126499691256
 30
0.0
  0
CIRCLE
  5
160
330
1F
100
AcDbEntity
  8
0
  6
Continuous
 62
     7
370
    15
100
AcDbCircle
 10
133.3460200261
 20
181.0726499691
 30
0.0
 40
0.9399999999999977
  0
LINE
  5
161
330
1F
100
AcDbEntity
  8
0
  6
Continuous
 62
     7
370
    15
100
AcDbLine
 10
117.9979897576
 20
135.6326499691
 30
0.0
 11
117.9979897576
 21
135.7926499691
 31
0.0
  0
SPLINE
  5
162
330
1F
100
AcDbEntity
  8
0
  6
Continuous
 62
     7
370
    15
100
AcDbSpline
210
0.0
220
0.0
230
1.0
 70
     8
 71
     3
 72
    11
 73
     7
 74
     0
 42
0.00000001
 43
0.00000001
 12
1.0
 22
0.0
 32
0.0
 13
1.0
 23
0.0
 33
0.0
 40
0.0
 40
0.0
 40
0.0
 40
0.0
 40
0.2543211584721305
 40
0.5088664984542399
 40
0.7634130007197251
 40
0.9999999999999999
 40
0.9999999999999999
 40
0.9999999999999999
 40
0.9999999999999999
 10
117.9979897576287
 20
135.7926499691254
 30
0.0
 10
118.0233059791857
 20
135.7973207815293
 30
0.0
 10
118.0739607382912
 20
135.8066665236105
 30
0.0
 10
118.1499496721884
 20
135.8784440468495
 30
0.0
 10
118.2241946985225
 20
135.9782886427074
 30
0.0
 10
118.2730440274564
 20
136.0554703060265
 30
0.0
 10
118.2965755440663
 20
136.0926499691255
 30
0.0
  0
CIRCLE
  5
163
330
1F
100
AcDbEntity
  8
0
  6
Continuous
 62
     7
370
    15
100
AcDbCircle
 10
211.3460200261
 20
181.0726499691
 30
0.0
 40
0.5400000000000205
  0
CIRCLE
  5
164
330
1F
100
AcDbEntity
  8
0
  6
Continuous
 62
     7
370
    15
100
AcDbCircle
 10
287.3460200261
 20
181.0726499691
 30
0.0
 40
0.5400000000000205
  0
CIRCLE
  5
165
330
1F
100
AcDbEntity
  8
0
  6
Continuous
 62
     7
370
    15
100
AcDbCircle
 10
133.3460200261
 20
181.0726499691
 30
0.0
 40
0.5400000000000205
  0
LINE
  5
166
330
1F
100
AcDbEntity
  8
0
  6
Continuous
 62
     7
370
    15
100
AcDbLine
 10
120.8460200258
 20
185.4926499692
 30
0.0
 11
118.6760200261
 21
185.4926499692
 31
0.0
  0
ARC
  5
167
330
1F
100
AcDbEntity
  8
0
  6
Continuous
 62
     7
370
    15
100
AcDbCircle
 10
118.6760200261
 20
185.9226499692
 30
0.0
 40
0.4300000000000068
100
AcDbArc
 50
180.0
 51
270.0
  0
LINE
  5
168
330
1F
100
AcDbEntity
  8
0
  6
Continuous
 62
     7
370
    15
100
AcDbLine
 10
118.2460200261
 20
185.9226499692
 30
0.0
 11
118.2460200261
 21
188.2226499692
 31
0.0
  0
ARC
  5
169
330
1F
100
AcDbEntity
  8
0
  6
Continuous
 62
     7
370
    15
100
AcDbCircle
 10
118.6760200261
 20
188.2226499692
 30
0.0
 40
0.4300000000000068
100
AcDbArc
 50
90.0
 51
180.0
  0
LINE
  5
16A
330
1F
100
AcDbEntity
  8
0
  6
Continuous
 62
     7
370
    15
100
AcDbLine
 10
118.6760200261
 20
188.6526499692
 30
0.0
 11
118.6763414372
 21
188.6526499692
 31
0.0
  0
LINE
  5
16B
330
1F
100
AcDbEntity
  8
0
  6
Continuous
 62
     7
370
    15
100
AcDbLine
 10
118.6763414372
 20
188.6526499692
 30
0.0
 11
118.6763414372
 21
188.1926499692
 31
0.0
  0
LINE
  5
16C
330
1F
100
AcDbEntity
  8
0
  6
Continuous
 62
     7
370
    15
100
AcDbLine
 10
131.9760200261
 20
188.1926499692
 30
0.0
 11
118.6763414372
 21
188.1926499692
 31
0.0
  0
LINE
  5
16D
330
1F
100
AcDbEntity
  8
0
  6
Continuous
 62
     7
370
    15
100
AcDbLine
 10
131.9760200261
 20
188.1926499692
 30
0.0
 11
131.9760200261
 21
188.6526499692
 31
0.0
  0
ARC
  5
16E
330
1F
100
AcDbEntity
  8
0
  6
Continuous
 62
     7
370
    15
100
AcDbCircle
 10
131.9760200261
 20
188.2226499692
 30
0.0
 40
0.4300000000000068
100
AcDbArc
 50
359.9999999959
 51
90.0
  0
LINE
  5
16F
330
1F
100
AcDbEntity
  8
0
  6
Continuous
 62
     7
370
    15
100
AcDbLine
 10
132.4060200261
 20
188.2226499692
 30
0.0
 11
132.4060200261
 21
185.9226499692
 31
0.0
  0
ARC
  5
170
330
1F
100
AcDbEntity
  8
0
  6
Continuous
 62
     7
370
    15
100
AcDbCircle
 10
133.2760200261
 20
185.9226499691
 30
0.0
 40
0.8699999999999819
100
AcDbArc
 50
179.999999996
 51
252.5584061437
  0
LINE
  5
171
330
1F
100
AcDbEntity
  8
0
  6
Continuous
 62
     7
370
    15
100
AcDbLine
 10
133.0152519299
 20
185.0926499691
 30
0.0
 11
131.9760200261
 21
185.0926499691
 31
0.0
  0
LINE
  5
172
330
1F
100
AcDbEntity
  8
0
  6
Continuous
 62
     7
370
    15
100
AcDbLine
 10
131.9760200261
 20
185.0926499691
 30
0.0
 11
131.9760200261
 21
185.5526499691
 31
0.0
  0
LINE
  5
173
330
1F
100
AcDbEntity
  8
0
  6
Continuous
 62
     7
370
    15
100
AcDbLine
 10
120.8460200258
 20
185.5526499691
 30
0.0
 11
131.9760200261
 21
185.5526499691
 31
0.0
  0
LINE
  5
174
330
1F
100
AcDbEntity
  8
0
  6
Continuous
 62
     7
370
    15
100
AcDbLine
 10
120.8460200258
 20
185.5526499691
 30
0.0
 11
120.8460200258
 21
185.4926499692
 31
0.0
  0
LINE
  5
175
330
1F
100
AcDbEntity
  8
0
  6
Continuous
 62
     7
370
    15
100
AcDbLine
 10
131.9760200261
 20
185.0926499691
 30
0.0
 11
120.8460200258
 21
185.0926499691
 31
0.0
  0
LINE
  5
176
330
1F
100
AcDbEntity
  8
0
  6
Continuous
 62
     7
370
    15
100
AcDbLine
 10
120.8460200258
 20
185.0926499691
 30
0.0
 11
120.8460200258
 21
185.4926499692
 31
0.0
  0
LINE
  5
177
330
1F
100
AcDbEntity
  8
0
  6
Continuous
 62
     7
370
    15
100
AcDbLine
 10
118.6763414372
 20
188.6526499692
 30
0.0
 11
131.9760200261
 21
188.6526499692
 31
0.0
  0
LINE
  5
178
330
1F
100
AcDbEntity
  8
0
  6
Continuous
 62
     7
370
    15
100
AcDbLine
 10
145.8483495523
 20
115.6926499691
 30
0.0
 11
140.5483495523
 21
115.6926499691
 31
0.0
  0
LINE
  5
179
330
1F
100
AcDbEntity
  8
0
  6
Continuous
 62
     7
370
    15
100
AcDbLine
 10
151.1483495523
 20
115.6926499691
 30
0.0
 11
145.8483495523
 21
115.6926499691
 31
0.0
  0
LINE
  5
17A
330
1F
100
AcDbEntity
  8
0
  6
Continuous
 62
     7
370
    15
100
AcDbLine
 10
145.8483495523
 20
116.8926499691
 30
0.0
 11
140.1483495523
 21
116.8926499691
 31
0.0
  0
LINE
  5
17B
330
1F
100
AcDbEntity
  8
0
  6
Continuous
 62
     7
370
    15
100
AcDbLine
 10
151.5483495523
 20
116.8926499691
 30
0.0
 11
145.8483495523
 21
116.8926499691
 31
0.0
  0
LINE
  5
17C
330
1F
100
AcDbEntity
  8
0
  6
Continuous
 62
     7
370
    15
100
AcDbLine
 10
261.6483495523
 20
116.8926499691
 30
0.0
 11
255.9483495523
 21
116.8926499691
 31
0.0
  0
LINE
  5
17D
330
1F
100
AcDbEntity
  8
0
  6
Continuous
 62
     7
370
    15
100
AcDbLine
 10
267.3483495523
 20
116.8926499691
 30
0.0
 11
261.6483495523
 21
116.8926499691
 31
0.0
  0
LINE
  5
17E
330
1F
100
AcDbEntity
  8
0
  6
Continuous
 62
     7
370
    15
100
AcDbLine
 10
261.6483495523
 20
115.6926499691
 30
0.0
 11
256.3483495523
 21
115.6926499691
 31
0.0
  0
LINE
  5
17F
330
1F
100
AcDbEntity
  8
0
  6
Continuous
 62
     7
370
    15
100
AcDbLine
 10
266.9483495523
 20
115.6926499691
 30
0.0
 11
261.6483495523
 21
115.6926499691
 31
0.0
  0
LINE
  5
180
330
1F
100
AcDbEntity
  8
0
  6
Continuous
 62
     7
370
    15
100
AcDbLine
 10
154.8483495523
 20
135.2926499691
 30
0.0
 11
154.8483495523
 21
135.6326499691
 31
0.0
  0
LINE
  5
181
330
1F
100
AcDbEntity
  8
0
  6
Continuous
 62
     7
370
    15
100
AcDbLine
 10
136.8483495523
 20
135.2926499691
 30
0.0
 11
154.8483495523
 21
135.2926499691
 31
0.0
  0
LINE
  5
182
330
1F
100
AcDbEntity
  8
0
  6
Continuous
 62
     7
370
    15
100
AcDbLine
 10
136.8483495523
 20
135.2926499691
 30
0.0
 11
136.8483495523
 21
135.6326499691
 31
0.0
  0
LINE
  5
183
330
1F
100
AcDbEntity
  8
0
  6
Continuous
 62
     7
370
    15
100
AcDbLine
 10
145.8483495523
 20
122.6926499691
 30
0.0
 11
139.6564195082
 21
122.6926499691
 31
0.0
  0
LINE
  5
184
330
1F
100
AcDbEntity
  8
0
  6
Continuous
 62
     7
370
    15
100
AcDbLine
 10
152.0402795964
 20
122.6926499691
 30
0.0
 11
145.8483495523
 21
122.6926499691
 31
0.0
  0
LINE
  5
185
330
1F
100
AcDbEntity
  8
0
  6
Continuous
 62
     7
370
    15
100
AcDbLine
 10
270.6483495523
 20
135.2926499691
 30
0.0
 11
270.6483495523
 21
135.6326499691
 31
0.0
  0
LINE
  5
186
330
1F
100
AcDbEntity
  8
0
  6
Continuous
 62
     7
370
    15
100
AcDbLine
 10
252.6483495523
 20
135.2926499691
 30
0.0
 11
270.6483495523
 21
135.2926499691
 31
0.0
  0
LINE
  5
187
330
1F
100
AcDbEntity
  8
0
  6
Continuous
 62
     7
370
    15
100
AcDbLine
 10
252.6483495523
 20
135.2926499691
 30
0.0
 11
252.6483495523
 21
135.6326499691
 31
0.0
  0
LINE
  5
188
330
1F
100
AcDbEntity
  8
0
  6
Continuous
 62
     7
370
    15
100
AcDbLine
 10
261.6483495523
 20
122.6926499691
 30
0.0
 11
255.4564195082
 21
122.6926499691
 31
0.0
  0
LINE
  5
189
330
1F
100
AcDbEntity
  8
0
  6
Continuous
 62
     7
370
    15
100
AcDbLine
 10
267.8402795964
 20
122.6926499691
 30
0.0
 11
261.6483495523
 21
122.6926499691
 31
0.0
  0
LINE
  5
18A
330
1F
100
AcDbEntity
  8
0
  6
Continuous
 62
     8
370
    15
100
AcDbLine
 10
127.2260200261
 20
190.9726499691
 30
0.0
 11
123.4260200261
 21
190.9726499691
 31
0.0
  0
LINE
  5
18B
330
1F
100
AcDbEntity
  8
0
  6
Continuous
 62
     8
370
    15
100
AcDbLine
 10
135.9260200261
 20
185.4726499691
 30
0.0
 11
135.9260200261
 21
185.5726499691
 31
0.0
  0
LINE
  5
18C
330
1F
100
AcDbEntity
  8
0
  6
Continuous
 62
     8
370
    15
100
AcDbLine
 10
132.9260200261
 20
188.7726499691
 30
0.0
 11
132.9260200261
 21
185.4726499691
 31
0.0
  0
LINE
  5
18D
330
1F
100
AcDbEntity
  8
0
  6
Continuous
 62
     8
370
    15
100
AcDbLine
 10
291.4428755323
 20
163.9273401744
 30
0.0
 11
295.1451247776
 21
155.9878410463
 31
0.0
  0
LINE
  5
18E
330
1F
100
AcDbEntity
  8
0
  6
Continuous
 62
     8
370
    15
100
AcDbLine
 10
300.4880953069
 20
159.1480492452
 30
0.0
 11
300.1969385482
 21
159.7724369293
 31
0.0
  0
LINE
  5
18F
330
1F
100
AcDbEntity
  8
0
  6
Continuous
 62
     8
370
    15
100
AcDbLine
 10
145.8483495523
 20
116.0926499691
 30
0.0
 11
140.1483495523
 21
116.0926499691
 31
0.0
  0
LINE
  5
190
330
1F
100
AcDbEntity
  8
0
  6
Continuous
 62
     8
370
    15
100
AcDbLine
 10
151.5483495523
 20
116.0926499691
 30
0.0
 11
145.8483495523
 21
116.0926499691
 31
0.0
  0
LINE
  5
191
330
1F
100
AcDbEntity
  8
0
  6
Continuous
 62
     8
370
    15
100
AcDbLine
 10
261.6483495523
 20
116.0926499691
 30
0.0
 11
255.9483495523
 21
116.0926499691
 31
0.0
  0
LINE
  5
192
330
1F
100
AcDbEntity
  8
0
  6
Continuous
 62
     8
370
    15
100
AcDbLine
 10
267.3483495523
 20
116.0926499691
 30
0.0
 11
261.6483495523
 21
116.0926499691
 31
0.0
  0
LINE
  5
193
330
1F
100
AcDbEntity
  8
0
  6
Continuous
 62
     8
370
    15
100
AcDbLine
 10
145.8483495523
 20
134.9926499691
 30
0.0
 11
139.4683495523
 21
134.9926499691
 31
0.0
  0
LINE
  5
194
330
1F
100
AcDbEntity
  8
0
  6
Continuous
 62
     8
370
    15
100
AcDbLine
 10
152.2283495523
 20
134.9926499691
 30
0.0
 11
145.8483495523
 21
134.9926499691
 31
0.0
  0
LINE
  5
195
330
1F
100
AcDbEntity
  8
0
  6
Continuous
 62
     8
370
    15
100
AcDbLine
 10
145.8483495523
 20
123.8991631583
 30
0.0
 11
139.4683495523
 21
123.8991631583
 31
0.0
  0
LINE
  5
196
330
1F
100
AcDbEntity
  8
0
  6
Continuous
 62
     8
370
    15
100
AcDbLine
 10
152.2283495523
 20
123.8991631583
 30
0.0
 11
145.8483495523
 21
123.8991631583
 31
0.0
  0
LINE
  5
197
330
1F
100
AcDbEntity
  8
0
  6
Continuous
 62
     8
370
    15
100
AcDbLine
 10
145.8483495523
 20
123.7446705134
 30
0.0
 11
139.4811321977
 21
123.7446705134
 31
0.0
  0
LINE
  5
198
330
1F
100
AcDbEntity
  8
0
  6
Continuous
 62
     8
370
    15
100
AcDbLine
 10
152.2155669069
 20
123.7446705134
 30
0.0
 11
145.8483495523
 21
123.7446705134
 31
0.0
  0
LINE
  5
199
330
1F
100
AcDbEntity
  8
0
  6
Continuous
 62
     8
370
    15
100
AcDbLine
 10
261.6483495523
 20
134.9926499691
 30
0.0
 11
255.2683495523
 21
134.9926499691
 31
0.0
  0
LINE
  5
19A
330
1F
100
AcDbEntity
  8
0
  6
Continuous
 62
     8
370
    15
100
AcDbLine
 10
268.0283495523
 20
134.9926499691
 30
0.0
 11
261.6483495523
 21
134.9926499691
 31
0.0
  0
LINE
  5
19B
330
1F
100
AcDbEntity
  8
0
  6
Continuous
 62
     8
370
    15
100
AcDbLine
 10
261.6483495523
 20
123.8991631583
 30
0.0
 11
255.2683495523
 21
123.8991631583
 31
0.0
  0
LINE
  5
19C
330
1F
100
AcDbEntity
  8
0
  6
Continuous
 62
     8
370
    15
100
AcDbLine
 10
268.0283495523
 20
123.8991631583
 30
0.0
 11
261.6483495523
 21
123.8991631583
 31
0.0
  0
LINE
  5
19D
330
1F
100
AcDbEntity
  8
0
  6
Continuous
 62
     8
370
    15
100
AcDbLine
 10
261.6483495523
 20
123.7446705134
 30
0.0
 11
255.2811321977
 21
123.7446705134
 31
0.0
  0
LINE
  5
19E
330
1F
100
AcDbEntity
  8
0
  6
Continuous
 62
     8
370
    15
100
AcDbLine
 10
268.0155669069
 20
123.7446705134
 30
0.0
 11
261.6483495523
 21
123.7446705134
 31
0.0
  0
ENDSEC
  0
SECTION
  2
OBJECTS
  0
DICTIONARY
  5
C
330
0
100
AcDbDictionary
281
     1
  3
ACAD_GROUP
350
D
  3
ACAD_LAYOUT
350
1A
  3
ACAD_MLINESTYLE
350
17
  3
ACAD_PLOTSETTINGS
350
19
  3
ACAD_PLOTSTYLENAME
350
E
  0
DICTIONARY
  5
D
102
{ACAD_REACTORS
330
C
102
}
330
C
100
AcDbDictionary
281
     1
  0
DICTIONARY
  5
1A
102
{ACAD_REACTORS
330
C
102
}
330
C
100
AcDbDictionary
281
     1
  3
Layout1
350
1E
  3
Layout2
350
26
  3
Model
350
22
  0
DICTIONARY
  5
17
102
{ACAD_REACTORS
330
C
102
}
330
C
100
AcDbDictionary
281
     1
  3
Standard
350
18
  0
DICTIONARY
  5
19
102
{ACAD_REACTORS
330
C
102
}
330
C
100
AcDbDictionary
281
     1
  0
ACDBDICTIONARYWDFLT
  5
E
102
{ACAD_REACTORS
330
C
102
}
330
C
100
AcDbDictionary
281
     1
  3
Normal
350
F
100
AcDbDictionaryWithDefault
340
F
  0
LAYOUT
  5
1E
102
{ACAD_REACTORS
330
1A
102
}
330
1A
100
AcDbPlotSettings
  1

  2
none_device
  4

  6

 40
0.0
 41
0.0
 42
0.0
 43
0.0
 44
0.0
 45
0.0
 46
0.0
 47
0.0
 48
0.0
 49
0.0
140
0.0
141
0.0
142
1.0
143
1.0
 70
   688
 72
     0
 73
     0
 74
     5
  7

 75
    16
147
1.0
148
0.0
149
0.0
100
AcDbLayout
  1
Layout1
 70
     1
 71
     1
 10
0.0
 20
0.0
 11
420.0
 21
297.0
 12
0.0
 22
0.0
 32
0.0
 14
1.0000000000E+20
 24
1.0000000000E+20
 34
1.0000000000E+20
 15
-1.0000000000E+20
 25
-1.0000000000E+20
 35
-1.0000000000E+20
146
0.0
 13
0.0
 23
0.0
 33
0.0
 16
1.0
 26
0.0
 36
0.0
 17
0.0
 27
1.0
 37
0.0
 76
     0
330
1B
  0
LAYOUT
  5
26
102
{ACAD_REACTORS
330
1A
102
}
330
1A
100
AcDbPlotSettings
  1

  2
none_device
  4

  6

 40
0.0
 41
0.0
 42
0.0
 43
0.0
 44
0.0
 45
0.0
 46
0.0
 47
0.0
 48
0.0
 49
0.0
140
0.0
141
0.0
142
1.0
143
1.0
 70
   688
 72
     0
 73
     0
 74
     5
  7

 75
    16
147
1.0
148
0.0
149
0.0
100
AcDbLayout
  1
Layout2
 70
     1
 71
     2
 10
0.0
 20
0.0
 11
0.0
 21
0.0
 12
0.0
 22
0.0
 32
0.0
 14
0.0
 24
0.0
 34
0.0
 15
0.0
 25
0.0
 35
0.0
146
0.0
 13
0.0
 23
0.0
 33
0.0
 16
1.0
 26
0.0
 36
0.0
 17
0.0
 27
1.0
 37
0.0
 76
     0
330
23
  0
LAYOUT
  5
22
102
{ACAD_REACTORS
330
1A
102
}
330
1A
100
AcDbPlotSettings
  1

  2
none_device
  4

  6

 40
0.0
 41
0.0
 42
0.0
 43
0.0
 44
0.0
 45
0.0
 46
0.0
 47
0.0
 48
0.0
 49
0.0
140
0.0
141
0.0
142
1.0
143
1.0
 70
  1712
 72
     0
 73
     0
 74
     0
  7

 75
     0
147
1.0
148
0.0
149
0.0
100
AcDbLayout
  1
Model
 70
     1
 71
     0
 10
0.0
 20
0.0
 11
431.8
 21
279.4
 12
0.0
 22
0.0
 32
0.0
 14
0.0
 24
0.0
 34
0.0
 15
431.8
 25
279.4
 35
0.0
146
0.0
 13
0.0
 23
0.0
 33
0.0
 16
1.0
 26
0.0
 36
0.0
 17
0.0
 27
1.0
 37
0.0
 76
     0
330
1F
331
29
  0
MLINESTYLE
  5
18
102
{ACAD_REACTORS
330
17
102
}
330
17
100
AcDbMlineStyle
  2
Standard
 70
     0
  3

 62
   256
 51
90.0
 52
90.0
 71
     2
 49
0.5
 62
   256
  6
BYLAYER
 49
-0.5
 62
   256
  6
BYLAYER
  0
ACDBPLACEHOLDER
  5
F
102
{ACAD_REACTORS
330
E
102
}
330
E
  0
ENDSEC
  0
EOF
