  0
SECTION
  2
HEADER
  9
$ACADVER
  1
AC1027
  9
$ACADMAINTVER
 70
     8
  9
$DWGCODEPAGE
  3
ANSI_1252
  9
$REQUIREDVERSIONS
160
                 0
  9
$INSBASE
 10
0.0
 20
0.0
 30
0.0
  9
$EXTMIN
 10
0.0
 20
0.0
 30
0.0
  9
$EXTMAX
 10
594.0
 20
420.0
 30
0.0
  9
$LIMMIN
 10
0.0
 20
0.0
  9
$LIMMAX
 10
594.0
 20
420.0
  9
$ORTHOMODE
 70
     0
  9
$REGENMODE
 70
     1
  9
$FILLMODE
 70
     1
  9
$QTEXTMODE
 70
     0
  9
$MIRRTEXT
 70
     1
  9
$LTSCALE
 40
1.0
  9
$ATTMODE
 70
     1
  9
$TEXTSIZE
 40
3.5
  9
$TRACEWID
 40
1.0
  9
$TEXTSTYLE
  7
Standard
  9
$CLAYER
  8
0
  9
$CELTYPE
  6
ByLayer
  9
$CECOLOR
 62
   256
  9
$CELTSCALE
 40
1.0
  9
$DISPSILH
 70
     0
  9
$DIMSCALE
 40
1.0
  9
$DIMASZ
 40
3.302
  9
$DIMEXO
 40
1.0
  9
$DIMDLI
 40
3.75
  9
$DIMRND
 40
0.0
  9
$DIMDLE
 40
0.0
  9
$DIMEXE
 40
1.0
  9
$DIMTP
 40
0.0
  9
$DIMTM
 40
0.0
  9
$DIMTXT
 40
3.5
  9
$DIMCEN
 40
2.5
  9
$DIMTSZ
 40
0.0
  9
$DIMTOL
 70
     0
  9
$DIMLIM
 70
     0
  9
$DIMTIH
 70
     1
  9
$DIMTOH
 70
     1
  9
$DIMSE1
 70
     0
  9
$DIMSE2
 70
     0
  9
$DIMTAD
 70
     1
  9
$DIMZIN
 70
     0
  9
$DIMBLK
  1

  9
$DIMASO
 70
     1
  9
$DIMSHO
 70
     1
  9
$DIMPOST
  1

  9
$DIMAPOST
  1

  9
$DIMALT
 70
     0
  9
$DIMALTD
 70
     3
  9
$DIMALTF
 40
0.0393700787
  9
$DIMLFAC
 40
10.0
  9
$DIMTOFL
 70
     1
  9
$DIMTVP
 40
0.0
  9
$DIMTIX
 70
     0
  9
$DIMSOXD
 70
     0
  9
$DIMSAH
 70
     0
  9
$DIMBLK1
  1

  9
$DIMBLK2
  1

  9
$DIMSTYLE
  2
ISO-25
  9
$DIMCLRD
 70
     0
  9
$DIMCLRE
 70
     0
  9
$DIMCLRT
 70
     0
  9
$DIMTFAC
 40
1.0
  9
$DIMGAP
 40
5.0
  9
$DIMJUST
 70
     0
  9
$DIMSD1
 70
     0
  9
$DIMSD2
 70
     0
  9
$DIMTOLJ
 70
     0
  9
$DIMTZIN
 70
     0
  9
$DIMALTZ
 70
     0
  9
$DIMALTTZ
 70
     0
  9
$DIMUPT
 70
     0
  9
$DIMDEC
 70
     1
  9
$DIMTDEC
 70
     1
  9
$DIMALTU
 70
     2
  9
$DIMALTTD
 70
     3
  9
$DIMTXSTY
  7
Standard
  9
$DIMAUNIT
 70
     0
  9
$DIMADEC
 70
     1
  9
$DIMALTRND
 40
0.0
  9
$DIMAZIN
 70
     0
  9
$DIMDSEP
 70
    44
  9
$DIMATFIT
 70
     3
  9
$DIMFRAC
 70
     0
  9
$DIMLDRBLK
  1

  9
$DIMLUNIT
 70
     2
  9
$DIMLWD
 70
    -2
  9
$DIMLWE
 70
    -2
  9
$DIMTMOVE
 70
     0
  9
$DIMFXL
 40
1.0
  9
$DIMFXLON
 70
     0
  9
$DIMJOGANG
 40
0.7853981634
  9
$DIMTFILL
 70
     0
  9
$DIMTFILLCLR
 70
     0
  9
$DIMARCSYM
 70
     0
  9
$DIMLTYPE
  6

  9
$DIMLTEX1
  6

  9
$DIMLTEX2
  6

  9
$DIMTXTDIRECTION
 70
     0
  9
$LUNITS
 70
     2
  9
$LUPREC
 70
     1
  9
$SKETCHINC
 40
1.0
  9
$FILLETRAD
 40
10.0
  9
$AUNITS
 70
     0
  9
$AUPREC
 70
     1
  9
$MENU
  1
.
  9
$ELEVATION
 40
0.0
  9
$PELEVATION
 40
0.0
  9
$THICKNESS
 40
0.0
  9
$LIMCHECK
 70
     0
  9
$CHAMFERA
 40
0.0
  9
$CHAMFERB
 40
0.0
  9
$CHAMFERC
 40
0.0
  9
$CHAMFERD
 40
0.0
  9
$SKPOLY
 70
     0
  9
$TDCREATE
 40
2459457.654139502
  9
$TDUCREATE
 40
2459457.612472835
  9
$TDUPDATE
 40
2459457.65414022
  9
$TDUUPDATE
 40
2459457.612473553
  9
$TDINDWG
 40
0.0000000116
  9
$TDUSRTIMER
 40
0.0000000116
  9
$USRTIMER
 70
     1
  9
$ANGBASE
 50
0.0
  9
$ANGDIR
 70
     0
  9
$PDMODE
 70
     0
  9
$PDSIZE
 40
-1.0
  9
$PLINEWID
 40
0.0
  9
$SPLFRAME
 70
     0
  9
$SPLINETYPE
 70
     6
  9
$SPLINESEGS
 70
     8
  9
$HANDSEED
  5
3F3
  9
$SURFTAB1
 70
     6
  9
$SURFTAB2
 70
     6
  9
$SURFTYPE
 70
     6
  9
$SURFU
 70
     6
  9
$SURFV
 70
     6
  9
$UCSBASE
  2

  9
$UCSNAME
  2

  9
$UCSORG
 10
0.0
 20
0.0
 30
0.0
  9
$UCSXDIR
 10
1.0
 20
0.0
 30
0.0
  9
$UCSYDIR
 10
0.0
 20
1.0
 30
0.0
  9
$UCSORTHOREF
  2

  9
$UCSORTHOVIEW
 70
     0
  9
$UCSORGTOP
 10
0.0
 20
0.0
 30
0.0
  9
$UCSORGBOTTOM
 10
0.0
 20
0.0
 30
0.0
  9
$UCSORGLEFT
 10
0.0
 20
0.0
 30
0.0
  9
$UCSORGRIGHT
 10
0.0
 20
0.0
 30
0.0
  9
$UCSORGFRONT
 10
0.0
 20
0.0
 30
0.0
  9
$UCSORGBACK
 10
0.0
 20
0.0
 30
0.0
  9
$PUCSBASE
  2

  9
$PUCSNAME
  2

  9
$PUCSORG
 10
0.0
 20
0.0
 30
0.0
  9
$PUCSXDIR
 10
1.0
 20
0.0
 30
0.0
  9
$PUCSYDIR
 10
0.0
 20
1.0
 30
0.0
  9
$PUCSORTHOREF
  2

  9
$PUCSORTHOVIEW
 70
     0
  9
$PUCSORGTOP
 10
0.0
 20
0.0
 30
0.0
  9
$PUCSORGBOTTOM
 10
0.0
 20
0.0
 30
0.0
  9
$PUCSORGLEFT
 10
0.0
 20
0.0
 30
0.0
  9
$PUCSORGRIGHT
 10
0.0
 20
0.0
 30
0.0
  9
$PUCSORGFRONT
 10
0.0
 20
0.0
 30
0.0
  9
$PUCSORGBACK
 10
0.0
 20
0.0
 30
0.0
  9
$USERI1
 70
     0
  9
$USERI2
 70
     0
  9
$USERI3
 70
     0
  9
$USERI4
 70
     0
  9
$USERI5
 70
     0
  9
$USERR1
 40
0.0
  9
$USERR2
 40
0.0
  9
$USERR3
 40
0.0
  9
$USERR4
 40
0.0
  9
$USERR5
 40
0.0
  9
$WORLDVIEW
 70
     1
  9
$SHADEDGE
 70
     3
  9
$SHADEDIF
 70
    70
  9
$TILEMODE
 70
     1
  9
$MAXACTVP
 70
    64
  9
$PINSBASE
 10
0.0
 20
0.0
 30
0.0
  9
$PLIMCHECK
 70
     0
  9
$PEXTMIN
 10
1.0000000000E+20
 20
1.0000000000E+20
 30
1.0000000000E+20
  9
$PEXTMAX
 10
-1.0000000000E+20
 20
-1.0000000000E+20
 30
-1.0000000000E+20
  9
$PLIMMIN
 10
0.0
 20
0.0
  9
$PLIMMAX
 10
420.0
 20
297.0
  9
$UNITMODE
 70
     0
  9
$VISRETAIN
 70
     1
  9
$PLINEGEN
 70
     0
  9
$PSLTSCALE
 70
     1
  9
$TREEDEPTH
 70
  3020
  9
$CMLSTYLE
  2
Standard
  9
$CMLJUST
 70
     0
  9
$CMLSCALE
 40
20.0
  9
$PROXYGRAPHICS
 70
     1
  9
$MEASUREMENT
 70
     1
  9
$CELWEIGHT
370
    -1
  9
$ENDCAPS
280
     0
  9
$JOINSTYLE
280
     0
  9
$LWDISPLAY
290
     1
  9
$INSUNITS
 70
     4
  9
$HYPERLINKBASE
  1

  9
$STYLESHEET
  1

  9
$XEDIT
290
     1
  9
$CEPSNTYPE
380
     0
  9
$PSTYLEMODE
290
     1
  9
$FINGERPRINTGUID
  2
{D5CAD679-5E30-487F-B048-F55DA48D2D9A}
  9
$VERSIONGUID
  2
{FAEB1C32-E019-11D5-929B-00C0DF256EC4}
  9
$EXTNAMES
290
     1
  9
$PSVPSCALE
 40
0.0
  9
$OLESTARTUP
290
     0
  9
$SORTENTS
280
   127
  9
$INDEXCTL
280
     0
  9
$HIDETEXT
280
     1
  9
$XCLIPFRAME
280
     2
  9
$HALOGAP
280
     0
  9
$OBSCOLOR
 70
   257
  9
$OBSLTYPE
280
     0
  9
$INTERSECTIONDISPLAY
280
     0
  9
$INTERSECTIONCOLOR
 70
   257
  9
$DIMASSOC
280
     2
  9
$PROJECTNAME
  1

  9
$CAMERADISPLAY
290
     0
  9
$LENSLENGTH
 40
50.0
  9
$CAMERAHEIGHT
 40
0.0
  9
$STEPSPERSEC
 40
2.0
  9
$STEPSIZE
 40
6.0
  9
$3DDWFPREC
 40
2.0
  9
$PSOLWIDTH
 40
5.0
  9
$PSOLHEIGHT
 40
80.0
  9
$LOFTANG1
 40
1.5707963268
  9
$LOFTANG2
 40
1.5707963268
  9
$LOFTMAG1
 40
0.0
  9
$LOFTMAG2
 40
0.0
  9
$LOFTPARAM
 70
     7
  9
$LOFTNORMALS
280
     1
  9
$LATITUDE
 40
37.795
  9
$LONGITUDE
 40
-122.394
  9
$NORTHDIRECTION
 40
0.0
  9
$TIMEZONE
 70
 -8000
  9
$LIGHTGLYPHDISPLAY
280
     1
  9
$TILEMODELIGHTSYNCH
280
     1
  9
$CMATERIAL
347
44
  9
$SOLIDHIST
280
     0
  9
$SHOWHIST
280
     1
  9
$DWFFRAME
280
     2
  9
$DGNFRAME
280
     2
  9
$REALWORLDSCALE
290
     1
  9
$INTERFERECOLOR
 62
   256
  9
$CSHADOW
280
     0
  9
$SHADOWPLANELOCATION
 40
0.0
  0
ENDSEC
  0
SECTION
  2
CLASSES
  0
CLASS
  1
ACDBDICTIONARYWDFLT
  2
AcDbDictionaryWithDefault
  3
ObjectDBX Classes
 90
        0
 91
        4
280
     0
281
     0
  0
CLASS
  1
VISUALSTYLE
  2
AcDbVisualStyle
  3
ObjectDBX Classes
 90
     4095
 91
        4
280
     0
281
     0
  0
CLASS
  1
MATERIAL
  2
AcDbMaterial
  3
ObjectDBX Classes
 90
     1153
 91
        4
280
     0
281
     0
  0
CLASS
  1
SCALE
  2
AcDbScale
  3
ObjectDBX Classes
 90
     1153
 91
        4
280
     0
281
     0
  0
CLASS
  1
TABLESTYLE
  2
AcDbTableStyle
  3
ObjectDBX Classes
 90
     4095
 91
        4
280
     0
281
     0
  0
CLASS
  1
MLEADERSTYLE
  2
AcDbMLeaderStyle
  3
ACDB_MLEADERSTYLE_CLASS
 90
     4095
 91
        4
280
     0
281
     0
  0
CLASS
  1
SUN
  2
AcDbSun
  3
SCENEOE
 90
     1153
 91
        4
280
     0
281
     0
  0
CLASS
  1
DICTIONARYVAR
  2
AcDbDictionaryVar
  3
ObjectDBX Classes
 90
        0
 91
        4
280
     0
281
     0
  0
CLASS
  1
CELLSTYLEMAP
  2
AcDbCellStyleMap
  3
ObjectDBX Classes
 90
     1152
 91
        4
280
     0
281
     0
  0
ENDSEC
  0
SECTION
  2
TABLES
  0
TABLE
  2
VPORT
  5
8
330
0
100
AcDbSymbolTable
 70
     1
  0
VPORT
  5
29
330
8
100
AcDbSymbolTableRecord
100
AcDbViewportTableRecord
  2
*Active
 70
     0
 10
0.0
 20
0.0
 11
1.0
 21
1.0
 12
297.0
 22
210.0
 13
0.0
 23
0.0
 14
10.0
 24
10.0
 15
10.0
 25
10.0
 16
0.0
 26
0.0
 36
1.0
 17
0.0
 27
0.0
 37
0.0
 40
420.0
 41
1.4142857143
 42
50.0
 43
0.0
 44
0.0
 50
0.0
 51
0.0
 71
     0
 72
  2000
 73
     1
 74
     3
 75
     0
 76
     0
 77
     0
 78
     0
281
     0
 65
     1
110
0.0
120
0.0
130
0.0
111
1.0
121
0.0
131
0.0
112
0.0
122
1.0
132
0.0
 79
     0
146
0.0
 60
     3
 61
     5
292
     1
282
     1
141
0.0
142
0.0
 63
   250
361
6D
  0
ENDTAB
  0
TABLE
  2
LTYPE
  5
5
330
0
100
AcDbSymbolTable
 70
     6
  0
LTYPE
  5
14
330
5
100
AcDbSymbolTableRecord
100
AcDbLinetypeTableRecord
  2
ByBlock
 70
     0
  3

 72
    65
 73
     0
 40
0.0
  0
LTYPE
  5
15
330
5
100
AcDbSymbolTableRecord
100
AcDbLinetypeTableRecord
  2
ByLayer
 70
     0
  3

 72
    65
 73
     0
 40
0.0
  0
LTYPE
  5
16
330
5
100
AcDbSymbolTableRecord
100
AcDbLinetypeTableRecord
  2
Continuous
 70
     0
  3
Solid line
 72
    65
 73
     0
 40
0.0
  0
LTYPE
  5
6E
330
5
100
AcDbSymbolTableRecord
100
AcDbLinetypeTableRecord
  2
HIDDEN
 70
     0
  3
Hidden __ __ __ __ __ __ __ __ __ __ __ __ __ __
 72
    65
 73
     2
 40
1.905
 49
1.27
 74
     0
 49
-0.635
 74
     0
  0
LTYPE
  5
6F
330
5
100
AcDbSymbolTableRecord
100
AcDbLinetypeTableRecord
  2
PHANTOM
 70
     0
  3
Phantom ______  __  __  ______  __  __  ______
 72
    65
 73
     6
 40
12.7
 49
6.35
 74
     0
 49
-1.27
 74
     0
 49
1.27
 74
     0
 49
-1.27
 74
     0
 49
1.27
 74
     0
 49
-1.27
 74
     0
  0
LTYPE
  5
70
330
5
100
AcDbSymbolTableRecord
100
AcDbLinetypeTableRecord
  2
CENTER
 70
     0
  3
Center ____ _ ____ _ ____ _ ____ _ ____ _ ____
 72
    65
 73
     4
 40
10.16
 49
6.35
 74
     0
 49
-1.27
 74
     0
 49
1.27
 74
     0
 49
-1.27
 74
     0
  0
LTYPE
  5
71
330
5
100
AcDbSymbolTableRecord
100
AcDbLinetypeTableRecord
  2
CENTERX2
 70
     0
  3
Center (2x) ________  __  ________  __  _____
 72
    65
 73
     4
 40
20.32
 49
12.7
 74
     0
 49
-2.54
 74
     0
 49
2.54
 74
     0
 49
-2.54
 74
     0
  0
LTYPE
  5
72
330
5
100
AcDbSymbolTableRecord
100
AcDbLinetypeTableRecord
  2
DOT2
 70
     0
  3
Dot (.5x) ........................................
 72
    65
 73
     2
 40
0.635
 49
0.0
 74
     0
 49
-0.635
 74
     0
  0
ENDTAB
  0
TABLE
  2
LAYER
  5
2
330
0
100
AcDbSymbolTable
 70
     5
  0
LAYER
  5
10
330
2
100
AcDbSymbolTableRecord
100
AcDbLayerTableRecord
  2
0
 70
     0
 62
     7
  6
Continuous
370
    -3
390
F
347
46
348
0
  0
LAYER
  5
73
330
2
100
AcDbSymbolTableRecord
100
AcDbLayerTableRecord
  2
FORMAT
 70
     0
 62
     7
  6
Continuous
370
    -3
390
F
347
46
348
0
  0
LAYER
  5
74
330
2
100
AcDbSymbolTableRecord
100
AcDbLayerTableRecord
  2
SLD-0
 70
     0
 62
     1
  6
Continuous
370
    -3
390
F
347
46
348
0
  0
LAYER
  5
75
330
2
100
AcDbSymbolTableRecord
100
AcDbLayerTableRecord
  2
WATERMARK
 70
     0
 62
     1
  6
Continuous
370
    -3
390
F
347
46
348
0
  0
LAYER
  5
76
330
2
100
AcDbSymbolTableRecord
100
AcDbLayerTableRecord
  2
PRIMARY
 70
     0
 62
   179
  6
Continuous
370
    -3
390
F
347
46
348
0
  0
ENDTAB
  0
TABLE
  2
STYLE
  5
3
330
0
100
AcDbSymbolTable
 70
     1
  0
STYLE
  5
11
330
3
100
AcDbSymbolTableRecord
100
AcDbTextStyleTableRecord
  2
Standard
 70
     0
 40
0.0
 41
1.0
 50
0.0
 71
     0
 42
3.5
  3
txt
  4

  0
ENDTAB
  0
TABLE
  2
VIEW
  5
6
330
0
100
AcDbSymbolTable
 70
     0
  0
ENDTAB
  0
TABLE
  2
UCS
  5
7
330
0
100
AcDbSymbolTable
 70
     0
  0
ENDTAB
  0
TABLE
  2
APPID
  5
9
330
0
100
AcDbSymbolTable
 70
     1
  0
APPID
  5
12
330
9
100
AcDbSymbolTableRecord
100
AcDbRegAppTableRecord
  2
ACAD
 70
     0
  0
ENDTAB
  0
TABLE
  2
DIMSTYLE
  5
A
330
0
100
AcDbSymbolTable
 70
     1
100
AcDbDimStyleTable
  0
DIMSTYLE
105
27
330
A
100
AcDbSymbolTableRecord
100
AcDbDimStyleTableRecord
  2
ISO-25
 70
     0
 41
2.5
 42
0.625
 43
3.75
 44
1.25
 73
     0
 74
     0
 77
     1
 78
     8
140
2.5
141
2.5
143
0.0393700787
147
0.625
171
     3
172
     1
178
     0
271
     2
272
     2
274
     3
278
    44
283
     0
284
     8
340
11
  0
ENDTAB
  0
TABLE
  2
BLOCK_RECORD
  5
1
330
0
100
AcDbSymbolTable
 70
     2
  0
BLOCK_RECORD
  5
1F
330
1
100
AcDbSymbolTableRecord
100
AcDbBlockTableRecord
  2
*Model_Space
340
22
 70
     0
280
     1
281
     0
  0
BLOCK_RECORD
  5
1B
330
1
100
AcDbSymbolTableRecord
100
AcDbBlockTableRecord
  2
*Paper_Space
340
1E
 70
     0
280
     1
281
     0
  0
BLOCK_RECORD
  5
23
330
1
100
AcDbSymbolTableRecord
100
AcDbBlockTableRecord
  2
*Paper_Space0
340
26
 70
     0
280
     1
281
     0
  0
BLOCK_RECORD
  5
77
330
1
100
AcDbSymbolTableRecord
100
AcDbBlockTableRecord
  2
Falcon Logo 2020
340
0
 70
     0
280
     1
281
     0
  0
ENDTAB
  0
ENDSEC
  0
SECTION
  2
BLOCKS
  0
BLOCK
  5
20
330
1F
100
AcDbEntity
  8
0
100
AcDbBlockBegin
  2
*Model_Space
 70
     0
 10
0.0
 20
0.0
 30
0.0
  3
*Model_Space
  1

  0
ENDBLK
  5
21
330
1F
100
AcDbEntity
  8
0
100
AcDbBlockEnd
  0
BLOCK
  5
1C
330
1B
100
AcDbEntity
 67
     1
  8
0
100
AcDbBlockBegin
  2
*Paper_Space
 70
     0
 10
0.0
 20
0.0
 30
0.0
  3
*Paper_Space
  1

  0
ENDBLK
  5
1D
330
1B
100
AcDbEntity
 67
     1
  8
0
100
AcDbBlockEnd
  0
BLOCK
  5
24
330
23
100
AcDbEntity
  8
0
100
AcDbBlockBegin
  2
*Paper_Space0
 70
     0
 10
0.0
 20
0.0
 30
0.0
  3
*Paper_Space0
  1

  0
ENDBLK
  5
25
330
23
100
AcDbEntity
  8
0
100
AcDbBlockEnd
  0
BLOCK
  5
78
330
77
100
AcDbEntity
  8
0
100
AcDbBlockBegin
  2
Falcon Logo 2020
 70
     0
 10
0.0
 20
0.0
 30
0.0
  3
Falcon Logo 2020
  1

  0
LINE
  5
7A
330
77
100
AcDbEntity
  8
0
  6
Continuous
 62
     7
370
    18
100
AcDbLine
 10
0.2366362149
 20
-25.099120703
 30
0.0
 11
0.1890676051
 21
-25.1850754693
 31
0.0
  0
LINE
  5
7B
330
77
100
AcDbEntity
  8
0
  6
Continuous
 62
     7
370
    18
100
AcDbLine
 10
-8.9546345587
 20
-34.8305583248
 30
0.0
 11
-8.8845902523
 21
-34.8534799981
 31
0.0
  0
LINE
  5
7C
330
77
100
AcDbEntity
  8
0
  6
Continuous
 62
     7
370
    18
100
AcDbLine
 10
1.3975224119
 20
-24.3176861209
 30
0.0
 11
1.0342487254
 21
-24.0430667658
 31
0.0
  0
LINE
  5
7D
330
77
100
AcDbEntity
  8
0
  6
Continuous
 62
     7
370
    18
100
AcDbLine
 10
-1.344635895
 20
-16.4400365624
 30
0.0
 11
-1.3491582948
 21
-16.4379044226
 31
0.0
  0
LINE
  5
7E
330
77
100
AcDbEntity
  8
0
  6
Continuous
 62
     7
370
    18
100
AcDbLine
 10
7.8090812831
 20
-19.1315273814
 30
0.0
 11
7.8091802885
 21
-19.1313230883
 31
0.0
  0
LINE
  5
7F
330
77
100
AcDbEntity
  8
0
  6
Continuous
 62
     7
370
    18
100
AcDbLine
 10
0.0
 20
-1.0296983168
 30
0.0
 11
0.0
 21
1.0296983168
 31
0.0
  0
LINE
  5
80
330
77
100
AcDbEntity
  8
0
  6
Continuous
 62
     7
370
    18
100
AcDbLine
 10
10.0154752928
 20
-30.4004736372
 30
0.0
 11
9.1539977041
 21
-32.0953773775
 31
0.0
  0
LINE
  5
81
330
77
100
AcDbEntity
  8
0
  6
Continuous
 62
     7
370
    18
100
AcDbLine
 10
9.1830081219
 20
-32.1843475956
 30
0.0
 11
9.481427996
 21
-32.3361036526
 31
0.0
  0
LINE
  5
82
330
77
100
AcDbEntity
  8
0
  6
Continuous
 62
     7
370
    18
100
AcDbLine
 10
9.5704389671
 20
-32.3070676322
 30
0.0
 11
10.4992725169
 21
-30.4794480227
 31
0.0
  0
LINE
  5
83
330
77
100
AcDbEntity
  8
0
  6
Continuous
 62
     7
370
    18
100
AcDbLine
 10
12.5467888882
 20
-29.3625787572
 30
0.0
 11
12.3419088888
 21
-29.0978910313
 31
0.0
  0
LINE
  5
84
330
77
100
AcDbEntity
  8
0
  6
Continuous
 62
     7
370
    18
100
AcDbLine
 10
12.8223724068
 20
-30.9599942873
 30
0.0
 11
13.2708466106
 21
-31.0149510216
 31
0.0
  0
LINE
  5
85
330
77
100
AcDbEntity
  8
0
  6
Continuous
 62
     7
370
    18
100
AcDbLine
 10
17.1692492954
 20
-27.2721969661
 30
0.0
 11
17.0622662115
 21
-26.8332975819
 31
0.0
  0
LINE
  5
86
330
77
100
AcDbEntity
  8
0
  6
Continuous
 62
     7
370
    18
100
AcDbLine
 10
9.2674260365
 20
-23.8703966174
 30
0.0
 11
9.2820724332
 21
-23.832346426
 31
0.0
  0
LINE
  5
87
330
77
100
AcDbEntity
  8
0
  6
Continuous
 62
     7
370
    18
100
AcDbLine
 10
7.0444852887
 20
-17.62223308
 30
0.0
 11
7.0437472733
 21
-17.6218725853
 31
0.0
  0
LINE
  5
88
330
77
100
AcDbEntity
  8
0
  6
Continuous
 62
     7
370
    18
100
AcDbLine
 10
3.3695709323
 20
-18.7150893908
 30
0.0
 11
3.3652686317
 21
-18.7077888488
 31
0.0
  0
LINE
  5
89
330
77
100
AcDbEntity
  8
0
  6
Continuous
 62
     7
370
    18
100
AcDbLine
 10
3.3652686317
 20
-18.7077888488
 30
0.0
 11
3.3711671796
 21
-18.8025827031
 31
0.0
  0
LINE
  5
8A
330
77
100
AcDbEntity
  8
0
  6
Continuous
 62
     7
370
    18
100
AcDbLine
 10
3.3963759391
 20
-19.2069459167
 30
0.0
 11
3.4149125726
 21
-19.5041559716
 31
0.0
  0
SPLINE
  5
8B
330
77
100
AcDbEntity
  8
0
  6
Continuous
 62
     7
370
    18
100
AcDbSpline
210
0.0
220
0.0
230
1.0
 70
     8
 71
     3
 72
     8
 73
     4
 74
     0
 42
0.000000001
 43
0.00000001
 40
0.0
 40
0.0
 40
0.0
 40
0.0
 40
1.0
 40
1.0
 40
1.0
 40
1.0
 10
5.852229029515427
 20
-28.4276388766053
 30
0.0
 10
5.825666155886172
 20
-28.53479889167665
 30
0.0
 10
5.788722307073408
 20
-28.64641728306218
 30
0.0
 10
5.745235939283002
 20
-28.75809747055379
 30
0.0
  0
SPLINE
  5
8C
330
77
100
AcDbEntity
  8
0
  6
Continuous
 62
     7
370
    18
100
AcDbSpline
210
0.0
220
0.0
230
1.0
 70
     8
 71
     2
 72
     6
 73
     3
 74
     0
 42
0.000000001
 43
0.00000001
 40
1.0
 40
1.0
 40
1.0
 40
2.0
 40
2.0
 40
2.0
 10
5.745235939283002
 20
-28.75809747055379
 30
0.0
 10
5.531735298312616
 20
-29.30641496529977
 30
0.0
 10
5.166807901578401
 20
-29.85360333242915
 30
0.0
  0
SPLINE
  5
8D
330
77
100
AcDbEntity
  8
0
  6
Continuous
 62
     7
370
    18
100
AcDbSpline
210
0.0
220
0.0
230
1.0
 70
     8
 71
     3
 72
     8
 73
     4
 74
     0
 42
0.000000001
 43
0.00000001
 40
2.0
 40
2.0
 40
2.0
 40
2.0
 40
3.0
 40
3.0
 40
3.0
 40
3.0
 10
5.166807901578401
 20
-29.85360333242915
 30
0.0
 10
6.311772697024359
 20
-30.87441642829223
 30
0.0
 10
9.719836507960874
 20
-30.34731494120714
 30
0.0
 10
10.01547729021294
 20
-30.40048416895655
 30
0.0
  0
SPLINE
  5
8E
330
77
100
AcDbEntity
  8
0
  6
Continuous
 62
     7
370
    18
100
AcDbSpline
210
0.0
220
0.0
230
1.0
 70
     8
 71
     3
 72
     8
 73
     4
 74
     0
 42
0.000000001
 43
0.00000001
 40
3.0
 40
3.0
 40
3.0
 40
3.0
 40
3.996689690837188
 40
3.996689690837188
 40
3.996689690837188
 40
3.996689690837188
 10
10.01547729021294
 20
-30.40048416895655
 30
0.0
 10
8.977607483441508
 20
-29.99967069988004
 30
0.0
 10
7.814529315873817
 20
-28.89614101828137
 30
0.0
 10
7.081020323903868
 20
-28.0410800019856
 30
0.0
  0
SPLINE
  5
8F
330
77
100
AcDbEntity
  8
0
  6
Continuous
 62
     7
370
    18
100
AcDbSpline
210
0.0
220
0.0
230
1.0
 70
     8
 71
     3
 72
    14
 73
    10
 74
     0
 42
0.000000001
 43
0.00000001
 40
7.0
 40
7.0
 40
7.0
 40
7.0
 40
8.0
 40
9.0
 40
10.0
 40
11.0
 40
12.0
 40
13.0
 40
14.0
 40
14.0
 40
14.0
 40
14.0
 10
12.78899862649789
 20
-20.9206021766667
 30
0.0
 10
12.75298627797974
 20
-20.92674765647992
 30
0.0
 10
12.68640696953537
 20
-20.93826917416036
 30
0.0
 10
12.46146607510041
 20
-20.9609736022742
 30
0.0
 10
12.36316736583912
 20
-20.81710288078964
 30
0.0
 10
12.19029292109663
 20
-20.56395973963105
 30
0.0
 10
12.22319183016533
 20
-20.44637053703358
 30
0.0
 10
12.12701487946805
 20
-20.29328089794294
 30
0.0
 10
12.03084102575803
 20
-20.14019618848106
 30
0.0
 10
11.83537120556004
 20
-19.86366120251053
 30
0.0
  0
SPLINE
  5
90
330
77
100
AcDbEntity
  8
0
  6
Continuous
 62
     7
370
    18
100
AcDbSpline
210
0.0
220
0.0
230
1.0
 70
     8
 71
     3
 72
    14
 73
    10
 74
     0
 42
0.000000001
 43
0.00000001
 40
0.0
 40
0.0
 40
0.0
 40
0.0
 40
1.0
 40
2.0
 40
3.0
 40
4.0
 40
5.0
 40
6.0
 40
7.0
 40
7.0
 40
7.0
 40
7.0
 10
11.83537120556004
 20
-19.86366120251053
 30
0.0
 10
12.96786884091336
 20
-20.09916183373696
 30
0.0
 10
13.13102812036816
 20
-20.67672009866099
 30
0.0
 10
13.16182644407878
 20
-20.79181058502865
 30
0.0
 10
13.18921773799899
 20
-20.89522906612286
 30
0.0
 10
13.07031240695495
 20
-20.89476265907842
 30
0.0
 10
12.9537126753755
 20
-20.89486911556055
 30
0.0
 10
12.90248106064455
 20
-20.90139629528142
 30
0.0
 10
12.82501097501607
 20
-20.91445669685353
 30
0.0
 10
12.78899862649789
 20
-20.9206021766667
 30
0.0
  0
SPLINE
  5
91
330
77
100
AcDbEntity
  8
0
  6
Continuous
 62
     7
370
    18
100
AcDbSpline
210
0.0
220
0.0
230
1.0
 70
     8
 71
     3
 72
     8
 73
     4
 74
     0
 42
0.000000001
 43
0.00000001
 40
1.0
 40
1.0
 40
1.0
 40
1.0
 40
2.0
 40
2.0
 40
2.0
 40
2.0
 10
0.1890676050530227
 20
-25.18507546927273
 30
0.0
 10
-0.4758636182598079
 20
-26.36818656978759
 30
0.0
 10
-1.071372957931268
 20
-27.62135929727155
 30
0.0
 10
-1.848916090944628
 20
-28.7321574116595
 30
0.0
  0
SPLINE
  5
92
330
77
100
AcDbEntity
  8
0
  6
Continuous
 62
     7
370
    18
100
AcDbSpline
210
0.0
220
0.0
230
1.0
 70
     8
 71
     3
 72
     8
 73
     4
 74
     0
 42
0.000000001
 43
0.00000001
 40
5.0
 40
5.0
 40
5.0
 40
5.0
 40
6.0
 40
6.0
 40
6.0
 40
6.0
 10
5.741387158368082
 20
-27.62554423736086
 30
0.0
 10
5.846722846369613
 20
-27.83071469821159
 30
0.0
 10
5.917083786139072
 20
-28.10116493603904
 30
0.0
 10
5.852229029515427
 20
-28.4276388766053
 30
0.0
  0
SPLINE
  5
93
330
77
100
AcDbEntity
  8
0
  6
Continuous
 62
     7
370
    18
100
AcDbSpline
210
0.0
220
0.0
230
1.0
 70
     8
 71
     3
 72
     8
 73
     4
 74
     0
 42
0.000000001
 43
0.00000001
 40
2.0
 40
2.0
 40
2.0
 40
2.0
 40
3.0
 40
3.0
 40
3.0
 40
3.0
 10
-1.848916090944628
 20
-28.7321574116595
 30
0.0
 10
-2.58099700615287
 20
-29.77807514316875
 30
0.0
 10
-3.400555133943328
 20
-30.75794226768769
 30
0.0
 10
-4.320163121001804
 20
-31.64441810803642
 30
0.0
  0
SPLINE
  5
94
330
77
100
AcDbEntity
  8
0
  6
Continuous
 62
     7
370
    18
100
AcDbSpline
210
0.0
220
0.0
230
1.0
 70
     8
 71
     3
 72
     8
 73
     4
 74
     0
 42
0.000000001
 43
0.00000001
 40
3.0
 40
3.0
 40
3.0
 40
3.0
 40
4.0
 40
4.0
 40
4.0
 40
4.0
 10
-4.320163121001804
 20
-31.64441810803642
 30
0.0
 10
-5.502285688120724
 20
-32.78397107599655
 30
0.0
 10
-6.842602889403164
 20
-33.79629665674205
 30
0.0
 10
-8.312643520423714
 20
-34.53636241310925
 30
0.0
  0
SPLINE
  5
95
330
77
100
AcDbEntity
  8
0
  6
Continuous
 62
     7
370
    18
100
AcDbSpline
210
0.0
220
0.0
230
1.0
 70
     8
 71
     3
 72
     8
 73
     4
 74
     0
 42
0.000000001
 43
0.00000001
 40
0.0
 40
0.0
 40
0.0
 40
0.0
 40
1.0
 40
1.0
 40
1.0
 40
1.0
 10
13.16248097184179
 20
-22.77811969809535
 30
0.0
 10
13.32158274024408
 20
-22.71852038409298
 30
0.0
 10
13.49557540158558
 20
-22.54791198237409
 30
0.0
 10
13.60867884934522
 20
-22.41373778363303
 30
0.0
  0
SPLINE
  5
96
330
77
100
AcDbEntity
  8
0
  6
Continuous
 62
     7
370
    18
100
AcDbSpline
210
0.0
220
0.0
230
1.0
 70
     8
 71
     3
 72
     8
 73
     4
 74
     0
 42
0.000000001
 43
0.00000001
 40
1.0
 40
1.0
 40
1.0
 40
1.0
 40
2.0
 40
2.0
 40
2.0
 40
2.0
 10
13.60867884934522
 20
-22.41373778363303
 30
0.0
 10
14.06883090410567
 20
-21.86791668638103
 30
0.0
 10
13.93824647055738
 20
-21.10927008942834
 30
0.0
 10
13.63564806322252
 20
-20.52311487241799
 30
0.0
  0
SPLINE
  5
97
330
77
100
AcDbEntity
  8
0
  6
Continuous
 62
     7
370
    18
100
AcDbSpline
210
0.0
220
0.0
230
1.0
 70
     8
 71
     3
 72
     8
 73
     4
 74
     0
 42
0.000000001
 43
0.00000001
 40
2.0
 40
2.0
 40
2.0
 40
2.0
 40
3.0
 40
3.0
 40
3.0
 40
3.0
 10
13.63564806322252
 20
-20.52311487241799
 30
0.0
 10
13.28964627126481
 20
-19.85285410357718
 30
0.0
 10
12.67648338579735
 20
-19.35824964276486
 30
0.0
 10
12.02812778214086
 20
-18.99653111143571
 30
0.0
  0
SPLINE
  5
98
330
77
100
AcDbEntity
  8
0
  6
Continuous
 62
     7
370
    18
100
AcDbSpline
210
0.0
220
0.0
230
1.0
 70
     8
 71
     3
 72
     8
 73
     4
 74
     0
 42
0.000000001
 43
0.00000001
 40
3.0
 40
3.0
 40
3.0
 40
3.0
 40
4.0
 40
4.0
 40
4.0
 40
4.0
 10
12.02812778214086
 20
-18.99653111143571
 30
0.0
 10
11.39165828893943
 20
-18.64115679256055
 30
0.0
 10
10.65675821014571
 20
-18.52555054647402
 30
0.0
 10
9.935944716227333
 20
-18.57712058838266
 30
0.0
  0
SPLINE
  5
99
330
77
100
AcDbEntity
  8
0
  6
Continuous
 62
     7
370
    18
100
AcDbSpline
210
0.0
220
0.0
230
1.0
 70
     8
 71
     3
 72
     8
 73
     4
 74
     0
 42
0.000000001
 43
0.00000001
 40
4.0
 40
4.0
 40
4.0
 40
4.0
 40
5.0
 40
5.0
 40
5.0
 40
5.0
 10
9.935944716227333
 20
-18.57712058838266
 30
0.0
 10
9.765303020833768
 20
-18.58949090353762
 30
0.0
 10
9.595649831281627
 20
-18.61121519850877
 30
0.0
 10
9.427025317953943
 20
-18.6398242200312
 30
0.0
  0
SPLINE
  5
9A
330
77
100
AcDbEntity
  8
0
  6
Continuous
 62
     7
370
    18
100
AcDbSpline
210
0.0
220
0.0
230
1.0
 70
     8
 71
     3
 72
     8
 73
     4
 74
     0
 42
0.000000001
 43
0.00000001
 40
5.0
 40
5.0
 40
5.0
 40
5.0
 40
6.0
 40
6.0
 40
6.0
 40
6.0
 10
9.427025317953943
 20
-18.6398242200312
 30
0.0
 10
9.401841746024298
 20
-18.64325493737991
 30
0.0
 10
9.375930374221884
 20
-18.6474270753044
 30
0.0
 10
9.347977710247896
 20
-18.65350684706063
 30
0.0
  0
SPLINE
  5
9B
330
77
100
AcDbEntity
  8
0
  6
Continuous
 62
     7
370
    18
100
AcDbSpline
210
0.0
220
0.0
230
1.0
 70
     8
 71
     3
 72
     8
 73
     4
 74
     0
 42
0.000000001
 43
0.00000001
 40
6.0
 40
6.0
 40
6.0
 40
6.0
 40
7.0
 40
7.0
 40
7.0
 40
7.0
 10
9.347977710247896
 20
-18.65350684706063
 30
0.0
 10
9.3154844368747
 20
-18.66059198688143
 30
0.0
 10
9.281612371694376
 20
-18.66928222686759
 30
0.0
 10
9.248401750735159
 20
-18.67721589591814
 30
0.0
  0
SPLINE
  5
9C
330
77
100
AcDbEntity
  8
0
  6
Continuous
 62
     7
370
    18
100
AcDbSpline
210
0.0
220
0.0
230
1.0
 70
     8
 71
     3
 72
     8
 73
     4
 74
     0
 42
0.000000001
 43
0.00000001
 40
7.0
 40
7.0
 40
7.0
 40
7.0
 40
8.0
 40
8.0
 40
8.0
 40
8.0
 10
9.248401750735159
 20
-18.67721589591814
 30
0.0
 10
8.828729172017946
 20
-18.76183233709977
 30
0.0
 10
8.416325576603711
 20
-18.88669856103988
 30
0.0
 10
8.018919595305736
 20
-19.04403200074751
 30
0.0
  0
SPLINE
  5
9D
330
77
100
AcDbEntity
  8
0
  6
Continuous
 62
     7
370
    18
100
AcDbSpline
210
0.0
220
0.0
230
1.0
 70
     8
 71
     3
 72
     8
 73
     4
 74
     0
 42
0.000000001
 43
0.00000001
 40
8.0
 40
8.0
 40
8.0
 40
8.0
 40
9.0
 40
9.0
 40
9.0
 40
9.0
 10
8.018919595305736
 20
-19.04403200074751
 30
0.0
 10
7.948718757678904
 20
-19.07224882816383
 30
0.0
 10
7.878767955532004
 20
-19.10158741935046
 30
0.0
 10
7.809081283087698
 20
-19.13152738138843
 30
0.0
  0
SPLINE
  5
9E
330
77
100
AcDbEntity
  8
0
  6
Continuous
 62
     7
370
    18
100
AcDbSpline
210
0.0
220
0.0
230
1.0
 70
     8
 71
     3
 72
     8
 73
     4
 74
     0
 42
0.000000001
 43
0.00000001
 40
10.0
 40
10.0
 40
10.0
 40
10.0
 40
11.0
 40
11.0
 40
11.0
 40
11.0
 10
7.809180288493772
 20
-19.13132308829617
 30
0.0
 10
7.802761398942892
 20
-19.13413367961332
 30
0.0
 10
7.796378564323003
 20
-19.1370921325915
 30
0.0
 10
7.789959674772166
 20
-19.13990272390857
 30
0.0
  0
SPLINE
  5
9F
330
77
100
AcDbEntity
  8
0
  6
Continuous
 62
     7
370
    18
100
AcDbSpline
210
0.0
220
0.0
230
1.0
 70
     8
 71
     3
 72
     8
 73
     4
 74
     0
 42
0.000000001
 43
0.00000001
 40
11.0
 40
11.0
 40
11.0
 40
11.0
 40
12.0
 40
12.0
 40
12.0
 40
12.0
 10
7.789959674772166
 20
-19.13990272390857
 30
0.0
 10
7.727199483469478
 20
-19.16702581234913
 30
0.0
 10
7.664805832448564
 20
-19.19491328366098
 30
0.0
 10
7.602701913775588
 20
-19.22344287883286
 30
0.0
  0
SPLINE
  5
A0
330
77
100
AcDbEntity
  8
0
  6
Continuous
 62
     7
370
    18
100
AcDbSpline
210
0.0
220
0.0
230
1.0
 70
     8
 71
     3
 72
     8
 73
     4
 74
     0
 42
0.000000001
 43
0.00000001
 40
12.0
 40
12.0
 40
12.0
 40
12.0
 40
13.0
 40
13.0
 40
13.0
 40
13.0
 10
7.602701913775588
 20
-19.22344287883286
 30
0.0
 10
7.217113319687935
 20
-19.39705344743212
 30
0.0
 10
5.997001551904617
 20
-20.08735799660829
 30
0.0
 10
5.62103742160189
 20
-20.28524495509878
 30
0.0
  0
SPLINE
  5
A1
330
77
100
AcDbEntity
  8
0
  6
Continuous
 62
     7
370
    18
100
AcDbSpline
210
0.0
220
0.0
230
1.0
 70
     8
 71
     3
 72
     8
 73
     4
 74
     0
 42
0.000000001
 43
0.00000001
 40
4.0
 40
4.0
 40
4.0
 40
4.0
 40
5.0
 40
5.0
 40
5.0
 40
5.0
 10
-8.312643520423714
 20
-34.53636241310925
 30
0.0
 10
-8.411034639160002
 20
-34.58584183701119
 30
0.0
 10
-8.836966871753177
 20
-34.8700258468235
 30
0.0
 10
-8.954634558748669
 20
-34.83055832481292
 30
0.0
  0
SPLINE
  5
A2
330
77
100
AcDbEntity
  8
0
  6
Continuous
 62
     7
370
    18
100
AcDbSpline
210
0.0
220
0.0
230
1.0
 70
     8
 71
     3
 72
     8
 73
     4
 74
     0
 42
0.000000001
 43
0.00000001
 40
6.0
 40
6.0
 40
6.0
 40
6.0
 40
7.0
 40
7.0
 40
7.0
 40
7.0
 10
-8.884590252340216
 20
-34.8534799981297
 30
0.0
 10
-1.619323899915008
 20
-33.84056501948026
 30
0.0
 10
-0.8849007908736523
 20
-28.48090738365391
 30
0.0
 10
1.39752241185063
 20
-24.31768612090927
 30
0.0
  0
SPLINE
  5
A3
330
77
100
AcDbEntity
  8
0
  6
Continuous
 62
     7
370
    18
100
AcDbSpline
210
0.0
220
0.0
230
1.0
 70
     8
 71
     3
 72
     8
 73
     4
 74
     0
 42
0.000000001
 43
0.00000001
 40
15.0
 40
15.0
 40
15.0
 40
15.0
 40
16.0
 40
16.0
 40
16.0
 40
16.0
 10
7.61666402024219
 20
-16.14061015178518
 30
0.0
 10
6.37712430883088
 20
-11.21974897891878
 30
0.0
 10
0.5014966551233776
 20
-9.115775052417424
 30
0.0
 10
1.502064263494276
 20
-1.771589632457653
 30
0.0
  0
SPLINE
  5
A4
330
77
100
AcDbEntity
  8
0
  6
Continuous
 62
     7
370
    18
100
AcDbSpline
210
0.0
220
0.0
230
1.0
 70
     8
 71
     2
 72
     6
 73
     3
 74
     0
 42
0.000000001
 43
0.00000001
 40
16.0
 40
16.0
 40
16.0
 40
17.0
 40
17.0
 40
17.0
 10
1.502064263494301
 20
-1.771589632457637
 30
0.0
 10
0.8988127122367296
 20
-1.387303972091294
 30
0.0
 10
0.394445507708313
 20
-2.906964564311894
 30
0.0
  0
SPLINE
  5
A5
330
77
100
AcDbEntity
  8
0
  6
Continuous
 62
     7
370
    18
100
AcDbSpline
210
0.0
220
0.0
230
1.0
 70
     8
 71
     3
 72
     8
 73
     4
 74
     0
 42
0.000000001
 43
0.00000001
 40
17.0
 40
17.0
 40
17.0
 40
17.0
 40
18.0
 40
18.0
 40
18.0
 40
18.0
 10
0.3944455077083129
 20
-2.906964564311893
 30
0.0
 10
0.1589062916464202
 20
-2.432255303561799
 30
0.0
 10
0.0481326418671805
 20
-1.719165557923681
 30
0.0
 10
-0.0000000000000111
 20
-1.029698316824825
 30
0.0
  0
SPLINE
  5
A6
330
77
100
AcDbEntity
  8
0
  6
Continuous
 62
     7
370
    18
100
AcDbSpline
210
0.0
220
0.0
230
1.0
 70
     8
 71
     3
 72
     8
 73
     4
 74
     0
 42
0.000000001
 43
0.00000001
 40
19.0
 40
19.0
 40
19.0
 40
19.0
 40
20.0
 40
20.0
 40
20.0
 40
20.0
 10
-0.000000000000011
 20
1.029698316824825
 30
0.0
 10
-0.247605001678439
 20
0.9563586700206326
 30
0.0
 10
-0.4965992125871336
 20
0.8376424291228968
 30
0.0
 10
-0.7423932761695102
 20
0.6788199880206746
 30
0.0
  0
SPLINE
  5
A7
330
77
100
AcDbEntity
  8
0
  6
Continuous
 62
     7
370
    18
100
AcDbSpline
210
0.0
220
0.0
230
1.0
 70
     8
 71
     3
 72
     8
 73
     4
 74
     0
 42
0.000000001
 43
0.00000001
 40
20.0
 40
20.0
 40
20.0
 40
20.0
 40
21.0
 40
21.0
 40
21.0
 40
21.0
 10
-0.7423932761695041
 20
0.6788199880206758
 30
0.0
 10
-3.773706502500729
 20
-1.088364608817558
 30
0.0
 10
-5.828023551311025
 20
-6.502648922742776
 30
0.0
 10
-6.373622392678747
 20
-10.44545216301364
 30
0.0
  0
SPLINE
  5
A8
330
77
100
AcDbEntity
  8
0
  6
Continuous
 62
     7
370
    18
100
AcDbSpline
210
0.0
220
0.0
230
1.0
 70
     8
 71
     3
 72
     8
 73
     4
 74
     0
 42
0.000000001
 43
0.00000001
 40
21.0
 40
21.0
 40
21.0
 40
21.0
 40
22.0
 40
22.0
 40
22.0
 40
22.0
 10
-6.373622392678747
 20
-10.44545216301364
 30
0.0
 10
-6.534387006384851
 20
-11.6072393176462
 30
0.0
 10
-6.110986063680238
 20
-12.77235598421836
 30
0.0
 10
-5.239490498328086
 20
-13.55729186389973
 30
0.0
  0
SPLINE
  5
A9
330
77
100
AcDbEntity
  8
0
  6
Continuous
 62
     7
370
    18
100
AcDbSpline
210
0.0
220
0.0
230
1.0
 70
     8
 71
     3
 72
     8
 73
     4
 74
     0
 42
0.000000001
 43
0.00000001
 40
22.0
 40
22.0
 40
22.0
 40
22.0
 40
23.0
 40
23.0
 40
23.0
 40
23.0
 10
-5.239490498328086
 20
-13.55729186389973
 30
0.0
 10
-5.069093162935886
 20
-13.71072824031157
 30
0.0
 10
-4.812594020154235
 20
-13.94204896363468
 30
0.0
 10
-4.497635623981145
 20
-14.22616249222083
 30
0.0
  0
SPLINE
  5
AA
330
77
100
AcDbEntity
  8
0
  6
Continuous
 62
     7
370
    18
100
AcDbSpline
210
0.0
220
0.0
230
1.0
 70
     8
 71
     3
 72
     8
 73
     4
 74
     0
 42
0.000000001
 43
0.00000001
 40
23.0
 40
23.0
 40
23.0
 40
23.0
 40
24.0
 40
24.0
 40
24.0
 40
24.0
 10
-4.497635623981145
 20
-14.22616249222083
 30
0.0
 10
-7.377206548962273
 20
-14.3610427235814
 30
0.0
 10
-10.37603432623049
 20
-14.41258052682769
 30
0.0
 10
-13.47142906384564
 20
-11.50579972895087
 30
0.0
  0
SPLINE
  5
AB
330
77
100
AcDbEntity
  8
0
  6
Continuous
 62
     7
370
    18
100
AcDbSpline
210
0.0
220
0.0
230
1.0
 70
     8
 71
     2
 72
     6
 73
     3
 74
     0
 42
0.000000001
 43
0.00000001
 40
24.0
 40
24.0
 40
24.0
 40
25.0
 40
25.0
 40
25.0
 10
-13.47142906384564
 20
-11.50579972895087
 30
0.0
 10
-14.10688605414107
 20
-11.76335116991974
 30
0.0
 10
-13.20042236989913
 20
-13.00202096164688
 30
0.0
  0
SPLINE
  5
AC
330
77
100
AcDbEntity
  8
0
  6
Continuous
 62
     7
370
    18
100
AcDbSpline
210
0.0
220
0.0
230
1.0
 70
     8
 71
     3
 72
     8
 73
     4
 74
     0
 42
0.000000001
 43
0.00000001
 40
25.0
 40
25.0
 40
25.0
 40
25.0
 40
26.0
 40
26.0
 40
26.0
 40
26.0
 10
-13.20042236989913
 20
-13.00202096164688
 30
0.0
 10
-13.70207232315818
 20
-12.92204228168365
 30
0.0
 10
-14.32058558561591
 20
-12.6121679091681
 30
0.0
 10
-14.88582480126041
 20
-12.26649433731928
 30
0.0
  0
SPLINE
  5
AD
330
77
100
AcDbEntity
  8
0
  6
Continuous
 62
     7
370
    18
100
AcDbSpline
210
0.0
220
0.0
230
1.0
 70
     8
 71
     3
 72
     8
 73
     4
 74
     0
 42
0.000000001
 43
0.00000001
 40
26.0
 40
26.0
 40
26.0
 40
26.0
 40
27.0
 40
27.0
 40
27.0
 40
27.0
 10
-14.88582480126041
 20
-12.26649433731928
 30
0.0
 10
-15.11439138607148
 20
-12.10379107541082
 30
0.0
 10
-15.34298592256308
 20
-11.9411337926506
 30
0.0
 10
-15.57155250737237
 20
-11.77843053074102
 30
0.0
  0
SPLINE
  5
AE
330
77
100
AcDbEntity
  8
0
  6
Continuous
 62
     7
370
    18
100
AcDbSpline
210
0.0
220
0.0
230
1.0
 70
     8
 71
     3
 72
     8
 73
     4
 74
     0
 42
0.000000001
 43
0.00000001
 40
27.0
 40
27.0
 40
27.0
 40
27.0
 40
28.0
 40
28.0
 40
28.0
 40
28.0
 10
-15.57155250737237
 20
-11.77843053074102
 30
0.0
 10
-15.54626988054684
 20
-12.43496417244951
 30
0.0
 10
-15.44651697844639
 20
-13.43368074094347
 30
0.0
 10
-15.07122586658969
 20
-14.58147725173132
 30
0.0
  0
SPLINE
  5
AF
330
77
100
AcDbEntity
  8
0
  6
Continuous
 62
     7
370
    18
100
AcDbSpline
210
0.0
220
0.0
230
1.0
 70
     8
 71
     3
 72
     8
 73
     4
 74
     0
 42
0.000000001
 43
0.00000001
 40
28.0
 40
28.0
 40
28.0
 40
28.0
 40
29.0
 40
29.0
 40
29.0
 40
29.0
 10
-15.07122586658969
 20
-14.58147725173132
 30
0.0
 10
-14.14101186928763
 20
-17.42663227492847
 30
0.0
 10
-12.21890524301946
 20
-19.04448598632376
 30
0.0
 10
-11.57411800959374
 20
-19.5729627316439
 30
0.0
  0
SPLINE
  5
B0
330
77
100
AcDbEntity
  8
0
  6
Continuous
 62
     7
370
    18
100
AcDbSpline
210
0.0
220
0.0
230
1.0
 70
     8
 71
     3
 72
     8
 73
     4
 74
     0
 42
0.000000001
 43
0.00000001
 40
29.0
 40
29.0
 40
29.0
 40
29.0
 40
30.0
 40
30.0
 40
30.0
 40
30.0
 10
-11.57411800959374
 20
-19.5729627316439
 30
0.0
 10
-10.2278360673758
 20
-20.67639225726875
 30
0.0
 10
-8.968626575135383
 20
-21.18705865057519
 30
0.0
 10
-8.289256857954726
 20
-21.45628499958021
 30
0.0
  0
SPLINE
  5
B1
330
77
100
AcDbEntity
  8
0
  6
Continuous
 62
     7
370
    18
100
AcDbSpline
210
0.0
220
0.0
230
1.0
 70
     8
 71
     3
 72
     8
 73
     4
 74
     0
 42
0.000000001
 43
0.00000001
 40
30.0
 40
30.0
 40
30.0
 40
30.0
 40
31.0
 40
31.0
 40
31.0
 40
31.0
 10
-8.289256857954726
 20
-21.45628499958021
 30
0.0
 10
-6.483682376184763
 20
-22.17184513279697
 30
0.0
 10
-4.87477560776411
 20
-22.35351920351825
 30
0.0
 10
-3.81330444415229
 20
-22.39201571571204
 30
0.0
  0
SPLINE
  5
B2
330
77
100
AcDbEntity
  8
0
  6
Continuous
 62
     7
370
    18
100
AcDbSpline
210
0.0
220
0.0
230
1.0
 70
     8
 71
     3
 72
     8
 73
     4
 74
     0
 42
0.000000001
 43
0.00000001
 40
31.0
 40
31.0
 40
31.0
 40
31.0
 40
32.0
 40
32.0
 40
32.0
 40
32.0
 10
-3.81330444415229
 20
-22.39201571571204
 30
0.0
 10
-2.745750888684706
 20
-24.06170974884294
 30
0.0
 10
-1.264629867395483
 20
-24.91818512638145
 30
0.0
 10
0.2366295532190317
 20
-25.09914029792422
 30
0.0
  0
SPLINE
  5
B3
330
77
100
AcDbEntity
  8
0
  6
Continuous
 62
     7
370
    18
100
AcDbSpline
210
0.0
220
0.0
230
1.0
 70
     8
 71
     3
 72
     8
 73
     4
 74
     0
 42
0.000000001
 43
0.00000001
 40
32.0
 40
32.0
 40
32.0
 40
32.0
 40
33.0
 40
33.0
 40
33.0
 40
33.0
 10
0.2366295532190317
 20
-25.09914029792422
 30
0.0
 10
0.2368448266661417
 20
-25.0995734306171
 30
0.0
 10
0.2368448266661417
 20
-25.0995734306171
 30
0.0
 10
0.2370729014386109
 20
-25.10002693981265
 30
0.0
  0
SPLINE
  5
B4
330
77
100
AcDbEntity
  8
0
  6
Continuous
 62
     7
370
    18
100
AcDbSpline
210
0.0
220
0.0
230
1.0
 70
     8
 71
     3
 72
     8
 73
     4
 74
     0
 42
0.000000001
 43
0.00000001
 40
33.0
 40
33.0
 40
33.0
 40
33.0
 40
34.0
 40
34.0
 40
34.0
 40
34.0
 10
0.2370729014386109
 20
-25.10002693981265
 30
0.0
 10
-0.4473726928542233
 20
-26.30798726564406
 30
0.0
 10
-1.052723993388068
 20
-27.59471040392042
 30
0.0
 10
-1.848922752625017
 20
-28.73217700654635
 30
0.0
  0
SPLINE
  5
B5
330
77
100
AcDbEntity
  8
0
  6
Continuous
 62
     7
370
    18
100
AcDbSpline
210
0.0
220
0.0
230
1.0
 70
     8
 71
     3
 72
     8
 73
     4
 74
     0
 42
0.000000001
 43
0.00000001
 40
34.0
 40
34.0
 40
34.0
 40
34.0
 40
35.0
 40
35.0
 40
35.0
 40
35.0
 10
-1.848922752625017
 20
-28.73217700654635
 30
0.0
 10
-2.581016469155664
 20
-29.77807436155356
 30
0.0
 10
-3.400574596946121
 20
-30.75794148607251
 30
0.0
 10
-4.320169782681019
 20
-31.64443770292509
 30
0.0
  0
SPLINE
  5
B6
330
77
100
AcDbEntity
  8
0
  6
Continuous
 62
     7
370
    18
100
AcDbSpline
210
0.0
220
0.0
230
1.0
 70
     8
 71
     3
 72
     8
 73
     4
 74
     0
 42
0.000000001
 43
0.00000001
 40
35.0
 40
35.0
 40
35.0
 40
35.0
 40
36.0
 40
36.0
 40
36.0
 40
36.0
 10
-4.320169782681019
 20
-31.64443770292509
 30
0.0
 10
-5.502292349801121
 20
-32.78399067088333
 30
0.0
 10
-6.842609551083555
 20
-33.79631625162889
 30
0.0
 10
-8.312622230422718
 20
-34.53633602884937
 30
0.0
  0
SPLINE
  5
B7
330
77
100
AcDbEntity
  8
0
  6
Continuous
 62
     7
370
    18
100
AcDbSpline
210
0.0
220
0.0
230
1.0
 70
     8
 71
     3
 72
     8
 73
     4
 74
     0
 42
0.000000001
 43
0.00000001
 40
36.0
 40
36.0
 40
36.0
 40
36.0
 40
37.0
 40
37.0
 40
37.0
 40
37.0
 10
-8.312622230422718
 20
-34.53633602884937
 30
0.0
 10
-8.41100054783539
 20
-34.58583582925527
 30
0.0
 10
-8.836986334755972
 20
-34.87002506520831
 30
0.0
 10
-8.95464122042903
 20
-34.83057791969982
 30
0.0
  0
SPLINE
  5
B8
330
77
100
AcDbEntity
  8
0
  6
Continuous
 62
     7
370
    18
100
AcDbSpline
210
0.0
220
0.0
230
1.0
 70
     8
 71
     3
 72
     8
 73
     4
 74
     0
 42
0.000000001
 43
0.00000001
 40
37.0
 40
37.0
 40
37.0
 40
37.0
 40
38.0
 40
38.0
 40
38.0
 40
38.0
 10
-8.95464122042903
 20
-34.83057791969982
 30
0.0
 10
-7.855316701000916
 20
-35.19902224220693
 30
0.0
 10
-6.670985849771815
 20
-35.31257295399734
 30
0.0
 10
-5.520530485207503
 20
-35.38070666342594
 30
0.0
  0
SPLINE
  5
B9
330
77
100
AcDbEntity
  8
0
  6
Continuous
 62
     7
370
    18
100
AcDbSpline
210
0.0
220
0.0
230
1.0
 70
     8
 71
     3
 72
     8
 73
     4
 74
     0
 42
0.000000001
 43
0.00000001
 40
38.0
 40
38.0
 40
38.0
 40
38.0
 40
39.0
 40
39.0
 40
39.0
 40
39.0
 10
-5.520530485207503
 20
-35.38070666342594
 30
0.0
 10
-4.24400827120937
 20
-35.45626070172416
 30
0.0
 10
-2.850018941515092
 20
-35.37210723674404
 30
0.0
 10
-1.633497186371029
 20
-34.95381072794466
 30
0.0
  0
SPLINE
  5
BA
330
77
100
AcDbEntity
  8
0
  6
Continuous
 62
     7
370
    18
100
AcDbSpline
210
0.0
220
0.0
230
1.0
 70
     8
 71
     3
 72
     8
 73
     4
 74
     0
 42
0.000000001
 43
0.00000001
 40
39.0
 40
39.0
 40
39.0
 40
39.0
 40
40.0
 40
40.0
 40
40.0
 40
40.0
 10
-1.633497186371029
 20
-34.95381072794466
 30
0.0
 10
-1.161647758417268
 20
-34.79156986805435
 30
0.0
 10
-0.6998897419386533
 20
-34.60060003392512
 30
0.0
 10
-0.2417020015756544
 20
-34.40340438622162
 30
0.0
  0
SPLINE
  5
BB
330
77
100
AcDbEntity
  8
0
  6
Continuous
 62
     7
370
    18
100
AcDbSpline
210
0.0
220
0.0
230
1.0
 70
     8
 71
     3
 72
     8
 73
     4
 74
     0
 42
0.000000001
 43
0.00000001
 40
40.0
 40
40.0
 40
40.0
 40
40.0
 40
41.0
 40
41.0
 40
41.0
 40
41.0
 10
-0.2417020015756544
 20
-34.40340438622162
 30
0.0
 10
-0.1816605164030941
 20
-34.37756301425404
 30
0.0
 10
0.5680618153143264
 20
-34.09824266291977
 30
0.0
 10
0.5619671856328979
 20
-34.03977754396634
 30
0.0
  0
SPLINE
  5
BC
330
77
100
AcDbEntity
  8
0
  6
Continuous
 62
     7
370
    18
100
AcDbSpline
210
0.0
220
0.0
230
1.0
 70
     8
 71
     3
 72
     8
 73
     4
 74
     0
 42
0.000000001
 43
0.00000001
 40
41.0
 40
41.0
 40
41.0
 40
41.0
 40
42.0
 40
42.0
 40
42.0
 40
42.0
 10
0.5619671856328945
 20
-34.03977754396634
 30
0.0
 10
0.5009923545267035
 20
-33.45272868294924
 30
0.0
 10
0.3892408997618144
 20
-32.91033974047543
 30
0.0
 10
0.4097333630990446
 20
-32.31246460469481
 30
0.0
  0
SPLINE
  5
BD
330
77
100
AcDbEntity
  8
0
  6
Continuous
 62
     7
370
    18
100
AcDbSpline
210
0.0
220
0.0
230
1.0
 70
     8
 71
     3
 72
     8
 73
     4
 74
     0
 42
0.000000001
 43
0.00000001
 40
42.0
 40
42.0
 40
42.0
 40
42.0
 40
43.0
 40
43.0
 40
43.0
 40
43.0
 10
0.4097333630990446
 20
-32.31246460469481
 30
0.0
 10
0.4361451972772317
 20
-31.54089785432373
 30
0.0
 10
0.5999347140878322
 20
-30.80335021591472
 30
0.0
 10
0.781068330884661
 20
-30.05649778236755
 30
0.0
  0
SPLINE
  5
BE
330
77
100
AcDbEntity
  8
0
  6
Continuous
 62
     7
370
    18
100
AcDbSpline
210
0.0
220
0.0
230
1.0
 70
     8
 71
     2
 72
     6
 73
     3
 74
     0
 42
0.000000001
 43
0.00000001
 40
43.0
 40
43.0
 40
43.0
 40
44.0
 40
44.0
 40
44.0
 10
0.7810683308846645
 20
-30.05649778236755
 30
0.0
 10
2.019861532240659
 20
-29.56825285869967
 30
0.0
 10
2.258068961108365
 20
-29.47606436460191
 30
0.0
  0
SPLINE
  5
BF
330
77
100
AcDbEntity
  8
0
  6
Continuous
 62
     7
370
    18
100
AcDbSpline
210
0.0
220
0.0
230
1.0
 70
     8
 71
     3
 72
     8
 73
     4
 74
     0
 42
0.000000001
 43
0.00000001
 40
44.0
 40
44.0
 40
44.0
 40
44.0
 40
45.0
 40
45.0
 40
45.0
 40
45.0
 10
2.258068961108342
 20
-29.47606436460192
 30
0.0
 10
3.006698264126698
 20
-29.1863189469019
 30
0.0
 10
3.728021454602016
 20
-28.82750567245856
 30
0.0
 10
4.423057775498144
 20
-28.42657886572963
 30
0.0
  0
SPLINE
  5
C0
330
77
100
AcDbEntity
  8
0
  6
Continuous
 62
     7
370
    18
100
AcDbSpline
210
0.0
220
0.0
230
1.0
 70
     8
 71
     3
 72
     8
 73
     4
 74
     0
 42
0.000000001
 43
0.00000001
 40
45.0
 40
45.0
 40
45.0
 40
45.0
 40
46.0
 40
46.0
 40
46.0
 40
46.0
 10
4.423057775498167
 20
-28.42657886572961
 30
0.0
 10
4.868536225754158
 20
-28.16961728043866
 30
0.0
 10
5.301864108552885
 20
-27.8924103198887
 30
0.0
 10
5.741401688969919
 20
-27.62554000024407
 30
0.0
  0
SPLINE
  5
C1
330
77
100
AcDbEntity
  8
0
  6
Continuous
 62
     7
370
    18
100
AcDbSpline
210
0.0
220
0.0
230
1.0
 70
     8
 71
     3
 72
     8
 73
     4
 74
     0
 42
0.000000001
 43
0.00000001
 40
46.0
 40
46.0
 40
46.0
 40
46.0
 40
47.0
 40
47.0
 40
47.0
 40
47.0
 10
5.741401688969916
 20
-27.62554000024407
 30
0.0
 10
5.846716220532924
 20
-27.83071994248106
 30
0.0
 10
5.91709395351037
 20
-28.10115880837991
 30
0.0
 10
5.852221678941643
 20
-28.42763672804736
 30
0.0
  0
SPLINE
  5
C2
330
77
100
AcDbEntity
  8
0
  6
Continuous
 62
     7
370
    18
100
AcDbSpline
210
0.0
220
0.0
230
1.0
 70
     8
 71
     3
 72
     8
 73
     4
 74
     0
 42
0.000000001
 43
0.00000001
 40
47.0
 40
47.0
 40
47.0
 40
47.0
 40
48.0
 40
48.0
 40
48.0
 40
48.0
 10
5.852221678941643
 20
-28.42763672804736
 30
0.0
 10
5.825697879445541
 20
-28.53478547887384
 30
0.0
 10
5.788744133302801
 20
-28.64641216137642
 30
0.0
 10
5.745232449477395
 20
-28.75809491089348
 30
0.0
  0
SPLINE
  5
C3
330
77
100
AcDbEntity
  8
0
  6
Continuous
 62
     7
370
    18
100
AcDbSpline
210
0.0
220
0.0
230
1.0
 70
     8
 71
     2
 72
     6
 73
     3
 74
     0
 42
0.000000001
 43
0.00000001
 40
48.0
 40
48.0
 40
48.0
 40
49.0
 40
49.0
 40
49.0
 10
5.745232449477399
 20
-28.75809491089347
 30
0.0
 10
5.531726678391706
 20
-29.30640322476907
 30
0.0
 10
5.166798660391799
 20
-29.85361491693775
 30
0.0
  0
SPLINE
  5
C4
330
77
100
AcDbEntity
  8
0
  6
Continuous
 62
     7
370
    18
100
AcDbSpline
210
0.0
220
0.0
230
1.0
 70
     8
 71
     3
 72
     8
 73
     4
 74
     0
 42
0.000000001
 43
0.00000001
 40
49.0
 40
49.0
 40
49.0
 40
49.0
 40
50.0
 40
50.0
 40
50.0
 40
50.0
 10
5.166798660391799
 20
-29.85361491693775
 30
0.0
 10
6.311748821301538
 20
-30.87442349267374
 30
0.0
 10
9.719833011058038
 20
-30.34731936373517
 30
0.0
 10
10.01547529282146
 20
-30.40047363722643
 30
0.0
  0
SPLINE
  5
C5
330
77
100
AcDbEntity
  8
0
  6
Continuous
 62
     7
370
    18
100
AcDbSpline
210
0.0
220
0.0
230
1.0
 70
     8
 71
     3
 72
     8
 73
     4
 74
     0
 42
0.000000001
 43
0.00000001
 40
51.0
 40
51.0
 40
51.0
 40
51.0
 40
52.0
 40
52.0
 40
52.0
 40
52.0
 10
9.153997704124192
 20
-32.09537737749855
 30
0.0
 10
9.13746533104106
 20
-32.12795874790397
 30
0.0
 10
9.15043432665133
 20
-32.16778204466993
 30
0.0
 10
9.183008121878673
 20
-32.18434759557922
 30
0.0
  0
SPLINE
  5
C6
330
77
100
AcDbEntity
  8
0
  6
Continuous
 62
     7
370
    18
100
AcDbSpline
210
0.0
220
0.0
230
1.0
 70
     8
 71
     3
 72
     8
 73
     4
 74
     0
 42
0.000000001
 43
0.00000001
 40
53.0
 40
53.0
 40
53.0
 40
53.0
 40
54.0
 40
54.0
 40
54.0
 40
54.0
 10
9.481427995968861
 20
-32.33610365259894
 30
0.0
 10
9.51400179119618
 20
-32.35266920350812
 30
0.0
 10
9.553865840967733
 20
-32.33967460525203
 30
0.0
 10
9.570438967056274
 20
-32.30706763220036
 30
0.0
  0
SPLINE
  5
C7
330
77
100
AcDbEntity
  8
0
  6
Continuous
 62
     7
370
    18
100
AcDbSpline
210
0.0
220
0.0
230
1.0
 70
     8
 71
     3
 72
     8
 73
     4
 74
     0
 42
0.000000001
 43
0.00000001
 40
55.0
 40
55.0
 40
55.0
 40
55.0
 40
56.0
 40
56.0
 40
56.0
 40
56.0
 10
10.49927251692245
 20
-30.47944802269659
 30
0.0
 10
10.51193120516501
 20
-30.46811349836248
 30
0.0
 10
10.52226333020525
 20
-30.4588658263786
 30
0.0
 10
10.53488126544412
 20
-30.44755690468914
 30
0.0
  0
SPLINE
  5
C8
330
77
100
AcDbEntity
  8
0
  6
Continuous
 62
     7
370
    18
100
AcDbSpline
210
0.0
220
0.0
230
1.0
 70
     8
 71
     3
 72
     8
 73
     4
 74
     0
 42
0.000000001
 43
0.00000001
 40
56.0
 40
56.0
 40
56.0
 40
56.0
 40
57.0
 40
57.0
 40
57.0
 40
57.0
 10
10.53488126544413
 20
-30.44755690468914
 30
0.0
 10
10.94397733100252
 20
-30.30331240881152
 30
0.0
 10
11.82966874715053
 20
-29.98429676100319
 30
0.0
 10
12.53432218047716
 20
-29.45754287024319
 30
0.0
  0
SPLINE
  5
C9
330
77
100
AcDbEntity
  8
0
  6
Continuous
 62
     7
370
    18
100
AcDbSpline
210
0.0
220
0.0
230
1.0
 70
     8
 71
     3
 72
     8
 73
     4
 74
     0
 42
0.000000001
 43
0.00000001
 40
57.0
 40
57.0
 40
57.0
 40
57.0
 40
58.0
 40
58.0
 40
58.0
 40
58.0
 10
12.53432218047716
 20
-29.45754287024319
 30
0.0
 10
12.5642240877841
 20
-29.43520496265615
 30
0.0
 10
12.56963855743016
 20
-29.39207389927418
 30
0.0
 10
12.54678888824712
 20
-29.36257875718611
 30
0.0
  0
SPLINE
  5
CA
330
77
100
AcDbEntity
  8
0
  6
Continuous
 62
     7
370
    18
100
AcDbSpline
210
0.0
220
0.0
230
1.0
 70
     8
 71
     3
 72
     8
 73
     4
 74
     0
 42
0.000000001
 43
0.00000001
 40
59.0
 40
59.0
 40
59.0
 40
59.0
 40
60.0
 40
60.0
 40
60.0
 40
60.0
 10
12.34190888882302
 20
-29.09789103127773
 30
0.0
 10
12.31997516065779
 20
-29.06958242439806
 30
0.0
 10
12.28012241966975
 20
-29.06441030595369
 30
0.0
 10
12.25140704757306
 20
-29.08583227252173
 30
0.0
  0
SPLINE
  5
CB
330
77
100
AcDbEntity
  8
0
  6
Continuous
 62
     7
370
    18
100
AcDbSpline
210
0.0
220
0.0
230
1.0
 70
     8
 71
     3
 72
     8
 73
     4
 74
     0
 42
0.000000001
 43
0.00000001
 40
60.0
 40
60.0
 40
60.0
 40
60.0
 40
61.0
 40
61.0
 40
61.0
 40
61.0
 10
12.25140704757306
 20
-29.08583227252173
 30
0.0
 10
11.61813304861152
 20
-29.55810881407591
 30
0.0
 10
10.80862034190002
 20
-29.85498500376039
 30
0.0
 10
10.41032416844674
 20
-29.99588325594667
 30
0.0
  0
SPLINE
  5
CC
330
77
100
AcDbEntity
  8
0
  6
Continuous
 62
     7
370
    18
100
AcDbSpline
210
0.0
220
0.0
230
1.0
 70
     8
 71
     3
 72
     8
 73
     4
 74
     0
 42
0.000000001
 43
0.00000001
 40
61.0
 40
61.0
 40
61.0
 40
61.0
 40
62.0
 40
62.0
 40
62.0
 40
62.0
 10
10.41032416844674
 20
-29.99588325594667
 30
0.0
 10
10.11835353580004
 20
-29.93880243613075
 30
0.0
 10
9.785406052735285
 20
-29.78148435767264
 30
0.0
 10
9.416902124193346
 20
-29.50966772742371
 30
0.0
  0
SPLINE
  5
CD
330
77
100
AcDbEntity
  8
0
  6
Continuous
 62
     7
370
    18
100
AcDbSpline
210
0.0
220
0.0
230
1.0
 70
     8
 71
     3
 72
     8
 73
     4
 74
     0
 42
0.000000001
 43
0.00000001
 40
62.0
 40
62.0
 40
62.0
 40
62.0
 40
63.0
 40
63.0
 40
63.0
 40
63.0
 10
9.416902124193346
 20
-29.50966772742371
 30
0.0
 10
9.407944475865712
 20
-29.50119955155471
 30
0.0
 10
9.394588799105467
 20
-29.49143050250025
 30
0.0
 10
9.376572020348016
 20
-29.48021324667389
 30
0.0
  0
SPLINE
  5
CE
330
77
100
AcDbEntity
  8
0
  6
Continuous
 62
     7
370
    18
100
AcDbSpline
210
0.0
220
0.0
230
1.0
 70
     8
 71
     3
 72
     8
 73
     4
 74
     0
 42
0.000000001
 43
0.00000001
 40
63.0
 40
63.0
 40
63.0
 40
63.0
 40
64.0
 40
64.0
 40
64.0
 40
64.0
 10
9.376572020348016
 20
-29.48021324667389
 30
0.0
 10
9.145324806072944
 20
-29.30555303878837
 30
0.0
 10
8.900259957859191
 20
-29.0859189225671
 30
0.0
 10
8.642485564221985
 20
-28.81737501008692
 30
0.0
  0
SPLINE
  5
CF
330
77
100
AcDbEntity
  8
0
  6
Continuous
 62
     7
370
    18
100
AcDbSpline
210
0.0
220
0.0
230
1.0
 70
     8
 71
     2
 72
     6
 73
     3
 74
     0
 42
0.000000001
 43
0.00000001
 40
64.0
 40
64.0
 40
64.0
 40
65.0
 40
65.0
 40
65.0
 10
8.642485564221984
 20
-28.81737501008692
 30
0.0
 10
8.62781779716172
 20
-28.81266466885932
 30
0.0
 10
8.605249246441485
 20
-28.80533009248483
 30
0.0
  0
SPLINE
  5
D0
330
77
100
AcDbEntity
  8
0
  6
Continuous
 62
     7
370
    18
100
AcDbSpline
210
0.0
220
0.0
230
1.0
 70
     8
 71
     3
 72
     8
 73
     4
 74
     0
 42
0.000000001
 43
0.00000001
 40
65.0
 40
65.0
 40
65.0
 40
65.0
 40
66.0
 40
66.0
 40
66.0
 40
66.0
 10
8.605249246441483
 20
-28.80533009248483
 30
0.0
 10
8.441756705356795
 20
-28.62769111192185
 30
0.0
 10
8.288445022476992
 20
-28.44047320919115
 30
0.0
 10
8.160507965772787
 20
-28.26397079802058
 30
0.0
  0
SPLINE
  5
D1
330
77
100
AcDbEntity
  8
0
  6
Continuous
 62
     7
370
    18
100
AcDbSpline
210
0.0
220
0.0
230
1.0
 70
     8
 71
     3
 72
     8
 73
     4
 74
     0
 42
0.000000001
 43
0.00000001
 40
66.0
 40
66.0
 40
66.0
 40
66.0
 40
67.0
 40
67.0
 40
67.0
 40
67.0
 10
8.160507965772789
 20
-28.26397079802058
 30
0.0
 10
8.607151503975404
 20
-28.41906030303154
 30
0.0
 10
9.19232914263821
 20
-28.57237361567124
 30
0.0
 10
9.863974170124614
 20
-28.62737240380984
 30
0.0
  0
SPLINE
  5
D2
330
77
100
AcDbEntity
  8
0
  6
Continuous
 62
     7
370
    18
100
AcDbSpline
210
0.0
220
0.0
230
1.0
 70
     8
 71
     3
 72
     8
 73
     4
 74
     0
 42
0.000000001
 43
0.00000001
 40
67.0
 40
67.0
 40
67.0
 40
67.0
 40
68.0
 40
68.0
 40
68.0
 40
68.0
 10
9.863974170124614
 20
-28.62737240380984
 30
0.0
 10
9.929750373961975
 20
-28.63137718087538
 30
0.0
 10
9.995567330801844
 20
-28.63535635529414
 30
0.0
 10
10.05958246956674
 20
-28.63782455467626
 30
0.0
  0
SPLINE
  5
D3
330
77
100
AcDbEntity
  8
0
  6
Continuous
 62
     7
370
    18
100
AcDbSpline
210
0.0
220
0.0
230
1.0
 70
     8
 71
     3
 72
     8
 73
     4
 74
     0
 42
0.000000001
 43
0.00000001
 40
68.0
 40
68.0
 40
68.0
 40
68.0
 40
69.0
 40
69.0
 40
69.0
 40
69.0
 10
10.05958246956674
 20
-28.63782455467626
 30
0.0
 10
10.11127119041664
 20
-28.63985208217537
 30
0.0
 10
10.16294064545186
 20
-28.64456308025562
 30
0.0
 10
10.21460035848199
 20
-28.64618254964
 30
0.0
  0
SPLINE
  5
D4
330
77
100
AcDbEntity
  8
0
  6
Continuous
 62
     7
370
    18
100
AcDbSpline
210
0.0
220
0.0
230
1.0
 70
     8
 71
     3
 72
     8
 73
     4
 74
     0
 42
0.000000001
 43
0.00000001
 40
69.0
 40
69.0
 40
69.0
 40
69.0
 40
70.0
 40
70.0
 40
70.0
 40
70.0
 10
10.21460035848199
 20
-28.64618254964
 30
0.0
 10
10.21915118340657
 20
-28.64627909690886
 30
0.0
 10
10.22372526194017
 20
-28.64650312933368
 30
0.0
 10
10.22972170784432
 20
-28.64302011343959
 30
0.0
  0
SPLINE
  5
D5
330
77
100
AcDbEntity
  8
0
  6
Continuous
 62
     7
370
    18
100
AcDbSpline
210
0.0
220
0.0
230
1.0
 70
     8
 71
     3
 72
     8
 73
     4
 74
     0
 42
0.000000001
 43
0.00000001
 40
70.0
 40
70.0
 40
70.0
 40
70.0
 40
71.0
 40
71.0
 40
71.0
 40
71.0
 10
10.22972170784433
 20
-28.64302011343959
 30
0.0
 10
10.39542110854619
 20
-28.64648636439826
 30
0.0
 10
10.55222592049436
 20
-28.64556554872323
 30
0.0
 10
10.69525541603271
 20
-28.64198824855314
 30
0.0
  0
SPLINE
  5
D6
330
77
100
AcDbEntity
  8
0
  6
Continuous
 62
     7
370
    18
100
AcDbSpline
210
0.0
220
0.0
230
1.0
 70
     8
 71
     3
 72
     8
 73
     4
 74
     0
 42
0.000000001
 43
0.00000001
 40
71.0
 40
71.0
 40
71.0
 40
71.0
 40
72.0
 40
72.0
 40
72.0
 40
72.0
 10
10.6952554160327
 20
-28.64198824855314
 30
0.0
 10
10.93874918772079
 20
-28.62923420583628
 30
0.0
 10
12.86255814414376
 20
-28.44580125262167
 30
0.0
 10
13.43053046157378
 20
-28.5046888169102
 30
0.0
  0
SPLINE
  5
D7
330
77
100
AcDbEntity
  8
0
  6
Continuous
 62
     7
370
    18
100
AcDbSpline
210
0.0
220
0.0
230
1.0
 70
     8
 71
     3
 72
     8
 73
     4
 74
     0
 42
0.000000001
 43
0.00000001
 40
72.0
 40
72.0
 40
72.0
 40
72.0
 40
73.0
 40
73.0
 40
73.0
 40
73.0
 10
13.43053046157378
 20
-28.5046888169102
 30
0.0
 10
12.97694821790165
 20
-29.54354095615899
 30
0.0
 10
12.80375507038257
 20
-30.61054434437692
 30
0.0
 10
12.76467963112437
 20
-30.88580371497291
 30
0.0
  0
SPLINE
  5
D8
330
77
100
AcDbEntity
  8
0
  6
Continuous
 62
     7
370
    18
100
AcDbSpline
210
0.0
220
0.0
230
1.0
 70
     8
 71
     3
 72
     8
 73
     4
 74
     0
 42
0.000000001
 43
0.00000001
 40
73.0
 40
73.0
 40
73.0
 40
73.0
 40
74.0
 40
74.0
 40
74.0
 40
74.0
 10
12.76467963112437
 20
-30.88580371497291
 30
0.0
 10
12.75946694188426
 20
-30.92247061993447
 30
0.0
 10
12.78562558003658
 20
-30.95551385922744
 30
0.0
 10
12.8223724068011
 20
-30.95999428728276
 30
0.0
  0
SPLINE
  5
D9
330
77
100
AcDbEntity
  8
0
  6
Continuous
 62
     7
370
    18
100
AcDbSpline
210
0.0
220
0.0
230
1.0
 70
     8
 71
     3
 72
     8
 73
     4
 74
     0
 42
0.000000001
 43
0.00000001
 40
75.0
 40
75.0
 40
75.0
 40
75.0
 40
76.0
 40
76.0
 40
76.0
 40
76.0
 10
13.27084661062346
 20
-31.0149510216448
 30
0.0
 10
13.30643509061805
 20
-31.01930660488938
 30
0.0
 10
13.33913039971426
 20
-30.99490116531647
 30
0.0
 10
13.34433815412196
 20
-30.95940253133898
 30
0.0
  0
SPLINE
  5
DA
330
77
100
AcDbEntity
  8
0
  6
Continuous
 62
     7
370
    18
100
AcDbSpline
210
0.0
220
0.0
230
1.0
 70
     8
 71
     3
 72
     8
 73
     4
 74
     0
 42
0.000000001
 43
0.00000001
 40
76.0
 40
76.0
 40
76.0
 40
76.0
 40
77.0
 40
77.0
 40
77.0
 40
77.0
 10
13.34433815412196
 20
-30.95940253133898
 30
0.0
 10
13.3839863568229
 20
-30.68912606222256
 30
0.0
 10
13.56408992520232
 20
-29.60362871347513
 30
0.0
 10
14.02078503742013
 20
-28.61451474141115
 30
0.0
  0
SPLINE
  5
DB
330
77
100
AcDbEntity
  8
0
  6
Continuous
 62
     7
370
    18
100
AcDbSpline
210
0.0
220
0.0
230
1.0
 70
     8
 71
     3
 72
     8
 73
     4
 74
     0
 42
0.000000001
 43
0.00000001
 40
77.0
 40
77.0
 40
77.0
 40
77.0
 40
78.0
 40
78.0
 40
78.0
 40
78.0
 10
14.02078503742013
 20
-28.61451474141115
 30
0.0
 10
14.03051784933197
 20
-28.60422264166403
 30
0.0
 10
14.03832693001586
 20
-28.5959348321164
 30
0.0
 10
14.04805974192876
 20
-28.58564273237117
 30
0.0
  0
SPLINE
  5
DC
330
77
100
AcDbEntity
  8
0
  6
Continuous
 62
     7
370
    18
100
AcDbSpline
210
0.0
220
0.0
230
1.0
 70
     8
 71
     3
 72
     8
 73
     4
 74
     0
 42
0.000000001
 43
0.00000001
 40
78.0
 40
78.0
 40
78.0
 40
78.0
 40
79.0
 40
79.0
 40
79.0
 40
79.0
 10
14.04805974192877
 20
-28.58564273237117
 30
0.0
 10
14.36946299190545
 20
-28.42521597674384
 30
0.0
 10
15.82365074121367
 20
-27.67538698008446
 30
0.0
 10
17.12167999380672
 20
-27.35127481772455
 30
0.0
  0
SPLINE
  5
DD
330
77
100
AcDbEntity
  8
0
  6
Continuous
 62
     7
370
    18
100
AcDbSpline
210
0.0
220
0.0
230
1.0
 70
     8
 71
     3
 72
     8
 73
     4
 74
     0
 42
0.000000001
 43
0.00000001
 40
79.0
 40
79.0
 40
79.0
 40
79.0
 40
80.0
 40
80.0
 40
80.0
 40
80.0
 10
17.1216799938067
 20
-27.35127481772455
 30
0.0
 10
17.15690371849272
 20
-27.34247430066912
 30
0.0
 10
17.17784082126059
 20
-27.30749514968448
 30
0.0
 10
17.16924929537078
 20
-27.27219696609878
 30
0.0
  0
SPLINE
  5
DE
330
77
100
AcDbEntity
  8
0
  6
Continuous
 62
     7
370
    18
100
AcDbSpline
210
0.0
220
0.0
230
1.0
 70
     8
 71
     3
 72
     8
 73
     4
 74
     0
 42
0.000000001
 43
0.00000001
 40
81.0
 40
81.0
 40
81.0
 40
81.0
 40
82.0
 40
82.0
 40
82.0
 40
82.0
 10
17.06226621153357
 20
-26.8332975819211
 30
0.0
 10
17.05353856916747
 20
-26.79760179250334
 30
0.0
 10
17.01793344627307
 20
-26.77512547170584
 30
0.0
 10
16.98226613660748
 20
-26.78403415355417
 30
0.0
  0
SPLINE
  5
DF
330
77
100
AcDbEntity
  8
0
  6
Continuous
 62
     7
370
    18
100
AcDbSpline
210
0.0
220
0.0
230
1.0
 70
     8
 71
     3
 72
     8
 73
     4
 74
     0
 42
0.000000001
 43
0.00000001
 40
82.0
 40
82.0
 40
82.0
 40
82.0
 40
83.0
 40
83.0
 40
83.0
 40
83.0
 10
16.98226613660748
 20
-26.78403415355417
 30
0.0
 10
15.80703100274552
 20
-27.07715433462484
 30
0.0
 10
14.44247136659616
 20
-27.74853717091202
 30
0.0
 10
13.97401618096952
 20
-27.97182062237161
 30
0.0
  0
SPLINE
  5
E0
330
77
100
AcDbEntity
  8
0
  6
Continuous
 62
     7
370
    18
100
AcDbSpline
210
0.0
220
0.0
230
1.0
 70
     8
 71
     2
 72
     6
 73
     3
 74
     0
 42
0.000000001
 43
0.00000001
 40
83.0
 40
83.0
 40
83.0
 40
84.0
 40
84.0
 40
84.0
 10
13.97401618096952
 20
-27.97182062237161
 30
0.0
 10
13.76115166284069
 20
-28.0306975586193
 30
0.0
 10
13.62827019587519
 20
-28.06884456933804
 30
0.0
  0
SPLINE
  5
E1
330
77
100
AcDbEntity
  8
0
  6
Continuous
 62
     7
370
    18
100
AcDbSpline
210
0.0
220
0.0
230
1.0
 70
     8
 71
     2
 72
     6
 73
     3
 74
     0
 42
0.000000001
 43
0.00000001
 40
84.0
 40
84.0
 40
84.0
 40
85.0
 40
85.0
 40
85.0
 10
13.62827019587519
 20
-28.06884456933805
 30
0.0
 10
11.5526032886585
 20
-27.70008456573036
 30
0.0
 10
8.975295544280778
 20
-24.55390683673479
 30
0.0
  0
SPLINE
  5
E2
330
77
100
AcDbEntity
  8
0
  6
Continuous
 62
     7
370
    18
100
AcDbSpline
210
0.0
220
0.0
230
1.0
 70
     8
 71
     2
 72
     6
 73
     3
 74
     0
 42
0.000000001
 43
0.00000001
 40
8.0
 40
8.0
 40
8.0
 40
9.0
 40
9.0
 40
9.0
 10
1.034248725372328
 20
-24.04306676583063
 30
0.0
 10
0.5031359822839347
 20
-24.67424914238567
 30
0.0
 10
0.2366362148993398
 20
-25.09912070303729
 30
0.0
  0
SPLINE
  5
E3
330
77
100
AcDbEntity
  8
0
  6
Continuous
 62
     7
370
    18
100
AcDbSpline
210
0.0
220
0.0
230
1.0
 70
     8
 71
     3
 72
     8
 73
     4
 74
     0
 42
0.000000001
 43
0.00000001
 40
86.0
 40
86.0
 40
86.0
 40
86.0
 40
87.0
 40
87.0
 40
87.0
 40
87.0
 10
10.62007177823641
 20
-22.03794594188311
 30
0.0
 10
11.72219760878135
 20
-21.28087378904547
 30
0.0
 10
12.92971041173824
 20
-21.7396330529282
 30
0.0
 10
13.12249700197277
 20
-22.04761177879816
 30
0.0
  0
SPLINE
  5
E4
330
77
100
AcDbEntity
  8
0
  6
Continuous
 62
     7
370
    18
100
AcDbSpline
210
0.0
220
0.0
230
1.0
 70
     8
 71
     3
 72
     8
 73
     4
 74
     0
 42
0.000000001
 43
0.00000001
 40
87.0
 40
87.0
 40
87.0
 40
87.0
 40
88.0
 40
88.0
 40
88.0
 40
88.0
 10
13.12249700197277
 20
-22.04761177879816
 30
0.0
 10
13.26108412081468
 20
-22.26820779325175
 30
0.0
 10
13.22069296788121
 20
-22.53929203859532
 30
0.0
 10
13.16248097184179
 20
-22.77811969809535
 30
0.0
  0
SPLINE
  5
E5
330
77
100
AcDbEntity
  8
0
  6
Continuous
 62
     7
370
    18
100
AcDbSpline
210
0.0
220
0.0
230
1.0
 70
     8
 71
     3
 72
     8
 73
     4
 74
     0
 42
0.000000001
 43
0.00000001
 40
1.0
 40
1.0
 40
1.0
 40
1.0
 40
2.0
 40
2.0
 40
2.0
 40
2.0
 10
-12.97698727481876
 20
-11.94438967842669
 30
0.0
 10
-12.93408822057713
 20
-11.98055695107731
 30
0.0
 10
-12.89117871404966
 20
-12.0168313323847
 30
0.0
 10
-12.84833062834044
 20
-12.05192229234568
 30
0.0
  0
SPLINE
  5
E6
330
77
100
AcDbEntity
  8
0
  6
Continuous
 62
     7
370
    18
100
AcDbSpline
210
0.0
220
0.0
230
1.0
 70
     8
 71
     3
 72
     8
 73
     4
 74
     0
 42
0.000000001
 43
0.00000001
 40
0.0
 40
0.0
 40
0.0
 40
0.0
 40
1.0
 40
1.0
 40
1.0
 40
1.0
 10
-12.84833062834044
 20
-12.05192229234568
 30
0.0
 10
-12.89117977018919
 20
-12.01637729512133
 30
0.0
 10
-12.93406966504302
 20
-11.98085790053987
 30
0.0
 10
-12.97698727481876
 20
-11.94438967842669
 30
0.0
  0
SPLINE
  5
E7
330
77
100
AcDbEntity
  8
0
  6
Continuous
 62
     7
370
    18
100
AcDbSpline
210
0.0
220
0.0
230
1.0
 70
     8
 71
     3
 72
     8
 73
     4
 74
     0
 42
0.000000001
 43
0.00000001
 40
1.0
 40
1.0
 40
1.0
 40
1.0
 40
2.0
 40
2.0
 40
2.0
 40
2.0
 10
-13.12585089146288
 20
-11.81726812552848
 30
0.0
 10
-13.07617793437105
 20
-11.86068937846771
 30
0.0
 10
-13.02665471445727
 20
-11.90224380512823
 30
0.0
 10
-12.97698727481876
 20
-11.94438967842669
 30
0.0
  0
SPLINE
  5
E8
330
77
100
AcDbEntity
  8
0
  6
Continuous
 62
     7
370
    18
100
AcDbSpline
210
0.0
220
0.0
230
1.0
 70
     8
 71
     3
 72
     8
 73
     4
 74
     0
 42
0.000000001
 43
0.00000001
 40
0.0
 40
0.0
 40
0.0
 40
0.0
 40
1.0
 40
1.0
 40
1.0
 40
1.0
 10
-12.97698727481876
 20
-11.94438967842669
 30
0.0
 10
-13.02658495363045
 20
-11.90262626059936
 30
0.0
 10
-13.07617323629799
 20
-11.86051591416215
 30
0.0
 10
-13.12585089146288
 20
-11.81726812552848
 30
0.0
  0
SPLINE
  5
E9
330
77
100
AcDbEntity
  8
0
  6
Continuous
 62
     7
370
    18
100
AcDbSpline
210
0.0
220
0.0
230
1.0
 70
     8
 71
     3
 72
     8
 73
     4
 74
     0
 42
0.000000001
 43
0.00000001
 40
1.0
 40
1.0
 40
1.0
 40
1.0
 40
2.0
 40
2.0
 40
2.0
 40
2.0
 10
-13.4714083645441
 20
-11.50579973387192
 30
0.0
 10
-13.35607265135197
 20
-11.61411326446534
 30
0.0
 10
-13.24089747348539
 20
-11.71701440282046
 30
0.0
 10
-13.12585089146288
 20
-11.81726812552848
 30
0.0
  0
SPLINE
  5
EA
330
77
100
AcDbEntity
  8
0
  6
Continuous
 62
     7
370
    18
100
AcDbSpline
210
0.0
220
0.0
230
1.0
 70
     8
 71
     3
 72
     8
 73
     4
 74
     0
 42
0.000000001
 43
0.00000001
 40
0.0
 40
0.0
 40
0.0
 40
0.0
 40
1.0
 40
1.0
 40
1.0
 40
1.0
 10
-13.12585089146288
 20
-11.81726812552848
 30
0.0
 10
-13.24099048791926
 20
-11.71650446219232
 30
0.0
 10
-13.35623202143728
 20
-11.61358817347745
 30
0.0
 10
-13.4714083645441
 20
-11.50579973387192
 30
0.0
  0
SPLINE
  5
EB
330
77
100
AcDbEntity
  8
0
  6
Continuous
 62
     7
370
    18
100
AcDbSpline
210
0.0
220
0.0
230
1.0
 70
     8
 71
     3
 72
     8
 73
     4
 74
     0
 42
0.000000001
 43
0.00000001
 40
0.0
 40
0.0
 40
0.0
 40
0.0
 40
1.0
 40
1.0
 40
1.0
 40
1.0
 10
10.21461546345718
 20
-28.64617788443965
 30
0.0
 10
10.21918410196907
 20
-28.64627093080314
 30
0.0
 10
10.22372101727702
 20
-28.64652141251756
 30
0.0
 10
10.22970805870399
 20
-28.64302825278814
 30
0.0
  0
SPLINE
  5
EC
330
77
100
AcDbEntity
  8
0
  6
Continuous
 62
     7
370
    18
100
AcDbSpline
210
0.0
220
0.0
230
1.0
 70
     8
 71
     3
 72
     8
 73
     4
 74
     0
 42
0.000000001
 43
0.00000001
 40
1.0
 40
1.0
 40
1.0
 40
1.0
 40
2.0
 40
2.0
 40
2.0
 40
2.0
 10
10.22970805870399
 20
-28.64302825278814
 30
0.0
 10
10.39542645279408
 20
-28.64648116215303
 30
0.0
 10
10.55224712619552
 20
-28.64555481591909
 30
0.0
 10
10.69524471404092
 20
-28.64199596788804
 30
0.0
  0
SPLINE
  5
ED
330
77
100
AcDbEntity
  8
0
  6
Continuous
 62
     7
370
    18
100
AcDbSpline
210
0.0
220
0.0
230
1.0
 70
     8
 71
     3
 72
     8
 73
     4
 74
     0
 42
0.000000001
 43
0.00000001
 40
2.0
 40
2.0
 40
2.0
 40
2.0
 40
3.0
 40
3.0
 40
3.0
 40
3.0
 10
10.69524471404092
 20
-28.64199596788804
 30
0.0
 10
10.93878108149031
 20
-28.62922500765117
 30
0.0
 10
12.86256786793131
 20
-28.44579912729742
 30
0.0
 10
13.43053447184528
 20
-28.50468697828905
 30
0.0
  0
SPLINE
  5
EE
330
77
100
AcDbEntity
  8
0
  6
Continuous
 62
     7
370
    18
100
AcDbSpline
210
0.0
220
0.0
230
1.0
 70
     8
 71
     3
 72
     8
 73
     4
 74
     0
 42
0.000000001
 43
0.00000001
 40
3.0
 40
3.0
 40
3.0
 40
3.0
 40
4.0
 40
4.0
 40
4.0
 40
4.0
 10
13.43053447184528
 20
-28.50468697828905
 30
0.0
 10
11.96260748192116
 20
-28.37392053115179
 30
0.0
 10
10.1633950095022
 20
-27.12274869564028
 30
0.0
 10
9.151098102011504
 20
-26.42677276430952
 30
0.0
  0
SPLINE
  5
EF
330
77
100
AcDbEntity
  8
0
  6
Continuous
 62
     7
370
    18
100
AcDbSpline
210
0.0
220
0.0
230
1.0
 70
     8
 71
     3
 72
     8
 73
     4
 74
     0
 42
0.000000001
 43
0.00000001
 40
4.0
 40
4.0
 40
4.0
 40
4.0
 40
5.0
 40
5.0
 40
5.0
 40
5.0
 10
9.151098102011504
 20
-26.42677276430952
 30
0.0
 10
9.066774001144022
 20
-26.36879812840622
 30
0.0
 10
8.956675902463358
 20
-26.36572633462992
 30
0.0
 10
8.868930887547672
 20
-26.41838015454434
 30
0.0
  0
SPLINE
  5
F0
330
77
100
AcDbEntity
  8
0
  6
Continuous
 62
     7
370
    18
100
AcDbSpline
210
0.0
220
0.0
230
1.0
 70
     8
 71
     3
 72
     8
 73
     4
 74
     0
 42
0.000000001
 43
0.00000001
 40
5.0
 40
5.0
 40
5.0
 40
5.0
 40
6.0
 40
6.0
 40
6.0
 40
6.0
 10
8.868930887547672
 20
-26.41838015454434
 30
0.0
 10
8.137245193614708
 20
-26.85744836598368
 30
0.0
 10
6.503485492791613
 20
-27.54121410964402
 30
0.0
 10
5.741387155997157
 20
-27.6255445902606
 30
0.0
  0
SPLINE
  5
F1
330
77
100
AcDbEntity
  8
0
  6
Continuous
 62
     7
370
    18
100
AcDbSpline
210
0.0
220
0.0
230
1.0
 70
     8
 71
     2
 72
     6
 73
     3
 74
     0
 42
0.000000001
 43
0.00000001
 40
6.0
 40
6.0
 40
6.0
 40
7.0
 40
7.0
 40
7.0
 10
5.741387155997161
 20
-27.6255445902606
 30
0.0
 10
6.307502227055851
 20
-27.91539630107968
 30
0.0
 10
8.160512274320864
 20
-28.26397363103973
 30
0.0
  0
SPLINE
  5
F2
330
77
100
AcDbEntity
  8
0
  6
Continuous
 62
     7
370
    18
100
AcDbSpline
210
0.0
220
0.0
230
1.0
 70
     8
 71
     3
 72
     8
 73
     4
 74
     0
 42
0.000000001
 43
0.00000001
 40
7.0
 40
7.0
 40
7.0
 40
7.0
 40
8.0
 40
8.0
 40
8.0
 40
8.0
 10
8.160512274320864
 20
-28.26397363103973
 30
0.0
 10
8.607119606053496
 20
-28.41908372564989
 30
0.0
 10
9.192348948782854
 20
-28.5723594656304
 30
0.0
 10
9.863974461413067
 20
-28.62736281210606
 30
0.0
  0
SPLINE
  5
F3
330
77
100
AcDbEntity
  8
0
  6
Continuous
 62
     7
370
    18
100
AcDbSpline
210
0.0
220
0.0
230
1.0
 70
     8
 71
     3
 72
     8
 73
     4
 74
     0
 42
0.000000001
 43
0.00000001
 40
8.0
 40
8.0
 40
8.0
 40
8.0
 40
9.0
 40
9.0
 40
9.0
 40
9.0
 10
9.863974461413067
 20
-28.62736281210606
 30
0.0
 10
9.929765209251192
 20
-28.63135918423149
 30
0.0
 10
9.995575675609581
 20
-28.63534316840197
 30
0.0
 10
10.05956717050909
 20
-28.63784354557302
 30
0.0
  0
SPLINE
  5
F4
330
77
100
AcDbEntity
  8
0
  6
Continuous
 62
     7
370
    18
100
AcDbSpline
210
0.0
220
0.0
230
1.0
 70
     8
 71
     3
 72
     8
 73
     4
 74
     0
 42
0.000000001
 43
0.00000001
 40
9.0
 40
9.0
 40
9.0
 40
9.0
 40
10.0
 40
10.0
 40
10.0
 40
10.0
 10
10.05956717050909
 20
-28.63784354557302
 30
0.0
 10
10.11125739464263
 20
-28.63984923247316
 30
0.0
 10
10.16293232757963
 20
-28.6445665106095
 30
0.0
 10
10.21461546345718
 20
-28.64617788443965
 30
0.0
  0
SPLINE
  5
F5
330
77
100
AcDbEntity
  8
0
  6
Continuous
 62
     7
370
    18
100
AcDbSpline
210
0.0
220
0.0
230
1.0
 70
     8
 71
     3
 72
     8
 73
     4
 74
     0
 42
0.000000001
 43
0.00000001
 40
2.0
 40
2.0
 40
2.0
 40
2.0
 40
3.0
 40
3.0
 40
3.0
 40
3.0
 10
0.781062732010538
 20
-30.05650200510532
 30
0.0
 10
0.1140626469377116
 20
-30.75512103968738
 30
0.0
 10
-0.1792280526829951
 20
-32.7836717599449
 30
0.0
 10
0.56197195590197
 20
-34.03978273437906
 30
0.0
  0
SPLINE
  5
F6
330
77
100
AcDbEntity
  8
0
  6
Continuous
 62
     7
370
    18
100
AcDbSpline
210
0.0
220
0.0
230
1.0
 70
     8
 71
     3
 72
     8
 73
     4
 74
     0
 42
0.000000001
 43
0.00000001
 40
1.0
 40
1.0
 40
1.0
 40
1.0
 40
2.0
 40
2.0
 40
2.0
 40
2.0
 10
0.4097379340995931
 20
-32.31245563887509
 30
0.0
 10
0.4361424212053228
 20
-31.54090664650138
 30
0.0
 10
0.5999421143876079
 20
-30.80333732452794
 30
0.0
 10
0.781062732010538
 20
-30.05650200510532
 30
0.0
  0
SPLINE
  5
F7
330
77
100
AcDbEntity
  8
0
  6
Continuous
 62
     7
370
    18
100
AcDbSpline
210
0.0
220
0.0
230
1.0
 70
     8
 71
     3
 72
     8
 73
     4
 74
     0
 42
0.000000001
 43
0.00000001
 40
0.0
 40
0.0
 40
0.0
 40
0.0
 40
1.0
 40
1.0
 40
1.0
 40
1.0
 10
0.56197195590197
 20
-34.03978273437906
 30
0.0
 10
0.5009972121190077
 20
-33.45272095850807
 30
0.0
 10
0.3892431137951322
 20
-32.91035567089727
 30
0.0
 10
0.4097379340995931
 20
-32.31245563887509
 30
0.0
  0
SPLINE
  5
F8
330
77
100
AcDbEntity
  8
0
  6
Continuous
 62
     7
370
    18
100
AcDbSpline
210
0.0
220
0.0
230
1.0
 70
     8
 71
     3
 72
     8
 73
     4
 74
     0
 42
0.000000001
 43
0.00000001
 40
0.0
 40
0.0
 40
0.0
 40
0.0
 40
1.0
 40
1.0
 40
1.0
 40
1.0
 10
-13.20041683738652
 20
-13.00201936979761
 30
0.0
 10
-12.32154115485279
 20
-14.45520144446019
 30
0.0
 10
-7.761960537329054
 20
-16.44470317690969
 30
0.0
 10
-5.320322465359877
 20
-16.96155007555379
 30
0.0
  0
SPLINE
  5
F9
330
77
100
AcDbEntity
  8
0
  6
Continuous
 62
     7
370
    18
100
AcDbSpline
210
0.0
220
0.0
230
1.0
 70
     8
 71
     3
 72
     8
 73
     4
 74
     0
 42
0.000000001
 43
0.00000001
 40
1.0
 40
1.0
 40
1.0
 40
1.0
 40
2.0
 40
2.0
 40
2.0
 40
2.0
 10
-5.320322465359877
 20
-16.96155007555379
 30
0.0
 10
-5.809512907815261
 20
-18.73302606223522
 30
0.0
 10
-4.10582967731771
 20
-21.71579823494536
 30
0.0
 10
-3.813304494022616
 20
-22.3920269991983
 30
0.0
  0
SPLINE
  5
FA
330
77
100
AcDbEntity
  8
0
  6
Continuous
 62
     7
370
    18
100
AcDbSpline
210
0.0
220
0.0
230
1.0
 70
     8
 71
     2
 72
     6
 73
     3
 74
     0
 42
0.000000001
 43
0.00000001
 40
2.0
 40
2.0
 40
2.0
 40
3.0
 40
3.0
 40
3.0
 10
-3.813304494022616
 20
-22.3920269991983
 30
0.0
 10
-6.043590765584354
 20
-20.10932636703633
 30
0.0
 10
-6.677555282416556
 20
-17.81074155341886
 30
0.0
  0
SPLINE
  5
FB
330
77
100
AcDbEntity
  8
0
  6
Continuous
 62
     7
370
    18
100
AcDbSpline
210
0.0
220
0.0
230
1.0
 70
     8
 71
     2
 72
     6
 73
     3
 74
     0
 42
0.000000001
 43
0.00000001
 40
3.0
 40
3.0
 40
3.0
 40
4.0
 40
4.0
 40
4.0
 10
-6.677555282416556
 20
-17.81074155341886
 30
0.0
 10
-11.75039520923077
 20
-15.65450427384786
 30
0.0
 10
-13.20041683738652
 20
-13.00201936979761
 30
0.0
  0
SPLINE
  5
FC
330
77
100
AcDbEntity
  8
0
  6
Continuous
 62
     7
370
    18
100
AcDbSpline
210
0.0
220
0.0
230
1.0
 70
     8
 71
     2
 72
     6
 73
     3
 74
     0
 42
0.000000001
 43
0.00000001
 40
1.0
 40
1.0
 40
1.0
 40
2.0
 40
2.0
 40
2.0
 10
-1.349158294773173
 20
-16.43790442263529
 30
0.0
 10
-3.425676913677115
 20
-15.05901031383733
 30
0.0
 10
-4.497614924678368
 20
-14.22616249714356
 30
0.0
  0
SPLINE
  5
FD
330
77
100
AcDbEntity
  8
0
  6
Continuous
 62
     7
370
    18
100
AcDbSpline
210
0.0
220
0.0
230
1.0
 70
     8
 71
     3
 72
     8
 73
     4
 74
     0
 42
0.000000001
 43
0.00000001
 40
2.0
 40
2.0
 40
2.0
 40
2.0
 40
3.0
 40
3.0
 40
3.0
 40
3.0
 10
-4.497614924678368
 20
-14.22616249714356
 30
0.0
 10
-7.183559023213449
 20
-14.35196557735811
 30
0.0
 10
-9.97328197261404
 20
-14.40422605275014
 30
0.0
 10
-12.84833062834044
 20
-12.05192229234568
 30
0.0
  0
SPLINE
  5
FE
330
77
100
AcDbEntity
  8
0
  6
Continuous
 62
     7
370
    18
100
AcDbSpline
210
0.0
220
0.0
230
1.0
 70
     8
 71
     2
 72
     6
 73
     3
 74
     0
 42
0.000000001
 43
0.00000001
 40
3.0
 40
3.0
 40
3.0
 40
4.0
 40
4.0
 40
4.0
 10
-12.84833062834044
 20
-12.05192229234568
 30
0.0
 10
-8.926716496317836
 20
-15.30072905894997
 30
0.0
 10
-5.163233750484998
 20
-14.64433050232701
 30
0.0
  0
SPLINE
  5
FF
330
77
100
AcDbEntity
  8
0
  6
Continuous
 62
     7
370
    18
100
AcDbSpline
210
0.0
220
0.0
230
1.0
 70
     8
 71
     2
 72
     6
 73
     3
 74
     0
 42
0.000000001
 43
0.00000001
 40
4.0
 40
4.0
 40
4.0
 40
5.0
 40
5.0
 40
5.0
 10
-5.163233750484998
 20
-14.64433050232701
 30
0.0
 10
-3.522925431558867
 20
-15.98679375933487
 30
0.0
 10
-2.117352433414995
 20
-16.92051428596087
 30
0.0
  0
SPLINE
  5
100
330
77
100
AcDbEntity
  8
0
  6
Continuous
 62
     7
370
    18
100
AcDbSpline
210
0.0
220
0.0
230
1.0
 70
     8
 71
     3
 72
     8
 73
     4
 74
     0
 42
0.000000001
 43
0.00000001
 40
5.0
 40
5.0
 40
5.0
 40
5.0
 40
6.0
 40
6.0
 40
6.0
 40
6.0
 10
-2.117352433414995
 20
-16.92051428596087
 30
0.0
 10
-2.267881806210096
 20
-17.81976104868603
 30
0.0
 10
-2.407277268150154
 20
-19.21016616381927
 30
0.0
 10
-1.664620714277922
 20
-20.81035712110292
 30
0.0
  0
SPLINE
  5
101
330
77
100
AcDbEntity
  8
0
  6
Continuous
 62
     7
370
    18
100
AcDbSpline
210
0.0
220
0.0
230
1.0
 70
     8
 71
     3
 72
     8
 73
     4
 74
     0
 42
0.000000001
 43
0.00000001
 40
6.0
 40
6.0
 40
6.0
 40
6.0
 40
7.0
 40
7.0
 40
7.0
 40
7.0
 10
-1.664620714277922
 20
-20.81035712110292
 30
0.0
 10
-1.664312426395075
 20
-20.81130019442271
 30
0.0
 10
-1.664085644523588
 20
-20.81229447303425
 30
0.0
 10
-1.663777356640795
 20
-20.813237546354
 30
0.0
  0
SPLINE
  5
102
330
77
100
AcDbEntity
  8
0
  6
Continuous
 62
     7
370
    18
100
AcDbSpline
210
0.0
220
0.0
230
1.0
 70
     8
 71
     3
 72
     8
 73
     4
 74
     0
 42
0.000000001
 43
0.00000001
 40
7.0
 40
7.0
 40
7.0
 40
7.0
 40
8.0
 40
8.0
 40
8.0
 40
8.0
 10
-1.663777356640795
 20
-20.813237546354
 30
0.0
 10
-1.662901112489764
 20
-20.81490372147473
 30
0.0
 10
-1.661968964973327
 20
-20.81647793829811
 30
0.0
 10
-1.661092720823347
 20
-20.81814411341701
 30
0.0
  0
SPLINE
  5
103
330
77
100
AcDbEntity
  8
0
  6
Continuous
 62
     7
370
    18
100
AcDbSpline
210
0.0
220
0.0
230
1.0
 70
     8
 71
     3
 72
     8
 73
     4
 74
     0
 42
0.000000001
 43
0.00000001
 40
8.0
 40
8.0
 40
8.0
 40
8.0
 40
9.0
 40
9.0
 40
9.0
 40
9.0
 10
-1.661092720823347
 20
-20.81814411341701
 30
0.0
 10
-1.229373968722224
 20
-21.74517157116296
 30
0.0
 10
-0.5004685823514314
 20
-22.74228692212668
 30
0.0
 10
0.6942959165096505
 20
-23.75544460571742
 30
0.0
  0
SPLINE
  5
104
330
77
100
AcDbEntity
  8
0
  6
Continuous
 62
     7
370
    18
100
AcDbSpline
210
0.0
220
0.0
230
1.0
 70
     8
 71
     2
 72
     6
 73
     3
 74
     0
 42
0.000000001
 43
0.00000001
 40
9.0
 40
9.0
 40
9.0
 40
10.0
 40
10.0
 40
10.0
 10
0.6942959165096505
 20
-23.75544460571742
 30
0.0
 10
1.573046591396742
 20
-24.52641591715609
 30
0.0
 10
2.277251563960161
 20
-24.90565086721784
 30
0.0
  0
SPLINE
  5
105
330
77
100
AcDbEntity
  8
0
  6
Continuous
 62
     7
370
    18
100
AcDbSpline
210
0.0
220
0.0
230
1.0
 70
     8
 71
     3
 72
     8
 73
     4
 74
     0
 42
0.000000001
 43
0.00000001
 40
10.0
 40
10.0
 40
10.0
 40
10.0
 40
11.0
 40
11.0
 40
11.0
 40
11.0
 10
2.277251563960161
 20
-24.90565086721784
 30
0.0
 10
-0.3444737072681864
 20
-23.07744411042371
 30
0.0
 10
-1.384783611401682
 20
-21.0299715722269
 30
0.0
 10
-1.791077823248111
 20
-19.55173176913453
 30
0.0
  0
SPLINE
  5
106
330
77
100
AcDbEntity
  8
0
  6
Continuous
 62
     7
370
    18
100
AcDbSpline
210
0.0
220
0.0
230
1.0
 70
     8
 71
     3
 72
     8
 73
     4
 74
     0
 42
0.000000001
 43
0.00000001
 40
11.0
 40
11.0
 40
11.0
 40
11.0
 40
12.0
 40
12.0
 40
12.0
 40
12.0
 10
-1.791077823248111
 20
-19.55173176913453
 30
0.0
 10
-1.952004736442718
 20
-18.58763900877485
 30
0.0
 10
-1.857645689601465
 20
-17.53728176305358
 30
0.0
 10
-1.344635895048667
 20
-16.44003656241194
 30
0.0
  0
SPLINE
  5
107
330
77
100
AcDbEntity
  8
0
  6
Continuous
 62
     7
370
    18
100
AcDbSpline
210
0.0
220
0.0
230
1.0
 70
     8
 71
     3
 72
     8
 73
     4
 74
     0
 42
0.000000001
 43
0.00000001
 40
1.0
 40
1.0
 40
1.0
 40
1.0
 40
2.0
 40
2.0
 40
2.0
 40
2.0
 10
9.282072433202625
 20
-23.83234642604633
 30
0.0
 10
9.542961528798338
 20
-23.25329859518931
 30
0.0
 10
9.985495514983219
 20
-22.47632608388373
 30
0.0
 10
10.62007177823641
 20
-22.03794594188311
 30
0.0
  0
SPLINE
  5
108
330
77
100
AcDbEntity
  8
0
  6
Continuous
 62
     7
370
    18
100
AcDbSpline
210
0.0
220
0.0
230
1.0
 70
     8
 71
     3
 72
     8
 73
     4
 74
     0
 42
0.000000001
 43
0.00000001
 40
4.0
 40
4.0
 40
4.0
 40
4.0
 40
5.0
 40
5.0
 40
5.0
 40
5.0
 10
13.17134989821584
 20
-22.77125005992538
 30
0.0
 10
13.91734338198129
 20
-21.59974891081312
 30
0.0
 10
11.03631975087138
 20
-19.45853573582023
 30
0.0
 10
8.91093208540684
 20
-21.00902899615352
 30
0.0
  0
SPLINE
  5
109
330
77
100
AcDbEntity
  8
0
  6
Continuous
 62
     7
370
    18
100
AcDbSpline
210
0.0
220
0.0
230
1.0
 70
     8
 71
     3
 72
     8
 73
     4
 74
     0
 42
0.000000001
 43
0.00000001
 40
5.0
 40
5.0
 40
5.0
 40
5.0
 40
6.0
 40
6.0
 40
6.0
 40
6.0
 10
8.91093208540684
 20
-21.00902899615352
 30
0.0
 10
6.785544419941263
 20
-22.55952225648562
 30
0.0
 10
6.138264936105684
 20
-26.41214330901684
 30
0.0
 10
0.7891610119816483
 20
-30.05141434614796
 30
0.0
  0
SPLINE
  5
10A
330
77
100
AcDbEntity
  8
0
  6
Continuous
 62
     7
370
    18
100
AcDbSpline
210
0.0
220
0.0
230
1.0
 70
     8
 71
     2
 72
     6
 73
     3
 74
     0
 42
0.000000001
 43
0.00000001
 40
6.0
 40
6.0
 40
6.0
 40
7.0
 40
7.0
 40
7.0
 10
0.7891610119816483
 20
-30.05141434614796
 30
0.0
 10
2.027957268008918
 20
-29.56317356732477
 30
0.0
 10
2.266152999548186
 20
-29.47098631967676
 30
0.0
  0
SPLINE
  5
10B
330
77
100
AcDbEntity
  8
0
  6
Continuous
 62
     7
370
    18
100
AcDbSpline
210
0.0
220
0.0
230
1.0
 70
     8
 71
     3
 72
     8
 73
     4
 74
     0
 42
0.000000001
 43
0.00000001
 40
7.0
 40
7.0
 40
7.0
 40
7.0
 40
8.0
 40
8.0
 40
8.0
 40
8.0
 10
2.266152999548186
 20
-29.47098631967676
 30
0.0
 10
3.014801417132293
 20
-29.18122818076082
 30
0.0
 10
3.736118100429408
 20
-28.82241116458091
 30
0.0
 10
4.431146345693874
 20
-28.42149782758251
 30
0.0
  0
SPLINE
  5
10C
330
77
100
AcDbEntity
  8
0
  6
Continuous
 62
     7
370
    18
100
AcDbSpline
210
0.0
220
0.0
230
1.0
 70
     8
 71
     3
 72
     8
 73
     4
 74
     0
 42
0.000000001
 43
0.00000001
 40
9.0
 40
9.0
 40
9.0
 40
9.0
 40
10.0
 40
10.0
 40
10.0
 40
10.0
 10
5.741401688969916
 20
-27.62554000024407
 30
0.0
 10
7.060991710032899
 20
-26.77804674712032
 30
0.0
 10
8.443973707032603
 20
-26.09970911999108
 30
0.0
 10
9.267426036511852
 20
-23.87039661735003
 30
0.0
  0
SPLINE
  5
10D
330
77
100
AcDbEntity
  8
0
  6
Continuous
 62
     7
370
    18
100
AcDbSpline
210
0.0
220
0.0
230
1.0
 70
     8
 71
     3
 72
     8
 73
     4
 74
     0
 42
0.000000001
 43
0.00000001
 40
0.0
 40
0.0
 40
0.0
 40
0.0
 40
1.0
 40
1.0
 40
1.0
 40
1.0
 10
7.616643966539248
 20
-16.14063575935378
 30
0.0
 10
6.913790166466484
 20
-16.14488777689968
 30
0.0
 10
6.697443007890195
 20
-16.79416276836541
 30
0.0
 10
6.436018843175425
 20
-17.3230129233678
 30
0.0
  0
SPLINE
  5
10E
330
77
100
AcDbEntity
  8
0
  6
Continuous
 62
     7
370
    18
100
AcDbSpline
210
0.0
220
0.0
230
1.0
 70
     8
 71
     3
 72
     8
 73
     4
 74
     0
 42
0.000000001
 43
0.00000001
 40
1.0
 40
1.0
 40
1.0
 40
1.0
 40
2.0
 40
2.0
 40
2.0
 40
2.0
 10
6.436018843175425
 20
-17.3230129233678
 30
0.0
 10
5.948216897681968
 20
-18.30992905460965
 30
0.0
 10
5.052555161752526
 20
-19.5995436994
 30
0.0
 10
5.103926613042106
 20
-20.75366969743216
 30
0.0
  0
SPLINE
  5
10F
330
77
100
AcDbEntity
  8
0
  6
Continuous
 62
     7
370
    18
100
AcDbSpline
210
0.0
220
0.0
230
1.0
 70
     8
 71
     2
 72
     6
 73
     3
 74
     0
 42
0.000000001
 43
0.00000001
 40
2.0
 40
2.0
 40
2.0
 40
3.0
 40
3.0
 40
3.0
 10
5.103926613042106
 20
-20.75366969743216
 30
0.0
 10
5.110006812763316
 20
-21.55270934533252
 30
0.0
 10
5.893010450029737
 20
-21.89666129361517
 30
0.0
  0
SPLINE
  5
110
330
77
100
AcDbEntity
  8
0
  6
Continuous
 62
     7
370
    18
100
AcDbSpline
210
0.0
220
0.0
230
1.0
 70
     8
 71
     2
 72
     6
 73
     3
 74
     0
 42
0.000000001
 43
0.00000001
 40
3.0
 40
3.0
 40
3.0
 40
4.0
 40
4.0
 40
4.0
 10
5.893010450029737
 20
-21.89666129361517
 30
0.0
 10
5.064669634616712
 20
-21.16070169146862
 30
0.0
 10
5.897476922257513
 20
-19.59962191921445
 30
0.0
  0
SPLINE
  5
111
330
77
100
AcDbEntity
  8
0
  6
Continuous
 62
     7
370
    18
100
AcDbSpline
210
0.0
220
0.0
230
1.0
 70
     8
 71
     3
 72
     8
 73
     4
 74
     0
 42
0.000000001
 43
0.00000001
 40
4.0
 40
4.0
 40
4.0
 40
4.0
 40
5.0
 40
5.0
 40
5.0
 40
5.0
 10
5.897476922257513
 20
-19.59962191921445
 30
0.0
 10
6.365882597961094
 20
-18.72160531632978
 30
0.0
 10
6.783564254303969
 20
-18.1502556103958
 30
0.0
 10
6.961063665415703
 20
-17.79297771071811
 30
0.0
  0
SPLINE
  5
112
330
77
100
AcDbEntity
  8
0
  6
Continuous
 62
     7
370
    18
100
AcDbSpline
210
0.0
220
0.0
230
1.0
 70
     8
 71
     3
 72
     8
 73
     4
 74
     0
 42
0.000000001
 43
0.00000001
 40
5.0
 40
5.0
 40
5.0
 40
5.0
 40
6.0
 40
6.0
 40
6.0
 40
6.0
 10
6.961063665415703
 20
-17.79297771071811
 30
0.0
 10
6.969564036079641
 20
-17.77592889764838
 30
0.0
 10
6.978008503380095
 20
-17.75897204287472
 30
0.0
 10
6.986317910343667
 20
-17.74207161953264
 30
0.0
  0
SPLINE
  5
113
330
77
100
AcDbEntity
  8
0
  6
Continuous
 62
     7
370
    18
100
AcDbSpline
210
0.0
220
0.0
230
1.0
 70
     8
 71
     2
 72
     6
 73
     3
 74
     0
 42
0.000000001
 43
0.00000001
 40
6.0
 40
6.0
 40
6.0
 40
7.0
 40
7.0
 40
7.0
 10
6.986317910343667
 20
-17.74207161953264
 30
0.0
 10
7.02365081475716
 20
-17.66624177102196
 30
0.0
 10
7.044485288742809
 20
-17.62223308004855
 30
0.0
  0
SPLINE
  5
114
330
77
100
AcDbEntity
  8
0
  6
Continuous
 62
     7
370
    18
100
AcDbSpline
210
0.0
220
0.0
230
1.0
 70
     8
 71
     3
 72
     8
 73
     4
 74
     0
 42
0.000000001
 43
0.00000001
 40
8.0
 40
8.0
 40
8.0
 40
8.0
 40
9.0
 40
9.0
 40
9.0
 40
9.0
 10
7.043747273343362
 20
-17.62187258528872
 30
0.0
 10
7.259429684873595
 20
-17.1682239392887
 30
0.0
 10
7.409758570724429
 20
-16.77384940600867
 30
0.0
 10
7.501213874593598
 20
-16.5071459647044
 30
0.0
  0
SPLINE
  5
115
330
77
100
AcDbEntity
  8
0
  6
Continuous
 62
     7
370
    18
100
AcDbSpline
210
0.0
220
0.0
230
1.0
 70
     8
 71
     2
 72
     6
 73
     3
 74
     0
 42
0.000000001
 43
0.00000001
 40
9.0
 40
9.0
 40
9.0
 40
10.0
 40
10.0
 40
10.0
 10
7.501213874593598
 20
-16.5071459647044
 30
0.0
 10
7.58018144071422
 20
-16.27701921792476
 30
0.0
 10
7.616643966539248
 20
-16.14063575935378
 30
0.0
  0
SPLINE
  5
116
330
77
100
AcDbEntity
  8
0
  6
Continuous
 62
     7
370
    18
100
AcDbSpline
210
0.0
220
0.0
230
1.0
 70
     8
 71
     2
 72
     6
 73
     3
 74
     0
 42
0.000000001
 43
0.00000001
 40
0.0
 40
0.0
 40
0.0
 40
1.0
 40
1.0
 40
1.0
 10
0.3944126526828438
 20
-2.906969795378479
 30
0.0
 10
-0.9260675992531606
 20
-7.098093552135839
 30
0.0
 10
3.694246552495818
 20
-15.91394980485279
 30
0.0
  0
SPLINE
  5
117
330
77
100
AcDbEntity
  8
0
  6
Continuous
 62
     7
370
    18
100
AcDbSpline
210
0.0
220
0.0
230
1.0
 70
     8
 71
     3
 72
     8
 73
     4
 74
     0
 42
0.000000001
 43
0.00000001
 40
1.0
 40
1.0
 40
1.0
 40
1.0
 40
2.0
 40
2.0
 40
2.0
 40
2.0
 10
3.694246552495818
 20
-15.91394980485279
 30
0.0
 10
3.446899321752916
 20
-17.12012815823227
 30
0.0
 10
3.357918547908363
 20
-18.01529334045489
 30
0.0
 10
3.369570932292986
 20
-18.71508939083513
 30
0.0
  0
SPLINE
  5
118
330
77
100
AcDbEntity
  8
0
  6
Continuous
 62
     7
370
    18
100
AcDbSpline
210
0.0
220
0.0
230
1.0
 70
     8
 71
     3
 72
     8
 73
     4
 74
     0
 42
0.000000001
 43
0.00000001
 40
4.0
 40
4.0
 40
4.0
 40
4.0
 40
5.0
 40
5.0
 40
5.0
 40
5.0
 10
3.371167179561167
 20
-18.80258270306617
 30
0.0
 10
3.375320776009459
 20
-18.94553433452855
 30
0.0
 10
3.384065732186145
 20
-19.07969038264685
 30
0.0
 10
3.396375939104116
 20
-19.20694591668476
 30
0.0
  0
SPLINE
  5
119
330
77
100
AcDbEntity
  8
0
  6
Continuous
 62
     7
370
    18
100
AcDbSpline
210
0.0
220
0.0
230
1.0
 70
     8
 71
     2
 72
     6
 73
     3
 74
     0
 42
0.000000001
 43
0.00000001
 40
6.0
 40
6.0
 40
6.0
 40
7.0
 40
7.0
 40
7.0
 10
3.414912572583571
 20
-19.50415597158925
 30
0.0
 10
3.463733909636759
 20
-20.44034883554467
 30
0.0
 10
4.199514098340574
 20
-21.43655542025973
 30
0.0
  0
SPLINE
  5
11A
330
77
100
AcDbEntity
  8
0
  6
Continuous
 62
     7
370
    18
100
AcDbSpline
210
0.0
220
0.0
230
1.0
 70
     8
 71
     3
 72
     8
 73
     4
 74
     0
 42
0.000000001
 43
0.00000001
 40
7.0
 40
7.0
 40
7.0
 40
7.0
 40
8.0
 40
8.0
 40
8.0
 40
8.0
 10
4.199514098340574
 20
-21.43655542025973
 30
0.0
 10
4.209530614512485
 20
-21.44734234739126
 30
0.0
 10
4.217448187290456
 20
-21.45279791477912
 30
0.0
 10
4.226419929838382
 20
-21.46074569773323
 30
0.0
  0
SPLINE
  5
11B
330
77
100
AcDbEntity
  8
0
  6
Continuous
 62
     7
370
    18
100
AcDbSpline
210
0.0
220
0.0
230
1.0
 70
     8
 71
     2
 72
     6
 73
     3
 74
     0
 42
0.000000001
 43
0.00000001
 40
8.0
 40
8.0
 40
8.0
 40
9.0
 40
9.0
 40
9.0
 10
4.226419929838382
 20
-21.46074569773323
 30
0.0
 10
4.602113169577764
 20
-21.92169141031366
 30
0.0
 10
5.25588783635365
 20
-22.1084696061984
 30
0.0
  0
SPLINE
  5
11C
330
77
100
AcDbEntity
  8
0
  6
Continuous
 62
     7
370
    18
100
AcDbSpline
210
0.0
220
0.0
230
1.0
 70
     8
 71
     3
 72
     8
 73
     4
 74
     0
 42
0.000000001
 43
0.00000001
 40
9.0
 40
9.0
 40
9.0
 40
9.0
 40
10.0
 40
10.0
 40
10.0
 40
10.0
 10
5.25588783635365
 20
-22.1084696061984
 30
0.0
 10
4.722803653588975
 20
-21.69473771792311
 30
0.0
 10
4.555729374077984
 20
-21.23618402102321
 30
0.0
 10
4.5115397999614
 20
-20.91388289798429
 30
0.0
  0
SPLINE
  5
11D
330
77
100
AcDbEntity
  8
0
  6
Continuous
 62
     7
370
    18
100
AcDbSpline
210
0.0
220
0.0
230
1.0
 70
     8
 71
     3
 72
     8
 73
     4
 74
     0
 42
0.000000001
 43
0.00000001
 40
10.0
 40
10.0
 40
10.0
 40
10.0
 40
11.0
 40
11.0
 40
11.0
 40
11.0
 10
4.5115397999614
 20
-20.91388289798429
 30
0.0
 10
4.511444436489974
 20
-20.91345968950935
 30
0.0
 10
4.511458530710389
 20
-20.91293929659483
 30
0.0
 10
4.51136316724085
 20
-20.91251608811877
 30
0.0
  0
SPLINE
  5
11E
330
77
100
AcDbEntity
  8
0
  6
Continuous
 62
     7
370
    18
100
AcDbSpline
210
0.0
220
0.0
230
1.0
 70
     8
 71
     3
 72
     8
 73
     4
 74
     0
 42
0.000000001
 43
0.00000001
 40
11.0
 40
11.0
 40
11.0
 40
11.0
 40
12.0
 40
12.0
 40
12.0
 40
12.0
 10
4.51136316724085
 20
-20.91251608811877
 30
0.0
 10
4.492940501693147
 20
-20.77725000285986
 30
0.0
 10
4.49631721425359
 20
-20.66736453587088
 30
0.0
 10
4.503170896062897
 20
-20.59377375245777
 30
0.0
  0
SPLINE
  5
11F
330
77
100
AcDbEntity
  8
0
  6
Continuous
 62
     7
370
    18
100
AcDbSpline
210
0.0
220
0.0
230
1.0
 70
     8
 71
     3
 72
     8
 73
     4
 74
     0
 42
0.000000001
 43
0.00000001
 40
12.0
 40
12.0
 40
12.0
 40
12.0
 40
13.0
 40
13.0
 40
13.0
 40
13.0
 10
4.503170896062897
 20
-20.59377375245777
 30
0.0
 10
4.604013649449088
 20
-19.7965617294209
 30
0.0
 10
5.139276617404003
 20
-18.9096664850367
 30
0.0
 10
5.595548611273902
 20
-17.9099700673493
 30
0.0
  0
SPLINE
  5
120
330
77
100
AcDbEntity
  8
0
  6
Continuous
 62
     7
370
    18
100
AcDbSpline
210
0.0
220
0.0
230
1.0
 70
     8
 71
     2
 72
     6
 73
     3
 74
     0
 42
0.000000001
 43
0.00000001
 40
13.0
 40
13.0
 40
13.0
 40
14.0
 40
14.0
 40
14.0
 10
5.595548611273902
 20
-17.9099700673493
 30
0.0
 10
5.926118360772201
 20
-17.18568850106854
 30
0.0
 10
5.606497978493191
 20
-16.05075397327447
 30
0.0
  0
SPLINE
  5
121
330
77
100
AcDbEntity
  8
0
  6
Continuous
 62
     7
370
    18
100
AcDbSpline
210
0.0
220
0.0
230
1.0
 70
     8
 71
     3
 72
     8
 73
     4
 74
     0
 42
0.000000001
 43
0.00000001
 40
14.0
 40
14.0
 40
14.0
 40
14.0
 40
15.0
 40
15.0
 40
15.0
 40
15.0
 10
5.606497978493191
 20
-16.05075397327447
 30
0.0
 10
5.207525970226131
 20
-14.79026275050278
 30
0.0
 10
4.519773960143639
 20
-13.82671693217636
 30
0.0
 10
3.665223439147876
 20
-12.83569943160955
 30
0.0
  0
SPLINE
  5
122
330
77
100
AcDbEntity
  8
0
  6
Continuous
 62
     7
370
    18
100
AcDbSpline
210
0.0
220
0.0
230
1.0
 70
     8
 71
     3
 72
     8
 73
     4
 74
     0
 42
0.000000001
 43
0.00000001
 40
15.0
 40
15.0
 40
15.0
 40
15.0
 40
16.0
 40
16.0
 40
16.0
 40
16.0
 10
3.665223439147876
 20
-12.83569943160955
 30
0.0
 10
2.198391383191843
 20
-11.13462081873923
 30
0.0
 10
0.0517992661647096
 20
-7.209063579032926
 30
0.0
 10
0.3944126526828438
 20
-2.906969795378479
 30
0.0
  0
ENDBLK
  5
79
330
77
100
AcDbEntity
  8
0
100
AcDbBlockEnd
  0
ENDSEC
  0
SECTION
  2
ENTITIES
  0
ARC
  5
123
330
1F
100
AcDbEntity
  8
0
  6
Continuous
 62
     7
370
    25
100
AcDbCircle
 10
337.0155582931
 20
102.6040413202
 30
0.0
 40
0.2000000000000028
100
AcDbArc
 50
270.0
 51
0.0
  0
ARC
  5
124
330
1F
100
AcDbEntity
  8
0
  6
Continuous
 62
     7
370
    25
100
AcDbCircle
 10
331.7155582931
 20
102.6040413202
 30
0.0
 40
0.2000000000000028
100
AcDbArc
 50
180.0
 51
270.0
  0
LINE
  5
125
330
1F
100
AcDbEntity
  8
0
  6
Continuous
 62
     7
370
    25
100
AcDbLine
 10
337.2155582625
 20
102.604042241
 30
0.0
 11
337.2155582625
 21
103.0040430516
 31
0.0
  0
LINE
  5
126
330
1F
100
AcDbEntity
  8
0
  6
Continuous
 62
     7
370
    25
100
AcDbLine
 10
331.5155584458
 20
103.0040430516
 30
0.0
 11
331.5155584458
 21
102.604042241
 31
0.0
  0
LINE
  5
127
330
1F
100
AcDbEntity
  8
0
  6
Continuous
 62
     7
370
    25
100
AcDbLine
 10
278.3155571763
 20
102.604042241
 30
0.0
 11
278.3155571763
 21
103.0040430516
 31
0.0
  0
LINE
  5
128
330
1F
100
AcDbEntity
  8
0
  6
Continuous
 62
     7
370
    25
100
AcDbLine
 10
272.6155590359
 20
103.0040430516
 30
0.0
 11
272.6155590359
 21
102.604042241
 31
0.0
  0
ARC
  5
129
330
1F
100
AcDbEntity
  8
0
  6
Continuous
 62
     7
370
    25
100
AcDbCircle
 10
278.1155582931
 20
102.6040413202
 30
0.0
 40
0.2000000000000028
100
AcDbArc
 50
270.0
 51
0.0
  0
ARC
  5
12A
330
1F
100
AcDbEntity
  8
0
  6
Continuous
 62
     7
370
    25
100
AcDbCircle
 10
272.8155582931
 20
102.6040413202
 30
0.0
 40
0.2000000000000028
100
AcDbArc
 50
180.0
 51
270.0
  0
LINE
  5
12B
330
1F
100
AcDbEntity
  8
0
  6
Continuous
 62
     7
370
    25
100
AcDbLine
 10
278.2955598179
 20
103.0040430516
 30
0.0
 11
278.2955598179
 21
105.60403938
 31
0.0
  0
LINE
  5
12C
330
1F
100
AcDbEntity
  8
0
  6
Continuous
 62
     7
370
    25
100
AcDbLine
 10
272.6355563942
 20
105.60403938
 30
0.0
 11
272.6355563942
 21
103.0040430516
 31
0.0
  0
LINE
  5
12D
330
1F
100
AcDbEntity
  8
0
  6
Continuous
 62
     7
370
    25
100
AcDbLine
 10
337.1955582965
 20
103.0040430516
 30
0.0
 11
337.1955582965
 21
105.60403938
 31
0.0
  0
LINE
  5
12E
330
1F
100
AcDbEntity
  8
0
  6
Continuous
 62
     7
370
    25
100
AcDbLine
 10
331.5355584119
 20
105.60403938
 30
0.0
 11
331.5355584119
 21
103.0040430516
 31
0.0
  0
ARC
  5
12F
330
1F
100
AcDbEntity
  8
0
  6
Continuous
 62
     7
370
    25
100
AcDbCircle
 10
337.7055582931
 20
119.0540413202
 30
0.0
 40
0.1500000000000057
100
AcDbArc
 50
90.0
 51
180.0
  0
ARC
  5
130
330
1F
100
AcDbEntity
  8
0
  6
Continuous
 62
     7
370
    25
100
AcDbCircle
 10
331.0255582931
 20
119.0540413202
 30
0.0
 40
0.1500000000000057
100
AcDbArc
 50
0.0
 51
90.0
  0
ARC
  5
131
330
1F
100
AcDbEntity
  8
0
  6
Continuous
 62
     7
370
    25
100
AcDbCircle
 10
337.0855582931
 20
106.2072979148
 30
0.0
 40
0.4699999999999704
100
AcDbArc
 50
350.5402980318
 51
0.0
  0
ARC
  5
132
330
1F
100
AcDbEntity
  8
0
  6
Continuous
 62
     7
370
    25
100
AcDbCircle
 10
331.6455582931
 20
106.2072979148
 30
0.0
 40
0.4700000000000273
100
AcDbArc
 50
180.0
 51
189.4597019682
  0
LINE
  5
133
330
1F
100
AcDbEntity
  8
0
  6
Continuous
 62
     7
370
    25
100
AcDbLine
 10
337.5555583369
 20
106.2072979898
 30
0.0
 11
337.5555583369
 21
119.0540420503
 31
0.0
  0
LINE
  5
134
330
1F
100
AcDbEntity
  8
0
  6
Continuous
 62
     7
370
    25
100
AcDbLine
 10
331.1755582783
 20
119.0540420503
 30
0.0
 11
331.1755582783
 21
106.2072979898
 31
0.0
  0
LINE
  5
135
330
1F
100
AcDbEntity
  8
0
  6
Continuous
 62
     7
370
    25
100
AcDbLine
 10
331.1819497589
 20
106.1300503701
 30
0.0
 11
331.2695931736
 21
105.60403938
 31
0.0
  0
LINE
  5
136
330
1F
100
AcDbEntity
  8
0
  6
Continuous
 62
     7
370
    25
100
AcDbLine
 10
337.4615233485
 20
105.60403938
 30
0.0
 11
337.5491669495
 21
106.1300503701
 31
0.0
  0
ARC
  5
137
330
1F
100
AcDbEntity
  8
0
  6
Continuous
 62
     7
370
    25
100
AcDbCircle
 10
278.8055582931
 20
119.0540413202
 30
0.0
 40
0.1500000000000057
100
AcDbArc
 50
90.0
 51
180.0
  0
ARC
  5
138
330
1F
100
AcDbEntity
  8
0
  6
Continuous
 62
     7
370
    25
100
AcDbCircle
 10
272.1255582931
 20
119.0540413202
 30
0.0
 40
0.1500000000000057
100
AcDbArc
 50
0.0
 51
90.0
  0
LINE
  5
139
330
1F
100
AcDbEntity
  8
0
  6
Continuous
 62
     7
370
    25
100
AcDbLine
 10
278.6555599514
 20
106.2072979898
 30
0.0
 11
278.6555599514
 21
119.0540420503
 31
0.0
  0
LINE
  5
13A
330
1F
100
AcDbEntity
  8
0
  6
Continuous
 62
     7
370
    25
100
AcDbLine
 10
272.2755562607
 20
119.0540420503
 30
0.0
 11
272.2755562607
 21
106.2072979898
 31
0.0
  0
ARC
  5
13B
330
1F
100
AcDbEntity
  8
0
  6
Continuous
 62
     7
370
    25
100
AcDbCircle
 10
278.1855582931
 20
106.2072979148
 30
0.0
 40
0.4700000000000273
100
AcDbArc
 50
350.5402980318
 51
0.0
  0
ARC
  5
13C
330
1F
100
AcDbEntity
  8
0
  6
Continuous
 62
     7
370
    25
100
AcDbCircle
 10
272.7455582931
 20
106.2072979148
 30
0.0
 40
0.4700000000000001
100
AcDbArc
 50
180.0
 51
189.4597019682
  0
LINE
  5
13D
330
1F
100
AcDbEntity
  8
0
  6
Continuous
 62
     7
370
    25
100
AcDbLine
 10
272.2819518391
 20
106.1300503701
 30
0.0
 11
272.3695945088
 21
105.60403938
 31
0.0
  0
LINE
  5
13E
330
1F
100
AcDbEntity
  8
0
  6
Continuous
 62
     7
370
    25
100
AcDbLine
 10
278.5615217034
 20
105.60403938
 30
0.0
 11
278.6491643731
 21
106.1300503701
 31
0.0
  0
LINE
  5
13F
330
1F
100
AcDbEntity
  8
0
  6
Continuous
 62
     7
370
    25
100
AcDbLine
 10
337.6365582552
 20
119.4040405244
 30
0.0
 11
337.6365582552
 21
119.4540428609
 31
0.0
  0
LINE
  5
140
330
1F
100
AcDbEntity
  8
0
  6
Continuous
 62
     7
370
    25
100
AcDbLine
 10
272.1945595089
 20
119.4540428609
 30
0.0
 11
272.1945595089
 21
119.4040405244
 31
0.0
  0
LINE
  5
141
330
1F
100
AcDbEntity
  8
0
  6
Continuous
 62
     7
370
    25
100
AcDbLine
 10
337.6355582941
 20
119.4040405244
 30
0.0
 11
337.6355582941
 21
119.4540428609
 31
0.0
  0
LINE
  5
142
330
1F
100
AcDbEntity
  8
0
  6
Continuous
 62
     7
370
    25
100
AcDbLine
 10
336.5955582913
 20
119.4540428609
 30
0.0
 11
336.5955582913
 21
119.4040405244
 31
0.0
  0
LINE
  5
143
330
1F
100
AcDbEntity
  8
0
  6
Continuous
 62
     7
370
    25
100
AcDbLine
 10
278.7355553452
 20
119.4040405244
 30
0.0
 11
278.7355553452
 21
119.4540428609
 31
0.0
  0
LINE
  5
144
330
1F
100
AcDbEntity
  8
0
  6
Continuous
 62
     7
370
    25
100
AcDbLine
 10
277.6955556218
 20
119.4540428609
 30
0.0
 11
277.6955556218
 21
119.4040405244
 31
0.0
  0
LINE
  5
145
330
1F
100
AcDbEntity
  8
0
  6
Continuous
 62
     7
370
    25
100
AcDbLine
 10
332.1355581377
 20
119.4040405244
 30
0.0
 11
332.1355581377
 21
119.4540428609
 31
0.0
  0
LINE
  5
146
330
1F
100
AcDbEntity
  8
0
  6
Continuous
 62
     7
370
    25
100
AcDbLine
 10
331.0955584142
 20
119.4540428609
 30
0.0
 11
331.0955584142
 21
119.4040405244
 31
0.0
  0
LINE
  5
147
330
1F
100
AcDbEntity
  8
0
  6
Continuous
 62
     7
370
    25
100
AcDbLine
 10
273.2355605904
 20
119.4040405244
 30
0.0
 11
273.2355605904
 21
119.4540428609
 31
0.0
  0
LINE
  5
148
330
1F
100
AcDbEntity
  8
0
  6
Continuous
 62
     7
370
    25
100
AcDbLine
 10
272.195560867
 20
119.4540428609
 30
0.0
 11
272.195560867
 21
119.4040405244
 31
0.0
  0
ARC
  5
149
330
1F
100
AcDbEntity
  8
0
  6
Continuous
 62
     7
370
    25
100
AcDbCircle
 10
331.9155582931
 20
199.9440413202
 30
0.0
 40
0.1700000000000224
100
AcDbArc
 50
0.0
 51
31.9657187509
  0
ARC
  5
14A
330
1F
100
AcDbEntity
  8
0
  6
Continuous
 62
     7
370
    25
100
AcDbCircle
 10
327.0755582931
 20
199.9440413202
 30
0.0
 40
0.1699999999999742
100
AcDbArc
 50
148.0342812491
 51
180.0
  0
LINE
  5
14B
330
1F
100
AcDbEntity
  8
0
  6
Continuous
 62
     7
370
    25
100
AcDbLine
 10
332.0855584089
 20
193.9824499801
 30
0.0
 11
332.0855584089
 21
199.9440411717
 31
0.0
  0
LINE
  5
14C
330
1F
100
AcDbEntity
  8
0
  6
Continuous
 62
     7
370
    25
100
AcDbLine
 10
326.9055586401
 20
199.9440411717
 30
0.0
 11
326.9055586401
 21
193.9824499801
 31
0.0
  0
ARC
  5
14D
330
1F
100
AcDbEntity
  8
0
  6
Continuous
 62
     7
370
    25
100
AcDbCircle
 10
331.1610495525
 20
193.9824499988
 30
0.0
 40
0.9245087405802792
100
AcDbArc
 50
347.2043541058
 51
0.0000000001
  0
ARC
  5
14E
330
1F
100
AcDbEntity
  8
0
  6
Continuous
 62
     7
370
    25
100
AcDbCircle
 10
327.8300670337
 20
193.9824499988
 30
0.0
 40
0.9245087405802792
100
AcDbArc
 50
179.9999999999
 51
192.7956458942
  0
ARC
  5
14F
330
1F
100
AcDbEntity
  8
0
  6
Continuous
 62
     7
370
    25
100
AcDbCircle
 10
331.9664693766
 20
193.7995274692
 30
0.0
 40
0.0985779051853368
100
AcDbArc
 50
299.8658385583
 51
347.2043541058
  0
ARC
  5
150
330
1F
100
AcDbEntity
  8
0
  6
Continuous
 62
     7
370
    25
100
AcDbCircle
 10
327.0246472096
 20
193.7995274692
 30
0.0
 40
0.0985779051853368
100
AcDbArc
 50
192.7956458942
 51
240.1341614417
  0
ARC
  5
151
330
1F
100
AcDbEntity
  8
0
  6
Continuous
 62
     7
370
    25
100
AcDbCircle
 10
282.7355582931
 20
199.9440413202
 30
0.0
 40
0.1700000000000224
100
AcDbArc
 50
0.0
 51
31.9657187509
  0
ARC
  5
152
330
1F
100
AcDbEntity
  8
0
  6
Continuous
 62
     7
370
    25
100
AcDbCircle
 10
277.8955582931
 20
199.9440413202
 30
0.0
 40
0.1700000000000728
100
AcDbArc
 50
148.0342812491
 51
180.0
  0
LINE
  5
153
330
1F
100
AcDbEntity
  8
0
  6
Continuous
 62
     7
370
    25
100
AcDbLine
 10
282.9055558983
 20
193.9824499801
 30
0.0
 11
282.9055558983
 21
199.9440411717
 31
0.0
  0
LINE
  5
154
330
1F
100
AcDbEntity
  8
0
  6
Continuous
 62
     7
370
    25
100
AcDbLine
 10
277.7255605999
 20
199.9440411717
 30
0.0
 11
277.7255605999
 21
193.9824499801
 31
0.0
  0
ARC
  5
155
330
1F
100
AcDbEntity
  8
0
  6
Continuous
 62
     7
370
    25
100
AcDbCircle
 10
281.9810495526
 20
193.9824499988
 30
0.0
 40
0.9245087405802226
100
AcDbArc
 50
347.2043541058
 51
0.0000000001
  0
ARC
  5
156
330
1F
100
AcDbEntity
  8
0
  6
Continuous
 62
     7
370
    25
100
AcDbCircle
 10
278.6500670337
 20
193.9824499988
 30
0.0
 40
0.9245087405802792
100
AcDbArc
 50
179.9999999999
 51
192.7956458942
  0
ARC
  5
157
330
1F
100
AcDbEntity
  8
0
  6
Continuous
 62
     7
370
    25
100
AcDbCircle
 10
282.7864693766
 20
193.7995274692
 30
0.0
 40
0.0985779051853485
100
AcDbArc
 50
299.8658385582
 51
347.2043541058
  0
ARC
  5
158
330
1F
100
AcDbEntity
  8
0
  6
Continuous
 62
     7
370
    25
100
AcDbCircle
 10
277.8446472096
 20
193.7995274692
 30
0.0
 40
0.0985779051853368
100
AcDbArc
 50
192.7956458942
 51
240.1341614417
  0
ARC
  5
159
330
1F
100
AcDbEntity
  8
0
  6
Continuous
 62
     7
370
    25
100
AcDbCircle
 10
331.5655582931
 20
192.8140413202
 30
0.0
 40
0.1500000000000341
100
AcDbArc
 50
270.0
 51
323.1301023541
  0
ARC
  5
15A
330
1F
100
AcDbEntity
  8
0
  6
Continuous
 62
     7
370
    25
100
AcDbCircle
 10
327.4255582931
 20
192.8140413202
 30
0.0
 40
0.1500000000000341
100
AcDbArc
 50
216.8698976459
 51
270.0
  0
LINE
  5
15B
330
1F
100
AcDbEntity
  8
0
  6
Continuous
 62
     7
370
    25
100
AcDbLine
 10
327.4255585019
 20
192.6640413381
 30
0.0
 11
331.5655581746
 21
192.6640413381
 31
0.0
  0
ARC
  5
15C
330
1F
100
AcDbEntity
  8
0
  6
Continuous
 62
     7
370
    25
100
AcDbCircle
 10
282.3855582931
 20
192.8140413202
 30
0.0
 40
0.1500000000000057
100
AcDbArc
 50
270.0
 51
323.1301023541
  0
ARC
  5
15D
330
1F
100
AcDbEntity
  8
0
  6
Continuous
 62
     7
370
    25
100
AcDbCircle
 10
278.2455582931
 20
192.8140413202
 30
0.0
 40
0.1500000000000341
100
AcDbArc
 50
216.8698976459
 51
270.0
  0
LINE
  5
15E
330
1F
100
AcDbEntity
  8
0
  6
Continuous
 62
     7
370
    25
100
AcDbLine
 10
278.2455574814
 20
192.6640413381
 30
0.0
 11
282.3855590168
 21
192.6640413381
 31
0.0
  0
ARC
  5
15F
330
1F
100
AcDbEntity
  8
0
  6
Continuous
 62
     7
370
    25
100
AcDbCircle
 10
282.6955582931
 20
192.8340413202
 30
0.0
 40
0.1200000000000045
100
AcDbArc
 50
270.0
 51
360.0
  0
ARC
  5
160
330
1F
100
AcDbEntity
  8
0
  6
Continuous
 62
     7
370
    25
100
AcDbCircle
 10
277.9355582931
 20
192.8340413202
 30
0.0
 40
0.1200000000000045
100
AcDbArc
 50
180.0
 51
270.0
  0
ARC
  5
161
330
1F
100
AcDbEntity
  8
0
  6
Continuous
 62
     7
370
    25
100
AcDbCircle
 10
277.9355582931
 20
193.6440413202
 30
0.0
 40
0.1200000000000398
100
AcDbArc
 50
144.3146652873
 51
180.0
  0
ARC
  5
162
330
1F
100
AcDbEntity
  8
0
  6
Continuous
 62
     7
370
    25
100
AcDbCircle
 10
282.6955582931
 20
193.6440413202
 30
0.0
 40
0.1200000000000614
100
AcDbArc
 50
0.0
 51
35.6853347126
  0
LINE
  5
163
330
1F
100
AcDbEntity
  8
0
  6
Continuous
 62
     7
370
    25
100
AcDbLine
 10
277.8155576531
 20
193.6440412566
 30
0.0
 11
277.8155576531
 21
192.8340413288
 31
0.0
  0
LINE
  5
164
330
1F
100
AcDbEntity
  8
0
  6
Continuous
 62
     7
370
    25
100
AcDbLine
 10
282.8155588452
 20
192.8340413288
 30
0.0
 11
282.8155588452
 21
193.6440412566
 31
0.0
  0
ARC
  5
165
330
1F
100
AcDbEntity
  8
0
  6
Continuous
 62
     7
370
    25
100
AcDbCircle
 10
331.8755582931
 20
192.8340413202
 30
0.0
 40
0.1200000000000045
100
AcDbArc
 50
270.0
 51
0.0
  0
ARC
  5
166
330
1F
100
AcDbEntity
  8
0
  6
Continuous
 62
     7
370
    25
100
AcDbCircle
 10
327.1155582931
 20
192.8340413202
 30
0.0
 40
0.1199999999999761
100
AcDbArc
 50
180.0
 51
270.0
  0
ARC
  5
167
330
1F
100
AcDbEntity
  8
0
  6
Continuous
 62
     7
370
    25
100
AcDbCircle
 10
327.1155582931
 20
193.6440413202
 30
0.0
 40
0.1200000000000232
100
AcDbArc
 50
144.3146652874
 51
180.0
  0
ARC
  5
168
330
1F
100
AcDbEntity
  8
0
  6
Continuous
 62
     7
370
    25
100
AcDbCircle
 10
331.8755582931
 20
193.6440413202
 30
0.0
 40
0.1200000000000045
100
AcDbArc
 50
0.0
 51
35.6853347127
  0
LINE
  5
169
330
1F
100
AcDbEntity
  8
0
  6
Continuous
 62
     7
370
    25
100
AcDbLine
 10
326.9955579285
 20
193.6440412566
 30
0.0
 11
326.9955579285
 21
192.8340413288
 31
0.0
  0
LINE
  5
16A
330
1F
100
AcDbEntity
  8
0
  6
Continuous
 62
     7
370
    25
100
AcDbLine
 10
331.9955583755
 20
192.8340413288
 30
0.0
 11
331.9955583755
 21
193.6440412566
 31
0.0
  0
LINE
  5
16B
330
1F
100
AcDbEntity
  8
0
  6
Continuous
 62
     7
370
    25
100
AcDbLine
 10
338.0555583257
 20
232.904042551
 30
0.0
 11
338.1555583421
 21
233.104039976
 31
0.0
  0
LINE
  5
16C
330
1F
100
AcDbEntity
  8
0
  6
Continuous
 62
     7
370
    25
100
AcDbLine
 10
338.1555583421
 20
235.0040423364
 30
0.0
 11
338.0555583257
 21
235.2040427417
 31
0.0
  0
LINE
  5
16D
330
1F
100
AcDbEntity
  8
0
  6
Continuous
 62
     7
370
    25
100
AcDbLine
 10
338.0555583257
 20
235.2040427417
 30
0.0
 11
337.9555583093
 21
235.2040427417
 31
0.0
  0
LINE
  5
16E
330
1F
100
AcDbEntity
  8
0
  6
Continuous
 62
     7
370
    25
100
AcDbLine
 10
337.9555583093
 20
232.904042551
 30
0.0
 11
338.0555583257
 21
232.904042551
 31
0.0
  0
LINE
  5
16F
330
1F
100
AcDbEntity
  8
0
  6
Continuous
 62
     7
370
    25
100
AcDbLine
 10
338.1555583421
 20
233.2725005836
 30
0.0
 11
338.5376421828
 21
233.4657924861
 31
0.0
  0
LINE
  5
170
330
1F
100
AcDbEntity
  8
0
  6
Continuous
 62
     7
370
    25
100
AcDbLine
 10
338.1655335519
 20
234.8545211047
 30
0.0
 11
338.1555583421
 21
234.8539697618
 31
0.0
  0
LINE
  5
171
330
1F
100
AcDbEntity
  8
0
  6
Continuous
 62
     7
370
    25
100
AcDbLine
 10
337.9555583093
 20
242.0540439576
 30
0.0
 11
338.2855583075
 21
242.0540439576
 31
0.0
  0
LINE
  5
172
330
1F
100
AcDbEntity
  8
0
  6
Continuous
 62
     7
370
    25
100
AcDbLine
 10
337.9555583093
 20
249.6790396661
 30
0.0
 11
338.0555583257
 21
249.6790396661
 31
0.0
  0
LINE
  5
173
330
1F
100
AcDbEntity
  8
0
  6
Continuous
 62
     7
370
    25
100
AcDbLine
 10
338.0555583257
 20
251.2290405721
 30
0.0
 11
337.9555583093
 21
251.2290405721
 31
0.0
  0
LINE
  5
174
330
1F
100
AcDbEntity
  8
0
  6
Continuous
 62
     7
370
    25
100
AcDbLine
 10
338.0555583257
 20
249.6740388364
 30
0.0
 11
338.40555829
 21
249.789040038
 31
0.0
  0
LINE
  5
175
330
1F
100
AcDbEntity
  8
0
  6
Continuous
 62
     7
370
    25
100
AcDbLine
 10
338.40555829
 20
251.1190402001
 30
0.0
 11
338.0555583257
 21
251.2340414018
 31
0.0
  0
LINE
  5
176
330
1F
100
AcDbEntity
  8
0
  6
Continuous
 62
     7
370
    25
100
AcDbLine
 10
338.2855583075
 20
226.054041335
 30
0.0
 11
337.9555583093
 21
226.054041335
 31
0.0
  0
LINE
  5
177
330
1F
100
AcDbEntity
  8
0
  6
Continuous
 62
     7
370
    25
100
AcDbLine
 10
338.1555583421
 20
203.8544940442
 30
0.0
 11
338.230650695
 21
203.8544940442
 31
0.0
  0
LINE
  5
178
330
1F
100
AcDbEntity
  8
0
  6
Continuous
 62
     7
370
    25
100
AcDbLine
 10
338.1855582912
 20
207.1734103054
 30
0.0
 11
338.1555583421
 21
207.1734103054
 31
0.0
  0
ARC
  5
179
330
1F
100
AcDbEntity
  8
0
  6
Continuous
 62
     7
370
    25
100
AcDbCircle
 10
338.1855582931
 20
207.1534102168
 30
0.0
 40
0.0200000003318645
100
AcDbArc
 50
0.0001475031
 51
90.2522154337
  0
LINE
  5
17A
330
1F
100
AcDbEntity
  8
0
  6
Continuous
 62
     7
370
    25
100
AcDbLine
 10
338.1618082617
 20
207.173417756
 30
0.0
 11
338.1555583421
 21
207.173417756
 31
0.0
  0
LINE
  5
17B
330
1F
100
AcDbEntity
  8
0
  6
Continuous
 62
     7
370
    25
100
AcDbLine
 10
338.1618082617
 20
207.6159345597
 30
0.0
 11
338.1555583421
 21
207.6159345597
 31
0.0
  0
ARC
  5
17C
330
1F
100
AcDbEntity
  8
0
  6
Continuous
 62
     7
370
    25
100
AcDbCircle
 10
338.2155582931
 20
207.5976419283
 30
0.0
 40
0.0200000062836345
100
AcDbArc
 50
0.0001950651
 51
90.9726383189
  0
LINE
  5
17D
330
1F
100
AcDbEntity
  8
0
  6
Continuous
 62
     7
370
    25
100
AcDbLine
 10
338.2155582402
 20
207.6176422328
 30
0.0
 11
338.1555583421
 21
207.6176422328
 31
0.0
  0
LINE
  5
17E
330
1F
100
AcDbEntity
  8
0
  6
Continuous
 62
     7
370
    25
100
AcDbLine
 10
338.1555583421
 20
203.4372339636
 30
0.0
 11
338.2055582572
 21
203.4372339636
 31
0.0
  0
LINE
  5
17F
330
1F
100
AcDbEntity
  8
0
  6
Continuous
 62
     7
370
    25
100
AcDbLine
 10
338.2055582572
 20
203.5410652548
 30
0.0
 11
338.2180582825
 21
203.5410652548
 31
0.0
  0
LINE
  5
180
330
1F
100
AcDbEntity
  8
0
  6
Continuous
 62
     7
370
    25
100
AcDbLine
 10
338.1555583421
 20
203.3272402972
 30
0.0
 11
338.2055582572
 21
203.3272402972
 31
0.0
  0
ARC
  5
181
330
1F
100
AcDbEntity
  8
0
  6
Continuous
 62
     7
370
    25
100
AcDbCircle
 10
338.2355583149
 20
207.2183317401
 30
0.0
 40
0.0200000437997825
100
AcDbArc
 50
0.0074084551
 51
90.1806708667
  0
LINE
  5
182
330
1F
100
AcDbEntity
  8
0
  6
Continuous
 62
     7
370
    25
100
AcDbLine
 10
338.2155582402
 20
207.6173263282
 30
0.0
 11
338.1555583421
 21
207.6173263282
 31
0.0
  0
LINE
  5
183
330
1F
100
AcDbEntity
  8
0
  6
Continuous
 62
     7
370
    25
100
AcDbLine
 10
274.9855589215
 20
203.7540408463
 30
0.0
 11
274.3047010247
 21
203.7540408463
 31
0.0
  0
LINE
  5
184
330
1F
100
AcDbEntity
  8
0
  6
Continuous
 62
     7
370
    25
100
AcDbLine
 10
274.3047010247
 20
201.5740411967
 30
0.0
 11
274.9855589215
 21
201.5740411967
 31
0.0
  0
ARC
  5
185
330
1F
100
AcDbEntity
  8
0
  6
Continuous
 62
     7
370
    25
100
AcDbCircle
 10
274.3047010963
 20
201.7740413202
 30
0.0
 40
0.1999999999999882
100
AcDbArc
 50
198.9655749889
 51
241.4768282447
  0
LWPOLYLINE
  5
186
330
1F
100
AcDbEntity
  8
0
  6
Continuous
 62
     7
370
    25
100
AcDbPolyline
 90
        3
 70
   128
 43
0.0
 10
274.2655586544
 20
201.5779087931
 10
274.2738317791
 20
201.5764380485
 10
274.3047010247
 20
201.5740411967
  0
LWPOLYLINE
  5
187
330
1F
100
AcDbEntity
  8
0
  6
Continuous
 62
     7
370
    25
100
AcDbPolyline
 90
        3
 70
   128
 43
0.0
 10
274.3047010247
 20
203.7540408463
 10
274.2738317791
 20
203.7516447395
 10
274.2655586544
 20
203.7501739949
  0
ARC
  5
188
330
1F
100
AcDbEntity
  8
0
  6
Continuous
 62
     7
370
    25
100
AcDbCircle
 10
274.3047010963
 20
203.5540413202
 30
0.0
 40
0.1999999999999894
100
AcDbArc
 50
118.5231717892
 51
161.0344250112
  0
LINE
  5
189
330
1F
100
AcDbEntity
  8
0
  6
Continuous
 62
     7
370
    25
100
AcDbLine
 10
275.6155561749
 20
203.7540408463
 30
0.0
 11
275.3755580727
 21
203.7540408463
 31
0.0
  0
LINE
  5
18A
330
1F
100
AcDbEntity
  8
0
  6
Continuous
 62
     7
370
    25
100
AcDbLine
 10
275.3755580727
 20
201.5740411967
 30
0.0
 11
275.6155561749
 21
201.5740411967
 31
0.0
  0
LINE
  5
18B
330
1F
100
AcDbEntity
  8
0
  6
Continuous
 62
     7
370
    25
100
AcDbLine
 10
275.6155561749
 20
201.6490409762
 30
0.0
 11
276.1355590168
 21
201.6490409762
 31
0.0
  0
LINE
  5
18C
330
1F
100
AcDbEntity
  8
0
  6
Continuous
 62
     7
370
    25
100
AcDbLine
 10
276.1355590168
 20
203.6790418119
 30
0.0
 11
275.6155561749
 21
203.6790418119
 31
0.0
  0
LINE
  5
18D
330
1F
100
AcDbEntity
  8
0
  6
Continuous
 62
     7
370
    25
100
AcDbLine
 10
276.1355590168
 20
201.7215410859
 30
0.0
 11
276.2655567471
 21
201.7215410859
 31
0.0
  0
LINE
  5
18E
330
1F
100
AcDbEntity
  8
0
  6
Continuous
 62
     7
370
    25
100
AcDbLine
 10
276.2655567471
 20
203.6065409571
 30
0.0
 11
276.1355590168
 21
203.6065409571
 31
0.0
  0
LWPOLYLINE
  5
18F
330
1F
100
AcDbEntity
  8
0
  6
Continuous
 62
     7
370
    25
100
AcDbPolyline
 90
        3
 70
   128
 43
0.0
 10
274.2655586544
 20
203.7540408463
 10
274.2344748322
 20
203.7432181329
 10
274.2091965023
 20
203.7297668547
  0
LWPOLYLINE
  5
190
330
1F
100
AcDbEntity
  8
0
  6
Continuous
 62
     7
370
    25
100
AcDbPolyline
 90
        3
 70
   128
 43
0.0
 10
274.2091965023
 20
201.5983166784
 10
274.2344748322
 20
201.5848646552
 10
274.2655586544
 20
201.5740411967
  0
LINE
  5
191
330
1F
100
AcDbEntity
  8
0
  6
Continuous
 62
     7
370
    25
100
AcDbLine
 10
341.9355582539
 20
254.3640422315
 30
0.0
 11
341.9355582539
 21
200.2640413732
 31
0.0
  0
LINE
  5
192
330
1F
100
AcDbEntity
  8
0
  6
Continuous
 62
     7
370
    25
100
AcDbLine
 10
345.4355586413
 20
200.0140416116
 30
0.0
 11
345.4355586413
 21
254.6140419931
 31
0.0
  0
LINE
  5
193
330
1F
100
AcDbEntity
  8
0
  6
Continuous
 62
     7
370
    25
100
AcDbLine
 10
337.2855583299
 20
199.7640411049
 30
0.0
 11
337.2855583299
 21
199.8140412063
 31
0.0
  0
LINE
  5
194
330
1F
100
AcDbEntity
  8
0
  6
Continuous
 62
     7
370
    25
100
AcDbLine
 10
336.5055583045
 20
199.8140412063
 30
0.0
 11
336.5055583045
 21
199.7640411049
 31
0.0
  0
LINE
  5
195
330
1F
100
AcDbEntity
  8
0
  6
Continuous
 62
     7
370
    25
100
AcDbLine
 10
336.3955582818
 20
254.6840416879
 30
0.0
 11
336.3955582818
 21
254.5340406388
 31
0.0
  0
LINE
  5
196
330
1F
100
AcDbEntity
  8
0
  6
Continuous
 62
     7
370
    25
100
AcDbLine
 10
337.3955583293
 20
254.5340406388
 30
0.0
 11
337.3955583293
 21
254.6840416879
 31
0.0
  0
LINE
  5
197
330
1F
100
AcDbEntity
  8
0
  6
Continuous
 62
     7
370
    25
100
AcDbLine
 10
336.5055583045
 20
254.984043786
 30
0.0
 11
336.5055583045
 21
254.9340414495
 31
0.0
  0
LINE
  5
198
330
1F
100
AcDbEntity
  8
0
  6
Continuous
 62
     7
370
    25
100
AcDbLine
 10
337.2855583299
 20
254.9340414495
 30
0.0
 11
337.2855583299
 21
254.984043786
 31
0.0
  0
LINE
  5
199
330
1F
100
AcDbEntity
  8
0
  6
Continuous
 62
     7
370
    25
100
AcDbLine
 10
336.0455582943
 20
200.1140410692
 30
0.0
 11
336.0955582908
 21
200.0640409679
 31
0.0
  0
LINE
  5
19A
330
1F
100
AcDbEntity
  8
0
  6
Continuous
 62
     7
370
    25
100
AcDbLine
 10
337.6955582853
 20
200.0640409679
 30
0.0
 11
337.7455582935
 21
200.1140410692
 31
0.0
  0
LINE
  5
19B
330
1F
100
AcDbEntity
  8
0
  6
Continuous
 62
     7
370
    25
100
AcDbLine
 10
336.0455582943
 20
200.2640413732
 30
0.0
 11
336.0455582943
 21
200.1140410692
 31
0.0
  0
LINE
  5
19C
330
1F
100
AcDbEntity
  8
0
  6
Continuous
 62
     7
370
    25
100
AcDbLine
 10
337.7455582935
 20
200.1140410692
 30
0.0
 11
337.7455582935
 21
200.2640413732
 31
0.0
  0
LINE
  5
19D
330
1F
100
AcDbEntity
  8
0
  6
Continuous
 62
     7
370
    25
100
AcDbLine
 10
337.7455582935
 20
200.2640413732
 30
0.0
 11
337.6955582853
 21
200.3140414745
 31
0.0
  0
LINE
  5
19E
330
1F
100
AcDbEntity
  8
0
  6
Continuous
 62
     7
370
    25
100
AcDbLine
 10
336.0955582908
 20
200.3140414745
 30
0.0
 11
336.0455582943
 21
200.2640413732
 31
0.0
  0
LINE
  5
19F
330
1F
100
AcDbEntity
  8
0
  6
Continuous
 62
     7
370
    25
100
AcDbLine
 10
336.2455582921
 20
200.4011126846
 30
0.0
 11
336.2455582921
 21
200.3940413386
 31
0.0
  0
LINE
  5
1A0
330
1F
100
AcDbEntity
  8
0
  6
Continuous
 62
     7
370
    25
100
AcDbLine
 10
337.5455582608
 20
200.3940413386
 30
0.0
 11
337.5455582608
 21
200.4011126846
 31
0.0
  0
LINE
  5
1A1
330
1F
100
AcDbEntity
  8
0
  6
Continuous
 62
     7
370
    25
100
AcDbLine
 10
336.0455582943
 20
254.3340432138
 30
0.0
 11
336.0955582908
 21
254.2840408773
 31
0.0
  0
LINE
  5
1A2
330
1F
100
AcDbEntity
  8
0
  6
Continuous
 62
     7
370
    25
100
AcDbLine
 10
337.6955582853
 20
254.2840408773
 30
0.0
 11
337.7455582935
 21
254.3340432138
 31
0.0
  0
LINE
  5
1A3
330
1F
100
AcDbEntity
  8
0
  6
Continuous
 62
     7
370
    25
100
AcDbLine
 10
337.7455582935
 20
254.3340432138
 30
0.0
 11
337.7455582935
 21
254.4840442628
 31
0.0
  0
LINE
  5
1A4
330
1F
100
AcDbEntity
  8
0
  6
Continuous
 62
     7
370
    25
100
AcDbLine
 10
336.0455582943
 20
254.4840442628
 30
0.0
 11
336.0455582943
 21
254.3340432138
 31
0.0
  0
LINE
  5
1A5
330
1F
100
AcDbEntity
  8
0
  6
Continuous
 62
     7
370
    25
100
AcDbLine
 10
337.7455582935
 20
254.4840442628
 30
0.0
 11
337.6955582853
 21
254.5340406388
 31
0.0
  0
LINE
  5
1A6
330
1F
100
AcDbEntity
  8
0
  6
Continuous
 62
     7
370
    25
100
AcDbLine
 10
336.0955582908
 20
254.5340406388
 30
0.0
 11
336.0455582943
 21
254.4840442628
 31
0.0
  0
LINE
  5
1A7
330
1F
100
AcDbEntity
  8
0
  6
Continuous
 62
     7
370
    25
100
AcDbLine
 10
337.5455582608
 20
254.1969704122
 30
0.0
 11
337.5455582608
 21
254.204039523
 31
0.0
  0
LINE
  5
1A8
330
1F
100
AcDbEntity
  8
0
  6
Continuous
 62
     7
370
    25
100
AcDbLine
 10
336.2455582921
 20
254.204039523
 30
0.0
 11
336.2455582921
 21
254.1969704122
 31
0.0
  0
LINE
  5
1A9
330
1F
100
AcDbEntity
  8
0
  6
Continuous
 62
     7
370
    25
100
AcDbLine
 10
333.7255582307
 20
221.9540404767
 30
0.0
 11
333.775558332
 21
221.9540404767
 31
0.0
  0
LINE
  5
1AA
330
1F
100
AcDbEntity
  8
0
  6
Continuous
 62
     7
370
    25
100
AcDbLine
 10
333.775558332
 20
222.6540404052
 30
0.0
 11
333.7255582307
 21
222.6540404052
 31
0.0
  0
LINE
  5
1AB
330
1F
100
AcDbEntity
  8
0
  6
Continuous
 62
     7
370
    25
100
AcDbLine
 10
333.7255582307
 20
229.7540413827
 30
0.0
 11
333.775558332
 21
229.7540413827
 31
0.0
  0
LINE
  5
1AC
330
1F
100
AcDbEntity
  8
0
  6
Continuous
 62
     7
370
    25
100
AcDbLine
 10
333.775558332
 20
230.4540413112
 30
0.0
 11
333.7255582307
 21
230.4540413112
 31
0.0
  0
ARC
  5
1AD
330
1F
100
AcDbEntity
  8
0
  6
Continuous
 62
     7
370
    25
100
AcDbCircle
 10
334.6805582931
 20
254.1740413202
 30
0.0
 40
0.0300000000000296
100
AcDbArc
 50
90.0
 51
130.155443777
  0
ARC
  5
1AE
330
1F
100
AcDbEntity
  8
0
  6
Continuous
 62
     7
370
    25
100
AcDbCircle
 10
335.5905582931
 20
254.1740413202
 30
0.0
 40
0.0300000000000296
100
AcDbArc
 50
49.8445562229
 51
90.0
  0
LINE
  5
1AF
330
1F
100
AcDbEntity
  8
0
  6
Continuous
 62
     7
370
    25
100
AcDbLine
 10
334.7355582844
 20
254.3340432138
 30
0.0
 11
334.7355582844
 21
254.2840408773
 31
0.0
  0
LINE
  5
1B0
330
1F
100
AcDbEntity
  8
0
  6
Continuous
 62
     7
370
    25
100
AcDbLine
 10
335.5355582759
 20
254.2840408773
 30
0.0
 11
335.5355582759
 21
254.3340432138
 31
0.0
  0
ARC
  5
1B1
330
1F
100
AcDbEntity
  8
0
  6
Continuous
 62
     7
370
    25
100
AcDbCircle
 10
335.5905582931
 20
200.4240413202
 30
0.0
 40
0.0300000000000011
100
AcDbArc
 50
270.0
 51
310.1554437772
  0
ARC
  5
1B2
330
1F
100
AcDbEntity
  8
0
  6
Continuous
 62
     7
370
    25
100
AcDbCircle
 10
334.6805582931
 20
200.4240413202
 30
0.0
 40
0.0300000000000011
100
AcDbArc
 50
229.844556223
 51
270.0
  0
LINE
  5
1B3
330
1F
100
AcDbEntity
  8
0
  6
Continuous
 62
     7
370
    25
100
AcDbLine
 10
335.5355582759
 20
200.2640413732
 30
0.0
 11
335.5355582759
 21
200.3140414745
 31
0.0
  0
LINE
  5
1B4
330
1F
100
AcDbEntity
  8
0
  6
Continuous
 62
     7
370
    25
100
AcDbLine
 10
334.7355582844
 20
200.3140414745
 30
0.0
 11
334.7355582844
 21
200.2640413732
 31
0.0
  0
LINE
  5
1B5
330
1F
100
AcDbEntity
  8
0
  6
Continuous
 62
     7
370
    25
100
AcDbLine
 10
339.2855584715
 20
245.224039504
 30
0.0
 11
338.2855583075
 21
245.224039504
 31
0.0
  0
LINE
  5
1B6
330
1F
100
AcDbEntity
  8
0
  6
Continuous
 62
     7
370
    25
100
AcDbLine
 10
338.2855583075
 20
239.2240422458
 30
0.0
 11
339.2855584715
 21
239.2240422458
 31
0.0
  0
LINE
  5
1B7
330
1F
100
AcDbEntity
  8
0
  6
Continuous
 62
     7
370
    25
100
AcDbLine
 10
339.2855584715
 20
239.2240422458
 30
0.0
 11
339.8451145832
 21
239.3732565135
 31
0.0
  0
LINE
  5
1B8
330
1F
100
AcDbEntity
  8
0
  6
Continuous
 62
     7
370
    25
100
AcDbLine
 10
340.2350422088
 20
239.4772368163
 30
0.0
 11
340.7855581585
 21
239.6240400762
 31
0.0
  0
LINE
  5
1B9
330
1F
100
AcDbEntity
  8
0
  6
Continuous
 62
     7
370
    25
100
AcDbLine
 10
340.7855581585
 20
244.8240386933
 30
0.0
 11
339.2855584715
 21
245.224039504
 31
0.0
  0
ARC
  5
1BA
330
1F
100
AcDbEntity
  8
0
  6
Continuous
 62
     7
370
    25
100
AcDbCircle
 10
337.905558293
 20
242.2240413202
 30
0.0
 40
3.880000000000012
100
AcDbArc
 50
317.9249779492
 51
42.0750220508
  0
ARC
  5
1BB
330
1F
100
AcDbEntity
  8
0
  6
Continuous
 62
     7
370
    25
100
AcDbCircle
 10
340.1386477178
 20
242.3156058888
 30
0.0
 40
0.0999707764380888
100
AcDbArc
 50
14.2134525225
 51
102.820344495
  0
ARC
  5
1BC
330
1F
100
AcDbEntity
  8
0
  6
Continuous
 62
     7
370
    25
100
AcDbCircle
 10
340.1309288903
 20
240.3730489701
 30
0.0
 40
0.1048874135458177
100
AcDbArc
 50
265.3129162825
 51
355.9793645799
  0
LINE
  5
1BD
330
1F
100
AcDbEntity
  8
0
  6
Continuous
 62
     7
370
    25
100
AcDbLine
 10
339.8355584685
 20
240.2935254068
 30
0.0
 11
340.1220917795
 21
240.2685212583
 31
0.0
  0
ARC
  5
1BE
330
1F
100
AcDbEntity
  8
0
  6
Continuous
 62
     7
370
    25
100
AcDbCircle
 10
340.1296175356
 20
244.2395743
 30
0.0
 40
0.1061729929167891
100
AcDbArc
 50
3.7913774502
 51
93.435873491
  0
LINE
  5
1BF
330
1F
100
AcDbEntity
  8
0
  6
Continuous
 62
     7
370
    25
100
AcDbLine
 10
340.1233539078
 20
244.3455683679
 30
0.0
 11
339.8355584685
 21
244.3251418561
 31
0.0
  0
ARC
  5
1C0
330
1F
100
AcDbEntity
  8
0
  6
Continuous
 62
     7
370
    25
100
AcDbCircle
 10
340.1288918957
 20
239.479854235
 30
0.0
 40
0.1066662687017182
100
AcDbArc
 50
269.9892098275
 51
359.9867771892
  0
LINE
  5
1C1
330
1F
100
AcDbEntity
  8
0
  6
Continuous
 62
     7
370
    25
100
AcDbLine
 10
339.8355584685
 20
239.3732594937
 30
0.0
 11
340.1288729254
 21
239.3731879682
 31
0.0
  0
ARC
  5
1C2
330
1F
100
AcDbEntity
  8
0
  6
Continuous
 62
     7
370
    25
100
AcDbCircle
 10
340.1288876627
 20
244.968226261
 30
0.0
 40
0.1066705019987362
100
AcDbArc
 50
0.0138957261
 51
90.0085160786
  0
LINE
  5
1C3
330
1F
100
AcDbEntity
  8
0
  6
Continuous
 62
     7
370
    25
100
AcDbLine
 10
340.1288729254
 20
245.0748967618
 30
0.0
 11
339.8451145832
 21
245.0748252362
 31
0.0
  0
LINE
  5
1C4
330
1F
100
AcDbEntity
  8
0
  6
Continuous
 62
     7
370
    25
100
AcDbLine
 10
339.2855584715
 20
228.7540423364
 30
0.0
 11
338.2855583075
 21
228.7540423364
 31
0.0
  0
LINE
  5
1C5
330
1F
100
AcDbEntity
  8
0
  6
Continuous
 62
     7
370
    25
100
AcDbLine
 10
338.2855583075
 20
222.754042098
 30
0.0
 11
339.2855584715
 21
222.754042098
 31
0.0
  0
LINE
  5
1C6
330
1F
100
AcDbEntity
  8
0
  6
Continuous
 62
     7
370
    25
100
AcDbLine
 10
339.2855584715
 20
222.754042098
 30
0.0
 11
340.7855581585
 21
223.1540399283
 31
0.0
  0
LINE
  5
1C7
330
1F
100
AcDbEntity
  8
0
  6
Continuous
 62
     7
370
    25
100
AcDbLine
 10
340.7855581585
 20
228.3540415258
 30
0.0
 11
339.2855584715
 21
228.7540423364
 31
0.0
  0
ARC
  5
1C8
330
1F
100
AcDbEntity
  8
0
  6
Continuous
 62
     7
370
    25
100
AcDbCircle
 10
337.905558293
 20
225.7540413202
 30
0.0
 40
3.879999999999993
100
AcDbArc
 50
317.9249779492
 51
42.0750220508
  0
ARC
  5
1C9
330
1F
100
AcDbEntity
  8
0
  6
Continuous
 62
     7
370
    25
100
AcDbCircle
 10
340.1378016712
 20
225.011317168
 30
0.0
 40
0.0987030902228578
100
AcDbArc
 50
258.590999655
 51
352.0584881134
  0
LINE
  5
1CA
330
1F
100
AcDbEntity
  8
0
  6
Continuous
 62
     7
370
    25
100
AcDbLine
 10
339.8355584685
 20
224.9683069676
 30
0.0
 11
340.1136666629
 21
224.9131220073
 31
0.0
  0
ARC
  5
1CB
330
1F
100
AcDbEntity
  8
0
  6
Continuous
 62
     7
370
    25
100
AcDbCircle
 10
340.1343539494
 20
227.0766396633
 30
0.0
 40
0.1016652077342232
100
AcDbArc
 50
5.4583840905
 51
98.0392051972
  0
LINE
  5
1CC
330
1F
100
AcDbEntity
  8
0
  6
Continuous
 62
     7
370
    25
100
AcDbLine
 10
340.1180524472
 20
227.1775739879
 30
0.0
 11
339.8355584685
 21
227.1380471677
 31
0.0
  0
ARC
  5
1CD
330
1F
100
AcDbEntity
  8
0
  6
Continuous
 62
     7
370
    25
100
AcDbCircle
 10
340.1292527229
 20
223.355404047
 30
0.0
 40
0.1063562120127149
100
AcDbArc
 50
268.2504350357
 51
358.2295177612
  0
LINE
  5
1CE
330
1F
100
AcDbEntity
  8
0
  6
Continuous
 62
     7
370
    25
100
AcDbLine
 10
339.8355584685
 20
223.258839795
 30
0.0
 11
340.1262633596
 21
223.2490646333
 31
0.0
  0
ARC
  5
1CF
330
1F
100
AcDbEntity
  8
0
  6
Continuous
 62
     7
370
    25
100
AcDbCircle
 10
340.1289662312
 20
228.3934828732
 30
0.0
 40
0.1065969086210543
100
AcDbArc
 50
0.5537439782
 51
90.4898719777
  0
LINE
  5
1D0
330
1F
100
AcDbEntity
  8
0
  6
Continuous
 62
     7
370
    25
100
AcDbLine
 10
340.1280839089
 20
228.5000758857
 30
0.0
 11
339.8355584685
 21
228.4970569104
 31
0.0
  0
LINE
  5
1D1
330
1F
100
AcDbEntity
  8
0
  6
Continuous
 62
     7
370
    25
100
AcDbLine
 10
337.0155583229
 20
102.4040388555
 30
0.0
 11
331.7155584786
 21
102.4040388555
 31
0.0
  0
LINE
  5
1D2
330
1F
100
AcDbEntity
  8
0
  6
Continuous
 62
     7
370
    25
100
AcDbLine
 10
337.2155582625
 20
103.0040430516
 30
0.0
 11
331.5155584458
 21
103.0040430516
 31
0.0
  0
LINE
  5
1D3
330
1F
100
AcDbEntity
  8
0
  6
Continuous
 62
     7
370
    25
100
AcDbLine
 10
278.3155571763
 20
103.0040430516
 30
0.0
 11
272.6155590359
 21
103.0040430516
 31
0.0
  0
LINE
  5
1D4
330
1F
100
AcDbEntity
  8
0
  6
Continuous
 62
     7
370
    25
100
AcDbLine
 10
278.1155597512
 20
102.4040388555
 30
0.0
 11
272.815556461
 21
102.4040388555
 31
0.0
  0
LINE
  5
1D5
330
1F
100
AcDbEntity
  8
0
  6
Continuous
 62
     7
370
    25
100
AcDbLine
 10
337.865558276
 20
119.2040430993
 30
0.0
 11
337.865558276
 21
119.4040405244
 31
0.0
  0
LINE
  5
1D6
330
1F
100
AcDbEntity
  8
0
  6
Continuous
 62
     7
370
    25
100
AcDbLine
 10
330.8655582462
 20
119.2040430993
 30
0.0
 11
330.8655582462
 21
119.4040405244
 31
0.0
  0
LINE
  5
1D7
330
1F
100
AcDbEntity
  8
0
  6
Continuous
 62
     7
370
    25
100
AcDbLine
 10
330.8655582462
 20
119.2040430993
 30
0.0
 11
337.865558276
 21
119.2040430993
 31
0.0
  0
LINE
  5
1D8
330
1F
100
AcDbEntity
  8
0
  6
Continuous
 62
     7
370
    25
100
AcDbLine
 10
330.8655582462
 20
119.4040405244
 30
0.0
 11
337.865558276
 21
119.4040405244
 31
0.0
  0
LINE
  5
1D9
330
1F
100
AcDbEntity
  8
0
  6
Continuous
 62
     7
370
    25
100
AcDbLine
 10
337.4615233485
 20
105.60403938
 30
0.0
 11
331.2695931736
 21
105.60403938
 31
0.0
  0
LINE
  5
1DA
330
1F
100
AcDbEntity
  8
0
  6
Continuous
 62
     7
370
    25
100
AcDbLine
 10
278.9655577485
 20
119.2040430993
 30
0.0
 11
278.9655577485
 21
119.4040405244
 31
0.0
  0
LINE
  5
1DB
330
1F
100
AcDbEntity
  8
0
  6
Continuous
 62
     7
370
    25
100
AcDbLine
 10
271.9655584637
 20
119.2040430993
 30
0.0
 11
278.9655577485
 21
119.2040430993
 31
0.0
  0
LINE
  5
1DC
330
1F
100
AcDbEntity
  8
0
  6
Continuous
 62
     7
370
    25
100
AcDbLine
 10
271.9655584637
 20
119.4040405244
 30
0.0
 11
278.9655577485
 21
119.4040405244
 31
0.0
  0
LINE
  5
1DD
330
1F
100
AcDbEntity
  8
0
  6
Continuous
 62
     7
370
    25
100
AcDbLine
 10
271.9655584637
 20
119.2040430993
 30
0.0
 11
271.9655584637
 21
119.4040405244
 31
0.0
  0
LINE
  5
1DE
330
1F
100
AcDbEntity
  8
0
  6
Continuous
 62
     7
370
    25
100
AcDbLine
 10
278.5615217034
 20
105.60403938
 30
0.0
 11
272.3695945088
 21
105.60403938
 31
0.0
  0
LINE
  5
1DF
330
1F
100
AcDbEntity
  8
0
  6
Continuous
 62
     7
370
    25
100
AcDbLine
 10
276.6655575577
 20
192.8590413794
 30
0.0
 11
276.6655575577
 21
200.1988942415
 31
0.0
  0
LINE
  5
1E0
330
1F
100
AcDbEntity
  8
0
  6
Continuous
 62
     7
370
    25
100
AcDbLine
 10
276.5455555264
 20
192.8590413794
 30
0.0
 11
276.5455555264
 21
201.73404167
 31
0.0
  0
ARC
  5
1E1
330
1F
100
AcDbEntity
  8
0
  6
Continuous
 62
     7
370
    25
100
AcDbCircle
 10
276.7905582931
 20
192.8590413202
 30
0.0
 40
0.125
100
AcDbArc
 50
180.0
 51
270.0
  0
ARC
  5
1E2
330
1F
100
AcDbEntity
  8
0
  6
Continuous
 62
     7
370
    25
100
AcDbCircle
 10
276.7905582931
 20
192.8590413202
 30
0.0
 40
0.2450000000000614
100
AcDbArc
 50
180.0
 51
270.0
  0
LINE
  5
1E3
330
1F
100
AcDbEntity
  8
0
  6
Continuous
 62
     7
370
    25
100
AcDbLine
 10
276.5455555264
 20
202.2340411932
 30
0.0
 11
276.5855562035
 21
202.2340411932
 31
0.0
  0
LINE
  5
1E4
330
1F
100
AcDbEntity
  8
0
  6
Continuous
 62
     7
370
    25
100
AcDbLine
 10
276.5455555264
 20
201.73404167
 30
0.0
 11
276.5455555264
 21
202.2340411932
 31
0.0
  0
LINE
  5
1E5
330
1F
100
AcDbEntity
  8
0
  6
Continuous
 62
     7
370
    25
100
AcDbLine
 10
276.7905604187
 20
192.7340413124
 30
0.0
 11
277.8692256752
 21
192.7340413124
 31
0.0
  0
LINE
  5
1E6
330
1F
100
AcDbEntity
  8
0
  6
Continuous
 62
     7
370
    25
100
AcDbLine
 10
280.6655597035
 20
192.61404133
 30
0.0
 11
280.6655597035
 21
192.6640413381
 31
0.0
  0
ARC
  5
1E7
330
1F
100
AcDbEntity
  8
0
  6
Continuous
 62
     7
370
    25
100
AcDbCircle
 10
336.3655582931
 20
188.6340413202
 30
0.0
 40
0.1000000000000227
100
AcDbArc
 50
270.0
 51
353.1823237484
  0
LINE
  5
1E8
330
1F
100
AcDbEntity
  8
0
  6
Continuous
 62
     7
370
    25
100
AcDbLine
 10
336.4648511959
 20
192.4090413057
 30
0.0
 11
336.4648511959
 21
188.6221703753
 31
0.0
  0
LINE
  5
1E9
330
1F
100
AcDbEntity
  8
0
  6
Continuous
 62
     7
370
    25
100
AcDbLine
 10
273.3662676159
 20
192.4090413057
 30
0.0
 11
273.3662676159
 21
188.6221703753
 31
0.0
  0
ARC
  5
1EA
330
1F
100
AcDbEntity
  8
0
  6
Continuous
 62
     7
370
    25
100
AcDbCircle
 10
273.4655582931
 20
188.6340413202
 30
0.0
 40
0.1000000000000227
100
AcDbArc
 50
186.8176762516
 51
270.0
  0
LINE
  5
1EB
330
1F
100
AcDbEntity
  8
0
  6
Continuous
 62
     7
370
    25
100
AcDbLine
 10
273.4655570332
 20
188.534041369
 30
0.0
 11
336.3655582862
 21
188.534041369
 31
0.0
  0
LWPOLYLINE
  5
1EC
330
1F
100
AcDbEntity
  8
0
  6
Continuous
 62
     7
370
    25
100
AcDbPolyline
 90
        6
 70
   128
 43
0.0
 10
336.3405582937
 20
192.61404133
 10
336.3691760553
 20
192.6007794828
 10
336.3978042593
 20
192.5626917422
 10
336.4264325332
 20
192.5047095545
 10
336.4550608303
 20
192.4343405903
 10
336.4648511959
 20
192.4090413057
  0
LINE
  5
1ED
330
1F
100
AcDbEntity
  8
0
  6
Continuous
 62
     7
370
    25
100
AcDbLine
 10
273.4905611817
 20
192.61404133
 30
0.0
 11
336.3405582937
 21
192.61404133
 31
0.0
  0
LWPOLYLINE
  5
1EE
330
1F
100
AcDbEntity
  8
0
  6
Continuous
 62
     7
370
    25
100
AcDbPolyline
 90
        6
 70
   128
 43
0.0
 10
273.3662676159
 20
192.4090413057
 10
273.3948838059
 20
192.4815774575
 10
273.4235119168
 20
192.5447488815
 10
273.4521400277
 20
192.5903493218
 10
273.4807681385
 20
192.6124741935
 10
273.4905611817
 20
192.61404133
  0
ARC
  5
1EF
330
1F
100
AcDbEntity
  8
0
  6
Continuous
 62
     7
370
    25
100
AcDbCircle
 10
273.4905610209
 20
192.4090372754
 30
0.0
 40
0.2050040545080903
100
AcDbArc
 50
89.9999550665
 51
179.9988736099
  0
ARC
  5
1F0
330
1F
100
AcDbEntity
  8
0
  6
Continuous
 62
     7
370
    25
100
AcDbCircle
 10
273.4900971917
 20
192.4091463656
 30
0.0
 40
0.1245389153205168
100
AcDbArc
 50
135.0805305575
 51
180.0483342286
  0
LINE
  5
1F1
330
1F
100
AcDbEntity
  8
0
  6
Continuous
 62
     7
370
    25
100
AcDbLine
 10
273.2855569664
 20
192.4090413057
 30
0.0
 11
273.3655583207
 21
192.4090413057
 31
0.0
  0
LINE
  5
1F2
330
1F
100
AcDbEntity
  8
0
  6
Continuous
 62
     7
370
    25
100
AcDbLine
 10
336.5455582831
 20
192.4090413057
 30
0.0
 11
336.4655583026
 21
192.4090413057
 31
0.0
  0
LWPOLYLINE
  5
1F3
330
1F
100
AcDbEntity
  8
0
  6
Continuous
 62
     7
370
    25
100
AcDbPolyline
 90
        3
 70
   128
 43
0.0
 10
336.4655583026
 20
192.4090413057
 10
336.4557144092
 20
192.4576630496
 10
336.4306472102
 20
192.4943498016
  0
ARC
  5
1F4
330
1F
100
AcDbEntity
  8
0
  6
Continuous
 62
     7
370
    25
100
AcDbCircle
 10
336.3405581664
 20
192.4090412132
 30
0.0
 40
0.2050001167285243
100
AcDbArc
 50
0.0000258361
 51
89.9999644028
  0
LINE
  5
1F5
330
1F
100
AcDbEntity
  8
0
  6
Continuous
 62
     7
370
    25
100
AcDbLine
 10
273.3655583207
 20
192.4090413057
 30
0.0
 11
273.3655583207
 21
188.6221703753
 31
0.0
  0
LINE
  5
1F6
330
1F
100
AcDbEntity
  8
0
  6
Continuous
 62
     7
370
    25
100
AcDbLine
 10
273.2855569664
 20
188.6221703753
 30
0.0
 11
273.3655583207
 21
188.6221703753
 31
0.0
  0
LINE
  5
1F7
330
1F
100
AcDbEntity
  8
0
  6
Continuous
 62
     7
370
    25
100
AcDbLine
 10
273.2855569664
 20
192.4090413057
 30
0.0
 11
273.2855569664
 21
188.6221703753
 31
0.0
  0
LINE
  5
1F8
330
1F
100
AcDbEntity
  8
0
  6
Continuous
 62
     7
370
    25
100
AcDbLine
 10
273.3655583207
 20
188.534041369
 30
0.0
 11
273.3655583207
 21
188.6221703753
 31
0.0
  0
LINE
  5
1F9
330
1F
100
AcDbEntity
  8
0
  6
Continuous
 62
     7
370
    25
100
AcDbLine
 10
273.2855569664
 20
188.534041369
 30
0.0
 11
273.3655583207
 21
188.534041369
 31
0.0
  0
LINE
  5
1FA
330
1F
100
AcDbEntity
  8
0
  6
Continuous
 62
     7
370
    25
100
AcDbLine
 10
273.2855569664
 20
188.534041369
 30
0.0
 11
273.2855569664
 21
188.6221703753
 31
0.0
  0
LINE
  5
1FB
330
1F
100
AcDbEntity
  8
0
  6
Continuous
 62
     7
370
    25
100
AcDbLine
 10
336.4655583026
 20
192.4090413057
 30
0.0
 11
336.4655583026
 21
188.6221703753
 31
0.0
  0
LINE
  5
1FC
330
1F
100
AcDbEntity
  8
0
  6
Continuous
 62
     7
370
    25
100
AcDbLine
 10
336.5455582831
 20
192.4090413057
 30
0.0
 11
336.5455582831
 21
188.6221703753
 31
0.0
  0
LINE
  5
1FD
330
1F
100
AcDbEntity
  8
0
  6
Continuous
 62
     7
370
    25
100
AcDbLine
 10
336.5455582831
 20
188.6221703753
 30
0.0
 11
336.4655583026
 21
188.6221703753
 31
0.0
  0
LINE
  5
1FE
330
1F
100
AcDbEntity
  8
0
  6
Continuous
 62
     7
370
    25
100
AcDbLine
 10
336.5455582831
 20
188.534041369
 30
0.0
 11
336.4655583026
 21
188.534041369
 31
0.0
  0
LINE
  5
1FF
330
1F
100
AcDbEntity
  8
0
  6
Continuous
 62
     7
370
    25
100
AcDbLine
 10
336.5455582831
 20
188.6221703753
 30
0.0
 11
336.5455582831
 21
188.534041369
 31
0.0
  0
LINE
  5
200
330
1F
100
AcDbEntity
  8
0
  6
Continuous
 62
     7
370
    25
100
AcDbLine
 10
336.4655583026
 20
188.6221703753
 30
0.0
 11
336.4655583026
 21
188.534041369
 31
0.0
  0
LINE
  5
201
330
1F
100
AcDbEntity
  8
0
  6
Continuous
 62
     7
370
    25
100
AcDbLine
 10
278.9655577485
 20
188.1540412695
 30
0.0
 11
277.465559179
 21
188.1540412695
 31
0.0
  0
LINE
  5
202
330
1F
100
AcDbEntity
  8
0
  6
Continuous
 62
     7
370
    25
100
AcDbLine
 10
278.9655577485
 20
123.6540424317
 30
0.0
 11
278.9655577485
 21
188.1540412695
 31
0.0
  0
LINE
  5
203
330
1F
100
AcDbEntity
  8
0
  6
Continuous
 62
     7
370
    25
100
AcDbLine
 10
277.465559179
 20
123.6540424317
 30
0.0
 11
278.9655577485
 21
123.6540424317
 31
0.0
  0
LINE
  5
204
330
1F
100
AcDbEntity
  8
0
  6
Continuous
 62
     7
370
    25
100
AcDbLine
 10
336.4855582919
 20
123.6540424317
 30
0.0
 11
336.3655582862
 21
123.6540424317
 31
0.0
  0
LINE
  5
205
330
1F
100
AcDbEntity
  8
0
  6
Continuous
 62
     7
370
    25
100
AcDbLine
 10
336.3655582862
 20
188.1540412695
 30
0.0
 11
336.4855582919
 21
188.1540412695
 31
0.0
  0
LINE
  5
206
330
1F
100
AcDbEntity
  8
0
  6
Continuous
 62
     7
370
    25
100
AcDbLine
 10
336.4855582919
 20
188.1540412695
 30
0.0
 11
336.4855582919
 21
123.6540424317
 31
0.0
  0
LINE
  5
207
330
1F
100
AcDbEntity
  8
0
  6
Continuous
 62
     7
370
    25
100
AcDbLine
 10
280.0555598084
 20
183.6540410906
 30
0.0
 11
280.2055608574
 21
183.6540410906
 31
0.0
  0
LINE
  5
208
330
1F
100
AcDbEntity
  8
0
  6
Continuous
 62
     7
370
    25
100
AcDbLine
 10
280.0555598084
 20
182.8540409595
 30
0.0
 11
280.0555598084
 21
183.6540410906
 31
0.0
  0
ARC
  5
209
330
1F
100
AcDbEntity
  8
0
  6
Continuous
 62
     7
370
    25
100
AcDbCircle
 10
280.7055582931
 20
182.8540413202
 30
0.0
 40
0.6500000000000341
100
AcDbArc
 50
180.0
 51
270.0
  0
LINE
  5
20A
330
1F
100
AcDbEntity
  8
0
  6
Continuous
 62
     7
370
    25
100
AcDbLine
 10
332.3655583058
 20
182.2040411324
 30
0.0
 11
280.7055603806
 21
182.2040411324
 31
0.0
  0
LINE
  5
20B
330
1F
100
AcDbEntity
  8
0
  6
Continuous
 62
     7
370
    25
100
AcDbLine
 10
280.2055608574
 20
183.7790409714
 30
0.0
 11
280.2055608574
 21
183.6540410906
 31
0.0
  0
LINE
  5
20C
330
1F
100
AcDbEntity
  8
0
  6
Continuous
 62
     7
370
    25
100
AcDbLine
 10
280.0555598084
 20
143.6540412397
 30
0.0
 11
280.2055608574
 21
143.6540412397
 31
0.0
  0
LINE
  5
20D
330
1F
100
AcDbEntity
  8
0
  6
Continuous
 62
     7
370
    25
100
AcDbLine
 10
280.0555598084
 20
142.8540425986
 30
0.0
 11
280.0555598084
 21
143.6540412397
 31
0.0
  0
ARC
  5
20E
330
1F
100
AcDbEntity
  8
0
  6
Continuous
 62
     7
370
    25
100
AcDbCircle
 10
280.7055582931
 20
142.8540413202
 30
0.0
 40
0.6500000000000057
100
AcDbArc
 50
180.0
 51
270.0
  0
LINE
  5
20F
330
1F
100
AcDbEntity
  8
0
  6
Continuous
 62
     7
370
    25
100
AcDbLine
 10
332.3655583058
 20
142.2040420264
 30
0.0
 11
280.7055603806
 21
142.2040420264
 31
0.0
  0
LINE
  5
210
330
1F
100
AcDbEntity
  8
0
  6
Continuous
 62
     7
370
    25
100
AcDbLine
 10
280.2055608574
 20
143.7790411204
 30
0.0
 11
280.2055608574
 21
143.6540412397
 31
0.0
  0
LINE
  5
211
330
1F
100
AcDbEntity
  8
0
  6
Continuous
 62
     7
370
    25
100
AcDbLine
 10
280.0555598084
 20
163.6540400476
 30
0.0
 11
280.2055608574
 21
163.6540400476
 31
0.0
  0
LINE
  5
212
330
1F
100
AcDbEntity
  8
0
  6
Continuous
 62
     7
370
    25
100
AcDbLine
 10
280.0555598084
 20
162.8540414065
 30
0.0
 11
280.0555598084
 21
163.6540400476
 31
0.0
  0
ARC
  5
213
330
1F
100
AcDbEntity
  8
0
  6
Continuous
 62
     7
370
    25
100
AcDbCircle
 10
280.7055582931
 20
162.8540413202
 30
0.0
 40
0.6500000000000057
100
AcDbArc
 50
180.0
 51
270.0
  0
LINE
  5
214
330
1F
100
AcDbEntity
  8
0
  6
Continuous
 62
     7
370
    25
100
AcDbLine
 10
332.3655583058
 20
162.2040408343
 30
0.0
 11
280.7055603806
 21
162.2040408343
 31
0.0
  0
LINE
  5
215
330
1F
100
AcDbEntity
  8
0
  6
Continuous
 62
     7
370
    25
100
AcDbLine
 10
280.2055608574
 20
163.7790399283
 30
0.0
 11
280.2055608574
 21
163.6540400476
 31
0.0
  0
LINE
  5
216
330
1F
100
AcDbEntity
  8
0
  6
Continuous
 62
     7
370
    25
100
AcDbLine
 10
280.0555598084
 20
173.6540409416
 30
0.0
 11
280.2055608574
 21
173.6540409416
 31
0.0
  0
LINE
  5
217
330
1F
100
AcDbEntity
  8
0
  6
Continuous
 62
     7
370
    25
100
AcDbLine
 10
280.0555598084
 20
172.8540408105
 30
0.0
 11
280.0555598084
 21
173.6540409416
 31
0.0
  0
ARC
  5
218
330
1F
100
AcDbEntity
  8
0
  6
Continuous
 62
     7
370
    25
100
AcDbCircle
 10
280.7055582931
 20
172.8540413202
 30
0.0
 40
0.6500000000000057
100
AcDbArc
 50
180.0
 51
270.0
  0
LINE
  5
219
330
1F
100
AcDbEntity
  8
0
  6
Continuous
 62
     7
370
    25
100
AcDbLine
 10
332.3655583058
 20
172.2040417284
 30
0.0
 11
280.7055603806
 21
172.2040417284
 31
0.0
  0
LINE
  5
21A
330
1F
100
AcDbEntity
  8
0
  6
Continuous
 62
     7
370
    25
100
AcDbLine
 10
280.2055608574
 20
173.7790408224
 30
0.0
 11
280.2055608574
 21
173.6540409416
 31
0.0
  0
LINE
  5
21B
330
1F
100
AcDbEntity
  8
0
  6
Continuous
 62
     7
370
    25
100
AcDbLine
 10
280.0555598084
 20
153.6540406436
 30
0.0
 11
280.2055608574
 21
153.6540406436
 31
0.0
  0
LINE
  5
21C
330
1F
100
AcDbEntity
  8
0
  6
Continuous
 62
     7
370
    25
100
AcDbLine
 10
280.0555598084
 20
152.8540420026
 30
0.0
 11
280.0555598084
 21
153.6540406436
 31
0.0
  0
ARC
  5
21D
330
1F
100
AcDbEntity
  8
0
  6
Continuous
 62
     7
370
    25
100
AcDbCircle
 10
280.7055582931
 20
152.8540413202
 30
0.0
 40
0.6500000000000057
100
AcDbArc
 50
180.0
 51
270.0
  0
LINE
  5
21E
330
1F
100
AcDbEntity
  8
0
  6
Continuous
 62
     7
370
    25
100
AcDbLine
 10
332.3655583058
 20
152.2040414304
 30
0.0
 11
280.7055603806
 21
152.2040414304
 31
0.0
  0
LINE
  5
21F
330
1F
100
AcDbEntity
  8
0
  6
Continuous
 62
     7
370
    25
100
AcDbLine
 10
280.2055608574
 20
153.7790405244
 30
0.0
 11
280.2055608574
 21
153.6540406436
 31
0.0
  0
LINE
  5
220
330
1F
100
AcDbEntity
  8
0
  6
Continuous
 62
     7
370
    25
100
AcDbLine
 10
280.0555598084
 20
133.6540388555
 30
0.0
 11
280.2055608574
 21
133.6540388555
 31
0.0
  0
LINE
  5
221
330
1F
100
AcDbEntity
  8
0
  6
Continuous
 62
     7
370
    25
100
AcDbLine
 10
280.0555598084
 20
132.8540431947
 30
0.0
 11
280.0555598084
 21
133.6540388555
 31
0.0
  0
ARC
  5
222
330
1F
100
AcDbEntity
  8
0
  6
Continuous
 62
     7
370
    25
100
AcDbCircle
 10
280.7055582931
 20
132.8540413202
 30
0.0
 40
0.6500000000000057
100
AcDbArc
 50
180.0
 51
270.0
  0
LINE
  5
223
330
1F
100
AcDbEntity
  8
0
  6
Continuous
 62
     7
370
    25
100
AcDbLine
 10
332.3655583058
 20
132.2040426225
 30
0.0
 11
280.7055603806
 21
132.2040426225
 31
0.0
  0
LINE
  5
224
330
1F
100
AcDbEntity
  8
0
  6
Continuous
 62
     7
370
    25
100
AcDbLine
 10
280.2055608574
 20
133.7790417165
 30
0.0
 11
280.2055608574
 21
133.6540388555
 31
0.0
  0
LINE
  5
225
330
1F
100
AcDbEntity
  8
0
  6
Continuous
 62
     7
370
    25
100
AcDbLine
 10
332.3655583058
 20
188.2740412519
 30
0.0
 11
277.465559179
 21
188.2740412519
 31
0.0
  0
LINE
  5
226
330
1F
100
AcDbEntity
  8
0
  6
Continuous
 62
     7
370
    25
100
AcDbLine
 10
280.2055608574
 20
183.5340412945
 30
0.0
 11
332.3655583058
 21
183.5340412945
 31
0.0
  0
LINE
  5
227
330
1F
100
AcDbEntity
  8
0
  6
Continuous
 62
     7
370
    25
100
AcDbLine
 10
280.2055608574
 20
183.5340412945
 30
0.0
 11
280.2055608574
 21
183.6540410906
 31
0.0
  0
LINE
  5
228
330
1F
100
AcDbEntity
  8
0
  6
Continuous
 62
     7
370
    25
100
AcDbLine
 10
280.2055608574
 20
173.5340418905
 30
0.0
 11
332.3655583058
 21
173.5340418905
 31
0.0
  0
LINE
  5
229
330
1F
100
AcDbEntity
  8
0
  6
Continuous
 62
     7
370
    25
100
AcDbLine
 10
280.2055608574
 20
173.5340418905
 30
0.0
 11
280.2055608574
 21
173.6540409416
 31
0.0
  0
LINE
  5
22A
330
1F
100
AcDbEntity
  8
0
  6
Continuous
 62
     7
370
    25
100
AcDbLine
 10
280.2055608574
 20
163.5340409965
 30
0.0
 11
332.3655583058
 21
163.5340409965
 31
0.0
  0
LINE
  5
22B
330
1F
100
AcDbEntity
  8
0
  6
Continuous
 62
     7
370
    25
100
AcDbLine
 10
280.2055608574
 20
163.5340409965
 30
0.0
 11
280.2055608574
 21
163.6540400476
 31
0.0
  0
LINE
  5
22C
330
1F
100
AcDbEntity
  8
0
  6
Continuous
 62
     7
370
    25
100
AcDbLine
 10
280.2055608574
 20
153.5340415925
 30
0.0
 11
332.3655583058
 21
153.5340415925
 31
0.0
  0
LINE
  5
22D
330
1F
100
AcDbEntity
  8
0
  6
Continuous
 62
     7
370
    25
100
AcDbLine
 10
280.2055608574
 20
153.5340415925
 30
0.0
 11
280.2055608574
 21
153.6540406436
 31
0.0
  0
LINE
  5
22E
330
1F
100
AcDbEntity
  8
0
  6
Continuous
 62
     7
370
    25
100
AcDbLine
 10
280.2055608574
 20
143.5340421886
 30
0.0
 11
332.3655583058
 21
143.5340421886
 31
0.0
  0
LINE
  5
22F
330
1F
100
AcDbEntity
  8
0
  6
Continuous
 62
     7
370
    25
100
AcDbLine
 10
280.2055608574
 20
143.5340421886
 30
0.0
 11
280.2055608574
 21
143.6540412397
 31
0.0
  0
LINE
  5
230
330
1F
100
AcDbEntity
  8
0
  6
Continuous
 62
     7
370
    25
100
AcDbLine
 10
280.2055608574
 20
133.5340427846
 30
0.0
 11
332.3655583058
 21
133.5340427846
 31
0.0
  0
LINE
  5
231
330
1F
100
AcDbEntity
  8
0
  6
Continuous
 62
     7
370
    25
100
AcDbLine
 10
280.2055608574
 20
133.5340427846
 30
0.0
 11
280.2055608574
 21
133.6540388555
 31
0.0
  0
LINE
  5
232
330
1F
100
AcDbEntity
  8
0
  6
Continuous
 62
     7
370
    25
100
AcDbLine
 10
281.4655553643
 20
188.3990413189
 30
0.0
 11
281.4655553643
 21
188.2740412519
 31
0.0
  0
LINE
  5
233
330
1F
100
AcDbEntity
  8
0
  6
Continuous
 62
     7
370
    25
100
AcDbLine
 10
331.8655584101
 20
188.2740412519
 30
0.0
 11
331.8655584101
 21
188.3990413189
 31
0.0
  0
LINE
  5
234
330
1F
100
AcDbEntity
  8
0
  6
Continuous
 62
     7
370
    25
100
AcDbLine
 10
331.8655584101
 20
188.534041369
 30
0.0
 11
331.8655584101
 21
188.3990413189
 31
0.0
  0
LINE
  5
235
330
1F
100
AcDbEntity
  8
0
  6
Continuous
 62
     7
370
    25
100
AcDbLine
 10
281.4655553643
 20
188.3990413189
 30
0.0
 11
281.4655553643
 21
188.534041369
 31
0.0
  0
LINE
  5
236
330
1F
100
AcDbEntity
  8
0
  6
Continuous
 62
     7
370
    25
100
AcDbLine
 10
270.6652652565
 20
119.7290408105
 30
0.0
 11
270.6655573193
 21
119.7290408105
 31
0.0
  0
LINE
  5
237
330
1F
100
AcDbEntity
  8
0
  6
Continuous
 62
     7
370
    25
100
AcDbLine
 10
270.6652652565
 20
119.8540436715
 30
0.0
 11
270.6652652565
 21
119.7290408105
 31
0.0
  0
LINE
  5
238
330
1F
100
AcDbEntity
  8
0
  6
Continuous
 62
     7
370
    25
100
AcDbLine
 10
339.1658511106
 20
119.8540436715
 30
0.0
 11
339.1658511106
 21
119.7290408105
 31
0.0
  0
LINE
  5
239
330
1F
100
AcDbEntity
  8
0
  6
Continuous
 62
     7
370
    25
100
AcDbLine
 10
339.1658511106
 20
119.7290408105
 30
0.0
 11
339.1655583028
 21
119.7290408105
 31
0.0
  0
LINE
  5
23A
330
1F
100
AcDbEntity
  8
0
  6
Continuous
 62
     7
370
    25
100
AcDbLine
 10
339.1655583028
 20
119.7290408105
 30
0.0
 11
339.1655583028
 21
119.4540428609
 31
0.0
  0
LINE
  5
23B
330
1F
100
AcDbEntity
  8
0
  6
Continuous
 62
     7
370
    25
100
AcDbLine
 10
270.6655573193
 20
119.4540428609
 30
0.0
 11
339.1655583028
 21
119.4540428609
 31
0.0
  0
LINE
  5
23C
330
1F
100
AcDbEntity
  8
0
  6
Continuous
 62
     7
370
    25
100
AcDbLine
 10
270.6655573193
 20
119.4540428609
 30
0.0
 11
270.6655573193
 21
119.7290408105
 31
0.0
  0
LINE
  5
23D
330
1F
100
AcDbEntity
  8
0
  6
Continuous
 62
     7
370
    25
100
AcDbLine
 10
270.5145608727
 20
119.6040439099
 30
0.0
 11
270.6645559613
 21
119.6040439099
 31
0.0
  0
LINE
  5
23E
330
1F
100
AcDbEntity
  8
0
  6
Continuous
 62
     7
370
    25
100
AcDbLine
 10
270.5145608727
 20
119.8540436715
 30
0.0
 11
270.5145608727
 21
119.6040439099
 31
0.0
  0
LINE
  5
23F
330
1F
100
AcDbEntity
  8
0
  6
Continuous
 62
     7
370
    25
100
AcDbLine
 10
270.6645559613
 20
119.8540436715
 30
0.0
 11
270.6645559613
 21
119.6040439099
 31
0.0
  0
LINE
  5
240
330
1F
100
AcDbEntity
  8
0
  6
Continuous
 62
     7
370
    25
100
AcDbLine
 10
339.3165584747
 20
119.8540436715
 30
0.0
 11
339.3165584747
 21
119.6040439099
 31
0.0
  0
LINE
  5
241
330
1F
100
AcDbEntity
  8
0
  6
Continuous
 62
     7
370
    25
100
AcDbLine
 10
339.3165584747
 20
119.6040439099
 30
0.0
 11
339.166558357
 21
119.6040439099
 31
0.0
  0
LINE
  5
242
330
1F
100
AcDbEntity
  8
0
  6
Continuous
 62
     7
370
    25
100
AcDbLine
 10
339.166558357
 20
119.8540436715
 30
0.0
 11
339.166558357
 21
119.6040439099
 31
0.0
  0
ARC
  5
243
330
1F
100
AcDbEntity
  8
0
  6
Continuous
 62
     7
370
    25
100
AcDbCircle
 10
270.7895582931
 20
119.7290413202
 30
0.0
 40
0.2749999999999641
100
AcDbArc
 50
207.0356917894
 51
243.1979747487
  0
LINE
  5
244
330
1F
100
AcDbEntity
  8
0
  6
Continuous
 62
     7
370
    25
100
AcDbLine
 10
270.6645559613
 20
119.7290408105
 30
0.0
 11
270.6655573193
 21
119.713263461
 31
0.0
  0
ARC
  5
245
330
1F
100
AcDbEntity
  8
0
  6
Continuous
 62
     7
370
    25
100
AcDbCircle
 10
339.0415582931
 20
119.7290413202
 30
0.0
 40
0.2750000000000127
100
AcDbArc
 50
296.8020252512
 51
332.9643082106
  0
LINE
  5
246
330
1F
100
AcDbEntity
  8
0
  6
Continuous
 62
     7
370
    25
100
AcDbLine
 10
339.1655583028
 20
119.713263461
 30
0.0
 11
339.166558357
 21
119.7290408105
 31
0.0
  0
ARC
  5
247
330
1F
100
AcDbEntity
  8
0
  6
Continuous
 62
     7
370
    25
100
AcDbCircle
 10
340.2655582931
 20
119.9540413202
 30
0.0
 40
0.1000000000000152
100
AcDbArc
 50
270.0
 51
353.1823237484
  0
ARC
  5
248
330
1F
100
AcDbEntity
  8
0
  6
Continuous
 62
     7
370
    25
100
AcDbCircle
 10
269.5655582931
 20
119.9540413202
 30
0.0
 40
0.1000000000000716
100
AcDbArc
 50
186.8176762516
 51
270.0
  0
LINE
  5
249
330
1F
100
AcDbEntity
  8
0
  6
Continuous
 62
     7
370
    25
100
AcDbLine
 10
269.4662641827
 20
123.3290421456
 30
0.0
 11
269.4662641827
 21
119.9421691388
 31
0.0
  0
LINE
  5
24A
330
1F
100
AcDbEntity
  8
0
  6
Continuous
 62
     7
370
    25
100
AcDbLine
 10
340.3648510668
 20
123.3290421456
 30
0.0
 11
340.3648510668
 21
119.9421691388
 31
0.0
  0
LINE
  5
24B
330
1F
100
AcDbEntity
  8
0
  6
Continuous
 62
     7
370
    25
100
AcDbLine
 10
269.5655595604
 20
119.8540436715
 30
0.0
 11
340.2655582968
 21
119.8540436715
 31
0.0
  0
LWPOLYLINE
  5
24C
330
1F
100
AcDbEntity
  8
0
  6
Continuous
 62
     7
370
    25
100
AcDbPolyline
 90
        6
 70
   128
 43
0.0
 10
340.2405582462
 20
123.5340404004
 10
340.2691759262
 20
123.520778367
 10
340.2978044096
 20
123.4826909989
 10
340.3264325205
 20
123.4247076005
 10
340.3550610039
 20
123.3543383569
 10
340.3648510668
 20
123.3290421456
  0
LWPOLYLINE
  5
24D
330
1F
100
AcDbEntity
  8
0
  6
Continuous
 62
     7
370
    25
100
AcDbPolyline
 90
        6
 70
   128
 43
0.0
 10
269.4662641827
 20
123.3290421456
 10
269.4948803727
 20
123.4015750379
 10
269.5235084835
 20
123.4647500009
 10
269.5521425549
 20
123.5103475541
 10
269.5807706658
 20
123.5324727983
 10
269.5905577485
 20
123.5340404004
  0
LINE
  5
24E
330
1F
100
AcDbEntity
  8
0
  6
Continuous
 62
     7
370
    25
100
AcDbLine
 10
269.5905577485
 20
123.5340404004
 30
0.0
 11
340.2405582462
 21
123.5340404004
 31
0.0
  0
ARC
  5
24F
330
1F
100
AcDbEntity
  8
0
  6
Continuous
 62
     7
370
    25
100
AcDbCircle
 10
269.5905637072
 20
123.3290361869
 30
0.0
 40
0.2050042136081333
100
AcDbArc
 50
90.0016653851
 51
179.9983346149
  0
ARC
  5
250
330
1F
100
AcDbEntity
  8
0
  6
Continuous
 62
     7
370
    25
100
AcDbCircle
 10
269.58980983
 20
123.3292654134
 30
0.0
 40
0.1242491827176407
100
AcDbArc
 50
135.0252237435
 51
180.1029568825
  0
LINE
  5
251
330
1F
100
AcDbEntity
  8
0
  6
Continuous
 62
     7
370
    25
100
AcDbLine
 10
269.3855594937
 20
123.3290421456
 30
0.0
 11
269.4655608479
 21
123.3290421456
 31
0.0
  0
LINE
  5
252
330
1F
100
AcDbEntity
  8
0
  6
Continuous
 62
     7
370
    25
100
AcDbLine
 10
340.4455583636
 20
123.3290421456
 30
0.0
 11
340.3655581269
 21
123.3290421456
 31
0.0
  0
LWPOLYLINE
  5
253
330
1F
100
AcDbEntity
  8
0
  6
Continuous
 62
     7
370
    25
100
AcDbPolyline
 90
        3
 70
   128
 43
0.0
 10
340.3655581269
 20
123.3290421456
 10
340.3557144199
 20
123.3776616544
 10
340.330647314
 20
123.4143483132
  0
ARC
  5
254
330
1F
100
AcDbEntity
  8
0
  6
Continuous
 62
     7
370
    25
100
AcDbCircle
 10
340.2405553916
 20
123.3290374284
 30
0.0
 40
0.2050029720712586
100
AcDbArc
 50
0.0013184197
 51
89.999202176
  0
LINE
  5
255
330
1F
100
AcDbEntity
  8
0
  6
Continuous
 62
     7
370
    25
100
AcDbLine
 10
269.3855594937
 20
119.9421691388
 30
0.0
 11
269.4655608479
 21
119.9421691388
 31
0.0
  0
LINE
  5
256
330
1F
100
AcDbEntity
  8
0
  6
Continuous
 62
     7
370
    25
100
AcDbLine
 10
269.3855594937
 20
123.3290421456
 30
0.0
 11
269.3855594937
 21
119.9421691388
 31
0.0
  0
LINE
  5
257
330
1F
100
AcDbEntity
  8
0
  6
Continuous
 62
     7
370
    25
100
AcDbLine
 10
269.4655608479
 20
123.3290421456
 30
0.0
 11
269.4655608479
 21
119.9421691388
 31
0.0
  0
LINE
  5
258
330
1F
100
AcDbEntity
  8
0
  6
Continuous
 62
     7
370
    25
100
AcDbLine
 10
269.3855594937
 20
119.8540436715
 30
0.0
 11
269.4655608479
 21
119.8540436715
 31
0.0
  0
LINE
  5
259
330
1F
100
AcDbEntity
  8
0
  6
Continuous
 62
     7
370
    25
100
AcDbLine
 10
269.3855594937
 20
119.8540436715
 30
0.0
 11
269.3855594937
 21
119.9421691388
 31
0.0
  0
LINE
  5
25A
330
1F
100
AcDbEntity
  8
0
  6
Continuous
 62
     7
370
    25
100
AcDbLine
 10
269.4655608479
 20
119.8540436715
 30
0.0
 11
269.4655608479
 21
119.9421691388
 31
0.0
  0
LINE
  5
25B
330
1F
100
AcDbEntity
  8
0
  6
Continuous
 62
     7
370
    25
100
AcDbLine
 10
340.4455583636
 20
123.3290421456
 30
0.0
 11
340.4455583636
 21
119.9421691388
 31
0.0
  0
LINE
  5
25C
330
1F
100
AcDbEntity
  8
0
  6
Continuous
 62
     7
370
    25
100
AcDbLine
 10
340.4455583636
 20
119.9421691388
 30
0.0
 11
340.3655581269
 21
119.9421691388
 31
0.0
  0
LINE
  5
25D
330
1F
100
AcDbEntity
  8
0
  6
Continuous
 62
     7
370
    25
100
AcDbLine
 10
340.3655581269
 20
123.3290421456
 30
0.0
 11
340.3655581269
 21
119.9421691388
 31
0.0
  0
LINE
  5
25E
330
1F
100
AcDbEntity
  8
0
  6
Continuous
 62
     7
370
    25
100
AcDbLine
 10
340.4455583636
 20
119.8540436715
 30
0.0
 11
340.3655581269
 21
119.8540436715
 31
0.0
  0
LINE
  5
25F
330
1F
100
AcDbEntity
  8
0
  6
Continuous
 62
     7
370
    25
100
AcDbLine
 10
340.4455583636
 20
119.9421691388
 30
0.0
 11
340.4455583636
 21
119.8540436715
 31
0.0
  0
LINE
  5
260
330
1F
100
AcDbEntity
  8
0
  6
Continuous
 62
     7
370
    25
100
AcDbLine
 10
340.3655581269
 20
119.9421691388
 30
0.0
 11
340.3655581269
 21
119.8540436715
 31
0.0
  0
LINE
  5
261
330
1F
100
AcDbEntity
  8
0
  6
Continuous
 62
     7
370
    25
100
AcDbLine
 10
273.4655570332
 20
188.534041369
 30
0.0
 11
273.4655570332
 21
123.5340404004
 31
0.0
  0
LINE
  5
262
330
1F
100
AcDbEntity
  8
0
  6
Continuous
 62
     7
370
    25
100
AcDbLine
 10
277.465559179
 20
188.534041369
 30
0.0
 11
277.465559179
 21
123.5340404004
 31
0.0
  0
LINE
  5
263
330
1F
100
AcDbEntity
  8
0
  6
Continuous
 62
     7
370
    25
100
AcDbLine
 10
332.3655583058
 20
188.534041369
 30
0.0
 11
332.3655583058
 21
123.5340404004
 31
0.0
  0
LINE
  5
264
330
1F
100
AcDbEntity
  8
0
  6
Continuous
 62
     7
370
    25
100
AcDbLine
 10
336.3655582862
 20
188.534041369
 30
0.0
 11
336.3655582862
 21
123.5340404004
 31
0.0
  0
LINE
  5
265
330
1F
100
AcDbEntity
  8
0
  6
Continuous
 62
     7
370
    25
100
AcDbLine
 10
333.4455583338
 20
254.6840416879
 30
0.0
 11
333.4455583338
 21
254.9340414495
 31
0.0
  0
LINE
  5
266
330
1F
100
AcDbEntity
  8
0
  6
Continuous
 62
     7
370
    25
100
AcDbLine
 10
333.9455582295
 20
254.6840416879
 30
0.0
 11
333.4455583338
 21
254.6840416879
 31
0.0
  0
LINE
  5
267
330
1F
100
AcDbEntity
  8
0
  6
Continuous
 62
     7
370
    25
100
AcDbLine
 10
333.4455583338
 20
254.9340414495
 30
0.0
 11
333.9455582295
 21
254.9340414495
 31
0.0
  0
LINE
  5
268
330
1F
100
AcDbEntity
  8
0
  6
Continuous
 62
     7
370
    25
100
AcDbLine
 10
333.9455582295
 20
254.6840416879
 30
0.0
 11
336.8955582939
 21
254.6840416879
 31
0.0
  0
LINE
  5
269
330
1F
100
AcDbEntity
  8
0
  6
Continuous
 62
     7
370
    25
100
AcDbLine
 10
333.9455582295
 20
254.9340414495
 30
0.0
 11
336.8955582939
 21
254.9340414495
 31
0.0
  0
LINE
  5
26A
330
1F
100
AcDbEntity
  8
0
  6
Continuous
 62
     7
370
    25
100
AcDbLine
 10
337.6955582853
 20
254.9340414495
 30
0.0
 11
337.6955582853
 21
254.6840416879
 31
0.0
  0
LINE
  5
26B
330
1F
100
AcDbEntity
  8
0
  6
Continuous
 62
     7
370
    25
100
AcDbLine
 10
336.8955582939
 20
254.6840416879
 30
0.0
 11
337.6955582853
 21
254.6840416879
 31
0.0
  0
LINE
  5
26C
330
1F
100
AcDbEntity
  8
0
  6
Continuous
 62
     7
370
    25
100
AcDbLine
 10
336.8955582939
 20
254.9340414495
 30
0.0
 11
337.6955582853
 21
254.9340414495
 31
0.0
  0
ARC
  5
26D
330
1F
100
AcDbEntity
  8
0
  6
Continuous
 62
     7
370
    25
100
AcDbCircle
 10
333.445573807
 20
254.3838657376
 30
0.0
 40
0.5501757120646458
100
AcDbArc
 50
90.0016113931
 51
100.4739386933
  0
ARC
  5
26E
330
1F
100
AcDbEntity
  8
0
  6
Continuous
 62
     7
370
    25
100
AcDbCircle
 10
333.4455847721
 20
254.3839351538
 30
0.0
 40
0.3001065352821505
100
AcDbArc
 50
90.0050475561
 51
109.4693866006
  0
LINE
  5
26F
330
1F
100
AcDbEntity
  8
0
  6
Continuous
 62
     7
370
    25
100
AcDbLine
 10
333.1455582846
 20
252.9482531041
 30
0.0
 11
333.1455582846
 21
254.3840395898
 31
0.0
  0
ARC
  5
270
330
1F
100
AcDbEntity
  8
0
  6
Continuous
 62
     7
370
    25
100
AcDbCircle
 10
333.4455582931
 20
254.3840413202
 30
0.0
 40
0.550000000000045
100
AcDbArc
 50
100.4756816964
 51
160.9887347397
  0
ARC
  5
271
330
1F
100
AcDbEntity
  8
0
  6
Continuous
 62
     7
370
    25
100
AcDbCircle
 10
333.4455582931
 20
254.3840413202
 30
0.0
 40
0.3000000000000015
100
AcDbArc
 50
109.4712206345
 51
180.0
  0
LINE
  5
272
330
1F
100
AcDbEntity
  8
0
  6
Continuous
 62
     7
370
    25
100
AcDbLine
 10
333.1455582846
 20
252.9482531041
 30
0.0
 11
333.1455582846
 21
252.2411453218
 31
0.0
  0
LINE
  5
273
330
1F
100
AcDbEntity
  8
0
  6
Continuous
 62
     7
370
    25
100
AcDbLine
 10
333.1455582846
 20
252.2411453218
 30
0.0
 11
333.1455582846
 21
251.3269352407
 31
0.0
  0
LINE
  5
274
330
1F
100
AcDbEntity
  8
0
  6
Continuous
 62
     7
370
    25
100
AcDbLine
 10
333.1455582846
 20
251.0340439767
 30
0.0
 11
332.9255584721
 21
251.0340439767
 31
0.0
  0
LINE
  5
275
330
1F
100
AcDbEntity
  8
0
  6
Continuous
 62
     7
370
    25
100
AcDbLine
 10
333.1455582846
 20
251.3269352407
 30
0.0
 11
333.1455582846
 21
251.0340439767
 31
0.0
  0
LINE
  5
276
330
1F
100
AcDbEntity
  8
0
  6
Continuous
 62
     7
370
    25
100
AcDbLine
 10
333.9455582295
 20
199.8140412063
 30
0.0
 11
333.4455583338
 21
199.8140412063
 31
0.0
  0
LINE
  5
277
330
1F
100
AcDbEntity
  8
0
  6
Continuous
 62
     7
370
    25
100
AcDbLine
 10
333.4455583338
 20
199.8140412063
 30
0.0
 11
333.4455583338
 21
200.0640409679
 31
0.0
  0
LINE
  5
278
330
1F
100
AcDbEntity
  8
0
  6
Continuous
 62
     7
370
    25
100
AcDbLine
 10
333.4455583338
 20
200.0640409679
 30
0.0
 11
333.9455582295
 21
200.0640409679
 31
0.0
  0
LINE
  5
279
330
1F
100
AcDbEntity
  8
0
  6
Continuous
 62
     7
370
    25
100
AcDbLine
 10
336.8955582939
 20
199.8140412063
 30
0.0
 11
333.9455582295
 21
199.8140412063
 31
0.0
  0
LINE
  5
27A
330
1F
100
AcDbEntity
  8
0
  6
Continuous
 62
     7
370
    25
100
AcDbLine
 10
336.8955582939
 20
200.0640409679
 30
0.0
 11
333.9455582295
 21
200.0640409679
 31
0.0
  0
LINE
  5
27B
330
1F
100
AcDbEntity
  8
0
  6
Continuous
 62
     7
370
    25
100
AcDbLine
 10
337.6955582853
 20
199.8140412063
 30
0.0
 11
337.6955582853
 21
200.0640409679
 31
0.0
  0
LINE
  5
27C
330
1F
100
AcDbEntity
  8
0
  6
Continuous
 62
     7
370
    25
100
AcDbLine
 10
337.6955582853
 20
199.8140412063
 30
0.0
 11
336.8955582939
 21
199.8140412063
 31
0.0
  0
LINE
  5
27D
330
1F
100
AcDbEntity
  8
0
  6
Continuous
 62
     7
370
    25
100
AcDbLine
 10
337.6955582853
 20
200.0640409679
 30
0.0
 11
336.8955582939
 21
200.0640409679
 31
0.0
  0
ARC
  5
27E
330
1F
100
AcDbEntity
  8
0
  6
Continuous
 62
     7
370
    25
100
AcDbCircle
 10
333.4455707803
 20
200.3641839015
 30
0.0
 40
0.5501426953327928
100
AcDbArc
 50
259.5257461813
 51
269.9987037323
  0
ARC
  5
27F
330
1F
100
AcDbEntity
  8
0
  6
Continuous
 62
     7
370
    25
100
AcDbCircle
 10
333.4455591412
 20
200.3640349796
 30
0.0
 40
0.2999940116990519
100
AcDbArc
 50
250.5282081181
 51
269.9998457889
  0
LINE
  5
280
330
1F
100
AcDbEntity
  8
0
  6
Continuous
 62
     7
370
    25
100
AcDbLine
 10
333.1455582846
 20
202.5069343537
 30
0.0
 11
333.1455582846
 21
201.7998280615
 31
0.0
  0
ARC
  5
281
330
1F
100
AcDbEntity
  8
0
  6
Continuous
 62
     7
370
    25
100
AcDbCircle
 10
333.4455582931
 20
200.3640413202
 30
0.0
 40
0.5499999999999932
100
AcDbArc
 50
193.1365587869
 51
259.5243183036
  0
ARC
  5
282
330
1F
100
AcDbEntity
  8
0
  6
Continuous
 62
     7
370
    25
100
AcDbCircle
 10
333.4455582931
 20
200.3640413202
 30
0.0
 40
0.3000000000000114
100
AcDbArc
 50
180.0
 51
250.5287793655
  0
LINE
  5
283
330
1F
100
AcDbEntity
  8
0
  6
Continuous
 62
     7
370
    25
100
AcDbLine
 10
333.1455582846
 20
201.7998280615
 30
0.0
 11
333.1455582846
 21
200.3640415758
 31
0.0
  0
LINE
  5
284
330
1F
100
AcDbEntity
  8
0
  6
Continuous
 62
     7
370
    25
100
AcDbLine
 10
333.1455582846
 20
203.4211481601
 30
0.0
 11
333.1455582846
 21
202.5069343537
 31
0.0
  0
LINE
  5
285
330
1F
100
AcDbEntity
  8
0
  6
Continuous
 62
     7
370
    25
100
AcDbLine
 10
332.9255584721
 20
203.7140416593
 30
0.0
 11
333.1455582846
 21
203.7140416593
 31
0.0
  0
LINE
  5
286
330
1F
100
AcDbEntity
  8
0
  6
Continuous
 62
     7
370
    25
100
AcDbLine
 10
333.1455582846
 20
203.7140416593
 30
0.0
 11
333.1455582846
 21
203.4211481601
 31
0.0
  0
LINE
  5
287
330
1F
100
AcDbEntity
  8
0
  6
Continuous
 62
     7
370
    25
100
AcDbLine
 10
326.975558335
 20
193.714041324
 30
0.0
 11
332.0155583415
 21
193.714041324
 31
0.0
  0
LINE
  5
288
330
1F
100
AcDbEntity
  8
0
  6
Continuous
 62
     7
370
    25
100
AcDbLine
 10
277.7955602948
 20
193.714041324
 30
0.0
 11
282.8355562035
 21
193.714041324
 31
0.0
  0
LINE
  5
289
330
1F
100
AcDbEntity
  8
0
  6
Continuous
 62
     7
370
    25
100
AcDbLine
 10
282.68588298
 20
192.7140413463
 30
0.0
 11
278.7245523278
 21
192.7140413463
 31
0.0
  0
LINE
  5
28A
330
1F
100
AcDbEntity
  8
0
  6
Continuous
 62
     7
370
    25
100
AcDbLine
 10
278.7245523278
 20
192.7140413463
 30
0.0
 11
277.9389273468
 21
192.7140413463
 31
0.0
  0
LINE
  5
28B
330
1F
100
AcDbEntity
  8
0
  6
Continuous
 62
     7
370
    25
100
AcDbLine
 10
331.8755582068
 20
192.7140413463
 30
0.0
 11
329.4955585245
 21
192.7140413463
 31
0.0
  0
LINE
  5
28C
330
1F
100
AcDbEntity
  8
0
  6
Continuous
 62
     7
370
    25
100
AcDbLine
 10
329.4955585245
 20
192.7140413463
 30
0.0
 11
327.1155584697
 21
192.7140413463
 31
0.0
  0
LINE
  5
28D
330
1F
100
AcDbEntity
  8
0
  6
Continuous
 62
     7
370
    25
100
AcDbLine
 10
338.0555583257
 20
232.904042551
 30
0.0
 11
338.0555583257
 21
235.2040427417
 31
0.0
  0
LINE
  5
28E
330
1F
100
AcDbEntity
  8
0
  6
Continuous
 62
     7
370
    25
100
AcDbLine
 10
338.1555583421
 20
234.0540426463
 30
0.0
 11
338.1555583421
 21
235.0040423364
 31
0.0
  0
LINE
  5
28F
330
1F
100
AcDbEntity
  8
0
  6
Continuous
 62
     7
370
    25
100
AcDbLine
 10
338.1555583421
 20
233.104039976
 30
0.0
 11
338.1555583421
 21
234.0540426463
 31
0.0
  0
ARC
  5
290
330
1F
100
AcDbEntity
  8
0
  6
Continuous
 62
     7
370
    25
100
AcDbCircle
 10
339.4145736336
 20
234.4150352867
 30
0.0
 40
1.292312138694454
100
AcDbArc
 50
193.0344403732
 51
227.2675666314
  0
LINE
  5
291
330
1F
100
AcDbEntity
  8
0
  6
Continuous
 62
     7
370
    25
100
AcDbLine
 10
338.1555583421
 20
234.8176973552
 30
0.0
 11
338.1655335519
 21
234.8545211047
 31
0.0
  0
LINE
  5
292
330
1F
100
AcDbEntity
  8
0
  6
Continuous
 62
     7
370
    25
100
AcDbLine
 10
338.2855583075
 20
242.5140428037
 30
0.0
 11
337.9555583093
 21
242.5140428037
 31
0.0
  0
LINE
  5
293
330
1F
100
AcDbEntity
  8
0
  6
Continuous
 62
     7
370
    25
100
AcDbLine
 10
338.40555829
 20
251.1190402001
 30
0.0
 11
338.40555829
 21
249.789040038
 31
0.0
  0
LINE
  5
294
330
1F
100
AcDbEntity
  8
0
  6
Continuous
 62
     7
370
    25
100
AcDbLine
 10
338.0555583257
 20
251.2340414018
 30
0.0
 11
338.0555583257
 21
249.6740388364
 31
0.0
  0
LINE
  5
295
330
1F
100
AcDbEntity
  8
0
  6
Continuous
 62
     7
370
    25
100
AcDbLine
 10
332.9255584721
 20
250.0690388173
 30
0.0
 11
332.9405583534
 21
250.0540422887
 31
0.0
  0
LINE
  5
296
330
1F
100
AcDbEntity
  8
0
  6
Continuous
 62
     7
370
    25
100
AcDbLine
 10
332.9405583534
 20
250.8540439099
 30
0.0
 11
332.9255584721
 21
250.8390414208
 31
0.0
  0
LINE
  5
297
330
1F
100
AcDbEntity
  8
0
  6
Continuous
 62
     7
370
    25
100
AcDbLine
 10
338.2855583075
 20
225.5915390939
 30
0.0
 11
337.9555583093
 21
225.5915390939
 31
0.0
  0
LINE
  5
298
330
1F
100
AcDbEntity
  8
0
  6
Continuous
 62
     7
370
    25
100
AcDbLine
 10
338.2855583075
 20
225.596557805
 30
0.0
 11
337.9555583093
 21
225.596557805
 31
0.0
  0
LINE
  5
299
330
1F
100
AcDbEntity
  8
0
  6
Continuous
 62
     7
370
    25
100
AcDbLine
 10
338.3055582736
 20
215.3540420026
 30
0.0
 11
338.1555583421
 21
215.3540420026
 31
0.0
  0
LINE
  5
29A
330
1F
100
AcDbEntity
  8
0
  6
Continuous
 62
     7
370
    25
100
AcDbLine
 10
338.3055582736
 20
213.1140413374
 30
0.0
 11
338.1555583421
 21
213.1140413374
 31
0.0
  0
ARC
  5
29B
330
1F
100
AcDbEntity
  8
0
  6
Continuous
 62
     7
370
    25
100
AcDbCircle
 10
338.3055582931
 20
215.3040413202
 30
0.0
 40
0.0500000000000114
100
AcDbArc
 50
0.0
 51
90.0
  0
LINE
  5
29C
330
1F
100
AcDbEntity
  8
0
  6
Continuous
 62
     7
370
    25
100
AcDbLine
 10
338.3555583749
 20
215.3040411562
 30
0.0
 11
338.3555583749
 21
215.2040409535
 31
0.0
  0
LINE
  5
29D
330
1F
100
AcDbEntity
  8
0
  6
Continuous
 62
     7
370
    25
100
AcDbLine
 10
338.3555583749
 20
213.2640408963
 30
0.0
 11
338.3555583749
 21
213.1640406937
 31
0.0
  0
ARC
  5
29E
330
1F
100
AcDbEntity
  8
0
  6
Continuous
 62
     7
370
    25
100
AcDbCircle
 10
338.3055582931
 20
213.1640413202
 30
0.0
 40
0.0500000000000114
100
AcDbArc
 50
270.0
 51
0.0
  0
LINE
  5
29F
330
1F
100
AcDbEntity
  8
0
  6
Continuous
 62
     7
370
    25
100
AcDbLine
 10
338.3555583749
 20
215.2040409535
 30
0.0
 11
338.3555583749
 21
213.2640408963
 31
0.0
  0
LINE
  5
2A0
330
1F
100
AcDbEntity
  8
0
  6
Continuous
 62
     7
370
    25
100
AcDbLine
 10
338.3565582428
 20
213.8931202382
 30
0.0
 11
338.3555583749
 21
213.8931202382
 31
0.0
  0
LINE
  5
2A1
330
1F
100
AcDbEntity
  8
0
  6
Continuous
 62
     7
370
    25
100
AcDbLine
 10
338.3565582428
 20
213.7076022715
 30
0.0
 11
338.3555583749
 21
213.7076022715
 31
0.0
  0
LINE
  5
2A2
330
1F
100
AcDbEntity
  8
0
  6
Continuous
 62
     7
370
    25
100
AcDbLine
 10
338.3565582428
 20
213.5251703352
 30
0.0
 11
338.3555583749
 21
213.5251703352
 31
0.0
  0
LINE
  5
2A3
330
1F
100
AcDbEntity
  8
0
  6
Continuous
 62
     7
370
    25
100
AcDbLine
 10
338.3565582428
 20
214.9476232618
 30
0.0
 11
338.3555583749
 21
214.9476232618
 31
0.0
  0
LINE
  5
2A4
330
1F
100
AcDbEntity
  8
0
  6
Continuous
 62
     7
370
    25
100
AcDbLine
 10
338.3565582428
 20
214.5976232976
 30
0.0
 11
338.3555583749
 21
214.5976232976
 31
0.0
  0
LINE
  5
2A5
330
1F
100
AcDbEntity
  8
0
  6
Continuous
 62
     7
370
    25
100
AcDbLine
 10
338.3565582428
 20
214.5976232976
 30
0.0
 11
338.3565582428
 21
214.9476232618
 31
0.0
  0
LINE
  5
2A6
330
1F
100
AcDbEntity
  8
0
  6
Continuous
 62
     7
370
    25
100
AcDbLine
 10
338.1555583421
 20
215.728041777
 30
0.0
 11
338.1555583421
 21
212.7800407499
 31
0.0
  0
LINE
  5
2A7
330
1F
100
AcDbEntity
  8
0
  6
Continuous
 62
     7
370
    25
100
AcDbLine
 10
337.9555583093
 20
215.8280419797
 30
0.0
 11
338.1055582408
 21
215.8280419797
 31
0.0
  0
LINE
  5
2A8
330
1F
100
AcDbEntity
  8
0
  6
Continuous
 62
     7
370
    25
100
AcDbLine
 10
338.1055582408
 20
212.6800420374
 30
0.0
 11
337.9555583093
 21
212.6800420374
 31
0.0
  0
LINE
  5
2A9
330
1F
100
AcDbEntity
  8
0
  6
Continuous
 62
     7
370
    25
100
AcDbLine
 10
338.1555583421
 20
212.7800407499
 30
0.0
 11
338.1555583421
 21
212.7300413937
 31
0.0
  0
ARC
  5
2AA
330
1F
100
AcDbEntity
  8
0
  6
Continuous
 62
     7
370
    25
100
AcDbCircle
 10
338.1055582931
 20
212.7300413202
 30
0.0
 40
0.0500000000000114
100
AcDbArc
 50
270.0
 51
0.0
  0
LINE
  5
2AB
330
1F
100
AcDbEntity
  8
0
  6
Continuous
 62
     7
370
    25
100
AcDbLine
 10
338.1555583421
 20
215.7780411333
 30
0.0
 11
338.1555583421
 21
215.728041777
 31
0.0
  0
ARC
  5
2AC
330
1F
100
AcDbEntity
  8
0
  6
Continuous
 62
     7
370
    25
100
AcDbCircle
 10
338.1055582931
 20
215.7780413202
 30
0.0
 40
0.0500000000000114
100
AcDbArc
 50
0.0
 51
90.0
  0
LINE
  5
2AD
330
1F
100
AcDbEntity
  8
0
  6
Continuous
 62
     7
370
    25
100
AcDbLine
 10
338.1555583421
 20
207.7540415019
 30
0.0
 11
338.1555583421
 21
202.3540409893
 31
0.0
  0
LINE
  5
2AE
330
1F
100
AcDbEntity
  8
0
  6
Continuous
 62
     7
370
    25
100
AcDbLine
 10
338.1555583421
 20
202.3540409893
 30
0.0
 11
338.1555583421
 21
202.1240415663
 31
0.0
  0
ARC
  5
2AF
330
1F
100
AcDbEntity
  8
0
  6
Continuous
 62
     7
370
    25
100
AcDbCircle
 10
338.0855582931
 20
202.1240413202
 30
0.0
 40
0.0700000000000216
100
AcDbArc
 50
270.0
 51
0.0
  0
LINE
  5
2B0
330
1F
100
AcDbEntity
  8
0
  6
Continuous
 62
     7
370
    25
100
AcDbLine
 10
337.9555583093
 20
202.0540411264
 30
0.0
 11
338.0855582748
 21
202.0540411264
 31
0.0
  0
ARC
  5
2B1
330
1F
100
AcDbEntity
  8
0
  6
Continuous
 62
     7
370
    25
100
AcDbCircle
 10
338.0855582931
 20
207.9840413202
 30
0.0
 40
0.0700000000000216
100
AcDbArc
 50
0.0
 51
90.0
  0
LINE
  5
2B2
330
1F
100
AcDbEntity
  8
0
  6
Continuous
 62
     7
370
    25
100
AcDbLine
 10
338.1555583421
 20
207.9840409249
 30
0.0
 11
338.1555583421
 21
207.7540415019
 31
0.0
  0
LINE
  5
2B3
330
1F
100
AcDbEntity
  8
0
  6
Continuous
 62
     7
370
    25
100
AcDbLine
 10
337.9555583093
 20
208.0540406198
 30
0.0
 11
338.0855582748
 21
208.0540406198
 31
0.0
  0
LINE
  5
2B4
330
1F
100
AcDbEntity
  8
0
  6
Continuous
 62
     7
370
    25
100
AcDbLine
 10
338.2355582062
 20
204.8160078615
 30
0.0
 11
338.2355582062
 21
204.4018122048
 31
0.0
  0
LWPOLYLINE
  5
2B5
330
1F
100
AcDbEntity
  8
0
  6
Continuous
 62
     7
370
    25
100
AcDbPolyline
 90
        7
 70
   128
 43
0.0
 10
338.2355582062
 20
204.3637740106
 10
338.2320791576
 20
204.3845760316
 10
338.229274014
 20
204.3906065315
 10
338.2241936494
 20
204.3969872088
 10
338.2212424744
 20
204.3990629405
 10
338.2175531331
 20
204.4003876537
 10
338.2155582402
 20
204.4005694479
  0
LWPOLYLINE
  5
2B6
330
1F
100
AcDbEntity
  8
0
  6
Continuous
 62
     7
370
    25
100
AcDbPolyline
 90
        7
 70
   128
 43
0.0
 10
338.2155582402
 20
204.8256444425
 10
338.2211025897
 20
204.8252674431
 10
338.2259871904
 20
204.8242318124
 10
338.2309286017
 20
204.822173962
 10
338.23461161
 20
204.8189374298
 10
338.2355570886
 20
204.8161136598
 10
338.2355582062
 20
204.8160078615
  0
LINE
  5
2B7
330
1F
100
AcDbEntity
  8
0
  6
Continuous
 62
     7
370
    25
100
AcDbLine
 10
338.2355582062
 20
204.1259604186
 30
0.0
 11
338.1555583421
 21
204.1259604186
 31
0.0
  0
LINE
  5
2B8
330
1F
100
AcDbEntity
  8
0
  6
Continuous
 62
     7
370
    25
100
AcDbLine
 10
338.2155582402
 20
204.4005694479
 30
0.0
 11
338.1555583421
 21
204.4005694479
 31
0.0
  0
LINE
  5
2B9
330
1F
100
AcDbEntity
  8
0
  6
Continuous
 62
     7
370
    25
100
AcDbLine
 10
338.2355582062
 20
204.3637740106
 30
0.0
 11
338.2355582062
 21
204.1259604186
 31
0.0
  0
LINE
  5
2BA
330
1F
100
AcDbEntity
  8
0
  6
Continuous
 62
     7
370
    25
100
AcDbLine
 10
338.2155582402
 20
204.8256444425
 30
0.0
 11
338.20110281
 21
204.8256444425
 31
0.0
  0
LINE
  5
2BB
330
1F
100
AcDbEntity
  8
0
  6
Continuous
 62
     7
370
    25
100
AcDbLine
 10
338.2355582062
 20
203.9018260926
 30
0.0
 11
338.1555583421
 21
203.9018260926
 31
0.0
  0
LINE
  5
2BC
330
1F
100
AcDbEntity
  8
0
  6
Continuous
 62
     7
370
    25
100
AcDbLine
 10
338.2355582062
 20
204.1259604186
 30
0.0
 11
338.2355582062
 21
203.9018260926
 31
0.0
  0
LINE
  5
2BD
330
1F
100
AcDbEntity
  8
0
  6
Continuous
 62
     7
370
    25
100
AcDbLine
 10
338.2355582062
 20
203.9018260926
 30
0.0
 11
338.2355582062
 21
203.8689943642
 31
0.0
  0
ARC
  5
2BE
330
1F
100
AcDbEntity
  8
0
  6
Continuous
 62
     7
370
    25
100
AcDbCircle
 10
338.2320439538
 20
203.8622352896
 30
0.0
 40
0.0078172331800376
100
AcDbArc
 50
259.7333708162
 51
296.7149412253
  0
LINE
  5
2BF
330
1F
100
AcDbEntity
  8
0
  6
Continuous
 62
     7
370
    25
100
AcDbLine
 10
338.2355582062
 20
203.8689943642
 30
0.0
 11
338.2355582062
 21
203.8552525133
 31
0.0
  0
LINE
  5
2C0
330
1F
100
AcDbEntity
  8
0
  6
Continuous
 62
     7
370
    25
100
AcDbLine
 10
338.1855582912
 20
206.9959389657
 30
0.0
 11
338.1555583421
 21
206.9959389657
 31
0.0
  0
LINE
  5
2C1
330
1F
100
AcDbEntity
  8
0
  6
Continuous
 62
     7
370
    25
100
AcDbLine
 10
338.1855582912
 20
206.052847454
 30
0.0
 11
338.1555583421
 21
206.052847454
 31
0.0
  0
ARC
  5
2C2
330
1F
100
AcDbEntity
  8
0
  6
Continuous
 62
     7
370
    25
100
AcDbCircle
 10
338.1916360454
 20
207.1388783187
 30
0.0
 40
0.1430685070987701
100
AcDbArc
 50
267.5652608542
 51
275.5843758633
  0
LINE
  5
2C3
330
1F
100
AcDbEntity
  8
0
  6
Continuous
 62
     7
370
    25
100
AcDbLine
 10
338.2055582572
 20
206.9964888186
 30
0.0
 11
338.2055582572
 21
206.0524406523
 31
0.0
  0
ARC
  5
2C4
330
1F
100
AcDbEntity
  8
0
  6
Continuous
 62
     7
370
    25
100
AcDbCircle
 10
338.1911031723
 20
205.8336137839
 30
0.0
 40
0.2193037796912032
100
AcDbArc
 50
86.2206933116
 51
91.4488220289
  0
LINE
  5
2C5
330
1F
100
AcDbEntity
  8
0
  6
Continuous
 62
     7
370
    25
100
AcDbLine
 10
338.2055582572
 20
207.1530597896
 30
0.0
 11
338.2055582572
 21
206.9964888186
 31
0.0
  0
LINE
  5
2C6
330
1F
100
AcDbEntity
  8
0
  6
Continuous
 62
     7
370
    25
100
AcDbLine
 10
338.1855582912
 20
205.3793462605
 30
0.0
 11
338.1855582912
 21
206.052847454
 31
0.0
  0
LINE
  5
2C7
330
1F
100
AcDbEntity
  8
0
  6
Continuous
 62
     7
370
    25
100
AcDbLine
 10
338.2055582572
 20
206.0524406523
 30
0.0
 11
338.2055582572
 21
205.3764092416
 31
0.0
  0
LWPOLYLINE
  5
2C8
330
1F
100
AcDbEntity
  8
0
  6
Continuous
 62
     7
370
    25
100
AcDbPolyline
 90
        6
 70
   128
 43
0.0
 10
338.2055582572
 20
204.8311235994
 10
338.2041910756
 20
204.8278721661
 10
338.2000945602
 20
204.8249187559
 10
338.1941355858
 20
204.8229070992
 10
338.1876533944
 20
204.8220532626
 10
338.1855582912
 20
204.8220011086
  0
LINE
  5
2C9
330
1F
100
AcDbEntity
  8
0
  6
Continuous
 62
     7
370
    25
100
AcDbLine
 10
338.2055582572
 20
205.3764092416
 30
0.0
 11
338.2055582572
 21
204.8311235994
 31
0.0
  0
LINE
  5
2CA
330
1F
100
AcDbEntity
  8
0
  6
Continuous
 62
     7
370
    25
100
AcDbLine
 10
338.1855582912
 20
204.8220011086
 30
0.0
 11
338.1555583421
 21
204.8220011086
 31
0.0
  0
LINE
  5
2CB
330
1F
100
AcDbEntity
  8
0
  6
Continuous
 62
     7
370
    25
100
AcDbLine
 10
338.2355582062
 20
205.5387439818
 30
0.0
 11
338.2355582062
 21
204.8160078615
 31
0.0
  0
LINE
  5
2CC
330
1F
100
AcDbEntity
  8
0
  6
Continuous
 62
     7
370
    25
100
AcDbLine
 10
338.2355582062
 20
206.8014311284
 30
0.0
 11
338.2355582062
 21
206.4149665326
 31
0.0
  0
ARC
  5
2CD
330
1F
100
AcDbEntity
  8
0
  6
Continuous
 62
     7
370
    25
100
AcDbCircle
 10
338.2172353368
 20
205.8270787817
 30
0.0
 40
0.0183809453039286
100
AcDbArc
 50
4.5558162587
 51
95.2350074856
  0
LINE
  5
2CE
330
1F
100
AcDbEntity
  8
0
  6
Continuous
 62
     7
370
    25
100
AcDbLine
 10
338.2355582062
 20
205.8285387844
 30
0.0
 11
338.2355582062
 21
205.5387439818
 31
0.0
  0
LWPOLYLINE
  5
2CF
330
1F
100
AcDbEntity
  8
0
  6
Continuous
 62
     7
370
    25
100
AcDbPolyline
 90
       16
 70
   128
 43
0.0
 10
338.2355582062
 20
206.1049583048
 10
338.2350001577
 20
206.1419012636
 10
338.2326196972
 20
206.1905818671
 10
338.2298709918
 20
206.2233912438
 10
338.2273366768
 20
206.2454583735
 10
338.2251622248
 20
206.260274598
 10
338.223345587
 20
206.2702092022
 10
338.2218405698
 20
206.2768640608
 10
338.2205933426
 20
206.2813150376
 10
338.2195534278
 20
206.2842878193
 10
338.2186774258
 20
206.2862681836
 10
338.2176492456
 20
206.2879758567
 10
338.2168985996
 20
206.2887984008
 10
338.216277035
 20
206.2892081827
 10
338.215751024
 20
206.2893616647
 10
338.2155582402
 20
206.2893735856
  0
LINE
  5
2D0
330
1F
100
AcDbEntity
  8
0
  6
Continuous
 62
     7
370
    25
100
AcDbLine
 10
338.2355582062
 20
206.4149665326
 30
0.0
 11
338.2355582062
 21
206.1049583048
 31
0.0
  0
LINE
  5
2D1
330
1F
100
AcDbEntity
  8
0
  6
Continuous
 62
     7
370
    25
100
AcDbLine
 10
338.2355582062
 20
205.8459105581
 30
0.0
 11
338.2055582572
 21
205.8459105581
 31
0.0
  0
LINE
  5
2D2
330
1F
100
AcDbEntity
  8
0
  6
Continuous
 62
     7
370
    25
100
AcDbLine
 10
338.2355582062
 20
206.1049583048
 30
0.0
 11
338.2355582062
 21
205.8459105581
 31
0.0
  0
LINE
  5
2D3
330
1F
100
AcDbEntity
  8
0
  6
Continuous
 62
     7
370
    25
100
AcDbLine
 10
338.2155582402
 20
207.1819754929
 30
0.0
 11
338.2155582402
 21
207.6154666633
 31
0.0
  0
LINE
  5
2D4
330
1F
100
AcDbEntity
  8
0
  6
Continuous
 62
     7
370
    25
100
AcDbLine
 10
338.2355582062
 20
207.5974869222
 30
0.0
 11
338.2355582062
 21
206.8014311284
 31
0.0
  0
LINE
  5
2D5
330
1F
100
AcDbEntity
  8
0
  6
Continuous
 62
     7
370
    25
100
AcDbLine
 10
338.2355582062
 20
205.8459105581
 30
0.0
 11
338.2355582062
 21
205.8285387844
 31
0.0
  0
LINE
  5
2D6
330
1F
100
AcDbEntity
  8
0
  6
Continuous
 62
     7
370
    25
100
AcDbLine
 10
338.2055582572
 20
203.4885096044
 30
0.0
 11
338.2055582572
 21
203.4771631152
 31
0.0
  0
LINE
  5
2D7
330
1F
100
AcDbEntity
  8
0
  6
Continuous
 62
     7
370
    25
100
AcDbLine
 10
338.2055582572
 20
203.4771631152
 30
0.0
 11
338.2055582572
 21
203.4412572772
 31
0.0
  0
LINE
  5
2D8
330
1F
100
AcDbEntity
  8
0
  6
Continuous
 62
     7
370
    25
100
AcDbLine
 10
338.2055582572
 20
203.6106216401
 30
0.0
 11
338.1555583421
 21
203.6106216401
 31
0.0
  0
LINE
  5
2D9
330
1F
100
AcDbEntity
  8
0
  6
Continuous
 62
     7
370
    25
100
AcDbLine
 10
338.2055582572
 20
203.6106216401
 30
0.0
 11
338.2055582572
 21
203.4885096044
 31
0.0
  0
LINE
  5
2DA
330
1F
100
AcDbEntity
  8
0
  6
Continuous
 62
     7
370
    25
100
AcDbLine
 10
338.2055582572
 20
203.4412572772
 30
0.0
 11
338.2055582572
 21
203.4373323113
 31
0.0
  0
LINE
  5
2DB
330
1F
100
AcDbEntity
  8
0
  6
Continuous
 62
     7
370
    25
100
AcDbLine
 10
338.2055582572
 20
203.8223850221
 30
0.0
 11
338.2055582572
 21
203.6106216401
 31
0.0
  0
LINE
  5
2DC
330
1F
100
AcDbEntity
  8
0
  6
Continuous
 62
     7
370
    25
100
AcDbLine
 10
338.2555583585
 20
204.8047887773
 30
0.0
 11
338.2355582062
 21
204.8047887773
 31
0.0
  0
LINE
  5
2DD
330
1F
100
AcDbEntity
  8
0
  6
Continuous
 62
     7
370
    25
100
AcDbLine
 10
338.2555583585
 20
204.9434649438
 30
0.0
 11
338.2498990838
 21
204.9807252974
 31
0.0
  0
ARC
  5
2DE
330
1F
100
AcDbEntity
  8
0
  6
Continuous
 62
     7
370
    25
100
AcDbCircle
 10
338.2479713366
 20
204.9802882909
 30
0.0
 40
0.001976659708969
100
AcDbArc
 50
12.7726698591
 51
17.4719087285
  0
LINE
  5
2DF
330
1F
100
AcDbEntity
  8
0
  6
Continuous
 62
     7
370
    25
100
AcDbLine
 10
338.2555583585
 20
204.7848405928
 30
0.0
 11
338.2355582062
 21
204.7848405928
 31
0.0
  0
LINE
  5
2E0
330
1F
100
AcDbEntity
  8
0
  6
Continuous
 62
     7
370
    25
100
AcDbLine
 10
338.2555583585
 20
204.8047887773
 30
0.0
 11
338.2555583585
 21
204.7848405928
 31
0.0
  0
LINE
  5
2E1
330
1F
100
AcDbEntity
  8
0
  6
Continuous
 62
     7
370
    25
100
AcDbLine
 10
338.2055582572
 20
203.3764409513
 30
0.0
 11
338.2055582572
 21
203.3647517354
 31
0.0
  0
LINE
  5
2E2
330
1F
100
AcDbEntity
  8
0
  6
Continuous
 62
     7
370
    25
100
AcDbLine
 10
338.2055582572
 20
203.4189629048
 30
0.0
 11
338.2055582572
 21
203.3764409513
 31
0.0
  0
LINE
  5
2E3
330
1F
100
AcDbEntity
  8
0
  6
Continuous
 62
     7
370
    25
100
AcDbLine
 10
338.2055582572
 20
203.3647517354
 30
0.0
 11
338.2055582572
 21
203.3291133732
 31
0.0
  0
LINE
  5
2E4
330
1F
100
AcDbEntity
  8
0
  6
Continuous
 62
     7
370
    25
100
AcDbLine
 10
338.2055582572
 20
203.3291133732
 30
0.0
 11
338.2055582572
 21
203.3274191112
 31
0.0
  0
LWPOLYLINE
  5
2E5
330
1F
100
AcDbEntity
  8
0
  6
Continuous
 62
     7
370
    25
100
AcDbPolyline
 90
        7
 70
   128
 43
0.0
 10
338.2555583585
 20
205.417311439
 10
338.2554957736
 20
205.4177346319
 10
338.255069973
 20
205.4184856505
 10
338.2525161002
 20
205.4201441497
 10
338.2480509672
 20
205.4214852542
 10
338.2421778608
 20
205.4223539919
 10
338.2355582062
 20
205.4226549954
  0
LWPOLYLINE
  5
2E6
330
1F
100
AcDbEntity
  8
0
  6
Continuous
 62
     7
370
    25
100
AcDbPolyline
 90
        7
 70
   128
 43
0.0
 10
338.2555583585
 20
207.1465509624
 10
338.2555501629
 20
207.1469473332
 10
338.2550384942
 20
207.1496995777
 10
338.2524475548
 20
207.1539955825
 10
338.2479837257
 20
207.1574422211
 10
338.2421422843
 20
207.159674415
 10
338.2355582062
 20
207.1604477853
  0
LINE
  5
2E7
330
1F
100
AcDbEntity
  8
0
  6
Continuous
 62
     7
370
    25
100
AcDbLine
 10
338.2555583585
 20
206.3862430543
 30
0.0
 11
338.2555583585
 21
205.8950426668
 31
0.0
  0
LINE
  5
2E8
330
1F
100
AcDbEntity
  8
0
  6
Continuous
 62
     7
370
    25
100
AcDbLine
 10
338.2555583585
 20
205.8950426668
 30
0.0
 11
338.2555583585
 21
205.8405774325
 31
0.0
  0
LINE
  5
2E9
330
1F
100
AcDbEntity
  8
0
  6
Continuous
 62
     7
370
    25
100
AcDbLine
 10
337.9555583093
 20
200.6540412695
 30
0.0
 11
337.9255583603
 21
200.6540412695
 31
0.0
  0
LINE
  5
2EA
330
1F
100
AcDbEntity
  8
0
  6
Continuous
 62
     7
370
    25
100
AcDbLine
 10
337.9555583093
 20
201.1540415377
 30
0.0
 11
337.9555583093
 21
200.6540412695
 31
0.0
  0
LINE
  5
2EB
330
1F
100
AcDbEntity
  8
0
  6
Continuous
 62
     7
370
    25
100
AcDbLine
 10
337.9555583093
 20
253.9540397615
 30
0.0
 11
337.9555583093
 21
201.1540415377
 31
0.0
  0
LINE
  5
2EC
330
1F
100
AcDbEntity
  8
0
  6
Continuous
 62
     7
370
    25
100
AcDbLine
 10
337.9555583093
 20
254.3640422315
 30
0.0
 11
337.9555583093
 21
253.9540397615
 31
0.0
  0
LINE
  5
2ED
330
1F
100
AcDbEntity
  8
0
  6
Continuous
 62
     7
370
    25
100
AcDbLine
 10
332.9405583534
 20
203.7140416593
 30
0.0
 11
332.9405583534
 21
204.525290677
 31
0.0
  0
LINE
  5
2EE
330
1F
100
AcDbEntity
  8
0
  6
Continuous
 62
     7
370
    25
100
AcDbLine
 10
332.9405583534
 20
247.6761507482
 30
0.0
 11
332.9405583534
 21
251.0340439767
 31
0.0
  0
LINE
  5
2EF
330
1F
100
AcDbEntity
  8
0
  6
Continuous
 62
     7
370
    25
100
AcDbLine
 10
333.0205582175
 20
203.7140416593
 30
0.0
 11
333.0205582175
 21
207.2211610765
 31
0.0
  0
LINE
  5
2F0
330
1F
100
AcDbEntity
  8
0
  6
Continuous
 62
     7
370
    25
100
AcDbLine
 10
333.0205582175
 20
247.6215528936
 30
0.0
 11
333.0205582175
 21
251.0340439767
 31
0.0
  0
LINE
  5
2F1
330
1F
100
AcDbEntity
  8
0
  6
Continuous
 62
     7
370
    25
100
AcDbLine
 10
332.9405583534
 20
254.6019303292
 30
0.0
 11
332.9405583534
 21
254.953335473
 31
0.0
  0
LINE
  5
2F2
330
1F
100
AcDbEntity
  8
0
  6
Continuous
 62
     7
370
    25
100
AcDbLine
 10
332.9405583534
 20
254.953335473
 30
0.0
 11
333.0205582175
 21
254.953335473
 31
0.0
  0
LINE
  5
2F3
330
1F
100
AcDbEntity
  8
0
  6
Continuous
 62
     7
370
    25
100
AcDbLine
 10
333.0205582175
 20
254.7331499547
 30
0.0
 11
333.0205582175
 21
254.953335473
 31
0.0
  0
LINE
  5
2F4
330
1F
100
AcDbEntity
  8
0
  6
Continuous
 62
     7
370
    25
100
AcDbLine
 10
332.9405583534
 20
200.1147481293
 30
0.0
 11
332.9553000722
 21
200.1147481293
 31
0.0
  0
LINE
  5
2F5
330
1F
100
AcDbEntity
  8
0
  6
Continuous
 62
     7
370
    25
100
AcDbLine
 10
332.9405583534
 20
200.1147481293
 30
0.0
 11
332.9405583534
 21
200.1461538166
 31
0.0
  0
LINE
  5
2F6
330
1F
100
AcDbEntity
  8
0
  6
Continuous
 62
     7
370
    25
100
AcDbLine
 10
333.1455582846
 20
254.953335473
 30
0.0
 11
333.0205582175
 21
254.953335473
 31
0.0
  0
LINE
  5
2F7
330
1F
100
AcDbEntity
  8
0
  6
Continuous
 62
     7
370
    25
100
AcDbLine
 10
333.9355582465
 20
200.1147481293
 30
0.0
 11
333.2786658872
 21
200.1147481293
 31
0.0
  0
LINE
  5
2F8
330
1F
100
AcDbEntity
  8
0
  6
Continuous
 62
     7
370
    25
100
AcDbLine
 10
337.7205582429
 20
254.953335473
 30
0.0
 11
337.2855583299
 21
254.953335473
 31
0.0
  0
LINE
  5
2F9
330
1F
100
AcDbEntity
  8
0
  6
Continuous
 62
     7
370
    25
100
AcDbLine
 10
336.5055583045
 20
254.953335473
 30
0.0
 11
333.1455582846
 21
254.953335473
 31
0.0
  0
ARC
  5
2FA
330
1F
100
AcDbEntity
  8
0
  6
Continuous
 62
     7
370
    25
100
AcDbCircle
 10
337.6677867488
 20
254.6350958959
 30
0.0
 40
0.3225852739819373
100
AcDbArc
 50
36.9576111416
 51
80.5847070783
  0
LINE
  5
2FB
330
1F
100
AcDbEntity
  8
0
  6
Continuous
 62
     7
370
    25
100
AcDbLine
 10
337.9255583603
 20
254.8290419072
 30
0.0
 11
337.9255583603
 21
254.6140419931
 31
0.0
  0
LINE
  5
2FC
330
1F
100
AcDbEntity
  8
0
  6
Continuous
 62
     7
370
    25
100
AcDbLine
 10
337.9255583603
 20
254.3640422315
 30
0.0
 11
337.9255583603
 21
200.2640413732
 31
0.0
  0
ARC
  5
2FD
330
1F
100
AcDbEntity
  8
0
  6
Continuous
 62
     7
370
    25
100
AcDbCircle
 10
337.7254922217
 20
254.842148737
 30
0.0
 40
0.1119988039695714
100
AcDbArc
 50
42.7632141672
 51
92.524917009
  0
LINE
  5
2FE
330
1F
100
AcDbEntity
  8
0
  6
Continuous
 62
     7
370
    25
100
AcDbLine
 10
337.7205582429
 20
255.034040162
 30
0.0
 11
337.7205582429
 21
254.9540388078
 31
0.0
  0
ARC
  5
2FF
330
1F
100
AcDbEntity
  8
0
  6
Continuous
 62
     7
370
    25
100
AcDbCircle
 10
337.7205580044
 20
254.8290398061
 30
0.0
 40
0.2050003559060898
100
AcDbArc
 50
0.0005872472
 51
89.9999333486
  0
LINE
  5
300
330
1F
100
AcDbEntity
  8
0
  6
Continuous
 62
     7
370
    25
100
AcDbLine
 10
333.9355582465
 20
200.1140410692
 30
0.0
 11
333.4455583338
 21
200.1140410692
 31
0.0
  0
LINE
  5
301
330
1F
100
AcDbEntity
  8
0
  6
Continuous
 62
     7
370
    25
100
AcDbLine
 10
337.7205582429
 20
255.034040162
 30
0.0
 11
333.1455582846
 21
255.034040162
 31
0.0
  0
LINE
  5
302
330
1F
100
AcDbEntity
  8
0
  6
Continuous
 62
     7
370
    25
100
AcDbLine
 10
337.7205582429
 20
254.9540388078
 30
0.0
 11
337.2855583299
 21
254.9540388078
 31
0.0
  0
LINE
  5
303
330
1F
100
AcDbEntity
  8
0
  6
Continuous
 62
     7
370
    25
100
AcDbLine
 10
336.5055583045
 20
254.9540388078
 30
0.0
 11
333.1455582846
 21
254.9540388078
 31
0.0
  0
LINE
  5
304
330
1F
100
AcDbEntity
  8
0
  6
Continuous
 62
     7
370
    25
100
AcDbLine
 10
332.9455584381
 20
200.0340412051
 30
0.0
 11
332.9455584381
 21
200.1140410692
 31
0.0
  0
LINE
  5
305
330
1F
100
AcDbEntity
  8
0
  6
Continuous
 62
     7
370
    25
100
AcDbLine
 10
333.0055583362
 20
200.0340412051
 30
0.0
 11
332.9455584381
 21
200.0340412051
 31
0.0
  0
LINE
  5
306
330
1F
100
AcDbEntity
  8
0
  6
Continuous
 62
     7
370
    25
100
AcDbLine
 10
332.9455584381
 20
200.1140410692
 30
0.0
 11
332.9556603078
 21
200.1140410692
 31
0.0
  0
LINE
  5
307
330
1F
100
AcDbEntity
  8
0
  6
Continuous
 62
     7
370
    25
100
AcDbLine
 10
333.2797270361
 20
200.1140410692
 30
0.0
 11
333.4455583338
 21
200.1140410692
 31
0.0
  0
ARC
  5
308
330
1F
100
AcDbEntity
  8
0
  6
Continuous
 62
     7
370
    25
100
AcDbCircle
 10
333.1455582931
 20
254.8290413202
 30
0.0
 40
0.2050000000000125
100
AcDbArc
 50
90.0
 51
142.6770633143
  0
LINE
  5
309
330
1F
100
AcDbEntity
  8
0
  6
Continuous
 62
     7
370
    25
100
AcDbLine
 10
333.1455582846
 20
254.9540388078
 30
0.0
 11
333.13228135
 21
254.953335473
 31
0.0
  0
LINE
  5
30A
330
1F
100
AcDbEntity
  8
0
  6
Continuous
 62
     7
370
    25
100
AcDbLine
 10
332.9455584381
 20
200.0340412051
 30
0.0
 11
332.8455582354
 21
200.0340412051
 31
0.0
  0
LINE
  5
30B
330
1F
100
AcDbEntity
  8
0
  6
Continuous
 62
     7
370
    25
100
AcDbLine
 10
332.9455584381
 20
200.1140410692
 30
0.0
 11
332.8455582354
 21
200.1140410692
 31
0.0
  0
LINE
  5
30C
330
1F
100
AcDbEntity
  8
0
  6
Continuous
 62
     7
370
    25
100
AcDbLine
 10
274.9855589215
 20
201.6871186585
 30
0.0
 11
275.3755580727
 21
201.6871186585
 31
0.0
  0
LINE
  5
30D
330
1F
100
AcDbEntity
  8
0
  6
Continuous
 62
     7
370
    25
100
AcDbLine
 10
274.9855589215
 20
202.6203441114
 30
0.0
 11
274.9855589215
 21
201.6871186585
 31
0.0
  0
LINE
  5
30E
330
1F
100
AcDbEntity
  8
0
  6
Continuous
 62
     7
370
    25
100
AcDbLine
 10
275.3755580727
 20
202.6203441114
 30
0.0
 11
274.9855589215
 21
202.6203441114
 31
0.0
  0
LINE
  5
30F
330
1F
100
AcDbEntity
  8
0
  6
Continuous
 62
     7
370
    25
100
AcDbLine
 10
275.3755580727
 20
202.6203441114
 30
0.0
 11
275.3755580727
 21
201.6871186585
 31
0.0
  0
LINE
  5
310
330
1F
100
AcDbEntity
  8
0
  6
Continuous
 62
     7
370
    25
100
AcDbLine
 10
274.9855589215
 20
202.7819606155
 30
0.0
 11
275.3755580727
 21
202.7819606155
 31
0.0
  0
LINE
  5
311
330
1F
100
AcDbEntity
  8
0
  6
Continuous
 62
     7
370
    25
100
AcDbLine
 10
275.3755580727
 20
202.7819606155
 30
0.0
 11
275.3755580727
 21
202.6203441114
 31
0.0
  0
LINE
  5
312
330
1F
100
AcDbEntity
  8
0
  6
Continuous
 62
     7
370
    25
100
AcDbLine
 10
274.9855589215
 20
202.6203441114
 30
0.0
 11
274.9855589215
 21
202.7819606155
 31
0.0
  0
LINE
  5
313
330
1F
100
AcDbEntity
  8
0
  6
Continuous
 62
     7
370
    25
100
AcDbLine
 10
275.3755580727
 20
203.7155302853
 30
0.0
 11
274.9855589215
 21
203.7155302853
 31
0.0
  0
LINE
  5
314
330
1F
100
AcDbEntity
  8
0
  6
Continuous
 62
     7
370
    25
100
AcDbLine
 10
274.9855589215
 20
203.7155302853
 30
0.0
 11
274.9855589215
 21
202.7819606155
 31
0.0
  0
LINE
  5
315
330
1F
100
AcDbEntity
  8
0
  6
Continuous
 62
     7
370
    25
100
AcDbLine
 10
275.3755580727
 20
203.7155302853
 30
0.0
 11
275.3755580727
 21
202.7819606155
 31
0.0
  0
LINE
  5
316
330
1F
100
AcDbEntity
  8
0
  6
Continuous
 62
     7
370
    25
100
AcDbLine
 10
274.1155576054
 20
203.6190415413
 30
0.0
 11
274.1155576054
 21
201.7090412468
 31
0.0
  0
LINE
  5
317
330
1F
100
AcDbEntity
  8
0
  6
Continuous
 62
     7
370
    25
100
AcDbLine
 10
275.6155561749
 20
203.7540408463
 30
0.0
 11
275.6155561749
 21
201.5740411967
 31
0.0
  0
LINE
  5
318
330
1F
100
AcDbEntity
  8
0
  6
Continuous
 62
     7
370
    25
100
AcDbLine
 10
276.1355590168
 20
203.6790418119
 30
0.0
 11
276.1355590168
 21
201.6490409762
 31
0.0
  0
LINE
  5
319
330
1F
100
AcDbEntity
  8
0
  6
Continuous
 62
     7
370
    25
100
AcDbLine
 10
275.3755580727
 20
201.5688555926
 30
0.0
 11
274.9855589215
 21
201.5688555926
 31
0.0
  0
LINE
  5
31A
330
1F
100
AcDbEntity
  8
0
  6
Continuous
 62
     7
370
    25
100
AcDbLine
 10
274.9855589215
 20
201.5688555926
 30
0.0
 11
274.9855589215
 21
201.6871186585
 31
0.0
  0
LINE
  5
31B
330
1F
100
AcDbEntity
  8
0
  6
Continuous
 62
     7
370
    25
100
AcDbLine
 10
275.3755580727
 20
201.6871186585
 30
0.0
 11
275.3755580727
 21
201.5688555926
 31
0.0
  0
LINE
  5
31C
330
1F
100
AcDbEntity
  8
0
  6
Continuous
 62
     7
370
    25
100
AcDbLine
 10
274.9855589215
 20
203.7588837236
 30
0.0
 11
275.3755580727
 21
203.7588837236
 31
0.0
  0
LINE
  5
31D
330
1F
100
AcDbEntity
  8
0
  6
Continuous
 62
     7
370
    25
100
AcDbLine
 10
274.9855589215
 20
203.7155302853
 30
0.0
 11
274.9855589215
 21
203.7588837236
 31
0.0
  0
LINE
  5
31E
330
1F
100
AcDbEntity
  8
0
  6
Continuous
 62
     7
370
    25
100
AcDbLine
 10
275.3755580727
 20
203.7588837236
 30
0.0
 11
275.3755580727
 21
203.7155302853
 31
0.0
  0
LINE
  5
31F
330
1F
100
AcDbEntity
  8
0
  6
Continuous
 62
     7
370
    25
100
AcDbLine
 10
275.3755580727
 20
203.7592264504
 30
0.0
 11
274.9855589215
 21
203.7592264504
 31
0.0
  0
LINE
  5
320
330
1F
100
AcDbEntity
  8
0
  6
Continuous
 62
     7
370
    25
100
AcDbLine
 10
274.9855589215
 20
203.7592264504
 30
0.0
 11
274.9855589215
 21
203.7588837236
 31
0.0
  0
LINE
  5
321
330
1F
100
AcDbEntity
  8
0
  6
Continuous
 62
     7
370
    25
100
AcDbLine
 10
275.3755580727
 20
203.7592264504
 30
0.0
 11
275.3755580727
 21
203.7588837236
 31
0.0
  0
LINE
  5
322
330
1F
100
AcDbEntity
  8
0
  6
Continuous
 62
     7
370
    25
100
AcDbLine
 10
276.5055608097
 20
203.1619163841
 30
0.0
 11
276.2655567471
 21
203.1619163841
 31
0.0
  0
LINE
  5
323
330
1F
100
AcDbEntity
  8
0
  6
Continuous
 62
     7
370
    25
100
AcDbLine
 10
276.2655567471
 20
202.0783486456
 30
0.0
 11
276.5455555264
 21
202.0783486456
 31
0.0
  0
LINE
  5
324
330
1F
100
AcDbEntity
  8
0
  6
Continuous
 62
     7
370
    25
100
AcDbLine
 10
276.2655567471
 20
203.1619163841
 30
0.0
 11
276.2655567471
 21
202.0783486456
 31
0.0
  0
LINE
  5
325
330
1F
100
AcDbEntity
  8
0
  6
Continuous
 62
     7
370
    25
100
AcDbLine
 10
276.2655567471
 20
203.3235425741
 30
0.0
 11
276.5055608097
 21
203.3235425741
 31
0.0
  0
LINE
  5
326
330
1F
100
AcDbEntity
  8
0
  6
Continuous
 62
     7
370
    25
100
AcDbLine
 10
276.2655567471
 20
203.1619163841
 30
0.0
 11
276.2655567471
 21
203.3235425741
 31
0.0
  0
LINE
  5
327
330
1F
100
AcDbEntity
  8
0
  6
Continuous
 62
     7
370
    25
100
AcDbLine
 10
276.5455555264
 20
201.9601124019
 30
0.0
 11
276.2655567471
 21
201.9601124019
 31
0.0
  0
LINE
  5
328
330
1F
100
AcDbEntity
  8
0
  6
Continuous
 62
     7
370
    25
100
AcDbLine
 10
276.2655567471
 20
201.9601124019
 30
0.0
 11
276.2655567471
 21
202.0783486456
 31
0.0
  0
LINE
  5
329
330
1F
100
AcDbEntity
  8
0
  6
Continuous
 62
     7
370
    25
100
AcDbLine
 10
276.5055608097
 20
203.8658457488
 30
0.0
 11
276.2655567471
 21
203.8658457488
 31
0.0
  0
LINE
  5
32A
330
1F
100
AcDbEntity
  8
0
  6
Continuous
 62
     7
370
    25
100
AcDbLine
 10
276.2655567471
 20
203.8658457488
 30
0.0
 11
276.2655567471
 21
203.3235425741
 31
0.0
  0
LINE
  5
32B
330
1F
100
AcDbEntity
  8
0
  6
Continuous
 62
     7
370
    25
100
AcDbLine
 10
276.2655567471
 20
201.418847093
 30
0.0
 11
276.5455555264
 21
201.418847093
 31
0.0
  0
LINE
  5
32C
330
1F
100
AcDbEntity
  8
0
  6
Continuous
 62
     7
370
    25
100
AcDbLine
 10
276.2655567471
 20
201.9601124019
 30
0.0
 11
276.2655567471
 21
201.418847093
 31
0.0
  0
LINE
  5
32D
330
1F
100
AcDbEntity
  8
0
  6
Continuous
 62
     7
370
    25
100
AcDbLine
 10
276.2655567471
 20
203.90923495
 30
0.0
 11
276.5055608097
 21
203.90923495
 31
0.0
  0
LINE
  5
32E
330
1F
100
AcDbEntity
  8
0
  6
Continuous
 62
     7
370
    25
100
AcDbLine
 10
276.2655567471
 20
203.8658457488
 30
0.0
 11
276.2655567471
 21
203.90923495
 31
0.0
  0
LINE
  5
32F
330
1F
100
AcDbEntity
  8
0
  6
Continuous
 62
     7
370
    25
100
AcDbLine
 10
274.2655586544
 20
201.5740411967
 30
0.0
 11
274.2655586544
 21
203.7540408463
 31
0.0
  0
LINE
  5
330
330
1F
100
AcDbEntity
  8
0
  6
Continuous
 62
     7
370
    25
100
AcDbLine
 10
276.5055608097
 20
205.9040414781
 30
0.0
 11
276.5855562035
 21
205.9040414781
 31
0.0
  0
LINE
  5
331
330
1F
100
AcDbEntity
  8
0
  6
Continuous
 62
     7
370
    25
100
AcDbLine
 10
276.5055608097
 20
206.9040420145
 30
0.0
 11
276.5055608097
 21
205.9040414781
 31
0.0
  0
LINE
  5
332
330
1F
100
AcDbEntity
  8
0
  6
Continuous
 62
     7
370
    25
100
AcDbLine
 10
276.5055608097
 20
253.7040399999
 30
0.0
 11
276.5055608097
 21
206.9040420145
 31
0.0
  0
LINE
  5
333
330
1F
100
AcDbEntity
  8
0
  6
Continuous
 62
     7
370
    25
100
AcDbLine
 10
276.5055608097
 20
254.7040390462
 30
0.0
 11
276.5855562035
 21
254.7040390462
 31
0.0
  0
LINE
  5
334
330
1F
100
AcDbEntity
  8
0
  6
Continuous
 62
     7
370
    25
100
AcDbLine
 10
276.5055608097
 20
254.7040390462
 30
0.0
 11
276.5055608097
 21
253.7040399999
 31
0.0
  0
LINE
  5
335
330
1F
100
AcDbEntity
  8
0
  6
Continuous
 62
     7
370
    25
100
AcDbLine
 10
276.5055608097
 20
205.9040414781
 30
0.0
 11
276.5055608097
 21
204.9040409416
 31
0.0
  0
LINE
  5
336
330
1F
100
AcDbEntity
  8
0
  6
Continuous
 62
     7
370
    25
100
AcDbLine
 10
276.5055608097
 20
204.9040409416
 30
0.0
 11
276.5055608097
 21
203.70404149
 31
0.0
  0
LINE
  5
337
330
1F
100
AcDbEntity
  8
0
  6
Continuous
 62
     7
370
    25
100
AcDbLine
 10
276.5055608097
 20
202.7040409535
 30
0.0
 11
276.5855562035
 21
202.7040409535
 31
0.0
  0
LINE
  5
338
330
1F
100
AcDbEntity
  8
0
  6
Continuous
 62
     7
370
    25
100
AcDbLine
 10
276.5055608097
 20
203.70404149
 30
0.0
 11
276.5055608097
 21
202.7040409535
 31
0.0
  0
LINE
  5
339
330
1F
100
AcDbEntity
  8
0
  6
Continuous
 62
     7
370
    25
100
AcDbLine
 10
276.0155569855
 20
201.6490409762
 30
0.0
 11
276.0155569855
 21
201.593049863
 31
0.0
  0
LINE
  5
33A
330
1F
100
AcDbEntity
  8
0
  6
Continuous
 62
     7
370
    25
100
AcDbLine
 10
275.6155561749
 20
201.593049863
 30
0.0
 11
276.0155569855
 21
201.593049863
 31
0.0
  0
LINE
  5
33B
330
1F
100
AcDbEntity
  8
0
  6
Continuous
 62
     7
370
    25
100
AcDbLine
 10
275.3655564133
 20
201.3483660907
 30
0.0
 11
276.0155569855
 21
201.3483660907
 31
0.0
  0
LINE
  5
33C
330
1F
100
AcDbEntity
  8
0
  6
Continuous
 62
     7
370
    25
100
AcDbLine
 10
276.0155569855
 20
201.593049863
 30
0.0
 11
276.0155569855
 21
201.3483660907
 31
0.0
  0
LINE
  5
33D
330
1F
100
AcDbEntity
  8
0
  6
Continuous
 62
     7
370
    25
100
AcDbLine
 10
275.3655564133
 20
201.5688555926
 30
0.0
 11
275.3655564133
 21
201.3483660907
 31
0.0
  0
LINE
  5
33E
330
1F
100
AcDbEntity
  8
0
  6
Continuous
 62
     7
370
    25
100
AcDbLine
 10
275.3655564133
 20
201.4776277036
 30
0.0
 11
274.9755572621
 21
201.4776277036
 31
0.0
  0
LINE
  5
33F
330
1F
100
AcDbEntity
  8
0
  6
Continuous
 62
     7
370
    25
100
AcDbLine
 10
274.9755572621
 20
201.4776277036
 30
0.0
 11
274.9755572621
 21
201.5740411967
 31
0.0
  0
LINE
  5
340
330
1F
100
AcDbEntity
  8
0
  6
Continuous
 62
     7
370
    25
100
AcDbLine
 10
333.0176584516
 20
207.2206201643
 30
0.0
 11
333.0176584516
 21
204.525290677
 31
0.0
  0
LINE
  5
341
330
1F
100
AcDbEntity
  8
0
  6
Continuous
 62
     7
370
    25
100
AcDbLine
 10
332.9255584721
 20
204.525290677
 30
0.0
 11
333.0176584516
 21
204.525290677
 31
0.0
  0
LINE
  5
342
330
1F
100
AcDbEntity
  8
0
  6
Continuous
 62
     7
370
    25
100
AcDbLine
 10
333.0089274887
 20
247.6261722535
 30
0.0
 11
332.9255584721
 21
247.6871180028
 31
0.0
  0
LINE
  5
343
330
1F
100
AcDbEntity
  8
0
  6
Continuous
 62
     7
370
    25
100
AcDbLine
 10
332.9255584721
 20
207.1555944771
 30
0.0
 11
333.0089274887
 21
207.2165387363
 31
0.0
  0
ARC
  5
344
330
1F
100
AcDbEntity
  8
0
  6
Continuous
 62
     7
370
    25
100
AcDbCircle
 10
333.023681105
 20
247.6463562446
 30
0.0
 40
0.0249999798272142
100
AcDbArc
 50
233.8327048635
 51
270.0
  0
ARC
  5
345
330
1F
100
AcDbEntity
  8
0
  6
Continuous
 62
     7
370
    25
100
AcDbCircle
 10
333.023681105
 20
207.1963563188
 30
0.0
 40
0.0249999798272037
100
AcDbArc
 50
90.0
 51
126.1672951365
  0
LINE
  5
346
330
1F
100
AcDbEntity
  8
0
  6
Continuous
 62
     7
370
    25
100
AcDbLine
 10
333.2475684676
 20
247.6213561982
 30
0.0
 11
333.0236811284
 21
247.6213561982
 31
0.0
  0
LINE
  5
347
330
1F
100
AcDbEntity
  8
0
  6
Continuous
 62
     7
370
    25
100
AcDbLine
 10
333.0236811284
 20
207.2213562817
 30
0.0
 11
333.2475684676
 21
207.2213562817
 31
0.0
  0
ARC
  5
348
330
1F
100
AcDbEntity
  8
0
  6
Continuous
 62
     7
370
    25
100
AcDbCircle
 10
333.247568405
 20
247.4213562647
 30
0.0
 40
0.1999999999999886
100
AcDbArc
 50
42.660686
 51
90.0
  0
ARC
  5
349
330
1F
100
AcDbEntity
  8
0
  6
Continuous
 62
     7
370
    25
100
AcDbCircle
 10
333.247568405
 20
207.4213562986
 30
0.0
 40
0.2000000000000734
100
AcDbArc
 50
270.0
 51
317.339314
  0
LINE
  5
34A
330
1F
100
AcDbEntity
  8
0
  6
Continuous
 62
     7
370
    25
100
AcDbLine
 10
333.3946444187
 20
247.5568878144
 30
0.0
 11
333.775558332
 21
247.1435236425
 31
0.0
  0
LINE
  5
34B
330
1F
100
AcDbEntity
  8
0
  6
Continuous
 62
     7
370
    25
100
AcDbLine
 10
333.775558332
 20
207.6991858572
 30
0.0
 11
333.3946444187
 21
207.2858246655
 31
0.0
  0
LINE
  5
34C
330
1F
100
AcDbEntity
  8
0
  6
Continuous
 62
     7
370
    25
100
AcDbLine
 10
334.2556377966
 20
200.0640409679
 30
0.0
 11
334.2556377966
 21
200.2640413732
 31
0.0
  0
LINE
  5
34D
330
1F
100
AcDbEntity
  8
0
  6
Continuous
 62
     7
370
    25
100
AcDbLine
 10
333.9355582465
 20
200.0640409679
 30
0.0
 11
333.9355582465
 21
200.2640413732
 31
0.0
  0
LINE
  5
34E
330
1F
100
AcDbEntity
  8
0
  6
Continuous
 62
     7
370
    25
100
AcDbLine
 10
334.2556377966
 20
200.2640413732
 30
0.0
 11
333.9355582465
 21
200.2640413732
 31
0.0
  0
LINE
  5
34F
330
1F
100
AcDbEntity
  8
0
  6
Continuous
 62
     7
370
    25
100
AcDbLine
 10
334.2355582956
 20
254.3640422315
 30
0.0
 11
336.0455582943
 21
254.3640422315
 31
0.0
  0
LINE
  5
350
330
1F
100
AcDbEntity
  8
0
  6
Continuous
 62
     7
370
    25
100
AcDbLine
 10
334.2355582956
 20
254.6140419931
 30
0.0
 11
336.3955582818
 21
254.6140419931
 31
0.0
  0
LINE
  5
351
330
1F
100
AcDbEntity
  8
0
  6
Continuous
 62
     7
370
    25
100
AcDbLine
 10
333.9355582465
 20
254.6140419931
 30
0.0
 11
333.9355582465
 21
254.3640422315
 31
0.0
  0
LINE
  5
352
330
1F
100
AcDbEntity
  8
0
  6
Continuous
 62
     7
370
    25
100
AcDbLine
 10
333.9355582465
 20
254.3640422315
 30
0.0
 11
334.2355582956
 21
254.3640422315
 31
0.0
  0
LINE
  5
353
330
1F
100
AcDbEntity
  8
0
  6
Continuous
 62
     7
370
    25
100
AcDbLine
 10
333.9355582465
 20
254.6140419931
 30
0.0
 11
334.2355582956
 21
254.6140419931
 31
0.0
  0
LINE
  5
354
330
1F
100
AcDbEntity
  8
0
  6
Continuous
 62
     7
370
    25
100
AcDbLine
 10
336.0455582943
 20
200.2640413732
 30
0.0
 11
335.5355582759
 21
200.2640413732
 31
0.0
  0
LINE
  5
355
330
1F
100
AcDbEntity
  8
0
  6
Continuous
 62
     7
370
    25
100
AcDbLine
 10
334.7355582844
 20
200.2640413732
 30
0.0
 11
334.2556377966
 21
200.2640413732
 31
0.0
  0
LINE
  5
356
330
1F
100
AcDbEntity
  8
0
  6
Continuous
 62
     7
370
    25
100
AcDbLine
 10
337.7455582935
 20
254.3640422315
 30
0.0
 11
344.0320927743
 21
254.3640422315
 31
0.0
  0
LINE
  5
357
330
1F
100
AcDbEntity
  8
0
  6
Continuous
 62
     7
370
    25
100
AcDbLine
 10
337.3955583293
 20
254.6140419931
 30
0.0
 11
344.0320927743
 21
254.6140419931
 31
0.0
  0
LINE
  5
358
330
1F
100
AcDbEntity
  8
0
  6
Continuous
 62
     7
370
    25
100
AcDbLine
 10
344.0320927743
 20
200.0140416116
 30
0.0
 11
337.6955582853
 21
200.0140416116
 31
0.0
  0
LINE
  5
359
330
1F
100
AcDbEntity
  8
0
  6
Continuous
 62
     7
370
    25
100
AcDbLine
 10
344.0320927743
 20
200.2640413732
 30
0.0
 11
337.7455582935
 21
200.2640413732
 31
0.0
  0
LINE
  5
35A
330
1F
100
AcDbEntity
  8
0
  6
Continuous
 62
     7
370
    25
100
AcDbLine
 10
344.0320927743
 20
254.6140419931
 30
0.0
 11
345.4355586413
 21
254.6140419931
 31
0.0
  0
LINE
  5
35B
330
1F
100
AcDbEntity
  8
0
  6
Continuous
 62
     7
370
    25
100
AcDbLine
 10
345.4355586413
 20
200.0140416116
 30
0.0
 11
344.0320927743
 21
200.0140416116
 31
0.0
  0
LINE
  5
35C
330
1F
100
AcDbEntity
  8
0
  6
Continuous
 62
     7
370
    25
100
AcDbLine
 10
333.6034583021
 20
204.525290677
 30
0.0
 11
333.6034583021
 21
204.5540409774
 31
0.0
  0
LINE
  5
35D
330
1F
100
AcDbEntity
  8
0
  6
Continuous
 62
     7
370
    25
100
AcDbLine
 10
333.7318902928
 20
204.525290677
 30
0.0
 11
333.6034583021
 21
204.525290677
 31
0.0
  0
LINE
  5
35E
330
1F
100
AcDbEntity
  8
0
  6
Continuous
 62
     7
370
    25
100
AcDbLine
 10
333.4326582123
 20
207.3270770401
 30
0.0
 11
333.4326582123
 21
204.5540409774
 31
0.0
  0
LINE
  5
35F
330
1F
100
AcDbEntity
  8
0
  6
Continuous
 62
     7
370
    25
100
AcDbLine
 10
333.7318902928
 20
207.4115412921
 30
0.0
 11
333.5104921926
 21
207.4115412921
 31
0.0
  0
LINE
  5
360
330
1F
100
AcDbEntity
  8
0
  6
Continuous
 62
     7
370
    25
100
AcDbLine
 10
333.7318902928
 20
204.5540409774
 30
0.0
 11
333.4326582123
 21
204.5540409774
 31
0.0
  0
LINE
  5
361
330
1F
100
AcDbEntity
  8
0
  6
Continuous
 62
     7
370
    25
100
AcDbLine
 10
333.1405583862
 20
204.5540409774
 30
0.0
 11
333.1405583862
 21
207.2213562817
 31
0.0
  0
LINE
  5
362
330
1F
100
AcDbEntity
  8
0
  6
Continuous
 62
     7
370
    25
100
AcDbLine
 10
333.4326582123
 20
204.5540409774
 30
0.0
 11
333.1405583862
 21
204.5540409774
 31
0.0
  0
LINE
  5
363
330
1F
100
AcDbEntity
  8
0
  6
Continuous
 62
     7
370
    25
100
AcDbLine
 10
333.6455583666
 20
230.7040410728
 30
0.0
 11
333.6455583666
 21
221.7040407151
 31
0.0
  0
LINE
  5
364
330
1F
100
AcDbEntity
  8
0
  6
Continuous
 62
     7
370
    25
100
AcDbLine
 10
333.7255582307
 20
230.7040410728
 30
0.0
 11
333.7255582307
 21
221.7040407151
 31
0.0
  0
LINE
  5
365
330
1F
100
AcDbEntity
  8
0
  6
Continuous
 62
     7
370
    25
100
AcDbLine
 10
333.6455583666
 20
221.204041192
 30
0.0
 11
333.7255582307
 21
221.204041192
 31
0.0
  0
LINE
  5
366
330
1F
100
AcDbEntity
  8
0
  6
Continuous
 62
     7
370
    25
100
AcDbLine
 10
333.6455583666
 20
221.7040407151
 30
0.0
 11
333.6455583666
 21
221.204041192
 31
0.0
  0
LINE
  5
367
330
1F
100
AcDbEntity
  8
0
  6
Continuous
 62
     7
370
    25
100
AcDbLine
 10
333.7255582307
 20
221.7040407151
 30
0.0
 11
333.7255582307
 21
221.204041192
 31
0.0
  0
LINE
  5
368
330
1F
100
AcDbEntity
  8
0
  6
Continuous
 62
     7
370
    25
100
AcDbLine
 10
333.6455583666
 20
231.2040405959
 30
0.0
 11
333.6455583666
 21
230.7040410728
 31
0.0
  0
LINE
  5
369
330
1F
100
AcDbEntity
  8
0
  6
Continuous
 62
     7
370
    25
100
AcDbLine
 10
333.6455583666
 20
231.2040405959
 30
0.0
 11
333.7255582307
 21
231.2040405959
 31
0.0
  0
LINE
  5
36A
330
1F
100
AcDbEntity
  8
0
  6
Continuous
 62
     7
370
    25
100
AcDbLine
 10
333.7255582307
 20
231.2040405959
 30
0.0
 11
333.7255582307
 21
230.7040410728
 31
0.0
  0
LINE
  5
36B
330
1F
100
AcDbEntity
  8
0
  6
Continuous
 62
     7
370
    25
100
AcDbLine
 10
333.7320666853
 20
251.179044196
 30
0.0
 11
333.7320666853
 21
251.0990428418
 31
0.0
  0
LINE
  5
36C
330
1F
100
AcDbEntity
  8
0
  6
Continuous
 62
     7
370
    25
100
AcDbLine
 10
333.7320666853
 20
251.179044196
 30
0.0
 11
333.775558332
 21
251.179044196
 31
0.0
  0
LINE
  5
36D
330
1F
100
AcDbEntity
  8
0
  6
Continuous
 62
     7
370
    25
100
AcDbLine
 10
333.7320666853
 20
251.0990428418
 30
0.0
 11
333.775558332
 21
251.0990428418
 31
0.0
  0
LINE
  5
36E
330
1F
100
AcDbEntity
  8
0
  6
Continuous
 62
     7
370
    25
100
AcDbLine
 10
336.5055583045
 20
199.7640411049
 30
0.0
 11
337.2855583299
 21
199.7640411049
 31
0.0
  0
LINE
  5
36F
330
1F
100
AcDbEntity
  8
0
  6
Continuous
 62
     7
370
    25
100
AcDbLine
 10
336.5690623503
 20
254.984043786
 30
0.0
 11
336.5055583045
 21
254.984043786
 31
0.0
  0
LINE
  5
370
330
1F
100
AcDbEntity
  8
0
  6
Continuous
 62
     7
370
    25
100
AcDbLine
 10
337.2855583299
 20
254.984043786
 30
0.0
 11
336.5690623503
 21
254.984043786
 31
0.0
  0
LINE
  5
371
330
1F
100
AcDbEntity
  8
0
  6
Continuous
 62
     7
370
    25
100
AcDbLine
 10
333.7320666853
 20
203.6990406603
 30
0.0
 11
333.7320666853
 21
203.6190415413
 31
0.0
  0
LINE
  5
372
330
1F
100
AcDbEntity
  8
0
  6
Continuous
 62
     7
370
    25
100
AcDbLine
 10
333.7320666853
 20
203.6190415413
 30
0.0
 11
333.775558332
 21
203.6190415413
 31
0.0
  0
LINE
  5
373
330
1F
100
AcDbEntity
  8
0
  6
Continuous
 62
     7
370
    25
100
AcDbLine
 10
333.7320666853
 20
203.6990406603
 30
0.0
 11
333.775558332
 21
203.6990406603
 31
0.0
  0
LINE
  5
374
330
1F
100
AcDbEntity
  8
0
  6
Continuous
 62
     7
370
    25
100
AcDbLine
 10
333.7318902928
 20
203.6990406603
 30
0.0
 11
333.7318902928
 21
207.6517986745
 31
0.0
  0
LINE
  5
375
330
1F
100
AcDbEntity
  8
0
  6
Continuous
 62
     7
370
    25
100
AcDbLine
 10
333.7318902928
 20
247.1909152955
 30
0.0
 11
333.7318902928
 21
251.0990428418
 31
0.0
  0
LINE
  5
376
330
1F
100
AcDbEntity
  8
0
  6
Continuous
 62
     7
370
    25
100
AcDbLine
 10
333.7318902928
 20
251.0990428418
 30
0.0
 11
333.775558332
 21
251.0990428418
 31
0.0
  0
LINE
  5
377
330
1F
100
AcDbEntity
  8
0
  6
Continuous
 62
     7
370
    25
100
AcDbLine
 10
333.775558332
 20
203.6990406603
 30
0.0
 11
333.7318902928
 21
203.6990406603
 31
0.0
  0
LINE
  5
378
330
1F
100
AcDbEntity
  8
0
  6
Continuous
 62
     7
370
    25
100
AcDbLine
 10
333.8955583144
 20
252.758328864
 30
0.0
 11
333.9030848909
 21
252.7540432901
 31
0.0
  0
LINE
  5
379
330
1F
100
AcDbEntity
  8
0
  6
Continuous
 62
     7
370
    25
100
AcDbLine
 10
333.775558332
 20
254.0440427751
 30
0.0
 11
333.8955583144
 21
254.0440427751
 31
0.0
  0
LINE
  5
37A
330
1F
100
AcDbEntity
  8
0
  6
Continuous
 62
     7
370
    25
100
AcDbLine
 10
333.775558332
 20
253.9540397615
 30
0.0
 11
333.775558332
 21
254.0440427751
 31
0.0
  0
LINE
  5
37B
330
1F
100
AcDbEntity
  8
0
  6
Continuous
 62
     7
370
    25
100
AcDbLine
 10
333.9236047212
 20
201.8540414661
 30
0.0
 11
333.8955583144
 21
201.8397542328
 31
0.0
  0
LINE
  5
37C
330
1F
100
AcDbEntity
  8
0
  6
Continuous
 62
     7
370
    25
100
AcDbLine
 10
333.8955583144
 20
200.5540410668
 30
0.0
 11
333.775558332
 21
200.5540410668
 31
0.0
  0
LINE
  5
37D
330
1F
100
AcDbEntity
  8
0
  6
Continuous
 62
     7
370
    25
100
AcDbLine
 10
333.775558332
 20
200.5540410668
 30
0.0
 11
333.775558332
 21
200.6540412695
 31
0.0
  0
LINE
  5
37E
330
1F
100
AcDbEntity
  8
0
  6
Continuous
 62
     7
370
    25
100
AcDbLine
 10
336.0455582943
 20
200.1140410692
 30
0.0
 11
337.7455582935
 21
200.1140410692
 31
0.0
  0
LINE
  5
37F
330
1F
100
AcDbEntity
  8
0
  6
Continuous
 62
     7
370
    25
100
AcDbLine
 10
336.0455582943
 20
200.2640413732
 30
0.0
 11
337.7455582935
 21
200.2640413732
 31
0.0
  0
LINE
  5
380
330
1F
100
AcDbEntity
  8
0
  6
Continuous
 62
     7
370
    25
100
AcDbLine
 10
337.6905582938
 20
200.3140414745
 30
0.0
 11
337.6955582853
 21
200.3140414745
 31
0.0
  0
LINE
  5
381
330
1F
100
AcDbEntity
  8
0
  6
Continuous
 62
     7
370
    25
100
AcDbLine
 10
337.7455582935
 20
254.3340432138
 30
0.0
 11
336.0455582943
 21
254.3340432138
 31
0.0
  0
LINE
  5
382
330
1F
100
AcDbEntity
  8
0
  6
Continuous
 62
     7
370
    25
100
AcDbLine
 10
337.6955582853
 20
254.2840408773
 30
0.0
 11
337.6905582938
 21
254.2840408773
 31
0.0
  0
LINE
  5
383
330
1F
100
AcDbEntity
  8
0
  6
Continuous
 62
     7
370
    25
100
AcDbLine
 10
336.9155583065
 20
254.2840408773
 30
0.0
 11
336.9155583065
 21
254.304044196
 31
0.0
  0
LINE
  5
384
330
1F
100
AcDbEntity
  8
0
  6
Continuous
 62
     7
370
    25
100
AcDbLine
 10
336.8755582813
 20
254.304044196
 30
0.0
 11
336.9155583065
 21
254.304044196
 31
0.0
  0
LINE
  5
385
330
1F
100
AcDbEntity
  8
0
  6
Continuous
 62
     7
370
    25
100
AcDbLine
 10
336.8755582813
 20
254.304044196
 30
0.0
 11
336.8755582813
 21
254.2840408773
 31
0.0
  0
LINE
  5
386
330
1F
100
AcDbEntity
  8
0
  6
Continuous
 62
     7
370
    25
100
AcDbLine
 10
337.7455582935
 20
254.4840442628
 30
0.0
 11
336.0455582943
 21
254.4840442628
 31
0.0
  0
LINE
  5
387
330
1F
100
AcDbEntity
  8
0
  6
Continuous
 62
     7
370
    25
100
AcDbLine
 10
337.6955582853
 20
254.5340406388
 30
0.0
 11
336.0955582908
 21
254.5340406388
 31
0.0
  0
LINE
  5
388
330
1F
100
AcDbEntity
  8
0
  6
Continuous
 62
     7
370
    25
100
AcDbLine
 10
333.775558332
 20
252.7540432901
 30
0.0
 11
333.9755583648
 21
252.7540432901
 31
0.0
  0
LINE
  5
389
330
1F
100
AcDbEntity
  8
0
  6
Continuous
 62
     7
370
    25
100
AcDbLine
 10
333.9755583648
 20
201.8540414661
 30
0.0
 11
333.775558332
 21
201.8540414661
 31
0.0
  0
LINE
  5
38A
330
1F
100
AcDbEntity
  8
0
  6
Continuous
 62
     7
370
    25
100
AcDbLine
 10
333.775558332
 20
201.8540414661
 30
0.0
 11
333.775558332
 21
252.7540432901
 31
0.0
  0
LINE
  5
38B
330
1F
100
AcDbEntity
  8
0
  6
Continuous
 62
     7
370
    25
100
AcDbLine
 10
333.8955583144
 20
253.9540397615
 30
0.0
 11
333.775558332
 21
253.9540397615
 31
0.0
  0
LINE
  5
38C
330
1F
100
AcDbEntity
  8
0
  6
Continuous
 62
     7
370
    25
100
AcDbLine
 10
333.775558332
 20
253.4540402383
 30
0.0
 11
333.775558332
 21
253.9540397615
 31
0.0
  0
LINE
  5
38D
330
1F
100
AcDbEntity
  8
0
  6
Continuous
 62
     7
370
    25
100
AcDbLine
 10
333.775558332
 20
252.7540432901
 30
0.0
 11
333.775558332
 21
253.4540402383
 31
0.0
  0
LINE
  5
38E
330
1F
100
AcDbEntity
  8
0
  6
Continuous
 62
     7
370
    25
100
AcDbLine
 10
333.8955583144
 20
252.7540432901
 30
0.0
 11
333.8955583144
 21
252.8440403432
 31
0.0
  0
LINE
  5
38F
330
1F
100
AcDbEntity
  8
0
  6
Continuous
 62
     7
370
    25
100
AcDbLine
 10
333.8955583144
 20
200.6540412695
 30
0.0
 11
333.775558332
 21
200.6540412695
 31
0.0
  0
LINE
  5
390
330
1F
100
AcDbEntity
  8
0
  6
Continuous
 62
     7
370
    25
100
AcDbLine
 10
333.775558332
 20
200.6540412695
 30
0.0
 11
333.775558332
 21
201.1540415377
 31
0.0
  0
LINE
  5
391
330
1F
100
AcDbEntity
  8
0
  6
Continuous
 62
     7
370
    25
100
AcDbLine
 10
333.775558332
 20
201.1540415377
 30
0.0
 11
333.775558332
 21
201.8540414661
 31
0.0
  0
LINE
  5
392
330
1F
100
AcDbEntity
  8
0
  6
Continuous
 62
     7
370
    25
100
AcDbLine
 10
333.8955583144
 20
201.7540412635
 30
0.0
 11
333.8955583144
 21
201.8540414661
 31
0.0
  0
LINE
  5
393
330
1F
100
AcDbEntity
  8
0
  6
Continuous
 62
     7
370
    25
100
AcDbLine
 10
335.4704259522
 20
254.3340432138
 30
0.0
 11
335.5355582759
 21
254.3340432138
 31
0.0
  0
LINE
  5
394
330
1F
100
AcDbEntity
  8
0
  6
Continuous
 62
     7
370
    25
100
AcDbLine
 10
334.7355582844
 20
254.3340432138
 30
0.0
 11
335.4704259522
 21
254.3340432138
 31
0.0
  0
LINE
  5
395
330
1F
100
AcDbEntity
  8
0
  6
Continuous
 62
     7
370
    25
100
AcDbLine
 10
335.5355582759
 20
200.2640413732
 30
0.0
 11
334.7355582844
 21
200.2640413732
 31
0.0
  0
LINE
  5
396
330
1F
100
AcDbEntity
  8
0
  6
Continuous
 62
     7
370
    25
100
AcDbLine
 10
337.6905582938
 20
200.4011126846
 30
0.0
 11
333.9755583648
 21
200.4011126846
 31
0.0
  0
LINE
  5
397
330
1F
100
AcDbEntity
  8
0
  6
Continuous
 62
     7
370
    25
100
AcDbLine
 10
333.9755583648
 20
200.4011126846
 30
0.0
 11
333.9755583648
 21
254.1969704122
 31
0.0
  0
LINE
  5
398
330
1F
100
AcDbEntity
  8
0
  6
Continuous
 62
     7
370
    25
100
AcDbLine
 10
337.6905582938
 20
254.1969704122
 30
0.0
 11
333.9755583648
 21
254.1969704122
 31
0.0
  0
ARC
  5
399
330
1F
100
AcDbEntity
  8
0
  6
Continuous
 62
     7
370
    25
100
AcDbCircle
 10
337.6424234114
 20
253.8761502276
 30
0.0
 40
0.3244110937481886
100
AcDbArc
 50
38.7128418625
 51
81.4671638369
  0
LINE
  5
39A
330
1F
100
AcDbEntity
  8
0
  6
Continuous
 62
     7
370
    25
100
AcDbLine
 10
337.895558225
 20
254.0790426225
 30
0.0
 11
337.895558225
 21
200.5190412194
 31
0.0
  0
ARC
  5
39B
330
1F
100
AcDbEntity
  8
0
  6
Continuous
 62
     7
370
    25
100
AcDbCircle
 10
337.6424238713
 20
200.7219307881
 30
0.0
 40
0.3244089673853834
100
AcDbArc
 50
278.5328103886
 51
321.2874968338
  0
ARC
  5
39C
330
1F
100
AcDbEntity
  8
0
  6
Continuous
 62
     7
370
    25
100
AcDbCircle
 10
337.6906751009
 20
254.0793791654
 30
0.0
 40
0.1246604123532409
100
AcDbArc
 50
40.3582964935
 51
90.0536862794
  0
LINE
  5
39D
330
1F
100
AcDbEntity
  8
0
  6
Continuous
 62
     7
370
    25
100
AcDbLine
 10
337.6905582938
 20
254.2840408773
 30
0.0
 11
337.6905582938
 21
254.204039523
 31
0.0
  0
ARC
  5
39E
330
1F
100
AcDbEntity
  8
0
  6
Continuous
 62
     7
370
    25
100
AcDbCircle
 10
337.6905598479
 20
254.0790425002
 30
0.0
 40
0.2049983770882664
100
AcDbArc
 50
0.0000341839
 51
90.0004343525
  0
ARC
  5
39F
330
1F
100
AcDbEntity
  8
0
  6
Continuous
 62
     7
370
    25
100
AcDbCircle
 10
337.6906268454
 20
200.5188188015
 30
0.0
 40
0.124777481727554
100
AcDbArc
 50
269.9685222612
 51
319.623102209
  0
ARC
  5
3A0
330
1F
100
AcDbEntity
  8
0
  6
Continuous
 62
     7
370
    25
100
AcDbCircle
 10
337.6905591292
 20
200.5190405703
 30
0.0
 40
0.2049990958208207
100
AcDbArc
 50
269.9997665293
 51
0.0001814112
  0
LINE
  5
3A1
330
1F
100
AcDbEntity
  8
0
  6
Continuous
 62
     7
370
    25
100
AcDbLine
 10
337.6905582938
 20
200.3140414745
 30
0.0
 11
337.6905582938
 21
200.3940413386
 31
0.0
  0
LINE
  5
3A2
330
1F
100
AcDbEntity
  8
0
  6
Continuous
 62
     7
370
    25
100
AcDbLine
 10
337.6905582938
 20
254.2840408773
 30
0.0
 11
334.1005582456
 21
254.2840408773
 31
0.0
  0
LINE
  5
3A3
330
1F
100
AcDbEntity
  8
0
  6
Continuous
 62
     7
370
    25
100
AcDbLine
 10
337.6905582938
 20
254.204039523
 30
0.0
 11
334.1005582456
 21
254.204039523
 31
0.0
  0
LINE
  5
3A4
330
1F
100
AcDbEntity
  8
0
  6
Continuous
 62
     7
370
    25
100
AcDbLine
 10
337.6905582938
 20
200.3140414745
 30
0.0
 11
334.1005582456
 21
200.3140414745
 31
0.0
  0
LINE
  5
3A5
330
1F
100
AcDbEntity
  8
0
  6
Continuous
 62
     7
370
    25
100
AcDbLine
 10
337.6905582938
 20
200.3940413386
 30
0.0
 11
334.1005582456
 21
200.3940413386
 31
0.0
  0
LINE
  5
3A6
330
1F
100
AcDbEntity
  8
0
  6
Continuous
 62
     7
370
    25
100
AcDbLine
 10
333.8955583144
 20
252.8440403432
 30
0.0
 11
333.9755583648
 21
252.8440403432
 31
0.0
  0
LINE
  5
3A7
330
1F
100
AcDbEntity
  8
0
  6
Continuous
 62
     7
370
    25
100
AcDbLine
 10
333.8955583144
 20
254.0790426225
 30
0.0
 11
333.8955583144
 21
252.8440403432
 31
0.0
  0
LWPOLYLINE
  5
3A8
330
1F
100
AcDbEntity
  8
0
  6
Continuous
 62
     7
370
    25
100
AcDbPolyline
 90
        3
 70
   128
 43
0.0
 10
334.1005582456
 20
254.204039523
 10
334.0761719365
 20
254.2016374559
 10
334.0591123421
 20
254.1969704122
  0
ARC
  5
3A9
330
1F
100
AcDbEntity
  8
0
  6
Continuous
 62
     7
370
    25
100
AcDbCircle
 10
334.1005582931
 20
254.0790413202
 30
0.0
 40
0.2050000000000125
100
AcDbArc
 50
90.0
 51
180.0
  0
LINE
  5
3AA
330
1F
100
AcDbEntity
  8
0
  6
Continuous
 62
     7
370
    25
100
AcDbLine
 10
333.8955583144
 20
201.7540412635
 30
0.0
 11
333.9755583648
 21
201.7540412635
 31
0.0
  0
LINE
  5
3AB
330
1F
100
AcDbEntity
  8
0
  6
Continuous
 62
     7
370
    25
100
AcDbLine
 10
333.8955583144
 20
201.7540412635
 30
0.0
 11
333.8955583144
 21
200.5190412194
 31
0.0
  0
ARC
  5
3AC
330
1F
100
AcDbEntity
  8
0
  6
Continuous
 62
     7
370
    25
100
AcDbCircle
 10
334.1005582931
 20
200.5190413202
 30
0.0
 40
0.2050000000000409
100
AcDbArc
 50
180.0
 51
270.0
  0
LWPOLYLINE
  5
3AD
330
1F
100
AcDbEntity
  8
0
  6
Continuous
 62
     7
370
    25
100
AcDbPolyline
 90
        3
 70
   128
 43
0.0
 10
334.0591123421
 20
200.4011126846
 10
334.0761719365
 20
200.3964434058
 10
334.1005582456
 20
200.3940413386
  0
ARC
  5
3AE
330
1F
100
AcDbEntity
  8
0
  6
Continuous
 62
     7
370
    25
100
AcDbCircle
 10
337.6878133777
 20
200.544082815
 30
0.0
 40
0.1429964780832969
100
AcDbArc
 50
271.0998995909
 51
311.0330250823
  0
LINE
  5
3AF
330
1F
100
AcDbEntity
  8
0
  6
Continuous
 62
     7
370
    25
100
AcDbLine
 10
339.2855584715
 20
245.224039504
 30
0.0
 11
339.2855584715
 21
239.2240422458
 31
0.0
  0
LINE
  5
3B0
330
1F
100
AcDbEntity
  8
0
  6
Continuous
 62
     7
370
    25
100
AcDbLine
 10
338.2855583075
 20
245.224039504
 30
0.0
 11
338.2855583075
 21
239.2240422458
 31
0.0
  0
LINE
  5
3B1
330
1F
100
AcDbEntity
  8
0
  6
Continuous
 62
     7
370
    25
100
AcDbLine
 10
340.7855581585
 20
244.8240386933
 30
0.0
 11
340.7855581585
 21
239.6240400762
 31
0.0
  0
ARC
  5
3B2
330
1F
100
AcDbEntity
  8
0
  6
Continuous
 62
     7
370
    25
100
AcDbCircle
 10
340.3446149539
 20
238.7258894519
 30
0.0
 40
0.761786819604441
100
AcDbArc
 50
98.2306970887
 51
108.0038421828
  0
LWPOLYLINE
  5
3B3
330
1F
100
AcDbEntity
  8
0
  6
Continuous
 62
     7
370
    25
100
AcDbPolyline
 90
       10
 70
   128
 43
0.0
 10
340.1091612969
 20
239.4503759832
 10
339.9374961946
 20
239.4017475337
 10
339.8610472772
 20
239.3803554267
 10
339.8419290874
 20
239.3750297517
 10
339.8371491674
 20
239.3737005681
 10
339.8359540943
 20
239.3733697623
 10
339.835655326
 20
239.3732863158
 10
339.8355808202
 20
239.3732654542
 10
339.8355621938
 20
239.3732594937
 10
339.8355584685
 20
239.3732594937
  0
LWPOLYLINE
  5
3B4
330
1F
100
AcDbEntity
  8
0
  6
Continuous
 62
     7
370
    25
100
AcDbPolyline
 90
       12
 70
   128
 43
0.0
 10
340.2355581615
 20
240.3656947106
 10
340.2355574165
 20
240.3656947106
 10
340.2355525736
 20
240.3657096118
 10
340.235532457
 20
240.365763256
 10
340.2354519907
 20
240.3659748525
 10
340.235121185
 20
240.3668242187
 10
340.2336545382
 20
240.3701680392
 10
340.2254987601
 20
240.3825956077
 10
340.2034737263
 20
240.399281928
 10
340.173820043
 20
240.4079275817
 10
340.139923254
 20
240.4074388236
 10
340.1091612969
 20
240.3992342443
  0
LWPOLYLINE
  5
3B5
330
1F
100
AcDbEntity
  8
0
  6
Continuous
 62
     7
370
    25
100
AcDbPolyline
 90
       10
 70
   128
 43
0.0
 10
340.1091612969
 20
240.3992342443
 10
339.9374961946
 20
240.3327333421
 10
339.8610472772
 20
240.3033095092
 10
339.8419290874
 20
240.2959691972
 10
339.8371491674
 20
240.2941333741
 10
339.8359540943
 20
240.2936773986
 10
339.835655326
 20
240.2935611695
 10
339.8355808202
 20
240.2935343474
 10
339.8355621938
 20
240.2935254068
 10
339.8355584685
 20
240.2935254068
  0
ARC
  5
3B6
330
1F
100
AcDbEntity
  8
0
  6
Continuous
 62
     7
370
    25
100
AcDbCircle
 10
340.1389452418
 20
242.3600684498
 30
0.0
 40
0.0986443751448404
100
AcDbArc
 50
252.4262881223
 51
348.3519492108
  0
LWPOLYLINE
  5
3B7
330
1F
100
AcDbEntity
  8
0
  6
Continuous
 62
     7
370
    25
100
AcDbPolyline
 90
       10
 70
   128
 43
0.0
 10
340.1091612969
 20
242.4170422048
 10
339.9374961946
 20
242.3716234655
 10
339.8610472772
 20
242.3513996095
 10
339.8419290874
 20
242.3463451356
 10
339.8371491674
 20
242.3450815171
 10
339.8359540943
 20
242.3447656125
 10
339.835655326
 20
242.3446881265
 10
339.8355808202
 20
242.3446642846
 10
339.8355621938
 20
242.3446642846
 10
339.8355584685
 20
242.3446583242
  0
ARC
  5
3B8
330
1F
100
AcDbEntity
  8
0
  6
Continuous
 62
     7
370
    25
100
AcDbCircle
 10
305.9016355904
 20
123.7527106134
 30
0.0
 40
123.3513728490046
100
AcDbArc
 50
73.8998150737
 51
74.0320456286
  0
LWPOLYLINE
  5
3B9
330
1F
100
AcDbEntity
  8
0
  6
Continuous
 62
     7
370
    25
100
AcDbPolyline
 90
        8
 70
   128
 43
0.0
 10
340.1091612969
 20
244.2195224256
 10
340.1229918096
 20
244.2148673028
 10
340.1575718168
 20
244.2091989011
 10
340.1897586975
 20
244.2121672124
 10
340.2158897463
 20
244.2233311624
 10
340.2329616342
 20
244.2412840814
 10
340.2355574165
 20
244.2465948552
 10
340.2355581615
 20
244.2465948552
  0
LWPOLYLINE
  5
3BA
330
1F
100
AcDbEntity
  8
0
  6
Continuous
 62
     7
370
    25
100
AcDbPolyline
 90
       10
 70
   128
 43
0.0
 10
339.8355584685
 20
244.3251418561
 10
339.8355621938
 20
244.3251358956
 10
339.8355808202
 20
244.3251299352
 10
339.835655326
 20
244.3251001329
 10
339.8359540943
 20
244.324986884
 10
339.8371491674
 20
244.3245279283
 10
339.8419290874
 20
244.3226980657
 10
339.8610472772
 20
244.3153666944
 10
339.9374961946
 20
244.2859816045
 10
340.1091612969
 20
244.2195224256
  0
LINE
  5
3BB
330
1F
100
AcDbEntity
  8
0
  6
Continuous
 62
     7
370
    25
100
AcDbLine
 10
340.1091612969
 20
242.4170422048
 30
0.0
 11
340.1165362541
 21
242.4129890889
 31
0.0
  0
LINE
  5
3BC
330
1F
100
AcDbEntity
  8
0
  6
Continuous
 62
     7
370
    25
100
AcDbLine
 10
339.2855584715
 20
228.7540423364
 30
0.0
 11
339.2855584715
 21
222.754042098
 31
0.0
  0
LINE
  5
3BD
330
1F
100
AcDbEntity
  8
0
  6
Continuous
 62
     7
370
    25
100
AcDbLine
 10
338.2855583075
 20
228.7540423364
 30
0.0
 11
338.2855583075
 21
222.754042098
 31
0.0
  0
LINE
  5
3BE
330
1F
100
AcDbEntity
  8
0
  6
Continuous
 62
     7
370
    25
100
AcDbLine
 10
340.7855581585
 20
228.3540415258
 30
0.0
 11
340.7855581585
 21
223.1540399283
 31
0.0
  0
LWPOLYLINE
  5
3BF
330
1F
100
AcDbEntity
  8
0
  6
Continuous
 62
     7
370
    25
100
AcDbPolyline
 90
       12
 70
   128
 43
0.0
 10
340.2355581615
 20
223.3521180839
 10
340.2355574165
 20
223.3521180839
 10
340.2355525736
 20
223.3521270246
 10
340.235532457
 20
223.3521598071
 10
340.2354519907
 20
223.3522909373
 10
340.235121185
 20
223.352812478
 10
340.2336545382
 20
223.3548479766
 10
340.2254987601
 20
223.3621495456
 10
340.2034737263
 20
223.3707922191
 10
340.173820043
 20
223.3732747525
 10
340.139923254
 20
223.369162032
 10
340.1091612969
 20
223.3601974935
  0
LWPOLYLINE
  5
3C0
330
1F
100
AcDbEntity
  8
0
  6
Continuous
 62
     7
370
    25
100
AcDbPolyline
 90
       10
 70
   128
 43
0.0
 10
340.1091612969
 20
223.3601974935
 10
339.9374961946
 20
223.2963817805
 10
339.8610472772
 20
223.2682036847
 10
339.8419290874
 20
223.2611762971
 10
339.8371491674
 20
223.2594239205
 10
339.8359540943
 20
223.2589828462
 10
339.835655326
 20
223.2588755578
 10
339.8355808202
 20
223.2588457555
 10
339.8355621938
 20
223.258839795
 10
339.8355584685
 20
223.258839795
  0
ARC
  5
3C1
330
1F
100
AcDbEntity
  8
0
  6
Continuous
 62
     7
370
    25
100
AcDbCircle
 10
340.1434696362
 20
224.9721415733
 30
0.0
 40
0.0955641915738479
100
AcDbArc
 50
15.5000895686
 51
111.0393057097
  0
LWPOLYLINE
  5
3C2
330
1F
100
AcDbEntity
  8
0
  6
Continuous
 62
     7
370
    25
100
AcDbPolyline
 90
       10
 70
   128
 43
0.0
 10
340.1091612969
 20
225.061334917
 10
339.9374961946
 20
225.0028866023
 10
339.8610472772
 20
224.9769436807
 10
339.8419290874
 20
224.9704646558
 10
339.8371491674
 20
224.9688463897
 10
339.8359540943
 20
224.9684410781
 10
339.835655326
 20
224.9683397502
 10
339.8355808202
 20
224.9683159083
 10
339.8355621938
 20
224.9683069676
 10
339.8355584685
 20
224.9683069676
  0
ARC
  5
3C3
330
1F
100
AcDbEntity
  8
0
  6
Continuous
 62
     7
370
    25
100
AcDbCircle
 10
340.1507501085
 20
227.115560662
 30
0.0
 40
0.0897105758817992
100
AcDbArc
 50
242.3810749606
 51
340.9706687573
  0
ARC
  5
3C4
330
1F
100
AcDbEntity
  8
0
  6
Continuous
 62
     7
370
    25
100
AcDbCircle
 10
320.1120405335
 20
173.8008572274
 30
0.0
 40
56.86715212194659
100
AcDbArc
 50
69.4119598093
 51
69.7061495265
  0
ARC
  5
3C5
330
1F
100
AcDbEntity
  8
0
  6
Continuous
 62
     7
370
    25
100
AcDbCircle
 10
340.2030044379
 20
228.7651031991
 30
0.0
 40
0.3720171792065906
100
AcDbArc
 50
255.3890166772
 51
275.0201434323
  0
ARC
  5
3C6
330
1F
100
AcDbEntity
  8
0
  6
Continuous
 62
     7
370
    25
100
AcDbCircle
 10
328.8665289241
 20
195.4014748751
 30
0.0
 40
34.86598857633849
100
AcDbArc
 50
71.1886808099
 51
71.6630040129
  0
LWPOLYLINE
  5
3C7
330
1F
100
AcDbEntity
  8
0
  6
Continuous
 62
     7
370
    25
100
AcDbPolyline
 90
        3
 70
   128
 43
0.0
 10
340.1183541957
 20
224.914632985
 10
340.1166923437
 20
224.9135064572
 10
340.1136666629
 20
224.9131220073
  0
LINE
  5
3C8
330
1F
100
AcDbEntity
  8
0
  6
Continuous
 62
     7
370
    25
100
AcDbLine
 10
340.1180524472
 20
227.1775739879
 30
0.0
 11
340.1201862935
 21
227.1772819251
 31
0.0
  0
LINE
  5
3C9
330
1F
100
AcDbEntity
  8
0
  6
Continuous
 62
     7
370
    25
100
AcDbLine
 10
340.1262633596
 20
223.2490646333
 30
0.0
 11
340.1260506455
 21
223.2490884751
 31
0.0
  0
ARC
  5
3CA
330
1F
100
AcDbEntity
  8
0
  6
Continuous
 62
     7
370
    25
100
AcDbCircle
 10
276.1901183031
 20
200.2502073911
 30
0.0
 40
0.600545938021463
100
AcDbArc
 50
338.9029077843
 51
358.9345913774
  0
LINE
  5
3CB
330
1F
100
AcDbEntity
  8
0
  6
Continuous
 62
     7
370
    25
100
AcDbLine
 10
332.7205583546
 20
200.0340412051
 30
0.0
 11
332.7205583546
 21
200.23904095
 31
0.0
  0
LINE
  5
3CC
330
1F
100
AcDbEntity
  8
0
  6
Continuous
 62
     7
370
    25
100
AcDbLine
 10
276.75041073
 20
200.0340412051
 30
0.0
 11
332.7205583546
 21
200.0340412051
 31
0.0
  0
ARC
  5
3CD
330
1F
100
AcDbEntity
  8
0
  6
Continuous
 62
     7
370
    25
100
AcDbCircle
 10
276.8017257846
 20
199.6385386621
 30
0.0
 40
0.6006060798676551
100
AcDbArc
 50
91.0651993296
 51
111.0952258581
  0
LINE
  5
3CE
330
1F
100
AcDbEntity
  8
0
  6
Continuous
 62
     7
370
    25
100
AcDbLine
 10
276.5855562035
 20
254.7441887349
 30
0.0
 11
276.5855562035
 21
200.1988942415
 31
0.0
  0
ARC
  5
3CF
330
1F
100
AcDbEntity
  8
0
  6
Continuous
 62
     7
370
    25
100
AcDbCircle
 10
276.8528799384
 20
254.3884083072
 30
0.0
 40
0.4450187547160105
100
AcDbArc
 50
98.0500429812
 51
126.9202039681
  0
LINE
  5
3D0
330
1F
100
AcDbEntity
  8
0
  6
Continuous
 62
     7
370
    25
100
AcDbLine
 10
276.75041073
 20
200.0340412051
 30
0.0
 11
276.75041073
 21
200.1140410692
 31
0.0
  0
ARC
  5
3D1
330
1F
100
AcDbEntity
  8
0
  6
Continuous
 62
     7
370
    25
100
AcDbCircle
 10
276.5391535983
 20
200.2508443351
 30
0.0
 40
0.2516837485138039
100
AcDbArc
 50
327.0742156287
 51
357.3119746386
  0
ARC
  5
3D2
330
1F
100
AcDbEntity
  8
0
  6
Continuous
 62
     7
370
    25
100
AcDbCircle
 10
276.8023564268
 20
199.9876312612
 30
0.0
 40
0.2516862677815248
100
AcDbArc
 50
92.6863172094
 51
122.9242205259
  0
LINE
  5
3D3
330
1F
100
AcDbEntity
  8
0
  6
Continuous
 62
     7
370
    25
100
AcDbLine
 10
276.5855562035
 20
200.1988942415
 30
0.0
 11
276.6655575577
 21
200.1988942415
 31
0.0
  0
LINE
  5
3D4
330
1F
100
AcDbEntity
  8
0
  6
Continuous
 62
     7
370
    25
100
AcDbLine
 10
276.6655575577
 20
254.8290419072
 30
0.0
 11
276.7905604187
 21
254.8290419072
 31
0.0
  0
LINE
  5
3D5
330
1F
100
AcDbEntity
  8
0
  6
Continuous
 62
     7
370
    25
100
AcDbLine
 10
276.6655575577
 20
254.8290419072
 30
0.0
 11
276.6655575577
 21
255.034040162
 31
0.0
  0
LINE
  5
3D6
330
1F
100
AcDbEntity
  8
0
  6
Continuous
 62
     7
370
    25
100
AcDbLine
 10
276.6655575577
 20
255.034040162
 30
0.0
 11
276.7905604187
 21
255.034040162
 31
0.0
  0
LINE
  5
3D7
330
1F
100
AcDbEntity
  8
0
  6
Continuous
 62
     7
370
    25
100
AcDbLine
 10
276.7905604187
 20
255.034040162
 30
0.0
 11
332.7205583546
 21
255.034040162
 31
0.0
  0
LINE
  5
3D8
330
1F
100
AcDbEntity
  8
0
  6
Continuous
 62
     7
370
    25
100
AcDbLine
 10
332.7205583546
 20
254.8290419072
 30
0.0
 11
332.7205583546
 21
255.034040162
 31
0.0
  0
ARC
  5
3D9
330
1F
100
AcDbEntity
  8
0
  6
Continuous
 62
     7
370
    25
100
AcDbCircle
 10
332.7130125824
 20
253.7251588023
 30
0.0
 40
1.103908894844968
100
AcDbArc
 50
78.8989856165
 51
89.6083514961
  0
LINE
  5
3DA
330
1F
100
AcDbEntity
  8
0
  6
Continuous
 62
     7
370
    25
100
AcDbLine
 10
332.9255584721
 20
200.23904095
 30
0.0
 11
332.9255584721
 21
254.8084127397
 31
0.0
  0
LINE
  5
3DB
330
1F
100
AcDbEntity
  8
0
  6
Continuous
 62
     7
370
    25
100
AcDbLine
 10
332.9255584721
 20
200.23904095
 30
0.0
 11
332.7205583546
 21
200.23904095
 31
0.0
  0
ARC
  5
3DC
330
1F
100
AcDbEntity
  8
0
  6
Continuous
 62
     7
370
    25
100
AcDbCircle
 10
276.7703765258
 20
254.8375393077
 30
0.0
 40
0.1850155597435016
100
AcDbArc
 50
124.5093951649
 51
182.6324083839
  0
LINE
  5
3DD
330
1F
100
AcDbEntity
  8
0
  6
Continuous
 62
     7
370
    25
100
AcDbLine
 10
276.5855562035
 20
254.8290419072
 30
0.0
 11
276.6655575577
 21
254.8290419072
 31
0.0
  0
LINE
  5
3DE
330
1F
100
AcDbEntity
  8
0
  6
Continuous
 62
     7
370
    25
100
AcDbLine
 10
332.8455582354
 20
200.1140410692
 30
0.0
 11
332.8455582354
 21
200.0340412051
 31
0.0
  0
LINE
  5
3DF
330
1F
100
AcDbEntity
  8
0
  6
Continuous
 62
     7
370
    25
100
AcDbLine
 10
332.8455582354
 20
200.1140410692
 30
0.0
 11
332.7205583546
 21
200.1140410692
 31
0.0
  0
LINE
  5
3E0
330
1F
100
AcDbEntity
  8
0
  6
Continuous
 62
     7
370
    25
100
AcDbLine
 10
332.7205583546
 20
200.0340412051
 30
0.0
 11
332.8455582354
 21
200.0340412051
 31
0.0
  0
LINE
  5
3E1
330
1F
100
AcDbEntity
  8
0
  6
Continuous
 62
     7
370
    25
100
AcDbLine
 10
332.9255584721
 20
254.8290419072
 30
0.0
 11
332.8455582354
 21
254.8290419072
 31
0.0
  0
LINE
  5
3E2
330
1F
100
AcDbEntity
  8
0
  6
Continuous
 62
     7
370
    25
100
AcDbLine
 10
332.9255584721
 20
254.8290419072
 30
0.0
 11
332.9255584721
 21
254.8084127397
 31
0.0
  0
LINE
  5
3E3
330
1F
100
AcDbEntity
  8
0
  6
Continuous
 62
     7
370
    25
100
AcDbLine
 10
332.8455582354
 20
254.8290419072
 30
0.0
 11
332.8455582354
 21
254.820274064
 31
0.0
  0
ARC
  5
3E4
330
1F
100
AcDbEntity
  8
0
  6
Continuous
 62
     7
370
    25
100
AcDbCircle
 10
332.7205582931
 20
254.8290413202
 30
0.0
 40
0.125
100
AcDbArc
 50
0.0
 51
90.0
  0
ARC
  5
3E5
330
1F
100
AcDbEntity
  8
0
  6
Continuous
 62
     7
370
    25
100
AcDbCircle
 10
332.7205582931
 20
254.8290413202
 30
0.0
 40
0.2049999999999841
100
AcDbArc
 50
0.0
 51
90.0
  0
LINE
  5
3E6
330
1F
100
AcDbEntity
  8
0
  6
Continuous
 62
     7
370
    25
100
AcDbLine
 10
276.6655575577
 20
254.8290419072
 30
0.0
 11
276.6655575577
 21
254.7929810971
 31
0.0
  0
LINE
  5
3E7
330
1F
100
AcDbEntity
  8
0
  6
Continuous
 62
     7
370
    25
100
AcDbLine
 10
276.5855562035
 20
254.8290419072
 30
0.0
 11
276.5855562035
 21
254.7441887349
 31
0.0
  0
LWPOLYLINE
  5
3E8
330
1F
100
AcDbEntity
  8
0
  6
Continuous
 62
     7
370
    25
100
AcDbPolyline
 90
        3
 70
   128
 43
0.0
 10
276.7221283261
 20
200.2219679445
 10
276.7461013142
 20
200.1945870608
 10
276.7737459485
 20
200.170412907
  0
ARC
  5
3E9
330
1F
100
AcDbEntity
  8
0
  6
Continuous
 62
     7
370
    25
100
AcDbCircle
 10
332.5705582931
 20
200.3890413202
 30
0.0
 40
0.2750000000000032
100
AcDbArc
 50
303.0557311508
 51
326.9442688491
  0
ENDSEC
  0
SECTION
  2
OBJECTS
  0
DICTIONARY
  5
C
330
0
100
AcDbDictionary
281
     1
  3
ACAD_DETAILVIEWSTYLE
350
3F1
  3
ACAD_GROUP
350
D
  3
ACAD_LAYOUT
350
1A
  3
ACAD_MATERIAL
350
43
  3
ACAD_MLEADERSTYLE
350
6B
  3
ACAD_MLINESTYLE
350
17
  3
ACAD_PLOTSETTINGS
350
19
  3
ACAD_PLOTSTYLENAME
350
E
  3
ACAD_SCALELIST
350
47
  3
ACAD_SECTIONVIEWSTYLE
350
3F2
  3
ACAD_TABLESTYLE
350
69
  3
ACAD_VISUALSTYLE
350
2A
  3
ACDB_RECOMPOSE_DATA
350
3EE
  3
AcDbVariableDictionary
350
3EA
  0
SUN
  5
6D
330
29
100
AcDbSun
 90
        1
290
     0
 63
     7
421
 16777215
 40
1.0
291
     1
 91
  2455826
 92
 54000000
292
     0
 70
     2
 71
   256
280
     1
  0
DICTIONARY
  5
3F1
102
{ACAD_REACTORS
330
C
102
}
330
C
100
AcDbDictionary
281
     1
  0
DICTIONARY
  5
D
102
{ACAD_REACTORS
330
C
102
}
330
C
100
AcDbDictionary
281
     1
  0
DICTIONARY
  5
1A
102
{ACAD_REACTORS
330
C
102
}
330
C
100
AcDbDictionary
281
     1
  3
Layout1
350
1E
  3
Layout2
350
26
  3
Model
350
22
  0
DICTIONARY
  5
43
102
{ACAD_REACTORS
330
C
102
}
330
C
100
AcDbDictionary
281
     1
  3
ByBlock
350
45
  3
ByLayer
350
44
  3
Global
350
46
  0
DICTIONARY
  5
6B
102
{ACAD_REACTORS
330
C
102
}
330
C
100
AcDbDictionary
281
     1
  3
Standard
350
6C
  0
DICTIONARY
  5
17
102
{ACAD_REACTORS
330
C
102
}
330
C
100
AcDbDictionary
281
     1
  3
Standard
350
18
  0
DICTIONARY
  5
19
102
{ACAD_REACTORS
330
C
102
}
330
C
100
AcDbDictionary
281
     1
  0
ACDBDICTIONARYWDFLT
  5
E
102
{ACAD_REACTORS
330
C
102
}
330
C
100
AcDbDictionary
281
     1
  3
Normal
350
F
100
AcDbDictionaryWithDefault
340
F
  0
DICTIONARY
  5
47
102
{ACAD_REACTORS
330
C
102
}
330
C
100
AcDbDictionary
281
     1
  3
A0
350
48
  3
A1
350
49
  3
A2
350
4A
  3
A3
350
4B
  3
A4
350
4C
  3
A5
350
4D
  3
A6
350
4E
  3
A7
350
4F
  3
A8
350
50
  3
A9
350
51
  3
B0
350
52
  3
B1
350
53
  3
B2
350
54
  3
B3
350
55
  3
B4
350
56
  3
B5
350
57
  3
B6
350
58
  3
B7
350
59
  3
B8
350
5A
  3
B9
350
5B
  3
C0
350
5C
  3
C1
350
5D
  3
C2
350
5E
  3
C3
350
5F
  3
C4
350
60
  3
C5
350
61
  3
C6
350
62
  3
C7
350
63
  3
C8
350
64
  3
C9
350
65
  3
D0
350
66
  3
D1
350
67
  3
D2
350
68
  0
DICTIONARY
  5
3F2
102
{ACAD_REACTORS
330
C
102
}
330
C
100
AcDbDictionary
281
     1
  0
DICTIONARY
  5
69
102
{ACAD_REACTORS
330
C
102
}
330
C
100
AcDbDictionary
281
     1
  3
Standard
350
6A
  0
DICTIONARY
  5
2A
102
{ACAD_REACTORS
330
C
102
}
330
C
100
AcDbDictionary
281
     1
  3
2dWireframe
350
2F
  3
Basic
350
32
  3
Brighten
350
36
  3
ColorChange
350
3A
  3
Conceptual
350
34
  3
Dim
350
35
  3
EdgeColorOff
350
3D
  3
Facepattern
350
39
  3
Flat
350
2B
  3
FlatWithEdges
350
2C
  3
Gouraud
350
2D
  3
GouraudWithEdges
350
2E
  3
Hidden
350
31
  3
JitterOff
350
3B
  3
Linepattern
350
38
  3
OverhangOff
350
3C
  3
Realistic
350
33
  3
Shaded
350
42
  3
Shaded with edges
350
41
  3
Shades of Gray
350
3E
  3
Sketchy
350
3F
  3
Thicken
350
37
  3
Wireframe
350
30
  3
X-Ray
350
40
  0
XRECORD
  5
3EE
102
{ACAD_REACTORS
330
C
102
}
330
C
100
AcDbXrecord
280
     1
 90
        1
330
6A
  0
DICTIONARY
  5
3EA
102
{ACAD_REACTORS
330
C
102
}
330
C
100
AcDbDictionary
281
     1
  3
CANNOSCALE
350
3EB
  3
CMLEADERSTYLE
350
3F0
  3
CTABLESTYLE
350
3EF
  0
LAYOUT
  5
1E
102
{ACAD_REACTORS
330
1A
102
}
330
1A
100
AcDbPlotSettings
  1

  2
none_device
  4

  6

 40
0.0
 41
0.0
 42
0.0
 43
0.0
 44
0.0
 45
0.0
 46
0.0
 47
0.0
 48
0.0
 49
0.0
140
0.0
141
0.0
142
1.0
143
1.0
 70
   688
 72
     1
 73
     0
 74
     5
  7

 75
    16
 76
     0
 77
     2
 78
   300
147
1.0
148
0.0
149
0.0
100
AcDbLayout
  1
Layout1
 70
     1
 71
     1
 10
0.0
 20
0.0
 11
420.0
 21
297.0
 12
0.0
 22
0.0
 32
0.0
 14
1.0000000000E+20
 24
1.0000000000E+20
 34
1.0000000000E+20
 15
-1.0000000000E+20
 25
-1.0000000000E+20
 35
-1.0000000000E+20
146
0.0
 13
0.0
 23
0.0
 33
0.0
 16
1.0
 26
0.0
 36
0.0
 17
0.0
 27
1.0
 37
0.0
 76
     0
330
1B
  0
LAYOUT
  5
26
102
{ACAD_REACTORS
330
1A
102
}
330
1A
100
AcDbPlotSettings
  1

  2
none_device
  4

  6

 40
0.0
 41
0.0
 42
0.0
 43
0.0
 44
0.0
 45
0.0
 46
0.0
 47
0.0
 48
0.0
 49
0.0
140
0.0
141
0.0
142
1.0
143
1.0
 70
   688
 72
     1
 73
     0
 74
     5
  7

 75
    16
 76
     0
 77
     2
 78
   300
147
1.0
148
0.0
149
0.0
100
AcDbLayout
  1
Layout2
 70
     1
 71
     2
 10
0.0
 20
0.0
 11
0.0
 21
0.0
 12
0.0
 22
0.0
 32
0.0
 14
0.0
 24
0.0
 34
0.0
 15
0.0
 25
0.0
 35
0.0
146
0.0
 13
0.0
 23
0.0
 33
0.0
 16
1.0
 26
0.0
 36
0.0
 17
0.0
 27
1.0
 37
0.0
 76
     0
330
23
  0
LAYOUT
  5
22
102
{ACAD_REACTORS
330
1A
102
}
330
1A
100
AcDbPlotSettings
  1

  2
none_device
  4
Letter_(8.50_x_11.00_Inches)
  6

 40
6.35
 41
6.35
 42
6.35000508
 43
6.35000508
 44
215.9
 45
279.4
 46
0.0
 47
0.0
 48
0.0
 49
0.0
140
0.0
141
0.0
142
1.0
143
1.0
 70
  1712
 72
     1
 73
     0
 74
     0
  7

 75
     0
 76
     0
 77
     2
 78
   300
147
1.0
148
0.0
149
0.0
100
AcDbLayout
  1
Model
 70
     1
 71
     0
 10
0.0
 20
0.0
 11
594.0
 21
420.0
 12
0.0
 22
0.0
 32
0.0
 14
0.0
 24
0.0
 34
0.0
 15
594.0
 25
420.0
 35
0.0
146
0.0
 13
0.0
 23
0.0
 33
0.0
 16
1.0
 26
0.0
 36
0.0
 17
0.0
 27
1.0
 37
0.0
 76
     0
330
1F
331
29
  0
MATERIAL
  5
45
102
{ACAD_REACTORS
330
43
102
}
330
43
100
AcDbMaterial
  1
ByBlock
 72
     1
 94
      127
  0
MATERIAL
  5
44
102
{ACAD_REACTORS
330
43
102
}
330
43
100
AcDbMaterial
  1
ByLayer
 72
     1
 94
      127
  0
MATERIAL
  5
46
102
{ACAD_REACTORS
330
43
102
}
330
43
100
AcDbMaterial
  1
Global
 72
     1
 94
      127
  0
MLEADERSTYLE
  5
6C
102
{ACAD_REACTORS
330
6B
102
}
330
6B
100
AcDbMLeaderStyle
179
     2
170
     2
171
     1
172
     0
 90
        2
 40
0.0
 41
0.0
173
     1
 91
-1056964608
340
14
 92
       -2
290
     1
 42
2.0
291
     1
 43
8.0
  3
Standard
341
0
 44
4.0
300

342
11
174
     1
178
     6
175
     1
176
     0
 93
-1056964608
 45
4.0
292
     0
297
     0
 46
4.0
343
0
 94
-1056964608
 47
1.0
 49
1.0
140
1.0
293
     1
141
0.0
294
     1
177
     0
142
1.0
295
     0
296
     0
143
3.75
271
     0
272
     9
273
     9
298
     0
  0
MLINESTYLE
  5
18
102
{ACAD_REACTORS
330
17
102
}
330
17
100
AcDbMlineStyle
  2
Standard
 70
     0
  3

 62
   256
 51
90.0
 52
90.0
 71
     2
 49
0.5
 62
   256
  6
BYLAYER
 49
-0.5
 62
   256
  6
BYLAYER
  0
ACDBPLACEHOLDER
  5
F
102
{ACAD_REACTORS
330
E
102
}
330
E
  0
SCALE
  5
48
102
{ACAD_REACTORS
330
47
102
}
330
47
100
AcDbScale
 70
     0
300
1:1
140
1.0
141
1.0
290
     1
  0
SCALE
  5
49
102
{ACAD_REACTORS
330
47
102
}
330
47
100
AcDbScale
 70
     0
300
1:2
140
1.0
141
2.0
290
     0
  0
SCALE
  5
4A
102
{ACAD_REACTORS
330
47
102
}
330
47
100
AcDbScale
 70
     0
300
1:4
140
1.0
141
4.0
290
     0
  0
SCALE
  5
4B
102
{ACAD_REACTORS
330
47
102
}
330
47
100
AcDbScale
 70
     0
300
1:5
140
1.0
141
5.0
290
     0
  0
SCALE
  5
4C
102
{ACAD_REACTORS
330
47
102
}
330
47
100
AcDbScale
 70
     0
300
1:8
140
1.0
141
8.0
290
     0
  0
SCALE
  5
4D
102
{ACAD_REACTORS
330
47
102
}
330
47
100
AcDbScale
 70
     0
300
1:10
140
1.0
141
10.0
290
     0
  0
SCALE
  5
4E
102
{ACAD_REACTORS
330
47
102
}
330
47
100
AcDbScale
 70
     0
300
1:16
140
1.0
141
16.0
290
     0
  0
SCALE
  5
4F
102
{ACAD_REACTORS
330
47
102
}
330
47
100
AcDbScale
 70
     0
300
1:20
140
1.0
141
20.0
290
     0
  0
SCALE
  5
50
102
{ACAD_REACTORS
330
47
102
}
330
47
100
AcDbScale
 70
     0
300
1:30
140
1.0
141
30.0
290
     0
  0
SCALE
  5
51
102
{ACAD_REACTORS
330
47
102
}
330
47
100
AcDbScale
 70
     0
300
1:40
140
1.0
141
40.0
290
     0
  0
SCALE
  5
52
102
{ACAD_REACTORS
330
47
102
}
330
47
100
AcDbScale
 70
     0
300
1:50
140
1.0
141
50.0
290
     0
  0
SCALE
  5
53
102
{ACAD_REACTORS
330
47
102
}
330
47
100
AcDbScale
 70
     0
300
1:100
140
1.0
141
100.0
290
     0
  0
SCALE
  5
54
102
{ACAD_REACTORS
330
47
102
}
330
47
100
AcDbScale
 70
     0
300
2:1
140
2.0
141
1.0
290
     0
  0
SCALE
  5
55
102
{ACAD_REACTORS
330
47
102
}
330
47
100
AcDbScale
 70
     0
300
4:1
140
4.0
141
1.0
290
     0
  0
SCALE
  5
56
102
{ACAD_REACTORS
330
47
102
}
330
47
100
AcDbScale
 70
     0
300
8:1
140
8.0
141
1.0
290
     0
  0
SCALE
  5
57
102
{ACAD_REACTORS
330
47
102
}
330
47
100
AcDbScale
 70
     0
300
10:1
140
10.0
141
1.0
290
     0
  0
SCALE
  5
58
102
{ACAD_REACTORS
330
47
102
}
330
47
100
AcDbScale
 70
     0
300
100:1
140
100.0
141
1.0
290
     0
  0
SCALE
  5
59
102
{ACAD_REACTORS
330
47
102
}
330
47
100
AcDbScale
 70
     0
300
1/128" = 1'-0"
140
0.0078125
141
12.0
290
     0
  0
SCALE
  5
5A
102
{ACAD_REACTORS
330
47
102
}
330
47
100
AcDbScale
 70
     0
300
1/64" = 1'-0"
140
0.015625
141
12.0
290
     0
  0
SCALE
  5
5B
102
{ACAD_REACTORS
330
47
102
}
330
47
100
AcDbScale
 70
     0
300
1/32" = 1'-0"
140
0.03125
141
12.0
290
     0
  0
SCALE
  5
5C
102
{ACAD_REACTORS
330
47
102
}
330
47
100
AcDbScale
 70
     0
300
1/16" = 1'-0"
140
0.0625
141
12.0
290
     0
  0
SCALE
  5
5D
102
{ACAD_REACTORS
330
47
102
}
330
47
100
AcDbScale
 70
     0
300
3/32" = 1'-0"
140
0.09375
141
12.0
290
     0
  0
SCALE
  5
5E
102
{ACAD_REACTORS
330
47
102
}
330
47
100
AcDbScale
 70
     0
300
1/8" = 1'-0"
140
0.125
141
12.0
290
     0
  0
SCALE
  5
5F
102
{ACAD_REACTORS
330
47
102
}
330
47
100
AcDbScale
 70
     0
300
3/16" = 1'-0"
140
0.1875
141
12.0
290
     0
  0
SCALE
  5
60
102
{ACAD_REACTORS
330
47
102
}
330
47
100
AcDbScale
 70
     0
300
1/4" = 1'-0"
140
0.25
141
12.0
290
     0
  0
SCALE
  5
61
102
{ACAD_REACTORS
330
47
102
}
330
47
100
AcDbScale
 70
     0
300
3/8" = 1'-0"
140
0.375
141
12.0
290
     0
  0
SCALE
  5
62
102
{ACAD_REACTORS
330
47
102
}
330
47
100
AcDbScale
 70
     0
300
1/2" = 1'-0"
140
0.5
141
12.0
290
     0
  0
SCALE
  5
63
102
{ACAD_REACTORS
330
47
102
}
330
47
100
AcDbScale
 70
     0
300
3/4" = 1'-0"
140
0.75
141
12.0
290
     0
  0
SCALE
  5
64
102
{ACAD_REACTORS
330
47
102
}
330
47
100
AcDbScale
 70
     0
300
1" = 1'-0"
140
1.0
141
12.0
290
     0
  0
SCALE
  5
65
102
{ACAD_REACTORS
330
47
102
}
330
47
100
AcDbScale
 70
     0
300
1-1/2" = 1'-0"
140
1.5
141
12.0
290
     0
  0
SCALE
  5
66
102
{ACAD_REACTORS
330
47
102
}
330
47
100
AcDbScale
 70
     0
300
3" = 1'-0"
140
3.0
141
12.0
290
     0
  0
SCALE
  5
67
102
{ACAD_REACTORS
330
47
102
}
330
47
100
AcDbScale
 70
     0
300
6" = 1'-0"
140
6.0
141
12.0
290
     0
  0
SCALE
  5
68
102
{ACAD_REACTORS
330
47
102
}
330
47
100
AcDbScale
 70
     0
300
1'-0" = 1'-0"
140
12.0
141
12.0
290
     0
  0
TABLESTYLE
  5
6A
102
{ACAD_REACTORS
330
69
102
}
102
{ACAD_XDICTIONARY
360
3EC
102
}
330
69
100
AcDbTableStyle
  3
Standard
 70
     0
 71
     0
 40
0.06
 41
0.06
280
     0
281
     0
  7
Standard
140
4.5
170
     2
 62
     0
 63
   257
283
     0
 90
        4
 91
        0
  1

274
    -2
284
     1
 64
     0
275
    -2
285
     1
 65
     0
276
    -2
286
     1
 66
     0
277
    -2
287
     1
 67
     0
278
    -2
288
     1
 68
     0
279
    -2
289
     1
 69
     0
  7
Standard
140
6.0
170
     5
 62
     0
 63
   257
283
     0
 90
        4
 91
        0
  1

274
    -2
284
     1
 64
     0
275
    -2
285
     1
 65
     0
276
    -2
286
     1
 66
     0
277
    -2
287
     1
 67
     0
278
    -2
288
     1
 68
     0
279
    -2
289
     1
 69
     0
  7
Standard
140
4.5
170
     5
 62
     0
 63
   257
283
     0
 90
        4
 91
        0
  1

274
    -2
284
     1
 64
     0
275
    -2
285
     1
 65
     0
276
    -2
286
     1
 66
     0
277
    -2
287
     1
 67
     0
278
    -2
288
     1
 68
     0
279
    -2
289
     1
 69
     0
  0
VISUALSTYLE
  5
2F
102
{ACAD_REACTORS
330
2A
102
}
330
2A
100
AcDbVisualStyle
  2
2dWireframe
 70
     4
177
     3
291
     0
 70
    58
 90
        0
176
     1
 90
        2
176
     1
 90
        0
176
     1
 90
        0
176
     1
 40
0.6
176
     1
 40
30.0
176
     1
 62
     7
420
 16777215
176
     1
 90
        1
176
     1
 90
        4
176
     1
 62
     7
176
     1
 62
   257
176
     1
 90
        1
176
     1
 90
        1
176
     1
 40
1.0
176
     1
 90
        0
176
     1
 62
   257
176
     1
 40
1.0
176
     1
 90
        1
176
     1
 90
        6
176
     1
 90
        2
176
     1
 62
     7
176
     1
 90
        5
176
     1
 90
        0
176
     1
 90
        0
176
     1
290
     0
176
     1
 90
        1
176
     1
 40
0.0
176
     1
 90
        0
176
     1
290
     1
176
     1
290
     1
176
     1
290
     0
176
     1
290
     0
176
     1
290
     0
176
     1
290
     0
176
     1
290
     0
176
     1
290
     0
176
     1
290
     0
176
     1
 90
       50
176
     1
 40
0.0
176
     1
 40
1.0
176
     1
 90
        0
176
     1
 62
    18
420
        0
176
     1
 90
       50
176
     1
 90
        3
176
     1
 62
     5
420
      255
176
     1
290
     0
176
     1
 90
       50
176
     1
 90
       50
176
     1
 90
       50
176
     1
290
     0
176
     1
 90
       50
176
     1
 62
   256
176
     0
 40
1.0
176
     0
 90
        2
176
     1
  1
strokes_ogs.tif
176
     1
290
     0
176
     1
 40
1.0
176
     1
 40
1.0
176
     1
  0
VISUALSTYLE
  5
32
102
{ACAD_REACTORS
330
2A
102
}
330
2A
100
AcDbVisualStyle
  2
Basic
 70
     7
177
     3
291
     1
 70
    58
 90
        1
176
     1
 90
        0
176
     1
 90
        1
176
     1
 90
        0
176
     1
 40
0.6
176
     1
 40
30.0
176
     1
 62
     7
420
 16777215
176
     1
 90
        0
176
     1
 90
        4
176
     1
 62
     7
176
     1
 62
   257
176
     1
 90
        1
176
     1
 90
        1
176
     1
 40
1.0
176
     1
 90
        8
176
     1
 62
     7
176
     1
 40
1.0
176
     1
 90
        1
176
     1
 90
        6
176
     1
 90
        2
176
     1
 62
     7
176
     1
 90
        5
176
     1
 90
        0
176
     1
 90
        0
176
     1
290
     0
176
     1
 90
        1
176
     1
 40
0.0
176
     1
 90
        0
176
     1
290
     0
176
     1
290
     1
176
     1
290
     1
176
     1
290
     0
176
     1
290
     0
176
     1
290
     0
176
     1
290
     0
176
     1
290
     0
176
     1
290
     0
176
     1
 90
       50
176
     1
 40
0.0
176
     1
 40
1.0
176
     1
 90
        0
176
     1
 62
    18
420
        0
176
     1
 90
       50
176
     1
 90
        3
176
     1
 62
     5
420
      255
176
     1
290
     0
176
     1
 90
       50
176
     1
 90
       50
176
     1
 90
       50
176
     1
290
     0
176
     1
 90
       50
176
     1
 62
   256
176
     0
 40
1.0
176
     0
 90
        2
176
     1
  1
strokes_ogs.tif
176
     1
290
     0
176
     1
 40
1.0
176
     1
 40
1.0
176
     1
  0
VISUALSTYLE
  5
36
102
{ACAD_REACTORS
330
2A
102
}
330
2A
100
AcDbVisualStyle
  2
Brighten
 70
    12
177
     3
291
     1
 70
    58
 90
        2
176
     1
 90
        2
176
     1
 90
        0
176
     1
 90
        0
176
     1
 40
0.6
176
     1
 40
30.0
176
     1
 62
     7
420
 16777215
176
     1
 90
        1
176
     1
 90
        4
176
     1
 62
     7
176
     1
 62
   257
176
     1
 90
        1
176
     1
 90
        1
176
     1
 40
1.0
176
     1
 90
        8
176
     1
 62
     7
176
     1
 40
1.0
176
     1
 90
        1
176
     1
 90
        6
176
     1
 90
        2
176
     1
 62
     7
176
     1
 90
        5
176
     1
 90
        0
176
     1
 90
        0
176
     1
290
     0
176
     1
 90
        1
176
     1
 40
50.0
176
     1
 90
        0
176
     1
290
     0
176
     1
290
     1
176
     1
290
     1
176
     1
290
     0
176
     1
290
     0
176
     1
290
     0
176
     1
290
     0
176
     1
290
     0
176
     1
290
     0
176
     1
 90
       50
176
     1
 40
0.0
176
     1
 40
1.0
176
     1
 90
        0
176
     1
 62
    18
420
        0
176
     1
 90
       50
176
     1
 90
        3
176
     1
 62
     5
420
      255
176
     1
290
     0
176
     1
 90
       50
176
     1
 90
       50
176
     1
 90
       50
176
     1
290
     0
176
     1
 90
       50
176
     1
 62
   256
176
     0
 40
1.0
176
     0
 90
        2
176
     1
  1
strokes_ogs.tif
176
     1
290
     0
176
     1
 40
1.0
176
     1
 40
1.0
176
     1
  0
VISUALSTYLE
  5
3A
102
{ACAD_REACTORS
330
2A
102
}
330
2A
100
AcDbVisualStyle
  2
ColorChange
 70
    16
177
     3
291
     1
 70
    58
 90
        2
176
     1
 90
        2
176
     1
 90
        3
176
     1
 90
        0
176
     1
 40
0.6
176
     1
 40
30.0
176
     1
 62
     8
420
  8421504
176
     1
 90
        1
176
     1
 90
        4
176
     1
 62
     7
176
     1
 62
   257
176
     1
 90
        1
176
     1
 90
        1
176
     1
 40
1.0
176
     1
 90
        8
176
     1
 62
     8
420
  8421504
176
     1
 40
1.0
176
     1
 90
        1
176
     1
 90
        6
176
     1
 90
        2
176
     1
 62
     7
176
     1
 90
        5
176
     1
 90
        0
176
     1
 90
        0
176
     1
290
     0
176
     1
 90
        1
176
     1
 40
0.0
176
     1
 90
        0
176
     1
290
     0
176
     1
290
     1
176
     1
290
     1
176
     1
290
     0
176
     1
290
     0
176
     1
290
     0
176
     1
290
     0
176
     1
290
     0
176
     1
290
     0
176
     1
 90
       50
176
     1
 40
0.0
176
     1
 40
1.0
176
     1
 90
        0
176
     1
 62
    18
420
        0
176
     1
 90
       50
176
     1
 90
        3
176
     1
 62
     5
420
      255
176
     1
290
     0
176
     1
 90
       50
176
     1
 90
       50
176
     1
 90
       50
176
     1
290
     0
176
     1
 90
       50
176
     1
 62
   256
176
     0
 40
1.0
176
     0
 90
        2
176
     1
  1
strokes_ogs.tif
176
     1
290
     0
176
     1
 40
1.0
176
     1
 40
1.0
176
     1
  0
VISUALSTYLE
  5
34
102
{ACAD_REACTORS
330
2A
102
}
330
2A
100
AcDbVisualStyle
  2
Conceptual
 70
     9
177
     3
291
     0
 70
    58
 90
        3
176
     1
 90
        2
176
     1
 90
        0
176
     1
 90
        0
176
     1
 40
0.6
176
     1
 40
30.0
176
     1
 62
     7
420
 16777215
176
     1
 90
        2
176
     1
 90
        2
176
     1
 62
     7
176
     1
 62
   257
176
     1
 90
        1
176
     1
 90
        1
176
     1
 40
179.0
176
     1
 90
        8
176
     1
 62
     7
176
     1
 40
1.0
176
     1
 90
        1
176
     1
 90
        6
176
     1
 90
        2
176
     1
 62
     7
176
     1
 90
        3
176
     1
 90
        0
176
     1
 90
        0
176
     1
290
     0
176
     1
 90
        1
176
     1
 40
0.0
176
     1
 90
        0
176
     1
290
     0
176
     1
290
     1
176
     1
290
     1
176
     1
290
     0
176
     1
290
     0
176
     1
290
     0
176
     1
290
     0
176
     1
290
     0
176
     1
290
     0
176
     1
 90
       50
176
     1
 40
0.0
176
     1
 40
1.0
176
     1
 90
        0
176
     1
 62
    18
420
        0
176
     1
 90
       50
176
     1
 90
        3
176
     1
 62
     5
420
      255
176
     1
290
     0
176
     1
 90
       50
176
     1
 90
       50
176
     1
 90
       50
176
     1
290
     0
176
     1
 90
       50
176
     1
 62
   256
176
     0
 40
1.0
176
     0
 90
        2
176
     1
  1
strokes_ogs.tif
176
     1
290
     0
176
     1
 40
1.0
176
     1
 40
1.0
176
     1
  0
VISUALSTYLE
  5
35
102
{ACAD_REACTORS
330
2A
102
}
330
2A
100
AcDbVisualStyle
  2
Dim
 70
    11
177
     3
291
     1
 70
    58
 90
        2
176
     1
 90
        2
176
     1
 90
        0
176
     1
 90
        0
176
     1
 40
0.6
176
     1
 40
30.0
176
     1
 62
     7
420
 16777215
176
     1
 90
        1
176
     1
 90
        4
176
     1
 62
     7
176
     1
 62
   257
176
     1
 90
        1
176
     1
 90
        1
176
     1
 40
1.0
176
     1
 90
        8
176
     1
 62
     7
176
     1
 40
1.0
176
     1
 90
        1
176
     1
 90
        6
176
     1
 90
        2
176
     1
 62
     7
176
     1
 90
        5
176
     1
 90
        0
176
     1
 90
        0
176
     1
290
     0
176
     1
 90
        1
176
     1
 40
-50.0
176
     1
 90
        0
176
     1
290
     0
176
     1
290
     1
176
     1
290
     1
176
     1
290
     0
176
     1
290
     0
176
     1
290
     0
176
     1
290
     0
176
     1
290
     0
176
     1
290
     0
176
     1
 90
       50
176
     1
 40
0.0
176
     1
 40
1.0
176
     1
 90
        0
176
     1
 62
    18
420
        0
176
     1
 90
       50
176
     1
 90
        3
176
     1
 62
     5
420
      255
176
     1
290
     0
176
     1
 90
       50
176
     1
 90
       50
176
     1
 90
       50
176
     1
290
     0
176
     1
 90
       50
176
     1
 62
   256
176
     0
 40
1.0
176
     0
 90
        2
176
     1
  1
strokes_ogs.tif
176
     1
290
     0
176
     1
 40
1.0
176
     1
 40
1.0
176
     1
  0
VISUALSTYLE
  5
3D
102
{ACAD_REACTORS
330
2A
102
}
330
2A
100
AcDbVisualStyle
  2
EdgeColorOff
 70
    22
177
     3
291
     1
 70
    58
 90
        2
176
     0
 90
        2
176
     0
 90
        0
176
     0
 90
        0
176
     0
 40
0.6
176
     0
 40
30.0
176
     0
 62
     7
420
 16777215
176
     0
 90
        1
176
     0
 90
        4
176
     0
 62
     7
176
     0
 62
   257
176
     0
 90
        1
176
     0
 90
        1
176
     0
 40
1.0
176
     0
 90
        8
176
     2
 62
     7
176
     0
 40
1.0
176
     0
 90
        1
176
     0
 90
        6
176
     0
 90
        2
176
     0
 62
     7
176
     0
 90
        5
176
     0
 90
        0
176
     0
 90
        0
176
     0
290
     0
176
     0
 90
        1
176
     0
 40
0.0
176
     0
 90
        0
176
     0
290
     0
176
     0
290
     1
176
     0
290
     1
176
     0
290
     0
176
     0
290
     0
176
     0
290
     0
176
     0
290
     0
176
     0
290
     0
176
     0
290
     0
176
     0
 90
       50
176
     0
 40
0.0
176
     0
 40
1.0
176
     0
 90
        0
176
     0
 62
    18
420
        0
176
     0
 90
       50
176
     0
 90
        3
176
     0
 62
     5
420
      255
176
     0
290
     0
176
     0
 90
       50
176
     0
 90
       50
176
     0
 90
       50
176
     0
290
     0
176
     0
 90
       50
176
     0
 62
   256
176
     0
 40
1.0
176
     0
 90
        2
176
     0
  1
strokes_ogs.tif
176
     0
290
     0
176
     0
 40
1.0
176
     0
 40
1.0
176
     0
  0
VISUALSTYLE
  5
39
102
{ACAD_REACTORS
330
2A
102
}
330
2A
100
AcDbVisualStyle
  2
Facepattern
 70
    15
177
     3
291
     1
 70
    58
 90
        2
176
     1
 90
        2
176
     1
 90
        0
176
     1
 90
        0
176
     1
 40
0.6
176
     1
 40
30.0
176
     1
 62
     7
420
 16777215
176
     1
 90
        1
176
     1
 90
        4
176
     1
 62
     7
176
     1
 62
   257
176
     1
 90
        1
176
     1
 90
        1
176
     1
 40
1.0
176
     1
 90
        8
176
     1
 62
     7
176
     1
 40
1.0
176
     1
 90
        1
176
     1
 90
        6
176
     1
 90
        2
176
     1
 62
     7
176
     1
 90
        5
176
     1
 90
        0
176
     1
 90
        0
176
     1
290
     0
176
     1
 90
        1
176
     1
 40
0.0
176
     1
 90
        0
176
     1
290
     0
176
     1
290
     1
176
     1
290
     1
176
     1
290
     0
176
     1
290
     0
176
     1
290
     0
176
     1
290
     0
176
     1
290
     0
176
     1
290
     0
176
     1
 90
       50
176
     1
 40
0.0
176
     1
 40
1.0
176
     1
 90
        0
176
     1
 62
    18
420
        0
176
     1
 90
       50
176
     1
 90
        3
176
     1
 62
     5
420
      255
176
     1
290
     0
176
     1
 90
       50
176
     1
 90
       50
176
     1
 90
       50
176
     1
290
     0
176
     1
 90
       50
176
     1
 62
   256
176
     0
 40
1.0
176
     0
 90
        2
176
     1
  1
strokes_ogs.tif
176
     1
290
     0
176
     1
 40
1.0
176
     1
 40
1.0
176
     1
  0
VISUALSTYLE
  5
2B
102
{ACAD_REACTORS
330
2A
102
}
330
2A
100
AcDbVisualStyle
  2
Flat
 70
     0
177
     3
291
     1
 70
    58
 90
        2
176
     1
 90
        1
176
     1
 90
        1
176
     1
 90
        2
176
     1
 40
0.6
176
     1
 40
30.0
176
     1
 62
     7
420
 16777215
176
     1
 90
        0
176
     1
 90
        0
176
     1
 62
     7
176
     1
 62
   257
176
     1
 90
        1
176
     1
 90
        1
176
     1
 40
1.0
176
     1
 90
        8
176
     1
 62
     7
176
     1
 40
1.0
176
     1
 90
        1
176
     1
 90
        6
176
     1
 90
        2
176
     1
 62
     7
176
     1
 90
        5
176
     1
 90
        0
176
     1
 90
        0
176
     1
290
     0
176
     1
 90
       13
176
     1
 40
0.0
176
     1
 90
        0
176
     1
290
     0
176
     1
290
     1
176
     1
290
     1
176
     1
290
     0
176
     1
290
     0
176
     1
290
     0
176
     1
290
     0
176
     1
290
     0
176
     1
290
     0
176
     1
 90
       50
176
     1
 40
0.0
176
     1
 40
1.0
176
     1
 90
        0
176
     1
 62
    18
420
        0
176
     1
 90
       50
176
     1
 90
        3
176
     1
 62
     5
420
      255
176
     1
290
     0
176
     1
 90
       50
176
     1
 90
       50
176
     1
 90
       50
176
     1
290
     0
176
     1
 90
       50
176
     1
 62
   256
176
     0
 40
1.0
176
     0
 90
        2
176
     1
  1
strokes_ogs.tif
176
     1
290
     0
176
     1
 40
1.0
176
     1
 40
1.0
176
     1
  0
VISUALSTYLE
  5
2C
102
{ACAD_REACTORS
330
2A
102
}
330
2A
100
AcDbVisualStyle
  2
FlatWithEdges
 70
     1
177
     3
291
     1
 70
    58
 90
        2
176
     1
 90
        1
176
     1
 90
        1
176
     1
 90
        2
176
     1
 40
0.6
176
     1
 40
30.0
176
     1
 62
     7
420
 16777215
176
     1
 90
        1
176
     1
 90
        0
176
     1
 62
     7
176
     1
 62
   257
176
     1
 90
        1
176
     1
 90
        1
176
     1
 40
1.0
176
     1
 90
        0
176
     1
 62
   257
176
     1
 40
1.0
176
     1
 90
        1
176
     1
 90
        6
176
     1
 90
        2
176
     1
 62
     7
176
     1
 90
        5
176
     1
 90
        0
176
     1
 90
        0
176
     1
290
     0
176
     1
 90
       13
176
     1
 40
0.0
176
     1
 90
        0
176
     1
290
     0
176
     1
290
     1
176
     1
290
     1
176
     1
290
     0
176
     1
290
     0
176
     1
290
     0
176
     1
290
     0
176
     1
290
     0
176
     1
290
     0
176
     1
 90
       50
176
     1
 40
0.0
176
     1
 40
1.0
176
     1
 90
        0
176
     1
 62
    18
420
        0
176
     1
 90
       50
176
     1
 90
        3
176
     1
 62
     5
420
      255
176
     1
290
     0
176
     1
 90
       50
176
     1
 90
       50
176
     1
 90
       50
176
     1
290
     0
176
     1
 90
       50
176
     1
 62
   256
176
     0
 40
1.0
176
     0
 90
        2
176
     1
  1
strokes_ogs.tif
176
     1
290
     0
176
     1
 40
1.0
176
     1
 40
1.0
176
     1
  0
VISUALSTYLE
  5
2D
102
{ACAD_REACTORS
330
2A
102
}
330
2A
100
AcDbVisualStyle
  2
Gouraud
 70
     2
177
     3
291
     1
 70
    58
 90
        2
176
     1
 90
        2
176
     1
 90
        1
176
     1
 90
        2
176
     1
 40
0.6
176
     1
 40
30.0
176
     1
 62
     7
420
 16777215
176
     1
 90
        0
176
     1
 90
        0
176
     1
 62
     7
176
     1
 62
   257
176
     1
 90
        1
176
     1
 90
        1
176
     1
 40
1.0
176
     1
 90
        0
176
     1
 62
     7
176
     1
 40
1.0
176
     1
 90
        1
176
     1
 90
        6
176
     1
 90
        2
176
     1
 62
     7
176
     1
 90
        5
176
     1
 90
        0
176
     1
 90
        0
176
     1
290
     0
176
     1
 90
       13
176
     1
 40
0.0
176
     1
 90
        0
176
     1
290
     0
176
     1
290
     1
176
     1
290
     1
176
     1
290
     0
176
     1
290
     0
176
     1
290
     0
176
     1
290
     0
176
     1
290
     0
176
     1
290
     0
176
     1
 90
       50
176
     1
 40
0.0
176
     1
 40
1.0
176
     1
 90
        0
176
     1
 62
    18
420
        0
176
     1
 90
       50
176
     1
 90
        3
176
     1
 62
     5
420
      255
176
     1
290
     0
176
     1
 90
       50
176
     1
 90
       50
176
     1
 90
       50
176
     1
290
     0
176
     1
 90
       50
176
     1
 62
   256
176
     0
 40
1.0
176
     0
 90
        2
176
     1
  1
strokes_ogs.tif
176
     1
290
     0
176
     1
 40
1.0
176
     1
 40
1.0
176
     1
  0
VISUALSTYLE
  5
2E
102
{ACAD_REACTORS
330
2A
102
}
330
2A
100
AcDbVisualStyle
  2
GouraudWithEdges
 70
     3
177
     3
291
     1
 70
    58
 90
        2
176
     1
 90
        2
176
     1
 90
        1
176
     1
 90
        2
176
     1
 40
0.6
176
     1
 40
30.0
176
     1
 62
     7
420
 16777215
176
     1
 90
        1
176
     1
 90
        0
176
     1
 62
     7
176
     1
 62
   257
176
     1
 90
        1
176
     1
 90
        1
176
     1
 40
1.0
176
     1
 90
        0
176
     1
 62
   257
176
     1
 40
1.0
176
     1
 90
        1
176
     1
 90
        6
176
     1
 90
        2
176
     1
 62
     7
176
     1
 90
        5
176
     1
 90
        0
176
     1
 90
        0
176
     1
290
     0
176
     1
 90
       13
176
     1
 40
0.0
176
     1
 90
        0
176
     1
290
     0
176
     1
290
     1
176
     1
290
     1
176
     1
290
     0
176
     1
290
     0
176
     1
290
     0
176
     1
290
     0
176
     1
290
     0
176
     1
290
     0
176
     1
 90
       50
176
     1
 40
0.0
176
     1
 40
1.0
176
     1
 90
        0
176
     1
 62
    18
420
        0
176
     1
 90
       50
176
     1
 90
        3
176
     1
 62
     5
420
      255
176
     1
290
     0
176
     1
 90
       50
176
     1
 90
       50
176
     1
 90
       50
176
     1
290
     0
176
     1
 90
       50
176
     1
 62
   256
176
     0
 40
1.0
176
     0
 90
        2
176
     1
  1
strokes_ogs.tif
176
     1
290
     0
176
     1
 40
1.0
176
     1
 40
1.0
176
     1
  0
VISUALSTYLE
  5
31
102
{ACAD_REACTORS
330
2A
102
}
330
2A
100
AcDbVisualStyle
  2
Hidden
 70
     6
177
     3
291
     0
 70
    58
 90
        1
176
     1
 90
        2
176
     1
 90
        2
176
     1
 90
        0
176
     1
 40
0.6
176
     1
 40
30.0
176
     1
 62
     7
420
 16777215
176
     1
 90
        2
176
     1
 90
        2
176
     1
 62
     7
176
     1
 62
   257
176
     1
 90
        2
176
     1
 90
        1
176
     1
 40
40.0
176
     1
 90
        0
176
     1
 62
   257
176
     1
 40
1.0
176
     1
 90
        1
176
     1
 90
        6
176
     1
 90
        2
176
     1
 62
     7
176
     1
 90
        3
176
     1
 90
        0
176
     1
 90
        0
176
     1
290
     0
176
     1
 90
        1
176
     1
 40
0.0
176
     1
 90
        0
176
     1
290
     0
176
     1
290
     1
176
     1
290
     1
176
     1
290
     0
176
     1
290
     0
176
     1
290
     0
176
     1
290
     0
176
     1
290
     0
176
     1
290
     0
176
     1
 90
       50
176
     1
 40
0.0
176
     1
 40
1.0
176
     1
 90
        0
176
     1
 62
    18
420
        0
176
     1
 90
       50
176
     1
 90
        3
176
     1
 62
     5
420
      255
176
     1
290
     0
176
     1
 90
       50
176
     1
 90
       50
176
     1
 90
       50
176
     1
290
     0
176
     1
 90
       50
176
     1
 62
   256
176
     0
 40
1.0
176
     0
 90
        2
176
     1
  1
strokes_ogs.tif
176
     1
290
     0
176
     1
 40
1.0
176
     1
 40
1.0
176
     1
  0
VISUALSTYLE
  5
3B
102
{ACAD_REACTORS
330
2A
102
}
330
2A
100
AcDbVisualStyle
  2
JitterOff
 70
    20
177
     3
291
     1
 70
    58
 90
        2
176
     0
 90
        2
176
     0
 90
        0
176
     0
 90
        0
176
     0
 40
0.6
176
     0
 40
30.0
176
     0
 62
     7
420
 16777215
176
     0
 90
        1
176
     0
 90
        4
176
     0
 62
     7
176
     0
 62
   257
176
     0
 90
        1
176
     0
 90
        1
176
     0
 40
1.0
176
     0
 90
       10
176
     2
 62
     7
176
     0
 40
1.0
176
     0
 90
        1
176
     0
 90
        6
176
     0
 90
        2
176
     0
 62
     7
176
     0
 90
        5
176
     0
 90
        0
176
     0
 90
        0
176
     0
290
     0
176
     0
 90
        1
176
     0
 40
0.0
176
     0
 90
        0
176
     0
290
     0
176
     0
290
     1
176
     0
290
     1
176
     0
290
     0
176
     0
290
     0
176
     0
290
     0
176
     0
290
     0
176
     0
290
     0
176
     0
290
     0
176
     0
 90
       50
176
     0
 40
0.0
176
     0
 40
1.0
176
     0
 90
        0
176
     0
 62
    18
420
        0
176
     0
 90
       50
176
     0
 90
        3
176
     0
 62
     5
420
      255
176
     0
290
     0
176
     0
 90
       50
176
     0
 90
       50
176
     0
 90
       50
176
     0
290
     0
176
     0
 90
       50
176
     0
 62
   256
176
     0
 40
1.0
176
     0
 90
        2
176
     0
  1
strokes_ogs.tif
176
     0
290
     0
176
     0
 40
1.0
176
     0
 40
1.0
176
     0
  0
VISUALSTYLE
  5
38
102
{ACAD_REACTORS
330
2A
102
}
330
2A
100
AcDbVisualStyle
  2
Linepattern
 70
    14
177
     3
291
     1
 70
    58
 90
        2
176
     1
 90
        2
176
     1
 90
        0
176
     1
 90
        0
176
     1
 40
0.6
176
     1
 40
30.0
176
     1
 62
     7
420
 16777215
176
     1
 90
        1
176
     1
 90
        4
176
     1
 62
     7
176
     1
 62
   257
176
     1
 90
        7
176
     1
 90
        7
176
     1
 40
1.0
176
     1
 90
        8
176
     1
 62
     7
176
     1
 40
1.0
176
     1
 90
        1
176
     1
 90
        6
176
     1
 90
        2
176
     1
 62
     7
176
     1
 90
        5
176
     1
 90
        0
176
     1
 90
        0
176
     1
290
     0
176
     1
 90
        1
176
     1
 40
0.0
176
     1
 90
        0
176
     1
290
     0
176
     1
290
     1
176
     1
290
     1
176
     1
290
     0
176
     1
290
     0
176
     1
290
     0
176
     1
290
     0
176
     1
290
     0
176
     1
290
     0
176
     1
 90
       50
176
     1
 40
0.0
176
     1
 40
1.0
176
     1
 90
        0
176
     1
 62
    18
420
        0
176
     1
 90
       50
176
     1
 90
        3
176
     1
 62
     5
420
      255
176
     1
290
     0
176
     1
 90
       50
176
     1
 90
       50
176
     1
 90
       50
176
     1
290
     0
176
     1
 90
       50
176
     1
 62
   256
176
     0
 40
1.0
176
     0
 90
        2
176
     1
  1
strokes_ogs.tif
176
     1
290
     0
176
     1
 40
1.0
176
     1
 40
1.0
176
     1
  0
VISUALSTYLE
  5
3C
102
{ACAD_REACTORS
330
2A
102
}
330
2A
100
AcDbVisualStyle
  2
OverhangOff
 70
    21
177
     3
291
     1
 70
    58
 90
        2
176
     0
 90
        2
176
     0
 90
        0
176
     0
 90
        0
176
     0
 40
0.6
176
     0
 40
30.0
176
     0
 62
     7
420
 16777215
176
     0
 90
        1
176
     0
 90
        4
176
     0
 62
     7
176
     0
 62
   257
176
     0
 90
        1
176
     0
 90
        1
176
     0
 40
1.0
176
     0
 90
        9
176
     2
 62
     7
176
     0
 40
1.0
176
     0
 90
        1
176
     0
 90
        6
176
     0
 90
        2
176
     0
 62
     7
176
     0
 90
        5
176
     0
 90
        0
176
     0
 90
        0
176
     0
290
     0
176
     0
 90
        1
176
     0
 40
0.0
176
     0
 90
        0
176
     0
290
     0
176
     0
290
     1
176
     0
290
     1
176
     0
290
     0
176
     0
290
     0
176
     0
290
     0
176
     0
290
     0
176
     0
290
     0
176
     0
290
     0
176
     0
 90
       50
176
     0
 40
0.0
176
     0
 40
1.0
176
     0
 90
        0
176
     0
 62
    18
420
        0
176
     0
 90
       50
176
     0
 90
        3
176
     0
 62
     5
420
      255
176
     0
290
     0
176
     0
 90
       50
176
     0
 90
       50
176
     0
 90
       50
176
     0
290
     0
176
     0
 90
       50
176
     0
 62
   256
176
     0
 40
1.0
176
     0
 90
        2
176
     0
  1
strokes_ogs.tif
176
     0
290
     0
176
     0
 40
1.0
176
     0
 40
1.0
176
     0
  0
VISUALSTYLE
  5
33
102
{ACAD_REACTORS
330
2A
102
}
330
2A
100
AcDbVisualStyle
  2
Realistic
 70
     8
177
     3
291
     0
 70
    58
 90
        2
176
     1
 90
        3
176
     1
 90
        0
176
     1
 90
        2
176
     1
 40
0.6
176
     1
 40
30.0
176
     1
 62
     7
420
 16777215
176
     1
 90
        0
176
     1
 90
        0
176
     1
 62
     7
176
     1
 62
   257
176
     1
 90
        1
176
     1
 90
        1
176
     1
 40
1.0
176
     1
 90
        8
176
     1
 62
   257
176
     1
 40
1.0
176
     1
 90
        1
176
     1
 90
        6
176
     1
 90
        2
176
     1
 62
     7
176
     1
 90
        3
176
     1
 90
        0
176
     1
 90
        0
176
     1
290
     0
176
     1
 90
       13
176
     1
 40
0.0
176
     1
 90
        0
176
     1
290
     0
176
     1
290
     1
176
     1
290
     1
176
     1
290
     0
176
     1
290
     0
176
     1
290
     0
176
     1
290
     0
176
     1
290
     0
176
     1
290
     0
176
     1
 90
       50
176
     1
 40
0.0
176
     1
 40
1.0
176
     1
 90
        0
176
     1
 62
    18
420
        0
176
     1
 90
       50
176
     1
 90
        3
176
     1
 62
     5
420
      255
176
     1
290
     0
176
     1
 90
       50
176
     1
 90
       50
176
     1
 90
       50
176
     1
290
     0
176
     1
 90
       50
176
     1
 62
   256
176
     0
 40
1.0
176
     0
 90
        2
176
     1
  1
strokes_ogs.tif
176
     1
290
     0
176
     1
 40
1.0
176
     1
 40
1.0
176
     1
  0
VISUALSTYLE
  5
42
102
{ACAD_REACTORS
330
2A
102
}
330
2A
100
AcDbVisualStyle
  2
Shaded
 70
    27
177
     3
291
     0
 70
    58
 90
        2
176
     1
 90
        2
176
     1
 90
        1
176
     1
 90
        2
176
     1
 40
0.6
176
     1
 40
30.0
176
     1
 62
     7
420
 16777215
176
     1
 90
        0
176
     1
 90
        4
176
     1
 62
     7
176
     1
 62
   257
176
     1
 90
        1
176
     1
 90
        1
176
     1
 40
1.0
176
     1
 90
        8
176
     1
 62
   257
176
     1
 40
1.0
176
     1
 90
        1
176
     1
 90
        6
176
     1
 90
        2
176
     1
 62
     8
420
  7895160
176
     1
 90
        3
176
     1
 90
        0
176
     1
 90
        0
176
     1
290
     0
176
     1
 90
        5
176
     1
 40
0.0
176
     1
 90
        0
176
     1
290
     0
176
     1
290
     1
176
     1
290
     1
176
     1
290
     0
176
     1
290
     0
176
     1
290
     0
176
     1
290
     0
176
     1
290
     0
176
     1
290
     0
176
     1
 90
       50
176
     1
 40
0.0
176
     1
 40
1.0
176
     1
 90
        0
176
     1
 62
    18
420
        0
176
     1
 90
       50
176
     1
 90
        3
176
     1
 62
     5
420
      255
176
     1
290
     0
176
     1
 90
       50
176
     1
 90
       50
176
     1
 90
       50
176
     1
290
     0
176
     1
 90
       50
176
     1
 62
   256
176
     0
 40
1.0
176
     0
 90
        2
176
     1
  1
strokes_ogs.tif
176
     1
290
     0
176
     1
 40
1.0
176
     1
 40
1.0
176
     1
  0
VISUALSTYLE
  5
41
102
{ACAD_REACTORS
330
2A
102
}
330
2A
100
AcDbVisualStyle
  2
Shaded with edges
 70
    26
177
     3
291
     0
 70
    58
 90
        2
176
     1
 90
        2
176
     1
 90
        1
176
     1
 90
        2
176
     1
 40
0.6
176
     1
 40
30.0
176
     1
 62
     7
420
 16777215
176
     1
 90
        1
176
     1
 90
       10
176
     1
 62
     7
176
     1
 62
   257
176
     1
 90
        2
176
     1
 90
        1
176
     1
 40
1.0
176
     1
 90
        8
176
     1
 62
   257
176
     1
 40
1.0
176
     1
 90
        1
176
     1
 90
        6
176
     1
 90
        2
176
     1
 62
     7
176
     1
 90
        3
176
     1
 90
        0
176
     1
 90
        0
176
     1
290
     0
176
     1
 90
        5
176
     1
 40
0.0
176
     1
 90
        0
176
     1
290
     0
176
     1
290
     1
176
     1
290
     1
176
     1
290
     0
176
     1
290
     0
176
     1
290
     0
176
     1
290
     0
176
     1
290
     0
176
     1
290
     0
176
     1
 90
       50
176
     1
 40
0.0
176
     1
 40
1.0
176
     1
 90
        0
176
     1
 62
    18
420
        0
176
     1
 90
       50
176
     1
 90
        3
176
     1
 62
     5
420
      255
176
     1
290
     0
176
     1
 90
       50
176
     1
 90
       50
176
     1
 90
       50
176
     1
290
     0
176
     1
 90
       50
176
     1
 62
   256
176
     0
 40
1.0
176
     0
 90
        2
176
     1
  1
strokes_ogs.tif
176
     1
290
     0
176
     1
 40
1.0
176
     1
 40
1.0
176
     1
  0
VISUALSTYLE
  5
3E
102
{ACAD_REACTORS
330
2A
102
}
330
2A
100
AcDbVisualStyle
  2
Shades of Gray
 70
    23
177
     3
291
     0
 70
    58
 90
        2
176
     1
 90
        2
176
     1
 90
        3
176
     1
 90
        0
176
     1
 40
0.6
176
     1
 40
30.0
176
     1
 62
     7
420
 16777215
176
     1
 90
        2
176
     1
 90
        2
176
     1
 62
     7
176
     1
 62
     7
176
     1
 90
        1
176
     1
 90
        1
176
     1
 40
40.0
176
     1
 90
        8
176
     1
 62
     7
176
     1
 40
1.0
176
     1
 90
        1
176
     1
 90
        6
176
     1
 90
        2
176
     1
 62
     7
176
     1
 90
        3
176
     1
 90
        0
176
     1
 90
        0
176
     1
290
     0
176
     1
 90
        1
176
     1
 40
0.0
176
     1
 90
        0
176
     1
290
     0
176
     1
290
     1
176
     1
290
     1
176
     1
290
     0
176
     1
290
     0
176
     1
290
     0
176
     1
290
     0
176
     1
290
     0
176
     1
290
     0
176
     1
 90
       50
176
     1
 40
0.0
176
     1
 40
1.0
176
     1
 90
        0
176
     1
 62
    18
420
        0
176
     1
 90
       50
176
     1
 90
        3
176
     1
 62
     5
420
      255
176
     1
290
     0
176
     1
 90
       50
176
     1
 90
       50
176
     1
 90
       50
176
     1
290
     0
176
     1
 90
       50
176
     1
 62
   256
176
     0
 40
1.0
176
     0
 90
        2
176
     1
  1
strokes_ogs.tif
176
     1
290
     0
176
     1
 40
1.0
176
     1
 40
1.0
176
     1
  0
VISUALSTYLE
  5
3F
102
{ACAD_REACTORS
330
2A
102
}
330
2A
100
AcDbVisualStyle
  2
Sketchy
 70
    24
177
     3
291
     0
 70
    58
 90
        1
176
     1
 90
        2
176
     1
 90
        2
176
     1
 90
        0
176
     1
 40
0.6
176
     1
 40
30.0
176
     1
 62
     7
420
 16777215
176
     1
 90
        2
176
     1
 90
        2
176
     1
 62
     7
176
     1
 62
     7
176
     1
 90
        1
176
     1
 90
        1
176
     1
 40
40.0
176
     1
 90
       11
176
     1
 62
     7
176
     1
 40
1.0
176
     1
 90
        1
176
     1
 90
        6
176
     1
 90
        2
176
     1
 62
     7
176
     1
 90
        6
176
     1
 90
        0
176
     1
 90
        0
176
     1
290
     0
176
     1
 90
        1
176
     1
 40
0.0
176
     1
 90
        0
176
     1
290
     0
176
     1
290
     1
176
     1
290
     1
176
     1
290
     0
176
     1
290
     0
176
     1
290
     0
176
     1
290
     0
176
     1
290
     0
176
     1
290
     0
176
     1
 90
       50
176
     1
 40
0.0
176
     1
 40
1.0
176
     1
 90
        0
176
     1
 62
    18
420
        0
176
     1
 90
       50
176
     1
 90
        3
176
     1
 62
     5
420
      255
176
     1
290
     0
176
     1
 90
       50
176
     1
 90
       50
176
     1
 90
       50
176
     1
290
     0
176
     1
 90
       50
176
     1
 62
   256
176
     0
 40
1.0
176
     0
 90
        2
176
     1
  1
strokes_ogs.tif
176
     1
290
     0
176
     1
 40
1.0
176
     1
 40
1.0
176
     1
  0
VISUALSTYLE
  5
37
102
{ACAD_REACTORS
330
2A
102
}
330
2A
100
AcDbVisualStyle
  2
Thicken
 70
    13
177
     3
291
     1
 70
    58
 90
        2
176
     1
 90
        2
176
     1
 90
        0
176
     1
 90
        0
176
     1
 40
0.6
176
     1
 40
30.0
176
     1
 62
     7
420
 16777215
176
     1
 90
        1
176
     1
 90
        4
176
     1
 62
     7
176
     1
 62
   257
176
     1
 90
        1
176
     1
 90
        1
176
     1
 40
1.0
176
     1
 90
       12
176
     1
 62
     7
176
     1
 40
1.0
176
     1
 90
        1
176
     1
 90
        6
176
     1
 90
        2
176
     1
 62
     7
176
     1
 90
        5
176
     1
 90
        0
176
     1
 90
        0
176
     1
290
     0
176
     1
 90
        1
176
     1
 40
0.0
176
     1
 90
        0
176
     1
290
     0
176
     1
290
     1
176
     1
290
     1
176
     1
290
     0
176
     1
290
     0
176
     1
290
     0
176
     1
290
     0
176
     1
290
     0
176
     1
290
     0
176
     1
 90
       50
176
     1
 40
0.0
176
     1
 40
1.0
176
     1
 90
        0
176
     1
 62
    18
420
        0
176
     1
 90
       50
176
     1
 90
        3
176
     1
 62
     5
420
      255
176
     1
290
     0
176
     1
 90
       50
176
     1
 90
       50
176
     1
 90
       50
176
     1
290
     0
176
     1
 90
       50
176
     1
 62
   256
176
     0
 40
1.0
176
     0
 90
        2
176
     1
  1
strokes_ogs.tif
176
     1
290
     0
176
     1
 40
1.0
176
     1
 40
1.0
176
     1
  0
VISUALSTYLE
  5
30
102
{ACAD_REACTORS
330
2A
102
}
330
2A
100
AcDbVisualStyle
  2
Wireframe
 70
     5
177
     3
291
     0
 70
    58
 90
        0
176
     1
 90
        2
176
     1
 90
        0
176
     1
 90
        0
176
     1
 40
0.6
176
     1
 40
30.0
176
     1
 62
     7
420
 16777215
176
     1
 90
        1
176
     1
 90
        4
176
     1
 62
     7
176
     1
 62
   257
176
     1
 90
        1
176
     1
 90
        1
176
     1
 40
1.0
176
     1
 90
        0
176
     1
 62
   257
176
     1
 40
1.0
176
     1
 90
        1
176
     1
 90
        6
176
     1
 90
        2
176
     1
 62
     7
176
     1
 90
        3
176
     1
 90
        0
176
     1
 90
        0
176
     1
290
     0
176
     1
 90
        1
176
     1
 40
0.0
176
     1
 90
        0
176
     1
290
     0
176
     1
290
     1
176
     1
290
     1
176
     1
290
     0
176
     1
290
     0
176
     1
290
     0
176
     1
290
     0
176
     1
290
     0
176
     1
290
     0
176
     1
 90
       50
176
     1
 40
0.0
176
     1
 40
1.0
176
     1
 90
        0
176
     1
 62
    18
420
        0
176
     1
 90
       50
176
     1
 90
        3
176
     1
 62
     5
420
      255
176
     1
290
     0
176
     1
 90
       50
176
     1
 90
       50
176
     1
 90
       50
176
     1
290
     0
176
     1
 90
       50
176
     1
 62
   256
176
     0
 40
1.0
176
     0
 90
        2
176
     1
  1
strokes_ogs.tif
176
     1
290
     0
176
     1
 40
1.0
176
     1
 40
1.0
176
     1
  0
VISUALSTYLE
  5
40
102
{ACAD_REACTORS
330
2A
102
}
330
2A
100
AcDbVisualStyle
  2
X-Ray
 70
    25
177
     3
291
     0
 70
    58
 90
        2
176
     1
 90
        2
176
     1
 90
        1
176
     1
 90
        1
176
     1
 40
0.5
176
     1
 40
30.0
176
     1
 62
     7
420
 16777215
176
     1
 90
        1
176
     1
 90
        0
176
     1
 62
     7
176
     1
 62
   257
176
     1
 90
        1
176
     1
 90
        1
176
     1
 40
1.0
176
     1
 90
        8
176
     1
 62
     7
176
     1
 40
1.0
176
     1
 90
        1
176
     1
 90
        6
176
     1
 90
        2
176
     1
 62
     7
176
     1
 90
        3
176
     1
 90
        0
176
     1
 90
        0
176
     1
290
     0
176
     1
 90
       13
176
     1
 40
0.0
176
     1
 90
        0
176
     1
290
     0
176
     1
290
     1
176
     1
290
     1
176
     1
290
     0
176
     1
290
     0
176
     1
290
     0
176
     1
290
     0
176
     1
290
     0
176
     1
290
     0
176
     1
 90
       50
176
     1
 40
0.0
176
     1
 40
1.0
176
     1
 90
        0
176
     1
 62
    18
420
        0
176
     1
 90
       50
176
     1
 90
        3
176
     1
 62
     5
420
      255
176
     1
290
     0
176
     1
 90
       50
176
     1
 90
       50
176
     1
 90
       50
176
     1
290
     0
176
     1
 90
       50
176
     1
 62
   256
176
     0
 40
1.0
176
     0
 90
        2
176
     1
  1
strokes_ogs.tif
176
     1
290
     0
176
     1
 40
1.0
176
     1
 40
1.0
176
     1
  0
DICTIONARYVAR
  5
3EB
102
{ACAD_REACTORS
330
3EA
102
}
330
3EA
100
DictionaryVariables
280
     0
  1
1:1
  0
DICTIONARYVAR
  5
3F0
102
{ACAD_REACTORS
330
3EA
102
}
330
3EA
100
DictionaryVariables
280
     0
  1
Standard
  0
DICTIONARYVAR
  5
3EF
102
{ACAD_REACTORS
330
3EA
102
}
330
3EA
100
DictionaryVariables
280
     0
  1
Standard
  0
DICTIONARY
  5
3EC
330
6A
100
AcDbDictionary
280
     1
281
     1
  3
ACAD_ROUNDTRIP_2008_TABLESTYLE_CELLSTYLEMAP
360
3ED
  0
CELLSTYLEMAP
  5
3ED
102
{ACAD_REACTORS
330
3EC
102
}
330
3EC
100
AcDbCellStyleMap
 90
        3
300
CELLSTYLE
  1
TABLEFORMAT_BEGIN
 90
        5
170
     1
 91
        0
 92
    32768
 62
   257
 93
        1
300
CONTENTFORMAT
  1
CONTENTFORMAT_BEGIN
 90
        0
 91
        0
 92
        4
 93
        0
300

 40
0.0
140
1.0
 94
        5
 62
     0
340
11
144
6.0
309
CONTENTFORMAT_END
171
     1
301
MARGIN
  1
CELLMARGIN_BEGIN
 40
1.5
 40
1.5
 40
1.5
 40
1.5
 40
1.5
 40
1.5
309
CELLMARGIN_END
 94
        6
 95
        1
302
GRIDFORMAT
  1
GRIDFORMAT_BEGIN
 90
        0
 91
        1
 62
     0
 92
       -2
340
14
 93
        0
 40
0.045
309
GRIDFORMAT_END
 95
        2
302
GRIDFORMAT
  1
GRIDFORMAT_BEGIN
 90
        0
 91
        1
 62
     0
 92
       -2
340
14
 93
        0
 40
0.045
309
GRIDFORMAT_END
 95
        4
302
GRIDFORMAT
  1
GRIDFORMAT_BEGIN
 90
        0
 91
        1
 62
     0
 92
       -2
340
14
 93
        0
 40
0.045
309
GRIDFORMAT_END
 95
        8
302
GRIDFORMAT
  1
GRIDFORMAT_BEGIN
 90
        0
 91
        1
 62
     0
 92
       -2
340
14
 93
        0
 40
0.045
309
GRIDFORMAT_END
 95
       16
302
GRIDFORMAT
  1
GRIDFORMAT_BEGIN
 90
        0
 91
        1
 62
     0
 92
       -2
340
14
 93
        0
 40
0.045
309
GRIDFORMAT_END
 95
       32
302
GRIDFORMAT
  1
GRIDFORMAT_BEGIN
 90
        0
 91
        1
 62
     0
 92
       -2
340
14
 93
        0
 40
0.045
309
GRIDFORMAT_END
309
TABLEFORMAT_END
  1
CELLSTYLE_BEGIN
 90
        1
 91
        1
300
_TITLE
309
CELLSTYLE_END
300
CELLSTYLE
  1
TABLEFORMAT_BEGIN
 90
        5
170
     1
 91
        0
 92
        0
 62
   257
 93
        1
300
CONTENTFORMAT
  1
CONTENTFORMAT_BEGIN
 90
        0
 91
        0
 92
        4
 93
        0
300

 40
0.0
140
1.0
 94
        5
 62
     0
340
11
144
4.5
309
CONTENTFORMAT_END
171
     1
301
MARGIN
  1
CELLMARGIN_BEGIN
 40
1.5
 40
1.5
 40
1.5
 40
1.5
 40
1.5
 40
1.5
309
CELLMARGIN_END
 94
        6
 95
        1
302
GRIDFORMAT
  1
GRIDFORMAT_BEGIN
 90
        0
 91
        1
 62
     0
 92
       -2
340
14
 93
        0
 40
0.045
309
GRIDFORMAT_END
 95
        2
302
GRIDFORMAT
  1
GRIDFORMAT_BEGIN
 90
        0
 91
        1
 62
     0
 92
       -2
340
14
 93
        0
 40
0.045
309
GRIDFORMAT_END
 95
        4
302
GRIDFORMAT
  1
GRIDFORMAT_BEGIN
 90
        0
 91
        1
 62
     0
 92
       -2
340
14
 93
        0
 40
0.045
309
GRIDFORMAT_END
 95
        8
302
GRIDFORMAT
  1
GRIDFORMAT_BEGIN
 90
        0
 91
        1
 62
     0
 92
       -2
340
14
 93
        0
 40
0.045
309
GRIDFORMAT_END
 95
       16
302
GRIDFORMAT
  1
GRIDFORMAT_BEGIN
 90
        0
 91
        1
 62
     0
 92
       -2
340
14
 93
        0
 40
0.045
309
GRIDFORMAT_END
 95
       32
302
GRIDFORMAT
  1
GRIDFORMAT_BEGIN
 90
        0
 91
        1
 62
     0
 92
       -2
340
14
 93
        0
 40
0.045
309
GRIDFORMAT_END
309
TABLEFORMAT_END
  1
CELLSTYLE_BEGIN
 90
        2
 91
        1
300
_HEADER
309
CELLSTYLE_END
300
CELLSTYLE
  1
TABLEFORMAT_BEGIN
 90
        5
170
     1
 91
        0
 92
        0
 62
   257
 93
        1
300
CONTENTFORMAT
  1
CONTENTFORMAT_BEGIN
 90
        0
 91
        0
 92
        4
 93
        0
300

 40
0.0
140
1.0
 94
        2
 62
     0
340
11
144
4.5
309
CONTENTFORMAT_END
171
     1
301
MARGIN
  1
CELLMARGIN_BEGIN
 40
1.5
 40
1.5
 40
1.5
 40
1.5
 40
1.5
 40
1.5
309
CELLMARGIN_END
 94
        6
 95
        1
302
GRIDFORMAT
  1
GRIDFORMAT_BEGIN
 90
        0
 91
        1
 62
     0
 92
       -2
340
14
 93
        0
 40
0.045
309
GRIDFORMAT_END
 95
        2
302
GRIDFORMAT
  1
GRIDFORMAT_BEGIN
 90
        0
 91
        1
 62
     0
 92
       -2
340
14
 93
        0
 40
0.045
309
GRIDFORMAT_END
 95
        4
302
GRIDFORMAT
  1
GRIDFORMAT_BEGIN
 90
        0
 91
        1
 62
     0
 92
       -2
340
14
 93
        0
 40
0.045
309
GRIDFORMAT_END
 95
        8
302
GRIDFORMAT
  1
GRIDFORMAT_BEGIN
 90
        0
 91
        1
 62
     0
 92
       -2
340
14
 93
        0
 40
0.045
309
GRIDFORMAT_END
 95
       16
302
GRIDFORMAT
  1
GRIDFORMAT_BEGIN
 90
        0
 91
        1
 62
     0
 92
       -2
340
14
 93
        0
 40
0.045
309
GRIDFORMAT_END
 95
       32
302
GRIDFORMAT
  1
GRIDFORMAT_BEGIN
 90
        0
 91
        1
 62
     0
 92
       -2
340
14
 93
        0
 40
0.045
309
GRIDFORMAT_END
309
TABLEFORMAT_END
  1
CELLSTYLE_BEGIN
 90
        3
 91
        2
300
_DATA
309
CELLSTYLE_END
  0
ENDSEC
  0
EOF
