  0
SECTION
  2
HEADER
  9
$ACADVER
  1
AC1015
  9
$ACADMAINTVER
 70
     6
  9
$DWGCODEPAGE
  3
ANSI_1252
  9
$INSBASE
 10
0.0
 20
0.0
 30
0.0
  9
$EXTMIN
 10
0.0
 20
0.0
 30
0.0
  9
$EXTMAX
 10
431.8
 20
279.4
 30
0.0
  9
$LIMMIN
 10
0.0
 20
0.0
  9
$LIMMAX
 10
431.8
 20
279.4
  9
$ORTHOMODE
 70
     0
  9
$REGENMODE
 70
     1
  9
$FILLMODE
 70
     1
  9
$QTEXTMODE
 70
     0
  9
$MIRRTEXT
 70
     1
  9
$LTSCALE
 40
1.0
  9
$ATTMODE
 70
     1
  9
$TEXTSIZE
 40
3.5
  9
$TRACEWID
 40
1.0
  9
$TEXTSTYLE
  7
Standard
  9
$CLAYER
  8
0
  9
$CELTYPE
  6
ByLayer
  9
$CECOLOR
 62
   256
  9
$CELTSCALE
 40
1.0
  9
$DISPSILH
 70
     0
  9
$DIMSCALE
 40
1.0
  9
$DIMASZ
 40
3.302
  9
$DIMEXO
 40
1.0
  9
$DIMDLI
 40
3.75
  9
$DIMRND
 40
0.0
  9
$DIMDLE
 40
0.0
  9
$DIMEXE
 40
1.0
  9
$DIMTP
 40
0.0
  9
$DIMTM
 40
0.0
  9
$DIMTXT
 40
3.5
  9
$DIMCEN
 40
2.5
  9
$DIMTSZ
 40
0.0
  9
$DIMTOL
 70
     0
  9
$DIMLIM
 70
     0
  9
$DIMTIH
 70
     1
  9
$DIMTOH
 70
     1
  9
$DIMSE1
 70
     0
  9
$DIMSE2
 70
     0
  9
$DIMTAD
 70
     1
  9
$DIMZIN
 70
     0
  9
$DIMBLK
  1

  9
$DIMASO
 70
     1
  9
$DIMSHO
 70
     1
  9
$DIMPOST
  1

  9
$DIMAPOST
  1

  9
$DIMALT
 70
     0
  9
$DIMALTD
 70
     3
  9
$DIMALTF
 40
0.0393700787
  9
$DIMLFAC
 40
5.0
  9
$DIMTOFL
 70
     1
  9
$DIMTVP
 40
0.0
  9
$DIMTIX
 70
     0
  9
$DIMSOXD
 70
     0
  9
$DIMSAH
 70
     0
  9
$DIMBLK1
  1

  9
$DIMBLK2
  1

  9
$DIMSTYLE
  2
ISO-25
  9
$DIMCLRD
 70
     0
  9
$DIMCLRE
 70
     0
  9
$DIMCLRT
 70
     0
  9
$DIMTFAC
 40
1.0
  9
$DIMGAP
 40
1.524
  9
$DIMJUST
 70
     0
  9
$DIMSD1
 70
     0
  9
$DIMSD2
 70
     0
  9
$DIMTOLJ
 70
     0
  9
$DIMTZIN
 70
     0
  9
$DIMALTZ
 70
     0
  9
$DIMALTTZ
 70
     0
  9
$DIMUPT
 70
     0
  9
$DIMDEC
 70
     3
  9
$DIMTDEC
 70
     3
  9
$DIMALTU
 70
     2
  9
$DIMALTTD
 70
     3
  9
$DIMTXSTY
  7
Standard
  9
$DIMAUNIT
 70
     0
  9
$DIMADEC
 70
     2
  9
$DIMALTRND
 40
0.0
  9
$DIMAZIN
 70
     0
  9
$DIMDSEP
 70
    44
  9
$DIMATFIT
 70
     3
  9
$DIMFRAC
 70
     0
  9
$DIMLDRBLK
  1

  9
$DIMLUNIT
 70
     2
  9
$DIMLWD
 70
    -2
  9
$DIMLWE
 70
    -2
  9
$DIMTMOVE
 70
     0
  9
$LUNITS
 70
     2
  9
$LUPREC
 70
     8
  9
$SKETCHINC
 40
1.0
  9
$FILLETRAD
 40
10.0
  9
$AUNITS
 70
     0
  9
$AUPREC
 70
     8
  9
$MENU
  1
.
  9
$ELEVATION
 40
0.0
  9
$PELEVATION
 40
0.0
  9
$THICKNESS
 40
0.0
  9
$LIMCHECK
 70
     0
  9
$CHAMFERA
 40
10.0
  9
$CHAMFERB
 40
10.0
  9
$CHAMFERC
 40
20.0
  9
$CHAMFERD
 40
0.0
  9
$SKPOLY
 70
     0
  9
$TDCREATE
 40
2457413.481978623
  9
$TDUCREATE
 40
2457413.481978623
  9
$TDUPDATE
 40
2457413.481980787
  9
$TDUUPDATE
 40
2457413.481980787
  9
$TDINDWG
 40
0.0000000116
  9
$TDUSRTIMER
 40
0.0000000116
  9
$USRTIMER
 70
     1
  9
$ANGBASE
 50
0.0
  9
$ANGDIR
 70
     0
  9
$PDMODE
 70
     0
  9
$PDSIZE
 40
-1.0
  9
$PLINEWID
 40
0.0
  9
$SPLFRAME
 70
     0
  9
$SPLINETYPE
 70
     6
  9
$SPLINESEGS
 70
     8
  9
$HANDSEED
  5
363
  9
$SURFTAB1
 70
     6
  9
$SURFTAB2
 70
     6
  9
$SURFTYPE
 70
     6
  9
$SURFU
 70
     6
  9
$SURFV
 70
     6
  9
$UCSBASE
  2

  9
$UCSNAME
  2

  9
$UCSORG
 10
0.0
 20
0.0
 30
0.0
  9
$UCSXDIR
 10
1.0
 20
0.0
 30
0.0
  9
$UCSYDIR
 10
0.0
 20
1.0
 30
0.0
  9
$UCSORTHOREF
  2

  9
$UCSORTHOVIEW
 70
     0
  9
$UCSORGTOP
 10
0.0
 20
0.0
 30
0.0
  9
$UCSORGBOTTOM
 10
0.0
 20
0.0
 30
0.0
  9
$UCSORGLEFT
 10
0.0
 20
0.0
 30
0.0
  9
$UCSORGRIGHT
 10
0.0
 20
0.0
 30
0.0
  9
$UCSORGFRONT
 10
0.0
 20
0.0
 30
0.0
  9
$UCSORGBACK
 10
0.0
 20
0.0
 30
0.0
  9
$PUCSBASE
  2

  9
$PUCSNAME
  2

  9
$PUCSORG
 10
0.0
 20
0.0
 30
0.0
  9
$PUCSXDIR
 10
1.0
 20
0.0
 30
0.0
  9
$PUCSYDIR
 10
0.0
 20
1.0
 30
0.0
  9
$PUCSORTHOREF
  2

  9
$PUCSORTHOVIEW
 70
     0
  9
$PUCSORGTOP
 10
0.0
 20
0.0
 30
0.0
  9
$PUCSORGBOTTOM
 10
0.0
 20
0.0
 30
0.0
  9
$PUCSORGLEFT
 10
0.0
 20
0.0
 30
0.0
  9
$PUCSORGRIGHT
 10
0.0
 20
0.0
 30
0.0
  9
$PUCSORGFRONT
 10
0.0
 20
0.0
 30
0.0
  9
$PUCSORGBACK
 10
0.0
 20
0.0
 30
0.0
  9
$USERI1
 70
     0
  9
$USERI2
 70
     0
  9
$USERI3
 70
     0
  9
$USERI4
 70
     0
  9
$USERI5
 70
     0
  9
$USERR1
 40
0.0
  9
$USERR2
 40
0.0
  9
$USERR3
 40
0.0
  9
$USERR4
 40
0.0
  9
$USERR5
 40
0.0
  9
$WORLDVIEW
 70
     1
  9
$SHADEDGE
 70
     3
  9
$SHADEDIF
 70
    70
  9
$TILEMODE
 70
     1
  9
$MAXACTVP
 70
    64
  9
$PINSBASE
 10
0.0
 20
0.0
 30
0.0
  9
$PLIMCHECK
 70
     0
  9
$PEXTMIN
 10
1.0000000000E+20
 20
1.0000000000E+20
 30
1.0000000000E+20
  9
$PEXTMAX
 10
-1.0000000000E+20
 20
-1.0000000000E+20
 30
-1.0000000000E+20
  9
$PLIMMIN
 10
0.0
 20
0.0
  9
$PLIMMAX
 10
420.0
 20
297.0
  9
$UNITMODE
 70
     0
  9
$VISRETAIN
 70
     1
  9
$PLINEGEN
 70
     0
  9
$PSLTSCALE
 70
     1
  9
$TREEDEPTH
 70
  3020
  9
$CMLSTYLE
  2
Standard
  9
$CMLJUST
 70
     0
  9
$CMLSCALE
 40
20.0
  9
$PROXYGRAPHICS
 70
     1
  9
$MEASUREMENT
 70
     1
  9
$CELWEIGHT
370
    -1
  9
$ENDCAPS
280
     0
  9
$JOINSTYLE
280
     0
  9
$LWDISPLAY
290
     1
  9
$INSUNITS
 70
     4
  9
$HYPERLINKBASE
  1

  9
$STYLESHEET
  1

  9
$XEDIT
290
     1
  9
$CEPSNTYPE
380
     0
  9
$PSTYLEMODE
290
     1
  9
$FINGERPRINTGUID
  2
{6E536A8F-EB13-414D-BACE-7A58100FB757}
  9
$VERSIONGUID
  2
{FAEB1C32-E019-11D5-929B-00C0DF256EC4}
  9
$EXTNAMES
290
     1
  9
$PSVPSCALE
 40
0.0
  9
$OLESTARTUP
290
     0
  0
ENDSEC
  0
SECTION
  2
CLASSES
  0
CLASS
  1
ACDBDICTIONARYWDFLT
  2
AcDbDictionaryWithDefault
  3
ObjectDBX Classes
 90
        0
280
     0
281
     0
  0
CLASS
  1
VISUALSTYLE
  2
AcDbVisualStyle
  3
ObjectDBX Classes
 90
     4095
280
     0
281
     0
  0
CLASS
  1
MATERIAL
  2
AcDbMaterial
  3
ObjectDBX Classes
 90
     1153
280
     0
281
     0
  0
CLASS
  1
ACDBPLACEHOLDER
  2
AcDbPlaceHolder
  3
ObjectDBX Classes
 90
        0
280
     0
281
     0
  0
CLASS
  1
LAYOUT
  2
AcDbLayout
  3
ObjectDBX Classes
 90
        0
280
     0
281
     0
  0
ENDSEC
  0
SECTION
  2
TABLES
  0
TABLE
  2
VPORT
  5
8
330
0
100
AcDbSymbolTable
 70
     1
  0
VPORT
  5
29
330
8
100
AcDbSymbolTableRecord
100
AcDbViewportTableRecord
  2
*Active
 70
     0
 10
0.0
 20
0.0
 11
1.0
 21
1.0
 12
215.9
 22
139.7
 13
0.0
 23
0.0
 14
10.0
 24
10.0
 15
10.0
 25
10.0
 16
0.0
 26
0.0
 36
1.0
 17
0.0
 27
0.0
 37
0.0
 40
279.4
 41
1.5454545455
 42
50.0
 43
0.0
 44
0.0
 50
0.0
 51
0.0
 71
     0
 72
  2000
 73
     1
 74
     3
 75
     0
 76
     0
 77
     0
 78
     0
281
     0
 65
     1
110
0.0
120
0.0
130
0.0
111
1.0
121
0.0
131
0.0
112
0.0
122
1.0
132
0.0
 79
     0
146
0.0
  0
ENDTAB
  0
TABLE
  2
LTYPE
  5
5
330
0
100
AcDbSymbolTable
 70
     6
  0
LTYPE
  5
14
330
5
100
AcDbSymbolTableRecord
100
AcDbLinetypeTableRecord
  2
ByBlock
 70
     0
  3

 72
    65
 73
     0
 40
0.0
  0
LTYPE
  5
15
330
5
100
AcDbSymbolTableRecord
100
AcDbLinetypeTableRecord
  2
ByLayer
 70
     0
  3

 72
    65
 73
     0
 40
0.0
  0
LTYPE
  5
16
330
5
100
AcDbSymbolTableRecord
100
AcDbLinetypeTableRecord
  2
Continuous
 70
     0
  3
Solid line
 72
    65
 73
     0
 40
0.0
  0
LTYPE
  5
3F
330
5
100
AcDbSymbolTableRecord
100
AcDbLinetypeTableRecord
  2
HIDDEN
 70
     0
  3
Hidden __ __ __ __ __ __ __ __ __ __ __ __ __ __
 72
    65
 73
     2
 40
1.905
 49
1.27
 74
     0
 49
-0.635
 74
     0
  0
LTYPE
  5
40
330
5
100
AcDbSymbolTableRecord
100
AcDbLinetypeTableRecord
  2
PHANTOM
 70
     0
  3
Phantom ______  __  __  ______  __  __  ______
 72
    65
 73
     6
 40
12.7
 49
6.35
 74
     0
 49
-1.27
 74
     0
 49
1.27
 74
     0
 49
-1.27
 74
     0
 49
1.27
 74
     0
 49
-1.27
 74
     0
  0
LTYPE
  5
41
330
5
100
AcDbSymbolTableRecord
100
AcDbLinetypeTableRecord
  2
CENTER
 70
     0
  3
Center ____ _ ____ _ ____ _ ____ _ ____ _ ____
 72
    65
 73
     4
 40
10.16
 49
6.35
 74
     0
 49
-1.27
 74
     0
 49
1.27
 74
     0
 49
-1.27
 74
     0
  0
LTYPE
  5
42
330
5
100
AcDbSymbolTableRecord
100
AcDbLinetypeTableRecord
  2
CENTERX2
 70
     0
  3
Center (2x) ________  __  ________  __  _____
 72
    65
 73
     4
 40
20.32
 49
12.7
 74
     0
 49
-2.54
 74
     0
 49
2.54
 74
     0
 49
-2.54
 74
     0
  0
LTYPE
  5
43
330
5
100
AcDbSymbolTableRecord
100
AcDbLinetypeTableRecord
  2
DOT2
 70
     0
  3
Dot (.5x) ........................................
 72
    65
 73
     2
 40
0.635
 49
0.0
 74
     0
 49
-0.635
 74
     0
  0
ENDTAB
  0
TABLE
  2
LAYER
  5
2
330
0
100
AcDbSymbolTable
 70
     1
  0
LAYER
  5
10
330
2
100
AcDbSymbolTableRecord
100
AcDbLayerTableRecord
  2
0
 70
     0
 62
     7
  6
Continuous
370
    -3
390
F
  0
ENDTAB
  0
TABLE
  2
STYLE
  5
3
330
0
100
AcDbSymbolTable
 70
     1
  0
STYLE
  5
11
330
3
100
AcDbSymbolTableRecord
100
AcDbTextStyleTableRecord
  2
Standard
 70
     0
 40
0.0
 41
1.0
 50
0.0
 71
     0
 42
3.5
  3
txt
  4

  0
ENDTAB
  0
TABLE
  2
VIEW
  5
6
330
0
100
AcDbSymbolTable
 70
     0
  0
ENDTAB
  0
TABLE
  2
UCS
  5
7
330
0
100
AcDbSymbolTable
 70
     0
  0
ENDTAB
  0
TABLE
  2
APPID
  5
9
330
0
100
AcDbSymbolTable
 70
     1
  0
APPID
  5
12
330
9
100
AcDbSymbolTableRecord
100
AcDbRegAppTableRecord
  2
ACAD
 70
     0
  0
ENDTAB
  0
TABLE
  2
DIMSTYLE
  5
A
330
0
100
AcDbSymbolTable
 70
     1
100
AcDbDimStyleTable
  0
DIMSTYLE
105
27
330
A
100
AcDbSymbolTableRecord
100
AcDbDimStyleTableRecord
  2
ISO-25
 70
     0
 41
2.5
 42
0.625
 43
3.75
 44
1.25
 73
     0
 74
     0
 77
     1
 78
     8
140
2.5
141
2.5
143
0.0393700787
147
0.625
171
     3
172
     1
178
     0
271
     2
272
     2
274
     3
278
    44
283
     0
284
     8
340
11
  0
ENDTAB
  0
TABLE
  2
BLOCK_RECORD
  5
1
330
0
100
AcDbSymbolTable
 70
     1
  0
BLOCK_RECORD
  5
1F
330
1
100
AcDbSymbolTableRecord
100
AcDbBlockTableRecord
  2
*Model_Space
340
22
  0
BLOCK_RECORD
  5
1B
330
1
100
AcDbSymbolTableRecord
100
AcDbBlockTableRecord
  2
*Paper_Space
340
1E
  0
BLOCK_RECORD
  5
23
330
1
100
AcDbSymbolTableRecord
100
AcDbBlockTableRecord
  2
*Paper_Space0
340
26
  0
ENDTAB
  0
ENDSEC
  0
SECTION
  2
BLOCKS
  0
BLOCK
  5
20
330
1F
100
AcDbEntity
  8
0
100
AcDbBlockBegin
  2
*Model_Space
 70
     0
 10
0.0
 20
0.0
 30
0.0
  3
*Model_Space
  1

  0
ENDBLK
  5
21
330
1F
100
AcDbEntity
  8
0
100
AcDbBlockEnd
  0
BLOCK
  5
1C
330
1B
100
AcDbEntity
 67
     1
  8
0
100
AcDbBlockBegin
  2
*Paper_Space
 70
     0
 10
0.0
 20
0.0
 30
0.0
  3
*Paper_Space
  1

  0
ENDBLK
  5
1D
330
1B
100
AcDbEntity
 67
     1
  8
0
100
AcDbBlockEnd
  0
BLOCK
  5
24
330
23
100
AcDbEntity
  8
0
100
AcDbBlockBegin
  2
*Paper_Space0
 70
     0
 10
0.0
 20
0.0
 30
0.0
  3
*Paper_Space0
  1

  0
ENDBLK
  5
25
330
23
100
AcDbEntity
  8
0
100
AcDbBlockEnd
  0
ENDSEC
  0
SECTION
  2
ENTITIES
  0
LINE
  5
44
330
1F
100
AcDbEntity
  8
0
  6
Continuous
 62
     7
370
    15
100
AcDbLine
 10
116.7635525451
 20
243.437594306
 30
0.0
 11
116.7635525451
 21
243.385594306
 31
0.0
  0
LINE
  5
45
330
1F
100
AcDbEntity
  8
0
  6
Continuous
 62
     7
370
    15
100
AcDbLine
 10
117.9635525451
 20
243.385594306
 30
0.0
 11
117.9635525451
 21
243.437594306
 31
0.0
  0
LINE
  5
46
330
1F
100
AcDbEntity
  8
0
  6
Continuous
 62
     7
370
    15
100
AcDbLine
 10
287.8213649968
 20
206.2145731159
 30
0.0
 11
287.8032388411
 21
206.2061207507
 31
0.0
  0
LINE
  5
47
330
1F
100
AcDbEntity
  8
0
  6
Continuous
 62
     7
370
    15
100
AcDbLine
 10
283.6799442295
 20
215.0958786122
 30
0.0
 11
283.6618180737
 21
215.087426247
 31
0.0
  0
LINE
  5
48
330
1F
100
AcDbEntity
  8
0
  6
Continuous
 62
     7
370
    15
100
AcDbLine
 10
285.8519638968
 20
210.4379674041
 30
0.0
 11
285.8338377411
 21
210.4295150389
 31
0.0
  0
LINE
  5
49
330
1F
100
AcDbEntity
  8
0
  6
Continuous
 62
     7
370
    15
100
AcDbLine
 10
281.091774007
 20
93.168273798
 30
0.0
 11
281.091774007
 21
93.768273798
 31
0.0
  0
LINE
  5
4A
330
1F
100
AcDbEntity
  8
0
  6
Continuous
 62
     7
370
    15
100
AcDbLine
 10
272.731774007
 20
146.9707355223
 30
0.0
 11
271.411774007
 21
146.9707355223
 31
0.0
  0
LINE
  5
4B
330
1F
100
AcDbEntity
  8
0
  6
Continuous
 62
     7
370
    15
100
AcDbLine
 10
271.411774007
 20
142.9707355223
 30
0.0
 11
272.731774007
 21
142.9707355223
 31
0.0
  0
LINE
  5
4C
330
1F
100
AcDbEntity
  8
0
  6
Continuous
 62
     7
370
    15
100
AcDbLine
 10
280.491774007
 20
93.768273798
 30
0.0
 11
280.491774007
 21
93.968273798
 31
0.0
  0
LINE
  5
4D
330
1F
100
AcDbEntity
  8
0
  6
Continuous
 62
     7
370
    15
100
AcDbLine
 10
280.491774007
 20
94.568273798
 30
0.0
 11
280.491774007
 21
95.118273798
 31
0.0
  0
LINE
  5
4E
330
1F
100
AcDbEntity
  8
0
  6
Continuous
 62
     7
370
    15
100
AcDbLine
 10
279.291774007
 20
95.118273798
 30
0.0
 11
279.291774007
 21
94.568273798
 31
0.0
  0
LINE
  5
4F
330
1F
100
AcDbEntity
  8
0
  6
Continuous
 62
     7
370
    15
100
AcDbLine
 10
279.291774007
 20
93.968273798
 30
0.0
 11
279.291774007
 21
93.768273798
 31
0.0
  0
LINE
  5
50
330
1F
100
AcDbEntity
  8
0
  6
Continuous
 62
     7
370
    15
100
AcDbLine
 10
280.491774007
 20
95.118273798
 30
0.0
 11
280.441774007
 21
95.168273798
 31
0.0
  0
LINE
  5
51
330
1F
100
AcDbEntity
  8
0
  6
Continuous
 62
     7
370
    15
100
AcDbLine
 10
279.3205987658
 20
95.1470985568
 30
0.0
 11
279.291774007
 21
95.118273798
 31
0.0
  0
LINE
  5
52
330
1F
100
AcDbEntity
  8
0
  6
Continuous
 62
     7
370
    15
100
AcDbLine
 10
279.291774007
 20
189.528273798
 30
0.0
 11
279.291774007
 21
189.508273798
 31
0.0
  0
LINE
  5
53
330
1F
100
AcDbEntity
  8
0
  6
Continuous
 62
     7
370
    15
100
AcDbLine
 10
279.291774007
 20
188.908273798
 30
0.0
 11
279.291774007
 21
188.2769991401
 31
0.0
  0
LINE
  5
54
330
1F
100
AcDbEntity
  8
0
  6
Continuous
 62
     7
370
    15
100
AcDbLine
 10
280.491774007
 20
188.178273798
 30
0.0
 11
280.491774007
 21
188.908273798
 31
0.0
  0
LINE
  5
55
330
1F
100
AcDbEntity
  8
0
  6
Continuous
 62
     7
370
    15
100
AcDbLine
 10
280.491774007
 20
189.508273798
 30
0.0
 11
280.491774007
 21
189.528273798
 31
0.0
  0
LINE
  5
56
330
1F
100
AcDbEntity
  8
0
  6
Continuous
 62
     7
370
    15
100
AcDbLine
 10
280.4762197551
 20
188.1627195461
 30
0.0
 11
280.491774007
 21
188.178273798
 31
0.0
  0
LINE
  5
57
330
1F
100
AcDbEntity
  8
0
  6
Continuous
 62
     7
370
    15
100
AcDbLine
 10
280.891774007
 20
189.528273798
 30
0.0
 11
280.891774007
 21
190.128273798
 31
0.0
  0
LINE
  5
58
330
1F
100
AcDbEntity
  8
0
  6
Continuous
 62
     7
370
    15
100
AcDbLine
 10
280.891774007
 20
188.908273798
 30
0.0
 11
280.891774007
 21
189.508273798
 31
0.0
  0
LINE
  5
59
330
1F
100
AcDbEntity
  8
0
  6
Continuous
 62
     7
370
    15
100
AcDbLine
 10
280.8834895733
 20
93.968273798
 30
0.0
 11
280.8834895733
 21
94.568273798
 31
0.0
  0
ARC
  5
5A
330
1F
100
AcDbEntity
  8
0
  6
Continuous
 62
     7
370
    15
100
AcDbCircle
 10
115.8635525451
 20
245.737594306
 30
0.0
 40
0.3999999999999915
100
AcDbArc
 50
90.0
 51
180.0
  0
ARC
  5
5B
330
1F
100
AcDbEntity
  8
0
  6
Continuous
 62
     7
370
    15
100
AcDbCircle
 10
118.8635525451
 20
245.737594306
 30
0.0
 40
0.4000000000000057
100
AcDbArc
 50
0.0
 51
90.0
  0
LINE
  5
5C
330
1F
100
AcDbEntity
  8
0
  6
Continuous
 62
     7
370
    15
100
AcDbLine
 10
119.2635525451
 20
243.837594306
 30
0.0
 11
119.2635525451
 21
245.737594306
 31
0.0
  0
LINE
  5
5D
330
1F
100
AcDbEntity
  8
0
  6
Continuous
 62
     7
370
    15
100
AcDbLine
 10
115.4635525451
 20
245.737594306
 30
0.0
 11
115.4635525451
 21
243.837594306
 31
0.0
  0
LINE
  5
5E
330
1F
100
AcDbEntity
  8
0
  6
Continuous
 62
     7
370
    15
100
AcDbLine
 10
288.3639361194
 20
208.9789202164
 30
0.0
 11
289.8384570841
 21
210.5492029695
 31
0.0
  0
LINE
  5
5F
330
1F
100
AcDbEntity
  8
0
  6
Continuous
 62
     7
370
    15
100
AcDbLine
 10
283.4915852192
 20
220.7956637781
 30
0.0
 11
282.8698987168
 21
220.7609214479
 31
0.0
  0
LINE
  5
60
330
1F
100
AcDbEntity
  8
0
  6
Continuous
 62
     7
370
    15
100
AcDbLine
 10
285.0206089002
 20
220.8811117417
 30
0.0
 11
284.4642351461
 21
220.8500193493
 31
0.0
  0
LINE
  5
61
330
1F
100
AcDbEntity
  8
0
  6
Continuous
 62
     7
370
    15
100
AcDbLine
 10
285.120599817
 20
220.8824595396
 30
0.0
 11
285.0206089002
 21
220.8811117417
 31
0.0
  0
LINE
  5
62
330
1F
100
AcDbEntity
  8
0
  6
Continuous
 62
     7
370
    15
100
AcDbLine
 10
289.8384570841
 20
210.5492029695
 30
0.0
 11
292.6185243031
 21
213.7730967045
 31
0.0
  0
ARC
  5
63
330
1F
100
AcDbEntity
  8
0
  6
Continuous
 62
     7
370
    15
100
AcDbCircle
 10
292.4670620264
 20
213.9037074954
 30
0.0
 40
0.1999999999999724
100
AcDbArc
 50
319.2277453179
 51
25.0
  0
LINE
  5
64
330
1F
100
AcDbEntity
  8
0
  6
Continuous
 62
     7
370
    15
100
AcDbLine
 10
284.4817062405
 20
220.8529988246
 30
0.0
 11
283.4811293512
 21
220.7970825829
 31
0.0
  0
LINE
  5
65
330
1F
100
AcDbEntity
  8
0
  6
Continuous
 62
     7
370
    15
100
AcDbLine
 10
282.411078229
 20
217.7223224681
 30
0.0
 11
282.9482914797
 21
218.2266060424
 31
0.0
  0
LINE
  5
66
330
1F
100
AcDbEntity
  8
0
  6
Continuous
 62
     7
370
    15
100
AcDbLine
 10
281.8241269035
 20
220.6373847559
 30
0.0
 11
281.0925092523
 21
220.5500027637
 31
0.0
  0
LINE
  5
67
330
1F
100
AcDbEntity
  8
0
  6
Continuous
 62
     7
370
    15
100
AcDbLine
 10
287.0905770082
 20
207.781753015
 30
0.0
 11
287.5970923589
 21
208.257220385
 31
0.0
  0
LINE
  5
68
330
1F
100
AcDbEntity
  8
0
  6
Continuous
 62
     7
370
    15
100
AcDbLine
 10
286.4729277826
 20
210.6679990985
 30
0.0
 11
285.762213493
 21
210.5831137346
 31
0.0
  0
ARC
  5
69
330
1F
100
AcDbEntity
  8
0
  6
Continuous
 62
     7
370
    15
100
AcDbCircle
 10
283.3250848282
 20
219.0749112072
 30
0.0
 40
0.4000000000000429
100
AcDbArc
 50
205.0
 51
292.0
  0
ARC
  5
6A
330
1F
100
AcDbEntity
  8
0
  6
Continuous
 62
     7
370
    15
100
AcDbCircle
 10
287.364965336
 20
210.4113595001
 30
0.0
 40
0.4000000000000792
100
AcDbArc
 50
118.0
 51
205.0
  0
LINE
  5
6B
330
1F
100
AcDbEntity
  8
0
  6
Continuous
 62
     7
370
    15
100
AcDbLine
 10
287.1771767109
 20
210.7645385373
 30
0.0
 11
287.4609338305
 21
210.9154148741
 31
0.0
  0
LINE
  5
6C
330
1F
100
AcDbEntity
  8
0
  6
Continuous
 62
     7
370
    15
100
AcDbLine
 10
283.7729010056
 20
218.8244267902
 30
0.0
 11
283.4749274655
 21
218.7040376654
 31
0.0
  0
LINE
  5
6D
330
1F
100
AcDbEntity
  8
0
  6
Continuous
 62
     7
370
    15
100
AcDbLine
 10
289.5879147689
 20
202.3788708725
 30
0.0
 11
289.6586475131
 21
202.4164801398
 31
0.0
  0
LINE
  5
6E
330
1F
100
AcDbEntity
  8
0
  6
Continuous
 62
     7
370
    15
100
AcDbLine
 10
271.391774007
 20
99.1129148141
 30
0.0
 11
271.291774007
 21
99.1129148141
 31
0.0
  0
LINE
  5
6F
330
1F
100
AcDbEntity
  8
0
  6
Continuous
 62
     7
370
    15
100
AcDbLine
 10
271.291774007
 20
97.4129148141
 30
0.0
 11
271.391774007
 21
97.4129148141
 31
0.0
  0
LINE
  5
70
330
1F
100
AcDbEntity
  8
0
  6
Continuous
 62
     7
370
    15
100
AcDbLine
 10
271.391774007
 20
179.1129148141
 30
0.0
 11
271.291774007
 21
179.1129148141
 31
0.0
  0
LINE
  5
71
330
1F
100
AcDbEntity
  8
0
  6
Continuous
 62
     7
370
    15
100
AcDbLine
 10
271.291774007
 20
177.4129148141
 30
0.0
 11
271.391774007
 21
177.4129148141
 31
0.0
  0
LINE
  5
72
330
1F
100
AcDbEntity
  8
0
  6
Continuous
 62
     7
370
    15
100
AcDbLine
 10
271.391774007
 20
184.078273798
 30
0.0
 11
271.291774007
 21
184.078273798
 31
0.0
  0
LINE
  5
73
330
1F
100
AcDbEntity
  8
0
  6
Continuous
 62
     7
370
    15
100
AcDbLine
 10
271.291774007
 20
182.378273798
 30
0.0
 11
271.391774007
 21
182.378273798
 31
0.0
  0
LINE
  5
74
330
1F
100
AcDbEntity
  8
0
  6
Continuous
 62
     7
370
    15
100
AcDbLine
 10
271.391774007
 20
104.078273798
 30
0.0
 11
271.291774007
 21
104.078273798
 31
0.0
  0
LINE
  5
75
330
1F
100
AcDbEntity
  8
0
  6
Continuous
 62
     7
370
    15
100
AcDbLine
 10
271.291774007
 20
102.378273798
 30
0.0
 11
271.391774007
 21
102.378273798
 31
0.0
  0
ARC
  5
76
330
1F
100
AcDbEntity
  8
0
  6
Continuous
 62
     7
370
    15
100
AcDbCircle
 10
119.791774007
 20
185.9338799124
 30
0.0
 40
0.3999999999999996
100
AcDbArc
 50
288.9655749888
 51
331.4768269524
  0
LWPOLYLINE
  5
77
330
1F
100
AcDbEntity
  8
0
  6
Continuous
 62
     7
370
    15
100
AcDbPolyline
 90
        3
 70
   128
 43
0.0
 10
120.1840384125
 20
185.855594306
 10
120.1869802818
 20
185.8721385137
 10
120.191774007
 20
185.9338799124
  0
LWPOLYLINE
  5
78
330
1F
100
AcDbEntity
  8
0
  6
Continuous
 62
     7
370
    15
100
AcDbPolyline
 90
        3
 70
   128
 43
0.0
 10
115.831774007
 20
185.9338799124
 10
115.8365677321
 20
185.8721385137
 10
115.8395096015
 20
185.855594306
  0
ARC
  5
79
330
1F
100
AcDbEntity
  8
0
  6
Continuous
 62
     7
370
    15
100
AcDbCircle
 10
116.231774007
 20
185.9338799124
 30
0.0
 40
0.3999999999999999
100
AcDbArc
 50
208.5231700616
 51
251.0344250112
  0
LINE
  5
7A
330
1F
100
AcDbEntity
  8
0
  6
Continuous
 62
     7
370
    15
100
AcDbLine
 10
115.831774007
 20
187.295594306
 30
0.0
 11
115.831774007
 21
185.9338799124
 31
0.0
  0
LINE
  5
7B
330
1F
100
AcDbEntity
  8
0
  6
Continuous
 62
     7
370
    15
100
AcDbLine
 10
120.191774007
 20
185.9338799124
 30
0.0
 11
120.191774007
 21
187.295594306
 31
0.0
  0
LINE
  5
7C
330
1F
100
AcDbEntity
  8
0
  6
Continuous
 62
     7
370
    15
100
AcDbLine
 10
115.831774007
 20
188.555594306
 30
0.0
 11
115.831774007
 21
188.075594306
 31
0.0
  0
LINE
  5
7D
330
1F
100
AcDbEntity
  8
0
  6
Continuous
 62
     7
370
    15
100
AcDbLine
 10
120.191774007
 20
188.075594306
 30
0.0
 11
120.191774007
 21
188.555594306
 31
0.0
  0
LINE
  5
7E
330
1F
100
AcDbEntity
  8
0
  6
Continuous
 62
     7
370
    15
100
AcDbLine
 10
120.041774007
 20
188.555594306
 30
0.0
 11
120.041774007
 21
189.595594306
 31
0.0
  0
LINE
  5
7F
330
1F
100
AcDbEntity
  8
0
  6
Continuous
 62
     7
370
    15
100
AcDbLine
 10
115.981774007
 20
189.595594306
 30
0.0
 11
115.981774007
 21
188.555594306
 31
0.0
  0
LINE
  5
80
330
1F
100
AcDbEntity
  8
0
  6
Continuous
 62
     7
370
    15
100
AcDbLine
 10
119.896774007
 20
189.595594306
 30
0.0
 11
119.896774007
 21
189.855594306
 31
0.0
  0
LINE
  5
81
330
1F
100
AcDbEntity
  8
0
  6
Continuous
 62
     7
370
    15
100
AcDbLine
 10
116.126774007
 20
189.855594306
 30
0.0
 11
116.126774007
 21
189.595594306
 31
0.0
  0
LWPOLYLINE
  5
82
330
1F
100
AcDbEntity
  8
0
  6
Continuous
 62
     7
370
    15
100
AcDbPolyline
 90
        3
 70
   128
 43
0.0
 10
115.831774007
 20
185.855594306
 10
115.8534211886
 20
185.7934239193
 10
115.880324374
 20
185.7428742683
  0
LWPOLYLINE
  5
83
330
1F
100
AcDbEntity
  8
0
  6
Continuous
 62
     7
370
    15
100
AcDbPolyline
 90
        3
 70
   128
 43
0.0
 10
120.1432236288
 20
185.7428742506
 10
120.1701268253
 20
185.7934239193
 10
120.191774007
 20
185.855594306
  0
ARC
  5
84
330
1F
100
AcDbEntity
  8
0
  6
Continuous
 62
     7
370
    15
100
AcDbCircle
 10
122.621774007
 20
91.9755943061
 30
0.0
 40
0.289999999999992
100
AcDbArc
 50
180.0
 51
270.0
  0
ARC
  5
85
330
1F
100
AcDbEntity
  8
0
  6
Continuous
 62
     7
370
    15
100
AcDbCircle
 10
122.381774007
 20
92.9955943061
 30
0.0
 40
0.0500000000000114
100
AcDbArc
 50
90.0
 51
180.0
  0
LINE
  5
86
330
1F
100
AcDbEntity
  8
0
  6
Continuous
 62
     7
370
    15
100
AcDbLine
 10
122.331774007
 20
92.9955943061
 30
0.0
 11
122.331774007
 21
91.9755943061
 31
0.0
  0
SPLINE
  5
87
330
1F
100
AcDbEntity
  8
0
  6
Continuous
 62
     7
370
    15
100
AcDbSpline
210
0.0
220
0.0
230
1.0
 70
     8
 71
     3
 72
    12
 73
     8
 74
     0
 42
0.00000001
 43
0.00000001
 12
1.0
 22
0.0
 32
0.0
 13
1.0
 23
0.0
 33
0.0
 40
0.0
 40
0.0
 40
0.0
 40
0.0
 40
0.1499327746632614
 40
0.4430130871959987
 40
0.670698949281738
 40
0.8669300093600071
 40
1.0
 40
1.0
 40
1.0
 40
1.0
 10
122.901424351819
 20
91.92659642129348
 30
0.0
 10
122.8975255357597
 20
91.92647406690924
 30
0.0
 10
122.8860055292587
 20
91.92611254092787
 30
0.0
 10
122.8694717167844
 20
91.93428704824846
 30
0.0
 10
122.8560332861963
 20
91.94817521630635
 30
0.0
 10
122.8491772531877
 20
91.96259816398161
 30
0.0
 10
122.8490240151391
 20
91.97192757032481
 30
0.0
 10
122.8489620919061
 20
91.97569756745072
 30
0.0
  0
ARC
  5
88
330
1F
100
AcDbEntity
  8
0
  6
Continuous
 62
     7
370
    15
100
AcDbCircle
 10
122.7984582613
 20
92.9955943061
 30
0.0
 40
0.0499999999999972
100
AcDbArc
 50
0.0
 51
90.0
  0
LINE
  5
89
330
1F
100
AcDbEntity
  8
0
  6
Continuous
 62
     7
370
    15
100
AcDbLine
 10
122.8484582613
 20
91.9755943061
 30
0.0
 11
122.8484582613
 21
92.9955943061
 31
0.0
  0
ARC
  5
8A
330
1F
100
AcDbEntity
  8
0
  6
Continuous
 62
     7
370
    15
100
AcDbCircle
 10
126.2112684723
 20
92.9955943061
 30
0.0
 40
0.0500000000000114
100
AcDbArc
 50
90.0
 51
180.0
  0
LINE
  5
8B
330
1F
100
AcDbEntity
  8
0
  6
Continuous
 62
     7
370
    15
100
AcDbLine
 10
126.1612684723
 20
92.9955943061
 30
0.0
 11
126.1612684723
 21
91.9755943061
 31
0.0
  0
ARC
  5
8C
330
1F
100
AcDbEntity
  8
0
  6
Continuous
 62
     7
370
    15
100
AcDbCircle
 10
126.121774007
 20
91.9755943061
 30
0.0
 40
0.2900000000000205
100
AcDbArc
 50
270.0
 51
0.0
  0
ARC
  5
8D
330
1F
100
AcDbEntity
  8
0
  6
Continuous
 62
     7
370
    15
100
AcDbCircle
 10
126.361774007
 20
92.9955943061
 30
0.0
 40
0.0500000000000256
100
AcDbArc
 50
0.0
 51
90.0
  0
LINE
  5
8E
330
1F
100
AcDbEntity
  8
0
  6
Continuous
 62
     7
370
    15
100
AcDbLine
 10
126.411774007
 20
91.9755943061
 30
0.0
 11
126.411774007
 21
92.9955943061
 31
0.0
  0
LINE
  5
8F
330
1F
100
AcDbEntity
  8
0
  6
Continuous
 62
     7
370
    15
100
AcDbLine
 10
125.8950897526
 20
92.9955943061
 30
0.0
 11
125.8950897526
 21
92.1655943061
 31
0.0
  0
ARC
  5
90
330
1F
100
AcDbEntity
  8
0
  6
Continuous
 62
     7
370
    15
100
AcDbCircle
 10
125.9450897526
 20
92.9955943061
 30
0.0
 40
0.0499999999999972
100
AcDbArc
 50
90.0
 51
180.0
  0
SPLINE
  5
91
330
1F
100
AcDbEntity
  8
0
  6
Continuous
 62
     7
370
    15
100
AcDbSpline
210
0.0
220
0.0
230
1.0
 70
     8
 71
     3
 72
    13
 73
     9
 74
     0
 42
0.00000001
 43
0.00000001
 12
1.0
 22
0.0
 32
0.0
 13
1.0
 23
0.0
 33
0.0
 40
0.0
 40
0.0
 40
0.0
 40
0.0
 40
0.076216604380976
 40
0.2251793228077369
 40
0.4232670052927735
 40
0.644902693530667
 40
0.9051305481262872
 40
1.0
 40
1.0
 40
1.0
 40
1.0
 10
124.2379372065282
 20
91.93867096883285
 30
0.0
 10
124.2378936570899
 20
91.93874462284798
 30
0.0
 10
124.23776499178
 20
91.9389622310894
 30
0.0
 10
124.2397853642704
 20
91.93453703383948
 30
0.0
 10
124.2426484406982
 20
91.92436753005092
 30
0.0
 10
124.2455865709166
 20
91.90712602030739
 30
0.0
 10
124.247217665885
 20
91.88962081344559
 30
0.0
 10
124.2470140370041
 20
91.87855539748638
 30
0.0
 10
124.246959634563
 20
91.87559910937134
 30
0.0
  0
ARC
  5
92
330
1F
100
AcDbEntity
  8
0
  6
Continuous
 62
     7
370
    15
100
AcDbCircle
 10
124.2971777382
 20
90.8555943061
 30
0.0
 40
0.0500000000000114
100
AcDbArc
 50
180.0
 51
270.0
  0
LINE
  5
93
330
1F
100
AcDbEntity
  8
0
  6
Continuous
 62
     7
370
    15
100
AcDbLine
 10
124.2471777382
 20
91.8755943061
 30
0.0
 11
124.2471777382
 21
90.8555943061
 31
0.0
  0
ARC
  5
94
330
1F
100
AcDbEntity
  8
0
  6
Continuous
 62
     7
370
    15
100
AcDbCircle
 10
125.4892249754
 20
90.8555943061
 30
0.0
 40
0.0500000000000114
100
AcDbArc
 50
270.0
 51
0.0
  0
LINE
  5
95
330
1F
100
AcDbEntity
  8
0
  6
Continuous
 62
     7
370
    15
100
AcDbLine
 10
125.5392249754
 20
90.8555943061
 30
0.0
 11
125.5392249754
 21
91.8755943061
 31
0.0
  0
ARC
  5
96
330
1F
100
AcDbEntity
  8
0
  6
Continuous
 62
     7
370
    15
100
AcDbCircle
 10
126.061774007
 20
91.9755943061
 30
0.0
 40
0.0499999999999972
100
AcDbArc
 50
270.0
 51
0.0
  0
ARC
  5
97
330
1F
100
AcDbEntity
  8
0
  6
Continuous
 62
     7
370
    15
100
AcDbCircle
 10
126.061774007
 20
92.1155943061
 30
0.0
 40
0.0500000000000114
100
AcDbArc
 50
0.0
 51
90.0
  0
LINE
  5
98
330
1F
100
AcDbEntity
  8
0
  6
Continuous
 62
     7
370
    15
100
AcDbLine
 10
126.111774007
 20
91.9755943061
 30
0.0
 11
126.111774007
 21
92.1155943061
 31
0.0
  0
LINE
  5
99
330
1F
100
AcDbEntity
  8
0
  6
Continuous
 62
     7
370
    15
100
AcDbLine
 10
123.2043230386
 20
91.6855943061
 30
0.0
 11
123.2043230386
 21
90.8555943061
 31
0.0
  0
ARC
  5
9A
330
1F
100
AcDbEntity
  8
0
  6
Continuous
 62
     7
370
    15
100
AcDbCircle
 10
123.2543230386
 20
90.8555943061
 30
0.0
 40
0.0499999999999994
100
AcDbArc
 50
180.0
 51
226.2486512234
  0
LINE
  5
9B
330
1F
100
AcDbEntity
  8
0
  6
Continuous
 62
     7
370
    15
100
AcDbLine
 10
123.371774007
 20
91.6855943061
 30
0.0
 11
123.2538980553
 21
91.6175385936
 31
0.0
  0
LINE
  5
9C
330
1F
100
AcDbEntity
  8
0
  6
Continuous
 62
     7
370
    15
100
AcDbLine
 10
123.2538980553
 20
90.7136500185
 30
0.0
 11
123.371774007
 21
90.6455943061
 31
0.0
  0
LINE
  5
9D
330
1F
100
AcDbEntity
  8
0
  6
Continuous
 62
     7
370
    15
100
AcDbLine
 10
125.371774007
 20
90.6455943061
 30
0.0
 11
125.4896499586
 21
90.7136500185
 31
0.0
  0
LINE
  5
9E
330
1F
100
AcDbEntity
  8
0
  6
Continuous
 62
     7
370
    15
100
AcDbLine
 10
125.371774007
 20
92.1655943061
 30
0.0
 11
125.4137655429
 21
92.1898381306
 31
0.0
  0
LINE
  5
9F
330
1F
100
AcDbEntity
  8
0
  6
Continuous
 62
     7
370
    15
100
AcDbLine
 10
125.4137655429
 20
93.1813504815
 30
0.0
 11
125.371774007
 21
93.2055943061
 31
0.0
  0
LINE
  5
A0
330
1F
100
AcDbEntity
  8
0
  6
Continuous
 62
     7
370
    15
100
AcDbLine
 10
123.329782471
 20
92.1898381306
 30
0.0
 11
123.371774007
 21
92.1655943061
 31
0.0
  0
LINE
  5
A1
330
1F
100
AcDbEntity
  8
0
  6
Continuous
 62
     7
370
    15
100
AcDbLine
 10
123.371774007
 20
93.2055943061
 30
0.0
 11
123.329782471
 21
93.1813504815
 31
0.0
  0
LINE
  5
A2
330
1F
100
AcDbEntity
  8
0
  6
Continuous
 62
     7
370
    15
100
AcDbLine
 10
123.3342165409
 20
93.2772781192
 30
0.0
 11
123.371774007
 21
93.2555943061
 31
0.0
  0
LINE
  5
A3
330
1F
100
AcDbEntity
  8
0
  6
Continuous
 62
     7
370
    15
100
AcDbLine
 10
125.371774007
 20
93.2555943061
 30
0.0
 11
125.4093314731
 21
93.2772781192
 31
0.0
  0
LINE
  5
A4
330
1F
100
AcDbEntity
  8
0
  6
Continuous
 62
     7
370
    15
100
AcDbLine
 10
123.771774007
 20
93.2555943061
 30
0.0
 11
123.771774007
 21
93.2055943061
 31
0.0
  0
LINE
  5
A5
330
1F
100
AcDbEntity
  8
0
  6
Continuous
 62
     7
370
    15
100
AcDbLine
 10
124.971774007
 20
93.2055943061
 30
0.0
 11
124.971774007
 21
93.2555943061
 31
0.0
  0
ARC
  5
A6
330
1F
100
AcDbEntity
  8
0
  6
Continuous
 62
     7
370
    15
100
AcDbCircle
 10
143.291774007
 20
61.0455943061
 30
0.0
 40
0.4000000000000057
100
AcDbArc
 50
270.0
 51
0.0
  0
ARC
  5
A7
330
1F
100
AcDbEntity
  8
0
  6
Continuous
 62
     7
370
    15
100
AcDbCircle
 10
132.691774007
 20
61.0455943061
 30
0.0
 40
0.4000000000000057
100
AcDbArc
 50
180.0
 51
270.0
  0
LINE
  5
A8
330
1F
100
AcDbEntity
  8
0
  6
Continuous
 62
     7
370
    15
100
AcDbLine
 10
143.691774007
 20
61.0455943061
 30
0.0
 11
143.691774007
 21
61.8455943061
 31
0.0
  0
LINE
  5
A9
330
1F
100
AcDbEntity
  8
0
  6
Continuous
 62
     7
370
    15
100
AcDbLine
 10
132.291774007
 20
61.8455943061
 30
0.0
 11
132.291774007
 21
61.0455943061
 31
0.0
  0
LINE
  5
AA
330
1F
100
AcDbEntity
  8
0
  6
Continuous
 62
     7
370
    15
100
AcDbLine
 10
259.491774007
 20
61.0455943061
 30
0.0
 11
259.491774007
 21
61.8455943061
 31
0.0
  0
LINE
  5
AB
330
1F
100
AcDbEntity
  8
0
  6
Continuous
 62
     7
370
    15
100
AcDbLine
 10
248.091774007
 20
61.8455943061
 30
0.0
 11
248.091774007
 21
61.0455943061
 31
0.0
  0
ARC
  5
AC
330
1F
100
AcDbEntity
  8
0
  6
Continuous
 62
     7
370
    15
100
AcDbCircle
 10
259.091774007
 20
61.0455943061
 30
0.0
 40
0.3999999999999986
100
AcDbArc
 50
270.0
 51
0.0
  0
ARC
  5
AD
330
1F
100
AcDbEntity
  8
0
  6
Continuous
 62
     7
370
    15
100
AcDbCircle
 10
248.491774007
 20
61.0455943061
 30
0.0
 40
0.4000000000000057
100
AcDbArc
 50
180.0
 51
270.0
  0
LINE
  5
AE
330
1F
100
AcDbEntity
  8
0
  6
Continuous
 62
     7
370
    15
100
AcDbLine
 10
259.451774007
 20
61.8455943061
 30
0.0
 11
259.451774007
 21
75.4455943061
 31
0.0
  0
LINE
  5
AF
330
1F
100
AcDbEntity
  8
0
  6
Continuous
 62
     7
370
    15
100
AcDbLine
 10
248.131774007
 20
75.4455943061
 30
0.0
 11
248.131774007
 21
61.8455943061
 31
0.0
  0
LINE
  5
B0
330
1F
100
AcDbEntity
  8
0
  6
Continuous
 62
     7
370
    15
100
AcDbLine
 10
143.651774007
 20
61.8455943061
 30
0.0
 11
143.651774007
 21
75.4455943061
 31
0.0
  0
LINE
  5
B1
330
1F
100
AcDbEntity
  8
0
  6
Continuous
 62
     7
370
    15
100
AcDbLine
 10
132.331774007
 20
75.4455943061
 30
0.0
 11
132.331774007
 21
61.8455943061
 31
0.0
  0
ARC
  5
B2
330
1F
100
AcDbEntity
  8
0
  6
Continuous
 62
     7
370
    15
100
AcDbCircle
 10
260.471774007
 20
93.9455943061
 30
0.0
 40
0.3000000000000682
100
AcDbArc
 50
90.0
 51
180.0
  0
ARC
  5
B3
330
1F
100
AcDbEntity
  8
0
  6
Continuous
 62
     7
370
    15
100
AcDbCircle
 10
247.111774007
 20
93.9455943061
 30
0.0
 40
0.3000000000000398
100
AcDbArc
 50
0.0
 51
90.0
  0
ARC
  5
B4
330
1F
100
AcDbEntity
  8
0
  6
Continuous
 62
     7
370
    15
100
AcDbCircle
 10
259.231774007
 20
76.6521074952
 30
0.0
 40
0.9400000000000586
100
AcDbArc
 50
350.5402980318
 51
0.0
  0
ARC
  5
B5
330
1F
100
AcDbEntity
  8
0
  6
Continuous
 62
     7
370
    15
100
AcDbCircle
 10
248.351774007
 20
76.6521074952
 30
0.0
 40
0.9400000000000305
100
AcDbArc
 50
180.0
 51
189.4597019682
  0
LINE
  5
B6
330
1F
100
AcDbEntity
  8
0
  6
Continuous
 62
     7
370
    15
100
AcDbLine
 10
260.171774007
 20
76.6521074952
 30
0.0
 11
260.171774007
 21
93.9455943061
 31
0.0
  0
LINE
  5
B7
330
1F
100
AcDbEntity
  8
0
  6
Continuous
 62
     7
370
    15
100
AcDbLine
 10
247.411774007
 20
93.9455943061
 30
0.0
 11
247.411774007
 21
76.6521074952
 31
0.0
  0
LINE
  5
B8
330
1F
100
AcDbEntity
  8
0
  6
Continuous
 62
     7
370
    15
100
AcDbLine
 10
247.4245566524
 20
76.4976148503
 30
0.0
 11
247.5998439629
 21
75.4455943061
 31
0.0
  0
LINE
  5
B9
330
1F
100
AcDbEntity
  8
0
  6
Continuous
 62
     7
370
    15
100
AcDbLine
 10
259.983704051
 20
75.4455943061
 30
0.0
 11
260.1589913616
 21
76.4976148503
 31
0.0
  0
ARC
  5
BA
330
1F
100
AcDbEntity
  8
0
  6
Continuous
 62
     7
370
    15
100
AcDbCircle
 10
144.671774007
 20
93.9455943061
 30
0.0
 40
0.3000000000000398
100
AcDbArc
 50
90.0
 51
180.0
  0
ARC
  5
BB
330
1F
100
AcDbEntity
  8
0
  6
Continuous
 62
     7
370
    15
100
AcDbCircle
 10
131.311774007
 20
93.9455943061
 30
0.0
 40
0.2999999999999829
100
AcDbArc
 50
0.0
 51
90.0
  0
LINE
  5
BC
330
1F
100
AcDbEntity
  8
0
  6
Continuous
 62
     7
370
    15
100
AcDbLine
 10
144.371774007
 20
76.6521074952
 30
0.0
 11
144.371774007
 21
93.9455943061
 31
0.0
  0
LINE
  5
BD
330
1F
100
AcDbEntity
  8
0
  6
Continuous
 62
     7
370
    15
100
AcDbLine
 10
131.611774007
 20
93.9455943061
 30
0.0
 11
131.611774007
 21
76.6521074952
 31
0.0
  0
ARC
  5
BE
330
1F
100
AcDbEntity
  8
0
  6
Continuous
 62
     7
370
    15
100
AcDbCircle
 10
143.431774007
 20
76.6521074952
 30
0.0
 40
0.9400000000000305
100
AcDbArc
 50
350.5402980318
 51
0.0
  0
ARC
  5
BF
330
1F
100
AcDbEntity
  8
0
  6
Continuous
 62
     7
370
    15
100
AcDbCircle
 10
132.551774007
 20
76.6521074952
 30
0.0
 40
0.9399999999999977
100
AcDbArc
 50
180.0
 51
189.4597019682
  0
LINE
  5
C0
330
1F
100
AcDbEntity
  8
0
  6
Continuous
 62
     7
370
    15
100
AcDbLine
 10
131.6245566524
 20
76.4976148503
 30
0.0
 11
131.7998439629
 21
75.4455943061
 31
0.0
  0
LINE
  5
C1
330
1F
100
AcDbEntity
  8
0
  6
Continuous
 62
     7
370
    15
100
AcDbLine
 10
144.183704051
 20
75.4455943061
 30
0.0
 11
144.3589913616
 21
76.4976148503
 31
0.0
  0
LINE
  5
C2
330
1F
100
AcDbEntity
  8
0
  6
Continuous
 62
     7
370
    15
100
AcDbLine
 10
272.1870966248
 20
190.2093474601
 30
0.0
 11
272.1870966248
 21
190.2493474601
 31
0.0
  0
LINE
  5
C3
330
1F
100
AcDbEntity
  8
0
  6
Continuous
 62
     7
370
    15
100
AcDbLine
 10
282.9870966248
 20
190.2093474601
 30
0.0
 11
282.9870966248
 21
190.2493474601
 31
0.0
  0
LINE
  5
C4
330
1F
100
AcDbEntity
  8
0
  6
Continuous
 62
     7
370
    15
100
AcDbLine
 10
283.5870966248
 20
190.1943474601
 30
0.0
 11
283.5870966248
 21
190.2093474601
 31
0.0
  0
LINE
  5
C5
330
1F
100
AcDbEntity
  8
0
  6
Continuous
 62
     7
370
    15
100
AcDbLine
 10
271.291774007
 20
190.2093474601
 30
0.0
 11
283.5870966248
 21
190.2093474601
 31
0.0
  0
LINE
  5
C6
330
1F
100
AcDbEntity
  8
0
  6
Continuous
 62
     7
370
    15
100
AcDbLine
 10
271.291774007
 20
190.1943474601
 30
0.0
 11
283.5870966248
 21
190.1943474601
 31
0.0
  0
LINE
  5
C7
330
1F
100
AcDbEntity
  8
0
  6
Continuous
 62
     7
370
    15
100
AcDbLine
 10
287.6564396422
 20
206.5209326485
 30
0.0
 11
287.6383134865
 21
206.5124802833
 31
0.0
  0
LINE
  5
C8
330
1F
100
AcDbEntity
  8
0
  6
Continuous
 62
     7
370
    15
100
AcDbLine
 10
287.6564396422
 20
206.5209326485
 30
0.0
 11
289.6850072986
 21
202.1706552707
 31
0.0
  0
LINE
  5
C9
330
1F
100
AcDbEntity
  8
0
  6
Continuous
 62
     7
370
    15
100
AcDbLine
 10
289.6850072986
 20
202.1706552707
 30
0.0
 11
289.6668811428
 21
202.1622029055
 31
0.0
  0
LINE
  5
CA
330
1F
100
AcDbEntity
  8
0
  6
Continuous
 62
     7
370
    15
100
AcDbLine
 10
289.4907071307
 20
202.6346573571
 30
0.0
 11
289.5540998699
 21
202.4987111891
 31
0.0
  0
LINE
  5
CB
330
1F
100
AcDbEntity
  8
0
  6
Continuous
 62
     7
370
    15
100
AcDbLine
 10
289.5540998699
 20
202.4987111891
 30
0.0
 11
289.5359737142
 21
202.4902588238
 31
0.0
  0
LINE
  5
CC
330
1F
100
AcDbEntity
  8
0
  6
Continuous
 62
     7
370
    15
100
AcDbLine
 10
287.8424959099
 20
206.1692577266
 30
0.0
 11
289.4907071307
 21
202.6346573571
 31
0.0
  0
LINE
  5
CD
330
1F
100
AcDbEntity
  8
0
  6
Continuous
 62
     7
370
    15
100
AcDbLine
 10
287.8213649968
 20
206.2145731159
 30
0.0
 11
287.8424959099
 21
206.1692577266
 31
0.0
  0
LINE
  5
CE
330
1F
100
AcDbEntity
  8
0
  6
Continuous
 62
     7
370
    15
100
AcDbLine
 10
287.6546270267
 20
206.520087412
 30
0.0
 11
287.6383134865
 21
206.5124802833
 31
0.0
  0
LINE
  5
CF
330
1F
100
AcDbEntity
  8
0
  6
Continuous
 62
     7
370
    15
100
AcDbLine
 10
283.4284444093
 20
215.5831652823
 30
0.0
 11
283.4121308691
 21
215.5755581536
 31
0.0
  0
LINE
  5
D0
330
1F
100
AcDbEntity
  8
0
  6
Continuous
 62
     7
370
    15
100
AcDbLine
 10
283.4284444093
 20
215.5831652823
 30
0.0
 11
287.6546270267
 21
206.520087412
 31
0.0
  0
LINE
  5
D1
330
1F
100
AcDbEntity
  8
0
  6
Continuous
 62
     7
370
    15
100
AcDbLine
 10
287.59546047
 20
206.6469705022
 30
0.0
 11
287.5972730856
 21
206.6478157387
 31
0.0
  0
LINE
  5
D2
330
1F
100
AcDbEntity
  8
0
  6
Continuous
 62
     7
370
    15
100
AcDbLine
 10
285.5711189963
 20
210.9881848021
 30
0.0
 11
285.5729316119
 21
210.9890300386
 31
0.0
  0
LINE
  5
D3
330
1F
100
AcDbEntity
  8
0
  6
Continuous
 62
     7
370
    15
100
AcDbLine
 10
285.5729316119
 20
210.9890300386
 30
0.0
 11
287.5972730856
 21
206.6478157387
 31
0.0
  0
LINE
  5
D4
330
1F
100
AcDbEntity
  8
0
  6
Continuous
 62
     7
370
    15
100
AcDbLine
 10
283.4894235815
 20
215.4571274287
 30
0.0
 11
285.5137650552
 21
211.1159131288
 31
0.0
  0
LINE
  5
D5
330
1F
100
AcDbEntity
  8
0
  6
Continuous
 62
     7
370
    15
100
AcDbLine
 10
283.4876109659
 20
215.4562821922
 30
0.0
 11
283.4894235815
 21
215.4571274287
 31
0.0
  0
LINE
  5
D6
330
1F
100
AcDbEntity
  8
0
  6
Continuous
 62
     7
370
    15
100
AcDbLine
 10
285.5119524396
 20
211.1150678923
 30
0.0
 11
285.5137650552
 21
211.1159131288
 31
0.0
  0
LINE
  5
D7
330
1F
100
AcDbEntity
  8
0
  6
Continuous
 62
     7
370
    15
100
AcDbLine
 10
287.4579132914
 20
206.9939978134
 30
0.0
 11
287.4397871357
 21
206.9855454481
 31
0.0
  0
LINE
  5
D8
330
1F
100
AcDbEntity
  8
0
  6
Continuous
 62
     7
370
    15
100
AcDbLine
 10
287.3945205522
 20
207.1299439814
 30
0.0
 11
287.4579132914
 21
206.9939978134
 31
0.0
  0
LINE
  5
D9
330
1F
100
AcDbEntity
  8
0
  6
Continuous
 62
     7
370
    15
100
AcDbLine
 10
285.8730948099
 20
210.3926520148
 30
0.0
 11
287.3945205522
 21
207.1299439814
 31
0.0
  0
LINE
  5
DA
330
1F
100
AcDbEntity
  8
0
  6
Continuous
 62
     7
370
    15
100
AcDbLine
 10
285.3598427597
 20
211.4933245884
 30
0.0
 11
285.341716604
 21
211.4848722232
 31
0.0
  0
LINE
  5
DB
330
1F
100
AcDbEntity
  8
0
  6
Continuous
 62
     7
370
    15
100
AcDbLine
 10
284.0074643221
 20
214.3935095069
 30
0.0
 11
285.3598427597
 21
211.4933245884
 31
0.0
  0
LINE
  5
DC
330
1F
100
AcDbEntity
  8
0
  6
Continuous
 62
     7
370
    15
100
AcDbLine
 10
284.0074643221
 20
214.3935095069
 30
0.0
 11
283.9893381664
 21
214.3850571417
 31
0.0
  0
LINE
  5
DD
330
1F
100
AcDbEntity
  8
0
  6
Continuous
 62
     7
370
    15
100
AcDbLine
 10
283.8337262552
 20
214.7660919937
 30
0.0
 11
283.8156000995
 21
214.7576396284
 31
0.0
  0
LINE
  5
DE
330
1F
100
AcDbEntity
  8
0
  6
Continuous
 62
     7
370
    15
100
AcDbLine
 10
283.9041858635
 20
214.6149908762
 30
0.0
 11
283.8860597078
 21
214.6065385109
 31
0.0
  0
LINE
  5
DF
330
1F
100
AcDbEntity
  8
0
  6
Continuous
 62
     7
370
    15
100
AcDbLine
 10
283.8337262552
 20
214.7660919937
 30
0.0
 11
283.9041858635
 21
214.6149908762
 31
0.0
  0
LINE
  5
E0
330
1F
100
AcDbEntity
  8
0
  6
Continuous
 62
     7
370
    15
100
AcDbLine
 10
283.9041858635
 20
214.6149908762
 30
0.0
 11
284.0074643221
 21
214.3935095069
 31
0.0
  0
LINE
  5
E1
330
1F
100
AcDbEntity
  8
0
  6
Continuous
 62
     7
370
    15
100
AcDbLine
 10
283.72255725
 20
215.0044946948
 30
0.0
 11
283.7044310943
 21
214.9960423295
 31
0.0
  0
LINE
  5
E2
330
1F
100
AcDbEntity
  8
0
  6
Continuous
 62
     7
370
    15
100
AcDbLine
 10
283.72255725
 20
215.0044946948
 30
0.0
 11
283.8337262552
 21
214.7660919937
 31
0.0
  0
LINE
  5
E3
330
1F
100
AcDbEntity
  8
0
  6
Continuous
 62
     7
370
    15
100
AcDbLine
 10
283.6799442295
 20
215.0958786122
 30
0.0
 11
283.72255725
 21
215.0044946948
 31
0.0
  0
LINE
  5
E4
330
1F
100
AcDbEntity
  8
0
  6
Continuous
 62
     7
370
    15
100
AcDbLine
 10
285.8519638968
 20
210.4379674041
 30
0.0
 11
285.8730948099
 21
210.3926520148
 31
0.0
  0
LINE
  5
E5
330
1F
100
AcDbEntity
  8
0
  6
Continuous
 62
     7
370
    15
100
AcDbLine
 10
281.091774007
 20
93.768273798
 30
0.0
 11
279.6491464619
 21
93.768273798
 31
0.0
  0
LINE
  5
E6
330
1F
100
AcDbEntity
  8
0
  6
Continuous
 62
     7
370
    15
100
AcDbLine
 10
281.091774007
 20
93.168273798
 30
0.0
 11
279.6491464619
 21
93.168273798
 31
0.0
  0
LINE
  5
E7
330
1F
100
AcDbEntity
  8
0
  6
Continuous
 62
     7
370
    15
100
AcDbLine
 10
279.6491464619
 20
93.768273798
 30
0.0
 11
271.6917979654
 21
93.768273798
 31
0.0
  0
LINE
  5
E8
330
1F
100
AcDbEntity
  8
0
  6
Continuous
 62
     7
370
    15
100
AcDbLine
 10
279.6491464619
 20
93.168273798
 30
0.0
 11
271.6917979654
 21
93.168273798
 31
0.0
  0
LINE
  5
E9
330
1F
100
AcDbEntity
  8
0
  6
Continuous
 62
     7
370
    15
100
AcDbLine
 10
271.5704841928
 20
93.768273798
 30
0.0
 11
271.6917979654
 21
93.768273798
 31
0.0
  0
LINE
  5
EA
330
1F
100
AcDbEntity
  8
0
  6
Continuous
 62
     7
370
    15
100
AcDbLine
 10
271.6917979654
 20
93.168273798
 30
0.0
 11
271.5704841928
 21
93.168273798
 31
0.0
  0
ARC
  5
EB
330
1F
100
AcDbEntity
  8
0
  6
Continuous
 62
     7
370
    15
100
AcDbCircle
 10
268.431774007
 20
94.568273798
 30
0.0
 40
0.8000000000000069
100
AcDbArc
 50
203.7877311369
 51
270.0
  0
ARC
  5
EC
330
1F
100
AcDbEntity
  8
0
  6
Continuous
 62
     7
370
    15
100
AcDbCircle
 10
268.431774007
 20
94.568273798
 30
0.0
 40
1.399999999999994
100
AcDbArc
 50
193.3256480864
 51
270.0
  0
LINE
  5
ED
330
1F
100
AcDbEntity
  8
0
  6
Continuous
 62
     7
370
    15
100
AcDbLine
 10
271.5704841928
 20
93.768273798
 30
0.0
 11
268.431774007
 21
93.768273798
 31
0.0
  0
LINE
  5
EE
330
1F
100
AcDbEntity
  8
0
  6
Continuous
 62
     7
370
    15
100
AcDbLine
 10
271.5704841928
 20
93.168273798
 30
0.0
 11
268.431774007
 21
93.168273798
 31
0.0
  0
LINE
  5
EF
330
1F
100
AcDbEntity
  8
0
  6
Continuous
 62
     7
370
    15
100
AcDbLine
 10
268.231774007
 20
93.7936771287
 30
0.0
 11
268.231774007
 21
94.245594306
 31
0.0
  0
LINE
  5
F0
330
1F
100
AcDbEntity
  8
0
  6
Continuous
 62
     7
370
    15
100
AcDbLine
 10
270.631774007
 20
93.768273798
 30
0.0
 11
270.631774007
 21
94.245594306
 31
0.0
  0
LINE
  5
F1
330
1F
100
AcDbEntity
  8
0
  6
Continuous
 62
     7
370
    15
100
AcDbLine
 10
271.411774007
 20
144.970771557
 30
0.0
 11
271.411774007
 21
142.9707355223
 31
0.0
  0
LINE
  5
F2
330
1F
100
AcDbEntity
  8
0
  6
Continuous
 62
     7
370
    15
100
AcDbLine
 10
271.411774007
 20
146.9707355223
 30
0.0
 11
271.411774007
 21
144.970771557
 31
0.0
  0
ARC
  5
F3
330
1F
100
AcDbEntity
  8
0
  6
Continuous
 62
     7
370
    15
100
AcDbCircle
 10
282.7775779699
 20
167.6879370419
 30
0.0
 40
0.1000000000000095
100
AcDbArc
 50
272.4048581936
 51
330.0
  0
ARC
  5
F4
330
1F
100
AcDbEntity
  8
0
  6
Continuous
 62
     7
370
    15
100
AcDbCircle
 10
282.7775779699
 20
175.6881131867
 30
0.0
 40
0.1000000000000095
100
AcDbArc
 50
30.0
 51
87.5951418064
  0
SPLINE
  5
F5
330
1F
100
AcDbEntity
  8
0
  6
Continuous
 62
     7
370
    15
100
AcDbSpline
210
0.0
220
0.0
230
1.0
 70
     8
 71
     3
 72
     9
 73
     5
 74
     0
 42
0.00000001
 43
0.00000001
 12
1.0
 22
0.0
 32
0.0
 13
1.0
 23
0.0
 33
0.0
 40
0.0
 40
0.0
 40
0.0
 40
0.0
 40
0.4999928052376551
 40
1.0
 40
1.0
 40
1.0
 40
1.0
 10
283.1683765473476
 20
168.1648200335424
 30
0.0
 10
283.169964303377
 20
168.1682291420171
 30
0.0
 10
283.1731398611303
 20
168.1750474570788
 30
0.0
 10
283.16996433384
 20
168.183699187061
 30
0.0
 10
283.1683765473476
 20
168.1880251142993
 30
0.0
  0
LINE
  5
F6
330
1F
100
AcDbEntity
  8
0
  6
Continuous
 62
     7
370
    15
100
AcDbLine
 10
283.1683765473
 20
168.1648200335
 30
0.0
 11
282.8641805103
 21
167.6379370419
 31
0.0
  0
LINE
  5
F7
330
1F
100
AcDbEntity
  8
0
  6
Continuous
 62
     7
370
    15
100
AcDbLine
 10
283.1683765473
 20
175.2112301951
 30
0.0
 11
282.8641805103
 21
175.7381131867
 31
0.0
  0
SPLINE
  5
F8
330
1F
100
AcDbEntity
  8
0
  6
Continuous
 62
     7
370
    15
100
AcDbSpline
210
0.0
220
0.0
230
1.0
 70
     8
 71
     3
 72
     9
 73
     5
 74
     0
 42
0.00000001
 43
0.00000001
 12
1.0
 22
0.0
 32
0.0
 13
1.0
 23
0.0
 33
0.0
 40
0.0
 40
0.0
 40
0.0
 40
0.0
 40
0.4999928052373022
 40
0.9999999999999999
 40
0.9999999999999999
 40
0.9999999999999999
 40
0.9999999999999999
 10
283.1683765473476
 20
175.1880251142993
 30
0.0
 10
283.1699643033769
 20
175.1923509141449
 30
0.0
 10
283.1731398611303
 20
175.2010026383304
 30
0.0
 10
283.16996433384
 20
175.2078209767767
 30
0.0
 10
283.1683765473476
 20
175.2112301950562
 30
0.0
  0
LINE
  5
F9
330
1F
100
AcDbEntity
  8
0
  6
Continuous
 62
     7
370
    15
100
AcDbLine
 10
283.181774007
 20
175.1612301951
 30
0.0
 11
283.181774007
 21
168.2148200335
 31
0.0
  0
SPLINE
  5
FA
330
1F
100
AcDbEntity
  8
0
  6
Continuous
 62
     7
370
    15
100
AcDbSpline
210
0.0
220
0.0
230
1.0
 70
     8
 71
     3
 72
    12
 73
     8
 74
     0
 42
0.00000001
 43
0.00000001
 12
1.0
 22
0.0
 32
0.0
 13
1.0
 23
0.0
 33
0.0
 40
0.0
 40
0.0
 40
0.0
 40
0.0
 40
0.1571577297864095
 40
0.2505951270622469
 40
0.5008887538710938
 40
0.7473664047632589
 40
1.0
 40
1.0
 40
1.0
 40
1.0
 10
283.1817740069691
 20
168.2148200335424
 30
0.0
 10
283.1817251929829
 20
168.212784314701
 30
0.0
 10
283.1816473568682
 20
168.209538268691
 30
0.0
 10
283.1809031414689
 20
168.2030993532667
 30
0.0
 10
283.1792811751798
 20
168.1959431052303
 30
0.0
 10
283.1753828948117
 20
168.1889764813934
 30
0.0
 10
283.1707311212029
 20
168.1883448335393
 30
0.0
 10
283.1683765473476
 20
168.1880251142993
 30
0.0
  0
SPLINE
  5
FB
330
1F
100
AcDbEntity
  8
0
  6
Continuous
 62
     7
370
    15
100
AcDbSpline
210
0.0
220
0.0
230
1.0
 70
     8
 71
     3
 72
    12
 73
     8
 74
     0
 42
0.00000001
 43
0.00000001
 12
1.0
 22
0.0
 32
0.0
 13
1.0
 23
0.0
 33
0.0
 40
0.0
 40
0.0
 40
0.0
 40
0.0
 40
0.1571230726073564
 40
0.2505951320314715
 40
0.5008887571804674
 40
0.7473664064384564
 40
0.9999999999999999
 40
0.9999999999999999
 40
0.9999999999999999
 40
0.9999999999999999
 10
283.1817740069691
 20
175.1612301950562
 30
0.0
 10
283.1817252120966
 20
175.1632654582489
 30
0.0
 10
283.181647389296
 20
175.1665114936021
 30
0.0
 10
283.1809032361459
 20
175.1729504607537
 30
0.0
 10
283.1792811753866
 20
175.1801071213352
 30
0.0
 10
283.1753828947589
 20
175.187073747725
 30
0.0
 10
283.1707311211851
 20
175.187705395234
 30
0.0
 10
283.1683765473476
 20
175.1880251142993
 30
0.0
  0
SPLINE
  5
FC
330
1F
100
AcDbEntity
  8
0
  6
Continuous
 62
     7
370
    15
100
AcDbSpline
210
0.0
220
0.0
230
1.0
 70
     8
 71
     3
 72
    12
 73
     8
 74
     0
 42
0.00000001
 43
0.00000001
 12
1.0
 22
0.0
 32
0.0
 13
1.0
 23
0.0
 33
0.0
 40
0.0
 40
0.0
 40
0.0
 40
0.0
 40
0.2526335935620001
 40
0.4991112428197428
 40
0.7494048679689314
 40
0.8428769273823158
 40
1.0
 40
1.0
 40
1.0
 40
1.0
 10
283.1683765473476
 20
168.1648200335424
 30
0.0
 10
283.1707311211851
 20
168.1693695226778
 30
0.0
 10
283.1753828947588
 20
168.1783576431592
 30
0.0
 10
283.1792811753867
 20
168.1915652220177
 30
0.0
 10
283.1809032361458
 20
168.200863880086
 30
0.0
 10
283.1816473892961
 20
168.2085631675893
 30
0.0
 10
283.1817252120966
 20
168.2124088142436
 30
0.0
 10
283.1817740069691
 20
168.2148200335424
 30
0.0
  0
SPLINE
  5
FD
330
1F
100
AcDbEntity
  8
0
  6
Continuous
 62
     7
370
    15
100
AcDbSpline
210
0.0
220
0.0
230
1.0
 70
     8
 71
     3
 72
    12
 73
     8
 74
     0
 42
0.00000001
 43
0.00000001
 12
1.0
 22
0.0
 32
0.0
 13
1.0
 23
0.0
 33
0.0
 40
0.0
 40
0.0
 40
0.0
 40
0.0
 40
0.157157728089366
 40
0.2505951270625458
 40
0.5008887538714414
 40
0.7473664047633987
 40
1.0
 40
1.0
 40
1.0
 40
1.0
 10
283.1817740069691
 20
175.1612301950562
 30
0.0
 10
283.1817251929839
 20
175.1636419409843
 30
0.0
 10
283.18164735687
 20
175.167487579278
 30
0.0
 10
283.1809031414734
 20
175.1751868999482
 30
0.0
 10
283.1792811751798
 20
175.1844850046612
 30
0.0
 10
283.1753828948117
 20
175.1976925859301
 30
0.0
 10
283.1707311212029
 20
175.2066807060857
 30
0.0
 10
283.1683765473476
 20
175.2112301950562
 30
0.0
  0
LINE
  5
FE
330
1F
100
AcDbEntity
  8
0
  6
Continuous
 62
     7
370
    15
100
AcDbLine
 10
280.491774007
 20
95.118273798
 30
0.0
 11
279.2917839587
 21
95.118273798
 31
0.0
  0
LINE
  5
FF
330
1F
100
AcDbEntity
  8
0
  6
Continuous
 62
     7
370
    15
100
AcDbLine
 10
279.3478242449
 20
95.168273798
 30
0.0
 11
280.441774007
 21
95.168273798
 31
0.0
  0
LINE
  5
100
330
1F
100
AcDbEntity
  8
0
  6
Continuous
 62
     7
370
    15
100
AcDbLine
 10
280.3940754696
 20
188.178273798
 30
0.0
 11
280.491774007
 21
188.178273798
 31
0.0
  0
LINE
  5
101
330
1F
100
AcDbEntity
  8
0
  6
Continuous
 62
     7
370
    15
100
AcDbLine
 10
279.3922870621
 20
188.178273798
 30
0.0
 11
280.3940754696
 21
188.178273798
 31
0.0
  0
LINE
  5
102
330
1F
100
AcDbEntity
  8
0
  6
Continuous
 62
     7
370
    15
100
AcDbLine
 10
280.4083063898
 20
188.128273798
 30
0.0
 11
279.5706452397
 21
188.128273798
 31
0.0
  0
LINE
  5
103
330
1F
100
AcDbEntity
  8
0
  6
Continuous
 62
     7
370
    15
100
AcDbLine
 10
273.641774007
 20
141.611273798
 30
0.0
 11
273.6423843339
 21
141.5912128092
 31
0.0
  0
LINE
  5
104
330
1F
100
AcDbEntity
  8
0
  6
Continuous
 62
     7
370
    15
100
AcDbLine
 10
274.2906686395
 20
141.5263843796
 30
0.0
 11
274.301774007
 21
141.611273798
 31
0.0
  0
LINE
  5
105
330
1F
100
AcDbEntity
  8
0
  6
Continuous
 62
     7
370
    15
100
AcDbLine
 10
274.301774007
 20
141.611273798
 30
0.0
 11
274.301774007
 21
141.811273798
 31
0.0
  0
LINE
  5
106
330
1F
100
AcDbEntity
  8
0
  6
Continuous
 62
     7
370
    15
100
AcDbLine
 10
274.301774007
 20
141.811273798
 30
0.0
 11
274.2906680057
 21
141.8961655972
 31
0.0
  0
LINE
  5
107
330
1F
100
AcDbEntity
  8
0
  6
Continuous
 62
     7
370
    15
100
AcDbLine
 10
273.6423844806
 20
141.8313371949
 30
0.0
 11
273.641774007
 21
141.811273798
 31
0.0
  0
LINE
  5
108
330
1F
100
AcDbEntity
  8
0
  6
Continuous
 62
     7
370
    15
100
AcDbLine
 10
273.641774007
 20
141.811273798
 30
0.0
 11
273.641774007
 21
141.611273798
 31
0.0
  0
LINE
  5
109
330
1F
100
AcDbEntity
  8
0
  6
Continuous
 62
     7
370
    15
100
AcDbLine
 10
273.641738431
 20
174.6113912741
 30
0.0
 11
273.6423414551
 21
174.5913327397
 31
0.0
  0
LINE
  5
10A
330
1F
100
AcDbEntity
  8
0
  6
Continuous
 62
     7
370
    15
100
AcDbLine
 10
274.2906040848
 20
174.5262756778
 30
0.0
 11
274.3017383892
 21
174.6111563345
 31
0.0
  0
LINE
  5
10B
330
1F
100
AcDbEntity
  8
0
  6
Continuous
 62
     7
370
    15
100
AcDbLine
 10
274.3017383892
 20
174.6111563345
 30
0.0
 11
274.301809583
 21
174.8111563218
 31
0.0
  0
LINE
  5
10C
330
1F
100
AcDbEntity
  8
0
  6
Continuous
 62
     7
370
    15
100
AcDbLine
 10
274.301809583
 20
174.8111563218
 30
0.0
 11
274.2907327249
 21
174.8960561181
 31
0.0
  0
LINE
  5
10D
330
1F
100
AcDbEntity
  8
0
  6
Continuous
 62
     7
370
    15
100
AcDbLine
 10
273.6424273576
 20
174.8314563544
 30
0.0
 11
273.6418096248
 21
174.8113912614
 31
0.0
  0
LINE
  5
10E
330
1F
100
AcDbEntity
  8
0
  6
Continuous
 62
     7
370
    15
100
AcDbLine
 10
273.6418096248
 20
174.8113912614
 30
0.0
 11
273.641738431
 21
174.6113912741
 31
0.0
  0
LINE
  5
10F
330
1F
100
AcDbEntity
  8
0
  6
Continuous
 62
     7
370
    15
100
AcDbLine
 10
273.6418023936
 20
108.61118017
 30
0.0
 11
273.6424187262
 21
108.5911142281
 31
0.0
  0
LINE
  5
110
330
1F
100
AcDbEntity
  8
0
  6
Continuous
 62
     7
370
    15
100
AcDbLine
 10
274.2907192809
 20
108.5264680797
 30
0.0
 11
274.301802367
 21
108.611367434
 31
0.0
  0
LINE
  5
111
330
1F
100
AcDbEntity
  8
0
  6
Continuous
 62
     7
370
    15
100
AcDbLine
 10
274.301802367
 20
108.611367434
 30
0.0
 11
274.3017456203
 21
108.811367426
 31
0.0
  0
LINE
  5
112
330
1F
100
AcDbEntity
  8
0
  6
Continuous
 62
     7
370
    15
100
AcDbLine
 10
274.3017456203
 20
108.811367426
 30
0.0
 11
274.29061756
 21
108.8962484643
 31
0.0
  0
LINE
  5
113
330
1F
100
AcDbEntity
  8
0
  6
Continuous
 62
     7
370
    15
100
AcDbLine
 10
273.6423500671
 20
108.8312377806
 30
0.0
 11
273.6417456469
 21
108.8111801619
 31
0.0
  0
LINE
  5
114
330
1F
100
AcDbEntity
  8
0
  6
Continuous
 62
     7
370
    15
100
AcDbLine
 10
273.6417456469
 20
108.8111801619
 30
0.0
 11
273.6418023936
 21
108.61118017
 31
0.0
  0
LINE
  5
115
330
1F
100
AcDbEntity
  8
0
  6
Continuous
 62
     7
370
    15
100
AcDbLine
 10
272.731774007
 20
184.771273798
 30
0.0
 11
272.781774007
 21
184.771273798
 31
0.0
  0
LINE
  5
116
330
1F
100
AcDbEntity
  8
0
  6
Continuous
 62
     7
370
    15
100
AcDbLine
 10
272.781774007
 20
98.651273798
 30
0.0
 11
272.731774007
 21
98.651273798
 31
0.0
  0
LINE
  5
117
330
1F
100
AcDbEntity
  8
0
  6
Continuous
 62
     7
370
    15
100
AcDbLine
 10
272.731774007
 20
98.651273798
 30
0.0
 11
272.731774007
 21
184.771273798
 31
0.0
  0
LINE
  5
118
330
1F
100
AcDbEntity
  8
0
  6
Continuous
 62
     7
370
    15
100
AcDbLine
 10
272.781774007
 20
98.587273798
 30
0.0
 11
272.731774007
 21
98.587273798
 31
0.0
  0
LINE
  5
119
330
1F
100
AcDbEntity
  8
0
  6
Continuous
 62
     7
370
    15
100
AcDbLine
 10
272.781774007
 20
95.0118364788
 30
0.0
 11
272.731774007
 21
95.0118364788
 31
0.0
  0
LINE
  5
11A
330
1F
100
AcDbEntity
  8
0
  6
Continuous
 62
     7
370
    15
100
AcDbLine
 10
272.731774007
 20
95.0118364788
 30
0.0
 11
272.731774007
 21
98.587273798
 31
0.0
  0
LINE
  5
11B
330
1F
100
AcDbEntity
  8
0
  6
Continuous
 62
     7
370
    15
100
AcDbLine
 10
272.781774007
 20
188.4107111171
 30
0.0
 11
272.731774007
 21
188.4107111171
 31
0.0
  0
LINE
  5
11C
330
1F
100
AcDbEntity
  8
0
  6
Continuous
 62
     7
370
    15
100
AcDbLine
 10
272.781774007
 20
184.835273798
 30
0.0
 11
272.731774007
 21
184.835273798
 31
0.0
  0
LINE
  5
11D
330
1F
100
AcDbEntity
  8
0
  6
Continuous
 62
     7
370
    15
100
AcDbLine
 10
272.731774007
 20
184.835273798
 30
0.0
 11
272.731774007
 21
188.4107111171
 31
0.0
  0
LINE
  5
11E
330
1F
100
AcDbEntity
  8
0
  6
Continuous
 62
     7
370
    15
100
AcDbLine
 10
272.731774007
 20
98.651273798
 30
0.0
 11
272.731774007
 21
98.587273798
 31
0.0
  0
LINE
  5
11F
330
1F
100
AcDbEntity
  8
0
  6
Continuous
 62
     7
370
    15
100
AcDbLine
 10
272.731774007
 20
184.835273798
 30
0.0
 11
272.731774007
 21
184.771273798
 31
0.0
  0
LINE
  5
120
330
1F
100
AcDbEntity
  8
0
  6
Continuous
 62
     7
370
    15
100
AcDbLine
 10
274.2980702739
 20
141.8227670543
 30
0.0
 11
274.301774007
 21
141.7170528566
 31
0.0
  0
LINE
  5
121
330
1F
100
AcDbEntity
  8
0
  6
Continuous
 62
     7
370
    15
100
AcDbLine
 10
274.2841937699
 20
141.9065740437
 30
0.0
 11
274.2980702739
 21
141.8227670543
 31
0.0
  0
LINE
  5
122
330
1F
100
AcDbEntity
  8
0
  6
Continuous
 62
     7
370
    15
100
AcDbLine
 10
273.6454777401
 20
141.5997805417
 30
0.0
 11
273.641774007
 21
141.7054947394
 31
0.0
  0
LINE
  5
123
330
1F
100
AcDbEntity
  8
0
  6
Continuous
 62
     7
370
    15
100
AcDbLine
 10
274.301774007
 20
174.811273798
 30
0.0
 11
274.301774007
 21
174.7112150637
 31
0.0
  0
LINE
  5
124
330
1F
100
AcDbEntity
  8
0
  6
Continuous
 62
     7
370
    15
100
AcDbLine
 10
273.641774007
 20
174.611273798
 30
0.0
 11
273.641774007
 21
174.7113325335
 31
0.0
  0
LINE
  5
125
330
1F
100
AcDbEntity
  8
0
  6
Continuous
 62
     7
370
    15
100
AcDbLine
 10
274.301774007
 20
108.7113206132
 30
0.0
 11
274.301774007
 21
108.611273798
 31
0.0
  0
LINE
  5
126
330
1F
100
AcDbEntity
  8
0
  6
Continuous
 62
     7
370
    15
100
AcDbLine
 10
273.641774007
 20
108.7112269811
 30
0.0
 11
273.641774007
 21
108.811273798
 31
0.0
  0
LINE
  5
127
330
1F
100
AcDbEntity
  8
0
  6
Continuous
 62
     7
370
    15
100
AcDbLine
 10
275.7775124669
 20
98.711273798
 30
0.0
 11
275.7775124669
 21
184.711273798
 31
0.0
  0
CIRCLE
  5
128
330
1F
100
AcDbEntity
  8
0
  6
Continuous
 62
     7
370
    15
100
AcDbCircle
 10
273.981774007
 20
141.711273798
 30
0.0
 40
0.3600000000000136
  0
CIRCLE
  5
129
330
1F
100
AcDbEntity
  8
0
  6
Continuous
 62
     7
370
    15
100
AcDbCircle
 10
273.981774007
 20
174.711273798
 30
0.0
 40
0.3600000000000136
  0
CIRCLE
  5
12A
330
1F
100
AcDbEntity
  8
0
  6
Continuous
 62
     7
370
    15
100
AcDbCircle
 10
273.981774007
 20
108.711273798
 30
0.0
 40
0.3599999999999994
  0
LINE
  5
12B
330
1F
100
AcDbEntity
  8
0
  6
Continuous
 62
     7
370
    15
100
AcDbLine
 10
272.781774007
 20
184.711273798
 30
0.0
 11
272.781774007
 21
98.711273798
 31
0.0
  0
LINE
  5
12C
330
1F
100
AcDbEntity
  8
0
  6
Continuous
 62
     7
370
    15
100
AcDbLine
 10
279.291774007
 20
95.0524484411
 30
0.0
 11
275.7775124669
 21
94.868273798
 31
0.0
  0
LINE
  5
12D
330
1F
100
AcDbEntity
  8
0
  6
Continuous
 62
     7
370
    15
100
AcDbLine
 10
275.7775124669
 20
94.868273798
 30
0.0
 11
275.7775124669
 21
98.711273798
 31
0.0
  0
LINE
  5
12E
330
1F
100
AcDbEntity
  8
0
  6
Continuous
 62
     7
370
    15
100
AcDbLine
 10
272.781774007
 20
94.868273798
 30
0.0
 11
275.7775124669
 21
94.868273798
 31
0.0
  0
LINE
  5
12F
330
1F
100
AcDbEntity
  8
0
  6
Continuous
 62
     7
370
    15
100
AcDbLine
 10
272.781774007
 20
98.711273798
 30
0.0
 11
272.781774007
 21
94.868273798
 31
0.0
  0
LINE
  5
130
330
1F
100
AcDbEntity
  8
0
  6
Continuous
 62
     7
370
    15
100
AcDbLine
 10
279.291774007
 20
188.3700991548
 30
0.0
 11
275.7775124669
 21
188.554273798
 31
0.0
  0
LINE
  5
131
330
1F
100
AcDbEntity
  8
0
  6
Continuous
 62
     7
370
    15
100
AcDbLine
 10
275.7775124669
 20
184.711273798
 30
0.0
 11
275.7775124669
 21
188.554273798
 31
0.0
  0
LINE
  5
132
330
1F
100
AcDbEntity
  8
0
  6
Continuous
 62
     7
370
    15
100
AcDbLine
 10
272.781774007
 20
188.554273798
 30
0.0
 11
275.7775124669
 21
188.554273798
 31
0.0
  0
LINE
  5
133
330
1F
100
AcDbEntity
  8
0
  6
Continuous
 62
     7
370
    15
100
AcDbLine
 10
272.781774007
 20
188.554273798
 30
0.0
 11
272.781774007
 21
184.711273798
 31
0.0
  0
LINE
  5
134
330
1F
100
AcDbEntity
  8
0
  6
Continuous
 62
     7
370
    15
100
AcDbLine
 10
282.781774007
 20
184.711273798
 30
0.0
 11
282.781774007
 21
98.711273798
 31
0.0
  0
LINE
  5
135
330
1F
100
AcDbEntity
  8
0
  6
Continuous
 62
     7
370
    15
100
AcDbLine
 10
282.781774007
 20
98.711273798
 30
0.0
 11
282.781774007
 21
98.0822452909
 31
0.0
  0
ARC
  5
136
330
1F
100
AcDbEntity
  8
0
  6
Continuous
 62
     7
370
    15
100
AcDbCircle
 10
279.781774007
 20
98.0822452909
 30
0.0
 40
3.0
100
AcDbArc
 50
282.9089547968
 51
0.0
  0
ARC
  5
137
330
1F
100
AcDbEntity
  8
0
  6
Continuous
 62
     7
370
    15
100
AcDbCircle
 10
279.781774007
 20
185.340302305
 30
0.0
 40
3.0
100
AcDbArc
 50
0.0
 51
76.3101125454
  0
LINE
  5
138
330
1F
100
AcDbEntity
  8
0
  6
Continuous
 62
     7
370
    15
100
AcDbLine
 10
282.781774007
 20
185.340302305
 30
0.0
 11
282.781774007
 21
184.711273798
 31
0.0
  0
LINE
  5
139
330
1F
100
AcDbEntity
  8
0
  6
Continuous
 62
     7
370
    15
100
AcDbLine
 10
272.291774007
 20
190.128273798
 30
0.0
 11
275.9612173926
 21
190.128273798
 31
0.0
  0
LINE
  5
13A
330
1F
100
AcDbEntity
  8
0
  6
Continuous
 62
     7
370
    15
100
AcDbLine
 10
272.291774007
 20
189.528273798
 30
0.0
 11
275.9612173926
 21
189.528273798
 31
0.0
  0
LINE
  5
13B
330
1F
100
AcDbEntity
  8
0
  6
Continuous
 62
     7
370
    15
100
AcDbLine
 10
271.991774007
 20
189.228273798
 30
0.0
 11
271.991774007
 21
176.928273798
 31
0.0
  0
LINE
  5
13C
330
1F
100
AcDbEntity
  8
0
  6
Continuous
 62
     7
370
    15
100
AcDbLine
 10
271.391774007
 20
189.228273798
 30
0.0
 11
271.391774007
 21
176.928273798
 31
0.0
  0
LINE
  5
13D
330
1F
100
AcDbEntity
  8
0
  6
Continuous
 62
     7
370
    15
100
AcDbLine
 10
276.1362698412
 20
189.528273798
 30
0.0
 11
275.9612173926
 21
189.528273798
 31
0.0
  0
LINE
  5
13E
330
1F
100
AcDbEntity
  8
0
  6
Continuous
 62
     7
370
    15
100
AcDbLine
 10
275.9612173926
 20
190.128273798
 30
0.0
 11
276.1362698412
 21
190.128273798
 31
0.0
  0
ARC
  5
13F
330
1F
100
AcDbEntity
  8
0
  6
Continuous
 62
     7
370
    15
100
AcDbCircle
 10
272.291774007
 20
189.228273798
 30
0.0
 40
0.9000000000000341
100
AcDbArc
 50
90.0
 51
180.0
  0
ARC
  5
140
330
1F
100
AcDbEntity
  8
0
  6
Continuous
 62
     7
370
    15
100
AcDbCircle
 10
272.291774007
 20
189.228273798
 30
0.0
 40
0.3000000000000114
100
AcDbArc
 50
90.0
 51
180.0
  0
LINE
  5
141
330
1F
100
AcDbEntity
  8
0
  6
Continuous
 62
     7
370
    15
100
AcDbLine
 10
271.991774007
 20
176.528273798
 30
0.0
 11
271.391774007
 21
176.528273798
 31
0.0
  0
LINE
  5
142
330
1F
100
AcDbEntity
  8
0
  6
Continuous
 62
     7
370
    15
100
AcDbLine
 10
271.391774007
 20
176.528273798
 30
0.0
 11
271.391774007
 21
176.928273798
 31
0.0
  0
LINE
  5
143
330
1F
100
AcDbEntity
  8
0
  6
Continuous
 62
     7
370
    15
100
AcDbLine
 10
271.991774007
 20
176.928273798
 30
0.0
 11
271.991774007
 21
176.528273798
 31
0.0
  0
LINE
  5
144
330
1F
100
AcDbEntity
  8
0
  6
Continuous
 62
     7
370
    15
100
AcDbLine
 10
280.3518348302
 20
190.128273798
 30
0.0
 11
280.3518348302
 21
189.528273798
 31
0.0
  0
LINE
  5
145
330
1F
100
AcDbEntity
  8
0
  6
Continuous
 62
     7
370
    15
100
AcDbLine
 10
276.1362698412
 20
190.128273798
 30
0.0
 11
280.3518348302
 21
190.128273798
 31
0.0
  0
LINE
  5
146
330
1F
100
AcDbEntity
  8
0
  6
Continuous
 62
     7
370
    15
100
AcDbLine
 10
276.1362698412
 20
189.528273798
 30
0.0
 11
280.3518348302
 21
189.528273798
 31
0.0
  0
LINE
  5
147
330
1F
100
AcDbEntity
  8
0
  6
Continuous
 62
     7
370
    15
100
AcDbLine
 10
280.3518348302
 20
190.128273798
 30
0.0
 11
280.891774007
 21
190.128273798
 31
0.0
  0
LINE
  5
148
330
1F
100
AcDbEntity
  8
0
  6
Continuous
 62
     7
370
    15
100
AcDbLine
 10
280.3518348302
 20
189.528273798
 30
0.0
 11
280.891774007
 21
189.528273798
 31
0.0
  0
LINE
  5
149
330
1F
100
AcDbEntity
  8
0
  6
Continuous
 62
     7
370
    15
100
AcDbLine
 10
279.5591549986
 20
189.508273798
 30
0.0
 11
279.5591549986
 21
188.908273798
 31
0.0
  0
LINE
  5
14A
330
1F
100
AcDbEntity
  8
0
  6
Continuous
 62
     7
370
    15
100
AcDbLine
 10
279.5591549986
 20
189.508273798
 30
0.0
 11
280.891774007
 21
189.508273798
 31
0.0
  0
LINE
  5
14B
330
1F
100
AcDbEntity
  8
0
  6
Continuous
 62
     7
370
    15
100
AcDbLine
 10
279.5591549986
 20
188.908273798
 30
0.0
 11
280.891774007
 21
188.908273798
 31
0.0
  0
LINE
  5
14C
330
1F
100
AcDbEntity
  8
0
  6
Continuous
 62
     7
370
    15
100
AcDbLine
 10
274.611774007
 20
189.508273798
 30
0.0
 11
274.611774007
 21
188.908273798
 31
0.0
  0
LINE
  5
14D
330
1F
100
AcDbEntity
  8
0
  6
Continuous
 62
     7
370
    15
100
AcDbLine
 10
274.611774007
 20
188.908273798
 30
0.0
 11
279.5591549986
 21
188.908273798
 31
0.0
  0
LINE
  5
14E
330
1F
100
AcDbEntity
  8
0
  6
Continuous
 62
     7
370
    15
100
AcDbLine
 10
274.611774007
 20
189.508273798
 30
0.0
 11
279.5591549986
 21
189.508273798
 31
0.0
  0
LINE
  5
14F
330
1F
100
AcDbEntity
  8
0
  6
Continuous
 62
     7
370
    15
100
AcDbLine
 10
272.891774007
 20
188.554273798
 30
0.0
 11
272.891774007
 21
188.608273798
 31
0.0
  0
LINE
  5
150
330
1F
100
AcDbEntity
  8
0
  6
Continuous
 62
     7
370
    15
100
AcDbLine
 10
273.491774007
 20
188.554273798
 30
0.0
 11
273.491774007
 21
188.608273798
 31
0.0
  0
ARC
  5
151
330
1F
100
AcDbEntity
  8
0
  6
Continuous
 62
     7
370
    15
100
AcDbCircle
 10
273.791774007
 20
188.608273798
 30
0.0
 40
0.3000000000000682
100
AcDbArc
 50
90.0
 51
180.0
  0
ARC
  5
152
330
1F
100
AcDbEntity
  8
0
  6
Continuous
 62
     7
370
    15
100
AcDbCircle
 10
273.791774007
 20
188.608273798
 30
0.0
 40
0.9000000000000341
100
AcDbArc
 50
90.0
 51
180.0
  0
LINE
  5
153
330
1F
100
AcDbEntity
  8
0
  6
Continuous
 62
     7
370
    15
100
AcDbLine
 10
273.791774007
 20
188.908273798
 30
0.0
 11
274.611774007
 21
188.908273798
 31
0.0
  0
LINE
  5
154
330
1F
100
AcDbEntity
  8
0
  6
Continuous
 62
     7
370
    15
100
AcDbLine
 10
273.791774007
 20
189.508273798
 30
0.0
 11
274.611774007
 21
189.508273798
 31
0.0
  0
LINE
  5
155
330
1F
100
AcDbEntity
  8
0
  6
Continuous
 62
     7
370
    15
100
AcDbLine
 10
279.5589596779
 20
93.968273798
 30
0.0
 11
279.5589596779
 21
94.568273798
 31
0.0
  0
LINE
  5
156
330
1F
100
AcDbEntity
  8
0
  6
Continuous
 62
     7
370
    15
100
AcDbLine
 10
280.8834895733
 20
94.568273798
 30
0.0
 11
279.5589596779
 21
94.568273798
 31
0.0
  0
LINE
  5
157
330
1F
100
AcDbEntity
  8
0
  6
Continuous
 62
     7
370
    15
100
AcDbLine
 10
280.8834895733
 20
93.968273798
 30
0.0
 11
279.5589596779
 21
93.968273798
 31
0.0
  0
LINE
  5
158
330
1F
100
AcDbEntity
  8
0
  6
Continuous
 62
     7
370
    15
100
AcDbLine
 10
274.6101497518
 20
93.968273798
 30
0.0
 11
274.6101497518
 21
94.568273798
 31
0.0
  0
LINE
  5
159
330
1F
100
AcDbEntity
  8
0
  6
Continuous
 62
     7
370
    15
100
AcDbLine
 10
279.5589596779
 20
94.568273798
 30
0.0
 11
274.6101497518
 21
94.568273798
 31
0.0
  0
LINE
  5
15A
330
1F
100
AcDbEntity
  8
0
  6
Continuous
 62
     7
370
    15
100
AcDbLine
 10
279.5589596779
 20
93.968273798
 30
0.0
 11
274.6101497518
 21
93.968273798
 31
0.0
  0
ARC
  5
15B
330
1F
100
AcDbEntity
  8
0
  6
Continuous
 62
     7
370
    15
100
AcDbCircle
 10
273.791774007
 20
94.868273798
 30
0.0
 40
0.9000000000000341
100
AcDbArc
 50
180.0
 51
270.0
  0
ARC
  5
15C
330
1F
100
AcDbEntity
  8
0
  6
Continuous
 62
     7
370
    15
100
AcDbCircle
 10
273.791774007
 20
94.868273798
 30
0.0
 40
0.3000000000000114
100
AcDbArc
 50
180.0
 51
270.0
  0
LINE
  5
15D
330
1F
100
AcDbEntity
  8
0
  6
Continuous
 62
     7
370
    15
100
AcDbLine
 10
274.6101497518
 20
94.568273798
 30
0.0
 11
273.791774007
 21
94.568273798
 31
0.0
  0
LINE
  5
15E
330
1F
100
AcDbEntity
  8
0
  6
Continuous
 62
     7
370
    15
100
AcDbLine
 10
274.6101497518
 20
93.968273798
 30
0.0
 11
273.791774007
 21
93.968273798
 31
0.0
  0
ARC
  5
15F
330
1F
100
AcDbEntity
  8
0
  6
Continuous
 62
     7
370
    15
100
AcDbCircle
 10
112.8235525448
 20
240.4175943061
 30
0.0
 40
0.0600000000000023
100
AcDbArc
 50
0.0
 51
180.0
  0
LINE
  5
160
330
1F
100
AcDbEntity
  8
0
  6
Continuous
 62
     7
370
    15
100
AcDbLine
 10
112.7635525448
 20
240.255594306
 30
0.0
 11
112.7635525448
 21
240.2475943061
 31
0.0
  0
LINE
  5
161
330
1F
100
AcDbEntity
  8
0
  6
Continuous
 62
     7
370
    15
100
AcDbLine
 10
112.7635525448
 20
240.2475943061
 30
0.0
 11
110.6835525451
 21
240.2475943061
 31
0.0
  0
ARC
  5
162
330
1F
100
AcDbEntity
  8
0
  6
Continuous
 62
     7
370
    15
100
AcDbCircle
 10
110.6835525451
 20
240.6475943061
 30
0.0
 40
0.3999999999999942
100
AcDbArc
 50
182.2200575032
 51
270.0
  0
LINE
  5
163
330
1F
100
AcDbEntity
  8
0
  6
Continuous
 62
     7
370
    15
100
AcDbLine
 10
110.8035525451
 20
242.925594306
 30
0.0
 11
110.8035525451
 21
243.385594306
 31
0.0
  0
LINE
  5
164
330
1F
100
AcDbEntity
  8
0
  6
Continuous
 62
     7
370
    15
100
AcDbLine
 10
110.8035525451
 20
243.385594306
 30
0.0
 11
123.8635525451
 21
243.385594306
 31
0.0
  0
LINE
  5
165
330
1F
100
AcDbEntity
  8
0
  6
Continuous
 62
     7
370
    15
100
AcDbLine
 10
123.8635525451
 20
243.385594306
 30
0.0
 11
123.8635525451
 21
242.925594306
 31
0.0
  0
LINE
  5
166
330
1F
100
AcDbEntity
  8
0
  6
Continuous
 62
     7
370
    15
100
AcDbLine
 10
112.7635525448
 20
240.255594306
 30
0.0
 11
110.6835525451
 21
240.255594306
 31
0.0
  0
ARC
  5
167
330
1F
100
AcDbEntity
  8
0
  6
Continuous
 62
     7
370
    15
100
AcDbCircle
 10
110.6835525451
 20
240.655594306
 30
0.0
 40
0.3999999999999915
100
AcDbArc
 50
180.0
 51
270.0
  0
ARC
  5
168
330
1F
100
AcDbEntity
  8
0
  6
Continuous
 62
     7
370
    15
100
AcDbCircle
 10
110.6835525451
 20
242.985594306
 30
0.0
 40
0.4000000000000057
100
AcDbArc
 50
90.0
 51
180.0
  0
ARC
  5
169
330
1F
100
AcDbEntity
  8
0
  6
Continuous
 62
     7
370
    15
100
AcDbCircle
 10
110.7435525451
 20
242.805594306
 30
0.0
 40
0.0600000000000165
100
AcDbArc
 50
180.0
 51
0.0
  0
ARC
  5
16A
330
1F
100
AcDbEntity
  8
0
  6
Continuous
 62
     7
370
    15
100
AcDbCircle
 10
123.9235525451
 20
242.805594306
 30
0.0
 40
0.0600000000000023
100
AcDbArc
 50
180.0
 51
0.0
  0
LINE
  5
16B
330
1F
100
AcDbEntity
  8
0
  6
Continuous
 62
     7
370
    15
100
AcDbLine
 10
112.8835525448
 20
240.305594306
 30
0.0
 11
112.8835525448
 21
240.425594306
 31
0.0
  0
ARC
  5
16C
330
1F
100
AcDbEntity
  8
0
  6
Continuous
 62
     7
370
    15
100
AcDbCircle
 10
112.8235525448
 20
240.425594306
 30
0.0
 40
0.0600000000000165
100
AcDbArc
 50
0.0
 51
180.0
  0
LINE
  5
16D
330
1F
100
AcDbEntity
  8
0
  6
Continuous
 62
     7
370
    15
100
AcDbLine
 10
112.7635525448
 20
240.425594306
 30
0.0
 11
112.7635525448
 21
240.255594306
 31
0.0
  0
LINE
  5
16E
330
1F
100
AcDbEntity
  8
0
  6
Continuous
 62
     7
370
    15
100
AcDbLine
 10
110.8035525451
 20
242.805594306
 30
0.0
 11
110.8035525451
 21
242.925594306
 31
0.0
  0
LINE
  5
16F
330
1F
100
AcDbEntity
  8
0
  6
Continuous
 62
     7
370
    15
100
AcDbLine
 10
123.8635525451
 20
242.925594306
 30
0.0
 11
123.8635525451
 21
242.805594306
 31
0.0
  0
LINE
  5
170
330
1F
100
AcDbEntity
  8
0
  6
Continuous
 62
     7
370
    15
100
AcDbLine
 10
123.9835525451
 20
242.805594306
 30
0.0
 11
123.9835525451
 21
243.385594306
 31
0.0
  0
ARC
  5
171
330
1F
100
AcDbEntity
  8
0
  6
Continuous
 62
     7
370
    15
100
AcDbCircle
 10
123.9835525451
 20
242.985594306
 30
0.0
 40
0.4000000000000057
100
AcDbArc
 50
0.0
 51
90.0
  0
LINE
  5
172
330
1F
100
AcDbEntity
  8
0
  6
Continuous
 62
     7
370
    15
100
AcDbLine
 10
124.3835525451
 20
242.985594306
 30
0.0
 11
124.3835525451
 21
240.305594306
 31
0.0
  0
LINE
  5
173
330
1F
100
AcDbEntity
  8
0
  6
Continuous
 62
     7
370
    15
100
AcDbLine
 10
110.6835525451
 20
243.385594306
 30
0.0
 11
110.6835525451
 21
242.805594306
 31
0.0
  0
LINE
  5
174
330
1F
100
AcDbEntity
  8
0
  6
Continuous
 62
     7
370
    15
100
AcDbLine
 10
110.2835525451
 20
240.655594306
 30
0.0
 11
110.2835525451
 21
242.985594306
 31
0.0
  0
LINE
  5
175
330
1F
100
AcDbEntity
  8
0
  6
Continuous
 62
     7
370
    15
100
AcDbLine
 10
124.3835525451
 20
240.305594306
 30
0.0
 11
124.3835525451
 21
239.845594306
 31
0.0
  0
LINE
  5
176
330
1F
100
AcDbEntity
  8
0
  6
Continuous
 62
     7
370
    15
100
AcDbLine
 10
124.3835525451
 20
239.845594306
 30
0.0
 11
112.8835525448
 21
239.845594306
 31
0.0
  0
LINE
  5
177
330
1F
100
AcDbEntity
  8
0
  6
Continuous
 62
     7
370
    15
100
AcDbLine
 10
112.8835525448
 20
239.845594306
 30
0.0
 11
112.8835525448
 21
240.305594306
 31
0.0
  0
LINE
  5
178
330
1F
100
AcDbEntity
  8
0
  6
Continuous
 62
     7
370
    15
100
AcDbLine
 10
115.8635527258
 20
246.137594306
 30
0.0
 11
118.8635525451
 21
246.137594306
 31
0.0
  0
ARC
  5
179
330
1F
100
AcDbEntity
  8
0
  6
Continuous
 62
     7
370
    15
100
AcDbCircle
 10
278.7211472423
 20
226.250617417
 30
0.0
 40
0.420000000000055
100
AcDbArc
 50
121.5596404634
 51
197.7251528302
  0
LINE
  5
17A
330
1F
100
AcDbEntity
  8
0
  6
Continuous
 62
     7
370
    15
100
AcDbLine
 10
271.8612371464
 20
190.2493474601
 30
0.0
 11
283.5870966248
 21
190.2493474601
 31
0.0
  0
LINE
  5
17B
330
1F
100
AcDbEntity
  8
0
  6
Continuous
 62
     7
370
    15
100
AcDbLine
 10
271.8612371464
 20
190.4093474601
 30
0.0
 11
283.5870966248
 21
190.4093474601
 31
0.0
  0
LINE
  5
17C
330
1F
100
AcDbEntity
  8
0
  6
Continuous
 62
     7
370
    15
100
AcDbLine
 10
271.8612371464
 20
190.2493474601
 30
0.0
 11
271.4612371464
 21
190.2493474601
 31
0.0
  0
LINE
  5
17D
330
1F
100
AcDbEntity
  8
0
  6
Continuous
 62
     7
370
    15
100
AcDbLine
 10
271.4612371464
 20
190.2493474601
 30
0.0
 11
271.4612371464
 21
190.4093474601
 31
0.0
  0
LINE
  5
17E
330
1F
100
AcDbEntity
  8
0
  6
Continuous
 62
     7
370
    15
100
AcDbLine
 10
271.4612371464
 20
190.4093474601
 30
0.0
 11
271.8612371464
 21
190.4093474601
 31
0.0
  0
ARC
  5
17F
330
1F
100
AcDbEntity
  8
0
  6
Continuous
 62
     7
370
    15
100
AcDbCircle
 10
283.5870966248
 20
192.4093474601
 30
0.0
 40
2.160000000000025
100
AcDbArc
 50
270.0
 51
335.0
  0
ARC
  5
180
330
1F
100
AcDbEntity
  8
0
  6
Continuous
 62
     7
370
    15
100
AcDbCircle
 10
283.5870966248
 20
192.4093474601
 30
0.0
 40
2.0
100
AcDbArc
 50
270.0
 51
335.0
  0
LINE
  5
181
330
1F
100
AcDbEntity
  8
0
  6
Continuous
 62
     7
370
    15
100
AcDbLine
 10
285.5447214448
 20
191.4964920148
 30
0.0
 11
289.6668811428
 21
200.3364920148
 31
0.0
  0
LINE
  5
182
330
1F
100
AcDbEntity
  8
0
  6
Continuous
 62
     7
370
    15
100
AcDbLine
 10
285.3997121988
 20
191.5641109366
 30
0.0
 11
289.5218718969
 21
200.4041109366
 31
0.0
  0
ARC
  5
183
330
1F
100
AcDbEntity
  8
0
  6
Continuous
 62
     7
370
    15
100
AcDbCircle
 10
287.7092563228
 20
201.2493474601
 30
0.0
 40
2.159999999999995
100
AcDbArc
 50
335.0
 51
25.0
  0
ARC
  5
184
330
1F
100
AcDbEntity
  8
0
  6
Continuous
 62
     7
370
    15
100
AcDbCircle
 10
287.7092563228
 20
201.2493474601
 30
0.0
 40
1.999999999999999
100
AcDbArc
 50
335.0
 51
25.0
  0
LINE
  5
185
330
1F
100
AcDbEntity
  8
0
  6
Continuous
 62
     7
370
    15
100
AcDbLine
 10
289.6668811428
 20
202.1622029055
 30
0.0
 11
278.4855072176
 21
226.1407366689
 31
0.0
  0
LINE
  5
186
330
1F
100
AcDbEntity
  8
0
  6
Continuous
 62
     7
370
    15
100
AcDbLine
 10
289.5218718969
 20
202.0945839836
 30
0.0
 11
278.3404979717
 21
226.0731177471
 31
0.0
  0
ARC
  5
187
330
1F
100
AcDbEntity
  8
0
  6
Continuous
 62
     7
370
    15
100
AcDbCircle
 10
278.7120841644
 20
226.2463912344
 30
0.0
 40
0.2499999999999896
100
AcDbArc
 50
115.0
 51
205.0
  0
ARC
  5
188
330
1F
100
AcDbEntity
  8
0
  6
Continuous
 62
     7
370
    15
100
AcDbCircle
 10
278.7120841644
 20
226.2463912344
 30
0.0
 40
0.4100000000000106
100
AcDbArc
 50
115.0
 51
205.0
  0
LINE
  5
189
330
1F
100
AcDbEntity
  8
0
  6
Continuous
 62
     7
370
    15
100
AcDbLine
 10
278.6064295989
 20
226.4729681811
 30
0.0
 11
281.1350283248
 21
227.6520731314
 31
0.0
  0
LINE
  5
18A
330
1F
100
AcDbEntity
  8
0
  6
Continuous
 62
     7
370
    15
100
AcDbLine
 10
278.5388106771
 20
226.6179774271
 30
0.0
 11
281.0674094029
 21
227.7970823773
 31
0.0
  0
LINE
  5
18B
330
1F
100
AcDbEntity
  8
0
  6
Continuous
 62
     7
370
    15
100
AcDbLine
 10
281.4299325177
 20
227.966129682
 30
0.0
 11
281.4975514396
 21
227.8211204361
 31
0.0
  0
LINE
  5
18C
330
1F
100
AcDbEntity
  8
0
  6
Continuous
 62
     7
370
    15
100
AcDbLine
 10
281.4975514396
 20
227.8211204361
 30
0.0
 11
281.1350283248
 21
227.6520731314
 31
0.0
  0
LINE
  5
18D
330
1F
100
AcDbEntity
  8
0
  6
Continuous
 62
     7
370
    15
100
AcDbLine
 10
281.0674094029
 20
227.7970823773
 30
0.0
 11
281.4299325177
 21
227.966129682
 31
0.0
  0
LINE
  5
18E
330
1F
100
AcDbEntity
  8
0
  6
Continuous
 62
     7
370
    15
100
AcDbLine
 10
281.4334394904
 20
227.9757650102
 30
0.0
 11
281.4299325177
 21
227.966129682
 31
0.0
  0
ARC
  5
18F
330
1F
100
AcDbEntity
  8
0
  6
Continuous
 62
     7
370
    15
100
AcDbCircle
 10
280.9854515038
 20
228.089878157
 30
0.0
 40
0.2999999999999957
100
AcDbArc
 50
295.0
 51
307.6222980294
  0
LINE
  5
190
330
1F
100
AcDbEntity
  8
0
  6
Continuous
 62
     7
370
    15
100
AcDbLine
 10
288.3639361194
 20
208.9789202164
 30
0.0
 11
282.8698987168
 21
220.7609214479
 31
0.0
  0
LINE
  5
191
330
1F
100
AcDbEntity
  8
0
  6
Continuous
 62
     7
370
    15
100
AcDbLine
 10
285.4263411692
 20
220.0110160831
 30
0.0
 11
285.0206089002
 21
220.8811117417
 31
0.0
  0
LINE
  5
192
330
1F
100
AcDbEntity
  8
0
  6
Continuous
 62
     7
370
    15
100
AcDbLine
 10
289.8384570841
 20
210.5492029695
 30
0.0
 11
289.4327248151
 21
211.4192986281
 31
0.0
  0
SPLINE
  5
193
330
1F
100
AcDbEntity
  8
0
  6
Continuous
 62
     7
370
    15
100
AcDbSpline
210
0.0
220
0.0
230
1.0
 70
     8
 71
     3
 72
    13
 73
     9
 74
     0
 42
0.00000001
 43
0.00000001
 12
1.0
 22
0.0
 32
0.0
 13
1.0
 23
0.0
 33
0.0
 40
0.0
 40
0.0
 40
0.0
 40
0.0
 40
0.125103817495841
 40
0.2500222687256646
 40
0.3748606290314698
 40
0.4998822881675593
 40
0.7494449679495219
 40
1.0
 40
1.0
 40
1.0
 40
1.0
 10
289.0079732571498
 20
209.822488033739
 30
0.0
 10
289.0074000490806
 20
209.8260478558107
 30
0.0
 10
289.0062544822641
 20
209.8331622253672
 30
0.0
 10
289.0149669043886
 20
209.8545924671903
 30
0.0
 10
289.0325404714322
 20
209.8835284530819
 30
0.0
 10
289.0659492067109
 20
209.9286036147207
 30
0.0
 10
289.1171564806968
 20
209.9883928352971
 30
0.0
 10
289.1601616658892
 20
210.0338340695504
 30
0.0
 10
289.1817069247338
 20
210.0565997697754
 30
0.0
  0
SPLINE
  5
194
330
1F
100
AcDbEntity
  8
0
  6
Continuous
 62
     7
370
    15
100
AcDbSpline
210
0.0
220
0.0
230
1.0
 70
     8
 71
     3
 72
    13
 73
     9
 74
     0
 42
0.00000001
 43
0.00000001
 12
1.0
 22
0.0
 32
0.0
 13
1.0
 23
0.0
 33
0.0
 40
0.0
 40
0.0
 40
0.0
 40
0.0
 40
0.2505530218542147
 40
0.5001726169845921
 40
0.6264874574143364
 40
0.7500412534347142
 40
0.8748881969944663
 40
1.0
 40
1.0
 40
1.0
 40
1.0
 10
289.1817069247338
 20
210.0565997697754
 30
0.0
 10
289.2032838072943
 20
210.0789752178295
 30
0.0
 10
289.2463571884763
 20
210.1236427549702
 30
0.0
 10
289.3012630119498
 20
210.1750085948771
 30
0.0
 10
289.3410071643098
 20
210.206883369275
 30
0.0
 10
289.3657868867011
 20
210.2226301623347
 30
0.0
 10
289.3811778610239
 20
210.2264033695247
 30
0.0
 10
289.384694194984
 20
210.2218411992972
 30
0.0
 10
289.38645422494
 20
210.2195576971168
 30
0.0
  0
LINE
  5
195
330
1F
100
AcDbEntity
  8
0
  6
Continuous
 62
     7
370
    15
100
AcDbLine
 10
289.0325472814
 20
209.7571672252
 30
0.0
 11
289.0570477121
 21
209.7983781751
 31
0.0
  0
SPLINE
  5
196
330
1F
100
AcDbEntity
  8
0
  6
Continuous
 62
     7
370
    15
100
AcDbSpline
210
0.0
220
0.0
230
1.0
 70
     8
 71
     3
 72
    12
 73
     8
 74
     0
 42
0.00000001
 43
0.00000001
 12
1.0
 22
0.0
 32
0.0
 13
1.0
 23
0.0
 33
0.0
 40
0.0
 40
0.0
 40
0.0
 40
0.0
 40
0.2497260528515604
 40
0.3751189022534296
 40
0.5005715255630128
 40
0.7502699849491934
 40
1.0
 40
1.0
 40
1.0
 40
1.0
 10
289.2897125693094
 20
210.0581627972577
 30
0.0
 10
289.3046884598564
 20
210.0735935179204
 30
0.0
 10
289.3271840687773
 20
210.0967723369898
 30
0.0
 10
289.3546151760491
 20
210.1214954870403
 30
0.0
 10
289.378936674095
 20
210.1418435088161
 30
0.0
 10
289.404129340538
 20
210.1598445510866
 30
0.0
 10
289.4093818855825
 20
210.1579629023235
 30
0.0
 10
289.4120083240419
 20
210.1570220184974
 30
0.0
  0
SPLINE
  5
197
330
1F
100
AcDbEntity
  8
0
  6
Continuous
 62
     7
370
    15
100
AcDbSpline
210
0.0
220
0.0
230
1.0
 70
     8
 71
     3
 72
    13
 73
     9
 74
     0
 42
0.00000001
 43
0.00000001
 12
1.0
 22
0.0
 32
0.0
 13
1.0
 23
0.0
 33
0.0
 40
0.0
 40
0.0
 40
0.0
 40
0.0
 40
0.2492353099436987
 40
0.3712918701752436
 40
0.499796104164666
 40
0.6262386054469044
 40
0.750382148546788
 40
0.9999999999999999
 40
0.9999999999999999
 40
0.9999999999999999
 40
0.9999999999999999
 10
289.1846778849737
 20
209.9170219125355
 30
0.0
 10
289.1850577303414
 20
209.9211654844231
 30
0.0
 10
289.1856235951741
 20
209.9273382636962
 30
0.0
 10
289.1983855837171
 20
209.9478697879831
 30
0.0
 10
289.2114977247123
 20
209.9664482266673
 30
0.0
 10
289.2277823820644
 20
209.9876794037332
 30
0.0
 10
289.2530191142419
 20
210.0183631400701
 30
0.0
 10
289.2750195209363
 20
210.0422259418372
 30
0.0
 10
289.2897125693094
 20
210.0581627972577
 30
0.0
  0
LINE
  5
198
330
1F
100
AcDbEntity
  8
0
  6
Continuous
 62
     7
370
    15
100
AcDbLine
 10
289.0570477121
 20
209.7983781751
 30
0.0
 11
289.184677885
 21
209.9170219125
 31
0.0
  0
SPLINE
  5
199
330
1F
100
AcDbEntity
  8
0
  6
Continuous
 62
     7
370
    15
100
AcDbSpline
210
0.0
220
0.0
230
1.0
 70
     8
 71
     3
 72
    13
 73
     9
 74
     0
 42
0.00000001
 43
0.00000001
 12
1.0
 22
0.0
 32
0.0
 13
1.0
 23
0.0
 33
0.0
 40
0.0
 40
0.0
 40
0.0
 40
0.0
 40
0.1250806743309477
 40
0.2499933782526259
 40
0.3748583154836008
 40
0.4998999815980992
 40
0.7494507114677127
 40
1.0
 40
1.0
 40
1.0
 40
1.0
 10
288.3750068420766
 20
211.2047500133024
 30
0.0
 10
288.3711685312421
 20
211.215191978806
 30
0.0
 10
288.3634970640276
 20
211.2360618873338
 30
0.0
 10
288.3634769276048
 20
211.2755227028001
 30
0.0
 10
288.3749691454723
 20
211.3183258521505
 30
0.0
 10
288.4034000601088
 20
211.374379762374
 30
0.0
 10
288.4540336425253
 20
211.4370758540003
 30
0.0
 10
288.4996296341699
 20
211.4782594292586
 30
0.0
 10
288.5224731511587
 20
211.4988923328788
 30
0.0
  0
SPLINE
  5
19A
330
1F
100
AcDbEntity
  8
0
  6
Continuous
 62
     7
370
    15
100
AcDbSpline
210
0.0
220
0.0
230
1.0
 70
     8
 71
     3
 72
     9
 73
     5
 74
     0
 42
0.00000001
 43
0.00000001
 12
1.0
 22
0.0
 32
0.0
 13
1.0
 23
0.0
 33
0.0
 40
0.0
 40
0.0
 40
0.0
 40
0.0
 40
0.4997221356587666
 40
1.0
 40
1.0
 40
1.0
 40
1.0
 10
288.4101339433606
 20
211.1673946673487
 30
0.0
 10
288.4027481873048
 20
211.1717549217826
 30
0.0
 10
288.3879684616758
 20
211.180480279582
 30
0.0
 10
288.3793289823452
 20
211.1966571054202
 30
0.0
 10
288.3750068420766
 20
211.2047500133024
 30
0.0
  0
SPLINE
  5
19B
330
1F
100
AcDbEntity
  8
0
  6
Continuous
 62
     7
370
    15
100
AcDbSpline
210
0.0
220
0.0
230
1.0
 70
     8
 71
     3
 72
    12
 73
     8
 74
     0
 42
0.00000001
 43
0.00000001
 12
1.0
 22
0.0
 32
0.0
 13
1.0
 23
0.0
 33
0.0
 40
0.0
 40
0.0
 40
0.0
 40
0.0
 40
0.2863617046882694
 40
0.5716435479514357
 40
0.7225754097483913
 40
0.8572946554315098
 40
1.0
 40
1.0
 40
1.0
 40
1.0
 10
288.5224731511587
 20
211.4988923328788
 30
0.0
 10
288.5456277109064
 20
211.5185120381179
 30
0.0
 10
288.5918495152494
 20
211.5576774632744
 30
0.0
 10
288.6551799665802
 20
211.5945084945365
 30
0.0
 10
288.7042383246707
 20
211.6073611283494
 30
0.0
 10
288.7382455109048
 20
211.6050283774592
 30
0.0
 10
288.753529210186
 20
211.5925979529169
 30
0.0
 10
288.7613910423698
 20
211.586203826081
 30
0.0
  0
LINE
  5
19C
330
1F
100
AcDbEntity
  8
0
  6
Continuous
 62
     7
370
    15
100
AcDbLine
 10
288.5254198244
 20
210.9146981802
 30
0.0
 11
288.4602563809
 21
211.0561190865
 31
0.0
  0
SPLINE
  5
19D
330
1F
100
AcDbEntity
  8
0
  6
Continuous
 62
     7
370
    15
100
AcDbSpline
210
0.0
220
0.0
230
1.0
 70
     8
 71
     3
 72
    10
 73
     6
 74
     0
 42
0.00000001
 43
0.00000001
 12
1.0
 22
0.0
 32
0.0
 13
1.0
 23
0.0
 33
0.0
 40
0.0
 40
0.0
 40
0.0
 40
0.0
 40
0.2500360535146827
 40
0.5002676452807483
 40
1.0
 40
1.0
 40
1.0
 40
1.0
 10
288.7040361599247
 20
211.1413669869806
 30
0.0
 10
288.7060027358002
 20
211.1382036954751
 30
0.0
 10
288.7099374254923
 20
211.131874638643
 30
0.0
 10
288.7230957365782
 20
211.1254927714407
 30
0.0
 10
288.7356351057919
 20
211.1260758154026
 30
0.0
 10
288.7439906121243
 20
211.1264643219879
 30
0.0
  0
SPLINE
  5
19E
330
1F
100
AcDbEntity
  8
0
  6
Continuous
 62
     7
370
    15
100
AcDbSpline
210
0.0
220
0.0
230
1.0
 70
     8
 71
     3
 72
    11
 73
     7
 74
     0
 42
0.00000001
 43
0.00000001
 12
1.0
 22
0.0
 32
0.0
 13
1.0
 23
0.0
 33
0.0
 40
0.0
 40
0.0
 40
0.0
 40
0.0
 40
0.2503020461514329
 40
0.5003048500917349
 40
0.7500925137147857
 40
1.0
 40
1.0
 40
1.0
 40
1.0
 10
288.8103296345171
 20
211.1722228153377
 30
0.0
 10
288.8143642427876
 20
211.1790071538751
 30
0.0
 10
288.822428635856
 20
211.1925677201075
 30
0.0
 10
288.8294889651518
 20
211.2133761988198
 30
0.0
 10
288.8316942488987
 20
211.2328555634204
 30
0.0
 10
288.8284909458968
 20
211.2428421272228
 30
0.0
 10
288.8268889103334
 20
211.2478366064707
 30
0.0
  0
LINE
  5
19F
330
1F
100
AcDbEntity
  8
0
  6
Continuous
 62
     7
370
    15
100
AcDbLine
 10
288.8362375199
 20
211.1134268201
 30
0.0
 11
288.8103296345
 21
211.1722228153
 31
0.0
  0
SPLINE
  5
1A0
330
1F
100
AcDbEntity
  8
0
  6
Continuous
 62
     7
370
    15
100
AcDbSpline
210
0.0
220
0.0
230
1.0
 70
     8
 71
     3
 72
    12
 73
     8
 74
     0
 42
0.00000001
 43
0.00000001
 12
1.0
 22
0.0
 32
0.0
 13
1.0
 23
0.0
 33
0.0
 40
0.0
 40
0.0
 40
0.0
 40
0.0
 40
0.3098475550745462
 40
0.6194674196125463
 40
0.7778809420455636
 40
0.9306339684367472
 40
1.0
 40
1.0
 40
1.0
 40
1.0
 10
288.71489258936
 20
211.2922135278751
 30
0.0
 10
288.732668805149
 20
211.3063800246644
 30
0.0
 10
288.7682081739285
 20
211.3347026080358
 30
0.0
 10
288.8147277498314
 20
211.3473459373932
 30
0.0
 10
288.8460244982061
 20
211.3457124316061
 30
0.0
 10
288.8644933204981
 20
211.3417526705355
 30
0.0
 10
288.8706745288031
 20
211.3336862005136
 30
0.0
 10
288.8726048714506
 20
211.3311671054872
 30
0.0
  0
SPLINE
  5
1A1
330
1F
100
AcDbEntity
  8
0
  6
Continuous
 62
     7
370
    15
100
AcDbSpline
210
0.0
220
0.0
230
1.0
 70
     8
 71
     3
 72
    13
 73
     9
 74
     0
 42
0.00000001
 43
0.00000001
 12
1.0
 22
0.0
 32
0.0
 13
1.0
 23
0.0
 33
0.0
 40
0.0
 40
0.0
 40
0.0
 40
0.0
 40
0.249310215662142
 40
0.3744092078577667
 40
0.4997782954425281
 40
0.6260858989677464
 40
0.750263254662262
 40
0.9999999999999999
 40
0.9999999999999999
 40
0.9999999999999999
 40
0.9999999999999999
 10
288.6346175487784
 20
211.0832945779775
 30
0.0
 10
288.6301816951364
 20
211.0975671049987
 30
0.0
 10
288.6235200168578
 20
211.1190013070506
 30
0.0
 10
288.6290325743325
 20
211.156364084725
 30
0.0
 10
288.6380882736477
 20
211.1856225095405
 30
0.0
 10
288.6517671033291
 20
211.2150346656978
 30
0.0
 10
288.6756092675145
 20
211.2530506401987
 30
0.0
 10
288.6991618499554
 20
211.2765310155154
 30
0.0
 10
288.71489258936
 20
211.2922135278751
 30
0.0
  0
LINE
  5
1A2
330
1F
100
AcDbEntity
  8
0
  6
Continuous
 62
     7
370
    15
100
AcDbLine
 10
288.6470348683
 20
211.0671182421
 30
0.0
 11
288.6346175488
 21
211.083294578
 31
0.0
  0
LINE
  5
1A3
330
1F
100
AcDbEntity
  8
0
  6
Continuous
 62
     7
370
    15
100
AcDbLine
 10
288.572571004
 20
211.0171231415
 30
0.0
 11
288.6470348683
 21
211.0671182421
 31
0.0
  0
LINE
  5
1A4
330
1F
100
AcDbEntity
  8
0
  6
Continuous
 62
     7
370
    15
100
AcDbLine
 10
288.4602563809
 20
211.0561190865
 30
0.0
 11
288.5265610543
 21
211.1160552475
 31
0.0
  0
LINE
  5
1A5
330
1F
100
AcDbEntity
  8
0
  6
Continuous
 62
     7
370
    15
100
AcDbLine
 10
283.6654910717
 20
220.6800839097
 30
0.0
 11
283.6662756792
 21
220.6877487584
 31
0.0
  0
SPLINE
  5
1A6
330
1F
100
AcDbEntity
  8
0
  6
Continuous
 62
     7
370
    15
100
AcDbSpline
210
0.0
220
0.0
230
1.0
 70
     8
 71
     3
 72
    12
 73
     8
 74
     0
 42
0.00000001
 43
0.00000001
 12
1.0
 22
0.0
 32
0.0
 13
1.0
 23
0.0
 33
0.0
 40
0.0
 40
0.0
 40
0.0
 40
0.0
 40
0.2497155025423235
 40
0.3751118944124531
 40
0.5005193103196413
 40
0.750279678519775
 40
1.0
 40
1.0
 40
1.0
 40
1.0
 10
284.1760250817593
 20
220.6030965231409
 30
0.0
 10
284.11321913168
 20
220.6007150464847
 30
0.0
 10
284.0188747330552
 20
220.5971376946146
 30
0.0
 10
283.9031672837008
 20
220.6053935972741
 30
0.0
 10
283.8019113035498
 20
220.6191584001852
 30
0.0
 10
283.702022226247
 20
220.6447858593256
 30
0.0
 10
283.677667472323
 20
220.6683185218488
 30
0.0
 10
283.6654910717031
 20
220.6800839097247
 30
0.0
  0
SPLINE
  5
1A7
330
1F
100
AcDbEntity
  8
0
  6
Continuous
 62
     7
370
    15
100
AcDbSpline
210
0.0
220
0.0
230
1.0
 70
     8
 71
     3
 72
    13
 73
     9
 74
     0
 42
0.00000001
 43
0.00000001
 12
1.0
 22
0.0
 32
0.0
 13
1.0
 23
0.0
 33
0.0
 40
0.0
 40
0.0
 40
0.0
 40
0.0
 40
0.1503503794273583
 40
0.2910433036524658
 40
0.4339014794244063
 40
0.5769471486388249
 40
0.7174521034972385
 40
1.0
 40
1.0
 40
1.0
 40
1.0
 10
284.5968363081685
 20
220.7209257000667
 30
0.0
 10
284.5965106626961
 20
220.714129401528
 30
0.0
 10
284.5958802889356
 20
220.7009733510623
 30
0.0
 10
284.5573895952554
 20
220.6785713721242
 30
0.0
 10
284.5054395581429
 20
220.6575531023161
 30
0.0
 10
284.4380173876569
 20
220.6381629953163
 30
0.0
 10
284.3315507786269
 20
220.6163122573813
 30
0.0
 10
284.2383031598865
 20
220.6083885780624
 30
0.0
 10
284.1760250817593
 20
220.6030965231409
 30
0.0
  0
SPLINE
  5
1A8
330
1F
100
AcDbEntity
  8
0
  6
Continuous
 62
     7
370
    15
100
AcDbSpline
210
0.0
220
0.0
230
1.0
 70
     8
 71
     3
 72
    10
 73
     6
 74
     0
 42
0.00000001
 43
0.00000001
 12
1.0
 22
0.0
 32
0.0
 13
1.0
 23
0.0
 33
0.0
 40
0.0
 40
0.0
 40
0.0
 40
0.0
 40
0.2502825545900542
 40
0.5003217366901925
 40
1.0
 40
1.0
 40
1.0
 40
1.0
 10
284.4400988461102
 20
220.7293619628986
 30
0.0
 10
284.4363010568276
 20
220.7340082630469
 30
0.0
 10
284.4287091711984
 20
220.7432963453232
 30
0.0
 10
284.3844248631733
 20
220.7576966199715
 30
0.0
 10
284.3266444501435
 20
220.7629543374302
 30
0.0
 10
284.288134453327
 20
220.7664585471091
 30
0.0
  0
SPLINE
  5
1A9
330
1F
100
AcDbEntity
  8
0
  6
Continuous
 62
     7
370
    15
100
AcDbSpline
210
0.0
220
0.0
230
1.0
 70
     8
 71
     3
 72
    10
 73
     6
 74
     0
 42
0.00000001
 43
0.00000001
 12
1.0
 22
0.0
 32
0.0
 13
1.0
 23
0.0
 33
0.0
 40
0.0
 40
0.0
 40
0.0
 40
0.0
 40
0.4991863950521256
 40
0.7495686208796619
 40
1.0
 40
1.0
 40
1.0
 40
1.0
 10
283.9349040474672
 20
220.7441420622181
 30
0.0
 10
283.9033920283995
 20
220.7360530246221
 30
0.0
 10
283.8560741909988
 20
220.7239066824638
 30
0.0
 10
283.8289221862144
 20
220.7047397422285
 30
0.0
 10
283.8301754011091
 20
220.6949357566191
 30
0.0
 10
283.8308020700561
 20
220.6900332826992
 30
0.0
  0
LINE
  5
1AA
330
1F
100
AcDbEntity
  8
0
  6
Continuous
 62
     7
370
    15
100
AcDbLine
 10
284.4814566269
 20
220.8503899478
 30
0.0
 11
284.4642749241
 21
220.8493075533
 31
0.0
  0
SPLINE
  5
1AB
330
1F
100
AcDbEntity
  8
0
  6
Continuous
 62
     7
370
    15
100
AcDbSpline
210
0.0
220
0.0
230
1.0
 70
     8
 71
     3
 72
    16
 73
    12
 74
     0
 42
0.00000001
 43
0.00000001
 12
1.0
 22
0.0
 32
0.0
 13
1.0
 23
0.0
 33
0.0
 40
0.0
 40
0.0
 40
0.0
 40
0.0
 40
0.0536197505268227
 40
0.1720260900156866
 40
0.2904197517091423
 40
0.4087608799283636
 40
0.5270144770516172
 40
0.6452416275681494
 40
0.7634723120671705
 40
0.8816763869081546
 40
1.0
 40
1.0
 40
1.0
 40
1.0
 10
283.5002428423846
 20
220.7954734526263
 30
0.0
 10
283.4929195790569
 20
220.7952202187176
 30
0.0
 10
283.4694246477294
 20
220.7944077785485
 30
0.0
 10
283.5120230602391
 20
220.7915266674437
 30
0.0
 10
283.6203533410106
 20
220.7883245819537
 30
0.0
 10
283.7880834134576
 20
220.7886557566022
 30
0.0
 10
283.9839620653862
 20
220.7957111975041
 30
0.0
 10
284.1800081878897
 20
220.8099920629615
 30
0.0
 10
284.344396185019
 20
220.827962247533
 30
0.0
 10
284.459071165729
 20
220.8446108532447
 30
0.0
 10
284.4739922928353
 20
220.8484629340215
 30
0.0
 10
284.4814566268676
 20
220.8503899478077
 30
0.0
  0
SPLINE
  5
1AC
330
1F
100
AcDbEntity
  8
0
  6
Continuous
 62
     7
370
    15
100
AcDbSpline
210
0.0
220
0.0
230
1.0
 70
     8
 71
     3
 72
    13
 73
     9
 74
     0
 42
0.00000001
 43
0.00000001
 12
1.0
 22
0.0
 32
0.0
 13
1.0
 23
0.0
 33
0.0
 40
0.0
 40
0.0
 40
0.0
 40
0.0
 40
0.1997333860579974
 40
0.3996127931681502
 40
0.5010398601856569
 40
0.6003804187878814
 40
0.8002290817170533
 40
0.9999999999999999
 40
0.9999999999999999
 40
0.9999999999999999
 40
0.9999999999999999
 10
288.5820779663904
 20
209.2788217725224
 30
0.0
 10
288.6053876105745
 20
209.2997921500841
 30
0.0
 10
288.6520239401536
 20
209.3417482362277
 30
0.0
 10
288.7218429943916
 20
209.4141727321805
 30
0.0
 10
288.7745668759499
 20
209.4717470957301
 30
0.0
 10
288.8236966377669
 20
209.5281205906672
 30
0.0
 10
288.8766951440166
 20
209.5938979113606
 30
0.0
 10
288.8958740665125
 20
209.6276332976813
 30
0.0
 10
288.905461662163
 20
209.6444977092885
 30
0.0
  0
SPLINE
  5
1AD
330
1F
100
AcDbEntity
  8
0
  6
Continuous
 62
     7
370
    15
100
AcDbSpline
210
0.0
220
0.0
230
1.0
 70
     8
 71
     3
 72
    16
 73
    12
 74
     0
 42
0.00000001
 43
0.00000001
 12
1.0
 22
0.0
 32
0.0
 13
1.0
 23
0.0
 33
0.0
 40
0.0
 40
0.0
 40
0.0
 40
0.0
 40
0.0039775362061185
 40
0.1284538100174955
 40
0.2530170521565485
 40
0.3775042198299058
 40
0.5020116313987356
 40
0.6265250607946947
 40
0.7510099139016213
 40
0.8755352219934798
 40
1.0
 40
1.0
 40
1.0
 40
1.0
 10
288.9077505458804
 20
209.6703880094599
 30
0.0
 10
288.9077807097121
 20
209.6706775974494
 30
0.0
 10
288.9087548451814
 20
209.6800297890216
 30
0.0
 10
288.8799362800755
 20
209.6688097759152
 30
0.0
 10
288.8240731522782
 20
209.6340416910584
 30
0.0
 10
288.7456802068086
 20
209.5675365609483
 30
0.0
 10
288.6626843823523
 20
209.4841267114409
 30
0.0
 10
288.5863935811362
 20
209.3944289577645
 30
0.0
 10
288.5287688017377
 20
209.3138284479795
 30
0.0
 10
288.4952114242817
 20
209.2521550454724
 30
0.0
 10
288.4984997869429
 20
209.2383118401764
 30
0.0
 10
288.500143568569
 20
209.2313919201865
 30
0.0
  0
SPLINE
  5
1AE
330
1F
100
AcDbEntity
  8
0
  6
Continuous
 62
     7
370
    15
100
AcDbSpline
210
0.0
220
0.0
230
1.0
 70
     8
 71
     3
 72
    15
 73
    11
 74
     0
 42
0.00000001
 43
0.00000001
 12
1.0
 22
0.0
 32
0.0
 13
1.0
 23
0.0
 33
0.0
 40
0.0
 40
0.0
 40
0.0
 40
0.0
 40
0.1135824125733242
 40
0.2402524153394579
 40
0.3668678437613689
 40
0.4935028201951813
 40
0.62014301254096
 40
0.7467555027152885
 40
0.8734090402969201
 40
1.0
 40
1.0
 40
1.0
 40
1.0
 10
288.2728918428014
 20
211.0363649764792
 30
0.0
 10
288.2535277721162
 20
211.0472155945799
 30
0.0
 10
288.212568396034
 20
211.0701670986689
 30
0.0
 10
288.1241840662592
 20
211.0567752552243
 30
0.0
 10
288.0308782311554
 20
211.0059741611987
 30
0.0
 10
287.9471130202889
 20
210.9227173257065
 30
0.0
 10
287.8867101194334
 20
210.8197481946961
 30
0.0
 10
287.8579506149242
 20
210.7142997733119
 30
0.0
 10
287.8626193058685
 20
210.619527173366
 30
0.0
 10
287.8932914983145
 20
210.5816830139049
 30
0.0
 10
287.9086238049176
 20
210.5627656099072
 30
0.0
  0
SPLINE
  5
1AF
330
1F
100
AcDbEntity
  8
0
  6
Continuous
 62
     7
370
    15
100
AcDbSpline
210
0.0
220
0.0
230
1.0
 70
     8
 71
     3
 72
    17
 73
    13
 74
     0
 42
0.00000001
 43
0.00000001
 12
1.0
 22
0.0
 32
0.0
 13
1.0
 23
0.0
 33
0.0
 40
0.0
 40
0.0
 40
0.0
 40
0.0
 40
0.123865428918697
 40
0.2494326707398615
 40
0.3120531935974403
 40
0.3745242894077432
 40
0.4998101104476574
 40
0.6248531702847042
 40
0.7497601278917283
 40
0.8749854922738266
 40
0.9374930633277233
 40
1.0
 40
1.0
 40
1.0
 40
1.0
 10
284.0419319231773
 20
220.4705496564202
 30
0.0
 10
284.0386075278421
 20
220.4774012685947
 30
0.0
 10
284.0319130626127
 20
220.4911986286691
 30
0.0
 10
283.9993828323013
 20
220.5045021954998
 30
0.0
 10
283.965401898172
 20
220.5119268351422
 30
0.0
 10
283.9259849188554
 20
220.516641735634
 30
0.0
 10
283.8705965825265
 20
220.5176074467568
 30
0.0
 10
283.804451498742
 20
220.5113742382753
 30
0.0
 10
283.7495773765315
 20
220.4977878999373
 30
0.0
 10
283.7192679473166
 20
220.4824617670177
 30
0.0
 10
283.7065605527623
 20
220.46889751489
 30
0.0
 10
283.7059639755053
 20
220.4619313828262
 30
0.0
 10
283.7056656883904
 20
220.458448334469
 30
0.0
  0
LINE
  5
1B0
330
1F
100
AcDbEntity
  8
0
  6
Continuous
 62
     7
370
    15
100
AcDbLine
 10
285.5813895873
 20
219.6785136773
 30
0.0
 11
289.277676397
 21
211.7518010339
 31
0.0
  0
SPLINE
  5
1B1
330
1F
100
AcDbEntity
  8
0
  6
Continuous
 62
     7
370
    15
100
AcDbSpline
210
0.0
220
0.0
230
1.0
 70
    11
 71
     3
 72
    23
 73
    19
 74
     0
 42
0.00000001
 43
0.00000001
 12
1.0
 22
0.0
 32
0.0
 13
1.0
 23
0.0
 33
0.0
 40
0.0
 40
0.0
 40
0.0
 40
0.0
 40
0.0623446329021605
 40
0.1250352052177564
 40
0.1876171326094863
 40
0.2501203281104472
 40
0.3126800421397449
 40
0.3751809874759465
 40
0.4377091416121413
 40
0.5002599088127371
 40
0.5627610438732281
 40
0.6253483675456463
 40
0.6878388965870105
 40
0.7504084705695625
 40
0.8129299531227975
 40
0.8754938755893917
 40
0.9382225894506105
 40
1.0
 40
1.0
 40
1.0
 40
1.0
 10
288.2934584241023
 20
210.7791048921137
 30
0.0
 10
288.3062714560025
 20
210.8132393040507
 30
0.0
 10
288.3319686170656
 20
210.8816975337787
 30
0.0
 10
288.3268363477651
 20
210.9733954423665
 30
0.0
 10
288.2862999315788
 20
211.0385367697891
 30
0.0
 10
288.2152147791555
 20
211.0676521984624
 30
0.0
 10
288.1256827651954
 20
211.0563761962442
 30
0.0
 10
288.0317819437176
 20
211.0047703054658
 30
0.0
 10
287.948126570804
 20
210.9215344939314
 30
0.0
 10
287.8878586124607
 20
210.8185513213084
 30
0.0
 10
287.8588201515327
 20
210.7124810778298
 30
0.0
 10
287.8652149248186
 20
210.6198393620013
 30
0.0
 10
287.9056203183599
 20
210.5553321557199
 30
0.0
 10
287.9735011806046
 20
210.5280843573928
 30
0.0
 10
288.0598583666262
 20
210.5426014072758
 30
0.0
 10
288.1514121035746
 20
210.5956218827533
 30
0.0
 10
288.2367084615135
 20
210.6787566170125
 30
0.0
 10
288.2746383725166
 20
210.7458262849078
 30
0.0
 10
288.2934584241023
 20
210.7791048921137
 30
0.0
  0
LINE
  5
1B2
330
1F
100
AcDbEntity
  8
0
  6
Continuous
 62
     7
370
    15
100
AcDbLine
 10
288.3762554864
 20
211.2038298573
 30
0.0
 11
288.3750068421
 21
211.2047500133
 31
0.0
  0
SPLINE
  5
1B3
330
1F
100
AcDbEntity
  8
0
  6
Continuous
 62
     7
370
    15
100
AcDbSpline
210
0.0
220
0.0
230
1.0
 70
     8
 71
     3
 72
    13
 73
     9
 74
     0
 42
0.00000001
 43
0.00000001
 12
1.0
 22
0.0
 32
0.0
 13
1.0
 23
0.0
 33
0.0
 40
0.0
 40
0.0
 40
0.0
 40
0.0
 40
0.1251041406771963
 40
0.250035601321114
 40
0.3749092335025926
 40
0.4999490085669319
 40
0.7494783408310995
 40
1.0
 40
1.0
 40
1.0
 40
1.0
 10
288.3762554864088
 20
211.2038298573034
 30
0.0
 10
288.3724158005135
 20
211.2142747252734
 30
0.0
 10
288.364741728604
 20
211.2351500442632
 30
0.0
 10
288.3647172385772
 20
211.2746182361226
 30
0.0
 10
288.3762056054596
 20
211.3174283407774
 30
0.0
 10
288.4046327011049
 20
211.3734887402883
 30
0.0
 10
288.4552650452673
 20
211.4361905200871
 30
0.0
 10
288.5008615345491
 20
211.4773750301188
 30
0.0
 10
288.5237050211992
 20
211.4980081494647
 30
0.0
  0
SPLINE
  5
1B4
330
1F
100
AcDbEntity
  8
0
  6
Continuous
 62
     7
370
    15
100
AcDbSpline
210
0.0
220
0.0
230
1.0
 70
     8
 71
     3
 72
    13
 73
     9
 74
     0
 42
0.00000001
 43
0.00000001
 12
1.0
 22
0.0
 32
0.0
 13
1.0
 23
0.0
 33
0.0
 40
0.0
 40
0.0
 40
0.0
 40
0.0
 40
0.2505108844284808
 40
0.5000827685659108
 40
0.6321221869810059
 40
0.750005397030879
 40
0.8748786044904339
 40
1.0
 40
1.0
 40
1.0
 40
1.0
 10
288.5237050211992
 20
211.4980081494647
 30
0.0
 10
288.5468672005219
 20
211.5176355740335
 30
0.0
 10
288.5931047394141
 20
211.5568168528853
 30
0.0
 10
288.6563426532521
 20
211.5935459010335
 30
0.0
 10
288.7056040000489
 20
211.606597912553
 30
0.0
 10
288.7390469823123
 20
211.6036734411664
 30
0.0
 10
288.7644112312403
 20
211.5870923569793
 30
0.0
 10
288.7745988017443
 20
211.5685675440066
 30
0.0
 10
288.7796976439719
 20
211.5592959420473
 30
0.0
  0
SPLINE
  5
1B5
330
1F
100
AcDbEntity
  8
0
  6
Continuous
 62
     7
370
    15
100
AcDbSpline
210
0.0
220
0.0
230
1.0
 70
     8
 71
     3
 72
    13
 73
     9
 74
     0
 42
0.00000001
 43
0.00000001
 12
1.0
 22
0.0
 32
0.0
 13
1.0
 23
0.0
 33
0.0
 40
0.0
 40
0.0
 40
0.0
 40
0.0
 40
0.1251691156678204
 40
0.2500999009322483
 40
0.3733365630492649
 40
0.5000242361186789
 40
0.7494730592181811
 40
1.0
 40
1.0
 40
1.0
 40
1.0
 10
288.7796976439719
 20
211.5592959420473
 30
0.0
 10
288.7835452961211
 20
211.5490825177631
 30
0.0
 10
288.7912332742316
 20
211.5286751162406
 30
0.0
 10
288.791310568318
 20
211.4906524153156
 30
0.0
 10
288.7797415582129
 20
211.4490073652353
 30
0.0
 10
288.751134519275
 20
211.3942021068116
 30
0.0
 10
288.7005694405005
 20
211.3322753414341
 30
0.0
 10
288.6554677003912
 20
211.2916250880893
 30
0.0
 10
288.632868202996
 20
211.2712561335355
 30
0.0
  0
SPLINE
  5
1B6
330
1F
100
AcDbEntity
  8
0
  6
Continuous
 62
     7
370
    15
100
AcDbSpline
210
0.0
220
0.0
230
1.0
 70
     8
 71
     3
 72
     9
 73
     5
 74
     0
 42
0.00000001
 43
0.00000001
 12
1.0
 22
0.0
 32
0.0
 13
1.0
 23
0.0
 33
0.0
 40
0.0
 40
0.0
 40
0.0
 40
0.0
 40
0.5016003686323106
 40
1.0
 40
1.0
 40
1.0
 40
1.0
 10
288.632868202996
 20
211.2712561335355
 30
0.0
 10
288.6060083980013
 20
211.2479400130142
 30
0.0
 10
288.552460181783
 20
211.2014565533133
 30
0.0
 10
288.4955838134202
 20
211.1765241037348
 30
0.0
 10
288.4672366523947
 20
211.1640977800558
 30
0.0
  0
SPLINE
  5
1B7
330
1F
100
AcDbEntity
  8
0
  6
Continuous
 62
     7
370
    15
100
AcDbSpline
210
0.0
220
0.0
230
1.0
 70
     8
 71
     3
 72
    12
 73
     8
 74
     0
 42
0.00000001
 43
0.00000001
 12
1.0
 22
0.0
 32
0.0
 13
1.0
 23
0.0
 33
0.0
 40
0.0
 40
0.0
 40
0.0
 40
0.0
 40
0.249977481042167
 40
0.499745290308016
 40
0.7495614055427329
 40
0.8747512989074959
 40
1.0
 40
1.0
 40
1.0
 40
1.0
 10
288.4672360696117
 20
211.1640976616674
 30
0.0
 10
288.4571132949109
 20
211.1623566085906
 30
0.0
 10
288.4368762361148
 20
211.1588759627673
 30
0.0
 10
288.4104398335217
 20
211.164935568293
 30
0.0
 10
288.3931472654224
 20
211.1776145812647
 30
0.0
 10
288.3825006160818
 20
211.1915685728644
 30
0.0
 10
288.3783375221576
 20
211.1997421227223
 30
0.0
 10
288.3762554864088
 20
211.2038298573034
 30
0.0
  0
SPLINE
  5
1B8
330
1F
100
AcDbEntity
  8
0
  6
Continuous
 62
     7
370
    15
100
AcDbSpline
210
0.0
220
0.0
230
1.0
 70
     8
 71
     3
 72
    11
 73
     7
 74
     0
 42
0.00000001
 43
0.00000001
 12
1.0
 22
0.0
 32
0.0
 13
1.0
 23
0.0
 33
0.0
 40
0.0
 40
0.0
 40
0.0
 40
0.0
 40
0.2500150761541938
 40
0.4997860364790762
 40
0.7527065447473809
 40
1.0
 40
1.0
 40
1.0
 40
1.0
 10
288.7118746416754
 20
211.4996085770468
 30
0.0
 10
288.7098267997221
 20
211.5030522837477
 30
0.0
 10
288.7057331153376
 20
211.5099363346991
 30
0.0
 10
288.6951868099986
 20
211.5152615374023
 30
0.0
 10
288.6824369755757
 20
211.5160181847979
 30
0.0
 10
288.6731930151449
 20
211.5137269220844
 30
0.0
 10
288.6686230289353
 20
211.5125941782695
 30
0.0
  0
SPLINE
  5
1B9
330
1F
100
AcDbEntity
  8
0
  6
Continuous
 62
     7
370
    15
100
AcDbSpline
210
0.0
220
0.0
230
1.0
 70
     8
 71
     3
 72
     9
 73
     5
 74
     0
 42
0.00000001
 43
0.00000001
 12
1.0
 22
0.0
 32
0.0
 13
1.0
 23
0.0
 33
0.0
 40
0.0
 40
0.0
 40
0.0
 40
0.0
 40
0.498621787860401
 40
1.0
 40
1.0
 40
1.0
 40
1.0
 10
288.6686230289354
 20
211.5125941782695
 30
0.0
 10
288.6489170493729
 20
211.5030024964161
 30
0.0
 10
288.6093961538922
 20
211.4837661090644
 30
0.0
 10
288.5726665573363
 20
211.4516828411974
 30
0.0
 10
288.5542511378824
 20
211.4355969897146
 30
0.0
  0
SPLINE
  5
1BA
330
1F
100
AcDbEntity
  8
0
  6
Continuous
 62
     7
370
    15
100
AcDbSpline
210
0.0
220
0.0
230
1.0
 70
     8
 71
     3
 72
    13
 73
     9
 74
     0
 42
0.00000001
 43
0.00000001
 12
1.0
 22
0.0
 32
0.0
 13
1.0
 23
0.0
 33
0.0
 40
0.0
 40
0.0
 40
0.0
 40
0.0
 40
0.5001985275134396
 40
0.6253465668044934
 40
0.7503180031602271
 40
0.8748430733574797
 40
0.9374070736647407
 40
1.0
 40
1.0
 40
1.0
 40
1.0
 10
288.5542511378824
 20
211.4355969897146
 30
0.0
 10
288.5271152370638
 20
211.4113795878715
 30
0.0
 10
288.4931900224127
 20
211.3811030711156
 30
0.0
 10
288.4595396819549
 20
211.3361452562662
 30
0.0
 10
288.446896231354
 20
211.3115127267343
 30
0.0
 10
288.4413297657516
 20
211.2905057787625
 30
0.0
 10
288.4418102612482
 20
211.2754982822747
 30
0.0
 10
288.4440857757902
 20
211.2693925909159
 30
0.0
 10
288.4452237960175
 20
211.2663390396687
 30
0.0
  0
SPLINE
  5
1BB
330
1F
100
AcDbEntity
  8
0
  6
Continuous
 62
     7
370
    15
100
AcDbSpline
210
0.0
220
0.0
230
1.0
 70
     8
 71
     3
 72
    13
 73
     9
 74
     0
 42
0.00000001
 43
0.00000001
 12
1.0
 22
0.0
 32
0.0
 13
1.0
 23
0.0
 33
0.0
 40
0.0
 40
0.0
 40
0.0
 40
0.0
 40
0.1244804274389097
 40
0.1880813179708949
 40
0.2496574044589148
 40
0.3613438905653432
 40
0.4997478497936559
 40
0.9999999999999999
 40
0.9999999999999999
 40
0.9999999999999999
 40
0.9999999999999999
 10
288.4452237960175
 20
211.2663390396687
 30
0.0
 10
288.4487418304179
 20
211.2610362984849
 30
0.0
 10
288.4540573371228
 20
211.2530242232437
 30
0.0
 10
288.4659381647069
 20
211.2489071280295
 30
0.0
 10
288.4786215846558
 20
211.2481763086024
 30
0.0
 10
288.4973539092508
 20
211.2537830526886
 30
0.0
 10
288.5424973778794
 20
211.2780229231665
 30
0.0
 10
288.5787319904406
 20
211.3093849101292
 30
0.0
 10
288.6071141550797
 20
211.333950401919
 30
0.0
  0
SPLINE
  5
1BC
330
1F
100
AcDbEntity
  8
0
  6
Continuous
 62
     7
370
    15
100
AcDbSpline
210
0.0
220
0.0
230
1.0
 70
     8
 71
     3
 72
    12
 73
     8
 74
     0
 42
0.00000001
 43
0.00000001
 12
1.0
 22
0.0
 32
0.0
 13
1.0
 23
0.0
 33
0.0
 40
0.0
 40
0.0
 40
0.0
 40
0.0
 40
0.5003434743494616
 40
0.6272147857483534
 40
0.7506103926254476
 40
0.8753542764668808
 40
1.0
 40
1.0
 40
1.0
 40
1.0
 10
288.6071141550797
 20
211.333950401919
 30
0.0
 10
288.633731839224
 20
211.3576534790989
 30
0.0
 10
288.6670989278613
 20
211.3873669084472
 30
0.0
 10
288.6994397730677
 20
211.4319636380953
 30
0.0
 10
288.7111429479674
 20
211.4559923449286
 30
0.0
 10
288.7174961650229
 20
211.4807054759152
 30
0.0
 10
288.713747991028
 20
211.4933091969539
 30
0.0
 10
288.7118746416754
 20
211.4996085770468
 30
0.0
  0
SPLINE
  5
1BD
330
1F
100
AcDbEntity
  8
0
  6
Continuous
 62
     7
370
    15
100
AcDbSpline
210
0.0
220
0.0
230
1.0
 70
     8
 71
     3
 72
    11
 73
     7
 74
     0
 42
0.00000001
 43
0.00000001
 12
1.0
 22
0.0
 32
0.0
 13
1.0
 23
0.0
 33
0.0
 40
0.0
 40
0.0
 40
0.0
 40
0.0
 40
0.2499914374101951
 40
0.4997508050324948
 40
0.7526804866690918
 40
1.0
 40
1.0
 40
1.0
 40
1.0
 10
288.7106260431702
 20
211.5005286347694
 30
0.0
 10
288.7085787154251
 20
211.5039711992733
 30
0.0
 10
288.7044859604917
 20
211.5108531325108
 30
0.0
 10
288.6939408312271
 20
211.5161750232884
 30
0.0
 10
288.6811922397054
 20
211.5169288063691
 30
0.0
 10
288.6719493181331
 20
211.514636342778
 30
0.0
 10
288.6673796858619
 20
211.5135029656824
 30
0.0
  0
SPLINE
  5
1BE
330
1F
100
AcDbEntity
  8
0
  6
Continuous
 62
     7
370
    15
100
AcDbSpline
210
0.0
220
0.0
230
1.0
 70
     8
 71
     3
 72
    12
 73
     8
 74
     0
 42
0.00000001
 43
0.00000001
 12
1.0
 22
0.0
 32
0.0
 13
1.0
 23
0.0
 33
0.0
 40
0.0
 40
0.0
 40
0.0
 40
0.0
 40
0.500383310715289
 40
0.6272599779752218
 40
0.7506527149604104
 40
0.875381310215938
 40
1.0
 40
1.0
 40
1.0
 40
1.0
 10
288.605858057579
 20
211.3348865412893
 30
0.0
 10
288.6324755041056
 20
211.3585892908189
 30
0.0
 10
288.6658420424464
 20
211.3883020846502
 30
0.0
 10
288.6981848605892
 20
211.4328954580481
 30
0.0
 10
288.7098893894474
 20
211.4569206292055
 30
0.0
 10
288.7162451655782
 20
211.4816297243204
 30
0.0
 10
288.7124985335018
 20
211.4942308493636
 30
0.0
 10
288.7106260431702
 20
211.5005286347694
 30
0.0
  0
SPLINE
  5
1BF
330
1F
100
AcDbEntity
  8
0
  6
Continuous
 62
     7
370
    15
100
AcDbSpline
210
0.0
220
0.0
230
1.0
 70
     8
 71
     3
 72
    13
 73
     9
 74
     0
 42
0.00000001
 43
0.00000001
 12
1.0
 22
0.0
 32
0.0
 13
1.0
 23
0.0
 33
0.0
 40
0.0
 40
0.0
 40
0.0
 40
0.0
 40
0.1244536311939895
 40
0.1880446974709566
 40
0.2496149970668834
 40
0.3612999962980744
 40
0.4997100595494264
 40
1.0
 40
1.0
 40
1.0
 40
1.0
 10
288.4439753352092
 20
211.2672588020993
 30
0.0
 10
288.4474926213489
 20
211.2619578421846
 30
0.0
 10
288.4528071067659
 20
211.2539482936169
 30
0.0
 10
288.46468639908
 20
211.2498345561987
 30
0.0
 10
288.4773689439403
 20
211.2491064218722
 30
0.0
 10
288.4961001723333
 20
211.2547158050056
 30
0.0
 10
288.5412422314192
 20
211.2789592957697
 30
0.0
 10
288.5774762022451
 20
211.3103210580959
 30
0.0
 10
288.605858057579
 20
211.3348865412893
 30
0.0
  0
LINE
  5
1C0
330
1F
100
AcDbEntity
  8
0
  6
Continuous
 62
     7
370
    15
100
AcDbLine
 10
288.7106260432
 20
211.5005286348
 30
0.0
 11
288.7118746417
 21
211.499608577
 31
0.0
  0
LINE
  5
1C1
330
1F
100
AcDbEntity
  8
0
  6
Continuous
 62
     7
370
    15
100
AcDbLine
 10
288.5278321235
 20
211.1150870012
 30
0.0
 11
288.5265610543
 21
211.1160552475
 31
0.0
  0
LINE
  5
1C2
330
1F
100
AcDbEntity
  8
0
  6
Continuous
 62
     7
370
    15
100
AcDbLine
 10
288.4615274844
 20
211.0551507665
 30
0.0
 11
288.5278321235
 21
211.1150870012
 31
0.0
  0
LINE
  5
1C3
330
1F
100
AcDbEntity
  8
0
  6
Continuous
 62
     7
370
    15
100
AcDbLine
 10
288.4615274844
 20
211.0551507665
 30
0.0
 11
288.4602563809
 21
211.0561190865
 31
0.0
  0
LINE
  5
1C4
330
1F
100
AcDbEntity
  8
0
  6
Continuous
 62
     7
370
    15
100
AcDbLine
 10
288.5267108862
 20
210.9136870597
 30
0.0
 11
288.5254198244
 21
210.9146981802
 31
0.0
  0
LINE
  5
1C5
330
1F
100
AcDbEntity
  8
0
  6
Continuous
 62
     7
370
    15
100
AcDbLine
 10
288.5267108862
 20
210.9136870597
 30
0.0
 11
288.4615274844
 21
211.0551507665
 31
0.0
  0
LINE
  5
1C6
330
1F
100
AcDbEntity
  8
0
  6
Continuous
 62
     7
370
    15
100
AcDbLine
 10
288.5278321235
 20
211.1150870012
 30
0.0
 11
288.5738561525
 21
211.0161247022
 31
0.0
  0
LINE
  5
1C7
330
1F
100
AcDbEntity
  8
0
  6
Continuous
 62
     7
370
    15
100
AcDbLine
 10
288.5738561525
 20
211.0161247022
 30
0.0
 11
288.6483217191
 21
211.0661159004
 31
0.0
  0
LINE
  5
1C8
330
1F
100
AcDbEntity
  8
0
  6
Continuous
 62
     7
370
    15
100
AcDbLine
 10
288.6483217849
 20
211.0661159813
 30
0.0
 11
288.6359017254
 21
211.0822982227
 31
0.0
  0
SPLINE
  5
1C9
330
1F
100
AcDbEntity
  8
0
  6
Continuous
 62
     7
370
    15
100
AcDbSpline
210
0.0
220
0.0
230
1.0
 70
     8
 71
     3
 72
    13
 73
     9
 74
     0
 42
0.00000001
 43
0.00000001
 12
1.0
 22
0.0
 32
0.0
 13
1.0
 23
0.0
 33
0.0
 40
0.0
 40
0.0
 40
0.0
 40
0.0
 40
0.249346992649911
 40
0.3744568526342771
 40
0.4998292843786491
 40
0.6261128394210805
 40
0.7502983698020352
 40
1.0
 40
1.0
 40
1.0
 40
1.0
 10
288.6359017253992
 20
211.0822982227398
 30
0.0
 10
288.631463984246
 20
211.0965743859864
 30
0.0
 10
288.6247996063547
 20
211.1180136145098
 30
0.0
 10
288.6303086830607
 20
211.1553837082532
 30
0.0
 10
288.6393615406856
 20
211.1846452003756
 30
0.0
 10
288.6530385754291
 20
211.2140609662374
 30
0.0
 10
288.676877837404
 20
211.2520808713265
 30
0.0
 10
288.700432143423
 20
211.2755637083974
 30
0.0
 10
288.7161629553664
 20
211.2912467895955
 30
0.0
  0
SPLINE
  5
1CA
330
1F
100
AcDbEntity
  8
0
  6
Continuous
 62
     7
370
    15
100
AcDbSpline
210
0.0
220
0.0
230
1.0
 70
     8
 71
     3
 72
    12
 73
     8
 74
     0
 42
0.00000001
 43
0.00000001
 12
1.0
 22
0.0
 32
0.0
 13
1.0
 23
0.0
 33
0.0
 40
0.0
 40
0.0
 40
0.0
 40
0.0
 40
0.249783606227444
 40
0.499404694661065
 40
0.6271189541193166
 40
0.7503024759901996
 40
1.0
 40
1.0
 40
1.0
 40
1.0
 10
288.7161629553664
 20
211.2912467895955
 30
0.0
 10
288.7339588894212
 20
211.3054370574878
 30
0.0
 10
288.7695391788846
 20
211.3338083605965
 30
0.0
 10
288.8158189457758
 20
211.3461416799468
 30
0.0
 10
288.8476237377768
 20
211.3451349703855
 30
0.0
 10
288.8757474243438
 20
211.3361505994027
 30
0.0
 10
288.8875803418233
 20
211.3180528644098
 30
0.0
 10
288.8955041830297
 20
211.3059338262665
 30
0.0
  0
SPLINE
  5
1CB
330
1F
100
AcDbEntity
  8
0
  6
Continuous
 62
     7
370
    15
100
AcDbSpline
210
0.0
220
0.0
230
1.0
 70
     8
 71
     3
 72
    11
 73
     7
 74
     0
 42
0.00000001
 43
0.00000001
 12
1.0
 22
0.0
 32
0.0
 13
1.0
 23
0.0
 33
0.0
 40
0.0
 40
0.0
 40
0.0
 40
0.0
 40
0.2502177388968949
 40
0.50006112641701
 40
0.7498419790468706
 40
0.9999999999999999
 40
0.9999999999999999
 40
0.9999999999999999
 40
0.9999999999999999
 10
288.8955041830297
 20
211.3059338262665
 30
0.0
 10
288.8996951255756
 20
211.2930579375003
 30
0.0
 10
288.9080707405882
 20
211.2673254236168
 30
0.0
 10
288.899760577455
 20
211.2160059646499
 30
0.0
 10
288.8761176632944
 20
211.1614836896686
 30
0.0
 10
288.8504038973565
 20
211.1287674382532
 30
0.0
 10
288.8375373147838
 20
211.1123969715031
 30
0.0
  0
LINE
  5
1CC
330
1F
100
AcDbEntity
  8
0
  6
Continuous
 62
     7
370
    15
100
AcDbLine
 10
288.8375373148
 20
211.1123969715
 30
0.0
 11
288.811621039
 21
211.1712109599
 31
0.0
  0
SPLINE
  5
1CD
330
1F
100
AcDbEntity
  8
0
  6
Continuous
 62
     7
370
    15
100
AcDbSpline
210
0.0
220
0.0
230
1.0
 70
     8
 71
     3
 72
    11
 73
     7
 74
     0
 42
0.00000001
 43
0.00000001
 12
1.0
 22
0.0
 32
0.0
 13
1.0
 23
0.0
 33
0.0
 40
0.0
 40
0.0
 40
0.0
 40
0.0
 40
0.2502772342204328
 40
0.5002752923807476
 40
0.7500794298443875
 40
1.0
 40
1.0
 40
1.0
 40
1.0
 10
288.8116210389838
 20
211.1712109599342
 30
0.0
 10
288.8156553753892
 20
211.1779960870387
 30
0.0
 10
288.8237195480299
 20
211.1915587726606
 30
0.0
 10
288.8307781549074
 20
211.21237039084
 30
0.0
 10
288.8329813507594
 20
211.2318527020667
 30
0.0
 10
288.8297770480725
 20
211.2418414793411
 30
0.0
 10
288.8281745234378
 20
211.2468370316392
 30
0.0
  0
SPLINE
  5
1CE
330
1F
100
AcDbEntity
  8
0
  6
Continuous
 62
     7
370
    15
100
AcDbSpline
210
0.0
220
0.0
230
1.0
 70
     8
 71
     3
 72
    13
 73
     9
 74
     0
 42
0.00000001
 43
0.00000001
 12
1.0
 22
0.0
 32
0.0
 13
1.0
 23
0.0
 33
0.0
 40
0.0
 40
0.0
 40
0.0
 40
0.0
 40
0.2492056097047982
 40
0.3739046134772285
 40
0.4997851682943745
 40
0.6253262788936323
 40
0.7502634512867695
 40
0.9999999999999999
 40
0.9999999999999999
 40
0.9999999999999999
 40
0.9999999999999999
 10
288.8281741494847
 20
211.2468379726288
 30
0.0
 10
288.8244913873735
 20
211.2523184191602
 30
0.0
 10
288.8189658225784
 20
211.2605412045319
 30
0.0
 10
288.8058752550997
 20
211.2640351873673
 30
0.0
 10
288.7947786992429
 20
211.2639321444119
 30
0.0
 10
288.7826956481901
 20
211.2609887291047
 30
0.0
 10
288.765929177526
 20
211.253526984296
 30
0.0
 10
288.7538027245061
 20
211.2436030684418
 30
0.0
 10
288.7457199090998
 20
211.2369883411323
 30
0.0
  0
SPLINE
  5
1CF
330
1F
100
AcDbEntity
  8
0
  6
Continuous
 62
     7
370
    15
100
AcDbSpline
210
0.0
220
0.0
230
1.0
 70
     8
 71
     3
 72
    13
 73
     9
 74
     0
 42
0.00000001
 43
0.00000001
 12
1.0
 22
0.0
 32
0.0
 13
1.0
 23
0.0
 33
0.0
 40
0.0
 40
0.0
 40
0.0
 40
0.0
 40
0.2498654106807763
 40
0.4990871643639221
 40
0.6283421333857968
 40
0.7495593495385551
 40
0.8747821025796786
 40
1.0
 40
1.0
 40
1.0
 40
1.0
 10
288.7457199090998
 20
211.2369883411323
 30
0.0
 10
288.7384274669552
 20
211.2297995214928
 30
0.0
 10
288.7238613681051
 20
211.2154404007196
 30
0.0
 10
288.7106997514628
 20
211.1925250722773
 30
0.0
 10
288.7041883644551
 20
211.1745796510072
 30
0.0
 10
288.7017096193945
 20
211.1615712668825
 30
0.0
 10
288.7019028037289
 20
211.1498343018762
 30
0.0
 10
288.7041815167459
 20
211.143524411939
 30
0.0
 10
288.7053208511642
 20
211.1403695281395
 30
0.0
  0
SPLINE
  5
1D0
330
1F
100
AcDbEntity
  8
0
  6
Continuous
 62
     7
370
    15
100
AcDbSpline
210
0.0
220
0.0
230
1.0
 70
     8
 71
     3
 72
    10
 73
     6
 74
     0
 42
0.00000001
 43
0.00000001
 12
1.0
 22
0.0
 32
0.0
 13
1.0
 23
0.0
 33
0.0
 40
0.0
 40
0.0
 40
0.0
 40
0.0
 40
0.250053111872201
 40
0.5002918596872955
 40
1.0
 40
1.0
 40
1.0
 40
1.0
 10
288.7053208511642
 20
211.1403695281395
 30
0.0
 10
288.7072879065084
 20
211.1372051790107
 30
0.0
 10
288.7112234775112
 20
211.1308741315845
 30
0.0
 10
288.7243830734848
 20
211.124488258203
 30
0.0
 10
288.7369240504721
 20
211.1250688506737
 30
0.0
 10
288.7452804132857
 20
211.1254557137815
 30
0.0
  0
LINE
  5
1D1
330
1F
100
AcDbEntity
  8
0
  6
Continuous
 62
     7
370
    15
100
AcDbLine
 10
288.7452804987
 20
211.1254557217
 30
0.0
 11
288.7525634338
 21
211.0678080553
 31
0.0
  0
LINE
  5
1D2
330
1F
100
AcDbEntity
  8
0
  6
Continuous
 62
     7
370
    15
100
AcDbLine
 10
288.7525633545
 20
211.0678080011
 30
0.0
 11
288.5267108862
 21
210.9136870597
 31
0.0
  0
LINE
  5
1D3
330
1F
100
AcDbEntity
  8
0
  6
Continuous
 62
     7
370
    15
100
AcDbLine
 10
288.7161629554
 20
211.2912467896
 30
0.0
 11
288.7148925894
 21
211.2922135279
 31
0.0
  0
LINE
  5
1D4
330
1F
100
AcDbEntity
  8
0
  6
Continuous
 62
     7
370
    15
100
AcDbLine
 10
288.6359017254
 20
211.0822982227
 30
0.0
 11
288.6346175488
 21
211.083294578
 31
0.0
  0
LINE
  5
1D5
330
1F
100
AcDbEntity
  8
0
  6
Continuous
 62
     7
370
    15
100
AcDbLine
 10
288.6483218084
 20
211.0661159605
 30
0.0
 11
288.6470348683
 21
211.0671182421
 31
0.0
  0
LINE
  5
1D6
330
1F
100
AcDbEntity
  8
0
  6
Continuous
 62
     7
370
    15
100
AcDbLine
 10
288.8281741495
 20
211.2468379726
 30
0.0
 11
288.8268889103
 21
211.2478366065
 31
0.0
  0
LINE
  5
1D7
330
1F
100
AcDbEntity
  8
0
  6
Continuous
 62
     7
370
    15
100
AcDbLine
 10
288.7452804987
 20
211.1254557217
 30
0.0
 11
288.7439906121
 21
211.126464322
 31
0.0
  0
LINE
  5
1D8
330
1F
100
AcDbEntity
  8
0
  6
Continuous
 62
     7
370
    15
100
AcDbLine
 10
288.811621039
 20
211.1712109599
 30
0.0
 11
288.8103296345
 21
211.1722228153
 31
0.0
  0
LINE
  5
1D9
330
1F
100
AcDbEntity
  8
0
  6
Continuous
 62
     7
370
    15
100
AcDbLine
 10
288.8375373148
 20
211.1123969715
 30
0.0
 11
288.8362375199
 21
211.1134268201
 31
0.0
  0
SPLINE
  5
1DA
330
1F
100
AcDbEntity
  8
0
  6
Continuous
 62
     7
370
    15
100
AcDbSpline
210
0.0
220
0.0
230
1.0
 70
     8
 71
     3
 72
    12
 73
     8
 74
     0
 42
0.00000001
 43
0.00000001
 12
1.0
 22
0.0
 32
0.0
 13
1.0
 23
0.0
 33
0.0
 40
0.0
 40
0.0
 40
0.0
 40
0.0
 40
0.0304717459516362
 40
0.0888135668588644
 40
0.3925556175489238
 40
0.6962774394173896
 40
1.0
 40
1.0
 40
1.0
 40
1.0
 10
285.5922662606809
 20
219.8713222896714
 30
0.0
 10
285.5914144163559
 20
219.8732648467038
 30
0.0
 10
285.5889316136629
 20
219.878926662707
 30
0.0
 10
285.5765619062654
 20
219.9036209935723
 30
0.0
 10
285.5474151897839
 20
219.9429833621479
 30
0.0
 10
285.4934297149126
 20
219.9860478555918
 30
0.0
 10
285.4518461106597
 20
220.0000749053403
 30
0.0
 10
285.4310542832484
 20
220.0070884387438
 30
0.0
  0
SPLINE
  5
1DB
330
1F
100
AcDbEntity
  8
0
  6
Continuous
 62
     7
370
    15
100
AcDbSpline
210
0.0
220
0.0
230
1.0
 70
     8
 71
     3
 72
    11
 73
     7
 74
     0
 42
0.00000001
 43
0.00000001
 12
1.0
 22
0.0
 32
0.0
 13
1.0
 23
0.0
 33
0.0
 40
0.0
 40
0.0
 40
0.0
 40
0.0
 40
0.3704320937900705
 40
0.7442498469322832
 40
0.9442480537694609
 40
0.9999999999999999
 40
0.9999999999999999
 40
0.9999999999999999
 40
0.9999999999999999
 10
285.4263411691505
 20
220.0110160831059
 30
0.0
 10
285.4266390823825
 20
220.0104586703945
 30
0.0
 10
285.427237631701
 20
220.0093387503547
 30
0.0
 10
285.4286910677653
 20
220.0079983720457
 30
0.0
 10
285.4301956827384
 20
220.0073153930546
 30
0.0
 10
285.4309006128572
 20
220.0071290585167
 30
0.0
 10
285.4310542832484
 20
220.0070884387438
 30
0.0
  0
SPLINE
  5
1DC
330
1F
100
AcDbEntity
  8
0
  6
Continuous
 62
     7
370
    15
100
AcDbSpline
210
0.0
220
0.0
230
1.0
 70
     8
 71
     3
 72
    12
 73
     8
 74
     0
 42
0.00000001
 43
0.00000001
 12
1.0
 22
0.0
 32
0.0
 13
1.0
 23
0.0
 33
0.0
 40
0.0
 40
0.0
 40
0.0
 40
0.0
 40
0.0304717459458287
 40
0.0888135668584039
 40
0.3925556175488201
 40
0.6962774394173972
 40
0.9999999999999999
 40
0.9999999999999999
 40
0.9999999999999999
 40
0.9999999999999999
 10
289.4323677539057
 20
211.6361980619915
 30
0.0
 10
289.4333082839484
 20
211.6342968597888
 30
0.0
 10
289.4360495718279
 20
211.6287555774073
 30
0.0
 10
289.4470154321107
 20
211.6034066218826
 30
0.0
 10
289.4584336076113
 20
211.5557772988784
 30
0.0
 10
289.4567217291585
 20
211.4867407030407
 30
0.0
 10
289.440737647092
 20
211.4458694002992
 30
0.0
 10
289.4327455963397
 20
211.4254337240766
 30
0.0
  0
SPLINE
  5
1DD
330
1F
100
AcDbEntity
  8
0
  6
Continuous
 62
     7
370
    15
100
AcDbSpline
210
0.0
220
0.0
230
1.0
 70
     8
 71
     3
 72
    10
 73
     6
 74
     0
 42
0.00000001
 43
0.00000001
 12
1.0
 22
0.0
 32
0.0
 13
1.0
 23
0.0
 33
0.0
 40
0.0
 40
0.0
 40
0.0
 40
0.0
 40
0.2117958997074529
 40
0.4880069094669061
 40
0.9999999999999999
 40
0.9999999999999999
 40
0.9999999999999999
 40
0.9999999999999999
 10
289.4327455963397
 20
211.4254337240766
 30
0.0
 10
289.432522595565
 20
211.4248856803274
 30
0.0
 10
289.4320087710815
 20
211.4236229120837
 30
0.0
 10
289.4319279752106
 20
211.4213896004519
 30
0.0
 10
289.4324110346251
 20
211.4201220134981
 30
0.0
 10
289.4327248151325
 20
211.4192986280808
 30
0.0
  0
SPLINE
  5
1DE
330
1F
100
AcDbEntity
  8
0
  6
Continuous
 62
     7
370
    15
100
AcDbSpline
210
0.0
220
0.0
230
1.0
 70
     8
 71
     3
 72
    12
 73
     8
 74
     0
 42
0.00000001
 43
0.00000001
 12
1.0
 22
0.0
 32
0.0
 13
1.0
 23
0.0
 33
0.0
 40
0.0
 40
0.0
 40
0.0
 40
0.0
 40
0.2238925571845719
 40
0.4477848984193443
 40
0.6716824862029284
 40
0.8955821585467191
 40
1.0
 40
1.0
 40
1.0
 40
1.0
 10
285.1673720168274
 20
220.8828626554869
 30
0.0
 10
285.1617984646012
 20
220.8827955567363
 30
0.0
 10
285.1506513655248
 20
220.8826613592997
 30
0.0
 10
285.1362590723194
 20
220.8825406768219
 30
0.0
 10
285.1257805787933
 20
220.8824749386609
 30
0.0
 10
285.1211135099446
 20
220.8824561009646
 30
0.0
 10
285.1207237777583
 20
220.8824581114243
 30
0.0
 10
285.1205998276432
 20
220.8824587508293
 30
0.0
  0
LINE
  5
1DF
330
1F
100
AcDbEntity
  8
0
  6
Continuous
 62
     7
370
    15
100
AcDbLine
 10
285.1673720168
 20
220.8828626555
 30
0.0
 11
288.986338122
 21
220.9244801638
 31
0.0
  0
LINE
  5
1E0
330
1F
100
AcDbEntity
  8
0
  6
Continuous
 62
     7
370
    15
100
AcDbLine
 10
288.986338122
 20
220.9244801638
 30
0.0
 11
289.2820653934
 21
220.9281559265
 31
0.0
  0
LINE
  5
1E1
330
1F
100
AcDbEntity
  8
0
  6
Continuous
 62
     7
370
    15
100
AcDbLine
 10
289.7389282354
 20
220.2274496069
 30
0.0
 11
292.3706000452
 21
214.5838111982
 31
0.0
  0
SPLINE
  5
1E2
330
1F
100
AcDbEntity
  8
0
  6
Continuous
 62
     7
370
    15
100
AcDbSpline
210
0.0
220
0.0
230
1.0
 70
    11
 71
     3
 72
    27
 73
    23
 74
     0
 42
0.00000001
 43
0.00000001
 12
1.0
 22
0.0
 32
0.0
 13
1.0
 23
0.0
 33
0.0
 40
0.0
 40
0.0
 40
0.0
 40
0.0
 40
0.0620475834776996
 40
0.1249441071136768
 40
0.1563124589154895
 40
0.1875952792642777
 40
0.2503372521727992
 40
0.3129559917085689
 40
0.3755104444199749
 40
0.4382310914462342
 40
0.4695455819873015
 40
0.5008520761372235
 40
0.5635767751708575
 40
0.6261498909813585
 40
0.688768405557375
 40
0.751517069721154
 40
0.782820888021835
 40
0.814157597556244
 40
0.8770369285014259
 40
0.9391051305754902
 40
0.9695581824303553
 40
1.0
 40
1.0
 40
1.0
 40
1.0
 10
284.0418693684464
 20
220.4724413758859
 30
0.0
 10
284.0385441055499
 20
220.4792950150016
 30
0.0
 10
284.0318480832353
 20
220.4930960652889
 30
0.0
 10
283.9993158139725
 20
220.5064047462273
 30
0.0
 10
283.9653325925474
 20
220.5138324508964
 30
0.0
 10
283.9259145888041
 20
220.5185493529961
 30
0.0
 10
283.8705309241745
 20
220.5195168526567
 30
0.0
 10
283.8043638504591
 20
220.5132826305437
 30
0.0
 10
283.7495613991726
 20
220.499693758373
 30
0.0
 10
283.7190339865514
 20
220.4843610991917
 30
0.0
 10
283.7067794429642
 20
220.4707989558711
 30
0.0
 10
283.7037551926521
 20
220.4568295906001
 30
0.0
 10
283.716324098127
 20
220.4395723512142
 30
0.0
 10
283.7543044402572
 20
220.4221382335912
 30
0.0
 10
283.811853872174
 20
220.41169868144
 30
0.0
 10
283.8672128868081
 20
220.409733210368
 30
0.0
 10
283.9110810822959
 20
220.4127245281403
 30
0.0
 10
283.9527972406459
 20
220.4188762149534
 30
0.0
 10
283.9980029213803
 20
220.4314215396094
 30
0.0
 10
284.028583274741
 20
220.4478875807651
 30
0.0
 10
284.0410618188217
 20
220.462000550732
 30
0.0
 10
284.0416002183474
 20
220.4689615289036
 30
0.0
 10
284.0418693684464
 20
220.4724413758859
 30
0.0
  0
SPLINE
  5
1E3
330
1F
100
AcDbEntity
  8
0
  6
Continuous
 62
     7
370
    15
100
AcDbSpline
210
0.0
220
0.0
230
1.0
 70
    11
 71
     3
 72
    23
 73
    19
 74
     0
 42
0.00000001
 43
0.00000001
 12
1.0
 22
0.0
 32
0.0
 13
1.0
 23
0.0
 33
0.0
 40
0.0
 40
0.0
 40
0.0
 40
0.0
 40
0.0625093518777621
 40
0.1250150746911136
 40
0.1875138123015938
 40
0.2500063416572003
 40
0.3124970919001482
 40
0.3749914851997764
 40
0.4374927441787697
 40
0.5000000786177365
 40
0.5625092149694686
 40
0.6250148566665622
 40
0.6875136952719383
 40
0.7500063444671872
 40
0.8124970658925071
 40
0.8749913213660934
 40
0.937492530212658
 40
1.0
 40
1.0
 40
1.0
 40
1.0
 10
283.9735618745482
 20
220.4700674610905
 30
0.0
 10
283.9718554831285
 20
220.474201492469
 30
0.0
 10
283.968442799356
 20
220.4824693152192
 30
0.0
 10
283.9448216761139
 20
220.4920465522167
 30
0.0
 10
283.9114556731226
 20
220.4977021062324
 30
0.0
 10
283.8720351018354
 20
220.4986368294197
 30
0.0
 10
283.8329304779651
 20
220.4948054269161
 30
0.0
 10
283.7999978750944
 20
220.4867677084289
 30
0.0
 10
283.7782813610243
 20
220.4756446838766
 30
0.0
 10
283.771082856563
 20
220.4630010686885
 30
0.0
 10
283.7795021293308
 20
220.4506835829377
 30
0.0
 10
283.802254726351
 20
220.4405841278715
 30
0.0
 10
283.8358820500619
 20
220.4343428382542
 30
0.0
 10
283.8752345192912
 20
220.4330373256538
 30
0.0
 10
283.9144169154415
 20
220.4369516490065
 30
0.0
 10
283.9470922790291
 20
220.445455889548
 30
0.0
 10
283.9696732313418
 20
220.457220375814
 30
0.0
 10
283.972265616867
 20
220.4657849563488
 30
0.0
 10
283.9735618745482
 20
220.4700674610905
 30
0.0
  0
SPLINE
  5
1E4
330
1F
100
AcDbEntity
  8
0
  6
Continuous
 62
     7
370
    15
100
AcDbSpline
210
0.0
220
0.0
230
1.0
 70
    11
 71
     3
 72
    23
 73
    19
 74
     0
 42
0.00000001
 43
0.00000001
 12
1.0
 22
0.0
 32
0.0
 13
1.0
 23
0.0
 33
0.0
 40
0.0
 40
0.0
 40
0.0
 40
0.0
 40
0.062499944545326
 40
0.1249999205159844
 40
0.1874999378158162
 40
0.2499999708236084
 40
0.312500004715246
 40
0.3750000350758457
 40
0.4375000403521022
 40
0.500000003214103
 40
0.5624999498190083
 40
0.6249999264135416
 40
0.6874999432933222
 40
0.7499999761866931
 40
0.8125000100774228
 40
0.8750000406944937
 40
0.9375000462446226
 40
1.0
 40
1.0
 40
1.0
 40
1.0
 10
283.9736248279214
 20
220.4681748867334
 30
0.0
 10
283.9719189540413
 20
220.4723077101094
 30
0.0
 10
283.9685072054235
 20
220.4805733589395
 30
0.0
 10
283.944886212707
 20
220.490147400376
 30
0.0
 10
283.9115210776332
 20
220.4958002505792
 30
0.0
 10
283.8721023832807
 20
220.4967336214738
 30
0.0
 10
283.8329994139458
 20
220.4929026937631
 30
0.0
 10
283.8000665167115
 20
220.4848669870473
 30
0.0
 10
283.7783477730666
 20
220.4737467678784
 30
0.0
 10
283.7711468028201
 20
220.4611061993921
 30
0.0
 10
283.7795648391806
 20
220.44879190034
 30
0.0
 10
283.8023171141976
 20
220.4386957334914
 30
0.0
 10
283.8359435909329
 20
220.4324573196185
 30
0.0
 10
283.8752941421324
 20
220.4311533347265
 30
0.0
 10
283.9144748915734
 20
220.435067206498
 30
0.0
 10
283.9471504489364
 20
220.4435692835614
 30
0.0
 10
283.9697339218356
 20
220.4553307694093
 30
0.0
 10
283.9723278595844
 20
220.4638935154748
 30
0.0
 10
283.9736248279214
 20
220.4681748867334
 30
0.0
  0
LINE
  5
1E5
330
1F
100
AcDbEntity
  8
0
  6
Continuous
 62
     7
370
    15
100
AcDbLine
 10
289.4662563051
 20
220.8121964483
 30
0.0
 11
289.7389282354
 21
220.2274496069
 31
0.0
  0
SPLINE
  5
1E6
330
1F
100
AcDbEntity
  8
0
  6
Continuous
 62
     7
370
    15
100
AcDbSpline
210
0.0
220
0.0
230
1.0
 70
     8
 71
     3
 72
    11
 73
     7
 74
     0
 42
0.00000001
 43
0.00000001
 12
1.0
 22
0.0
 32
0.0
 13
1.0
 23
0.0
 33
0.0
 40
0.0
 40
0.0
 40
0.0
 40
0.0
 40
0.2933118760927496
 40
0.5865991201418437
 40
0.8805021461503797
 40
1.0
 40
1.0
 40
1.0
 40
1.0
 10
289.2820653933501
 20
220.9281559265461
 30
0.0
 10
289.3046055670872
 20
220.9262218416736
 30
0.0
 10
289.3496840216596
 20
220.9223538343513
 30
0.0
 10
289.4098353176008
 20
220.8885129597871
 30
0.0
 10
289.4475249295201
 20
220.8483928643679
 30
0.0
 10
289.46205595891
 20
220.820313176248
 30
0.0
 10
289.4662563051379
 20
220.8121964483197
 30
0.0
  0
LINE
  5
1E7
330
1F
100
AcDbEntity
  8
0
  6
Continuous
 62
     7
370
    15
100
AcDbLine
 10
292.3706000452
 20
214.5838111982
 30
0.0
 11
292.6483235838
 21
213.9882311478
 31
0.0
  0
LINE
  5
1E8
330
1F
100
AcDbEntity
  8
0
  6
Continuous
 62
     7
370
    15
100
AcDbLine
 10
283.6653964638
 20
220.6820443675
 30
0.0
 11
283.6654910717
 21
220.6800839097
 31
0.0
  0
SPLINE
  5
1E9
330
1F
100
AcDbEntity
  8
0
  6
Continuous
 62
     7
370
    15
100
AcDbSpline
210
0.0
220
0.0
230
1.0
 70
     8
 71
     3
 72
    12
 73
     8
 74
     0
 42
0.00000001
 43
0.00000001
 12
1.0
 22
0.0
 32
0.0
 13
1.0
 23
0.0
 33
0.0
 40
0.0
 40
0.0
 40
0.0
 40
0.0
 40
0.2496798563161547
 40
0.3750658746999867
 40
0.5004704970106618
 40
0.7502464584800461
 40
1.0
 40
1.0
 40
1.0
 40
1.0
 10
284.1759456677581
 20
220.6050243974289
 30
0.0
 10
284.1131384589309
 20
220.6026435865404
 30
0.0
 10
284.0187902761667
 20
220.5990671629891
 30
0.0
 10
283.9030824522143
 20
220.6073280128984
 30
0.0
 10
283.8018212665724
 20
220.621099387426
 30
0.0
 10
283.7019304646969
 20
220.6467366985607
 30
0.0
 10
283.6775740997011
 20
220.6702754966576
 30
0.0
 10
283.665396463786
 20
220.6820443674704
 30
0.0
  0
LINE
  5
1EA
330
1F
100
AcDbEntity
  8
0
  6
Continuous
 62
     7
370
    15
100
AcDbLine
 10
284.1759456678
 20
220.6050243974
 30
0.0
 11
284.1760250818
 21
220.6030965231
 31
0.0
  0
LINE
  5
1EB
330
1F
100
AcDbEntity
  8
0
  6
Continuous
 62
     7
370
    15
100
AcDbLine
 10
283.8108496858
 20
220.7554478946
 30
0.0
 11
283.9348029222
 21
220.7461163772
 31
0.0
  0
SPLINE
  5
1EC
330
1F
100
AcDbEntity
  8
0
  6
Continuous
 62
     7
370
    15
100
AcDbSpline
210
0.0
220
0.0
230
1.0
 70
     8
 71
     3
 72
    11
 73
     7
 74
     0
 42
0.00000001
 43
0.00000001
 12
1.0
 22
0.0
 32
0.0
 13
1.0
 23
0.0
 33
0.0
 40
0.0
 40
0.0
 40
0.0
 40
0.0
 40
0.4989721808889915
 40
0.7492651196035891
 40
0.8746091995237801
 40
1.0
 40
1.0
 40
1.0
 40
1.0
 10
283.9348029800619
 20
220.746116372381
 30
0.0
 10
283.9030990570369
 20
220.7380269418592
 30
0.0
 10
283.8554919066045
 20
220.7258797153012
 30
0.0
 10
283.8329213184743
 20
220.7090956355879
 30
0.0
 10
283.8285303846552
 20
220.6993491482338
 30
0.0
 10
283.8299816537873
 20
220.6944459937403
 30
0.0
 10
283.8307074235643
 20
220.6919939596801
 30
0.0
  0
SPLINE
  5
1ED
330
1F
100
AcDbEntity
  8
0
  6
Continuous
 62
     7
370
    15
100
AcDbSpline
210
0.0
220
0.0
230
1.0
 70
     8
 71
     3
 72
    13
 73
     9
 74
     0
 42
0.00000001
 43
0.00000001
 12
1.0
 22
0.0
 32
0.0
 13
1.0
 23
0.0
 33
0.0
 40
0.0
 40
0.0
 40
0.0
 40
0.0
 40
0.2494719298070971
 40
0.3747435195824584
 40
0.5000489508925964
 40
0.625310759534724
 40
0.7505655082920287
 40
1.0
 40
1.0
 40
1.0
 40
1.0
 10
283.830707534561
 20
220.6919935851352
 30
0.0
 10
283.8379730593607
 20
220.6844519366356
 30
0.0
 10
283.8488869458935
 20
220.6731232717056
 30
0.0
 10
283.893781983078
 20
220.6605964744816
 30
0.0
 10
283.9362890861213
 20
220.6529601642603
 30
0.0
 10
283.9859111451796
 20
220.6472710265655
 30
0.0
 10
284.0599761257258
 20
220.6427516691912
 30
0.0
 10
284.1207150226053
 20
220.6452635668469
 30
0.0
 10
284.1611495326841
 20
220.6469357630225
 30
0.0
  0
SPLINE
  5
1EE
330
1F
100
AcDbEntity
  8
0
  6
Continuous
 62
     7
370
    15
100
AcDbSpline
210
0.0
220
0.0
230
1.0
 70
     8
 71
     3
 72
    13
 73
     9
 74
     0
 42
0.00000001
 43
0.00000001
 12
1.0
 22
0.0
 32
0.0
 13
1.0
 23
0.0
 33
0.0
 40
0.0
 40
0.0
 40
0.0
 40
0.0
 40
0.2495218662350784
 40
0.3747606230115106
 40
0.4999701269720154
 40
0.6251870947969647
 40
0.7504591367495147
 40
0.9999999999999999
 40
0.9999999999999999
 40
0.9999999999999999
 40
0.9999999999999999
 10
284.1611495326841
 20
220.6469357630226
 30
0.0
 10
284.2015259168092
 20
220.6503224945056
 30
0.0
 10
284.2621678120386
 20
220.6554090771756
 30
0.0
 10
284.3311807028505
 20
220.668713164024
 30
0.0
 10
284.3755653614903
 20
220.6803193888407
 30
0.0
 10
284.4084408484026
 20
220.6932685684371
 30
0.0
 10
284.4396718400507
 20
220.7110165473104
 30
0.0
 10
284.4398713712356
 20
220.7232066280052
 30
0.0
 10
284.4400042140044
 20
220.7313224725171
 30
0.0
  0
SPLINE
  5
1EF
330
1F
100
AcDbEntity
  8
0
  6
Continuous
 62
     7
370
    15
100
AcDbSpline
210
0.0
220
0.0
230
1.0
 70
     8
 71
     3
 72
    10
 73
     6
 74
     0
 42
0.00000001
 43
0.00000001
 12
1.0
 22
0.0
 32
0.0
 13
1.0
 23
0.0
 33
0.0
 40
0.0
 40
0.0
 40
0.0
 40
0.0
 40
0.2502995645503823
 40
0.5003472998704844
 40
1.0
 40
1.0
 40
1.0
 40
1.0
 10
284.4400042140044
 20
220.7313224725171
 30
0.0
 10
284.4362057590881
 20
220.7359702316856
 30
0.0
 10
284.4286126709241
 20
220.7452610738595
 30
0.0
 10
284.3843288996192
 20
220.7596661658264
 30
0.0
 10
284.3265447214037
 20
220.7649269684306
 30
0.0
 10
284.2880333116393
 20
220.768433134496
 30
0.0
  0
LINE
  5
1F0
330
1F
100
AcDbEntity
  8
0
  6
Continuous
 62
     7
370
    15
100
AcDbLine
 10
284.2880332545
 20
220.7684331392
 30
0.0
 11
284.398284438
 21
220.7918783151
 31
0.0
  0
SPLINE
  5
1F1
330
1F
100
AcDbEntity
  8
0
  6
Continuous
 62
     7
370
    15
100
AcDbSpline
210
0.0
220
0.0
230
1.0
 70
     8
 71
     3
 72
    10
 73
     6
 74
     0
 42
0.00000001
 43
0.00000001
 12
1.0
 22
0.0
 32
0.0
 13
1.0
 23
0.0
 33
0.0
 40
0.0
 40
0.0
 40
0.0
 40
0.0
 40
0.4992980575276973
 40
0.7495133978844924
 40
1.0
 40
1.0
 40
1.0
 40
1.0
 10
284.39828448775
 20
220.7918783251639
 30
0.0
 10
284.451917875065
 20
220.7875687458232
 30
0.0
 10
284.5324287878562
 20
220.7810994888206
 30
0.0
 10
284.5886719493864
 20
220.7609693396128
 30
0.0
 10
284.5985632787827
 20
220.7478282411091
 30
0.0
 10
284.6035116228587
 20
220.7412541321771
 30
0.0
  0
SPLINE
  5
1F2
330
1F
100
AcDbEntity
  8
0
  6
Continuous
 62
     7
370
    15
100
AcDbSpline
210
0.0
220
0.0
230
1.0
 70
     8
 71
     3
 72
    13
 73
     9
 74
     0
 42
0.00000001
 43
0.00000001
 12
1.0
 22
0.0
 32
0.0
 13
1.0
 23
0.0
 33
0.0
 40
0.0
 40
0.0
 40
0.0
 40
0.0
 40
0.2496055154393056
 40
0.373882350642344
 40
0.5000638901755883
 40
0.6263990470957767
 40
0.7504827713046233
 40
0.9999999999999999
 40
0.9999999999999999
 40
0.9999999999999999
 40
0.9999999999999999
 10
284.6035116228587
 20
220.7412541321771
 30
0.0
 10
284.6040182609634
 20
220.7285606201722
 30
0.0
 10
284.6047771506263
 20
220.7095470975826
 30
0.0
 10
284.5578281881531
 20
220.6805533119216
 30
0.0
 10
284.5052150170113
 20
220.6594802219926
 30
0.0
 10
284.437973022088
 20
220.6400989323951
 30
0.0
 10
284.3314541047836
 20
220.6182397963848
 30
0.0
 10
284.2382164141288
 20
220.610316282373
 30
0.0
 10
284.1759456677581
 20
220.6050243974289
 30
0.0
  0
SPLINE
  5
1F3
330
1F
100
AcDbEntity
  8
0
  6
Continuous
 62
     7
370
    15
100
AcDbSpline
210
0.0
220
0.0
230
1.0
 70
     8
 71
     3
 72
    11
 73
     7
 74
     0
 42
0.00000001
 43
0.00000001
 12
1.0
 22
0.0
 32
0.0
 13
1.0
 23
0.0
 33
0.0
 40
0.0
 40
0.0
 40
0.0
 40
0.0
 40
0.2491183250350391
 40
0.4974599305353805
 40
0.748782444482488
 40
1.0
 40
1.0
 40
1.0
 40
1.0
 10
283.665396463786
 20
220.6820443674704
 30
0.0
 10
283.6643613823308
 20
220.6889345622043
 30
0.0
 10
283.6622944466737
 20
220.7026934689136
 30
0.0
 10
283.6903723481487
 20
220.7221455440408
 30
0.0
 10
283.7376582027084
 20
220.7400997083431
 30
0.0
 10
283.7864558872472
 20
220.75033253815
 30
0.0
 10
283.8108496336758
 20
220.7554478844603
 30
0.0
  0
LINE
  5
1F4
330
1F
100
AcDbEntity
  8
0
  6
Continuous
 62
     7
370
    15
100
AcDbLine
 10
284.440004214
 20
220.7313224725
 30
0.0
 11
284.4400988461
 21
220.7293619629
 31
0.0
  0
SPLINE
  5
1F5
330
1F
100
AcDbEntity
  8
0
  6
Continuous
 62
     7
370
    15
100
AcDbSpline
210
0.0
220
0.0
230
1.0
 70
     8
 71
     3
 72
    13
 73
     9
 74
     0
 42
0.00000001
 43
0.00000001
 12
1.0
 22
0.0
 32
0.0
 13
1.0
 23
0.0
 33
0.0
 40
0.0
 40
0.0
 40
0.0
 40
0.0
 40
0.1251273373183989
 40
0.2500644336313975
 40
0.3749115059909006
 40
0.4999311187242475
 40
0.749472417890156
 40
0.9999999999999999
 40
0.9999999999999999
 40
0.9999999999999999
 40
0.9999999999999999
 10
289.0094163281683
 20
209.8211509283658
 30
0.0
 10
289.0088427152124
 20
209.8247115605385
 30
0.0
 10
289.0076963614098
 20
209.8318274113727
 30
0.0
 10
289.0164071077701
 20
209.8532593797514
 30
0.0
 10
289.0339792099251
 20
209.8821971072134
 30
0.0
 10
289.0673864774662
 20
209.9272739038256
 30
0.0
 10
289.118593992913
 20
209.987065583221
 30
0.0
 10
289.1615997406126
 20
210.0325075363625
 30
0.0
 10
289.1831450244553
 20
210.0552733253831
 30
0.0
  0
SPLINE
  5
1F6
330
1F
100
AcDbEntity
  8
0
  6
Continuous
 62
     7
370
    15
100
AcDbSpline
210
0.0
220
0.0
230
1.0
 70
     8
 71
     3
 72
    13
 73
     9
 74
     0
 42
0.00000001
 43
0.00000001
 12
1.0
 22
0.0
 32
0.0
 13
1.0
 23
0.0
 33
0.0
 40
0.0
 40
0.0
 40
0.0
 40
0.0
 40
0.250524911349385
 40
0.5001223596778603
 40
0.6264345222049508
 40
0.7499966356000771
 40
0.8748635061970603
 40
1.0
 40
1.0
 40
1.0
 40
1.0
 10
289.1831450244553
 20
210.0552733253831
 30
0.0
 10
289.2047219715173
 20
210.0776487832546
 30
0.0
 10
289.2477959860781
 20
210.1223168632842
 30
0.0
 10
289.3027033751349
 20
210.1736821527546
 30
0.0
 10
289.3424481536192
 20
210.2055544331908
 30
0.0
 10
289.3672285608678
 20
210.2212985620464
 30
0.0
 10
289.3826198908292
 20
210.2250686038544
 30
0.0
 10
289.3861369440964
 20
210.2205048011596
 30
0.0
 10
289.3878973672628
 20
210.218220438831
 30
0.0
  0
SPLINE
  5
1F7
330
1F
100
AcDbEntity
  8
0
  6
Continuous
 62
     7
370
    15
100
AcDbSpline
210
0.0
220
0.0
230
1.0
 70
     8
 71
     3
 72
    13
 73
     9
 74
     0
 42
0.00000001
 43
0.00000001
 12
1.0
 22
0.0
 32
0.0
 13
1.0
 23
0.0
 33
0.0
 40
0.0
 40
0.0
 40
0.0
 40
0.0
 40
0.1251768407446131
 40
0.2501168748808028
 40
0.3742393211480285
 40
0.500008431072236
 40
0.7494762038548485
 40
1.0
 40
1.0
 40
1.0
 40
1.0
 10
289.3878973672628
 20
210.218220438831
 30
0.0
 10
289.3884945530395
 20
210.2148368908987
 30
0.0
 10
289.389687794851
 20
210.2080761959507
 30
0.0
 10
289.3810216539485
 20
210.1882014049354
 30
0.0
 10
289.362918900032
 20
210.1605761820307
 30
0.0
 10
289.329293657747
 20
210.1173391384371
 30
0.0
 10
289.2778854566309
 20
210.0588420515127
 30
0.0
 10
289.2353672933141
 20
210.0139800414866
 30
0.0
 10
289.2140633107248
 20
209.9915016603439
 30
0.0
  0
SPLINE
  5
1F8
330
1F
100
AcDbEntity
  8
0
  6
Continuous
 62
     7
370
    15
100
AcDbSpline
210
0.0
220
0.0
230
1.0
 70
     8
 71
     3
 72
     9
 73
     5
 74
     0
 42
0.00000001
 43
0.00000001
 12
1.0
 22
0.0
 32
0.0
 13
1.0
 23
0.0
 33
0.0
 40
0.0
 40
0.0
 40
0.0
 40
0.0
 40
0.5016314859917753
 40
1.0
 40
1.0
 40
1.0
 40
1.0
 10
289.2140633107248
 20
209.9915016603439
 30
0.0
 10
289.1889567567039
 20
209.9652338907327
 30
0.0
 10
289.1389069597473
 20
209.9128692159769
 30
0.0
 10
289.0913941636456
 20
209.8697291994821
 30
0.0
 10
289.067715282056
 20
209.8482295735672
 30
0.0
  0
SPLINE
  5
1F9
330
1F
100
AcDbEntity
  8
0
  6
Continuous
 62
     7
370
    15
100
AcDbSpline
210
0.0
220
0.0
230
1.0
 70
     8
 71
     3
 72
    12
 73
     8
 74
     0
 42
0.00000001
 43
0.00000001
 12
1.0
 22
0.0
 32
0.0
 13
1.0
 23
0.0
 33
0.0
 40
0.0
 40
0.0
 40
0.0
 40
0.0
 40
0.2499785523139438
 40
0.4997396412206221
 40
0.7495906543968561
 40
0.8747690790067182
 40
1.0
 40
1.0
 40
1.0
 40
1.0
 10
289.0677147899407
 20
209.8482291730234
 30
0.0
 10
289.0598761140943
 20
209.8419551148912
 30
0.0
 10
289.0442055814872
 20
209.8294124566071
 30
0.0
 10
289.0260698476208
 20
209.8185529044175
 30
0.0
 10
289.0160438268304
 20
209.8160153621882
 30
0.0
 10
289.0113646950124
 20
209.8179230325619
 30
0.0
 10
289.0100660026018
 20
209.8200746026527
 30
0.0
 10
289.0094165202661
 20
209.8211506132281
 30
0.0
  0
SPLINE
  5
1FA
330
1F
100
AcDbEntity
  8
0
  6
Continuous
 62
     7
370
    15
100
AcDbSpline
210
0.0
220
0.0
230
1.0
 70
     8
 71
     3
 72
    11
 73
     7
 74
     0
 42
0.00000001
 43
0.00000001
 12
1.0
 22
0.0
 32
0.0
 13
1.0
 23
0.0
 33
0.0
 40
0.0
 40
0.0
 40
0.0
 40
0.0
 40
0.2498981800881174
 40
0.4997516743424186
 40
0.7497162288797867
 40
1.0
 40
1.0
 40
1.0
 40
1.0
 10
289.324152153891
 20
210.1513812110993
 30
0.0
 10
289.3234330836659
 20
210.1521935542503
 30
0.0
 10
289.3219950717969
 20
210.1538180952923
 30
0.0
 10
289.3152724958293
 20
210.1511579475444
 30
0.0
 10
289.306046943798
 20
210.1451725879388
 30
0.0
 10
289.2986485660189
 20
210.1392102140051
 30
0.0
 10
289.2949470166168
 20
210.1362271246945
 30
0.0
  0
SPLINE
  5
1FB
330
1F
100
AcDbEntity
  8
0
  6
Continuous
 62
     7
370
    15
100
AcDbSpline
210
0.0
220
0.0
230
1.0
 70
     8
 71
     3
 72
     9
 73
     5
 74
     0
 42
0.00000001
 43
0.00000001
 12
1.0
 22
0.0
 32
0.0
 13
1.0
 23
0.0
 33
0.0
 40
0.0
 40
0.0
 40
0.0
 40
0.0
 40
0.4985952815920096
 40
1.0
 40
1.0
 40
1.0
 40
1.0
 10
289.2949470166168
 20
210.1362271246945
 30
0.0
 10
289.2781463537874
 20
210.1210145488104
 30
0.0
 10
289.2444503613669
 20
210.0905036786804
 30
0.0
 10
289.2100349991317
 20
210.0545360097135
 30
0.0
 10
289.1927789741213
 20
210.0365016507834
 30
0.0
  0
SPLINE
  5
1FC
330
1F
100
AcDbEntity
  8
0
  6
Continuous
 62
     7
370
    15
100
AcDbSpline
210
0.0
220
0.0
230
1.0
 70
     8
 71
     3
 72
    13
 73
     9
 74
     0
 42
0.00000001
 43
0.00000001
 12
1.0
 22
0.0
 32
0.0
 13
1.0
 23
0.0
 33
0.0
 40
0.0
 40
0.0
 40
0.0
 40
0.0
 40
0.5001716719372256
 40
0.6253114584536126
 40
0.7502992856509669
 40
0.8748537155189686
 40
0.9374169266424037
 40
1.0
 40
1.0
 40
1.0
 40
1.0
 10
289.1927789741213
 20
210.0365016507834
 30
0.0
 10
289.1672613028507
 20
210.0096146594206
 30
0.0
 10
289.1353592717406
 20
209.9760007129982
 30
0.0
 10
289.1004076245167
 20
209.9345867529796
 30
0.0
 10
289.0856540881388
 20
209.9148982648601
 30
0.0
 10
289.0768866061674
 20
209.9007772768781
 30
0.0
 10
289.0739150374637
 20
209.8929908958144
 30
0.0
 10
289.0742597135942
 20
209.8909247440321
 30
0.0
 10
289.0744320790116
 20
209.8898915041793
 30
0.0
  0
SPLINE
  5
1FD
330
1F
100
AcDbEntity
  8
0
  6
Continuous
 62
     7
370
    15
100
AcDbSpline
210
0.0
220
0.0
230
1.0
 70
     8
 71
     3
 72
    13
 73
     9
 74
     0
 42
0.00000001
 43
0.00000001
 12
1.0
 22
0.0
 32
0.0
 13
1.0
 23
0.0
 33
0.0
 40
0.0
 40
0.0
 40
0.0
 40
0.0
 40
0.1244807458431573
 40
0.1868059250739618
 40
0.2496232122532759
 40
0.3614601109744962
 40
0.4997374025456956
 40
1.0
 40
1.0
 40
1.0
 40
1.0
 10
289.0744320790116
 20
209.8898915041793
 30
0.0
 10
289.0758761640849
 20
209.8889135467727
 30
0.0
 10
289.0780432755217
 20
209.8874459443994
 30
0.0
 10
289.0859092509549
 20
209.8914478934206
 30
0.0
 10
289.0951667599806
 20
209.8977238409451
 30
0.0
 10
289.1102847458147
 20
209.9104177690924
 30
0.0
 10
289.1491605419503
 20
209.9468257974556
 30
0.0
 10
289.1830009157705
 20
209.9821648743346
 30
0.0
 10
289.2095130782792
 20
210.0098511922844
 30
0.0
  0
SPLINE
  5
1FE
330
1F
100
AcDbEntity
  8
0
  6
Continuous
 62
     7
370
    15
100
AcDbSpline
210
0.0
220
0.0
230
1.0
 70
     8
 71
     3
 72
    12
 73
     8
 74
     0
 42
0.00000001
 43
0.00000001
 12
1.0
 22
0.0
 32
0.0
 13
1.0
 23
0.0
 33
0.0
 40
0.0
 40
0.0
 40
0.0
 40
0.0
 40
0.5003762260081006
 40
0.6256068177066677
 40
0.7506994616535966
 40
0.8754125510743368
 40
1.0
 40
1.0
 40
1.0
 40
1.0
 10
289.2095130782792
 20
210.0098511922844
 30
0.0
 10
289.2345241516311
 20
210.0361776862307
 30
0.0
 10
289.2657948179694
 20
210.0690929872443
 30
0.0
 10
289.299819124987
 20
210.1093111767473
 30
0.0
 10
289.3138893516073
 20
210.1280012206618
 30
0.0
 10
289.324140217604
 20
210.1443138093006
 30
0.0
 10
289.3241481764657
 20
210.1490262021378
 30
0.0
 10
289.324152153891
 20
210.1513812110993
 30
0.0
  0
LINE
  5
1FF
330
1F
100
AcDbEntity
  8
0
  6
Continuous
 62
     7
370
    15
100
AcDbLine
 10
289.0094163282
 20
209.8211509284
 30
0.0
 11
289.0079732571
 21
209.8224880337
 31
0.0
  0
SPLINE
  5
200
330
1F
100
AcDbEntity
  8
0
  6
Continuous
 62
     7
370
    15
100
AcDbSpline
210
0.0
220
0.0
230
1.0
 70
    11
 71
     3
 72
    23
 73
    19
 74
     0
 42
0.00000001
 43
0.00000001
 12
1.0
 22
0.0
 32
0.0
 13
1.0
 23
0.0
 33
0.0
 40
0.0
 40
0.0
 40
0.0
 40
0.0
 40
0.0623400323350581
 40
0.125027987657832
 40
0.1876099667688829
 40
0.2501151464674985
 40
0.3126794975404442
 40
0.375183389312058
 40
0.4377114274365931
 40
0.5002592981568902
 40
0.5627569959631102
 40
0.6253410704113498
 40
0.6878317891324428
 40
0.7504039394473426
 40
0.8129288117554782
 40
0.8754960527642307
 40
0.9382250043820881
 40
1.0
 40
1.0
 40
1.0
 40
1.0
 10
288.8118324733534
 20
209.5117978698499
 30
0.0
 10
288.8335061328796
 20
209.5381934476787
 30
0.0
 10
288.8769744137616
 20
209.5911319184397
 30
0.0
 10
288.9122050385333
 20
209.6476940664729
 30
0.0
 10
288.9149633356977
 20
209.6753508879726
 30
0.0
 10
288.8840323959809
 20
209.6698918634991
 30
0.0
 10
288.825171560269
 20
209.6323170768454
 30
0.0
 10
288.7476200790196
 20
209.5666743448237
 30
0.0
 10
288.664311676891
 20
209.4830048287581
 30
0.0
 10
288.5881180204465
 20
209.3934444546072
 30
0.0
 10
288.5299291917809
 20
209.3121931375984
 30
0.0
 10
288.4980128970207
 20
209.2524467205879
 30
0.0
 10
288.4965902821967
 20
209.2241553673215
 30
0.0
 10
288.5251304570464
 20
209.2312349738341
 30
0.0
 10
288.5804710502363
 20
209.2730020961528
 30
0.0
 10
288.6543159122629
 20
209.3416878634941
 30
0.0
 10
288.7373486677885
 20
209.4269202392871
 30
0.0
 10
288.7871316848913
 20
209.483650215715
 30
0.0
 10
288.8118324733535
 20
209.5117978698499
 30
0.0
  0
LINE
  5
201
330
1F
100
AcDbEntity
  8
0
  6
Continuous
 62
     7
370
    15
100
AcDbLine
 10
283.9348029801
 20
220.7461163724
 30
0.0
 11
283.9349040475
 21
220.7441420622
 31
0.0
  0
SPLINE
  5
202
330
1F
100
AcDbEntity
  8
0
  6
Continuous
 62
     7
370
    15
100
AcDbSpline
210
0.0
220
0.0
230
1.0
 70
     8
 71
     3
 72
    12
 73
     8
 74
     0
 42
0.00000001
 43
0.00000001
 12
1.0
 22
0.0
 32
0.0
 13
1.0
 23
0.0
 33
0.0
 40
0.0
 40
0.0
 40
0.0
 40
0.0
 40
0.5004158056781493
 40
0.6256518108584056
 40
0.750741681132525
 40
0.8754395579402978
 40
1.0
 40
1.0
 40
1.0
 40
1.0
 10
289.2080679219094
 20
210.0111927697079
 30
0.0
 10
289.2330787533052
 20
210.0375189913715
 30
0.0
 10
289.2643488926099
 20
210.0704337156269
 30
0.0
 10
289.2983738681166
 20
210.110651198102
 30
0.0
 10
289.3124443129072
 20
210.1293401242557
 30
0.0
 10
289.3226962051397
 20
210.1456519656408
 30
0.0
 10
289.3227047549536
 20
210.1503638113524
 30
0.0
 10
289.3227090275035
 20
210.1527184352118
 30
0.0
  0
SPLINE
  5
203
330
1F
100
AcDbEntity
  8
0
  6
Continuous
 62
     7
370
    15
100
AcDbSpline
210
0.0
220
0.0
230
1.0
 70
     8
 71
     3
 72
    13
 73
     9
 74
     0
 42
0.00000001
 43
0.00000001
 12
1.0
 22
0.0
 32
0.0
 13
1.0
 23
0.0
 33
0.0
 40
0.0
 40
0.0
 40
0.0
 40
0.0
 40
0.1244540078516057
 40
0.1867695160826824
 40
0.2495808587177879
 40
0.3614160715098909
 40
0.4996994173820735
 40
1.0
 40
1.0
 40
1.0
 40
1.0
 10
289.072989046813
 20
209.8912285263031
 30
0.0
 10
289.074432957809
 20
209.8902511113747
 30
0.0
 10
289.0765998511267
 20
209.8887842939027
 30
0.0
 10
289.0844654230743
 20
209.8927871928594
 30
0.0
 10
289.0937228617801
 20
209.8990640716686
 30
0.0
 10
289.1088406296632
 20
209.9117588219117
 30
0.0
 10
289.1477161694558
 20
209.9481679840644
 30
0.0
 10
289.1815560002702
 20
209.9835066113053
 30
0.0
 10
289.2080679219094
 20
210.0111927697079
 30
0.0
  0
LINE
  5
204
330
1F
100
AcDbEntity
  8
0
  6
Continuous
 62
     7
370
    15
100
AcDbLine
 10
284.2880332545
 20
220.7684331392
 30
0.0
 11
284.2881344533
 21
220.7664585471
 31
0.0
  0
LINE
  5
205
330
1F
100
AcDbEntity
  8
0
  6
Continuous
 62
     7
370
    15
100
AcDbLine
 10
289.3227090275
 20
210.1527184352
 30
0.0
 11
289.3241521539
 21
210.1513812111
 31
0.0
  0
LINE
  5
206
330
1F
100
AcDbEntity
  8
0
  6
Continuous
 62
     7
370
    15
100
AcDbLine
 10
289.2080679219
 20
210.0111927697
 30
0.0
 11
289.2095130783
 21
210.0098511923
 31
0.0
  0
LINE
  5
207
330
1F
100
AcDbEntity
  8
0
  6
Continuous
 62
     7
370
    15
100
AcDbLine
 10
289.0729890468
 20
209.8912285263
 30
0.0
 11
289.074432079
 21
209.8898915042
 31
0.0
  0
LINE
  5
208
330
1F
100
AcDbEntity
  8
0
  6
Continuous
 62
     7
370
    15
100
AcDbLine
 10
289.0339989987
 20
209.7558115779
 30
0.0
 11
289.0584979815
 21
209.7970256329
 31
0.0
  0
LINE
  5
209
330
1F
100
AcDbEntity
  8
0
  6
Continuous
 62
     7
370
    15
100
AcDbLine
 10
289.0584979815
 20
209.7970256329
 30
0.0
 11
289.1861296478
 21
209.915665934
 31
0.0
  0
SPLINE
  5
20A
330
1F
100
AcDbEntity
  8
0
  6
Continuous
 62
     7
370
    15
100
AcDbSpline
210
0.0
220
0.0
230
1.0
 70
     8
 71
     3
 72
    13
 73
     9
 74
     0
 42
0.00000001
 43
0.00000001
 12
1.0
 22
0.0
 32
0.0
 13
1.0
 23
0.0
 33
0.0
 40
0.0
 40
0.0
 40
0.0
 40
0.0
 40
0.2492714872730079
 40
0.3713235252399628
 40
0.4998460429659363
 40
0.626262427850187
 40
0.7504170896911821
 40
1.0
 40
1.0
 40
1.0
 40
1.0
 10
289.1861297217428
 20
209.9156660118415
 30
0.0
 10
289.1865090853879
 20
209.9198101606266
 30
0.0
 10
289.187074198741
 20
209.9259834295906
 30
0.0
 10
289.1998350769878
 20
209.9465160598045
 30
0.0
 10
289.2129456320674
 20
209.9650941062676
 30
0.0
 10
289.2292305210813
 20
209.9863268650144
 30
0.0
 10
289.2544658808758
 20
210.0170107649386
 30
0.0
 10
289.2764682639986
 20
210.0408759010163
 30
0.0
 10
289.2911615119424
 20
210.0568131001664
 30
0.0
  0
SPLINE
  5
20B
330
1F
100
AcDbEntity
  8
0
  6
Continuous
 62
     7
370
    15
100
AcDbSpline
210
0.0
220
0.0
230
1.0
 70
     8
 71
     3
 72
    12
 73
     8
 74
     0
 42
0.00000001
 43
0.00000001
 12
1.0
 22
0.0
 32
0.0
 13
1.0
 23
0.0
 33
0.0
 40
0.0
 40
0.0
 40
0.0
 40
0.0
 40
0.2496895368470919
 40
0.3750715472718217
 40
0.5005204373192661
 40
0.7502333876659607
 40
1.0
 40
1.0
 40
1.0
 40
1.0
 10
289.2911615119424
 20
210.0568131001664
 30
0.0
 10
289.3061376758185
 20
210.0722439523411
 30
0.0
 10
289.3286341449463
 20
210.0954234322424
 30
0.0
 10
289.3560651732936
 20
210.1201451625504
 30
0.0
 10
289.3803879067303
 20
210.1404926220219
 30
0.0
 10
289.4055808948354
 20
210.1584910746511
 30
0.0
 10
289.4108336034597
 20
210.1566077224811
 30
0.0
 10
289.4134602399363
 20
210.1556659452265
 30
0.0
  0
SPLINE
  5
20C
330
1F
100
AcDbEntity
  8
0
  6
Continuous
 62
     7
370
    15
100
AcDbSpline
210
0.0
220
0.0
230
1.0
 70
     8
 71
     3
 72
    12
 73
     8
 74
     0
 42
0.00000001
 43
0.00000001
 12
1.0
 22
0.0
 32
0.0
 13
1.0
 23
0.0
 33
0.0
 40
0.0
 40
0.0
 40
0.0
 40
0.0
 40
0.2498009883109947
 40
0.3738437650312215
 40
0.5006240426754289
 40
0.7505152675903225
 40
1.0
 40
1.0
 40
1.0
 40
1.0
 10
289.4134602399363
 20
210.1556659452264
 30
0.0
 10
289.413144908306
 20
210.151793467847
 30
0.0
 10
289.4126729935842
 20
210.145998048328
 30
0.0
 10
289.3999038727019
 20
210.1267716386446
 30
0.0
 10
289.3821229940733
 20
210.1032329974574
 30
0.0
 10
289.352543054538
 20
210.0673912879498
 30
0.0
 10
289.3230806529115
 20
210.0355483480442
 30
0.0
 10
289.3083614433098
 20
210.0196398381832
 30
0.0
  0
SPLINE
  5
20D
330
1F
100
AcDbEntity
  8
0
  6
Continuous
 62
     7
370
    15
100
AcDbSpline
210
0.0
220
0.0
230
1.0
 70
     8
 71
     3
 72
     9
 73
     5
 74
     0
 42
0.00000001
 43
0.00000001
 12
1.0
 22
0.0
 32
0.0
 13
1.0
 23
0.0
 33
0.0
 40
0.0
 40
0.0
 40
0.0
 40
0.0
 40
0.49859796615036
 40
1.0
 40
1.0
 40
1.0
 40
1.0
 10
289.3083614433097
 20
210.0196398381832
 30
0.0
 10
289.2931719874064
 20
210.0039438838372
 30
0.0
 10
289.2627076515395
 20
209.9724637025859
 30
0.0
 10
289.235163394455
 20
209.9462493878993
 30
0.0
 10
289.221352647932
 20
209.9331054771995
 30
0.0
  0
LINE
  5
20E
330
1F
100
AcDbEntity
  8
0
  6
Continuous
 62
     7
370
    15
100
AcDbLine
 10
289.2213526479
 20
209.9331054772
 30
0.0
 11
289.0339990601
 21
209.7558116353
 31
0.0
  0
SPLINE
  5
20F
330
1F
100
AcDbEntity
  8
0
  6
Continuous
 62
     7
370
    15
100
AcDbSpline
210
0.0
220
0.0
230
1.0
 70
     8
 71
     3
 72
    12
 73
     8
 74
     0
 42
0.00000001
 43
0.00000001
 12
1.0
 22
0.0
 32
0.0
 13
1.0
 23
0.0
 33
0.0
 40
0.0
 40
0.0
 40
0.0
 40
0.0
 40
0.249539285793655
 40
0.4993206524950008
 40
0.7489705965277468
 40
0.8744011282073785
 40
1.0
 40
1.0
 40
1.0
 40
1.0
 10
289.3492459033984
 20
210.0874112680345
 30
0.0
 10
289.3480732055843
 20
210.0877301384046
 30
0.0
 10
289.3457266723087
 20
210.0883681884845
 30
0.0
 10
289.332557404636
 20
210.0784334879926
 30
0.0
 10
289.318370076788
 20
210.0656710367544
 30
0.0
 10
289.3058528377475
 20
210.053266608887
 30
0.0
 10
289.2995371578348
 20
210.0466520421197
 30
0.0
 10
289.2963772002336
 20
210.0433425408746
 30
0.0
  0
SPLINE
  5
210
330
1F
100
AcDbEntity
  8
0
  6
Continuous
 62
     7
370
    15
100
AcDbSpline
210
0.0
220
0.0
230
1.0
 70
     8
 71
     3
 72
    14
 73
    10
 74
     0
 42
0.00000001
 43
0.00000001
 12
1.0
 22
0.0
 32
0.0
 13
1.0
 23
0.0
 33
0.0
 40
0.0
 40
0.0
 40
0.0
 40
0.0
 40
0.2493846017182602
 40
0.3743161944308165
 40
0.4994986352939552
 40
0.6265202963031488
 40
0.7496429417058528
 40
0.8747293367744058
 40
1.0
 40
1.0
 40
1.0
 40
1.0
 10
289.2963772002336
 20
210.0433425408746
 30
0.0
 10
289.2900994853796
 20
210.036556230586
 30
0.0
 10
289.2806768894469
 20
210.026370253489
 30
0.0
 10
289.2697705498248
 20
210.0133279042376
 30
0.0
 10
289.2627264206926
 20
210.0043430050567
 30
0.0
 10
289.2570607899183
 20
209.9964901018134
 30
0.0
 10
289.2531489435588
 20
209.9902261911662
 30
0.0
 10
289.2511522815239
 20
209.985828068939
 30
0.0
 10
289.2513083965885
 20
209.9844462682598
 30
0.0
 10
289.2513865115727
 20
209.9837548594028
 30
0.0
  0
SPLINE
  5
211
330
1F
100
AcDbEntity
  8
0
  6
Continuous
 62
     7
370
    15
100
AcDbSpline
210
0.0
220
0.0
230
1.0
 70
     8
 71
     3
 72
    13
 73
     9
 74
     0
 42
0.00000001
 43
0.00000001
 12
1.0
 22
0.0
 32
0.0
 13
1.0
 23
0.0
 33
0.0
 40
0.0
 40
0.0
 40
0.0
 40
0.0
 40
0.2493715619996076
 40
0.3711715489130518
 40
0.4999284295085522
 40
0.7493088559813564
 40
0.874573723411488
 40
1.0
 40
1.0
 40
1.0
 40
1.0
 10
289.2513865115728
 20
209.9837548594028
 30
0.0
 10
289.2524649387017
 20
209.9833961585302
 30
0.0
 10
289.2540700995494
 20
209.9828622582031
 30
0.0
 10
289.2613135535464
 20
209.988048098674
 30
0.0
 10
289.2702744162438
 20
209.9954526097542
 30
0.0
 10
289.2815858652363
 20
210.0059385795988
 30
0.0
 10
289.2937908065295
 20
210.018200880191
 30
0.0
 10
289.2999755158285
 20
210.024694705843
 30
0.0
 10
289.303069861511
 20
210.0279437092154
 30
0.0
  0
SPLINE
  5
212
330
1F
100
AcDbEntity
  8
0
  6
Continuous
 62
     7
370
    15
100
AcDbSpline
210
0.0
220
0.0
230
1.0
 70
     8
 71
     3
 72
    12
 73
     8
 74
     0
 42
0.00000001
 43
0.00000001
 12
1.0
 22
0.0
 32
0.0
 13
1.0
 23
0.0
 33
0.0
 40
0.0
 40
0.0
 40
0.0
 40
0.0
 40
0.2499497121787623
 40
0.4996254867637207
 40
0.7492266045201956
 40
0.8745295649556349
 40
1.0
 40
1.0
 40
1.0
 40
1.0
 10
289.303069861511
 20
210.0279437092154
 30
0.0
 10
289.3092678369829
 20
210.0346177811157
 30
0.0
 10
289.3216569951263
 20
210.0479586103283
 30
0.0
 10
289.3370917946563
 20
210.0666320034145
 30
0.0
 10
289.3459046259258
 20
210.0788254830965
 30
0.0
 10
289.3494295213021
 20
210.0853423781671
 30
0.0
 10
289.3493071366104
 20
210.0867213311088
 30
0.0
 10
289.3492459033983
 20
210.0874112680345
 30
0.0
  0
LINE
  5
213
330
1F
100
AcDbEntity
  8
0
  6
Continuous
 62
     7
370
    15
100
AcDbLine
 10
289.2911615119
 20
210.0568131002
 30
0.0
 11
289.2897125693
 21
210.0581627973
 31
0.0
  0
LINE
  5
214
330
1F
100
AcDbEntity
  8
0
  6
Continuous
 62
     7
370
    15
100
AcDbLine
 10
289.1861297236
 20
209.915666005
 30
0.0
 11
289.184677885
 21
209.9170219125
 31
0.0
  0
LINE
  5
215
330
1F
100
AcDbEntity
  8
0
  6
Continuous
 62
     7
370
    15
100
AcDbLine
 10
289.4134602399
 20
210.1556659452
 30
0.0
 11
289.412008324
 21
210.1570220185
 31
0.0
  0
LINE
  5
216
330
1F
100
AcDbEntity
  8
0
  6
Continuous
 62
     7
370
    15
100
AcDbLine
 10
289.0339989987
 20
209.7558115779
 30
0.0
 11
289.0325472814
 21
209.7571672252
 31
0.0
  0
LINE
  5
217
330
1F
100
AcDbEntity
  8
0
  6
Continuous
 62
     7
370
    15
100
AcDbLine
 10
289.0584979815
 20
209.7970256329
 30
0.0
 11
289.0570477121
 21
209.7983781751
 31
0.0
  0
SPLINE
  5
218
330
1F
100
AcDbEntity
  8
0
  6
Continuous
 62
     7
370
    15
100
AcDbSpline
210
0.0
220
0.0
230
1.0
 70
     8
 71
     3
 72
    12
 73
     8
 74
     0
 42
0.00000001
 43
0.00000001
 12
1.0
 22
0.0
 32
0.0
 13
1.0
 23
0.0
 33
0.0
 40
0.0
 40
0.0
 40
0.0
 40
0.0
 40
0.2499840149156056
 40
0.499675199554865
 40
0.7492636092825008
 40
0.8745500756341535
 40
1.0
 40
1.0
 40
1.0
 40
1.0
 10
289.3016169007204
 20
210.0293020232735
 30
0.0
 10
289.3078148083297
 20
210.0359759817703
 30
0.0
 10
289.3202033633442
 20
210.0493160809156
 30
0.0
 10
289.3356383150081
 20
210.0679887825463
 30
0.0
 10
289.3444519807581
 20
210.0801823003866
 30
0.0
 10
289.3479773522732
 20
210.0866989253134
 30
0.0
 10
289.3478551204817
 20
210.0880776022555
 30
0.0
 10
289.3477939647438
 20
210.0887673901145
 30
0.0
  0
SPLINE
  5
219
330
1F
100
AcDbEntity
  8
0
  6
Continuous
 62
     7
370
    15
100
AcDbSpline
210
0.0
220
0.0
230
1.0
 70
     8
 71
     3
 72
    13
 73
     9
 74
     0
 42
0.00000001
 43
0.00000001
 12
1.0
 22
0.0
 32
0.0
 13
1.0
 23
0.0
 33
0.0
 40
0.0
 40
0.0
 40
0.0
 40
0.0
 40
0.2493341879051199
 40
0.3711240387274718
 40
0.4998781313599767
 40
0.7492745047669418
 40
0.8745554826101543
 40
1.0
 40
1.0
 40
1.0
 40
1.0
 10
289.24993457348
 20
209.9851109802781
 30
0.0
 10
289.251012924471
 20
209.9847526385307
 30
0.0
 10
289.2526180071044
 20
209.9842192610679
 30
0.0
 10
289.259861212205
 20
209.9894056630626
 30
0.0
 10
289.2688221630316
 20
209.9968108696308
 30
0.0
 10
289.2801334541475
 20
210.0072972047866
 30
0.0
 10
289.2923379287784
 20
210.0195592515613
 30
0.0
 10
289.2985225653983
 20
210.0260530208159
 30
0.0
 10
289.3016169007204
 20
210.0293020232735
 30
0.0
  0
LINE
  5
21A
330
1F
100
AcDbEntity
  8
0
  6
Continuous
 62
     7
370
    15
100
AcDbLine
 10
289.3016169007
 20
210.0293020233
 30
0.0
 11
289.3030698615
 21
210.0279437092
 31
0.0
  0
LINE
  5
21B
330
1F
100
AcDbEntity
  8
0
  6
Continuous
 62
     7
370
    15
100
AcDbLine
 10
289.2499345735
 20
209.9851109803
 30
0.0
 11
289.2513865116
 21
209.9837548594
 31
0.0
  0
LINE
  5
21C
330
1F
100
AcDbEntity
  8
0
  6
Continuous
 62
     7
370
    15
100
AcDbLine
 10
284.4813451176
 20
220.8523866506
 30
0.0
 11
284.4641577789
 21
220.8513034877
 31
0.0
  0
SPLINE
  5
21D
330
1F
100
AcDbEntity
  8
0
  6
Continuous
 62
     7
370
    15
100
AcDbSpline
210
0.0
220
0.0
230
1.0
 70
     8
 71
     3
 72
    16
 73
    12
 74
     0
 42
0.00000001
 43
0.00000001
 12
1.0
 22
0.0
 32
0.0
 13
1.0
 23
0.0
 33
0.0
 40
0.0
 40
0.0
 40
0.0
 40
0.0
 40
0.0537789290669705
 40
0.172124141156879
 40
0.2904483158163703
 40
0.4087630947508067
 40
0.527052006845434
 40
0.6453495867974685
 40
0.7636433127116876
 40
0.8819873009900059
 40
1.0
 40
1.0
 40
1.0
 40
1.0
 10
283.5001266502155
 20
220.7974701153026
 30
0.0
 10
283.492798880619
 20
220.7972160257399
 30
0.0
 10
283.4693457165216
 20
220.7964027899891
 30
0.0
 10
283.5119653262441
 20
220.7935197250007
 30
0.0
 10
283.6202700058776
 20
220.7903176212384
 30
0.0
 10
283.7879734200695
 20
220.7906456745283
 30
0.0
 10
283.9839328262103
 20
220.7977027517982
 30
0.0
 10
284.1801015271332
 20
220.811998461658
 30
0.0
 10
284.3445722905096
 20
220.8299896463106
 30
0.0
 10
284.4590565972852
 20
220.8466241152071
 30
0.0
 10
284.4739225564655
 20
220.8504676011881
 30
0.0
 10
284.4813451176225
 20
220.8523866505683
 30
0.0
  0
LINE
  5
21E
330
1F
100
AcDbEntity
  8
0
  6
Continuous
 62
     7
370
    15
100
AcDbLine
 10
281.8241269035
 20
220.6373847559
 30
0.0
 11
282.9482914797
 21
218.2266060424
 31
0.0
  0
LINE
  5
21F
330
1F
100
AcDbEntity
  8
0
  6
Continuous
 62
     7
370
    15
100
AcDbLine
 10
286.4729277826
 20
210.6679990985
 30
0.0
 11
287.5970923589
 21
208.257220385
 31
0.0
  0
LINE
  5
220
330
1F
100
AcDbEntity
  8
0
  6
Continuous
 62
     7
370
    15
100
AcDbLine
 10
282.7980052942
 20
219.2587562821
 30
0.0
 11
287.1669986403
 21
209.8894198158
 31
0.0
  0
SPLINE
  5
221
330
1F
100
AcDbEntity
  8
0
  6
Continuous
 62
     7
370
    15
100
AcDbSpline
210
0.0
220
0.0
230
1.0
 70
    24
 71
     3
 72
    11
 73
     7
 74
     0
 42
0.00000001
 43
0.00000001
 12
1.0
 22
0.0
 32
0.0
 13
1.0
 23
0.0
 33
0.0
 40
0.0
 40
0.0
 40
0.0
 40
0.0
 40
0.1499516226907257
 40
0.4331749578253662
 40
0.7165923401616886
 40
1.0
 40
1.0
 40
1.0
 40
1.0
 10
287.4804326045719
 20
209.217258510326
 30
0.0
 10
287.4604079394729
 20
209.2602015432116
 30
0.0
 10
287.4025613933398
 20
209.3842538617216
 30
0.0
 10
287.3112937721309
 20
209.5799779070229
 30
0.0
 10
287.2197404750204
 20
209.7763145862716
 30
0.0
 10
287.1845790508552
 20
209.8517185037289
 30
0.0
 10
287.1669986403267
 20
209.8894198157726
 30
0.0
  0
SPLINE
  5
222
330
1F
100
AcDbEntity
  8
0
  6
Continuous
 62
     7
370
    15
100
AcDbSpline
210
0.0
220
0.0
230
1.0
 70
    24
 71
     3
 72
    11
 73
     7
 74
     0
 42
0.00000001
 43
0.00000001
 12
1.0
 22
0.0
 32
0.0
 13
1.0
 23
0.0
 33
0.0
 40
0.0
 40
0.0
 40
0.0
 40
0.0
 40
0.149951595075712
 40
0.4331749432232027
 40
0.7165923323728234
 40
1.0
 40
1.0
 40
1.0
 40
1.0
 10
282.7980052942286
 20
219.2587562821403
 30
0.0
 10
282.7895735911466
 20
219.2768381277511
 30
0.0
 10
282.765216381062
 20
219.3290723333419
 30
0.0
 10
282.6992290792817
 20
219.4705825586756
 30
0.0
 10
282.5985634684695
 20
219.6864606577197
 30
0.0
 10
282.5225682750184
 20
219.849432876001
 30
0.0
 10
282.4845713299833
 20
219.9309175875869
 30
0.0
  0
LINE
  5
223
330
1F
100
AcDbEntity
  8
0
  6
Continuous
 62
     7
370
    15
100
AcDbLine
 10
279.8597222457
 20
223.2184710281
 30
0.0
 11
279.94285719
 21
223.2520597259
 31
0.0
  0
SPLINE
  5
224
330
1F
100
AcDbEntity
  8
0
  6
Continuous
 62
     7
370
    15
100
AcDbSpline
210
0.0
220
0.0
230
1.0
 70
     8
 71
     3
 72
    14
 73
    10
 74
     0
 42
0.00000001
 43
0.00000001
 12
1.0
 22
0.0
 32
0.0
 13
1.0
 23
0.0
 33
0.0
 40
0.0
 40
0.0
 40
0.0
 40
0.0
 40
0.0000064140458042
 40
0.0730558909547964
 40
0.2154935957733528
 40
0.4037789030075293
 40
0.5887468703998113
 40
0.8882363243877042
 40
1.0
 40
1.0
 40
1.0
 40
1.0
 10
279.9428571899958
 20
223.2520597259098
 30
0.0
 10
279.9428608979898
 20
223.2520612240102
 30
0.0
 10
279.9850948965696
 20
223.2691245658864
 30
0.0
 10
280.1152978836044
 20
223.3063529907266
 30
0.0
 10
280.370884064155
 20
223.3075260504869
 30
0.0
 10
280.6852064588064
 20
223.2127183715128
 30
0.0
 10
281.0235406774255
 20
222.9513519955116
 30
0.0
 10
281.2221041798946
 20
222.6290349085662
 30
0.0
 10
281.3331296624642
 20
222.3982151016075
 30
0.0
 10
281.3633023593399
 20
222.3354866548844
 30
0.0
  0
SPLINE
  5
225
330
1F
100
AcDbEntity
  8
0
  6
Continuous
 62
     7
370
    15
100
AcDbSpline
210
0.0
220
0.0
230
1.0
 70
     8
 71
     3
 72
    15
 73
    11
 74
     0
 42
0.00000001
 43
0.00000001
 12
1.0
 22
0.0
 32
0.0
 13
1.0
 23
0.0
 33
0.0
 40
0.0
 40
0.0
 40
0.0
 40
0.0
 40
0.012525835387826
 40
0.2274813526119987
 40
0.4424404199769399
 40
0.499999176320689
 40
0.7148755009570178
 40
0.929749526558839
 40
0.987474164614681
 40
1.0
 40
1.0
 40
1.0
 40
1.0
 10
280.0285388595528
 20
222.856445135647
 30
0.0
 10
280.0274983341796
 20
222.8588366232327
 30
0.0
 10
280.0086013814422
 20
222.9022683636258
 30
0.0
 10
279.9713032108837
 20
222.986871177184
 30
0.0
 10
279.9343568290051
 20
223.0684147395473
 30
0.0
 10
279.9028375219741
 20
223.136407020898
 30
0.0
 10
279.8768730515491
 20
223.1905793799946
 30
0.0
 10
279.8631824723144
 20
223.2155318323169
 30
0.0
 10
279.8601838500927
 20
223.2185417621101
 30
0.0
 10
279.859792930292
 20
223.2184820686292
 30
0.0
 10
279.8597232283123
 20
223.2184714251321
 30
0.0
  0
SPLINE
  5
226
330
1F
100
AcDbEntity
  8
0
  6
Continuous
 62
     7
370
    15
100
AcDbSpline
210
0.0
220
0.0
230
1.0
 70
     8
 71
     3
 72
     9
 73
     5
 74
     0
 42
0.00000001
 43
0.00000001
 12
1.0
 22
0.0
 32
0.0
 13
1.0
 23
0.0
 33
0.0
 40
0.0
 40
0.0
 40
0.0
 40
0.0
 40
0.0000220488581531
 40
0.9999999999999999
 40
0.9999999999999999
 40
0.9999999999999999
 40
0.9999999999999999
 10
289.8695563604375
 20
204.0937660819187
 30
0.0
 10
289.8695580509096
 20
204.093762456687
 30
0.0
 10
289.9462274283235
 20
203.9293443431314
 30
0.0
 10
290.0044150403471
 20
203.7571254945054
 30
0.0
 10
290.0626013694002
 20
203.5849104431083
 30
0.0
  0
LINE
  5
227
330
1F
100
AcDbEntity
  8
0
  6
Continuous
 62
     7
370
    15
100
AcDbLine
 10
279.8597222457
 20
223.2184710281
 30
0.0
 11
279.8500115628
 21
223.2145476576
 31
0.0
  0
LINE
  5
228
330
1F
100
AcDbEntity
  8
0
  6
Continuous
 62
     7
370
    15
100
AcDbLine
 10
281.3633023593
 20
222.3354866549
 30
0.0
 11
282.48457133
 21
219.9309175876
 31
0.0
  0
LINE
  5
229
330
1F
100
AcDbEntity
  8
0
  6
Continuous
 62
     7
370
    15
100
AcDbLine
 10
287.4804326046
 20
209.2172585103
 30
0.0
 11
289.8695563604
 21
204.0937660819
 31
0.0
  0
SPLINE
  5
22A
330
1F
100
AcDbEntity
  8
0
  6
Continuous
 62
     7
370
    15
100
AcDbSpline
210
0.0
220
0.0
230
1.0
 70
     8
 71
     3
 72
    20
 73
    16
 74
     0
 42
0.00000001
 43
0.00000001
 12
1.0
 22
0.0
 32
0.0
 13
1.0
 23
0.0
 33
0.0
 40
0.0
 40
0.0
 40
0.0
 40
0.0
 40
0.2070577373168151
 40
0.4203770502760556
 40
0.701116302556809
 40
0.8834527988430982
 40
0.9282286404934924
 40
0.9524788585968923
 40
0.9675018207221366
 40
0.9773827146382255
 40
0.9840938553685364
 40
0.9887393639099392
 40
0.9919933949590687
 40
0.9977340800222543
 40
1.0
 40
1.0
 40
1.0
 40
1.0
 10
290.0626013694002
 20
203.5849104431083
 30
0.0
 10
290.0835744361229
 20
203.4870875486563
 30
0.0
 10
290.1261548102657
 20
203.2884835247155
 30
0.0
 10
290.0864685485407
 20
202.9467320273473
 30
0.0
 10
289.959651169741
 20
202.6873692630222
 30
0.0
 10
289.8255004666197
 20
202.5338318376445
 30
0.0
 10
289.7434301165196
 20
202.4695266143029
 30
0.0
 10
289.7143335166332
 20
202.4495075184684
 30
0.0
 10
289.6967542885502
 20
202.4383332018787
 30
0.0
 10
289.6852193321185
 20
202.4313788552446
 30
0.0
 10
289.6773690723952
 20
202.4268157084345
 30
0.0
 10
289.6719210666087
 20
202.4237288092346
 30
0.0
 10
289.6668039967552
 20
202.420882150303
 30
0.0
 10
289.6625525163602
 20
202.4185633968744
 30
0.0
 10
289.6595088811676
 20
202.4169396659141
 30
0.0
 10
289.6586475131155
 20
202.41648013976
 30
0.0
  0
SPLINE
  5
22B
330
1F
100
AcDbEntity
  8
0
  6
Continuous
 62
     7
370
    15
100
AcDbSpline
210
0.0
220
0.0
230
1.0
 70
     8
 71
     3
 72
    10
 73
     6
 74
     0
 42
0.00000001
 43
0.00000001
 12
1.0
 22
0.0
 32
0.0
 13
1.0
 23
0.0
 33
0.0
 40
0.0
 40
0.0
 40
0.0
 40
0.0
 40
0.4527378322258228
 40
0.9055954617466456
 40
1.0
 40
1.0
 40
1.0
 40
1.0
 10
290.0870177178371
 20
203.0255260631405
 30
0.0
 10
290.0885423272068
 20
203.0360259479483
 30
0.0
 10
290.0915919493673
 20
203.0570284959
 30
0.0
 10
290.116264152835
 20
203.1535622676957
 30
0.0
 10
290.1078600463932
 20
203.2488514237876
 30
0.0
 10
290.1064103101702
 20
203.2652891191211
 30
0.0
  0
SPLINE
  5
22C
330
1F
100
AcDbEntity
  8
0
  6
Continuous
 62
     7
370
    15
100
AcDbSpline
210
0.0
220
0.0
230
1.0
 70
     8
 71
     3
 72
    12
 73
     8
 74
     0
 42
0.00000001
 43
0.00000001
 12
1.0
 22
0.0
 32
0.0
 13
1.0
 23
0.0
 33
0.0
 40
0.0
 40
0.0
 40
0.0
 40
0.0
 40
0.4616906276041219
 40
0.7307729957149739
 40
0.9175829515523499
 40
0.9719359527203706
 40
1.0
 40
1.0
 40
1.0
 40
1.0
 10
290.0583912205217
 20
203.5999876028683
 30
0.0
 10
290.0523884619434
 20
203.6216995708724
 30
0.0
 10
290.0428871777358
 20
203.6560657003813
 30
0.0
 10
290.0285625016198
 20
203.7008854991908
 30
0.0
 10
290.0202642558479
 20
203.7257592491733
 30
0.0
 10
290.015766811877
 20
203.7388935697734
 30
0.0
 10
290.0143779727271
 20
203.7429111506419
 30
0.0
 10
290.0139050554326
 20
203.7442791877357
 30
0.0
  0
LINE
  5
22D
330
1F
100
AcDbEntity
  8
0
  6
Continuous
 62
     7
370
    15
100
AcDbLine
 10
281.0893343913
 20
222.7877155245
 30
0.0
 11
281.0002118466
 21
222.9346933281
 31
0.0
  0
LINE
  5
22E
330
1F
100
AcDbEntity
  8
0
  6
Continuous
 62
     7
370
    15
100
AcDbLine
 10
289.8787927099
 20
204.0738569898
 30
0.0
 11
289.8703859184
 21
204.0919862875
 31
0.0
  0
SPLINE
  5
22F
330
1F
100
AcDbEntity
  8
0
  6
Continuous
 62
     7
370
    15
100
AcDbSpline
210
0.0
220
0.0
230
1.0
 70
     8
 71
     3
 72
    13
 73
     9
 74
     0
 42
0.00000001
 43
0.00000001
 12
1.0
 22
0.0
 32
0.0
 13
1.0
 23
0.0
 33
0.0
 40
0.0
 40
0.0
 40
0.0
 40
0.0
 40
0.1254648118065716
 40
0.250243578881659
 40
0.3760698054095929
 40
0.5019139201694305
 40
0.7508310514861668
 40
1.0
 40
1.0
 40
1.0
 40
1.0
 10
281.0002118465467
 20
222.9346933281407
 30
0.0
 10
280.9826764520887
 20
222.9541477838137
 30
0.0
 10
280.9477015471485
 20
222.9929503177092
 30
0.0
 10
280.8929651407123
 20
223.044830345159
 30
0.0
 10
280.8395650153072
 20
223.0895247788379
 30
0.0
 10
280.7745932121653
 20
223.1372195296443
 30
0.0
 10
280.7080559442169
 20
223.1767316967311
 30
0.0
 10
280.6974730062299
 20
223.1821245367739
 30
0.0
 10
280.6921788620305
 20
223.1848223200234
 30
0.0
  0
SPLINE
  5
230
330
1F
100
AcDbEntity
  8
0
  6
Continuous
 62
     7
370
    15
100
AcDbSpline
210
0.0
220
0.0
230
1.0
 70
     8
 71
     3
 72
     9
 73
     5
 74
     0
 42
0.00000001
 43
0.00000001
 12
1.0
 22
0.0
 32
0.0
 13
1.0
 23
0.0
 33
0.0
 40
0.0
 40
0.0
 40
0.0
 40
0.0
 40
0.5000138394956695
 40
1.0
 40
1.0
 40
1.0
 40
1.0
 10
289.972354077872
 20
203.8563299335862
 30
0.0
 10
289.9587601953845
 20
203.8900733326461
 30
0.0
 10
289.9315731829184
 20
203.9575582628513
 30
0.0
 10
289.8963858762258
 20
204.0350914628273
 30
0.0
 10
289.8787927098542
 20
204.073856989795
 30
0.0
  0
SPLINE
  5
231
330
1F
100
AcDbEntity
  8
0
  6
Continuous
 62
     7
370
    15
100
AcDbSpline
210
0.0
220
0.0
230
1.0
 70
     8
 71
     3
 72
     9
 73
     5
 74
     0
 42
0.00000001
 43
0.00000001
 12
1.0
 22
0.0
 32
0.0
 13
1.0
 23
0.0
 33
0.0
 40
0.0
 40
0.0
 40
0.0
 40
0.0
 40
0.8821747881010394
 40
1.0
 40
1.0
 40
1.0
 40
1.0
 10
290.1102448174034
 20
203.2237533398859
 30
0.0
 10
290.1116475085484
 20
203.2258919403517
 30
0.0
 10
290.1132375462189
 20
203.2283161770162
 30
0.0
 10
290.1092978658952
 20
203.2783847901217
 30
0.0
 10
290.1088336722262
 20
203.2842841350704
 30
0.0
  0
SPLINE
  5
232
330
1F
100
AcDbEntity
  8
0
  6
Continuous
 62
     7
370
    15
100
AcDbSpline
210
0.0
220
0.0
230
1.0
 70
     8
 71
     3
 72
     9
 73
     5
 74
     0
 42
0.00000001
 43
0.00000001
 12
1.0
 22
0.0
 32
0.0
 13
1.0
 23
0.0
 33
0.0
 40
0.0
 40
0.0
 40
0.0
 40
0.0
 40
0.0370163330237426
 40
1.0
 40
1.0
 40
1.0
 40
1.0
 10
290.0609926980574
 20
203.5891508090635
 30
0.0
 10
290.0604800426131
 20
203.5917258896001
 30
0.0
 10
290.0466306036663
 20
203.6612919521003
 30
0.0
 10
290.0087920179237
 20
203.7606498758401
 30
0.0
 10
289.972354077872
 20
203.8563299335862
 30
0.0
  0
LINE
  5
233
330
1F
100
AcDbEntity
  8
0
  6
Continuous
 62
     7
370
    15
100
AcDbLine
 10
290.0139050555
 20
203.7442791876
 30
0.0
 11
289.9800842246
 21
203.8332984409
 31
0.0
  0
LINE
  5
234
330
1F
100
AcDbEntity
  8
0
  6
Continuous
 62
     7
370
    15
100
AcDbLine
 10
271.1723280863
 20
190.515594306
 30
0.0
 11
271.2338444496
 21
190.515594306
 31
0.0
  0
CIRCLE
  5
235
330
1F
100
AcDbEntity
  8
0
  6
Continuous
 62
     7
370
    15
100
AcDbCircle
 10
125.3835525451
 20
235.837594306
 30
0.0
 40
0.4200000000000017
  0
CIRCLE
  5
236
330
1F
100
AcDbEntity
  8
0
  6
Continuous
 62
     7
370
    15
100
AcDbCircle
 10
203.3835525451
 20
235.837594306
 30
0.0
 40
0.4199999999999875
  0
LINE
  5
237
330
1F
100
AcDbEntity
  8
0
  6
Continuous
 62
     7
370
    15
100
AcDbLine
 10
203.0142288388
 20
235.637594306
 30
0.0
 11
203.7528762513
 21
235.637594306
 31
0.0
  0
LINE
  5
238
330
1F
100
AcDbEntity
  8
0
  6
Continuous
 62
     7
370
    15
100
AcDbLine
 10
202.9635525451
 20
235.837594306
 30
0.0
 11
203.8035525451
 21
235.837594306
 31
0.0
  0
LINE
  5
239
330
1F
100
AcDbEntity
  8
0
  6
Continuous
 62
     7
370
    15
100
AcDbLine
 10
109.8635525451
 20
240.687594306
 30
0.0
 11
109.8635525451
 21
242.987594306
 31
0.0
  0
LINE
  5
23A
330
1F
100
AcDbEntity
  8
0
  6
Continuous
 62
     7
370
    15
100
AcDbLine
 10
110.2635525451
 20
240.687594306
 30
0.0
 11
110.2635525451
 21
242.987594306
 31
0.0
  0
LINE
  5
23B
330
1F
100
AcDbEntity
  8
0
  6
Continuous
 62
     7
370
    15
100
AcDbLine
 10
124.8635525451
 20
242.987594306
 30
0.0
 11
124.8635525451
 21
240.687594306
 31
0.0
  0
LINE
  5
23C
330
1F
100
AcDbEntity
  8
0
  6
Continuous
 62
     7
370
    15
100
AcDbLine
 10
124.4635525451
 20
242.987594306
 30
0.0
 11
124.4635525451
 21
240.687594306
 31
0.0
  0
LINE
  5
23D
330
1F
100
AcDbEntity
  8
0
  6
Continuous
 62
     7
370
    15
100
AcDbLine
 10
110.7135525451
 20
243.837594306
 30
0.0
 11
124.0135525451
 21
243.837594306
 31
0.0
  0
LINE
  5
23E
330
1F
100
AcDbEntity
  8
0
  6
Continuous
 62
     7
370
    15
100
AcDbLine
 10
110.7135525451
 20
243.437594306
 30
0.0
 11
124.0135525451
 21
243.437594306
 31
0.0
  0
ARC
  5
23F
330
1F
100
AcDbEntity
  8
0
  6
Continuous
 62
     7
370
    15
100
AcDbCircle
 10
110.7135525451
 20
240.687594306
 30
0.0
 40
0.8500000000000085
100
AcDbArc
 50
180.0
 51
270.0
  0
ARC
  5
240
330
1F
100
AcDbEntity
  8
0
  6
Continuous
 62
     7
370
    15
100
AcDbCircle
 10
110.7135525451
 20
240.687594306
 30
0.0
 40
0.4500000000000171
100
AcDbArc
 50
180.0
 51
270.0
  0
LINE
  5
241
330
1F
100
AcDbEntity
  8
0
  6
Continuous
 62
     7
370
    15
100
AcDbLine
 10
289.638691234
 20
236.8233104779
 30
0.0
 11
286.7479823237
 21
230.6241652145
 31
0.0
  0
LINE
  5
242
330
1F
100
AcDbEntity
  8
0
  6
Continuous
 62
     7
370
    15
100
AcDbLine
 10
289.2761681191
 20
236.9923577826
 30
0.0
 11
286.3854592088
 21
230.7932125192
 31
0.0
  0
ARC
  5
243
330
1F
100
AcDbEntity
  8
0
  6
Continuous
 62
     7
370
    15
100
AcDbCircle
 10
110.7135525451
 20
242.987594306
 30
0.0
 40
0.8500000000000227
100
AcDbArc
 50
90.0
 51
180.0
  0
ARC
  5
244
330
1F
100
AcDbEntity
  8
0
  6
Continuous
 62
     7
370
    15
100
AcDbCircle
 10
110.7135525451
 20
242.987594306
 30
0.0
 40
0.4500000000000171
100
AcDbArc
 50
90.0
 51
180.0
  0
LINE
  5
245
330
1F
100
AcDbEntity
  8
0
  6
Continuous
 62
     7
370
    15
100
AcDbLine
 10
285.5871274629
 20
229.4633103538
 30
0.0
 11
282.0706532492
 21
227.8235514983
 31
0.0
  0
LINE
  5
246
330
1F
100
AcDbEntity
  8
0
  6
Continuous
 62
     7
370
    15
100
AcDbLine
 10
285.4180801582
 20
229.8258334686
 30
0.0
 11
281.9016059445
 21
228.1860746131
 31
0.0
  0
ARC
  5
247
330
1F
100
AcDbEntity
  8
0
  6
Continuous
 62
     7
370
    15
100
AcDbCircle
 10
124.0135525451
 20
242.987594306
 30
0.0
 40
0.8500000000000227
100
AcDbArc
 50
0.0
 51
90.0
  0
ARC
  5
248
330
1F
100
AcDbEntity
  8
0
  6
Continuous
 62
     7
370
    15
100
AcDbCircle
 10
124.0135525451
 20
242.987594306
 30
0.0
 40
0.4500000000000171
100
AcDbArc
 50
0.0
 51
90.0
  0
ARC
  5
249
330
1F
100
AcDbEntity
  8
0
  6
Continuous
 62
     7
370
    15
100
AcDbCircle
 10
284.5728436348
 20
231.6384490427
 30
0.0
 40
2.399999999999991
100
AcDbArc
 50
295.0
 51
335.0
  0
ARC
  5
24A
330
1F
100
AcDbEntity
  8
0
  6
Continuous
 62
     7
370
    15
100
AcDbCircle
 10
284.5728436348
 20
231.6384490427
 30
0.0
 40
1.999999999999975
100
AcDbArc
 50
295.0
 51
335.0
  0
LINE
  5
24B
330
1F
100
AcDbEntity
  8
0
  6
Continuous
 62
     7
370
    15
100
AcDbLine
 10
112.4635525451
 20
240.237594306
 30
0.0
 11
110.7135525451
 21
240.237594306
 31
0.0
  0
LINE
  5
24C
330
1F
100
AcDbEntity
  8
0
  6
Continuous
 62
     7
370
    15
100
AcDbLine
 10
112.4635525451
 20
239.837594306
 30
0.0
 11
110.7135525451
 21
239.837594306
 31
0.0
  0
ARC
  5
24D
330
1F
100
AcDbEntity
  8
0
  6
Continuous
 62
     7
370
    15
100
AcDbCircle
 10
125.3135525451
 20
240.687594306
 30
0.0
 40
0.4500000000000171
100
AcDbArc
 50
180.0
 51
270.0
  0
ARC
  5
24E
330
1F
100
AcDbEntity
  8
0
  6
Continuous
 62
     7
370
    15
100
AcDbCircle
 10
125.3135525451
 20
240.687594306
 30
0.0
 40
0.8499999999999943
100
AcDbArc
 50
180.0
 51
270.0
  0
LINE
  5
24F
330
1F
100
AcDbEntity
  8
0
  6
Continuous
 62
     7
370
    15
100
AcDbLine
 10
125.3135525451
 20
239.837594306
 30
0.0
 11
287.4635525451
 21
239.837594306
 31
0.0
  0
LINE
  5
250
330
1F
100
AcDbEntity
  8
0
  6
Continuous
 62
     7
370
    15
100
AcDbLine
 10
125.3135525451
 20
240.237594306
 30
0.0
 11
287.4635525451
 21
240.237594306
 31
0.0
  0
ARC
  5
251
330
1F
100
AcDbEntity
  8
0
  6
Continuous
 62
     7
370
    15
100
AcDbCircle
 10
287.4635525451
 20
237.837594306
 30
0.0
 40
2.0
100
AcDbArc
 50
335.0
 51
90.0
  0
ARC
  5
252
330
1F
100
AcDbEntity
  8
0
  6
Continuous
 62
     7
370
    15
100
AcDbCircle
 10
287.4635525451
 20
237.837594306
 30
0.0
 40
2.400000000000003
100
AcDbArc
 50
335.0
 51
90.0
  0
LINE
  5
253
330
1F
100
AcDbEntity
  8
0
  6
Continuous
 62
     7
370
    15
100
AcDbLine
 10
281.7081301344
 20
227.6545041936
 30
0.0
 11
281.5390828297
 21
228.0170273084
 31
0.0
  0
LINE
  5
254
330
1F
100
AcDbEntity
  8
0
  6
Continuous
 62
     7
370
    15
100
AcDbLine
 10
281.5390828297
 20
228.0170273084
 30
0.0
 11
281.9016059445
 21
228.1860746131
 31
0.0
  0
LINE
  5
255
330
1F
100
AcDbEntity
  8
0
  6
Continuous
 62
     7
370
    15
100
AcDbLine
 10
282.0706532492
 20
227.8235514983
 30
0.0
 11
281.7081301344
 21
227.6545041936
 31
0.0
  0
LINE
  5
256
330
1F
100
AcDbEntity
  8
0
  6
Continuous
 62
     7
370
    15
100
AcDbLine
 10
112.8635525451
 20
240.237594306
 30
0.0
 11
112.8635525451
 21
239.837594306
 31
0.0
  0
LINE
  5
257
330
1F
100
AcDbEntity
  8
0
  6
Continuous
 62
     7
370
    15
100
AcDbLine
 10
112.4635525451
 20
240.237594306
 30
0.0
 11
112.8635525451
 21
240.237594306
 31
0.0
  0
LINE
  5
258
330
1F
100
AcDbEntity
  8
0
  6
Continuous
 62
     7
370
    15
100
AcDbLine
 10
112.8635525451
 20
239.837594306
 30
0.0
 11
112.4635525451
 21
239.837594306
 31
0.0
  0
LINE
  5
259
330
1F
100
AcDbEntity
  8
0
  6
Continuous
 62
     7
370
    15
100
AcDbLine
 10
110.0305701569
 20
190.5590085196
 30
0.0
 11
109.8741080631
 21
190.5590085196
 31
0.0
  0
LINE
  5
25A
330
1F
100
AcDbEntity
  8
0
  6
Continuous
 62
     7
370
    15
100
AcDbLine
 10
109.8741080631
 20
190.5590085196
 30
0.0
 11
109.8741080631
 21
190.5670085196
 31
0.0
  0
LINE
  5
25B
330
1F
100
AcDbEntity
  8
0
  6
Continuous
 62
     7
370
    15
100
AcDbLine
 10
110.0355222766
 20
190.405594306
 30
0.0
 11
110.0355222766
 21
190.397594306
 31
0.0
  0
LINE
  5
25C
330
1F
100
AcDbEntity
  8
0
  6
Continuous
 62
     7
370
    15
100
AcDbLine
 10
110.0355222766
 20
190.397594306
 30
0.0
 11
110.4341080631
 21
190.397594306
 31
0.0
  0
LINE
  5
25D
330
1F
100
AcDbEntity
  8
0
  6
Continuous
 62
     7
370
    15
100
AcDbLine
 10
110.4341080631
 20
190.397594306
 30
0.0
 11
115.521385374
 21
190.397594306
 31
0.0
  0
LINE
  5
25E
330
1F
100
AcDbEntity
  8
0
  6
Continuous
 62
     7
370
    15
100
AcDbLine
 10
122.0441080631
 20
190.405594306
 30
0.0
 11
122.0441080631
 21
190.397594306
 31
0.0
  0
LINE
  5
25F
330
1F
100
AcDbEntity
  8
0
  6
Continuous
 62
     7
370
    15
100
AcDbLine
 10
120.50216264
 20
190.397594306
 30
0.0
 11
122.0441080631
 21
190.397594306
 31
0.0
  0
LINE
  5
260
330
1F
100
AcDbEntity
  8
0
  6
Continuous
 62
     7
370
    15
100
AcDbLine
 10
122.3941080631
 20
94.4119854675
 30
0.0
 11
122.3941080631
 21
94.3990085196
 31
0.0
  0
LINE
  5
261
330
1F
100
AcDbEntity
  8
0
  6
Continuous
 62
     7
370
    15
100
AcDbLine
 10
122.3941080631
 20
94.3990085196
 30
0.0
 11
122.2341080631
 21
94.3990085196
 31
0.0
  0
LINE
  5
262
330
1F
100
AcDbEntity
  8
0
  6
Continuous
 62
     7
370
    15
100
AcDbLine
 10
122.2341080631
 20
94.4070085196
 30
0.0
 11
122.2341080631
 21
94.3990085196
 31
0.0
  0
LINE
  5
263
330
1F
100
AcDbEntity
  8
0
  6
Continuous
 62
     7
370
    15
100
AcDbLine
 10
271.131774007
 20
94.3990085196
 30
0.0
 11
271.291774007
 21
94.3990085196
 31
0.0
  0
LINE
  5
264
330
1F
100
AcDbEntity
  8
0
  6
Continuous
 62
     7
370
    15
100
AcDbLine
 10
271.291774007
 20
94.3990085196
 30
0.0
 11
271.291774007
 21
94.4070085196
 31
0.0
  0
LINE
  5
265
330
1F
100
AcDbEntity
  8
0
  6
Continuous
 62
     7
370
    15
100
AcDbLine
 10
271.131774007
 20
94.3990085196
 30
0.0
 11
271.131774007
 21
94.4147861174
 31
0.0
  0
LINE
  5
266
330
1F
100
AcDbEntity
  8
0
  6
Continuous
 62
     7
370
    15
100
AcDbLine
 10
270.731774007
 20
94.237594306
 30
0.0
 11
271.1303597934
 21
94.237594306
 31
0.0
  0
LINE
  5
267
330
1F
100
AcDbEntity
  8
0
  6
Continuous
 62
     7
370
    15
100
AcDbLine
 10
271.1303597934
 20
94.245594306
 30
0.0
 11
271.1303597934
 21
94.237594306
 31
0.0
  0
LINE
  5
268
330
1F
100
AcDbEntity
  8
0
  6
Continuous
 62
     7
370
    15
100
AcDbLine
 10
122.7941080631
 20
94.237594306
 30
0.0
 11
123.3077773279
 21
94.237594306
 31
0.0
  0
LINE
  5
269
330
1F
100
AcDbEntity
  8
0
  6
Continuous
 62
     7
370
    15
100
AcDbLine
 10
125.435770686
 20
94.237594306
 30
0.0
 11
131.3805926091
 21
94.237594306
 31
0.0
  0
LINE
  5
26A
330
1F
100
AcDbEntity
  8
0
  6
Continuous
 62
     7
370
    15
100
AcDbLine
 10
144.6029554048
 20
94.237594306
 30
0.0
 11
247.1805926091
 21
94.237594306
 31
0.0
  0
LINE
  5
26B
330
1F
100
AcDbEntity
  8
0
  6
Continuous
 62
     7
370
    15
100
AcDbLine
 10
260.4029554048
 20
94.237594306
 30
0.0
 11
267.0713876377
 21
94.237594306
 31
0.0
  0
LINE
  5
26C
330
1F
100
AcDbEntity
  8
0
  6
Continuous
 62
     7
370
    15
100
AcDbLine
 10
267.7033159961
 20
94.237594306
 30
0.0
 11
268.231774007
 21
94.237594306
 31
0.0
  0
LINE
  5
26D
330
1F
100
AcDbEntity
  8
0
  6
Continuous
 62
     7
370
    15
100
AcDbLine
 10
270.631774007
 20
94.237594306
 30
0.0
 11
270.731774007
 21
94.237594306
 31
0.0
  0
LINE
  5
26E
330
1F
100
AcDbEntity
  8
0
  6
Continuous
 62
     7
370
    15
100
AcDbLine
 10
122.3955222766
 20
94.245594306
 30
0.0
 11
122.3955222766
 21
94.237594306
 31
0.0
  0
LINE
  5
26F
330
1F
100
AcDbEntity
  8
0
  6
Continuous
 62
     7
370
    15
100
AcDbLine
 10
122.3955222766
 20
94.237594306
 30
0.0
 11
122.7941080631
 21
94.237594306
 31
0.0
  0
LINE
  5
270
330
1F
100
AcDbEntity
  8
0
  6
Continuous
 62
     7
370
    15
100
AcDbLine
 10
281.4303258953
 20
227.966313117
 30
0.0
 11
281.4301424603
 21
227.9667064946
 31
0.0
  0
LINE
  5
271
330
1F
100
AcDbEntity
  8
0
  6
Continuous
 62
     7
370
    15
100
AcDbLine
 10
281.4303258953
 20
227.966313117
 30
0.0
 11
281.5390828297
 21
228.0170273084
 31
0.0
  0
LINE
  5
272
330
1F
100
AcDbEntity
  8
0
  6
Continuous
 62
     7
370
    15
100
AcDbLine
 10
282.6991567971
 20
228.5579786834
 30
0.0
 11
282.6960926194
 21
228.5645498339
 31
0.0
  0
LINE
  5
273
330
1F
100
AcDbEntity
  8
0
  6
Continuous
 62
     7
370
    15
100
AcDbLine
 10
279.4865954495
 20
227.0599367247
 30
0.0
 11
279.4835312717
 21
227.0665078752
 31
0.0
  0
LINE
  5
274
330
1F
100
AcDbEntity
  8
0
  6
Continuous
 62
     7
370
    15
100
AcDbLine
 10
281.4299325177
 20
227.966129682
 30
0.0
 11
281.4303258953
 21
227.966313117
 31
0.0
  0
LINE
  5
275
330
1F
100
AcDbEntity
  8
0
  6
Continuous
 62
     7
370
    15
100
AcDbLine
 10
279.2910461403
 20
226.9687505843
 30
0.0
 11
279.2879819625
 21
226.9753217347
 31
0.0
  0
LINE
  5
276
330
1F
100
AcDbEntity
  8
0
  6
Continuous
 62
     7
370
    15
100
AcDbLine
 10
278.465305186
 20
226.5837012536
 30
0.0
 11
278.5388106771
 21
226.6179774271
 31
0.0
  0
LINE
  5
277
330
1F
100
AcDbEntity
  8
0
  6
Continuous
 62
     7
370
    15
100
AcDbLine
 10
110.0355222766
 20
239.6841800925
 30
0.0
 11
110.0355222766
 21
239.685594306
 31
0.0
  0
LINE
  5
278
330
1F
100
AcDbEntity
  8
0
  6
Continuous
 62
     7
370
    15
100
AcDbLine
 10
285.4150159805
 20
229.8324046191
 30
0.0
 11
285.4180801582
 21
229.8258334686
 31
0.0
  0
ARC
  5
279
330
1F
100
AcDbEntity
  8
0
  6
Continuous
 62
     7
370
    15
100
AcDbCircle
 10
284.5728436348
 20
231.6384490427
 30
0.0
 40
1.840000000000006
100
AcDbArc
 50
295.0
 51
335.0
  0
LINE
  5
27A
330
1F
100
AcDbEntity
  8
0
  6
Continuous
 62
     7
370
    15
100
AcDbLine
 10
286.2404499629
 20
230.8608314411
 30
0.0
 11
286.3854592088
 21
230.7932125192
 31
0.0
  0
LINE
  5
27B
330
1F
100
AcDbEntity
  8
0
  6
Continuous
 62
     7
370
    15
100
AcDbLine
 10
289.2761681191
 20
236.9923577826
 30
0.0
 11
289.2731039414
 21
236.9937866321
 31
0.0
  0
LINE
  5
27C
330
1F
100
AcDbEntity
  8
0
  6
Continuous
 62
     7
370
    15
100
AcDbLine
 10
286.2404499629
 20
230.8608314411
 30
0.0
 11
286.2435141407
 21
230.8674025916
 31
0.0
  0
ARC
  5
27D
330
1F
100
AcDbEntity
  8
0
  6
Continuous
 62
     7
370
    15
100
AcDbCircle
 10
287.4635525451
 20
237.837594306
 30
0.0
 40
1.83999999999989
100
AcDbArc
 50
335.0
 51
359.9736134891
  0
ARC
  5
27E
330
1F
100
AcDbEntity
  8
0
  6
Continuous
 62
     7
370
    15
100
AcDbCircle
 10
279.3835525451
 20
235.837594306
 30
0.0
 40
0.5399999999999769
100
AcDbArc
 50
90.0
 51
179.5756037177
  0
ARC
  5
27F
330
1F
100
AcDbEntity
  8
0
  6
Continuous
 62
     7
370
    15
100
AcDbCircle
 10
279.3835525451
 20
235.837594306
 30
0.0
 40
0.5399999999999822
100
AcDbArc
 50
0.4243956041
 51
90.0
  0
SPLINE
  5
280
330
1F
100
AcDbEntity
  8
0
  6
Continuous
 62
     7
370
    15
100
AcDbSpline
210
0.0
220
0.0
230
1.0
 70
     8
 71
     3
 72
    10
 73
     6
 74
     0
 42
0.00000001
 43
0.00000001
 12
1.0
 22
0.0
 32
0.0
 13
1.0
 23
0.0
 33
0.0
 40
0.0
 40
0.0
 40
0.0
 40
0.0
 40
0.3226677762449626
 40
0.673718046458485
 40
1.0
 40
1.0
 40
1.0
 40
1.0
 10
270.9564285383277
 20
94.61550083408223
 30
0.0
 10
270.9883794079497
 20
94.59221185775397
 30
0.0
 10
271.0550916086996
 20
94.54358536080873
 30
0.0
 10
271.119066653876
 20
94.47138937532002
 30
0.0
 10
271.1276427580434
 20
94.42254003952633
 30
0.0
 10
271.1317740069686
 20
94.39900851961191
 30
0.0
  0
SPLINE
  5
281
330
1F
100
AcDbEntity
  8
0
  6
Continuous
 62
     7
370
    15
100
AcDbSpline
210
0.0
220
0.0
230
1.0
 70
     8
 71
     3
 72
    11
 73
     7
 74
     0
 42
0.00000001
 43
0.00000001
 12
1.0
 22
0.0
 32
0.0
 13
1.0
 23
0.0
 33
0.0
 40
0.0
 40
0.0
 40
0.0
 40
0.0
 40
0.1827174076973005
 40
0.46170544347543
 40
0.7406947531450611
 40
1.0
 40
1.0
 40
1.0
 40
1.0
 10
122.4022479859403
 20
94.42517208395951
 30
0.0
 10
122.4057219492647
 20
94.44176699981477
 30
0.0
 10
122.4145002468421
 20
94.48370040441456
 30
0.0
 10
122.4804847712724
 20
94.55096838899458
 30
0.0
 10
122.5796130058137
 20
94.62521347087527
 30
0.0
 10
122.656884923146
 20
94.67406279281082
 30
0.0
 10
122.6941080630718
 20
94.69759430604954
 30
0.0
  0
SPLINE
  5
282
330
1F
100
AcDbEntity
  8
0
  6
Continuous
 62
     7
370
    15
100
AcDbSpline
210
0.0
220
0.0
230
1.0
 70
     8
 71
     3
 72
    10
 73
     6
 74
     0
 42
0.00000001
 43
0.00000001
 12
1.0
 22
0.0
 32
0.0
 13
1.0
 23
0.0
 33
0.0
 40
0.0
 40
0.0
 40
0.0
 40
0.0
 40
0.080918836266582
 40
0.7113313146655913
 40
1.0
 40
1.0
 40
1.0
 40
1.0
 10
271.183462916514
 20
190.5155943060486
 30
0.0
 10
271.1915171784078
 20
190.5085514750332
 30
0.0
 10
271.2623195893905
 20
190.4466402257341
 30
0.0
 10
271.3620838555832
 20
190.407434563362
 30
0.0
 10
271.4531664284419
 20
190.3999462617495
 30
0.0
 10
271.4817740069686
 20
190.3975943060495
 30
0.0
  0
LINE
  5
283
330
1F
100
AcDbEntity
  8
0
  6
Continuous
 62
     7
370
    15
100
AcDbLine
 10
122.0441080631
 20
190.397594306
 30
0.0
 11
122.1041825103
 21
190.4124995535
 31
0.0
  0
SPLINE
  5
284
330
1F
100
AcDbEntity
  8
0
  6
Continuous
 62
     7
370
    15
100
AcDbSpline
210
0.0
220
0.0
230
1.0
 70
     8
 71
     3
 72
    11
 73
     7
 74
     0
 42
0.00000001
 43
0.00000001
 12
1.0
 22
0.0
 32
0.0
 13
1.0
 23
0.0
 33
0.0
 40
0.0
 40
0.0
 40
0.0
 40
0.0
 40
0.2804579161945604
 40
0.5611630531846408
 40
0.8418694719066945
 40
1.0
 40
1.0
 40
1.0
 40
1.0
 10
122.6941080630718
 20
94.69759430604954
 30
0.0
 10
122.6687917631018
 20
94.65754451601994
 30
0.0
 10
122.6181368471013
 20
94.57740963247892
 30
0.0
 10
122.5421490907129
 20
94.47790708019623
 30
0.0
 10
122.4771792058156
 20
94.41642407425913
 30
0.0
 10
122.4375974982566
 20
94.40850630922166
 30
0.0
 10
122.4233346237093
 20
94.40565322135888
 30
0.0
  0
SPLINE
  5
285
330
1F
100
AcDbEntity
  8
0
  6
Continuous
 62
     7
370
    15
100
AcDbSpline
210
0.0
220
0.0
230
1.0
 70
     8
 71
     3
 72
    10
 73
     6
 74
     0
 42
0.00000001
 43
0.00000001
 12
1.0
 22
0.0
 32
0.0
 13
1.0
 23
0.0
 33
0.0
 40
0.0
 40
0.0
 40
0.0
 40
0.0
 40
0.2497964387561971
 40
0.6471659259769353
 40
1.0
 40
1.0
 40
1.0
 40
1.0
 10
271.1021967283135
 20
94.40635630707322
 30
0.0
 10
271.086268472283
 20
94.40977776143558
 30
0.0
 10
271.0450019729907
 20
94.4186419737984
 30
0.0
 10
270.9812361382288
 20
94.48007192388822
 30
0.0
 10
270.933398976963
 20
94.54631497867366
 30
0.0
 10
270.9109003094398
 20
94.57747026518939
 30
0.0
  0
LINE
  5
286
330
1F
100
AcDbEntity
  8
0
  6
Continuous
 62
     7
370
    15
100
AcDbLine
 10
285.2601835387
 20
191.6279767044
 30
0.0
 11
285.2520217584
 21
191.6104737103
 31
0.0
  0
LINE
  5
287
330
1F
100
AcDbEntity
  8
0
  6
Continuous
 62
     7
370
    15
100
AcDbLine
 10
285.2520217584
 20
191.6104737103
 30
0.0
 11
285.2519299013
 21
191.610516544
 31
0.0
  0
LINE
  5
288
330
1F
100
AcDbEntity
  8
0
  6
Continuous
 62
     7
370
    15
100
AcDbLine
 10
283.6118896278
 20
190.5656956592
 30
0.0
 11
283.6118896278
 21
190.565594306
 31
0.0
  0
LINE
  5
289
330
1F
100
AcDbEntity
  8
0
  6
Continuous
 62
     7
370
    15
100
AcDbLine
 10
283.5925772105
 20
190.565594306
 30
0.0
 11
283.6118896278
 21
190.565594306
 31
0.0
  0
LINE
  5
28A
330
1F
100
AcDbEntity
  8
0
  6
Continuous
 62
     7
370
    15
100
AcDbLine
 10
285.3504612364
 20
229.9788427146
 30
0.0
 11
285.4180801582
 21
229.8338334686
 31
0.0
  0
LINE
  5
28B
330
1F
100
AcDbEntity
  8
0
  6
Continuous
 62
     7
370
    15
100
AcDbLine
 10
285.4180801582
 20
229.8338334686
 30
0.0
 11
278.3394229639
 21
226.5330014095
 31
0.0
  0
SPLINE
  5
28C
330
1F
100
AcDbEntity
  8
0
  6
Continuous
 62
     7
370
    15
100
AcDbSpline
210
0.0
220
0.0
230
1.0
 70
     8
 71
     3
 72
    11
 73
     7
 74
     0
 42
0.00000001
 43
0.00000001
 12
1.0
 22
0.0
 32
0.0
 13
1.0
 23
0.0
 33
0.0
 40
0.0
 40
0.0
 40
0.0
 40
0.0
 40
0.2889759275643404
 40
0.5779517763247457
 40
0.8674414070446147
 40
1.0
 40
1.0
 40
1.0
 40
1.0
 10
278.3394229639259
 20
226.5330014094791
 30
0.0
 10
278.2787173820148
 20
226.514946332616
 30
0.0
 10
278.1573062347472
 20
226.4788361838136
 30
0.0
 10
277.927602639261
 20
226.5267134567478
 30
0.0
 10
277.7206910797208
 20
226.6050695125125
 30
0.0
 10
277.5953013952223
 20
226.6584387104026
 30
0.0
 10
277.5559185019513
 20
226.6752011213847
 30
0.0
  0
LINE
  5
28D
330
1F
100
AcDbEntity
  8
0
  6
Continuous
 62
     7
370
    15
100
AcDbLine
 10
278.2471647417
 20
226.2812715047
 30
0.0
 11
278.3213558017
 21
226.1221682632
 31
0.0
  0
LINE
  5
28E
330
1F
100
AcDbEntity
  8
0
  6
Continuous
 62
     7
370
    15
100
AcDbLine
 10
289.5242883049
 20
202.08940198
 30
0.0
 11
289.3823432368
 21
202.0232119077
 31
0.0
  0
SPLINE
  5
28F
330
1F
100
AcDbEntity
  8
0
  6
Continuous
 62
     7
370
    15
100
AcDbSpline
210
0.0
220
0.0
230
1.0
 70
     8
 71
     3
 72
    11
 73
     7
 74
     0
 42
0.00000001
 43
0.00000001
 12
1.0
 22
0.0
 32
0.0
 13
1.0
 23
0.0
 33
0.0
 40
0.0
 40
0.0
 40
0.0
 40
0.0
 40
0.2888077077192414
 40
0.5776153362194792
 40
0.8669345414319828
 40
0.9999999999999999
 40
0.9999999999999999
 40
0.9999999999999999
 40
0.9999999999999999
 10
277.5559185019513
 20
226.6752011213846
 30
0.0
 10
277.6454581069067
 20
226.6479593704134
 30
0.0
 10
277.8245372922573
 20
226.5934758759431
 30
0.0
 10
278.0539696100695
 20
226.4934740105204
 30
0.0
 10
278.1889471198159
 20
226.3862238644346
 30
0.0
 10
278.2332179367058
 20
226.3064142372241
 30
0.0
 10
278.2471647417293
 20
226.2812715046547
 30
0.0
  0
SPLINE
  5
290
330
1F
100
AcDbEntity
  8
0
  6
Continuous
 62
     7
370
    15
100
AcDbSpline
210
0.0
220
0.0
230
1.0
 70
     8
 71
     3
 72
    12
 73
     8
 74
     0
 42
0.00000001
 43
0.00000001
 12
1.0
 22
0.0
 32
0.0
 13
1.0
 23
0.0
 33
0.0
 40
0.0
 40
0.0
 40
0.0
 40
0.0
 40
0.2096821001529489
 40
0.4420453733185916
 40
0.6744332966681118
 40
0.9068208701180765
 40
0.9999999999999999
 40
0.9999999999999999
 40
0.9999999999999999
 40
0.9999999999999999
 10
110.3341080630727
 20
239.3855943060493
 30
0.0
 10
110.3132510214871
 20
239.4360604976444
 30
0.0
 10
110.2692808460298
 20
239.5424517751418
 30
0.0
 10
110.2020872200532
 20
239.6867280611048
 30
0.0
 10
110.1327061663699
 20
239.795399847902
 30
0.0
 10
110.0770308339232
 20
239.8411242159307
 30
0.0
 10
110.044758741679
 20
239.8445996236556
 30
0.0
 10
110.035522276635
 20
239.8455943060493
 30
0.0
  0
LINE
  5
291
330
1F
100
AcDbEntity
  8
0
  6
Continuous
 62
     7
370
    15
100
AcDbLine
 10
110.0355222766
 20
239.845594306
 30
0.0
 11
110.5972082285
 21
239.845594306
 31
0.0
  0
LINE
  5
292
330
1F
100
AcDbEntity
  8
0
  6
Continuous
 62
     7
370
    15
100
AcDbLine
 10
112.8635525451
 20
239.845594306
 30
0.0
 11
112.8835525448
 21
239.845594306
 31
0.0
  0
LINE
  5
293
330
1F
100
AcDbEntity
  8
0
  6
Continuous
 62
     7
370
    15
100
AcDbLine
 10
124.3835525451
 20
239.845594306
 30
0.0
 11
125.1972082285
 21
239.845594306
 31
0.0
  0
LINE
  5
294
330
1F
100
AcDbEntity
  8
0
  6
Continuous
 62
     7
370
    15
100
AcDbLine
 10
287.4635525451
 20
239.837594306
 30
0.0
 11
287.4635525451
 21
239.685594306
 31
0.0
  0
LINE
  5
295
330
1F
100
AcDbEntity
  8
0
  6
Continuous
 62
     7
370
    15
100
AcDbLine
 10
289.3823432368
 20
200.4679767044
 30
0.0
 11
289.5214132221
 21
200.4031273053
 31
0.0
  0
LINE
  5
296
330
1F
100
AcDbEntity
  8
0
  6
Continuous
 62
     7
370
    15
100
AcDbLine
 10
285.3992532571
 20
191.5631274297
 30
0.0
 11
285.2601835387
 21
191.6279767044
 31
0.0
  0
SPLINE
  5
297
330
1F
100
AcDbEntity
  8
0
  6
Continuous
 62
     7
370
    15
100
AcDbSpline
210
0.0
220
0.0
230
1.0
 70
     8
 71
     3
 72
    12
 73
     8
 74
     0
 42
0.00000001
 43
0.00000001
 12
1.0
 22
0.0
 32
0.0
 13
1.0
 23
0.0
 33
0.0
 40
0.0
 40
0.0
 40
0.0
 40
0.0
 40
0.2096821001528717
 40
0.4420453733186016
 40
0.6744332966681297
 40
0.9068208701180783
 40
1.0
 40
1.0
 40
1.0
 40
1.0
 10
270.8317740069688
 20
94.70559430604932
 30
0.0
 10
270.8526310485543
 20
94.65512811445426
 30
0.0
 10
270.8966012240116
 20
94.54873683695682
 30
0.0
 10
270.9637948499882
 20
94.40446055099385
 30
0.0
 10
271.0331759036716
 20
94.29578876419659
 30
0.0
 10
271.0888512361182
 20
94.2500643961679
 30
0.0
 10
271.1211233283624
 20
94.24658898844304
 30
0.0
 10
271.1303597934064
 20
94.24559430604931
 30
0.0
  0
LINE
  5
298
330
1F
100
AcDbEntity
  8
0
  6
Continuous
 62
     7
370
    15
100
AcDbLine
 10
271.1303597934
 20
94.245594306
 30
0.0
 11
122.3955222766
 21
94.245594306
 31
0.0
  0
SPLINE
  5
299
330
1F
100
AcDbEntity
  8
0
  6
Continuous
 62
     7
370
    15
100
AcDbSpline
210
0.0
220
0.0
230
1.0
 70
     8
 71
     3
 72
    12
 73
     8
 74
     0
 42
0.00000001
 43
0.00000001
 12
1.0
 22
0.0
 32
0.0
 13
1.0
 23
0.0
 33
0.0
 40
0.0
 40
0.0
 40
0.0
 40
0.0
 40
0.2096821001528681
 40
0.4420453733185881
 40
0.6744332966681134
 40
0.9068208701180428
 40
1.0
 40
1.0
 40
1.0
 40
1.0
 10
122.3955222766342
 20
94.24559430604931
 30
0.0
 10
122.4163793182197
 20
94.25046230008302
 30
0.0
 10
122.4603494936771
 20
94.2607248558204
 30
0.0
 10
122.5275431196537
 20
94.34491097320615
 30
0.0
 10
122.596924173337
 20
94.47526886878524
 30
0.0
 10
122.6525995057836
 20
94.60515707660575
 30
0.0
 10
122.6848715980279
 20
94.68324506002702
 30
0.0
 10
122.6941080630719
 20
94.70559430604932
 30
0.0
  0
LINE
  5
29A
330
1F
100
AcDbEntity
  8
0
  6
Continuous
 62
     7
370
    15
100
AcDbLine
 10
289.1311588732
 20
237.0679767044
 30
0.0
 11
289.2761681191
 21
237.0003577826
 31
0.0
  0
LINE
  5
29B
330
1F
100
AcDbEntity
  8
0
  6
Continuous
 62
     7
370
    15
100
AcDbLine
 10
286.3854592088
 20
230.8012125192
 30
0.0
 11
289.2761681191
 21
237.0003577826
 31
0.0
  0
LINE
  5
29C
330
1F
100
AcDbEntity
  8
0
  6
Continuous
 62
     7
370
    15
100
AcDbLine
 10
286.3854592088
 20
230.8012125192
 30
0.0
 11
286.2404499629
 21
230.8688314411
 31
0.0
  0
SPLINE
  5
29D
330
1F
100
AcDbEntity
  8
0
  6
Continuous
 62
     7
370
    15
100
AcDbSpline
210
0.0
220
0.0
230
1.0
 70
     8
 71
     3
 72
    12
 73
     8
 74
     0
 42
0.00000001
 43
0.00000001
 12
1.0
 22
0.0
 32
0.0
 13
1.0
 23
0.0
 33
0.0
 40
0.0
 40
0.0
 40
0.0
 40
0.0
 40
0.2096821001528834
 40
0.4420453733186028
 40
0.6744332966681599
 40
0.9068208701180835
 40
1.0
 40
1.0
 40
1.0
 40
1.0
 10
110.3341080630726
 20
190.8655943060492
 30
0.0
 10
110.2836418714775
 20
190.8447372644637
 30
0.0
 10
110.1772505939801
 20
190.8007670890064
 30
0.0
 10
110.0329743080173
 20
190.7335734630297
 30
0.0
 10
109.9243025212198
 20
190.6641924093465
 30
0.0
 10
109.8785781531912
 20
190.6085170768998
 30
0.0
 10
109.8751027454664
 20
190.5762449846555
 30
0.0
 10
109.8741080630727
 20
190.5670085196116
 30
0.0
  0
LINE
  5
29E
330
1F
100
AcDbEntity
  8
0
  6
Continuous
 62
     7
370
    15
100
AcDbLine
 10
109.8741080631
 20
239.6841800925
 30
0.0
 11
109.8741080631
 21
190.5670085196
 31
0.0
  0
SPLINE
  5
29F
330
1F
100
AcDbEntity
  8
0
  6
Continuous
 62
     7
370
    15
100
AcDbSpline
210
0.0
220
0.0
230
1.0
 70
     8
 71
     3
 72
    12
 73
     8
 74
     0
 42
0.00000001
 43
0.00000001
 12
1.0
 22
0.0
 32
0.0
 13
1.0
 23
0.0
 33
0.0
 40
0.0
 40
0.0
 40
0.0
 40
0.0
 40
0.2096821001528869
 40
0.4420453733186075
 40
0.674433296668122
 40
0.9068208701180779
 40
1.0
 40
1.0
 40
1.0
 40
1.0
 10
109.8741080630727
 20
239.684180092487
 30
0.0
 10
109.8789760571064
 20
239.6633230509015
 30
0.0
 10
109.8892386128438
 20
239.6193528754441
 30
0.0
 10
109.9734247302295
 20
239.5521592494675
 30
0.0
 10
110.1037826258086
 20
239.4827781957842
 30
0.0
 10
110.2336708336291
 20
239.4271028633376
 30
0.0
 10
110.3117588170504
 20
239.3948307710933
 30
0.0
 10
110.3341080630727
 20
239.3855943060493
 30
0.0
  0
SPLINE
  5
2A0
330
1F
100
AcDbEntity
  8
0
  6
Continuous
 62
     7
370
    15
100
AcDbSpline
210
0.0
220
0.0
230
1.0
 70
     8
 71
     3
 72
    12
 73
     8
 74
     0
 42
0.00000001
 43
0.00000001
 12
1.0
 22
0.0
 32
0.0
 13
1.0
 23
0.0
 33
0.0
 40
0.0
 40
0.0
 40
0.0
 40
0.0
 40
0.2096821001528794
 40
0.4420453733186199
 40
0.6744332966681302
 40
0.9068208701180582
 40
0.9999999999999999
 40
0.9999999999999999
 40
0.9999999999999999
 40
0.9999999999999999
 10
110.035522276635
 20
190.4055943060492
 30
0.0
 10
110.0563793182205
 20
190.4104623000829
 30
0.0
 10
110.1003494936779
 20
190.4207248558203
 30
0.0
 10
110.1675431196544
 20
190.5049109732061
 30
0.0
 10
110.2369241733379
 20
190.6352688687851
 30
0.0
 10
110.2925995057843
 20
190.7651570766057
 30
0.0
 10
110.3248715980287
 20
190.8432450600269
 30
0.0
 10
110.3341080630727
 20
190.8655943060492
 30
0.0
  0
LINE
  5
2A1
330
1F
100
AcDbEntity
  8
0
  6
Continuous
 62
     7
370
    15
100
AcDbLine
 10
110.0355222766
 20
190.405594306
 30
0.0
 11
110.0355222766
 21
190.565594306
 31
0.0
  0
SPLINE
  5
2A2
330
1F
100
AcDbEntity
  8
0
  6
Continuous
 62
     7
370
    15
100
AcDbSpline
210
0.0
220
0.0
230
1.0
 70
     8
 71
     3
 72
    11
 73
     7
 74
     0
 42
0.00000001
 43
0.00000001
 12
1.0
 22
0.0
 32
0.0
 13
1.0
 23
0.0
 33
0.0
 40
0.0
 40
0.0
 40
0.0
 40
0.0
 40
0.2543211584721228
 40
0.5088664984542184
 40
0.7634130007196819
 40
1.0
 40
1.0
 40
1.0
 40
1.0
 10
110.035522276635
 20
190.5655943060492
 30
0.0
 10
110.0608384981921
 20
190.570265118453
 30
0.0
 10
110.1114932572977
 20
190.5796108605342
 30
0.0
 10
110.1874821911947
 20
190.6513883837733
 30
0.0
 10
110.2617272175288
 20
190.7512329796311
 30
0.0
 10
110.3105765464627
 20
190.8284146429502
 30
0.0
 10
110.3341080630727
 20
190.8655943060492
 30
0.0
  0
LINE
  5
2A3
330
1F
100
AcDbEntity
  8
0
  6
Continuous
 62
     7
370
    15
100
AcDbLine
 10
109.8741080631
 20
239.6841800925
 30
0.0
 11
110.0341080631
 21
239.6841800925
 31
0.0
  0
SPLINE
  5
2A4
330
1F
100
AcDbEntity
  8
0
  6
Continuous
 62
     7
370
    15
100
AcDbSpline
210
0.0
220
0.0
230
1.0
 70
     8
 71
     3
 72
    11
 73
     7
 74
     0
 42
0.00000001
 43
0.00000001
 12
1.0
 22
0.0
 32
0.0
 13
1.0
 23
0.0
 33
0.0
 40
0.0
 40
0.0
 40
0.0
 40
0.0
 40
0.2543211584721349
 40
0.508866498454318
 40
0.7634130007197899
 40
1.0
 40
1.0
 40
1.0
 40
1.0
 10
110.0341080630727
 20
239.684180092487
 30
0.0
 10
110.0387788754765
 20
239.6588638709298
 30
0.0
 10
110.0481246175576
 20
239.6082091118243
 30
0.0
 10
110.1199021407967
 20
239.5322201779273
 30
0.0
 10
110.2197467366546
 20
239.457975151593
 30
0.0
 10
110.2969283999736
 20
239.4091258226593
 30
0.0
 10
110.3341080630727
 20
239.3855943060493
 30
0.0
  0
SPLINE
  5
2A5
330
1F
100
AcDbEntity
  8
0
  6
Continuous
 62
     7
370
    15
100
AcDbSpline
210
0.0
220
0.0
230
1.0
 70
     8
 71
     3
 72
    11
 73
     7
 74
     0
 42
0.00000001
 43
0.00000001
 12
1.0
 22
0.0
 32
0.0
 13
1.0
 23
0.0
 33
0.0
 40
0.0
 40
0.0
 40
0.0
 40
0.0
 40
0.2543211584721168
 40
0.5088664984542083
 40
0.7634130007197243
 40
1.0
 40
1.0
 40
1.0
 40
1.0
 10
270.8317740069688
 20
94.70559430604932
 30
0.0
 10
270.8570902285258
 20
94.66559926802145
 30
0.0
 10
270.9077449876314
 20
94.58557393674722
 30
0.0
 10
270.9837339215285
 20
94.48524918592811
 30
0.0
 10
271.0579789478626
 20
94.41803613655637
 30
0.0
 10
271.1068282767965
 20
94.4096392317342
 30
0.0
 10
271.1303597934064
 20
94.40559430604931
 30
0.0
  0
LINE
  5
2A6
330
1F
100
AcDbEntity
  8
0
  6
Continuous
 62
     7
370
    15
100
AcDbLine
 10
271.1303597934
 20
94.245594306
 30
0.0
 11
271.1303597934
 21
94.405594306
 31
0.0
  0
LINE
  5
2A7
330
1F
100
AcDbEntity
  8
0
  6
Continuous
 62
     7
370
    15
100
AcDbLine
 10
122.3955222766
 20
94.245594306
 30
0.0
 11
122.3955222766
 21
94.405594306
 31
0.0
  0
SPLINE
  5
2A8
330
1F
100
AcDbEntity
  8
0
  6
Continuous
 62
     7
370
    15
100
AcDbSpline
210
0.0
220
0.0
230
1.0
 70
     8
 71
     3
 72
    11
 73
     7
 74
     0
 42
0.00000001
 43
0.00000001
 12
1.0
 22
0.0
 32
0.0
 13
1.0
 23
0.0
 33
0.0
 40
0.0
 40
0.0
 40
0.0
 40
0.0
 40
0.2543211584721621
 40
0.5088664984542495
 40
0.7634130007196872
 40
1.0
 40
1.0
 40
1.0
 40
1.0
 10
122.3955222766342
 20
94.40559430604931
 30
0.0
 10
122.4208384981913
 20
94.41026511845313
 30
0.0
 10
122.4714932572969
 20
94.41961086053429
 30
0.0
 10
122.5474821911939
 20
94.49138838377336
 30
0.0
 10
122.6217272175281
 20
94.59123297963124
 30
0.0
 10
122.6705765464619
 20
94.66841464295028
 30
0.0
 10
122.6941080630719
 20
94.70559430604932
 30
0.0
  0
SPLINE
  5
2A9
330
1F
100
AcDbEntity
  8
0
  6
Continuous
 62
     7
370
    15
100
AcDbSpline
210
0.0
220
0.0
230
1.0
 70
     8
 71
     3
 72
    11
 73
     7
 74
     0
 42
0.00000001
 43
0.00000001
 12
1.0
 22
0.0
 32
0.0
 13
1.0
 23
0.0
 33
0.0
 40
0.0
 40
0.0
 40
0.0
 40
0.0
 40
0.2543211584721745
 40
0.5088664984542834
 40
0.7634130007197621
 40
1.0
 40
1.0
 40
1.0
 40
1.0
 10
110.3341080630727
 20
190.8655943060492
 30
0.0
 10
110.2941130250448
 20
190.8402780844921
 30
0.0
 10
110.2140876937705
 20
190.7896233253866
 30
0.0
 10
110.1137629429514
 20
190.7136343914895
 30
0.0
 10
110.0465498935797
 20
190.6393893651553
 30
0.0
 10
110.0381529887575
 20
190.5905400362215
 30
0.0
 10
110.0341080630727
 20
190.5670085196116
 30
0.0
  0
LINE
  5
2AA
330
1F
100
AcDbEntity
  8
0
  6
Continuous
 62
     7
370
    15
100
AcDbLine
 10
109.8741080631
 20
190.5670085196
 30
0.0
 11
110.0341080631
 21
190.5670085196
 31
0.0
  0
CIRCLE
  5
2AB
330
1F
100
AcDbEntity
  8
0
  6
Continuous
 62
     7
370
    15
100
AcDbCircle
 10
203.3835525451
 20
235.845594306
 30
0.0
 40
1.269532621074319
  0
SPLINE
  5
2AC
330
1F
100
AcDbEntity
  8
0
  6
Continuous
 62
     7
370
    15
100
AcDbSpline
210
0.0
220
0.0
230
1.0
 70
     8
 71
     3
 72
    12
 73
     8
 74
     0
 42
0.00000001
 43
0.00000001
 12
1.0
 22
0.0
 32
0.0
 13
1.0
 23
0.0
 33
0.0
 40
0.0
 40
0.0
 40
0.0
 40
0.0
 40
0.2096821001529035
 40
0.4420453733186216
 40
0.6744332966681691
 40
0.9068208701180693
 40
1.0
 40
1.0
 40
1.0
 40
1.0
 10
122.6941080630719
 20
94.7055943060493
 30
0.0
 10
122.6436418714768
 20
94.6847372644638
 30
0.0
 10
122.5372505939793
 20
94.64076708900645
 30
0.0
 10
122.3929743080164
 20
94.57357346302986
 30
0.0
 10
122.284302521219
 20
94.50419240934652
 30
0.0
 10
122.2385781531905
 20
94.44851707689995
 30
0.0
 10
122.2351027454656
 20
94.41624498465562
 30
0.0
 10
122.2341080630719
 20
94.40700851961168
 30
0.0
  0
SPLINE
  5
2AD
330
1F
100
AcDbEntity
  8
0
  6
Continuous
 62
     7
370
    15
100
AcDbSpline
210
0.0
220
0.0
230
1.0
 70
     8
 71
     3
 72
    11
 73
     7
 74
     0
 42
0.00000001
 43
0.00000001
 12
1.0
 22
0.0
 32
0.0
 13
1.0
 23
0.0
 33
0.0
 40
0.0
 40
0.0
 40
0.0
 40
0.0
 40
0.2543211584722105
 40
0.5088664984542715
 40
0.7634130007198021
 40
0.9999999999999999
 40
0.9999999999999999
 40
0.9999999999999999
 40
0.9999999999999999
 10
122.6941080630719
 20
94.7055943060493
 30
0.0
 10
122.654113025044
 20
94.68027808449222
 30
0.0
 10
122.5740876937698
 20
94.62962332538669
 30
0.0
 10
122.4737629429506
 20
94.5536343914896
 30
0.0
 10
122.406549893579
 20
94.4793893651554
 30
0.0
 10
122.3981529887567
 20
94.43054003622159
 30
0.0
 10
122.3941080630719
 20
94.40700851961168
 30
0.0
  0
LINE
  5
2AE
330
1F
100
AcDbEntity
  8
0
  6
Continuous
 62
     7
370
    15
100
AcDbLine
 10
122.2341080631
 20
94.4070085196
 30
0.0
 11
122.3941080631
 21
94.4070085196
 31
0.0
  0
SPLINE
  5
2AF
330
1F
100
AcDbEntity
  8
0
  6
Continuous
 62
     7
370
    15
100
AcDbSpline
210
0.0
220
0.0
230
1.0
 70
     8
 71
     3
 72
    11
 73
     7
 74
     0
 42
0.00000001
 43
0.00000001
 12
1.0
 22
0.0
 32
0.0
 13
1.0
 23
0.0
 33
0.0
 40
0.0
 40
0.0
 40
0.0
 40
0.0
 40
0.2889759275644302
 40
0.5779517763249518
 40
0.8674414070449287
 40
1.0
 40
1.0
 40
1.0
 40
1.0
 10
270.8317740069688
 20
190.8655943060492
 30
0.0
 10
270.9014519100031
 20
190.8029459592472
 30
0.0
 10
271.0408076970705
 20
190.6776492827274
 30
0.0
 10
271.2065317952898
 20
190.4897009352921
 30
0.0
 10
271.2834088362535
 20
190.3352900777372
 30
0.0
 10
271.2897746170828
 20
190.244203227905
 30
0.0
 10
271.2917740069688
 20
190.2155943060493
 30
0.0
  0
LINE
  5
2B0
330
1F
100
AcDbEntity
  8
0
  6
Continuous
 62
     7
370
    15
100
AcDbLine
 10
271.291774007
 20
94.4070085196
 30
0.0
 11
271.291774007
 21
190.215594306
 31
0.0
  0
SPLINE
  5
2B1
330
1F
100
AcDbEntity
  8
0
  6
Continuous
 62
     7
370
    15
100
AcDbSpline
210
0.0
220
0.0
230
1.0
 70
     8
 71
     3
 72
    12
 73
     8
 74
     0
 42
0.00000001
 43
0.00000001
 12
1.0
 22
0.0
 32
0.0
 13
1.0
 23
0.0
 33
0.0
 40
0.0
 40
0.0
 40
0.0
 40
0.0
 40
0.209682100152865
 40
0.4420453733185837
 40
0.674433296668114
 40
0.9068208701180468
 40
1.0
 40
1.0
 40
1.0
 40
1.0
 10
271.2917740069688
 20
94.40700851961168
 30
0.0
 10
271.286906012935
 20
94.4278655611972
 30
0.0
 10
271.2766434571977
 20
94.47183573665453
 30
0.0
 10
271.1924573398119
 20
94.53902936263114
 30
0.0
 10
271.0620994442328
 20
94.60841041631447
 30
0.0
 10
270.9322112364123
 20
94.66408574876104
 30
0.0
 10
270.8541232529911
 20
94.69635784100538
 30
0.0
 10
270.8317740069688
 20
94.70559430604932
 30
0.0
  0
CIRCLE
  5
2B2
330
1F
100
AcDbEntity
  8
0
  6
Continuous
 62
     7
370
    15
100
AcDbCircle
 10
125.3835525451
 20
235.845594306
 30
0.0
 40
1.269532621074319
  0
CIRCLE
  5
2B3
330
1F
100
AcDbEntity
  8
0
  6
Continuous
 62
     7
370
    15
100
AcDbCircle
 10
279.3835525451
 20
235.845594306
 30
0.0
 40
1.269532621074319
  0
LINE
  5
2B4
330
1F
100
AcDbEntity
  8
0
  6
Continuous
 62
     7
370
    15
100
AcDbLine
 10
286.2404499629
 20
230.8688314411
 30
0.0
 11
285.9685576268
 21
230.9956169196
 31
0.0
  0
LINE
  5
2B5
330
1F
100
AcDbEntity
  8
0
  6
Continuous
 62
     7
370
    15
100
AcDbLine
 10
289.1104509006
 20
200.594762183
 30
0.0
 11
289.3823432368
 21
200.4679767044
 31
0.0
  0
LINE
  5
2B6
330
1F
100
AcDbEntity
  8
0
  6
Continuous
 62
     7
370
    15
100
AcDbLine
 10
287.4635525451
 20
239.685594306
 30
0.0
 11
287.4635525451
 21
239.385594306
 31
0.0
  0
ARC
  5
2B7
330
1F
100
AcDbEntity
  8
0
  6
Continuous
 62
     7
370
    15
100
AcDbCircle
 10
287.4635525451
 20
237.845594306
 30
0.0
 40
1.839999999999918
100
AcDbArc
 50
335.0
 51
90.0
  0
LINE
  5
2B8
330
1F
100
AcDbEntity
  8
0
  6
Continuous
 62
     7
370
    15
100
AcDbLine
 10
288.8592665371
 20
237.194762183
 30
0.0
 11
289.1311588732
 21
237.0679767044
 31
0.0
  0
ARC
  5
2B9
330
1F
100
AcDbEntity
  8
0
  6
Continuous
 62
     7
370
    15
100
AcDbCircle
 10
283.5925772105
 20
192.405594306
 30
0.0
 40
1.840000000000032
100
AcDbArc
 50
270.0
 51
335.0
  0
LINE
  5
2BA
330
1F
100
AcDbEntity
  8
0
  6
Continuous
 62
     7
370
    15
100
AcDbLine
 10
285.2601835387
 20
191.6279767044
 30
0.0
 11
284.9882912026
 21
191.754762183
 31
0.0
  0
LINE
  5
2BB
330
1F
100
AcDbEntity
  8
0
  6
Continuous
 62
     7
370
    15
100
AcDbLine
 10
289.3823432368
 20
202.0232119077
 30
0.0
 11
289.1104509006
 21
201.8964264291
 31
0.0
  0
ARC
  5
2BC
330
1F
100
AcDbEntity
  8
0
  6
Continuous
 62
     7
370
    15
100
AcDbCircle
 10
287.7147369086
 20
201.245594306
 30
0.0
 40
1.84000000000002
100
AcDbArc
 50
335.0
 51
25.0
  0
LINE
  5
2BD
330
1F
100
AcDbEntity
  8
0
  6
Continuous
 62
     7
370
    15
100
AcDbLine
 10
283.5925772105
 20
190.865594306
 30
0.0
 11
283.5925772105
 21
190.565594306
 31
0.0
  0
ARC
  5
2BE
330
1F
100
AcDbEntity
  8
0
  6
Continuous
 62
     7
370
    15
100
AcDbCircle
 10
284.5728436348
 20
231.6464490427
 30
0.0
 40
1.840000000000032
100
AcDbArc
 50
295.0
 51
335.0
  0
LINE
  5
2BF
330
1F
100
AcDbEntity
  8
0
  6
Continuous
 62
     7
370
    15
100
AcDbLine
 10
285.2236757578
 20
230.2507350507
 30
0.0
 11
285.3504612364
 21
229.9788427146
 31
0.0
  0
LINE
  5
2C0
330
1F
100
AcDbEntity
  8
0
  6
Continuous
 62
     7
370
    15
100
AcDbLine
 10
283.5925772105
 20
190.565594306
 30
0.0
 11
283.5925772105
 21
190.4093549693
 31
0.0
  0
SPLINE
  5
2C1
330
1F
100
AcDbEntity
  8
0
  6
Continuous
 62
     7
370
    15
100
AcDbSpline
210
0.0
220
0.0
230
1.0
 70
     8
 71
     3
 72
    11
 73
     7
 74
     0
 42
0.00000001
 43
0.00000001
 12
1.0
 22
0.0
 32
0.0
 13
1.0
 23
0.0
 33
0.0
 40
0.0
 40
0.0
 40
0.0
 40
0.0
 40
0.2419730462520116
 40
0.566749055475064
 40
0.8922466481300474
 40
1.0
 40
1.0
 40
1.0
 40
1.0
 10
271.4817740069686
 20
190.4183822239812
 30
0.0
 10
271.4293175258587
 20
190.4265315813545
 30
0.0
 10
271.3064540020776
 20
190.4456189990051
 30
0.0
 10
271.1131672341859
 20
190.5872682848331
 30
0.0
 10
270.9484824712902
 20
190.7456198181772
 30
0.0
 10
270.8550191610387
 20
190.8416986488553
 30
0.0
 10
270.8317740069688
 20
190.8655943060493
 30
0.0
  0
SPLINE
  5
2C2
330
1F
100
AcDbEntity
  8
0
  6
Continuous
 62
     7
370
    15
100
AcDbSpline
210
0.0
220
0.0
230
1.0
 70
     8
 71
     3
 72
    11
 73
     7
 74
     0
 42
0.00000001
 43
0.00000001
 12
1.0
 22
0.0
 32
0.0
 13
1.0
 23
0.0
 33
0.0
 40
0.0
 40
0.0
 40
0.0
 40
0.0
 40
0.2543211584721664
 40
0.5088664984542753
 40
0.7634130007198038
 40
1.0
 40
1.0
 40
1.0
 40
1.0
 10
110.3341080630727
 20
239.3855943060493
 30
0.0
 10
110.3087918415156
 20
239.4255893440771
 30
0.0
 10
110.25813708241
 20
239.5056146753514
 30
0.0
 10
110.182148148513
 20
239.6059394261705
 30
0.0
 10
110.1079031221787
 20
239.6731524755423
 30
0.0
 10
110.059053793245
 20
239.6815493803644
 30
0.0
 10
110.035522276635
 20
239.6855943060493
 30
0.0
  0
LINE
  5
2C3
330
1F
100
AcDbEntity
  8
0
  6
Continuous
 62
     7
370
    15
100
AcDbLine
 10
110.0355222766
 20
239.845594306
 30
0.0
 11
110.0355222766
 21
239.685594306
 31
0.0
  0
LINE
  5
2C4
330
1F
100
AcDbEntity
  8
0
  6
Continuous
 62
     7
370
    15
100
AcDbLine
 10
122.2341080631
 20
190.215594306
 30
0.0
 11
122.2341080631
 21
94.4070085196
 31
0.0
  0
SPLINE
  5
2C5
330
1F
100
AcDbEntity
  8
0
  6
Continuous
 62
     7
370
    15
100
AcDbSpline
210
0.0
220
0.0
230
1.0
 70
     8
 71
     3
 72
    11
 73
     7
 74
     0
 42
0.00000001
 43
0.00000001
 12
1.0
 22
0.0
 32
0.0
 13
1.0
 23
0.0
 33
0.0
 40
0.0
 40
0.0
 40
0.0
 40
0.0
 40
0.2889759275644727
 40
0.5779517763250405
 40
0.867441407044975
 40
1.0
 40
1.0
 40
1.0
 40
1.0
 10
122.2341080630719
 20
190.2155943060492
 30
0.0
 10
122.2433998938205
 20
190.2782426528512
 30
0.0
 10
122.261983552784
 20
190.4035393293711
 30
0.0
 10
122.4024520323064
 20
190.5914876768064
 30
0.0
 10
122.5609113394343
 20
190.7458985343613
 30
0.0
 10
122.6622722295729
 20
190.8369853841935
 30
0.0
 10
122.6941080630719
 20
190.8655943060492
 30
0.0
  0
SPLINE
  5
2C6
330
1F
100
AcDbEntity
  8
0
  6
Continuous
 62
     7
370
    15
100
AcDbSpline
210
0.0
220
0.0
230
1.0
 70
     8
 71
     3
 72
    11
 73
     7
 74
     0
 42
0.00000001
 43
0.00000001
 12
1.0
 22
0.0
 32
0.0
 13
1.0
 23
0.0
 33
0.0
 40
0.0
 40
0.0
 40
0.0
 40
0.0
 40
0.2889759275644331
 40
0.577951776324948
 40
0.867441407044932
 40
1.0
 40
1.0
 40
1.0
 40
1.0
 10
122.6941080630719
 20
190.8655943060492
 30
0.0
 10
122.6314597162699
 20
190.7959164030149
 30
0.0
 10
122.50616303975
 20
190.6565606159475
 30
0.0
 10
122.3182146923148
 20
190.490836517728
 30
0.0
 10
122.1638038347598
 20
190.4139594767645
 30
0.0
 10
122.0727169849276
 20
190.4075936959352
 30
0.0
 10
122.0441080630719
 20
190.4055943060492
 30
0.0
  0
LINE
  5
2C7
330
1F
100
AcDbEntity
  8
0
  6
Continuous
 62
     7
370
    15
100
AcDbLine
 10
110.0355222766
 20
190.405594306
 30
0.0
 11
122.0441080631
 21
190.405594306
 31
0.0
  0
LINE
  5
2C8
330
1F
100
AcDbEntity
  8
0
  6
Continuous
 62
     7
370
    15
100
AcDbLine
 10
271.291774007
 20
94.4070085196
 30
0.0
 11
271.131774007
 21
94.4070085196
 31
0.0
  0
SPLINE
  5
2C9
330
1F
100
AcDbEntity
  8
0
  6
Continuous
 62
     7
370
    15
100
AcDbSpline
210
0.0
220
0.0
230
1.0
 70
     8
 71
     3
 72
    11
 73
     7
 74
     0
 42
0.00000001
 43
0.00000001
 12
1.0
 22
0.0
 32
0.0
 13
1.0
 23
0.0
 33
0.0
 40
0.0
 40
0.0
 40
0.0
 40
0.0
 40
0.2543211584721246
 40
0.508866498454234
 40
0.7634130007197268
 40
1.0
 40
1.0
 40
1.0
 40
1.0
 10
271.1317740069687
 20
94.40700851961168
 30
0.0
 10
271.1271031945649
 20
94.43232474116877
 30
0.0
 10
271.1177574524838
 20
94.48297950027431
 30
0.0
 10
271.0459799292447
 20
94.55896843417139
 30
0.0
 10
270.9461353333868
 20
94.63321346050557
 30
0.0
 10
270.8689536700678
 20
94.68206278943939
 30
0.0
 10
270.8317740069688
 20
94.70559430604932
 30
0.0
  0
CIRCLE
  5
2CA
330
1F
100
AcDbEntity
  8
0
  6
Continuous
 62
     7
370
    15
100
AcDbCircle
 10
279.3835525451
 20
235.845594306
 30
0.0
 40
0.5400000000000489
  0
CIRCLE
  5
2CB
330
1F
100
AcDbEntity
  8
0
  6
Continuous
 62
     7
370
    15
100
AcDbCircle
 10
203.3835525451
 20
235.845594306
 30
0.0
 40
0.5400000000000489
  0
CIRCLE
  5
2CC
330
1F
100
AcDbEntity
  8
0
  6
Continuous
 62
     7
370
    15
100
AcDbCircle
 10
125.3835525451
 20
235.845594306
 30
0.0
 40
0.5400000000000205
  0
LWPOLYLINE
  5
2CD
330
1F
100
AcDbEntity
  8
0
  6
Continuous
 62
     7
370
    15
100
AcDbPolyline
 90
        3
 70
   128
 43
0.0
 10
122.3292549086
 20
190.4722390675
 10
122.3239060413
 20
190.4777263404
 10
122.3020302887
 20
190.4975480671
  0
LINE
  5
2CE
330
1F
100
AcDbEntity
  8
0
  6
Continuous
 62
     7
370
    15
100
AcDbLine
 10
271.131774007
 20
190.5830305449
 30
0.0
 11
271.131774007
 21
190.5629635525
 31
0.0
  0
LINE
  5
2CF
330
1F
100
AcDbEntity
  8
0
  6
Continuous
 62
     7
370
    15
100
AcDbLine
 10
271.391774007
 20
99.1129148141
 30
0.0
 11
271.391774007
 21
97.4129148141
 31
0.0
  0
LINE
  5
2D0
330
1F
100
AcDbEntity
  8
0
  6
Continuous
 62
     7
370
    15
100
AcDbLine
 10
271.391774007
 20
102.4921522048
 30
0.0
 11
271.391774007
 21
102.378273798
 31
0.0
  0
LINE
  5
2D1
330
1F
100
AcDbEntity
  8
0
  6
Continuous
 62
     7
370
    15
100
AcDbLine
 10
271.391774007
 20
104.078273798
 30
0.0
 11
271.391774007
 21
102.4921522048
 31
0.0
  0
LINE
  5
2D2
330
1F
100
AcDbEntity
  8
0
  6
Continuous
 62
     7
370
    15
100
AcDbLine
 10
119.9656187428
 20
187.295594306
 30
0.0
 11
119.9656187428
 21
188.075594306
 31
0.0
  0
LINE
  5
2D3
330
1F
100
AcDbEntity
  8
0
  6
Continuous
 62
     7
370
    15
100
AcDbLine
 10
118.0991680867
 20
187.295594306
 30
0.0
 11
119.9656187428
 21
187.295594306
 31
0.0
  0
LINE
  5
2D4
330
1F
100
AcDbEntity
  8
0
  6
Continuous
 62
     7
370
    15
100
AcDbLine
 10
118.0991680867
 20
188.075594306
 30
0.0
 11
118.0991680867
 21
187.295594306
 31
0.0
  0
LINE
  5
2D5
330
1F
100
AcDbEntity
  8
0
  6
Continuous
 62
     7
370
    15
100
AcDbLine
 10
118.0991680867
 20
188.075594306
 30
0.0
 11
119.9656187428
 21
188.075594306
 31
0.0
  0
LINE
  5
2D6
330
1F
100
AcDbEntity
  8
0
  6
Continuous
 62
     7
370
    15
100
AcDbLine
 10
117.775935368
 20
187.295594306
 30
0.0
 11
117.775935368
 21
188.075594306
 31
0.0
  0
LINE
  5
2D7
330
1F
100
AcDbEntity
  8
0
  6
Continuous
 62
     7
370
    15
100
AcDbLine
 10
118.0991680867
 20
187.295594306
 30
0.0
 11
117.775935368
 21
187.295594306
 31
0.0
  0
LINE
  5
2D8
330
1F
100
AcDbEntity
  8
0
  6
Continuous
 62
     7
370
    15
100
AcDbLine
 10
117.775935368
 20
188.075594306
 30
0.0
 11
118.0991680867
 21
188.075594306
 31
0.0
  0
LINE
  5
2D9
330
1F
100
AcDbEntity
  8
0
  6
Continuous
 62
     7
370
    15
100
AcDbLine
 10
115.908796376
 20
188.075594306
 30
0.0
 11
115.908796376
 21
187.295594306
 31
0.0
  0
LINE
  5
2DA
330
1F
100
AcDbEntity
  8
0
  6
Continuous
 62
     7
370
    15
100
AcDbLine
 10
115.908796376
 20
187.295594306
 30
0.0
 11
117.775935368
 21
187.295594306
 31
0.0
  0
LINE
  5
2DB
330
1F
100
AcDbEntity
  8
0
  6
Continuous
 62
     7
370
    15
100
AcDbLine
 10
115.908796376
 20
188.075594306
 30
0.0
 11
117.775935368
 21
188.075594306
 31
0.0
  0
LINE
  5
2DC
330
1F
100
AcDbEntity
  8
0
  6
Continuous
 62
     7
370
    15
100
AcDbLine
 10
116.101774007
 20
185.555594306
 30
0.0
 11
119.921774007
 21
185.555594306
 31
0.0
  0
LINE
  5
2DD
330
1F
100
AcDbEntity
  8
0
  6
Continuous
 62
     7
370
    15
100
AcDbLine
 10
115.831774007
 20
188.555594306
 30
0.0
 11
120.191774007
 21
188.555594306
 31
0.0
  0
LINE
  5
2DE
330
1F
100
AcDbEntity
  8
0
  6
Continuous
 62
     7
370
    15
100
AcDbLine
 10
115.981774007
 20
189.595594306
 30
0.0
 11
120.041774007
 21
189.595594306
 31
0.0
  0
LINE
  5
2DF
330
1F
100
AcDbEntity
  8
0
  6
Continuous
 62
     7
370
    15
100
AcDbLine
 10
120.2021457178
 20
188.075594306
 30
0.0
 11
120.2021457178
 21
187.295594306
 31
0.0
  0
LINE
  5
2E0
330
1F
100
AcDbEntity
  8
0
  6
Continuous
 62
     7
370
    15
100
AcDbLine
 10
120.2021457178
 20
187.295594306
 30
0.0
 11
119.9656187428
 21
187.295594306
 31
0.0
  0
LINE
  5
2E1
330
1F
100
AcDbEntity
  8
0
  6
Continuous
 62
     7
370
    15
100
AcDbLine
 10
119.9656187428
 20
188.075594306
 30
0.0
 11
120.2021457178
 21
188.075594306
 31
0.0
  0
LINE
  5
2E2
330
1F
100
AcDbEntity
  8
0
  6
Continuous
 62
     7
370
    15
100
AcDbLine
 10
115.8220906322
 20
187.295594306
 30
0.0
 11
115.8220906322
 21
188.075594306
 31
0.0
  0
LINE
  5
2E3
330
1F
100
AcDbEntity
  8
0
  6
Continuous
 62
     7
370
    15
100
AcDbLine
 10
115.908796376
 20
187.295594306
 30
0.0
 11
115.8220906322
 21
187.295594306
 31
0.0
  0
LINE
  5
2E4
330
1F
100
AcDbEntity
  8
0
  6
Continuous
 62
     7
370
    15
100
AcDbLine
 10
115.8220906322
 20
188.075594306
 30
0.0
 11
115.908796376
 21
188.075594306
 31
0.0
  0
LINE
  5
2E5
330
1F
100
AcDbEntity
  8
0
  6
Continuous
 62
     7
370
    15
100
AcDbLine
 10
115.8214022962
 20
188.075594306
 30
0.0
 11
115.8214022962
 21
187.295594306
 31
0.0
  0
LINE
  5
2E6
330
1F
100
AcDbEntity
  8
0
  6
Continuous
 62
     7
370
    15
100
AcDbLine
 10
115.8214022962
 20
187.295594306
 30
0.0
 11
115.8220906322
 21
187.295594306
 31
0.0
  0
LINE
  5
2E7
330
1F
100
AcDbEntity
  8
0
  6
Continuous
 62
     7
370
    15
100
AcDbLine
 10
115.8214022962
 20
188.075594306
 30
0.0
 11
115.8220906322
 21
188.075594306
 31
0.0
  0
LINE
  5
2E8
330
1F
100
AcDbEntity
  8
0
  6
Continuous
 62
     7
370
    15
100
AcDbLine
 10
117.0160236511
 20
190.405594306
 30
0.0
 11
117.0160236511
 21
189.855594306
 31
0.0
  0
LINE
  5
2E9
330
1F
100
AcDbEntity
  8
0
  6
Continuous
 62
     7
370
    15
100
AcDbLine
 10
119.1831594243
 20
189.855594306
 30
0.0
 11
119.1831594243
 21
190.405594306
 31
0.0
  0
LINE
  5
2EA
330
1F
100
AcDbEntity
  8
0
  6
Continuous
 62
     7
370
    15
100
AcDbLine
 10
117.0160236511
 20
189.855594306
 30
0.0
 11
119.1831594243
 21
189.855594306
 31
0.0
  0
LINE
  5
2EB
330
1F
100
AcDbEntity
  8
0
  6
Continuous
 62
     7
370
    15
100
AcDbLine
 10
116.6927707913
 20
189.855594306
 30
0.0
 11
116.6927707913
 21
190.405594306
 31
0.0
  0
LINE
  5
2EC
330
1F
100
AcDbEntity
  8
0
  6
Continuous
 62
     7
370
    15
100
AcDbLine
 10
117.0160236511
 20
189.855594306
 30
0.0
 11
116.6927707913
 21
189.855594306
 31
0.0
  0
LINE
  5
2ED
330
1F
100
AcDbEntity
  8
0
  6
Continuous
 62
     7
370
    15
100
AcDbLine
 10
119.4196312591
 20
190.405594306
 30
0.0
 11
119.4196312591
 21
189.855594306
 31
0.0
  0
LINE
  5
2EE
330
1F
100
AcDbEntity
  8
0
  6
Continuous
 62
     7
370
    15
100
AcDbLine
 10
119.4196312591
 20
189.855594306
 30
0.0
 11
119.1831594243
 21
189.855594306
 31
0.0
  0
LINE
  5
2EF
330
1F
100
AcDbEntity
  8
0
  6
Continuous
 62
     7
370
    15
100
AcDbLine
 10
115.608166399
 20
190.405594306
 30
0.0
 11
115.608166399
 21
189.855594306
 31
0.0
  0
LINE
  5
2F0
330
1F
100
AcDbEntity
  8
0
  6
Continuous
 62
     7
370
    15
100
AcDbLine
 10
115.608166399
 20
189.855594306
 30
0.0
 11
116.6927707913
 21
189.855594306
 31
0.0
  0
LINE
  5
2F1
330
1F
100
AcDbEntity
  8
0
  6
Continuous
 62
     7
370
    15
100
AcDbLine
 10
120.50216264
 20
189.855594306
 30
0.0
 11
120.50216264
 21
190.405594306
 31
0.0
  0
LINE
  5
2F2
330
1F
100
AcDbEntity
  8
0
  6
Continuous
 62
     7
370
    15
100
AcDbLine
 10
119.4196312591
 20
189.855594306
 30
0.0
 11
120.50216264
 21
189.855594306
 31
0.0
  0
LINE
  5
2F3
330
1F
100
AcDbEntity
  8
0
  6
Continuous
 62
     7
370
    15
100
AcDbLine
 10
115.521385374
 20
189.855594306
 30
0.0
 11
115.521385374
 21
190.405594306
 31
0.0
  0
LINE
  5
2F4
330
1F
100
AcDbEntity
  8
0
  6
Continuous
 62
     7
370
    15
100
AcDbLine
 10
115.608166399
 20
189.855594306
 30
0.0
 11
115.521385374
 21
189.855594306
 31
0.0
  0
LINE
  5
2F5
330
1F
100
AcDbEntity
  8
0
  6
Continuous
 62
     7
370
    15
100
AcDbLine
 10
120.191774007
 20
185.855594306
 30
0.0
 11
115.831774007
 21
185.855594306
 31
0.0
  0
SPLINE
  5
2F6
330
1F
100
AcDbEntity
  8
0
  6
Continuous
 62
     7
370
    15
100
AcDbSpline
210
0.0
220
0.0
230
1.0
 70
     8
 71
     3
 72
    13
 73
     9
 74
     0
 42
0.00000001
 43
0.00000001
 12
1.0
 22
0.0
 32
0.0
 13
1.0
 23
0.0
 33
0.0
 40
0.0
 40
0.0
 40
0.0
 40
0.0
 40
0.169541105060234
 40
0.3386458383076963
 40
0.5184804584266082
 40
0.727723621148729
 40
0.992453776885705
 40
1.0
 40
1.0
 40
1.0
 40
1.0
 10
126.0897786135846
 20
91.73559430605029
 30
0.0
 10
126.0894008907236
 20
91.73067207659297
 30
0.0
 10
126.0886464172
 20
91.72084028671328
 30
0.0
 10
126.0829075475074
 20
91.70761312803718
 30
0.0
 10
126.0742162490647
 20
91.69647880741633
 30
0.0
 10
126.0616556877037
 20
91.6879350515619
 30
0.0
 10
126.0513634708096
 20
91.68561791963941
 30
0.0
 10
126.0455713605572
 20
91.6855949428588
 30
0.0
 10
126.0454108304501
 20
91.6855943060503
 30
0.0
  0
LINE
  5
2F7
330
1F
100
AcDbEntity
  8
0
  6
Continuous
 62
     7
370
    15
100
AcDbLine
 10
126.0454108305
 20
91.6855943061
 30
0.0
 11
125.5392249754
 21
91.6855943061
 31
0.0
  0
LINE
  5
2F8
330
1F
100
AcDbEntity
  8
0
  6
Continuous
 62
     7
370
    15
100
AcDbLine
 10
124.2471777382
 20
91.6855943061
 30
0.0
 11
122.9643159032
 21
91.6855943061
 31
0.0
  0
SPLINE
  5
2F9
330
1F
100
AcDbEntity
  8
0
  6
Continuous
 62
     7
370
    15
100
AcDbSpline
210
0.0
220
0.0
230
1.0
 70
     8
 71
     3
 72
    13
 73
     9
 74
     0
 42
0.00000001
 43
0.00000001
 12
1.0
 22
0.0
 32
0.0
 13
1.0
 23
0.0
 33
0.0
 40
0.0
 40
0.0
 40
0.0
 40
0.0
 40
0.1695411050602521
 40
0.3386458383073866
 40
0.5184804584269945
 40
0.7277236211482495
 40
0.9924537768862364
 40
1.0
 40
1.0
 40
1.0
 40
1.0
 10
122.9421296800386
 20
91.73559430605033
 30
0.0
 10
122.9423169877336
 20
91.730672076593
 30
0.0
 10
122.9426911210234
 20
91.72084028671334
 30
0.0
 10
122.9455408480121
 20
91.70761312803715
 30
0.0
 10
122.949868157373
 20
91.6964788074164
 30
0.0
 10
122.9561449502865
 20
91.68793505156187
 30
0.0
 10
122.9613155255565
 20
91.68561791963944
 30
0.0
 10
122.964234989365
 20
91.68559494285883
 30
0.0
 10
122.9643159031974
 20
91.68559430605033
 30
0.0
  0
LINE
  5
2FA
330
1F
100
AcDbEntity
  8
0
  6
Continuous
 62
     7
370
    15
100
AcDbLine
 10
122.9643159032
 20
91.9255943061
 30
0.0
 11
124.2416784861
 21
91.9255943061
 31
0.0
  0
LINE
  5
2FB
330
1F
100
AcDbEntity
  8
0
  6
Continuous
 62
     7
370
    15
100
AcDbLine
 10
125.3984495255
 20
91.9255943061
 30
0.0
 11
126.0454108305
 21
91.9255943061
 31
0.0
  0
SPLINE
  5
2FC
330
1F
100
AcDbEntity
  8
0
  6
Continuous
 62
     7
370
    15
100
AcDbSpline
210
0.0
220
0.0
230
1.0
 70
     8
 71
     3
 72
    13
 73
     9
 74
     0
 42
0.00000001
 43
0.00000001
 12
1.0
 22
0.0
 32
0.0
 13
1.0
 23
0.0
 33
0.0
 40
0.0
 40
0.0
 40
0.0
 40
0.0
 40
0.0075462231145914
 40
0.2722763788513226
 40
0.48151954157367
 40
0.6613541616926476
 40
0.8304588949399501
 40
0.9999999999999999
 40
0.9999999999999999
 40
0.9999999999999999
 40
0.9999999999999999
 10
126.04541083045
 20
91.9255943060503
 30
0.0
 10
126.0455713605572
 20
91.9255936692418
 30
0.0
 10
126.0513634708105
 20
91.92557069246116
 30
0.0
 10
126.0616556877033
 20
91.92325356053868
 30
0.0
 10
126.0742162490648
 20
91.91470980468428
 30
0.0
 10
126.0829075475073
 20
91.90357548406341
 30
0.0
 10
126.0886464172
 20
91.8903483253873
 30
0.0
 10
126.0894008907235
 20
91.88051653550762
 30
0.0
 10
126.0897786135846
 20
91.8755943060503
 30
0.0
  0
SPLINE
  5
2FD
330
1F
100
AcDbEntity
  8
0
  6
Continuous
 62
     7
370
    15
100
AcDbSpline
210
0.0
220
0.0
230
1.0
 70
     8
 71
     3
 72
    13
 73
     9
 74
     0
 42
0.00000001
 43
0.00000001
 12
1.0
 22
0.0
 32
0.0
 13
1.0
 23
0.0
 33
0.0
 40
0.0
 40
0.0
 40
0.0
 40
0.0
 40
0.007546223114854
 40
0.2722763788519208
 40
0.4815195415732715
 40
0.661354161692657
 40
0.8304588949398283
 40
1.0
 40
1.0
 40
1.0
 40
1.0
 10
122.9643159031974
 20
91.92559430605033
 30
0.0
 10
122.964234989365
 20
91.92559366924182
 30
0.0
 10
122.9613155255568
 20
91.9255706924612
 30
0.0
 10
122.9561449502865
 20
91.92325356053874
 30
0.0
 10
122.9498681573729
 20
91.91470980468426
 30
0.0
 10
122.945540848012
 20
91.90357548406347
 30
0.0
 10
122.9426911210233
 20
91.89034832538731
 30
0.0
 10
122.9423169877336
 20
91.88051653550767
 30
0.0
 10
122.9421296800386
 20
91.87559430605033
 30
0.0
  0
LINE
  5
2FE
330
1F
100
AcDbEntity
  8
0
  6
Continuous
 62
     7
370
    15
100
AcDbLine
 10
126.0897786136
 20
91.8755943061
 30
0.0
 11
126.0897786136
 21
91.7355943061
 31
0.0
  0
LINE
  5
2FF
330
1F
100
AcDbEntity
  8
0
  6
Continuous
 62
     7
370
    15
100
AcDbLine
 10
122.94212968
 20
91.8755943061
 30
0.0
 11
122.94212968
 21
91.7355943061
 31
0.0
  0
SPLINE
  5
300
330
1F
100
AcDbEntity
  8
0
  6
Continuous
 62
     7
370
    15
100
AcDbSpline
210
0.0
220
0.0
230
1.0
 70
     8
 71
     3
 72
    12
 73
     8
 74
     0
 42
0.00000001
 43
0.00000001
 12
1.0
 22
0.0
 32
0.0
 13
1.0
 23
0.0
 33
0.0
 40
0.0
 40
0.0
 40
0.0
 40
0.0
 40
0.2289440738515513
 40
0.4594214300242054
 40
0.6825355698157374
 40
0.8947175231628353
 40
1.0
 40
1.0
 40
1.0
 40
1.0
 10
122.9018876459219
 20
91.68559430605033
 30
0.0
 10
122.8677894009032
 20
91.68906120296585
 30
0.0
 10
122.7993645483867
 20
91.69601821526967
 30
0.0
 10
122.7090757489774
 20
91.75079218443211
 30
0.0
 10
122.6440840717774
 20
91.83019949132876
 30
0.0
 10
122.6149007662946
 20
91.91037468919927
 30
0.0
 10
122.6124186120697
 20
91.9593517678167
 30
0.0
 10
122.6115954415982
 20
91.97559430605034
 30
0.0
  0
LINE
  5
301
330
1F
100
AcDbEntity
  8
0
  6
Continuous
 62
     7
370
    15
100
AcDbLine
 10
122.9018876459
 20
91.6855943061
 30
0.0
 11
122.621774007
 21
91.6855943061
 31
0.0
  0
LINE
  5
302
330
1F
100
AcDbEntity
  8
0
  6
Continuous
 62
     7
370
    15
100
AcDbLine
 10
122.6547370731
 20
93.0455943061
 30
0.0
 11
122.7984582613
 21
93.0455943061
 31
0.0
  0
LINE
  5
303
330
1F
100
AcDbEntity
  8
0
  6
Continuous
 62
     7
370
    15
100
AcDbLine
 10
122.381774007
 20
93.0455943061
 30
0.0
 11
122.6547370731
 21
93.0455943061
 31
0.0
  0
LINE
  5
304
330
1F
100
AcDbEntity
  8
0
  6
Continuous
 62
     7
370
    15
100
AcDbLine
 10
122.9643159032
 20
91.6855943061
 30
0.0
 11
122.9018876459
 21
91.6855943061
 31
0.0
  0
LINE
  5
305
330
1F
100
AcDbEntity
  8
0
  6
Continuous
 62
     7
370
    15
100
AcDbLine
 10
122.9018876459
 20
91.9255943061
 30
0.0
 11
122.9643159032
 21
91.9255943061
 31
0.0
  0
LINE
  5
306
330
1F
100
AcDbEntity
  8
0
  6
Continuous
 62
     7
370
    15
100
AcDbLine
 10
126.1078390877
 20
91.6855943061
 30
0.0
 11
126.0454108305
 21
91.6855943061
 31
0.0
  0
LINE
  5
307
330
1F
100
AcDbEntity
  8
0
  6
Continuous
 62
     7
370
    15
100
AcDbLine
 10
126.0454108305
 20
91.9255943061
 30
0.0
 11
126.1078390877
 21
91.9255943061
 31
0.0
  0
SPLINE
  5
308
330
1F
100
AcDbEntity
  8
0
  6
Continuous
 62
     7
370
    15
100
AcDbSpline
210
0.0
220
0.0
230
1.0
 70
     8
 71
     3
 72
    12
 73
     8
 74
     0
 42
0.00000001
 43
0.00000001
 12
1.0
 22
0.0
 32
0.0
 13
1.0
 23
0.0
 33
0.0
 40
0.0
 40
0.0
 40
0.0
 40
0.0
 40
0.1947219538559505
 40
0.4187768971765096
 40
0.6230742393894074
 40
0.8142730248046285
 40
1.0
 40
1.0
 40
1.0
 40
1.0
 10
126.1078390877254
 20
91.9255943060503
 30
0.0
 10
126.1128018691138
 20
91.92595892990255
 30
0.0
 10
126.1234750271732
 20
91.92674310468338
 30
0.0
 10
126.1386133214449
 20
91.93349363397985
 30
0.0
 10
126.1512405307272
 20
91.94468235602233
 30
0.0
 10
126.1598614601846
 20
91.95917031243364
 30
0.0
 10
126.1609942386873
 20
91.97017288274435
 30
0.0
 10
126.1615524056975
 20
91.97559430605028
 30
0.0
  0
LINE
  5
309
330
1F
100
AcDbEntity
  8
0
  6
Continuous
 62
     7
370
    15
100
AcDbLine
 10
126.121774007
 20
91.6855943061
 30
0.0
 11
126.1078390877
 21
91.6855943061
 31
0.0
  0
LINE
  5
30A
330
1F
100
AcDbEntity
  8
0
  6
Continuous
 62
     7
370
    15
100
AcDbLine
 10
126.2112684723
 20
93.0455943061
 30
0.0
 11
126.3549896605
 21
93.0455943061
 31
0.0
  0
LINE
  5
30B
330
1F
100
AcDbEntity
  8
0
  6
Continuous
 62
     7
370
    15
100
AcDbLine
 10
125.9450897526
 20
93.0455943061
 30
0.0
 11
126.2112684723
 21
93.0455943061
 31
0.0
  0
LINE
  5
30C
330
1F
100
AcDbEntity
  8
0
  6
Continuous
 62
     7
370
    15
100
AcDbLine
 10
126.3549896605
 20
93.0455943061
 30
0.0
 11
126.361774007
 21
93.0455943061
 31
0.0
  0
SPLINE
  5
30D
330
1F
100
AcDbEntity
  8
0
  6
Continuous
 62
     7
370
    15
100
AcDbSpline
210
0.0
220
0.0
230
1.0
 70
     8
 71
     3
 72
    12
 73
     8
 74
     0
 42
0.00000001
 43
0.00000001
 12
1.0
 22
0.0
 32
0.0
 13
1.0
 23
0.0
 33
0.0
 40
0.0
 40
0.0
 40
0.0
 40
0.0
 40
0.2028202020467702
 40
0.404947244942647
 40
0.6098312030741041
 40
0.8226939241828148
 40
1.0
 40
1.0
 40
1.0
 40
1.0
 10
125.5173016328672
 20
91.87559430605025
 30
0.0
 10
125.5162888998246
 20
91.90702247415733
 30
0.0
 10
125.5142668948601
 20
91.96977140133583
 30
0.0
 10
125.498520060021
 20
92.05385065142977
 30
0.0
 10
125.474977424001
 20
92.11926635851763
 30
0.0
 10
125.4464633800455
 20
92.15890821177086
 30
0.0
 10
125.4260372314616
 20
92.16350525295528
 30
0.0
 10
125.4167548893624
 20
92.16559430605025
 30
0.0
  0
LINE
  5
30E
330
1F
100
AcDbEntity
  8
0
  6
Continuous
 62
     7
370
    15
100
AcDbLine
 10
124.2668499251
 20
92.1655943061
 30
0.0
 11
125.4167548894
 21
92.1655943061
 31
0.0
  0
LINE
  5
30F
330
1F
100
AcDbEntity
  8
0
  6
Continuous
 62
     7
370
    15
100
AcDbLine
 10
125.4892249754
 20
90.8055943061
 30
0.0
 11
124.3393200111
 21
90.8055943061
 31
0.0
  0
ARC
  5
310
330
1F
100
AcDbEntity
  8
0
  6
Continuous
 62
     7
370
    15
100
AcDbCircle
 10
124.3403863906
 20
90.8545724434
 30
0.0
 40
0.0489897449185318
100
AcDbArc
 50
178.8047975852
 51
268.7527211342
  0
SPLINE
  5
311
330
1F
100
AcDbEntity
  8
0
  6
Continuous
 62
     7
370
    15
100
AcDbSpline
210
0.0
220
0.0
230
1.0
 70
     8
 71
     3
 72
    13
 73
     9
 74
     0
 42
0.00000001
 43
0.00000001
 12
1.0
 22
0.0
 32
0.0
 13
1.0
 23
0.0
 33
0.0
 40
0.0
 40
0.0
 40
0.0
 40
0.0
 40
0.0075462231148891
 40
0.2722763788518299
 40
0.4815195415732724
 40
0.6613541616926689
 40
0.8304588949398067
 40
0.9999999999999999
 40
0.9999999999999999
 40
0.9999999999999999
 40
0.9999999999999999
 10
124.2485445611581
 20
91.92559430605033
 30
0.0
 10
124.2484079864626
 20
91.92559494285882
 30
0.0
 10
124.2434802149184
 20
91.92561791963945
 30
0.0
 10
124.2346843635262
 20
91.92793505156189
 30
0.0
 10
124.223873038656
 20
91.93647880741638
 30
0.0
 10
124.2163553902934
 20
91.94761312803718
 30
0.0
 10
124.2113739565688
 20
91.96084028671333
 30
0.0
 10
124.2107178788544
 20
91.97067207659299
 30
0.0
 10
124.2103894172933
 20
91.97559430605031
 30
0.0
  0
LINE
  5
312
330
1F
100
AcDbEntity
  8
0
  6
Continuous
 62
     7
370
    15
100
AcDbLine
 10
124.2485445612
 20
91.9255943061
 30
0.0
 11
122.9643159032
 21
91.9255943061
 31
0.0
  0
LINE
  5
313
330
1F
100
AcDbEntity
  8
0
  6
Continuous
 62
     7
370
    15
100
AcDbLine
 10
122.9018876459
 20
91.9255943061
 30
0.0
 11
122.8661914595
 21
91.9255943061
 31
0.0
  0
SPLINE
  5
314
330
1F
100
AcDbEntity
  8
0
  6
Continuous
 62
     7
370
    15
100
AcDbSpline
210
0.0
220
0.0
230
1.0
 70
     8
 71
     3
 72
    13
 73
     9
 74
     0
 42
0.00000001
 43
0.00000001
 12
1.0
 22
0.0
 32
0.0
 13
1.0
 23
0.0
 33
0.0
 40
0.0
 40
0.0
 40
0.0
 40
0.0
 40
0.1695411050602907
 40
0.3386458383074462
 40
0.5184804584270313
 40
0.7277236211483923
 40
0.9924537768863867
 40
1.0
 40
1.0
 40
1.0
 40
1.0
 10
124.2103894172933
 20
92.11559430605033
 30
0.0
 10
124.2107178788544
 20
92.12051653550763
 30
0.0
 10
124.2113739565687
 20
92.1303483253873
 30
0.0
 10
124.2163553902934
 20
92.14357548406346
 30
0.0
 10
124.2238730386558
 20
92.15470980468423
 30
0.0
 10
124.2346843635263
 20
92.16325356053878
 30
0.0
 10
124.2434802149184
 20
92.16557069246117
 30
0.0
 10
124.2484079864626
 20
92.16559366924182
 30
0.0
 10
124.2485445611581
 20
92.16559430605031
 30
0.0
  0
LINE
  5
315
330
1F
100
AcDbEntity
  8
0
  6
Continuous
 62
     7
370
    15
100
AcDbLine
 10
122.8484582613
 20
92.1655943061
 30
0.0
 11
124.2485445612
 21
92.1655943061
 31
0.0
  0
LINE
  5
316
330
1F
100
AcDbEntity
  8
0
  6
Continuous
 62
     7
370
    15
100
AcDbLine
 10
124.2103894173
 20
91.9755943061
 30
0.0
 11
124.2103894173
 21
92.1155943061
 31
0.0
  0
LINE
  5
317
330
1F
100
AcDbEntity
  8
0
  6
Continuous
 62
     7
370
    15
100
AcDbLine
 10
124.3393200111
 20
90.8055943061
 30
0.0
 11
124.2971777382
 21
90.8055943061
 31
0.0
  0
LINE
  5
318
330
1F
100
AcDbEntity
  8
0
  6
Continuous
 62
     7
370
    15
100
AcDbLine
 10
124.2485445612
 20
92.1655943061
 30
0.0
 11
124.2668499251
 21
92.1655943061
 31
0.0
  0
LINE
  5
319
330
1F
100
AcDbEntity
  8
0
  6
Continuous
 62
     7
370
    15
100
AcDbLine
 10
125.5392249754
 20
91.8755943061
 30
0.0
 11
125.5173016329
 21
91.8755943061
 31
0.0
  0
LINE
  5
31A
330
1F
100
AcDbEntity
  8
0
  6
Continuous
 62
     7
370
    15
100
AcDbLine
 10
126.0454108305
 20
91.9255943061
 30
0.0
 11
125.532174287
 21
91.9255943061
 31
0.0
  0
LINE
  5
31B
330
1F
100
AcDbEntity
  8
0
  6
Continuous
 62
     7
370
    15
100
AcDbLine
 10
125.3984495255
 20
92.1655943061
 30
0.0
 11
126.061774007
 21
92.1655943061
 31
0.0
  0
LINE
  5
31C
330
1F
100
AcDbEntity
  8
0
  6
Continuous
 62
     7
370
    15
100
AcDbLine
 10
123.2197465355
 20
91.5962779086
 30
0.0
 11
123.5417553475
 21
91.6855943061
 31
0.0
  0
SPLINE
  5
31D
330
1F
100
AcDbEntity
  8
0
  6
Continuous
 62
     7
370
    15
100
AcDbSpline
210
0.0
220
0.0
230
1.0
 70
     8
 71
     3
 72
     9
 73
     5
 74
     0
 42
0.00000001
 43
0.00000001
 12
1.0
 22
0.0
 32
0.0
 13
1.0
 23
0.0
 33
0.0
 40
0.0
 40
0.0
 40
0.0
 40
0.0
 40
0.0702005767034816
 40
0.9999999999999999
 40
0.9999999999999999
 40
0.9999999999999999
 40
0.9999999999999999
 10
123.5417553475134
 20
91.6855943060503
 30
0.0
 10
123.5493888616633
 20
91.6855050827968
 30
0.0
 10
123.6581274861629
 20
91.68423410672072
 30
0.0
 10
123.7646860594717
 20
91.63865621034162
 30
0.0
 10
123.8637641594815
 20
91.59627790857327
 30
0.0
  0
LINE
  5
31E
330
1F
100
AcDbEntity
  8
0
  6
Continuous
 62
     7
370
    15
100
AcDbLine
 10
123.8637641595
 20
91.5962779086
 30
0.0
 11
123.8637641595
 21
90.7349107035
 31
0.0
  0
SPLINE
  5
31F
330
1F
100
AcDbEntity
  8
0
  6
Continuous
 62
     7
370
    15
100
AcDbSpline
210
0.0
220
0.0
230
1.0
 70
     8
 71
     3
 72
     9
 73
     5
 74
     0
 42
0.00000001
 43
0.00000001
 12
1.0
 22
0.0
 32
0.0
 13
1.0
 23
0.0
 33
0.0
 40
0.0
 40
0.0
 40
0.0
 40
0.0
 40
0.0702005767034175
 40
1.0
 40
1.0
 40
1.0
 40
1.0
 10
123.5417553475135
 20
90.64559430605031
 30
0.0
 10
123.5493888616633
 20
90.64568352930384
 30
0.0
 10
123.6581274861631
 20
90.64695450537992
 30
0.0
 10
123.7646860594718
 20
90.69253240175901
 30
0.0
 10
123.8637641594816
 20
90.73491070352735
 30
0.0
  0
LINE
  5
320
330
1F
100
AcDbEntity
  8
0
  6
Continuous
 62
     7
370
    15
100
AcDbLine
 10
123.2197465355
 20
90.7349107035
 30
0.0
 11
123.5417553475
 21
90.6455943061
 31
0.0
  0
LINE
  5
321
330
1F
100
AcDbEntity
  8
0
  6
Continuous
 62
     7
370
    15
100
AcDbLine
 10
123.2197465355
 20
91.5962779086
 30
0.0
 11
123.2197465355
 21
90.7349107035
 31
0.0
  0
SPLINE
  5
322
330
1F
100
AcDbEntity
  8
0
  6
Continuous
 62
     7
370
    15
100
AcDbSpline
210
0.0
220
0.0
230
1.0
 70
     8
 71
     3
 72
     9
 73
     5
 74
     0
 42
0.00000001
 43
0.00000001
 12
1.0
 22
0.0
 32
0.0
 13
1.0
 23
0.0
 33
0.0
 40
0.0
 40
0.0
 40
0.0
 40
0.0
 40
0.3856687079101737
 40
1.0
 40
1.0
 40
1.0
 40
1.0
 10
123.8637641594815
 20
91.59627790857327
 30
0.0
 10
123.9120410978901
 20
91.61018852787119
 30
0.0
 10
124.0372183223277
 20
91.64625735848306
 30
0.0
 10
124.1672780052028
 20
91.65636581749656
 30
0.0
 10
124.2471777382322
 20
91.66257576018334
 30
0.0
  0
SPLINE
  5
323
330
1F
100
AcDbEntity
  8
0
  6
Continuous
 62
     7
370
    15
100
AcDbSpline
210
0.0
220
0.0
230
1.0
 70
     8
 71
     3
 72
     9
 73
     5
 74
     0
 42
0.00000001
 43
0.00000001
 12
1.0
 22
0.0
 32
0.0
 13
1.0
 23
0.0
 33
0.0
 40
0.0
 40
0.0
 40
0.0
 40
0.0
 40
0.257551345103824
 40
1.0
 40
1.0
 40
1.0
 40
1.0
 10
123.8637641594816
 20
90.73491070352735
 30
0.0
 10
123.9121215133767
 20
90.72142765897239
 30
0.0
 10
124.0998796238054
 20
90.66907675958359
 30
0.0
 10
124.2949489421655
 20
90.65560006202509
 30
0.0
 10
124.4397778951935
 20
90.64559430605031
 30
0.0
  0
LINE
  5
324
330
1F
100
AcDbEntity
  8
0
  6
Continuous
 62
     7
370
    15
100
AcDbLine
 10
124.4397778952
 20
90.6455943061
 30
0.0
 11
123.5417553475
 21
90.6455943061
 31
0.0
  0
LINE
  5
325
330
1F
100
AcDbEntity
  8
0
  6
Continuous
 62
     7
370
    15
100
AcDbLine
 10
125.0157916309
 20
90.8055943061
 30
0.0
 11
125.0157916309
 21
90.7349107035
 31
0.0
  0
SPLINE
  5
326
330
1F
100
AcDbEntity
  8
0
  6
Continuous
 62
     7
370
    15
100
AcDbSpline
210
0.0
220
0.0
230
1.0
 70
     8
 71
     3
 72
     9
 73
     5
 74
     0
 42
0.00000001
 43
0.00000001
 12
1.0
 22
0.0
 32
0.0
 13
1.0
 23
0.0
 33
0.0
 40
0.0
 40
0.0
 40
0.0
 40
0.0
 40
0.268633605055517
 40
1.0
 40
1.0
 40
1.0
 40
1.0
 10
124.4397778951935
 20
90.64559430605031
 30
0.0
 10
124.4921536616936
 20
90.6469200965672
 30
0.0
 10
124.68712467617
 20
90.65185540805447
 30
0.0
 10
124.8769556418715
 20
90.69982636077448
 30
0.0
 10
125.0157916309054
 20
90.73491070352735
 30
0.0
  0
LINE
  5
327
330
1F
100
AcDbEntity
  8
0
  6
Continuous
 62
     7
370
    15
100
AcDbLine
 10
125.0157916309
 20
90.7349107035
 30
0.0
 11
125.2697965546
 21
90.6455943061
 31
0.0
  0
LINE
  5
328
330
1F
100
AcDbEntity
  8
0
  6
Continuous
 62
     7
370
    15
100
AcDbLine
 10
125.2697965546
 20
90.6455943061
 30
0.0
 11
124.4397778952
 21
90.6455943061
 31
0.0
  0
LINE
  5
329
330
1F
100
AcDbEntity
  8
0
  6
Continuous
 62
     7
370
    15
100
AcDbLine
 10
125.5238014784
 20
90.8194769219
 30
0.0
 11
125.5238014784
 21
90.7349107035
 31
0.0
  0
SPLINE
  5
32A
330
1F
100
AcDbEntity
  8
0
  6
Continuous
 62
     7
370
    15
100
AcDbSpline
210
0.0
220
0.0
230
1.0
 70
     8
 71
     3
 72
     9
 73
     5
 74
     0
 42
0.00000001
 43
0.00000001
 12
1.0
 22
0.0
 32
0.0
 13
1.0
 23
0.0
 33
0.0
 40
0.0
 40
0.0
 40
0.0
 40
0.0
 40
0.0702005767034738
 40
1.0
 40
1.0
 40
1.0
 40
1.0
 10
125.2697965546492
 20
90.64559430605031
 30
0.0
 10
125.2758179742733
 20
90.64568352930382
 30
0.0
 10
125.3615924779437
 20
90.6469545053799
 30
0.0
 10
125.4456473276297
 20
90.692532401759
 30
0.0
 10
125.523801478393
 20
90.73491070352733
 30
0.0
  0
LINE
  5
32B
330
1F
100
AcDbEntity
  8
0
  6
Continuous
 62
     7
370
    15
100
AcDbLine
 10
123.2578834281
 20
91.6106357256
 30
0.0
 11
123.2197465355
 21
91.5962779086
 31
0.0
  0
LINE
  5
32C
330
1F
100
AcDbEntity
  8
0
  6
Continuous
 62
     7
370
    15
100
AcDbLine
 10
123.2578834281
 20
90.7205528865
 30
0.0
 11
123.2197465355
 21
90.7349107035
 31
0.0
  0
LINE
  5
32D
330
1F
100
AcDbEntity
  8
0
  6
Continuous
 62
     7
370
    15
100
AcDbLine
 10
123.5417553475
 20
90.6455943061
 30
0.0
 11
123.371774007
 21
90.6455943061
 31
0.0
  0
LINE
  5
32E
330
1F
100
AcDbEntity
  8
0
  6
Continuous
 62
     7
370
    15
100
AcDbLine
 10
125.371774007
 20
90.6455943061
 30
0.0
 11
125.2697965546
 21
90.6455943061
 31
0.0
  0
LINE
  5
32F
330
1F
100
AcDbEntity
  8
0
  6
Continuous
 62
     7
370
    15
100
AcDbLine
 10
124.6610333606
 20
93.1162779086
 30
0.0
 11
125.0727760523
 21
93.2055943061
 31
0.0
  0
SPLINE
  5
330
330
1F
100
AcDbEntity
  8
0
  6
Continuous
 62
     7
370
    15
100
AcDbSpline
210
0.0
220
0.0
230
1.0
 70
     8
 71
     3
 72
     9
 73
     5
 74
     0
 42
0.00000001
 43
0.00000001
 12
1.0
 22
0.0
 32
0.0
 13
1.0
 23
0.0
 33
0.0
 40
0.0
 40
0.0
 40
0.0
 40
0.0
 40
0.070200576703507
 40
1.0
 40
1.0
 40
1.0
 40
1.0
 10
125.072776052309
 20
93.2055943060503
 30
0.0
 10
125.0825367903576
 20
93.20550508279679
 30
0.0
 10
125.2215775006608
 20
93.20423410672072
 30
0.0
 10
125.3578306470466
 20
93.15865621034162
 30
0.0
 10
125.4845187439784
 20
93.11627790857327
 30
0.0
  0
LINE
  5
331
330
1F
100
AcDbEntity
  8
0
  6
Continuous
 62
     7
370
    15
100
AcDbLine
 10
125.484518744
 20
93.1162779086
 30
0.0
 11
125.484518744
 21
92.2549107035
 31
0.0
  0
SPLINE
  5
332
330
1F
100
AcDbEntity
  8
0
  6
Continuous
 62
     7
370
    15
100
AcDbSpline
210
0.0
220
0.0
230
1.0
 70
     8
 71
     3
 72
     9
 73
     5
 74
     0
 42
0.00000001
 43
0.00000001
 12
1.0
 22
0.0
 32
0.0
 13
1.0
 23
0.0
 33
0.0
 40
0.0
 40
0.0
 40
0.0
 40
0.0
 40
0.0702005767034801
 40
1.0
 40
1.0
 40
1.0
 40
1.0
 10
125.0727760523091
 20
92.16559430605031
 30
0.0
 10
125.0825367903576
 20
92.16568352930382
 30
0.0
 10
125.2215775006608
 20
92.1669545053799
 30
0.0
 10
125.3578306470466
 20
92.212532401759
 30
0.0
 10
125.4845187439784
 20
92.25491070352734
 30
0.0
  0
LINE
  5
333
330
1F
100
AcDbEntity
  8
0
  6
Continuous
 62
     7
370
    15
100
AcDbLine
 10
124.6610333606
 20
92.2549107035
 30
0.0
 11
125.0727760523
 21
92.1655943061
 31
0.0
  0
LINE
  5
334
330
1F
100
AcDbEntity
  8
0
  6
Continuous
 62
     7
370
    15
100
AcDbLine
 10
124.6610333606
 20
93.1162779086
 30
0.0
 11
124.6610333606
 21
92.2549107035
 31
0.0
  0
SPLINE
  5
335
330
1F
100
AcDbEntity
  8
0
  6
Continuous
 62
     7
370
    15
100
AcDbSpline
210
0.0
220
0.0
230
1.0
 70
     8
 71
     3
 72
     9
 73
     5
 74
     0
 42
0.00000001
 43
0.00000001
 12
1.0
 22
0.0
 32
0.0
 13
1.0
 23
0.0
 33
0.0
 40
0.0
 40
0.0
 40
0.0
 40
0.0
 40
0.2686336050554938
 40
1.0
 40
1.0
 40
1.0
 40
1.0
 10
124.1046609921352
 20
92.16559430605031
 30
0.0
 10
124.1552508087546
 20
92.16692009656721
 30
0.0
 10
124.3435735489752
 20
92.17185540805447
 30
0.0
 10
124.5269315098271
 20
92.21982636077448
 30
0.0
 10
124.6610333606398
 20
92.25491070352734
 30
0.0
  0
SPLINE
  5
336
330
1F
100
AcDbEntity
  8
0
  6
Continuous
 62
     7
370
    15
100
AcDbSpline
210
0.0
220
0.0
230
1.0
 70
     8
 71
     3
 72
     9
 73
     5
 74
     0
 42
0.00000001
 43
0.00000001
 12
1.0
 22
0.0
 32
0.0
 13
1.0
 23
0.0
 33
0.0
 40
0.0
 40
0.0
 40
0.0
 40
0.0
 40
0.2686336050555244
 40
0.9999999999999999
 40
0.9999999999999999
 40
0.9999999999999999
 40
0.9999999999999999
 10
124.1046609921352
 20
93.20559430605032
 30
0.0
 10
124.1552508087546
 20
93.20426851553343
 30
0.0
 10
124.3435735489752
 20
93.19933320404617
 30
0.0
 10
124.5269315098271
 20
93.15136225132615
 30
0.0
 10
124.6610333606398
 20
93.11627790857327
 30
0.0
  0
LINE
  5
337
330
1F
100
AcDbEntity
  8
0
  6
Continuous
 62
     7
370
    15
100
AcDbLine
 10
124.1046609921
 20
93.2055943061
 30
0.0
 11
125.0727760523
 21
93.2055943061
 31
0.0
  0
SPLINE
  5
338
330
1F
100
AcDbEntity
  8
0
  6
Continuous
 62
     7
370
    15
100
AcDbSpline
210
0.0
220
0.0
230
1.0
 70
     8
 71
     3
 72
     9
 73
     5
 74
     0
 42
0.00000001
 43
0.00000001
 12
1.0
 22
0.0
 32
0.0
 13
1.0
 23
0.0
 33
0.0
 40
0.0
 40
0.0
 40
0.0
 40
0.0
 40
0.2575513451038374
 40
1.0
 40
1.0
 40
1.0
 40
1.0
 10
123.5482886236305
 20
93.11627790857327
 30
0.0
 10
123.5949970506231
 20
93.12976095312825
 30
0.0
 10
123.7763528380439
 20
93.18211185251702
 30
0.0
 10
123.9647705301055
 20
93.19558855007556
 30
0.0
 10
124.1046609921352
 20
93.20559430605032
 30
0.0
  0
SPLINE
  5
339
330
1F
100
AcDbEntity
  8
0
  6
Continuous
 62
     7
370
    15
100
AcDbSpline
210
0.0
220
0.0
230
1.0
 70
     8
 71
     3
 72
     9
 73
     5
 74
     0
 42
0.00000001
 43
0.00000001
 12
1.0
 22
0.0
 32
0.0
 13
1.0
 23
0.0
 33
0.0
 40
0.0
 40
0.0
 40
0.0
 40
0.0
 40
0.2575513451038227
 40
1.0
 40
1.0
 40
1.0
 40
1.0
 10
123.5482886236306
 20
92.25491070352737
 30
0.0
 10
123.5949970506232
 20
92.2414276589724
 30
0.0
 10
123.7763528380439
 20
92.1890767595836
 30
0.0
 10
123.9647705301055
 20
92.17560006202507
 30
0.0
 10
124.1046609921352
 20
92.16559430605031
 30
0.0
  0
LINE
  5
33A
330
1F
100
AcDbEntity
  8
0
  6
Continuous
 62
     7
370
    15
100
AcDbLine
 10
123.5482886236
 20
93.1162779086
 30
0.0
 11
123.5482886236
 21
92.2549107035
 31
0.0
  0
SPLINE
  5
33B
330
1F
100
AcDbEntity
  8
0
  6
Continuous
 62
     7
370
    15
100
AcDbSpline
210
0.0
220
0.0
230
1.0
 70
     8
 71
     3
 72
     9
 73
     5
 74
     0
 42
0.00000001
 43
0.00000001
 12
1.0
 22
0.0
 32
0.0
 13
1.0
 23
0.0
 33
0.0
 40
0.0
 40
0.0
 40
0.0
 40
0.0
 40
0.0702005767035107
 40
0.9999999999999999
 40
0.9999999999999999
 40
0.9999999999999999
 40
0.9999999999999999
 10
123.4036589467952
 20
93.20559430605033
 30
0.0
 10
123.4070875259011
 20
93.2055050827968
 30
0.0
 10
123.4559272828778
 20
93.20423410672072
 30
0.0
 10
123.5037878737961
 20
93.15865621034163
 30
0.0
 10
123.5482886236305
 20
93.11627790857327
 30
0.0
  0
LINE
  5
33C
330
1F
100
AcDbEntity
  8
0
  6
Continuous
 62
     7
370
    15
100
AcDbLine
 10
123.4036589468
 20
93.2055943061
 30
0.0
 11
124.1046609921
 21
93.2055943061
 31
0.0
  0
SPLINE
  5
33D
330
1F
100
AcDbEntity
  8
0
  6
Continuous
 62
     7
370
    15
100
AcDbSpline
210
0.0
220
0.0
230
1.0
 70
     8
 71
     3
 72
     9
 73
     5
 74
     0
 42
0.00000001
 43
0.00000001
 12
1.0
 22
0.0
 32
0.0
 13
1.0
 23
0.0
 33
0.0
 40
0.0
 40
0.0
 40
0.0
 40
0.0
 40
0.0702005767034189
 40
1.0
 40
1.0
 40
1.0
 40
1.0
 10
123.4036589467953
 20
92.16559430605031
 30
0.0
 10
123.4070875259011
 20
92.16568352930383
 30
0.0
 10
123.4559272828781
 20
92.16695450537993
 30
0.0
 10
123.5037878737963
 20
92.212532401759
 30
0.0
 10
123.5482886236306
 20
92.25491070352737
 30
0.0
  0
LINE
  5
33E
330
1F
100
AcDbEntity
  8
0
  6
Continuous
 62
     7
370
    15
100
AcDbLine
 10
123.25902927
 20
93.1162779086
 30
0.0
 11
123.4036589468
 21
93.2055943061
 31
0.0
  0
LINE
  5
33F
330
1F
100
AcDbEntity
  8
0
  6
Continuous
 62
     7
370
    15
100
AcDbLine
 10
123.25902927
 20
92.2549107035
 30
0.0
 11
123.3388813552
 21
92.2055978603
 31
0.0
  0
LINE
  5
340
330
1F
100
AcDbEntity
  8
0
  6
Continuous
 62
     7
370
    15
100
AcDbLine
 10
123.25902927
 20
93.1162779086
 30
0.0
 11
123.25902927
 21
92.2549107035
 31
0.0
  0
LINE
  5
341
330
1F
100
AcDbEntity
  8
0
  6
Continuous
 62
     7
370
    15
100
AcDbLine
 10
125.484518744
 20
92.2549107035
 30
0.0
 11
125.4046666587
 21
92.2055978603
 31
0.0
  0
LINE
  5
342
330
1F
100
AcDbEntity
  8
0
  6
Continuous
 62
     7
370
    15
100
AcDbLine
 10
125.484518744
 20
93.1162779086
 30
0.0
 11
125.4046666587
 21
93.1655907518
 31
0.0
  0
LINE
  5
343
330
1F
100
AcDbEntity
  8
0
  6
Continuous
 62
     7
370
    15
100
AcDbLine
 10
125.0727760523
 20
93.2055943061
 30
0.0
 11
125.371774007
 21
93.2055943061
 31
0.0
  0
LINE
  5
344
330
1F
100
AcDbEntity
  8
0
  6
Continuous
 62
     7
370
    15
100
AcDbLine
 10
123.371774007
 20
93.2055943061
 30
0.0
 11
123.4036589468
 21
93.2055943061
 31
0.0
  0
LINE
  5
345
330
1F
100
AcDbEntity
  8
0
  6
Continuous
 62
     7
370
    15
100
AcDbLine
 10
124.0943437342
 20
94.2062779086
 30
0.0
 11
124.3385235743
 21
94.245594306
 31
0.0
  0
LINE
  5
346
330
1F
100
AcDbEntity
  8
0
  6
Continuous
 62
     7
370
    15
100
AcDbLine
 10
124.9757035463
 20
94.245594306
 30
0.0
 11
125.2037670311
 21
94.2062779086
 31
0.0
  0
LINE
  5
347
330
1F
100
AcDbEntity
  8
0
  6
Continuous
 62
     7
370
    15
100
AcDbLine
 10
125.2037670311
 20
94.2062779086
 30
0.0
 11
125.2037670311
 21
93.3449107035
 31
0.0
  0
SPLINE
  5
348
330
1F
100
AcDbEntity
  8
0
  6
Continuous
 62
     7
370
    15
100
AcDbSpline
210
0.0
220
0.0
230
1.0
 70
     8
 71
     3
 72
     9
 73
     5
 74
     0
 42
0.00000001
 43
0.00000001
 12
1.0
 22
0.0
 32
0.0
 13
1.0
 23
0.0
 33
0.0
 40
0.0
 40
0.0
 40
0.0
 40
0.0
 40
0.0702005767034767
 40
1.0
 40
1.0
 40
1.0
 40
1.0
 10
124.6490553826644
 20
93.25559430605031
 30
0.0
 10
124.6622053309265
 20
93.25568352930382
 30
0.0
 10
124.8495249923821
 20
93.25695450537991
 30
0.0
 10
125.0330891672026
 20
93.30253240175901
 30
0.0
 10
125.2037670310887
 20
93.34491070352735
 30
0.0
  0
LINE
  5
349
330
1F
100
AcDbEntity
  8
0
  6
Continuous
 62
     7
370
    15
100
AcDbLine
 10
124.0943437342
 20
93.3449107035
 30
0.0
 11
124.6490553827
 21
93.2555943061
 31
0.0
  0
LINE
  5
34A
330
1F
100
AcDbEntity
  8
0
  6
Continuous
 62
     7
370
    15
100
AcDbLine
 10
124.0943437342
 20
94.2062779086
 30
0.0
 11
124.0943437342
 21
93.3449107035
 31
0.0
  0
SPLINE
  5
34B
330
1F
100
AcDbEntity
  8
0
  6
Continuous
 62
     7
370
    15
100
AcDbSpline
210
0.0
220
0.0
230
1.0
 70
     8
 71
     3
 72
     9
 73
     5
 74
     0
 42
0.00000001
 43
0.00000001
 12
1.0
 22
0.0
 32
0.0
 13
1.0
 23
0.0
 33
0.0
 40
0.0
 40
0.0
 40
0.0
 40
0.0
 40
0.2686336050555151
 40
1.0
 40
1.0
 40
1.0
 40
1.0
 10
123.6783472221805
 20
93.25559430605033
 30
0.0
 10
123.7161729454744
 20
93.25692009656721
 30
0.0
 10
123.8569808063748
 20
93.26185540805449
 30
0.0
 10
123.9940765294745
 20
93.30982636077448
 30
0.0
 10
124.0943437342402
 20
93.34491070352735
 30
0.0
  0
LINE
  5
34C
330
1F
100
AcDbEntity
  8
0
  6
Continuous
 62
     7
370
    15
100
AcDbLine
 10
124.6490553827
 20
93.2555943061
 30
0.0
 11
123.6783472222
 21
93.2555943061
 31
0.0
  0
LINE
  5
34D
330
1F
100
AcDbEntity
  8
0
  6
Continuous
 62
     7
370
    15
100
AcDbLine
 10
123.9495789222
 20
94.245594306
 30
0.0
 11
124.0943437342
 21
94.2062779086
 31
0.0
  0
LINE
  5
34E
330
1F
100
AcDbEntity
  8
0
  6
Continuous
 62
     7
370
    15
100
AcDbLine
 10
125.2037670311
 20
93.3449107035
 30
0.0
 11
125.3424821675
 21
93.2555943061
 31
0.0
  0
LINE
  5
34F
330
1F
100
AcDbEntity
  8
0
  6
Continuous
 62
     7
370
    15
100
AcDbLine
 10
125.3424821675
 20
93.2555943061
 30
0.0
 11
124.6490553827
 21
93.2555943061
 31
0.0
  0
LINE
  5
350
330
1F
100
AcDbEntity
  8
0
  6
Continuous
 62
     7
370
    15
100
AcDbLine
 10
125.2037670311
 20
94.2062779086
 30
0.0
 11
125.2648283769
 21
94.245594306
 31
0.0
  0
SPLINE
  5
351
330
1F
100
AcDbEntity
  8
0
  6
Continuous
 62
     7
370
    15
100
AcDbSpline
210
0.0
220
0.0
230
1.0
 70
     8
 71
     3
 72
     9
 73
     5
 74
     0
 42
0.00000001
 43
0.00000001
 12
1.0
 22
0.0
 32
0.0
 13
1.0
 23
0.0
 33
0.0
 40
0.0
 40
0.0
 40
0.0
 40
0.0
 40
0.9250528693878103
 40
1.0
 40
1.0
 40
1.0
 40
1.0
 10
123.2623507101207
 20
94.20627790857327
 30
0.0
 10
123.2969717596567
 20
94.22198865112644
 30
0.0
 10
123.334397782192
 20
94.23897226695327
 30
0.0
 10
123.3732938924571
 20
94.24513260629226
 30
0.0
 10
123.3762090443134
 20
94.24559430604931
 30
0.0
  0
SPLINE
  5
352
330
1F
100
AcDbEntity
  8
0
  6
Continuous
 62
     7
370
    15
100
AcDbSpline
210
0.0
220
0.0
230
1.0
 70
     8
 71
     3
 72
     9
 73
     5
 74
     0
 42
0.00000001
 43
0.00000001
 12
1.0
 22
0.0
 32
0.0
 13
1.0
 23
0.0
 33
0.0
 40
0.0
 40
0.0
 40
0.0
 40
0.0
 40
0.2575513451038095
 40
1.0
 40
1.0
 40
1.0
 40
1.0
 10
123.2623507101207
 20
93.34491070352736
 30
0.0
 10
123.2972743400719
 20
93.33142765897237
 30
0.0
 10
123.4328730492812
 20
93.2790767595836
 30
0.0
 10
123.5737519051427
 20
93.26560006202509
 30
0.0
 10
123.6783472221805
 20
93.25559430605033
 30
0.0
  0
LINE
  5
353
330
1F
100
AcDbEntity
  8
0
  6
Continuous
 62
     7
370
    15
100
AcDbLine
 10
123.2623507101
 20
94.2062779086
 30
0.0
 11
123.2623507101
 21
93.3449107035
 31
0.0
  0
LINE
  5
354
330
1F
100
AcDbEntity
  8
0
  6
Continuous
 62
     7
370
    15
100
AcDbLine
 10
125.4811973038
 20
94.2062779086
 30
0.0
 11
125.4811973038
 21
93.3449107035
 31
0.0
  0
SPLINE
  5
355
330
1F
100
AcDbEntity
  8
0
  6
Continuous
 62
     7
370
    15
100
AcDbSpline
210
0.0
220
0.0
230
1.0
 70
     8
 71
     3
 72
     9
 73
     5
 74
     0
 42
0.00000001
 43
0.00000001
 12
1.0
 22
0.0
 32
0.0
 13
1.0
 23
0.0
 33
0.0
 40
0.0
 40
0.0
 40
0.0
 40
0.0
 40
0.0702005767033871
 40
1.0
 40
1.0
 40
1.0
 40
1.0
 10
125.3424821674532
 20
93.25559430605031
 30
0.0
 10
125.3457705369539
 20
93.25568352930382
 30
0.0
 10
125.3926130225163
 20
93.25695450537991
 30
0.0
 10
125.4385163844056
 20
93.30253240175901
 30
0.0
 10
125.4811973038177
 20
93.34491070352735
 30
0.0
  0
LINE
  5
356
330
1F
100
AcDbEntity
  8
0
  6
Continuous
 62
     7
370
    15
100
AcDbLine
 10
123.3416870728
 20
93.29021746
 30
0.0
 11
123.2623507101
 21
93.3449107035
 31
0.0
  0
LINE
  5
357
330
1F
100
AcDbEntity
  8
0
  6
Continuous
 62
     7
370
    15
100
AcDbLine
 10
123.6783472222
 20
93.2555943061
 30
0.0
 11
123.371774007
 21
93.2555943061
 31
0.0
  0
LINE
  5
358
330
1F
100
AcDbEntity
  8
0
  6
Continuous
 62
     7
370
    15
100
AcDbLine
 10
125.371774007
 20
93.2555943061
 30
0.0
 11
125.3424821675
 21
93.2555943061
 31
0.0
  0
LWPOLYLINE
  5
359
330
1F
100
AcDbEntity
  8
0
  6
Continuous
 62
     7
370
    15
100
AcDbPolyline
 90
        3
 70
   128
 43
0.0
 10
270.9187933655
 20
94.5744352052
 10
270.9413934147
 20
94.5959748983
 10
270.9627371975
 20
94.618359347
  0
LINE
  5
35A
330
1F
100
AcDbEntity
  8
0
  6
Continuous
 62
     7
370
    15
100
AcDbLine
 10
137.991774007
 20
60.6455943061
 30
0.0
 11
132.691774007
 21
60.6455943061
 31
0.0
  0
LINE
  5
35B
330
1F
100
AcDbEntity
  8
0
  6
Continuous
 62
     7
370
    15
100
AcDbLine
 10
143.291774007
 20
60.6455943061
 30
0.0
 11
137.991774007
 21
60.6455943061
 31
0.0
  0
LINE
  5
35C
330
1F
100
AcDbEntity
  8
0
  6
Continuous
 62
     7
370
    15
100
AcDbLine
 10
137.991774007
 20
61.8455943061
 30
0.0
 11
132.291774007
 21
61.8455943061
 31
0.0
  0
LINE
  5
35D
330
1F
100
AcDbEntity
  8
0
  6
Continuous
 62
     7
370
    15
100
AcDbLine
 10
143.691774007
 20
61.8455943061
 30
0.0
 11
137.991774007
 21
61.8455943061
 31
0.0
  0
LINE
  5
35E
330
1F
100
AcDbEntity
  8
0
  6
Continuous
 62
     7
370
    15
100
AcDbLine
 10
259.491774007
 20
61.8455943061
 30
0.0
 11
248.091774007
 21
61.8455943061
 31
0.0
  0
LINE
  5
35F
330
1F
100
AcDbEntity
  8
0
  6
Continuous
 62
     7
370
    15
100
AcDbLine
 10
259.091774007
 20
60.6455943061
 30
0.0
 11
248.491774007
 21
60.6455943061
 31
0.0
  0
LINE
  5
360
330
1F
100
AcDbEntity
  8
0
  6
Continuous
 62
     7
370
    15
100
AcDbLine
 10
259.983704051
 20
75.4455943061
 30
0.0
 11
247.5998439629
 21
75.4455943061
 31
0.0
  0
LINE
  5
361
330
1F
100
AcDbEntity
  8
0
  6
Continuous
 62
     7
370
    15
100
AcDbLine
 10
137.991774007
 20
75.4455943061
 30
0.0
 11
131.7998439629
 21
75.4455943061
 31
0.0
  0
LINE
  5
362
330
1F
100
AcDbEntity
  8
0
  6
Continuous
 62
     7
370
    15
100
AcDbLine
 10
144.183704051
 20
75.4455943061
 30
0.0
 11
137.991774007
 21
75.4455943061
 31
0.0
  0
ENDSEC
  0
SECTION
  2
OBJECTS
  0
DICTIONARY
  5
C
330
0
100
AcDbDictionary
281
     1
  3
ACAD_GROUP
350
D
  3
ACAD_LAYOUT
350
1A
  3
ACAD_MLINESTYLE
350
17
  3
ACAD_PLOTSETTINGS
350
19
  3
ACAD_PLOTSTYLENAME
350
E
  0
DICTIONARY
  5
D
102
{ACAD_REACTORS
330
C
102
}
330
C
100
AcDbDictionary
281
     1
  0
DICTIONARY
  5
1A
102
{ACAD_REACTORS
330
C
102
}
330
C
100
AcDbDictionary
281
     1
  3
Layout1
350
1E
  3
Layout2
350
26
  3
Model
350
22
  0
DICTIONARY
  5
17
102
{ACAD_REACTORS
330
C
102
}
330
C
100
AcDbDictionary
281
     1
  3
Standard
350
18
  0
DICTIONARY
  5
19
102
{ACAD_REACTORS
330
C
102
}
330
C
100
AcDbDictionary
281
     1
  0
ACDBDICTIONARYWDFLT
  5
E
102
{ACAD_REACTORS
330
C
102
}
330
C
100
AcDbDictionary
281
     1
  3
Normal
350
F
100
AcDbDictionaryWithDefault
340
F
  0
LAYOUT
  5
1E
102
{ACAD_REACTORS
330
1A
102
}
330
1A
100
AcDbPlotSettings
  1

  2
none_device
  4

  6

 40
0.0
 41
0.0
 42
0.0
 43
0.0
 44
0.0
 45
0.0
 46
0.0
 47
0.0
 48
0.0
 49
0.0
140
0.0
141
0.0
142
1.0
143
1.0
 70
   688
 72
     0
 73
     0
 74
     5
  7

 75
    16
147
1.0
148
0.0
149
0.0
100
AcDbLayout
  1
Layout1
 70
     1
 71
     1
 10
0.0
 20
0.0
 11
420.0
 21
297.0
 12
0.0
 22
0.0
 32
0.0
 14
1.0000000000E+20
 24
1.0000000000E+20
 34
1.0000000000E+20
 15
-1.0000000000E+20
 25
-1.0000000000E+20
 35
-1.0000000000E+20
146
0.0
 13
0.0
 23
0.0
 33
0.0
 16
1.0
 26
0.0
 36
0.0
 17
0.0
 27
1.0
 37
0.0
 76
     0
330
1B
  0
LAYOUT
  5
26
102
{ACAD_REACTORS
330
1A
102
}
330
1A
100
AcDbPlotSettings
  1

  2
none_device
  4

  6

 40
0.0
 41
0.0
 42
0.0
 43
0.0
 44
0.0
 45
0.0
 46
0.0
 47
0.0
 48
0.0
 49
0.0
140
0.0
141
0.0
142
1.0
143
1.0
 70
   688
 72
     0
 73
     0
 74
     5
  7

 75
    16
147
1.0
148
0.0
149
0.0
100
AcDbLayout
  1
Layout2
 70
     1
 71
     2
 10
0.0
 20
0.0
 11
0.0
 21
0.0
 12
0.0
 22
0.0
 32
0.0
 14
0.0
 24
0.0
 34
0.0
 15
0.0
 25
0.0
 35
0.0
146
0.0
 13
0.0
 23
0.0
 33
0.0
 16
1.0
 26
0.0
 36
0.0
 17
0.0
 27
1.0
 37
0.0
 76
     0
330
23
  0
LAYOUT
  5
22
102
{ACAD_REACTORS
330
1A
102
}
330
1A
100
AcDbPlotSettings
  1

  2
none_device
  4

  6

 40
0.0
 41
0.0
 42
0.0
 43
0.0
 44
0.0
 45
0.0
 46
0.0
 47
0.0
 48
0.0
 49
0.0
140
0.0
141
0.0
142
1.0
143
1.0
 70
  1712
 72
     0
 73
     0
 74
     0
  7

 75
     0
147
1.0
148
0.0
149
0.0
100
AcDbLayout
  1
Model
 70
     1
 71
     0
 10
0.0
 20
0.0
 11
431.8
 21
279.4
 12
0.0
 22
0.0
 32
0.0
 14
0.0
 24
0.0
 34
0.0
 15
431.8
 25
279.4
 35
0.0
146
0.0
 13
0.0
 23
0.0
 33
0.0
 16
1.0
 26
0.0
 36
0.0
 17
0.0
 27
1.0
 37
0.0
 76
     0
330
1F
331
29
  0
MLINESTYLE
  5
18
102
{ACAD_REACTORS
330
17
102
}
330
17
100
AcDbMlineStyle
  2
Standard
 70
     0
  3

 62
   256
 51
90.0
 52
90.0
 71
     2
 49
0.5
 62
   256
  6
BYLAYER
 49
-0.5
 62
   256
  6
BYLAYER
  0
ACDBPLACEHOLDER
  5
F
102
{ACAD_REACTORS
330
E
102
}
330
E
  0
ENDSEC
  0
EOF
