  0
SECTION
  2
HEADER
  9
$ACADVER
  1
AC1015
  9
$ACADMAINTVER
 70
     6
  9
$DWGCODEPAGE
  3
ANSI_1252
  9
$INSBASE
 10
0.0
 20
0.0
 30
0.0
  9
$EXTMIN
 10
0.0
 20
0.0
 30
0.0
  9
$EXTMAX
 10
2159.0
 20
1397.0
 30
0.0
  9
$LIMMIN
 10
0.0
 20
0.0
  9
$LIMMAX
 10
2159.0
 20
1397.0
  9
$ORTHOMODE
 70
     0
  9
$REGENMODE
 70
     1
  9
$FILLMODE
 70
     1
  9
$QTEXTMODE
 70
     0
  9
$MIRRTEXT
 70
     1
  9
$LTSCALE
 40
5.0
  9
$ATTMODE
 70
     1
  9
$TEXTSIZE
 40
17.5
  9
$TRACEWID
 40
1.0
  9
$TEXTSTYLE
  7
Standard
  9
$CLAYER
  8
0
  9
$CELTYPE
  6
ByLayer
  9
$CECOLOR
 62
   256
  9
$CELTSCALE
 40
1.0
  9
$DISPSILH
 70
     0
  9
$DIMSCALE
 40
1.0
  9
$DIMASZ
 40
16.51
  9
$DIMEXO
 40
5.0
  9
$DIMDLI
 40
3.75
  9
$DIMRND
 40
0.0
  9
$DIMDLE
 40
0.0
  9
$DIMEXE
 40
5.0
  9
$DIMTP
 40
0.0
  9
$DIMTM
 40
0.0
  9
$DIMTXT
 40
17.5
  9
$DIMCEN
 40
2.5
  9
$DIMTSZ
 40
0.0
  9
$DIMTOL
 70
     0
  9
$DIMLIM
 70
     0
  9
$DIMTIH
 70
     1
  9
$DIMTOH
 70
     1
  9
$DIMSE1
 70
     0
  9
$DIMSE2
 70
     0
  9
$DIMTAD
 70
     1
  9
$DIMZIN
 70
     0
  9
$DIMBLK
  1

  9
$DIMASO
 70
     1
  9
$DIMSHO
 70
     1
  9
$DIMPOST
  1

  9
$DIMAPOST
  1

  9
$DIMALT
 70
     0
  9
$DIMALTD
 70
     3
  9
$DIMALTF
 40
0.0393700787
  9
$DIMLFAC
 40
1.0
  9
$DIMTOFL
 70
     1
  9
$DIMTVP
 40
0.0
  9
$DIMTIX
 70
     0
  9
$DIMSOXD
 70
     0
  9
$DIMSAH
 70
     0
  9
$DIMBLK1
  1

  9
$DIMBLK2
  1

  9
$DIMSTYLE
  2
ISO-25
  9
$DIMCLRD
 70
     0
  9
$DIMCLRE
 70
     0
  9
$DIMCLRT
 70
     0
  9
$DIMTFAC
 40
1.0
  9
$DIMGAP
 40
7.62
  9
$DIMJUST
 70
     0
  9
$DIMSD1
 70
     0
  9
$DIMSD2
 70
     0
  9
$DIMTOLJ
 70
     0
  9
$DIMTZIN
 70
     0
  9
$DIMALTZ
 70
     0
  9
$DIMALTTZ
 70
     0
  9
$DIMUPT
 70
     0
  9
$DIMDEC
 70
     3
  9
$DIMTDEC
 70
     3
  9
$DIMALTU
 70
     2
  9
$DIMALTTD
 70
     3
  9
$DIMTXSTY
  7
Standard
  9
$DIMAUNIT
 70
     0
  9
$DIMADEC
 70
     2
  9
$DIMALTRND
 40
0.0
  9
$DIMAZIN
 70
     0
  9
$DIMDSEP
 70
    44
  9
$DIMATFIT
 70
     3
  9
$DIMFRAC
 70
     0
  9
$DIMLDRBLK
  1

  9
$DIMLUNIT
 70
     2
  9
$DIMLWD
 70
    -2
  9
$DIMLWE
 70
    -2
  9
$DIMTMOVE
 70
     0
  9
$LUNITS
 70
     2
  9
$LUPREC
 70
     8
  9
$SKETCHINC
 40
1.0
  9
$FILLETRAD
 40
10.0
  9
$AUNITS
 70
     0
  9
$AUPREC
 70
     8
  9
$MENU
  1
.
  9
$ELEVATION
 40
0.0
  9
$PELEVATION
 40
0.0
  9
$THICKNESS
 40
0.0
  9
$LIMCHECK
 70
     0
  9
$CHAMFERA
 40
10.0
  9
$CHAMFERB
 40
10.0
  9
$CHAMFERC
 40
20.0
  9
$CHAMFERD
 40
0.0
  9
$SKPOLY
 70
     0
  9
$TDCREATE
 40
2456246.358250069
  9
$TDUCREATE
 40
2456246.358250069
  9
$TDUPDATE
 40
2456246.358251516
  9
$TDUUPDATE
 40
2456246.358251516
  9
$TDINDWG
 40
0.0000000116
  9
$TDUSRTIMER
 40
0.0000000116
  9
$USRTIMER
 70
     1
  9
$ANGBASE
 50
0.0
  9
$ANGDIR
 70
     0
  9
$PDMODE
 70
     0
  9
$PDSIZE
 40
-1.0
  9
$PLINEWID
 40
0.0
  9
$SPLFRAME
 70
     0
  9
$SPLINETYPE
 70
     6
  9
$SPLINESEGS
 70
     8
  9
$HANDSEED
  5
2CE
  9
$SURFTAB1
 70
     6
  9
$SURFTAB2
 70
     6
  9
$SURFTYPE
 70
     6
  9
$SURFU
 70
     6
  9
$SURFV
 70
     6
  9
$UCSBASE
  2

  9
$UCSNAME
  2

  9
$UCSORG
 10
0.0
 20
0.0
 30
0.0
  9
$UCSXDIR
 10
1.0
 20
0.0
 30
0.0
  9
$UCSYDIR
 10
0.0
 20
1.0
 30
0.0
  9
$UCSORTHOREF
  2

  9
$UCSORTHOVIEW
 70
     0
  9
$UCSORGTOP
 10
0.0
 20
0.0
 30
0.0
  9
$UCSORGBOTTOM
 10
0.0
 20
0.0
 30
0.0
  9
$UCSORGLEFT
 10
0.0
 20
0.0
 30
0.0
  9
$UCSORGRIGHT
 10
0.0
 20
0.0
 30
0.0
  9
$UCSORGFRONT
 10
0.0
 20
0.0
 30
0.0
  9
$UCSORGBACK
 10
0.0
 20
0.0
 30
0.0
  9
$PUCSBASE
  2

  9
$PUCSNAME
  2

  9
$PUCSORG
 10
0.0
 20
0.0
 30
0.0
  9
$PUCSXDIR
 10
1.0
 20
0.0
 30
0.0
  9
$PUCSYDIR
 10
0.0
 20
1.0
 30
0.0
  9
$PUCSORTHOREF
  2

  9
$PUCSORTHOVIEW
 70
     0
  9
$PUCSORGTOP
 10
0.0
 20
0.0
 30
0.0
  9
$PUCSORGBOTTOM
 10
0.0
 20
0.0
 30
0.0
  9
$PUCSORGLEFT
 10
0.0
 20
0.0
 30
0.0
  9
$PUCSORGRIGHT
 10
0.0
 20
0.0
 30
0.0
  9
$PUCSORGFRONT
 10
0.0
 20
0.0
 30
0.0
  9
$PUCSORGBACK
 10
0.0
 20
0.0
 30
0.0
  9
$USERI1
 70
     0
  9
$USERI2
 70
     0
  9
$USERI3
 70
     0
  9
$USERI4
 70
     0
  9
$USERI5
 70
     0
  9
$USERR1
 40
0.0
  9
$USERR2
 40
0.0
  9
$USERR3
 40
0.0
  9
$USERR4
 40
0.0
  9
$USERR5
 40
0.0
  9
$WORLDVIEW
 70
     1
  9
$SHADEDGE
 70
     3
  9
$SHADEDIF
 70
    70
  9
$TILEMODE
 70
     1
  9
$MAXACTVP
 70
    64
  9
$PINSBASE
 10
0.0
 20
0.0
 30
0.0
  9
$PLIMCHECK
 70
     0
  9
$PEXTMIN
 10
1.0000000000E+20
 20
1.0000000000E+20
 30
1.0000000000E+20
  9
$PEXTMAX
 10
-1.0000000000E+20
 20
-1.0000000000E+20
 30
-1.0000000000E+20
  9
$PLIMMIN
 10
0.0
 20
0.0
  9
$PLIMMAX
 10
420.0
 20
297.0
  9
$UNITMODE
 70
     0
  9
$VISRETAIN
 70
     1
  9
$PLINEGEN
 70
     0
  9
$PSLTSCALE
 70
     1
  9
$TREEDEPTH
 70
  3020
  9
$CMLSTYLE
  2
Standard
  9
$CMLJUST
 70
     0
  9
$CMLSCALE
 40
20.0
  9
$PROXYGRAPHICS
 70
     1
  9
$MEASUREMENT
 70
     1
  9
$CELWEIGHT
370
    -1
  9
$ENDCAPS
280
     0
  9
$JOINSTYLE
280
     0
  9
$LWDISPLAY
290
     1
  9
$INSUNITS
 70
     4
  9
$HYPERLINKBASE
  1

  9
$STYLESHEET
  1

  9
$XEDIT
290
     1
  9
$CEPSNTYPE
380
     0
  9
$PSTYLEMODE
290
     1
  9
$FINGERPRINTGUID
  2
{E5847DD5-CB6E-4352-9997-AF6478B31B85}
  9
$VERSIONGUID
  2
{FAEB1C32-E019-11D5-929B-00C0DF256EC4}
  9
$EXTNAMES
290
     1
  9
$PSVPSCALE
 40
0.0
  9
$OLESTARTUP
290
     0
  0
ENDSEC
  0
SECTION
  2
CLASSES
  0
CLASS
  1
ACDBDICTIONARYWDFLT
  2
AcDbDictionaryWithDefault
  3
ObjectDBX Classes
 90
        0
280
     0
281
     0
  0
CLASS
  1
VISUALSTYLE
  2
AcDbVisualStyle
  3
ObjectDBX Classes
 90
     4095
280
     0
281
     0
  0
CLASS
  1
MATERIAL
  2
AcDbMaterial
  3
ObjectDBX Classes
 90
     1153
280
     0
281
     0
  0
CLASS
  1
ACDBPLACEHOLDER
  2
AcDbPlaceHolder
  3
ObjectDBX Classes
 90
        0
280
     0
281
     0
  0
CLASS
  1
LAYOUT
  2
AcDbLayout
  3
ObjectDBX Classes
 90
        0
280
     0
281
     0
  0
ENDSEC
  0
SECTION
  2
TABLES
  0
TABLE
  2
VPORT
  5
8
330
0
100
AcDbSymbolTable
 70
     1
  0
VPORT
  5
29
330
8
100
AcDbSymbolTableRecord
100
AcDbViewportTableRecord
  2
*Active
 70
     0
 10
0.0
 20
0.0
 11
1.0
 21
1.0
 12
1079.5
 22
698.5
 13
0.0
 23
0.0
 14
10.0
 24
10.0
 15
10.0
 25
10.0
 16
0.0
 26
0.0
 36
1.0
 17
0.0
 27
0.0
 37
0.0
 40
1397.0
 41
1.5454545455
 42
50.0
 43
0.0
 44
0.0
 50
0.0
 51
0.0
 71
     0
 72
  2000
 73
     1
 74
     3
 75
     0
 76
     0
 77
     0
 78
     0
281
     0
 65
     1
110
0.0
120
0.0
130
0.0
111
1.0
121
0.0
131
0.0
112
0.0
122
1.0
132
0.0
 79
     0
146
0.0
  0
ENDTAB
  0
TABLE
  2
LTYPE
  5
5
330
0
100
AcDbSymbolTable
 70
     6
  0
LTYPE
  5
14
330
5
100
AcDbSymbolTableRecord
100
AcDbLinetypeTableRecord
  2
ByBlock
 70
     0
  3

 72
    65
 73
     0
 40
0.0
  0
LTYPE
  5
15
330
5
100
AcDbSymbolTableRecord
100
AcDbLinetypeTableRecord
  2
ByLayer
 70
     0
  3

 72
    65
 73
     0
 40
0.0
  0
LTYPE
  5
16
330
5
100
AcDbSymbolTableRecord
100
AcDbLinetypeTableRecord
  2
Continuous
 70
     0
  3
Solid line
 72
    65
 73
     0
 40
0.0
  0
LTYPE
  5
3F
330
5
100
AcDbSymbolTableRecord
100
AcDbLinetypeTableRecord
  2
HIDDEN
 70
     0
  3
Hidden __ __ __ __ __ __ __ __ __ __ __ __ __ __
 72
    65
 73
     2
 40
1.905
 49
1.27
 74
     0
 49
-0.635
 74
     0
  0
LTYPE
  5
40
330
5
100
AcDbSymbolTableRecord
100
AcDbLinetypeTableRecord
  2
PHANTOM
 70
     0
  3
Phantom ______  __  __  ______  __  __  ______
 72
    65
 73
     6
 40
12.7
 49
6.35
 74
     0
 49
-1.27
 74
     0
 49
1.27
 74
     0
 49
-1.27
 74
     0
 49
1.27
 74
     0
 49
-1.27
 74
     0
  0
LTYPE
  5
41
330
5
100
AcDbSymbolTableRecord
100
AcDbLinetypeTableRecord
  2
CENTER
 70
     0
  3
Center ____ _ ____ _ ____ _ ____ _ ____ _ ____
 72
    65
 73
     4
 40
10.16
 49
6.35
 74
     0
 49
-1.27
 74
     0
 49
1.27
 74
     0
 49
-1.27
 74
     0
  0
LTYPE
  5
42
330
5
100
AcDbSymbolTableRecord
100
AcDbLinetypeTableRecord
  2
CENTERX2
 70
     0
  3
Center (2x) ________  __  ________  __  _____
 72
    65
 73
     4
 40
20.32
 49
12.7
 74
     0
 49
-2.54
 74
     0
 49
2.54
 74
     0
 49
-2.54
 74
     0
  0
LTYPE
  5
43
330
5
100
AcDbSymbolTableRecord
100
AcDbLinetypeTableRecord
  2
DOT2
 70
     0
  3
Dot (.5x) ........................................
 72
    65
 73
     2
 40
0.635
 49
0.0
 74
     0
 49
-0.635
 74
     0
  0
ENDTAB
  0
TABLE
  2
LAYER
  5
2
330
0
100
AcDbSymbolTable
 70
     1
  0
LAYER
  5
10
330
2
100
AcDbSymbolTableRecord
100
AcDbLayerTableRecord
  2
0
 70
     0
 62
     7
  6
Continuous
370
    -3
390
F
  0
ENDTAB
  0
TABLE
  2
STYLE
  5
3
330
0
100
AcDbSymbolTable
 70
     1
  0
STYLE
  5
11
330
3
100
AcDbSymbolTableRecord
100
AcDbTextStyleTableRecord
  2
Standard
 70
     0
 40
0.0
 41
1.0
 50
0.0
 71
     0
 42
17.5
  3
txt
  4

  0
ENDTAB
  0
TABLE
  2
VIEW
  5
6
330
0
100
AcDbSymbolTable
 70
     0
  0
ENDTAB
  0
TABLE
  2
UCS
  5
7
330
0
100
AcDbSymbolTable
 70
     0
  0
ENDTAB
  0
TABLE
  2
APPID
  5
9
330
0
100
AcDbSymbolTable
 70
     1
  0
APPID
  5
12
330
9
100
AcDbSymbolTableRecord
100
AcDbRegAppTableRecord
  2
ACAD
 70
     0
  0
ENDTAB
  0
TABLE
  2
DIMSTYLE
  5
A
330
0
100
AcDbSymbolTable
 70
     1
100
AcDbDimStyleTable
  0
DIMSTYLE
105
27
330
A
100
AcDbSymbolTableRecord
100
AcDbDimStyleTableRecord
  2
ISO-25
 70
     0
 41
2.5
 42
0.625
 43
3.75
 44
1.25
 73
     0
 74
     0
 77
     1
 78
     8
140
2.5
141
2.5
143
0.0393700787
147
0.625
171
     3
172
     1
178
     0
271
     2
272
     2
274
     3
278
    44
283
     0
284
     8
340
11
  0
ENDTAB
  0
TABLE
  2
BLOCK_RECORD
  5
1
330
0
100
AcDbSymbolTable
 70
     1
  0
BLOCK_RECORD
  5
1F
330
1
100
AcDbSymbolTableRecord
100
AcDbBlockTableRecord
  2
*Model_Space
340
22
  0
BLOCK_RECORD
  5
1B
330
1
100
AcDbSymbolTableRecord
100
AcDbBlockTableRecord
  2
*Paper_Space
340
1E
  0
BLOCK_RECORD
  5
23
330
1
100
AcDbSymbolTableRecord
100
AcDbBlockTableRecord
  2
*Paper_Space0
340
26
  0
ENDTAB
  0
ENDSEC
  0
SECTION
  2
BLOCKS
  0
BLOCK
  5
20
330
1F
100
AcDbEntity
  8
0
100
AcDbBlockBegin
  2
*Model_Space
 70
     0
 10
0.0
 20
0.0
 30
0.0
  3
*Model_Space
  1

  0
ENDBLK
  5
21
330
1F
100
AcDbEntity
  8
0
100
AcDbBlockEnd
  0
BLOCK
  5
1C
330
1B
100
AcDbEntity
 67
     1
  8
0
100
AcDbBlockBegin
  2
*Paper_Space
 70
     0
 10
0.0
 20
0.0
 30
0.0
  3
*Paper_Space
  1

  0
ENDBLK
  5
1D
330
1B
100
AcDbEntity
 67
     1
  8
0
100
AcDbBlockEnd
  0
BLOCK
  5
24
330
23
100
AcDbEntity
  8
0
100
AcDbBlockBegin
  2
*Paper_Space0
 70
     0
 10
0.0
 20
0.0
 30
0.0
  3
*Paper_Space0
  1

  0
ENDBLK
  5
25
330
23
100
AcDbEntity
  8
0
100
AcDbBlockEnd
  0
ENDSEC
  0
SECTION
  2
ENTITIES
  0
LINE
  5
44
330
1F
100
AcDbEntity
  8
0
  6
Continuous
 62
     7
370
    15
100
AcDbLine
 10
1086.2652183109
 20
413.2704228559
 30
0.0
 11
1086.2652183109
 21
413.2670253911
 31
0.0
  0
LINE
  5
45
330
1F
100
AcDbEntity
  8
0
  6
Continuous
 62
     7
370
    15
100
AcDbLine
 10
1092.2652192944
 20
413.2670253911
 30
0.0
 11
1092.2652192944
 21
413.2704228559
 31
0.0
  0
LINE
  5
46
330
1F
100
AcDbEntity
  8
0
  6
Continuous
 62
     7
370
    15
100
AcDbLine
 10
1087.2652184748
 20
413.2704228559
 30
0.0
 11
1087.2652184748
 21
413.2670253911
 31
0.0
  0
LINE
  5
47
330
1F
100
AcDbEntity
  8
0
  6
Continuous
 62
     7
370
    15
100
AcDbLine
 10
864.7652239137
 20
400.1943856874
 30
0.0
 11
1264.765214973
 21
400.1943856874
 31
0.0
  0
ARC
  5
48
330
1F
100
AcDbEntity
  8
0
  6
Continuous
 62
     7
370
    15
100
AcDbCircle
 10
1054.1304157177
 20
414.5385793907
 30
0.0
 40
1.000000000000047
100
AcDbArc
 50
187.0271655875
 51
219.7546578804
  0
ARC
  5
49
330
1F
100
AcDbEntity
  8
0
  6
Continuous
 62
     7
370
    15
100
AcDbCircle
 10
1075.4000222385
 20
414.5385793907
 30
0.0
 40
0.9999999999998306
100
AcDbArc
 50
320.2453421196
 51
352.9728344126
  0
SPLINE
  5
4A
330
1F
100
AcDbEntity
  8
0
  6
Continuous
 62
     7
370
    15
100
AcDbSpline
210
0.0
220
0.0
230
1.0
 70
     8
 71
     3
 72
    12
 73
     8
 74
     0
 42
0.00000001
 43
0.00000001
 12
1.0
 22
0.0
 32
0.0
 13
1.0
 23
0.0
 33
0.0
 40
0.0
 40
0.0
 40
0.0
 40
0.0
 40
0.1457387577716084
 40
0.4224068713779146
 40
0.702564667755865
 40
0.9915724834677646
 40
1.0
 40
1.0
 40
1.0
 40
1.0
 10
1053.361625277322
 20
413.8990730443051
 30
0.0
 10
1053.530574302064
 20
413.6857611323253
 30
0.0
 10
1054.020253437903
 20
413.0675013176766
 30
0.0
 10
1054.60772895236
 20
412.0527941066831
 30
0.0
 10
1054.996550952153
 20
410.8602703654734
 30
0.0
 10
1055.152874366292
 20
410.0667325624504
 30
0.0
 10
1055.095872872366
 20
409.6547364638215
 30
0.0
 10
1055.094257795137
 20
409.6430629887631
 30
0.0
  0
SPLINE
  5
4B
330
1F
100
AcDbEntity
  8
0
  6
Continuous
 62
     7
370
    15
100
AcDbSpline
210
0.0
220
0.0
230
1.0
 70
     8
 71
     3
 72
    11
 73
     7
 74
     0
 42
0.00000001
 43
0.00000001
 12
1.0
 22
0.0
 32
0.0
 13
1.0
 23
0.0
 33
0.0
 40
0.0
 40
0.0
 40
0.0
 40
0.0
 40
0.2706725369051157
 40
0.5972759800142181
 40
0.911493856990518
 40
1.0
 40
1.0
 40
1.0
 40
1.0
 10
1074.460671150011
 20
409.9939555325558
 30
0.0
 10
1074.490008791949
 20
410.3358949145093
 30
0.0
 10
1074.554746312204
 20
411.0904309372506
 30
0.0
 10
1075.033900446408
 20
412.2716487080749
 30
0.0
 10
1075.635491338375
 20
413.2405242382778
 30
0.0
 10
1076.072723628076
 20
413.7804206910996
 30
0.0
 10
1076.168813609403
 20
413.8990730443051
 30
0.0
  0
ARC
  5
4C
330
1F
100
AcDbEntity
  8
0
  6
Continuous
 62
     7
370
    15
100
AcDbCircle
 10
1054.1304157177
 20
404.9172332908
 30
0.0
 40
0.9999999999999468
100
AcDbArc
 50
189.4154824284
 51
258.0798679019
  0
ARC
  5
4D
330
1F
100
AcDbEntity
  8
0
  6
Continuous
 62
     7
370
    15
100
AcDbCircle
 10
1075.4000222385
 20
404.9172332908
 30
0.0
 40
0.9999999999999468
100
AcDbArc
 50
281.9201320981
 51
350.5845175716
  0
LINE
  5
4E
330
1F
100
AcDbEntity
  8
0
  6
Continuous
 62
     7
370
    15
100
AcDbLine
 10
1053.0229703122
 20
405.3077489533
 30
0.0
 11
1053.1123512023
 21
404.7671050229
 31
0.0
  0
SPLINE
  5
4F
330
1F
100
AcDbEntity
  8
0
  6
Continuous
 62
     7
370
    15
100
AcDbSpline
210
0.0
220
0.0
230
1.0
 70
     8
 71
     3
 72
    10
 73
     6
 74
     0
 42
0.00000001
 43
0.00000001
 12
1.0
 22
0.0
 32
0.0
 13
1.0
 23
0.0
 33
0.0
 40
0.0
 40
0.0
 40
0.0
 40
0.0
 40
0.1150633326017257
 40
0.749354031985276
 40
1.0
 40
1.0
 40
1.0
 40
1.0
 10
1050.617028825801
 20
417.8400129475643
 30
0.0
 10
1050.725281726208
 20
417.3543308462696
 30
0.0
 10
1051.430282577126
 20
414.1913089465995
 30
0.0
 10
1052.26593265588
 20
409.9877880389021
 30
0.0
 10
1052.855876848184
 20
406.3407278756774
 30
0.0
 10
1053.02297031216
 20
405.3077489533475
 30
0.0
  0
SPLINE
  5
50
330
1F
100
AcDbEntity
  8
0
  6
Continuous
 62
     7
370
    15
100
AcDbSpline
210
0.0
220
0.0
230
1.0
 70
     8
 71
     3
 72
     9
 73
     5
 74
     0
 42
0.00000001
 43
0.00000001
 12
1.0
 22
0.0
 32
0.0
 13
1.0
 23
0.0
 33
0.0
 40
0.0
 40
0.0
 40
0.0
 40
0.0
 40
0.5208434869951301
 40
1.0
 40
1.0
 40
1.0
 40
1.0
 10
1076.387681865018
 20
404.7540218033841
 30
0.0
 10
1076.774886606845
 20
407.0070039434065
 30
0.0
 10
1077.518305218183
 20
411.3326453237382
 30
0.0
 10
1078.465986802086
 20
415.7334733184812
 30
0.0
 10
1078.920074605268
 20
417.8421587147763
 30
0.0
  0
SPLINE
  5
51
330
1F
100
AcDbEntity
  8
0
  6
Continuous
 62
     7
370
    15
100
AcDbSpline
210
0.0
220
0.0
230
1.0
 70
     8
 71
     3
 72
    11
 73
     7
 74
     0
 42
0.00000001
 43
0.00000001
 12
1.0
 22
0.0
 32
0.0
 13
1.0
 23
0.0
 33
0.0
 40
0.0
 40
0.0
 40
0.0
 40
0.0
 40
0.0925538116882209
 40
0.4249798909826402
 40
0.7579034851633021
 40
1.0
 40
1.0
 40
1.0
 40
1.0
 10
1068.758536928218
 20
403.0420571961453
 30
0.0
 10
1068.985730676095
 20
403.0540385920735
 30
0.0
 10
1070.028937567777
 20
403.1090536394553
 30
0.0
 10
1071.819262354366
 20
403.3056807174461
 30
0.0
 10
1073.88490914658
 20
403.595748704429
 30
0.0
 10
1075.096474104479
 20
403.8371666452178
 30
0.0
 10
1075.606570445817
 20
403.9388090767911
 30
0.0
  0
SPLINE
  5
52
330
1F
100
AcDbEntity
  8
0
  6
Continuous
 62
     7
370
    15
100
AcDbSpline
210
0.0
220
0.0
230
1.0
 70
     8
 71
     3
 72
    12
 73
     8
 74
     0
 42
0.00000001
 43
0.00000001
 12
1.0
 22
0.0
 32
0.0
 13
1.0
 23
0.0
 33
0.0
 40
0.0
 40
0.0
 40
0.0
 40
0.0
 40
0.103683302995935
 40
0.3447565476303708
 40
0.5855731870112498
 40
0.8263052588749221
 40
1.0
 40
1.0
 40
1.0
 40
1.0
 10
1058.611092024368
 20
403.2283515133908
 30
0.0
 10
1058.945854029866
 20
403.1901929686879
 30
0.0
 10
1060.058968581185
 20
403.0633122872835
 30
0.0
 10
1062.047130122277
 20
402.9480757627242
 30
0.0
 10
1064.520151421917
 20
402.8869738773734
 30
0.0
 10
1066.779027279839
 20
402.915234789614
 30
0.0
 10
1068.173912179262
 20
403.0046016992039
 30
0.0
 10
1068.758536928218
 20
403.0420571961452
 30
0.0
  0
SPLINE
  5
53
330
1F
100
AcDbEntity
  8
0
  6
Continuous
 62
     7
370
    15
100
AcDbSpline
210
0.0
220
0.0
230
1.0
 70
     8
 71
     3
 72
    10
 73
     6
 74
     0
 42
0.00000001
 43
0.00000001
 12
1.0
 22
0.0
 32
0.0
 13
1.0
 23
0.0
 33
0.0
 40
0.0
 40
0.0
 40
0.0
 40
0.0
 40
0.2502354649165022
 40
0.7279692795911337
 40
1.0
 40
1.0
 40
1.0
 40
1.0
 10
1053.923868440908
 20
403.9388090767911
 30
0.0
 10
1054.291150977644
 20
403.8650168625541
 30
0.0
 10
1055.35962623859
 20
403.650345192991
 30
0.0
 10
1056.918453719151
 20
403.3998602571872
 30
0.0
 10
1058.16046396059
 20
403.2740119790082
 30
0.0
 10
1058.611092024368
 20
403.2283515133908
 30
0.0
  0
SPLINE
  5
54
330
1F
100
AcDbEntity
  8
0
  6
Continuous
 62
     7
370
    15
100
AcDbSpline
210
0.0
220
0.0
230
1.0
 70
     8
 71
     3
 72
     9
 73
     5
 74
     0
 42
0.00000001
 43
0.00000001
 12
1.0
 22
0.0
 32
0.0
 13
1.0
 23
0.0
 33
0.0
 40
0.0
 40
0.0
 40
0.0
 40
0.0
 40
0.4194474163650046
 40
1.0
 40
1.0
 40
1.0
 40
1.0
 10
1050.162111275714
 20
418.8693851628353
 30
0.0
 10
1050.260332900292
 20
418.7158408034339
 30
0.0
 10
1050.494502001699
 20
418.3497773747159
 30
0.0
 10
1050.569642988548
 20
418.0291588784777
 30
0.0
 10
1050.6132662826
 20
417.8430229821255
 30
0.0
  0
SPLINE
  5
55
330
1F
100
AcDbEntity
  8
0
  6
Continuous
 62
     7
370
    15
100
AcDbSpline
210
0.0
220
0.0
230
1.0
 70
     8
 71
     3
 72
    10
 73
     6
 74
     0
 42
0.00000001
 43
0.00000001
 12
1.0
 22
0.0
 32
0.0
 13
1.0
 23
0.0
 33
0.0
 40
0.0
 40
0.0
 40
0.0
 40
0.0
 40
0.11589045142867
 40
0.8374604500228215
 40
1.0
 40
1.0
 40
1.0
 40
1.0
 10
1078.911092930358
 20
417.8416520752957
 30
0.0
 10
1078.917450110772
 20
417.8764663155796
 30
0.0
 10
1078.963389073856
 20
418.128044844923
 30
0.0
 10
1079.092001136228
 20
418.4906747673631
 30
0.0
 10
1079.322570763339
 20
418.8105732674856
 30
0.0
 10
1079.364959948581
 20
418.8693851628353
 30
0.0
  0
LINE
  5
56
330
1F
100
AcDbEntity
  8
0
  6
Continuous
 62
     7
370
    15
100
AcDbLine
 10
907.9152167373
 20
1185.1694077649
 30
0.0
 11
907.9152167373
 21
1190.6844169297
 31
0.0
  0
LINE
  5
57
330
1F
100
AcDbEntity
  8
0
  6
Continuous
 62
     7
370
    15
100
AcDbLine
 10
907.9152167373
 20
1195.8844155469
 30
0.0
 11
907.9152167373
 21
1198.7693995633
 31
0.0
  0
LINE
  5
58
330
1F
100
AcDbEntity
  8
0
  6
Continuous
 62
     7
370
    15
100
AcDbLine
 10
887.9152209096
 20
1198.7693995633
 30
0.0
 11
887.9152209096
 21
1195.8844155469
 31
0.0
  0
LINE
  5
59
330
1F
100
AcDbEntity
  8
0
  6
Continuous
 62
     7
370
    15
100
AcDbLine
 10
887.9152209096
 20
1190.6844169297
 30
0.0
 11
887.9152209096
 21
1185.5693847337
 31
0.0
  0
LINE
  5
5A
330
1F
100
AcDbEntity
  8
0
  6
Continuous
 62
     7
370
    15
100
AcDbLine
 10
1143.0827405833
 20
396.779993216
 30
0.0
 11
1143.0827405833
 21
396.476128737
 31
0.0
  0
LINE
  5
5B
330
1F
100
AcDbEntity
  8
0
  6
Continuous
 62
     7
370
    15
100
AcDbLine
 10
1162.4476954871
 20
396.476128737
 30
0.0
 11
1162.4476954871
 21
396.779993216
 31
0.0
  0
LINE
  5
5C
330
1F
100
AcDbEntity
  8
0
  6
Continuous
 62
     7
370
    15
100
AcDbLine
 10
1140.2652197116
 20
373.1405228772
 30
0.0
 11
1141.7715650582
 21
372.2715169587
 31
0.0
  0
LINE
  5
5D
330
1F
100
AcDbEntity
  8
0
  6
Continuous
 62
     7
370
    15
100
AcDbLine
 10
1163.7588747375
 20
372.2715169587
 30
0.0
 11
1165.2652182215
 21
373.1405228772
 31
0.0
  0
LINE
  5
5E
330
1F
100
AcDbEntity
  8
0
  6
Continuous
 62
     7
370
    15
100
AcDbLine
 10
1140.2652197116
 20
400.1943856874
 30
0.0
 11
1140.2652197116
 21
373.1446952024
 31
0.0
  0
LINE
  5
5F
330
1F
100
AcDbEntity
  8
0
  6
Continuous
 62
     7
370
    15
100
AcDbLine
 10
1165.2652182215
 20
373.1446952024
 30
0.0
 11
1165.2652182215
 21
400.1943856874
 31
0.0
  0
LINE
  5
60
330
1F
100
AcDbEntity
  8
0
  6
Continuous
 62
     7
370
    15
100
AcDbLine
 10
960.015219503
 20
1130.1694006124
 30
0.0
 11
960.1578832202
 21
1128.5386473336
 31
0.0
  0
LINE
  5
61
330
1F
100
AcDbEntity
  8
0
  6
Continuous
 62
     7
370
    15
100
AcDbLine
 10
969.3725526863
 20
1128.5386473336
 30
0.0
 11
969.5152164035
 21
1130.1694006124
 31
0.0
  0
ARC
  5
62
330
1F
100
AcDbEntity
  8
0
  6
Continuous
 62
     7
370
    15
100
AcDbCircle
 10
967.8782562265
 20
1128.6693937377
 30
0.0
 40
1.500000000000024
100
AcDbArc
 50
348.4630409672
 51
355.0
  0
ARC
  5
63
330
1F
100
AcDbEntity
  8
0
  6
Continuous
 62
     7
370
    15
100
AcDbCircle
 10
961.6521817297
 20
1128.6693937377
 30
0.0
 40
1.499999999999913
100
AcDbArc
 50
185.0
 51
191.5369590328
  0
LINE
  5
64
330
1F
100
AcDbEntity
  8
0
  6
Continuous
 62
     7
370
    15
100
AcDbLine
 10
1160.0152187579
 20
1130.1694006124
 30
0.0
 11
1160.1578899258
 21
1128.5386473336
 31
0.0
  0
LINE
  5
65
330
1F
100
AcDbEntity
  8
0
  6
Continuous
 62
     7
370
    15
100
AcDbLine
 10
1169.3725482159
 20
1128.5386473336
 30
0.0
 11
1169.5152193838
 21
1130.1694006124
 31
0.0
  0
ARC
  5
66
330
1F
100
AcDbEntity
  8
0
  6
Continuous
 62
     7
370
    15
100
AcDbCircle
 10
1167.8782562265
 20
1128.6693937377
 30
0.0
 40
1.50000000000009
100
AcDbArc
 50
348.4630409672
 51
355.0
  0
ARC
  5
67
330
1F
100
AcDbEntity
  8
0
  6
Continuous
 62
     7
370
    15
100
AcDbCircle
 10
1161.6521817297
 20
1128.6693937377
 30
0.0
 40
1.50000000000009
100
AcDbArc
 50
185.0
 51
191.5369590328
  0
LINE
  5
68
330
1F
100
AcDbEntity
  8
0
  6
Continuous
 62
     7
370
    15
100
AcDbLine
 10
865.9859270387
 20
418.8693851628
 30
0.0
 11
1263.544511848
 21
418.8693851628
 31
0.0
  0
LINE
  5
69
330
1F
100
AcDbEntity
  8
0
  6
Continuous
 62
     7
370
    15
100
AcDbLine
 10
1263.544511848
 20
420.1693922677
 30
0.0
 11
1264.744502359
 21
420.1693922677
 31
0.0
  0
LINE
  5
6A
330
1F
100
AcDbEntity
  8
0
  6
Continuous
 62
     7
370
    15
100
AcDbLine
 10
864.7859365278
 20
420.1693922677
 30
0.0
 11
865.9859270387
 21
420.1693922677
 31
0.0
  0
ARC
  5
6B
330
1F
100
AcDbEntity
  8
0
  6
Continuous
 62
     7
370
    15
100
AcDbCircle
 10
1042.2652189781
 20
1111.5693937377
 30
0.0
 40
0.5
100
AcDbArc
 50
0.0
 51
90.0
  0
ARC
  5
6C
330
1F
100
AcDbEntity
  8
0
  6
Continuous
 62
     7
370
    15
100
AcDbCircle
 10
1087.2652189781
 20
1111.5693937377
 30
0.0
 40
0.5000000000002274
100
AcDbArc
 50
90.0
 51
180.0
  0
ARC
  5
6D
330
1F
100
AcDbEntity
  8
0
  6
Continuous
 62
     7
370
    15
100
AcDbCircle
 10
1044.265218978
 20
1111.5693937376
 30
0.0
 40
1.49999999991428
100
AcDbArc
 50
179.9999999967
 51
270.0
  0
ARC
  5
6E
330
1F
100
AcDbEntity
  8
0
  6
Continuous
 62
     7
370
    15
100
AcDbCircle
 10
1085.2652189782
 20
1111.5693937376
 30
0.0
 40
1.49999999991428
100
AcDbArc
 50
270.0
 51
0.0000000033
  0
LINE
  5
6F
330
1F
100
AcDbEntity
  8
0
  6
Continuous
 62
     7
370
    15
100
AcDbLine
 10
1143.2652183407
 20
654.1095763841
 30
0.0
 11
1143.2652183407
 21
654.0997863212
 31
0.0
  0
LINE
  5
70
330
1F
100
AcDbEntity
  8
0
  6
Continuous
 62
     7
370
    15
100
AcDbLine
 10
1162.2652195924
 20
654.0997863212
 30
0.0
 11
1162.2652195924
 21
654.1095763841
 31
0.0
  0
LINE
  5
71
330
1F
100
AcDbEntity
  8
0
  6
Continuous
 62
     7
370
    15
100
AcDbLine
 10
901.0261714988
 20
1202.119389216
 30
0.0
 11
901.0261714988
 21
1198.7693995633
 31
0.0
  0
ARC
  5
72
330
1F
100
AcDbEntity
  8
0
  6
Continuous
 62
     7
370
    15
100
AcDbCircle
 10
901.2761708017
 20
1202.1193937377
 30
0.0
 40
0.2500000000001137
100
AcDbArc
 50
90.0
 51
180.0
  0
ARC
  5
73
330
1F
100
AcDbEntity
  8
0
  6
Continuous
 62
     7
370
    15
100
AcDbCircle
 10
906.332864974
 20
1202.1193937377
 30
0.0
 40
0.25
100
AcDbArc
 50
0.0
 51
90.0
  0
LINE
  5
74
330
1F
100
AcDbEntity
  8
0
  6
Continuous
 62
     7
370
    15
100
AcDbLine
 10
906.5828592115
 20
1198.7693995633
 30
0.0
 11
906.5828592115
 21
1202.119389216
 31
0.0
  0
LINE
  5
75
330
1F
100
AcDbEntity
  8
0
  6
Continuous
 62
     7
370
    15
100
AcDbLine
 10
889.2475784355
 20
1202.119389216
 30
0.0
 11
889.2475784355
 21
1198.7693995633
 31
0.0
  0
ARC
  5
76
330
1F
100
AcDbEntity
  8
0
  6
Continuous
 62
     7
370
    15
100
AcDbCircle
 10
889.4975729822
 20
1202.1193937377
 30
0.0
 40
0.25
100
AcDbArc
 50
90.0
 51
180.0
  0
LINE
  5
77
330
1F
100
AcDbEntity
  8
0
  6
Continuous
 62
     7
370
    15
100
AcDbLine
 10
903.376904183
 20
1202.9028326669
 30
0.0
 11
902.9152215057
 21
1203.1693846383
 31
0.0
  0
LINE
  5
78
330
1F
100
AcDbEntity
  8
0
  6
Continuous
 62
     7
370
    15
100
AcDbLine
 10
892.9152161413
 20
1203.1693846383
 30
0.0
 11
892.453533464
 21
1202.9028326669
 31
0.0
  0
LINE
  5
79
330
1F
100
AcDbEntity
  8
0
  6
Continuous
 62
     7
370
    15
100
AcDbLine
 10
864.7652239137
 20
449.06989638
 30
0.0
 11
864.7859365278
 21
449.0762740769
 31
0.0
  0
LINE
  5
7A
330
1F
100
AcDbEntity
  8
0
  6
Continuous
 62
     7
370
    15
100
AcDbLine
 10
864.7652239137
 20
451.2549728551
 30
0.0
 11
864.7652239137
 21
449.06989638
 31
0.0
  0
LINE
  5
7B
330
1F
100
AcDbEntity
  8
0
  6
Continuous
 62
     7
370
    15
100
AcDbLine
 10
864.7859365278
 20
451.2613505521
 30
0.0
 11
864.7652239137
 21
451.2549728551
 31
0.0
  0
LINE
  5
7C
330
1F
100
AcDbEntity
  8
0
  6
Continuous
 62
     7
370
    15
100
AcDbLine
 10
864.7652239137
 20
453.4400493302
 30
0.0
 11
864.7859365278
 21
453.4464568296
 31
0.0
  0
LINE
  5
7D
330
1F
100
AcDbEntity
  8
0
  6
Continuous
 62
     7
370
    15
100
AcDbLine
 10
864.7652239137
 20
455.6251258054
 30
0.0
 11
864.7652239137
 21
453.4400493302
 31
0.0
  0
LINE
  5
7E
330
1F
100
AcDbEntity
  8
0
  6
Continuous
 62
     7
370
    15
100
AcDbLine
 10
864.7859365278
 20
455.6315333047
 30
0.0
 11
864.7652239137
 21
455.6251258054
 31
0.0
  0
LINE
  5
7F
330
1F
100
AcDbEntity
  8
0
  6
Continuous
 62
     7
370
    15
100
AcDbLine
 10
864.7652239137
 20
455.6251258054
 30
0.0
 11
864.7652239137
 21
455.6346327462
 31
0.0
  0
LINE
  5
80
330
1F
100
AcDbEntity
  8
0
  6
Continuous
 62
     7
370
    15
100
AcDbLine
 10
864.7859365278
 20
455.6410402455
 30
0.0
 11
864.7652239137
 21
455.6346327462
 31
0.0
  0
LINE
  5
81
330
1F
100
AcDbEntity
  8
0
  6
Continuous
 62
     7
370
    15
100
AcDbLine
 10
864.7859365278
 20
456.3508123555
 30
0.0
 11
864.7652239137
 21
456.2620908418
 31
0.0
  0
LINE
  5
82
330
1F
100
AcDbEntity
  8
0
  6
Continuous
 62
     7
370
    15
100
AcDbLine
 10
864.7652239137
 20
456.2620908418
 30
0.0
 11
864.7652239137
 21
455.6346327462
 31
0.0
  0
LINE
  5
83
330
1F
100
AcDbEntity
  8
0
  6
Continuous
 62
     7
370
    15
100
AcDbLine
 10
864.7652239137
 20
456.2620908418
 30
0.0
 11
864.7652239137
 21
456.5474182763
 31
0.0
  0
LINE
  5
84
330
1F
100
AcDbEntity
  8
0
  6
Continuous
 62
     7
370
    15
100
AcDbLine
 10
864.7859365278
 20
456.6361099877
 30
0.0
 11
864.7652239137
 21
456.5474182763
 31
0.0
  0
LINE
  5
85
330
1F
100
AcDbEntity
  8
0
  6
Continuous
 62
     7
370
    15
100
AcDbLine
 10
864.7859365278
 20
451.2708872953
 30
0.0
 11
864.7652239137
 21
451.2644797959
 31
0.0
  0
LINE
  5
86
330
1F
100
AcDbEntity
  8
0
  6
Continuous
 62
     7
370
    15
100
AcDbLine
 10
864.7652239137
 20
453.4400493302
 30
0.0
 11
864.7652239137
 21
451.2644797959
 31
0.0
  0
LINE
  5
87
330
1F
100
AcDbEntity
  8
0
  6
Continuous
 62
     7
370
    15
100
AcDbLine
 10
864.7652239137
 20
451.2549728551
 30
0.0
 11
864.7652239137
 21
451.2644797959
 31
0.0
  0
LINE
  5
88
330
1F
100
AcDbEntity
  8
0
  6
Continuous
 62
     7
370
    15
100
AcDbLine
 10
864.7652239137
 20
448.227652947
 30
0.0
 11
864.7859365278
 21
448.1389314332
 31
0.0
  0
LINE
  5
89
330
1F
100
AcDbEntity
  8
0
  6
Continuous
 62
     7
370
    15
100
AcDbLine
 10
864.7652239137
 20
449.06989638
 30
0.0
 11
864.7652239137
 21
448.227652947
 31
0.0
  0
LINE
  5
8A
330
1F
100
AcDbEntity
  8
0
  6
Continuous
 62
     7
370
    15
100
AcDbLine
 10
864.7652239137
 20
438.8383418717
 30
0.0
 11
864.7859365278
 21
438.8383418717
 31
0.0
  0
LINE
  5
8B
330
1F
100
AcDbEntity
  8
0
  6
Continuous
 62
     7
370
    15
100
AcDbLine
 10
864.7652239137
 20
446.2547392049
 30
0.0
 11
864.7652239137
 21
438.8383418717
 31
0.0
  0
LINE
  5
8C
330
1F
100
AcDbEntity
  8
0
  6
Continuous
 62
     7
370
    15
100
AcDbLine
 10
864.7859365278
 20
446.2547392049
 30
0.0
 11
864.7652239137
 21
446.2547392049
 31
0.0
  0
LINE
  5
8D
330
1F
100
AcDbEntity
  8
0
  6
Continuous
 62
     7
370
    15
100
AcDbLine
 10
864.7859365278
 20
446.3498384156
 30
0.0
 11
864.7652239137
 21
446.3498384156
 31
0.0
  0
LINE
  5
8E
330
1F
100
AcDbEntity
  8
0
  6
Continuous
 62
     7
370
    15
100
AcDbLine
 10
864.7652239137
 20
446.2547392049
 30
0.0
 11
864.7652239137
 21
446.3498384156
 31
0.0
  0
LINE
  5
8F
330
1F
100
AcDbEntity
  8
0
  6
Continuous
 62
     7
370
    15
100
AcDbLine
 10
866.7152196699
 20
1184.2986733117
 30
0.0
 11
867.065218144
 21
1184.2986733117
 31
0.0
  0
LINE
  5
90
330
1F
100
AcDbEntity
  8
0
  6
Continuous
 62
     7
370
    15
100
AcDbLine
 10
864.6652222209
 20
479.7193795838
 30
0.0
 11
864.6652222209
 21
1183.1193954148
 31
0.0
  0
SPLINE
  5
91
330
1F
100
AcDbEntity
  8
0
  6
Continuous
 62
     7
370
    15
100
AcDbSpline
210
0.0
220
0.0
230
1.0
 70
     8
 71
     3
 72
     9
 73
     5
 74
     0
 42
0.00000001
 43
0.00000001
 12
1.0
 22
0.0
 32
0.0
 13
1.0
 23
0.0
 33
0.0
 40
0.0
 40
0.0
 40
0.0
 40
0.0
 40
0.364671676735443
 40
1.0
 40
1.0
 40
1.0
 40
1.0
 10
864.8871750169216
 20
1183.627286592965
 30
0.0
 10
864.832469090805
 20
1183.569406472022
 30
0.0
 10
864.682454901038
 20
1183.410688028459
 30
0.0
 10
864.6719171516127
 20
1183.232563177638
 30
0.0
 10
864.6652222209392
 20
1183.119395414834
 30
0.0
  0
LINE
  5
92
330
1F
100
AcDbEntity
  8
0
  6
Continuous
 62
     7
370
    15
100
AcDbLine
 10
864.6652222209
 20
479.7193795838
 30
0.0
 11
864.7652239137
 21
479.5133561292
 31
0.0
  0
LINE
  5
93
330
1F
100
AcDbEntity
  8
0
  6
Continuous
 62
     7
370
    15
100
AcDbLine
 10
864.7652239137
 20
479.2576820054
 30
0.0
 11
864.6652222209
 21
479.7193795838
 31
0.0
  0
LINE
  5
94
330
1F
100
AcDbEntity
  8
0
  6
Continuous
 62
     7
370
    15
100
AcDbLine
 10
1264.8652166658
 20
1183.1193954148
 30
0.0
 11
1264.8652166658
 21
479.7193795838
 31
0.0
  0
SPLINE
  5
95
330
1F
100
AcDbEntity
  8
0
  6
Continuous
 62
     7
370
    15
100
AcDbSpline
210
0.0
220
0.0
230
1.0
 70
     8
 71
     3
 72
     9
 73
     5
 74
     0
 42
0.00000001
 43
0.00000001
 12
1.0
 22
0.0
 32
0.0
 13
1.0
 23
0.0
 33
0.0
 40
0.0
 40
0.0
 40
0.0
 40
0.0
 40
0.0852060931540278
 40
1.0
 40
1.0
 40
1.0
 40
1.0
 10
1264.765214973014
 20
479.3591291108182
 30
0.0
 10
1264.773322124074
 20
479.3686334822526
 30
0.0
 10
1264.868469674663
 20
479.480179160297
 30
0.0
 10
1264.866770792676
 20
479.6051014418483
 30
0.0
 10
1264.865216665786
 20
479.7193795838406
 30
0.0
  0
SPLINE
  5
96
330
1F
100
AcDbEntity
  8
0
  6
Continuous
 62
     7
370
    15
100
AcDbSpline
210
0.0
220
0.0
230
1.0
 70
     8
 71
     3
 72
     9
 73
     5
 74
     0
 42
0.00000001
 43
0.00000001
 12
1.0
 22
0.0
 32
0.0
 13
1.0
 23
0.0
 33
0.0
 40
0.0
 40
0.0
 40
0.0
 40
0.0
 40
0.8215282932052124
 40
1.0
 40
1.0
 40
1.0
 40
1.0
 10
1264.865216665786
 20
1183.119395414834
 30
0.0
 10
1264.855144894476
 20
1183.209328130115
 30
0.0
 10
1264.842885096009
 20
1183.318798145967
 30
0.0
 10
1264.681410621738
 20
1183.42822738062
 30
0.0
 10
1264.652591996711
 20
1183.447757402902
 30
0.0
  0
SPLINE
  5
97
330
1F
100
AcDbEntity
  8
0
  6
Continuous
 62
     7
370
    15
100
AcDbSpline
210
0.0
220
0.0
230
1.0
 70
     8
 71
     3
 72
     9
 73
     5
 74
     0
 42
0.00000001
 43
0.00000001
 12
1.0
 22
0.0
 32
0.0
 13
1.0
 23
0.0
 33
0.0
 40
0.0
 40
0.0
 40
0.0
 40
0.0
 40
0.2496569217510477
 40
1.0
 40
1.0
 40
1.0
 40
1.0
 10
1263.173741155189
 20
1184.165307919031
 30
0.0
 10
1263.145143636897
 20
1184.176438722492
 30
0.0
 10
1263.030596369023
 20
1184.221023120084
 30
0.0
 10
1262.907547833662
 20
1184.265385961059
 30
0.0
 10
1262.815219216865
 20
1184.298673311715
 30
0.0
  0
LINE
  5
98
330
1F
100
AcDbEntity
  8
0
  6
Continuous
 62
     7
370
    15
100
AcDbLine
 10
1264.8652166658
 20
479.7193795838
 30
0.0
 11
1264.765214973
 21
479.2166740098
 31
0.0
  0
LINE
  5
99
330
1F
100
AcDbEntity
  8
0
  6
Continuous
 62
     7
370
    15
100
AcDbLine
 10
879.7652245098
 20
470.3694075742
 30
0.0
 11
879.7652245098
 21
470.5693811574
 31
0.0
  0
LINE
  5
9A
330
1F
100
AcDbEntity
  8
0
  6
Continuous
 62
     7
370
    15
100
AcDbLine
 10
864.7652239137
 20
470.5693811574
 30
0.0
 11
864.7652239137
 21
459.1151267686
 31
0.0
  0
LINE
  5
9B
330
1F
100
AcDbEntity
  8
0
  6
Continuous
 62
     7
370
    15
100
AcDbLine
 10
1264.765214973
 20
459.1151267686
 30
0.0
 11
1264.765214973
 21
457.165458838
 31
0.0
  0
LINE
  5
9C
330
1F
100
AcDbEntity
  8
0
  6
Continuous
 62
     7
370
    15
100
AcDbLine
 10
1249.765214377
 20
470.3694075742
 30
0.0
 11
1249.765214377
 21
470.5693811574
 31
0.0
  0
LINE
  5
9D
330
1F
100
AcDbEntity
  8
0
  6
Continuous
 62
     7
370
    15
100
AcDbLine
 10
1264.765214973
 20
470.5693811574
 30
0.0
 11
1264.765214973
 21
459.1151267686
 31
0.0
  0
LINE
  5
9E
330
1F
100
AcDbEntity
  8
0
  6
Continuous
 62
     7
370
    15
100
AcDbLine
 10
864.7652239137
 20
457.165458838
 30
0.0
 11
864.7652239137
 21
459.1151267686
 31
0.0
  0
LINE
  5
9F
330
1F
100
AcDbEntity
  8
0
  6
Continuous
 62
     7
370
    15
100
AcDbLine
 10
864.7652239137
 20
432.841339747
 30
0.0
 11
864.7652239137
 21
438.8383418717
 31
0.0
  0
LINE
  5
A0
330
1F
100
AcDbEntity
  8
0
  6
Continuous
 62
     7
370
    15
100
AcDbLine
 10
864.7652239137
 20
446.3498384156
 30
0.0
 11
864.7652239137
 21
448.227652947
 31
0.0
  0
LINE
  5
A1
330
1F
100
AcDbEntity
  8
0
  6
Continuous
 62
     7
370
    15
100
AcDbLine
 10
864.7652239137
 20
456.5474182763
 30
0.0
 11
864.7652239137
 21
457.165458838
 31
0.0
  0
LINE
  5
A2
330
1F
100
AcDbEntity
  8
0
  6
Continuous
 62
     7
370
    15
100
AcDbLine
 10
1264.765214973
 20
432.841339747
 30
0.0
 11
1264.765214973
 21
457.165458838
 31
0.0
  0
LINE
  5
A3
330
1F
100
AcDbEntity
  8
0
  6
Continuous
 62
     7
370
    15
100
AcDbLine
 10
1264.765214973
 20
426.7509669461
 30
0.0
 11
1264.765214973
 21
432.841339747
 31
0.0
  0
LINE
  5
A4
330
1F
100
AcDbEntity
  8
0
  6
Continuous
 62
     7
370
    15
100
AcDbLine
 10
864.7652239137
 20
426.7509669461
 30
0.0
 11
864.7652239137
 21
432.841339747
 31
0.0
  0
LWPOLYLINE
  5
A5
330
1F
100
AcDbEntity
  8
0
  6
Continuous
 62
     7
370
    15
100
AcDbPolyline
 90
       17
 70
   128
 43
0.0
 10
1091.2652358942
 20
416.2385851541
 10
1092.2273219161
 20
415.6045705476
 10
1092.9118812614
 20
414.7070736089
 10
1093.2417482667
 20
413.6472732225
 10
1093.1797408097
 20
412.5445872941
 10
1092.7328475349
 20
411.5233213105
 10
1091.9514455431
 20
410.6986314454
 10
1090.9236100101
 20
410.16344134
 10
1089.7652011894
 20
409.978100697
 10
1088.6067942315
 20
410.16344134
 10
1087.5789642864
 20
410.6986612477
 10
1086.7975697451
 20
411.5233511128
 10
1086.3506895088
 20
412.5446170964
 10
1086.2886932277
 20
413.6473030248
 10
1086.6185732716
 20
414.7071034112
 10
1087.30314193
 20
415.6046003499
 10
1088.2652354025
 20
416.2385851541
  0
LINE
  5
A6
330
1F
100
AcDbEntity
  8
0
  6
Continuous
 62
     7
370
    15
100
AcDbLine
 10
1091.2652358942
 20
416.2385851541
 30
0.0
 11
1091.2652489328
 21
418.8693851628
 31
0.0
  0
LINE
  5
A7
330
1F
100
AcDbEntity
  8
0
  6
Continuous
 62
     7
370
    15
100
AcDbLine
 10
1088.2652354025
 20
416.2385851541
 30
0.0
 11
1088.2652503037
 21
418.8693851628
 31
0.0
  0
LINE
  5
A8
330
1F
100
AcDbEntity
  8
0
  6
Continuous
 62
     7
370
    15
100
AcDbLine
 10
864.7652239137
 20
407.3005706468
 30
0.0
 11
864.7652239137
 21
426.7509669461
 31
0.0
  0
LINE
  5
A9
330
1F
100
AcDbEntity
  8
0
  6
Continuous
 62
     7
370
    15
100
AcDbLine
 10
1264.765214973
 20
407.3005706468
 30
0.0
 11
1264.765214973
 21
426.7509669461
 31
0.0
  0
LINE
  5
AA
330
1F
100
AcDbEntity
  8
0
  6
Continuous
 62
     7
370
    15
100
AcDbLine
 10
1091.2652358942
 20
416.2419826188
 30
0.0
 11
1091.2652489328
 21
418.8693851628
 31
0.0
  0
ARC
  5
AB
330
1F
100
AcDbEntity
  8
0
  6
Continuous
 62
     7
370
    15
100
AcDbCircle
 10
1089.7652188846
 20
413.4200373134
 30
0.0
 40
3.503196897372464
100
AcDbArc
 50
182.4477313989
 51
357.5522686011
  0
LINE
  5
AC
330
1F
100
AcDbEntity
  8
0
  6
Continuous
 62
     7
370
    15
100
AcDbLine
 10
1089.2652318411
 20
415.5722052255
 30
0.0
 11
1089.2652486049
 21
418.5267776647
 31
0.0
  0
ARC
  5
AD
330
1F
100
AcDbEntity
  8
0
  6
Continuous
 62
     7
370
    15
100
AcDbCircle
 10
1089.8847981863
 20
413.2218794559
 30
0.0
 40
2.380916024034173
100
AcDbArc
 50
1.1682582016
 51
80.8056035979
  0
ARC
  5
AE
330
1F
100
AcDbEntity
  8
0
  6
Continuous
 62
     7
370
    15
100
AcDbCircle
 10
1089.6456406226
 20
413.2218742427
 30
0.0
 40
2.380917169845899
100
AcDbArc
 50
99.1937815854
 51
178.8316168804
  0
LINE
  5
AF
330
1F
100
AcDbEntity
  8
0
  6
Continuous
 62
     7
370
    15
100
AcDbLine
 10
1088.8652474218
 20
418.5302049317
 30
0.0
 11
1088.8652492844
 21
418.8693851628
 31
0.0
  0
LINE
  5
B0
330
1F
100
AcDbEntity
  8
0
  6
Continuous
 62
     7
370
    15
100
AcDbLine
 10
1090.6652480894
 20
418.5267776647
 30
0.0
 11
1090.665249952
 21
418.8693851628
 31
0.0
  0
LINE
  5
B1
330
1F
100
AcDbEntity
  8
0
  6
Continuous
 62
     7
370
    15
100
AcDbLine
 10
1090.2652469062
 20
418.5267776647
 30
0.0
 11
1090.6652480894
 21
418.5267776647
 31
0.0
  0
LINE
  5
B2
330
1F
100
AcDbEntity
  8
0
  6
Continuous
 62
     7
370
    15
100
AcDbLine
 10
1090.265232005
 20
415.5687779584
 30
0.0
 11
1090.2652469062
 21
418.5267776647
 31
0.0
  0
LWPOLYLINE
  5
B3
330
1F
100
AcDbEntity
  8
0
  6
Continuous
 62
     7
370
    15
100
AcDbPolyline
 90
       16
 70
   128
 43
0.0
 10
1090.265232005
 20
415.5687779584
 10
1091.1631648027
 20
415.2146369615
 10
1091.8489870214
 20
414.5649761357
 10
1092.2186401271
 20
413.7183815637
 10
1092.2160324239
 20
412.8033012548
 10
1091.8415643804
 20
411.958584229
 10
1091.1520503991
 20
411.3123804727
 10
1090.2521133953
 20
410.9627694287
 10
1089.2783001595
 20
410.9627694287
 10
1088.3783650183
 20
411.312410275
 10
1087.6888603502
 20
411.958584229
 10
1087.3143997573
 20
412.8033310571
 10
1087.31180323
 20
413.718411366
 10
1087.6814656489
 20
414.5650059381
 10
1088.3672953182
 20
415.2146369615
 10
1089.2652318411
 20
415.5687779584
  0
LINE
  5
B4
330
1F
100
AcDbEntity
  8
0
  6
Continuous
 62
     7
370
    15
100
AcDbLine
 10
1089.2652318411
 20
415.5687779584
 30
0.0
 11
1089.2652486049
 21
418.5267776647
 31
0.0
  0
LINE
  5
B5
330
1F
100
AcDbEntity
  8
0
  6
Continuous
 62
     7
370
    15
100
AcDbLine
 10
1088.8652474218
 20
418.5267776647
 30
0.0
 11
1089.2652486049
 21
418.5267776647
 31
0.0
  0
LINE
  5
B6
330
1F
100
AcDbEntity
  8
0
  6
Continuous
 62
     7
370
    15
100
AcDbLine
 10
1088.8652474218
 20
418.5267776647
 30
0.0
 11
1088.8652492844
 21
418.8693851628
 31
0.0
  0
LINE
  5
B7
330
1F
100
AcDbEntity
  8
0
  6
Continuous
 62
     7
370
    15
100
AcDbLine
 10
1088.8652474218
 20
418.5302049317
 30
0.0
 11
1088.8652474218
 21
418.5267776647
 31
0.0
  0
LINE
  5
B8
330
1F
100
AcDbEntity
  8
0
  6
Continuous
 62
     7
370
    15
100
AcDbLine
 10
1091.2652358942
 20
416.2419826188
 30
0.0
 11
1091.2652358942
 21
416.2385851541
 31
0.0
  0
LINE
  5
B9
330
1F
100
AcDbEntity
  8
0
  6
Continuous
 62
     7
370
    15
100
AcDbLine
 10
1089.2652318411
 20
415.5722052255
 30
0.0
 11
1089.2652318411
 21
415.5687779584
 31
0.0
  0
LINE
  5
BA
330
1F
100
AcDbEntity
  8
0
  6
Continuous
 62
     7
370
    15
100
AcDbLine
 10
1264.765214973
 20
400.1943856874
 30
0.0
 11
1264.765214973
 21
407.3005706468
 31
0.0
  0
LINE
  5
BB
330
1F
100
AcDbEntity
  8
0
  6
Continuous
 62
     7
370
    15
100
AcDbLine
 10
864.7652239137
 20
400.1943856874
 30
0.0
 11
864.7652239137
 21
407.3005706468
 31
0.0
  0
ARC
  5
BC
330
1F
100
AcDbEntity
  8
0
  6
Continuous
 62
     7
370
    15
100
AcDbCircle
 10
1065.3272081066
 20
361.7891519954
 30
0.0
 40
53.64689191943953
100
AcDbArc
 50
78.617968553
 51
88.9981378536
  0
LINE
  5
BD
330
1F
100
AcDbEntity
  8
0
  6
Continuous
 62
     7
370
    15
100
AcDbLine
 10
1066.2652187579
 20
415.4278427758
 30
0.0
 11
1066.2652187579
 21
416.897693316
 31
0.0
  0
LINE
  5
BE
330
1F
100
AcDbEntity
  8
0
  6
Continuous
 62
     7
370
    15
100
AcDbLine
 10
1066.1369234853
 20
418.8693851628
 30
0.0
 11
1066.2652187579
 21
416.897693316
 31
0.0
  0
LINE
  5
BF
330
1F
100
AcDbEntity
  8
0
  6
Continuous
 62
     7
370
    15
100
AcDbLine
 10
1063.3935154014
 20
418.8693851628
 30
0.0
 11
1063.2652201288
 21
416.897693316
 31
0.0
  0
LINE
  5
C0
330
1F
100
AcDbEntity
  8
0
  6
Continuous
 62
     7
370
    15
100
AcDbLine
 10
1063.2652201288
 20
416.897693316
 30
0.0
 11
1063.2652201288
 21
415.4278427758
 31
0.0
  0
ARC
  5
C1
330
1F
100
AcDbEntity
  8
0
  6
Continuous
 62
     7
370
    15
100
AcDbCircle
 10
1064.2032277342
 20
361.7891800699
 30
0.0
 40
53.64686379603469
100
AcDbArc
 50
91.0018594182
 51
101.3820341753
  0
SPLINE
  5
C2
330
1F
100
AcDbEntity
  8
0
  6
Continuous
 62
     7
370
    15
100
AcDbSpline
210
0.0
220
0.0
230
1.0
 70
     8
 71
     3
 72
    14
 73
    10
 74
     0
 42
0.00000001
 43
0.00000001
 12
1.0
 22
0.0
 32
0.0
 13
1.0
 23
0.0
 33
0.0
 40
0.0
 40
0.0
 40
0.0
 40
0.0
 40
0.0450031440039468
 40
0.1924543054078253
 40
0.4101058062545766
 40
0.6281185358983628
 40
0.8446552206354646
 40
0.9597639517853581
 40
1.0
 40
1.0
 40
1.0
 40
1.0
 10
1064.232622139972
 20
416.5667981305172
 30
0.0
 10
1064.212679029958
 20
416.5794294051623
 30
0.0
 10
1064.127393046714
 20
416.6334465908952
 30
0.0
 10
1063.911438690338
 20
416.6643438425609
 30
0.0
 10
1063.6412591847
 20
416.7072174763173
 30
0.0
 10
1063.40569773591
 20
416.7419784191254
 30
0.0
 10
1063.293175546592
 20
416.786892602646
 30
0.0
 10
1063.266643190743
 20
416.85183144388
 30
0.0
 10
1063.265512889559
 20
416.8998098909271
 30
0.0
 10
1063.265220128816
 20
416.912236849313
 30
0.0
  0
SPLINE
  5
C3
330
1F
100
AcDbEntity
  8
0
  6
Continuous
 62
     7
370
    15
100
AcDbSpline
210
0.0
220
0.0
230
1.0
 70
     8
 71
     3
 72
    15
 73
    11
 74
     0
 42
0.00000001
 43
0.00000001
 12
1.0
 22
0.0
 32
0.0
 13
1.0
 23
0.0
 33
0.0
 40
0.0
 40
0.0
 40
0.0
 40
0.0
 40
0.0802876252626953
 40
0.2296485376857674
 40
0.4389262180235095
 40
0.6497305483928648
 40
0.866510037875176
 40
0.9462817209556318
 40
0.9895239534127536
 40
1.0
 40
1.0
 40
1.0
 40
1.0
 10
1066.265218757909
 20
416.912236849313
 30
0.0
 10
1066.264019958842
 20
416.8891295849955
 30
0.0
 10
1066.260591006351
 20
416.8230353463994
 30
0.0
 10
1066.207807735012
 20
416.7708323882841
 30
0.0
 10
1066.060653046632
 20
416.7302892707287
 30
0.0
 10
1065.80857501274
 20
416.6948677399809
 30
0.0
 10
1065.558555369441
 20
416.6604726472916
 30
0.0
 10
1065.388921610701
 20
416.6159949367162
 30
0.0
 10
1065.323179104835
 20
416.5888063169818
 30
0.0
 10
1065.301952581596
 20
416.5703897063215
 30
0.0
 10
1065.297813021463
 20
416.5667981305172
 30
0.0
  0
SPLINE
  5
C4
330
1F
100
AcDbEntity
  8
0
  6
Continuous
 62
     7
370
    15
100
AcDbSpline
210
0.0
220
0.0
230
1.0
 70
     8
 71
     3
 72
     9
 73
     5
 74
     0
 42
0.00000001
 43
0.00000001
 12
1.0
 22
0.0
 32
0.0
 13
1.0
 23
0.0
 33
0.0
 40
0.0
 40
0.0
 40
0.0
 40
0.0
 40
0.1370976684778364
 40
1.0
 40
1.0
 40
1.0
 40
1.0
 10
1065.265220456642
 20
416.5346116223386
 30
0.0
 10
1065.26671062529
 20
416.536081818567
 30
0.0
 10
1065.277580019821
 20
416.5468055328706
 30
0.0
 10
1065.288441030245
 20
416.5575374952008
 30
0.0
 10
1065.297813021463
 20
416.5667981305173
 30
0.0
  0
LINE
  5
C5
330
1F
100
AcDbEntity
  8
0
  6
Continuous
 62
     7
370
    15
100
AcDbLine
 10
1064.2652184301
 20
416.5346116223
 30
0.0
 11
1065.2652204566
 21
416.5346116223
 31
0.0
  0
SPLINE
  5
C6
330
1F
100
AcDbEntity
  8
0
  6
Continuous
 62
     7
370
    15
100
AcDbSpline
210
0.0
220
0.0
230
1.0
 70
     8
 71
     3
 72
     9
 73
     5
 74
     0
 42
0.00000001
 43
0.00000001
 12
1.0
 22
0.0
 32
0.0
 13
1.0
 23
0.0
 33
0.0
 40
0.0
 40
0.0
 40
0.0
 40
0.0
 40
0.8629101664950997
 40
0.9999999999999999
 40
0.9999999999999999
 40
0.9999999999999999
 40
0.9999999999999999
 10
1064.232622139972
 20
416.5667981305173
 30
0.0
 10
1064.241995640685
 20
416.5575377596231
 30
0.0
 10
1064.252858301803
 20
416.5468062011668
 30
0.0
 10
1064.2637282682
 20
416.5360818252477
 30
0.0
 10
1064.265218430084
 20
416.5346116223386
 30
0.0
  0
LINE
  5
C7
330
1F
100
AcDbEntity
  8
0
  6
Continuous
 62
     7
370
    15
100
AcDbLine
 10
1053.1620465749
 20
414.4450515904
 30
0.0
 11
1052.5283635192
 21
418.8693851628
 31
0.0
  0
LWPOLYLINE
  5
C8
330
1F
100
AcDbEntity
  8
0
  6
Continuous
 62
     7
370
    15
100
AcDbPolyline
 90
        3
 70
   128
 43
0.0
 10
1053.1379290455
 20
414.4162327447
 10
1053.1399593287
 20
414.4252628484
 10
1053.1620465749
 20
414.4450515904
  0
LINE
  5
C9
330
1F
100
AcDbEntity
  8
0
  6
Continuous
 62
     7
370
    15
100
AcDbLine
 10
1077.0020753675
 20
418.8693851628
 30
0.0
 11
1076.3683885866
 21
414.4450515904
 31
0.0
  0
LWPOLYLINE
  5
CA
330
1F
100
AcDbEntity
  8
0
  6
Continuous
 62
     7
370
    15
100
AcDbPolyline
 90
        3
 70
   128
 43
0.0
 10
1076.3683885866
 20
414.4450515904
 10
1076.390479558
 20
414.4252628484
 10
1076.3925098412
 20
414.4162327447
  0
LWPOLYLINE
  5
CB
330
1F
100
AcDbEntity
  8
0
  6
Continuous
 62
     7
370
    15
100
AcDbPolyline
 90
        3
 70
   128
 43
0.0
 10
1055.0985493296
 20
409.611561934
 10
1055.0993949705
 20
409.711310307
 10
1055.0984040432
 20
409.8191351094
  0
LINE
  5
CC
330
1F
100
AcDbEntity
  8
0
  6
Continuous
 62
     7
370
    15
100
AcDbLine
 10
1050.67033773
 20
418.1472450891
 30
0.0
 11
1053.1620465749
 21
404.9775690236
 31
0.0
  0
LINE
  5
CD
330
1F
100
AcDbEntity
  8
0
  6
Continuous
 62
     7
370
    15
100
AcDbLine
 10
1076.3683885866
 20
404.9775690236
 30
0.0
 11
1078.8600974315
 21
418.1472450891
 31
0.0
  0
LINE
  5
CE
330
1F
100
AcDbEntity
  8
0
  6
Continuous
 62
     7
370
    15
100
AcDbLine
 10
1074.4393848412
 20
410.0243539014
 30
0.0
 11
1074.4320348435
 21
409.8191351094
 31
0.0
  0
LINE
  5
CF
330
1F
100
AcDbEntity
  8
0
  6
Continuous
 62
     7
370
    15
100
AcDbLine
 10
1064.2652184301
 20
415.740409533
 30
0.0
 11
1064.2652184301
 21
416.5346116223
 31
0.0
  0
ARC
  5
D0
330
1F
100
AcDbEntity
  8
0
  6
Continuous
 62
     7
370
    15
100
AcDbCircle
 10
1064.2413434304
 20
414.7642554398
 30
0.0
 40
0.9764460196980372
100
AcDbArc
 50
88.5989260734
 51
178.5268832674
  0
ARC
  5
D1
330
1F
100
AcDbEntity
  8
0
  6
Continuous
 62
     7
370
    15
100
AcDbCircle
 10
1065.2890939507
 20
414.7642538566
 30
0.0
 40
0.9764475655509942
100
AcDbArc
 50
1.4732073257
 51
91.4009833334
  0
LINE
  5
D2
330
1F
100
AcDbEntity
  8
0
  6
Continuous
 62
     7
370
    15
100
AcDbLine
 10
1065.2652204566
 20
416.5346116223
 30
0.0
 11
1065.2652204566
 21
415.740409533
 31
0.0
  0
ARC
  5
D3
330
1F
100
AcDbEntity
  8
0
  6
Continuous
 62
     7
370
    15
100
AcDbCircle
 10
1074.769181282
 20
414.5599602785
 30
0.0
 40
1.159137870967917
100
AcDbArc
 50
302.9722275346
 51
351.1173600396
  0
ARC
  5
D4
330
1F
100
AcDbEntity
  8
0
  6
Continuous
 62
     7
370
    15
100
AcDbCircle
 10
1065.3123312512
 20
363.5017771795
 30
0.0
 40
51.09151680575233
100
AcDbArc
 50
78.6124955155
 51
88.9313373026
  0
SPLINE
  5
D5
330
1F
100
AcDbEntity
  8
0
  6
Continuous
 62
     7
370
    15
100
AcDbSpline
210
0.0
220
0.0
230
1.0
 70
    24
 71
     3
 72
    11
 73
     7
 74
     0
 42
0.00000001
 43
0.00000001
 12
1.0
 22
0.0
 32
0.0
 13
1.0
 23
0.0
 33
0.0
 40
0.0
 40
0.0
 40
0.0
 40
0.0
 40
0.2947344335032396
 40
0.5894845705709243
 40
0.8837823660043725
 40
1.0
 40
1.0
 40
1.0
 40
1.0
 10
1066.265218757909
 20
414.5844072499325
 30
0.0
 10
1066.265218757909
 20
414.6299037565541
 30
0.0
 10
1066.265218757909
 20
414.7208991938685
 30
0.0
 10
1066.265218757909
 20
414.9785357827063
 30
0.0
 10
1066.265218757909
 20
415.2287113471775
 30
0.0
 10
1066.265218757909
 20
415.3839067006137
 30
0.0
 10
1066.265218757909
 20
415.4278427758267
 30
0.0
  0
ARC
  5
D6
330
1F
100
AcDbEntity
  8
0
  6
Continuous
 62
     7
370
    15
100
AcDbCircle
 10
1064.2181008802
 20
363.5018390811
 30
0.0
 40
51.09145478890849
100
AcDbArc
 50
91.0686564177
 51
101.3875107642
  0
ARC
  5
D7
330
1F
100
AcDbEntity
  8
0
  6
Continuous
 62
     7
370
    15
100
AcDbCircle
 10
1054.7612576047
 20
414.5599602785
 30
0.0
 40
1.159137870967889
100
AcDbArc
 50
188.8826399604
 51
237.0277724654
  0
SPLINE
  5
D8
330
1F
100
AcDbEntity
  8
0
  6
Continuous
 62
     7
370
    15
100
AcDbSpline
210
0.0
220
0.0
230
1.0
 70
    24
 71
     3
 72
    11
 73
     7
 74
     0
 42
0.00000001
 43
0.00000001
 12
1.0
 22
0.0
 32
0.0
 13
1.0
 23
0.0
 33
0.0
 40
0.0
 40
0.0
 40
0.0
 40
0.0
 40
0.2933172106657713
 40
0.5865986068354639
 40
0.8805029379863197
 40
1.0
 40
1.0
 40
1.0
 40
1.0
 10
1063.265220128816
 20
415.4278427758267
 30
0.0
 10
1063.265220128816
 20
415.3171581078083
 30
0.0
 10
1063.265220128816
 20
415.0958022865446
 30
0.0
 10
1063.265220128816
 20
414.8179095732616
 30
0.0
 10
1063.265220128816
 20
414.6553133802749
 30
0.0
 10
1063.265220128816
 20
414.6003072289478
 30
0.0
 10
1063.265220128816
 20
414.5844072499325
 30
0.0
  0
LWPOLYLINE
  5
D9
330
1F
100
AcDbEntity
  8
0
  6
Continuous
 62
     7
370
    15
100
AcDbPolyline
 90
        9
 70
   128
 43
0.0
 10
1063.2652201288
 20
403.523573319
 10
1063.3794002765
 20
403.3461898961
 10
1063.7045585149
 20
403.1958073773
 10
1064.1911931866
 20
403.0953139463
 10
1064.7652194434
 20
403.0600279965
 10
1065.3392457002
 20
403.0953139463
 10
1065.8258803719
 20
403.1958073773
 10
1066.1510386103
 20
403.3461898961
 10
1066.2652187579
 20
403.523573319
  0
ARC
  5
DA
330
1F
100
AcDbEntity
  8
0
  6
Continuous
 62
     7
370
    15
100
AcDbCircle
 10
1080.4418609163
 20
408.7768435874
 30
0.0
 40
6.968697568423606
100
AcDbArc
 50
136.3440473528
 51
223.6559526472
  0
ARC
  5
DB
330
1F
100
AcDbEntity
  8
0
  6
Continuous
 62
     7
370
    15
100
AcDbCircle
 10
1064.7652194434
 20
458.33365401
 30
0.0
 40
55.39785733366395
100
AcDbArc
 50
258.9321467989
 51
281.0678532011
  0
ARC
  5
DC
330
1F
100
AcDbEntity
  8
0
  6
Continuous
 62
     7
370
    15
100
AcDbCircle
 10
1049.0885736427
 20
408.7768435874
 30
0.0
 40
6.968700699540555
100
AcDbArc
 50
316.3440719161
 51
43.6559280839
  0
LINE
  5
DD
330
1F
100
AcDbEntity
  8
0
  6
Continuous
 62
     7
370
    15
100
AcDbLine
 10
1063.2652201288
 20
414.5844072499
 30
0.0
 11
1063.2652201288
 21
403.523573319
 31
0.0
  0
LINE
  5
DE
330
1F
100
AcDbEntity
  8
0
  6
Continuous
 62
     7
370
    15
100
AcDbLine
 10
1066.2652187579
 20
403.523573319
 30
0.0
 11
1066.2652187579
 21
414.5844072499
 31
0.0
  0
LINE
  5
DF
330
1F
100
AcDbEntity
  8
0
  6
Continuous
 62
     7
370
    15
100
AcDbLine
 10
1065.2652204566
 20
415.740409533
 30
0.0
 11
1064.2652184301
 21
415.740409533
 31
0.0
  0
LINE
  5
E0
330
1F
100
AcDbEntity
  8
0
  6
Continuous
 62
     7
370
    15
100
AcDbLine
 10
1064.2652184301
 20
415.740409533
 30
0.0
 11
1064.2652184301
 21
404.950150887
 31
0.0
  0
ARC
  5
E1
330
1F
100
AcDbEntity
  8
0
  6
Continuous
 62
     7
370
    15
100
AcDbCircle
 10
1064.2413434304
 20
403.9739967938
 30
0.0
 40
0.9764460196979804
100
AcDbArc
 50
88.5989260734
 51
178.5268832674
  0
ARC
  5
E2
330
1F
100
AcDbEntity
  8
0
  6
Continuous
 62
     7
370
    15
100
AcDbCircle
 10
1065.2890939507
 20
403.9739952106
 30
0.0
 40
0.9764475655509928
100
AcDbArc
 50
1.4732073257
 51
91.4009833334
  0
LINE
  5
E3
330
1F
100
AcDbEntity
  8
0
  6
Continuous
 62
     7
370
    15
100
AcDbLine
 10
1065.2652204566
 20
404.950150887
 30
0.0
 11
1065.2652204566
 21
415.740409533
 31
0.0
  0
LWPOLYLINE
  5
E4
330
1F
100
AcDbEntity
  8
0
  6
Continuous
 62
     7
370
    15
100
AcDbPolyline
 90
        9
 70
   128
 43
0.0
 10
1064.2652184301
 20
404.950150887
 10
1064.3032797211
 20
404.8910230794
 10
1064.4116670423
 20
404.8408955731
 10
1064.5738773578
 20
404.8073977628
 10
1064.7652194434
 20
404.7956258454
 10
1064.956561529
 20
404.8073977628
 10
1065.1187718444
 20
404.8408955731
 10
1065.2271591657
 20
404.8910230794
 10
1065.2652204566
 20
404.950150887
  0
ARC
  5
E5
330
1F
100
AcDbEntity
  8
0
  6
Continuous
 62
     7
370
    15
100
AcDbCircle
 10
1054.2172918164
 20
405.0186320926
 30
0.0
 40
1.056043888998111
100
AcDbArc
 50
182.2284432011
 51
265.2812733659
  0
ARC
  5
E6
330
1F
100
AcDbEntity
  8
0
  6
Continuous
 62
     7
370
    15
100
AcDbCircle
 10
1075.3131517782
 20
405.0186236982
 30
0.0
 40
1.056035135776046
100
AcDbArc
 50
274.7185095348
 51
357.7719941053
  0
LWPOLYLINE
  5
E7
330
1F
100
AcDbEntity
  8
0
  6
Continuous
 62
     7
370
    15
100
AcDbPolyline
 90
        3
 70
   128
 43
0.0
 10
1053.14388951
 20
404.7536343732
 10
1053.1418964796
 20
404.7668666043
 10
1053.141490423
 20
404.7699362435
  0
LWPOLYLINE
  5
E8
330
1F
100
AcDbEntity
  8
0
  6
Continuous
 62
     7
370
    15
100
AcDbPolyline
 90
        9
 70
   128
 43
0.0
 10
1066.2652187579
 20
403.999099175
 10
1066.1510386103
 20
403.8217157521
 10
1065.8258803719
 20
403.6713332334
 10
1065.3392457002
 20
403.5708398023
 10
1064.7652194434
 20
403.5355538526
 10
1064.1911931866
 20
403.5708398023
 10
1063.7045585149
 20
403.6713332334
 10
1063.3794002765
 20
403.8217157521
 10
1063.2652201288
 20
403.999099175
  0
LINE
  5
E9
330
1F
100
AcDbEntity
  8
0
  6
Continuous
 62
     7
370
    15
100
AcDbLine
 10
890.4152185255
 20
1191.8084711232
 30
0.0
 11
889.4152164989
 21
1191.8084711232
 31
0.0
  0
LINE
  5
EA
330
1F
100
AcDbEntity
  8
0
  6
Continuous
 62
     7
370
    15
100
AcDbLine
 10
890.4152185255
 20
1192.7844375768
 30
0.0
 11
890.4152185255
 21
1191.8084711232
 31
0.0
  0
LINE
  5
EB
330
1F
100
AcDbEntity
  8
0
  6
Continuous
 62
     7
370
    15
100
AcDbLine
 10
891.391184979
 20
1192.7844375768
 30
0.0
 11
890.4152185255
 21
1192.7844375768
 31
0.0
  0
LINE
  5
EC
330
1F
100
AcDbEntity
  8
0
  6
Continuous
 62
     7
370
    15
100
AcDbLine
 10
891.391184979
 20
1193.7844247022
 30
0.0
 11
891.391184979
 21
1192.7844375768
 31
0.0
  0
LINE
  5
ED
330
1F
100
AcDbEntity
  8
0
  6
Continuous
 62
     7
370
    15
100
AcDbLine
 10
890.4152185255
 20
1193.7844247022
 30
0.0
 11
891.391184979
 21
1193.7844247022
 31
0.0
  0
LINE
  5
EE
330
1F
100
AcDbEntity
  8
0
  6
Continuous
 62
     7
370
    15
100
AcDbLine
 10
890.4152185255
 20
1194.7603911557
 30
0.0
 11
890.4152185255
 21
1193.7844247022
 31
0.0
  0
LINE
  5
EF
330
1F
100
AcDbEntity
  8
0
  6
Continuous
 62
     7
370
    15
100
AcDbLine
 10
889.4152164989
 20
1194.7603911557
 30
0.0
 11
890.4152185255
 21
1194.7603911557
 31
0.0
  0
LINE
  5
F0
330
1F
100
AcDbEntity
  8
0
  6
Continuous
 62
     7
370
    15
100
AcDbLine
 10
889.4152164989
 20
1193.7844247022
 30
0.0
 11
889.4152164989
 21
1194.7603911557
 31
0.0
  0
SPLINE
  5
F1
330
1F
100
AcDbEntity
  8
0
  6
Continuous
 62
     7
370
    15
100
AcDbSpline
210
0.0
220
0.0
230
1.0
 70
    24
 71
     3
 72
     9
 73
     5
 74
     0
 42
0.00000001
 43
0.00000001
 12
1.0
 22
0.0
 32
0.0
 13
1.0
 23
0.0
 33
0.0
 40
0.0
 40
0.0
 40
0.0
 40
0.0
 40
0.6085163024747383
 40
1.0
 40
1.0
 40
1.0
 40
1.0
 10
888.4392500453409
 20
1193.784424702173
 30
0.0
 10
888.6297160192258
 20
1193.784424702173
 30
0.0
 10
888.9427166292509
 20
1193.784424702173
 30
0.0
 10
889.2822821379829
 20
1193.784424702173
 30
0.0
 10
889.4152164988932
 20
1193.784424702173
 30
0.0
  0
LINE
  5
F2
330
1F
100
AcDbEntity
  8
0
  6
Continuous
 62
     7
370
    15
100
AcDbLine
 10
888.4392500453
 20
1192.7844375768
 30
0.0
 11
888.4392500453
 21
1193.7844247022
 31
0.0
  0
LINE
  5
F3
330
1F
100
AcDbEntity
  8
0
  6
Continuous
 62
     7
370
    15
100
AcDbLine
 10
889.4152164989
 20
1192.7844375768
 30
0.0
 11
888.4392500453
 21
1192.7844375768
 31
0.0
  0
LINE
  5
F4
330
1F
100
AcDbEntity
  8
0
  6
Continuous
 62
     7
370
    15
100
AcDbLine
 10
889.4152164989
 20
1191.8084711232
 30
0.0
 11
889.4152164989
 21
1192.7844375768
 31
0.0
  0
CIRCLE
  5
F5
330
1F
100
AcDbEntity
  8
0
  6
Continuous
 62
     7
370
    15
100
AcDbCircle
 10
889.9152189781
 20
1193.2844254454
 30
0.0
 40
2.294741772285761
  0
LINE
  5
F6
330
1F
100
AcDbEntity
  8
0
  6
Continuous
 62
     7
370
    15
100
AcDbLine
 10
889.4300431543
 20
1193.7696129479
 30
0.0
 11
889.4300431543
 21
1192.799249331
 31
0.0
  0
LINE
  5
F7
330
1F
100
AcDbEntity
  8
0
  6
Continuous
 62
     7
370
    15
100
AcDbLine
 10
890.4003918701
 20
1193.7696129479
 30
0.0
 11
889.4300431543
 21
1193.7696129479
 31
0.0
  0
LINE
  5
F8
330
1F
100
AcDbEntity
  8
0
  6
Continuous
 62
     7
370
    15
100
AcDbLine
 10
889.4300431543
 20
1192.799249331
 30
0.0
 11
890.4003918701
 21
1192.799249331
 31
0.0
  0
LINE
  5
F9
330
1F
100
AcDbEntity
  8
0
  6
Continuous
 62
     7
370
    15
100
AcDbLine
 10
890.4003918701
 20
1192.799249331
 30
0.0
 11
890.4003918701
 21
1193.7696129479
 31
0.0
  0
CIRCLE
  5
FA
330
1F
100
AcDbEntity
  8
0
  6
Continuous
 62
     7
370
    15
100
AcDbCircle
 10
889.9152189781
 20
1193.2844254454
 30
0.0
 40
2.49999999999477
  0
LINE
  5
FB
330
1F
100
AcDbEntity
  8
0
  6
Continuous
 62
     7
370
    15
100
AcDbLine
 10
896.0819364124
 20
1190.6844169297
 30
0.0
 11
896.0819364124
 21
1195.8844155469
 31
0.0
  0
LINE
  5
FC
330
1F
100
AcDbEntity
  8
0
  6
Continuous
 62
     7
370
    15
100
AcDbLine
 10
899.7485012346
 20
1195.8844155469
 30
0.0
 11
896.0819364124
 21
1195.8844155469
 31
0.0
  0
LINE
  5
FD
330
1F
100
AcDbEntity
  8
0
  6
Continuous
 62
     7
370
    15
100
AcDbLine
 10
899.7485012346
 20
1190.6844169297
 30
0.0
 11
899.7485012346
 21
1195.8844155469
 31
0.0
  0
LINE
  5
FE
330
1F
100
AcDbEntity
  8
0
  6
Continuous
 62
     7
370
    15
100
AcDbLine
 10
899.7485012346
 20
1190.6844169297
 30
0.0
 11
896.0819364124
 21
1190.6844169297
 31
0.0
  0
LINE
  5
FF
330
1F
100
AcDbEntity
  8
0
  6
Continuous
 62
     7
370
    15
100
AcDbLine
 10
903.1152248912
 20
1190.6844169297
 30
0.0
 11
903.1152248912
 21
1195.8844155469
 31
0.0
  0
LINE
  5
100
330
1F
100
AcDbEntity
  8
0
  6
Continuous
 62
     7
370
    15
100
AcDbLine
 10
903.1152248912
 20
1190.6844169297
 30
0.0
 11
899.7485012346
 21
1190.6844169297
 31
0.0
  0
LINE
  5
101
330
1F
100
AcDbEntity
  8
0
  6
Continuous
 62
     7
370
    15
100
AcDbLine
 10
903.1152248912
 20
1195.8844155469
 30
0.0
 11
899.7485012346
 21
1195.8844155469
 31
0.0
  0
LINE
  5
102
330
1F
100
AcDbEntity
  8
0
  6
Continuous
 62
     7
370
    15
100
AcDbLine
 10
892.7152127557
 20
1195.8844155469
 30
0.0
 11
892.7152127557
 21
1190.6844169297
 31
0.0
  0
LINE
  5
103
330
1F
100
AcDbEntity
  8
0
  6
Continuous
 62
     7
370
    15
100
AcDbLine
 10
896.0819364124
 20
1190.6844169297
 30
0.0
 11
892.7152127557
 21
1190.6844169297
 31
0.0
  0
LINE
  5
104
330
1F
100
AcDbEntity
  8
0
  6
Continuous
 62
     7
370
    15
100
AcDbLine
 10
896.0819364124
 20
1195.8844155469
 30
0.0
 11
892.7152127557
 21
1195.8844155469
 31
0.0
  0
LINE
  5
105
330
1F
100
AcDbEntity
  8
0
  6
Continuous
 62
     7
370
    15
100
AcDbLine
 10
907.9152167373
 20
1190.6844169297
 30
0.0
 11
907.9152167373
 21
1191.7844206491
 31
0.0
  0
LINE
  5
106
330
1F
100
AcDbEntity
  8
0
  6
Continuous
 62
     7
370
    15
100
AcDbLine
 10
907.9152167373
 20
1194.7844118276
 30
0.0
 11
907.9152167373
 21
1195.8844155469
 31
0.0
  0
LINE
  5
107
330
1F
100
AcDbEntity
  8
0
  6
Continuous
 62
     7
370
    15
100
AcDbLine
 10
907.9152167373
 20
1190.6844169297
 30
0.0
 11
903.1152248912
 21
1190.6844169297
 31
0.0
  0
LINE
  5
108
330
1F
100
AcDbEntity
  8
0
  6
Continuous
 62
     7
370
    15
100
AcDbLine
 10
907.9152167373
 20
1195.8844155469
 30
0.0
 11
903.1152248912
 21
1195.8844155469
 31
0.0
  0
LINE
  5
109
330
1F
100
AcDbEntity
  8
0
  6
Continuous
 62
     7
370
    15
100
AcDbLine
 10
887.9152209096
 20
1190.6844169297
 30
0.0
 11
887.9152209096
 21
1191.7844206491
 31
0.0
  0
LINE
  5
10A
330
1F
100
AcDbEntity
  8
0
  6
Continuous
 62
     7
370
    15
100
AcDbLine
 10
887.9152209096
 20
1194.7844118276
 30
0.0
 11
887.9152209096
 21
1195.8844155469
 31
0.0
  0
LINE
  5
10B
330
1F
100
AcDbEntity
  8
0
  6
Continuous
 62
     7
370
    15
100
AcDbLine
 10
892.7152127557
 20
1190.6844169297
 30
0.0
 11
887.9152209096
 21
1190.6844169297
 31
0.0
  0
LINE
  5
10C
330
1F
100
AcDbEntity
  8
0
  6
Continuous
 62
     7
370
    15
100
AcDbLine
 10
892.7152127557
 20
1195.8844155469
 30
0.0
 11
887.9152209096
 21
1195.8844155469
 31
0.0
  0
LINE
  5
10D
330
1F
100
AcDbEntity
  8
0
  6
Continuous
 62
     7
370
    15
100
AcDbLine
 10
901.8343955808
 20
1185.5693847337
 30
0.0
 11
901.8343955808
 21
1190.5693799653
 31
0.0
  0
LINE
  5
10E
330
1F
100
AcDbEntity
  8
0
  6
Continuous
 62
     7
370
    15
100
AcDbLine
 10
903.923061543
 20
1190.5693799653
 30
0.0
 11
903.923061543
 21
1185.5693847337
 31
0.0
  0
LINE
  5
10F
330
1F
100
AcDbEntity
  8
0
  6
Continuous
 62
     7
370
    15
100
AcDbLine
 10
903.923061543
 20
1190.5693799653
 30
0.0
 11
901.8343955808
 21
1190.5693799653
 31
0.0
  0
LINE
  5
110
330
1F
100
AcDbEntity
  8
0
  6
Continuous
 62
     7
370
    15
100
AcDbLine
 10
893.9960420661
 20
1198.7693995633
 30
0.0
 11
893.9960420661
 21
1196.1693853536
 31
0.0
  0
LINE
  5
111
330
1F
100
AcDbEntity
  8
0
  6
Continuous
 62
     7
370
    15
100
AcDbLine
 10
891.9073761039
 20
1196.1693853536
 30
0.0
 11
893.9960420661
 21
1196.1693853536
 31
0.0
  0
LINE
  5
112
330
1F
100
AcDbEntity
  8
0
  6
Continuous
 62
     7
370
    15
100
AcDbLine
 10
891.9073761039
 20
1198.7693995633
 30
0.0
 11
891.9073761039
 21
1196.1693853536
 31
0.0
  0
LINE
  5
113
330
1F
100
AcDbEntity
  8
0
  6
Continuous
 62
     7
370
    15
100
AcDbLine
 10
891.9073761039
 20
1198.7693995633
 30
0.0
 11
893.9960420661
 21
1198.7693995633
 31
0.0
  0
LINE
  5
114
330
1F
100
AcDbEntity
  8
0
  6
Continuous
 62
     7
370
    15
100
AcDbLine
 10
891.9073761039
 20
1185.5693847337
 30
0.0
 11
891.9073761039
 21
1190.5693799653
 31
0.0
  0
LINE
  5
115
330
1F
100
AcDbEntity
  8
0
  6
Continuous
 62
     7
370
    15
100
AcDbLine
 10
893.9960420661
 20
1185.5693847337
 30
0.0
 11
893.9960420661
 21
1190.5693799653
 31
0.0
  0
LINE
  5
116
330
1F
100
AcDbEntity
  8
0
  6
Continuous
 62
     7
370
    15
100
AcDbLine
 10
893.9960420661
 20
1190.5693799653
 30
0.0
 11
891.9073761039
 21
1190.5693799653
 31
0.0
  0
LINE
  5
117
330
1F
100
AcDbEntity
  8
0
  6
Continuous
 62
     7
370
    15
100
AcDbLine
 10
901.8343955808
 20
1190.5693799653
 30
0.0
 11
893.9960420661
 21
1190.5693799653
 31
0.0
  0
LINE
  5
118
330
1F
100
AcDbEntity
  8
0
  6
Continuous
 62
     7
370
    15
100
AcDbLine
 10
901.8343955808
 20
1198.7693995633
 30
0.0
 11
901.8343955808
 21
1196.1693853536
 31
0.0
  0
LINE
  5
119
330
1F
100
AcDbEntity
  8
0
  6
Continuous
 62
     7
370
    15
100
AcDbLine
 10
893.9960420661
 20
1196.1693853536
 30
0.0
 11
901.8343955808
 21
1196.1693853536
 31
0.0
  0
LINE
  5
11A
330
1F
100
AcDbEntity
  8
0
  6
Continuous
 62
     7
370
    15
100
AcDbLine
 10
893.9960420661
 20
1198.7693995633
 30
0.0
 11
901.8343955808
 21
1198.7693995633
 31
0.0
  0
LINE
  5
11B
330
1F
100
AcDbEntity
  8
0
  6
Continuous
 62
     7
370
    15
100
AcDbLine
 10
903.923061543
 20
1198.7693995633
 30
0.0
 11
903.923061543
 21
1196.1693853536
 31
0.0
  0
LINE
  5
11C
330
1F
100
AcDbEntity
  8
0
  6
Continuous
 62
     7
370
    15
100
AcDbLine
 10
901.8343955808
 20
1196.1693853536
 30
0.0
 11
903.923061543
 21
1196.1693853536
 31
0.0
  0
LINE
  5
11D
330
1F
100
AcDbEntity
  8
0
  6
Continuous
 62
     7
370
    15
100
AcDbLine
 10
901.8343955808
 20
1198.7693995633
 30
0.0
 11
903.923061543
 21
1198.7693995633
 31
0.0
  0
LINE
  5
11E
330
1F
100
AcDbEntity
  8
0
  6
Continuous
 62
     7
370
    15
100
AcDbLine
 10
887.988191896
 20
1185.5693847337
 30
0.0
 11
887.988191896
 21
1190.5693799653
 31
0.0
  0
LINE
  5
11F
330
1F
100
AcDbEntity
  8
0
  6
Continuous
 62
     7
370
    15
100
AcDbLine
 10
891.9073761039
 20
1190.5693799653
 30
0.0
 11
887.988191896
 21
1190.5693799653
 31
0.0
  0
LINE
  5
120
330
1F
100
AcDbEntity
  8
0
  6
Continuous
 62
     7
370
    15
100
AcDbLine
 10
907.8422457509
 20
1190.5693799653
 30
0.0
 11
907.8422457509
 21
1185.1694077649
 31
0.0
  0
LINE
  5
121
330
1F
100
AcDbEntity
  8
0
  6
Continuous
 62
     7
370
    15
100
AcDbLine
 10
907.8422457509
 20
1190.5693799653
 30
0.0
 11
903.923061543
 21
1190.5693799653
 31
0.0
  0
LINE
  5
122
330
1F
100
AcDbEntity
  8
0
  6
Continuous
 62
     7
370
    15
100
AcDbLine
 10
887.988191896
 20
1198.7693995633
 30
0.0
 11
887.988191896
 21
1196.1693853536
 31
0.0
  0
LINE
  5
123
330
1F
100
AcDbEntity
  8
0
  6
Continuous
 62
     7
370
    15
100
AcDbLine
 10
887.988191896
 20
1196.1693853536
 30
0.0
 11
891.9073761039
 21
1196.1693853536
 31
0.0
  0
LINE
  5
124
330
1F
100
AcDbEntity
  8
0
  6
Continuous
 62
     7
370
    15
100
AcDbLine
 10
887.988191896
 20
1198.7693995633
 30
0.0
 11
891.9073761039
 21
1198.7693995633
 31
0.0
  0
LINE
  5
125
330
1F
100
AcDbEntity
  8
0
  6
Continuous
 62
     7
370
    15
100
AcDbLine
 10
907.8422457509
 20
1196.1693853536
 30
0.0
 11
907.8422457509
 21
1198.7693995633
 31
0.0
  0
LINE
  5
126
330
1F
100
AcDbEntity
  8
0
  6
Continuous
 62
     7
370
    15
100
AcDbLine
 10
903.923061543
 20
1196.1693853536
 30
0.0
 11
907.8422457509
 21
1196.1693853536
 31
0.0
  0
LINE
  5
127
330
1F
100
AcDbEntity
  8
0
  6
Continuous
 62
     7
370
    15
100
AcDbLine
 10
903.923061543
 20
1198.7693995633
 30
0.0
 11
907.8422457509
 21
1198.7693995633
 31
0.0
  0
LINE
  5
128
330
1F
100
AcDbEntity
  8
0
  6
Continuous
 62
     7
370
    15
100
AcDbLine
 10
903.8313001924
 20
1190.5693799653
 30
0.0
 11
903.8313001924
 21
1190.6844169297
 31
0.0
  0
LINE
  5
129
330
1F
100
AcDbEntity
  8
0
  6
Continuous
 62
     7
370
    15
100
AcDbLine
 10
903.8313001924
 20
1195.8844155469
 30
0.0
 11
903.8313001924
 21
1196.1693853536
 31
0.0
  0
LINE
  5
12A
330
1F
100
AcDbEntity
  8
0
  6
Continuous
 62
     7
370
    15
100
AcDbLine
 10
891.9991374546
 20
1196.1693853536
 30
0.0
 11
891.9991374546
 21
1195.8844155469
 31
0.0
  0
LINE
  5
12B
330
1F
100
AcDbEntity
  8
0
  6
Continuous
 62
     7
370
    15
100
AcDbLine
 10
891.9991374546
 20
1190.6844169297
 30
0.0
 11
891.9991374546
 21
1190.5693799653
 31
0.0
  0
LINE
  5
12C
330
1F
100
AcDbEntity
  8
0
  6
Continuous
 62
     7
370
    15
100
AcDbLine
 10
907.8650892311
 20
1196.1693853536
 30
0.0
 11
907.8650892311
 21
1195.8844155469
 31
0.0
  0
LINE
  5
12D
330
1F
100
AcDbEntity
  8
0
  6
Continuous
 62
     7
370
    15
100
AcDbLine
 10
907.8650892311
 20
1190.6844169297
 30
0.0
 11
907.8650892311
 21
1190.5693799653
 31
0.0
  0
LINE
  5
12E
330
1F
100
AcDbEntity
  8
0
  6
Continuous
 62
     7
370
    15
100
AcDbLine
 10
907.8422457509
 20
1196.1693853536
 30
0.0
 11
907.8650892311
 21
1196.1693853536
 31
0.0
  0
LINE
  5
12F
330
1F
100
AcDbEntity
  8
0
  6
Continuous
 62
     7
370
    15
100
AcDbLine
 10
907.8422457509
 20
1198.7693995633
 30
0.0
 11
907.9152167373
 21
1198.7693995633
 31
0.0
  0
LINE
  5
130
330
1F
100
AcDbEntity
  8
0
  6
Continuous
 62
     7
370
    15
100
AcDbLine
 10
907.8650892311
 20
1190.5693799653
 30
0.0
 11
907.8422457509
 21
1190.5693799653
 31
0.0
  0
LINE
  5
131
330
1F
100
AcDbEntity
  8
0
  6
Continuous
 62
     7
370
    15
100
AcDbLine
 10
887.9653484159
 20
1190.5693799653
 30
0.0
 11
887.9653484159
 21
1190.6844169297
 31
0.0
  0
LINE
  5
132
330
1F
100
AcDbEntity
  8
0
  6
Continuous
 62
     7
370
    15
100
AcDbLine
 10
887.9653484159
 20
1195.8844155469
 30
0.0
 11
887.9653484159
 21
1196.1693853536
 31
0.0
  0
LINE
  5
133
330
1F
100
AcDbEntity
  8
0
  6
Continuous
 62
     7
370
    15
100
AcDbLine
 10
887.9653484159
 20
1196.1693853536
 30
0.0
 11
887.988191896
 21
1196.1693853536
 31
0.0
  0
LINE
  5
134
330
1F
100
AcDbEntity
  8
0
  6
Continuous
 62
     7
370
    15
100
AcDbLine
 10
887.9152209096
 20
1198.7693995633
 30
0.0
 11
887.988191896
 21
1198.7693995633
 31
0.0
  0
LINE
  5
135
330
1F
100
AcDbEntity
  8
0
  6
Continuous
 62
     7
370
    15
100
AcDbLine
 10
887.988191896
 20
1190.5693799653
 30
0.0
 11
887.9653484159
 21
1190.5693799653
 31
0.0
  0
LINE
  5
136
330
1F
100
AcDbEntity
  8
0
  6
Continuous
 62
     7
370
    15
100
AcDbLine
 10
906.4152211481
 20
1191.8084711232
 30
0.0
 11
905.4152191215
 21
1191.8084711232
 31
0.0
  0
LINE
  5
137
330
1F
100
AcDbEntity
  8
0
  6
Continuous
 62
     7
370
    15
100
AcDbLine
 10
906.4152211481
 20
1192.7844375768
 30
0.0
 11
906.4152211481
 21
1191.8084711232
 31
0.0
  0
LINE
  5
138
330
1F
100
AcDbEntity
  8
0
  6
Continuous
 62
     7
370
    15
100
AcDbLine
 10
907.3911876016
 20
1192.7844375768
 30
0.0
 11
906.4152211481
 21
1192.7844375768
 31
0.0
  0
LINE
  5
139
330
1F
100
AcDbEntity
  8
0
  6
Continuous
 62
     7
370
    15
100
AcDbLine
 10
907.3911876016
 20
1193.7844247022
 30
0.0
 11
907.3911876016
 21
1192.7844375768
 31
0.0
  0
LINE
  5
13A
330
1F
100
AcDbEntity
  8
0
  6
Continuous
 62
     7
370
    15
100
AcDbLine
 10
906.4152211481
 20
1193.7844247022
 30
0.0
 11
907.3911876016
 21
1193.7844247022
 31
0.0
  0
LINE
  5
13B
330
1F
100
AcDbEntity
  8
0
  6
Continuous
 62
     7
370
    15
100
AcDbLine
 10
906.4152211481
 20
1194.7603911557
 30
0.0
 11
906.4152211481
 21
1193.7844247022
 31
0.0
  0
LINE
  5
13C
330
1F
100
AcDbEntity
  8
0
  6
Continuous
 62
     7
370
    15
100
AcDbLine
 10
905.4152191215
 20
1194.7603911557
 30
0.0
 11
906.4152211481
 21
1194.7603911557
 31
0.0
  0
LINE
  5
13D
330
1F
100
AcDbEntity
  8
0
  6
Continuous
 62
     7
370
    15
100
AcDbLine
 10
905.4152191215
 20
1193.7844247022
 30
0.0
 11
905.4152191215
 21
1194.7603911557
 31
0.0
  0
LINE
  5
13E
330
1F
100
AcDbEntity
  8
0
  6
Continuous
 62
     7
370
    15
100
AcDbLine
 10
904.4392526679
 20
1193.7844247022
 30
0.0
 11
905.4152191215
 21
1193.7844247022
 31
0.0
  0
LINE
  5
13F
330
1F
100
AcDbEntity
  8
0
  6
Continuous
 62
     7
370
    15
100
AcDbLine
 10
904.4392526679
 20
1192.7844375768
 30
0.0
 11
904.4392526679
 21
1193.7844247022
 31
0.0
  0
LINE
  5
140
330
1F
100
AcDbEntity
  8
0
  6
Continuous
 62
     7
370
    15
100
AcDbLine
 10
905.4152191215
 20
1192.7844375768
 30
0.0
 11
904.4392526679
 21
1192.7844375768
 31
0.0
  0
LINE
  5
141
330
1F
100
AcDbEntity
  8
0
  6
Continuous
 62
     7
370
    15
100
AcDbLine
 10
905.4152191215
 20
1191.8084711232
 30
0.0
 11
905.4152191215
 21
1192.7844375768
 31
0.0
  0
CIRCLE
  5
142
330
1F
100
AcDbEntity
  8
0
  6
Continuous
 62
     7
370
    15
100
AcDbCircle
 10
905.9152189781
 20
1193.2844254454
 30
0.0
 40
2.294741772275302
  0
LINE
  5
143
330
1F
100
AcDbEntity
  8
0
  6
Continuous
 62
     7
370
    15
100
AcDbLine
 10
905.4300457769
 20
1193.7696129479
 30
0.0
 11
905.4300457769
 21
1192.799249331
 31
0.0
  0
LINE
  5
144
330
1F
100
AcDbEntity
  8
0
  6
Continuous
 62
     7
370
    15
100
AcDbLine
 10
905.4300457769
 20
1192.799249331
 30
0.0
 11
906.4003944927
 21
1192.799249331
 31
0.0
  0
LINE
  5
145
330
1F
100
AcDbEntity
  8
0
  6
Continuous
 62
     7
370
    15
100
AcDbLine
 10
906.4003944927
 20
1193.7696129479
 30
0.0
 11
905.4300457769
 21
1193.7696129479
 31
0.0
  0
LINE
  5
146
330
1F
100
AcDbEntity
  8
0
  6
Continuous
 62
     7
370
    15
100
AcDbLine
 10
906.4003944927
 20
1192.799249331
 30
0.0
 11
906.4003944927
 21
1193.7696129479
 31
0.0
  0
CIRCLE
  5
147
330
1F
100
AcDbEntity
  8
0
  6
Continuous
 62
     7
370
    15
100
AcDbCircle
 10
905.9152189781
 20
1193.2844254454
 30
0.0
 40
2.499999999984084
  0
LINE
  5
148
330
1F
100
AcDbEntity
  8
0
  6
Continuous
 62
     7
370
    15
100
AcDbLine
 10
1150.2652176254
 20
355.2037269273
 30
0.0
 11
1155.2652203076
 21
355.2037269273
 31
0.0
  0
LINE
  5
149
330
1F
100
AcDbEntity
  8
0
  6
Continuous
 62
     7
370
    15
100
AcDbLine
 10
1155.2652203076
 20
400.1943856874
 30
0.0
 11
1155.2652203076
 21
355.2037269273
 31
0.0
  0
LINE
  5
14A
330
1F
100
AcDbEntity
  8
0
  6
Continuous
 62
     7
370
    15
100
AcDbLine
 10
1150.2652176254
 20
400.1943856874
 30
0.0
 11
1150.2652176254
 21
355.2037269273
 31
0.0
  0
LINE
  5
14B
330
1F
100
AcDbEntity
  8
0
  6
Continuous
 62
     7
370
    15
100
AcDbLine
 10
1155.2652203076
 20
353.3449858823
 30
0.0
 11
1150.2652176254
 21
353.3449858823
 31
0.0
  0
LINE
  5
14C
330
1F
100
AcDbEntity
  8
0
  6
Continuous
 62
     7
370
    15
100
AcDbLine
 10
1155.2652203076
 20
355.2037269273
 30
0.0
 11
1155.2652203076
 21
353.3449858823
 31
0.0
  0
LINE
  5
14D
330
1F
100
AcDbEntity
  8
0
  6
Continuous
 62
     7
370
    15
100
AcDbLine
 10
1150.2652176254
 20
353.3449858823
 30
0.0
 11
1150.2652176254
 21
355.2037269273
 31
0.0
  0
ARC
  5
14E
330
1F
100
AcDbEntity
  8
0
  6
Continuous
 62
     7
370
    15
100
AcDbCircle
 10
1152.7670141645
 20
396.4271234986
 30
0.0
 40
7.28262031585137
100
AcDbArc
 50
290.0619954828
 51
31.1509715674
  0
ARC
  5
14F
330
1F
100
AcDbEntity
  8
0
  6
Continuous
 62
     7
370
    15
100
AcDbCircle
 10
1152.7634237686
 20
396.4271234986
 30
0.0
 40
7.282620315851466
100
AcDbArc
 50
148.8490284326
 51
249.9380045172
  0
LINE
  5
150
330
1F
100
AcDbEntity
  8
0
  6
Continuous
 62
     7
370
    15
100
AcDbLine
 10
1150.2652176254
 20
387.1239811578
 30
0.0
 11
1148.5089667671
 21
387.7809733548
 31
0.0
  0
ARC
  5
151
330
1F
100
AcDbEntity
  8
0
  6
Continuous
 62
     7
370
    15
100
AcDbCircle
 10
1152.7627076728
 20
396.4761343697
 30
0.0
 40
9.679883096728744
100
AcDbArc
 50
157.4107866077
 51
243.9317574305
  0
ARC
  5
152
330
1F
100
AcDbEntity
  8
0
  6
Continuous
 62
     7
370
    15
100
AcDbCircle
 10
1152.7677219196
 20
396.4761388576
 30
0.0
 40
9.679890793346294
100
AcDbArc
 50
296.0682752426
 51
22.5891656673
  0
LINE
  5
153
330
1F
100
AcDbEntity
  8
0
  6
Continuous
 62
     7
370
    15
100
AcDbLine
 10
1157.0214711659
 20
387.7809733548
 30
0.0
 11
1155.2652203076
 21
387.1239811578
 31
0.0
  0
LINE
  5
154
330
1F
100
AcDbEntity
  8
0
  6
Continuous
 62
     7
370
    15
100
AcDbLine
 10
1150.2652176254
 20
379.871794621
 30
0.0
 11
1146.0779168241
 21
389.1818911233
 31
0.0
  0
ELLIPSE
  5
155
330
1F
100
AcDbEntity
  8
0
  6
Continuous
 62
     7
370
    15
100
AcDbEllipse
 10
1152.7652189781
 20
395.2575867954
 30
0.0
 11
-4.547473508864641E-13
 21
9.049596850988337
 31
0.0
210
0.0
220
0.0
230
1.0
 40
0.9970948503
 41
2.072963193162768
 42
2.306864096878309
  0
ELLIPSE
  5
156
330
1F
100
AcDbEntity
  8
0
  6
Continuous
 62
     7
370
    15
100
AcDbEllipse
 10
1152.7652189781
 20
395.2575867954
 30
0.0
 11
-4.547473508864641E-13
 21
9.049596850988337
 31
0.0
210
0.0
220
0.0
230
1.0
 40
0.9970948503
 41
3.976321210300628
 42
4.210222114016778
  0
LINE
  5
157
330
1F
100
AcDbEntity
  8
0
  6
Continuous
 62
     7
370
    15
100
AcDbLine
 10
1159.4525211089
 20
389.1818911233
 30
0.0
 11
1155.2652203076
 21
379.871794621
 31
0.0
  0
ARC
  5
158
330
1F
100
AcDbEntity
  8
0
  6
Continuous
 62
     7
370
    15
100
AcDbCircle
 10
1152.7616601288
 20
396.779986527
 30
0.0
 40
9.678919545431691
100
AcDbArc
 50
159.3433760053
 51
179.9999604032
  0
ARC
  5
159
330
1F
100
AcDbEntity
  8
0
  6
Continuous
 62
     7
370
    15
100
AcDbCircle
 10
1152.7689471362
 20
396.7800226663
 30
0.0
 40
9.678748350940635
100
AcDbArc
 50
359.9998256616
 51
20.6567774266
  0
LINE
  5
15A
330
1F
100
AcDbEntity
  8
0
  6
Continuous
 62
     7
370
    15
100
AcDbLine
 10
1146.2075233989
 20
388.8937026658
 30
0.0
 11
1146.2075233989
 21
372.9360789456
 31
0.0
  0
SPLINE
  5
15B
330
1F
100
AcDbEntity
  8
0
  6
Continuous
 62
     7
370
    15
100
AcDbSpline
210
0.0
220
0.0
230
1.0
 70
     8
 71
     3
 72
     9
 73
     5
 74
     0
 42
0.00000001
 43
0.00000001
 12
1.0
 22
0.0
 32
0.0
 13
1.0
 23
0.0
 33
0.0
 40
0.0
 40
0.0
 40
0.0
 40
0.0
 40
0.4950718036572386
 40
1.0
 40
1.0
 40
1.0
 40
1.0
 10
1143.238940142911
 20
372.1709937253048
 30
0.0
 10
1143.736094716009
 20
372.1969010592933
 30
0.0
 10
1144.74030172078
 20
372.2492315168088
 30
0.0
 10
1145.715246360467
 20
372.705630320753
 30
0.0
 10
1146.207523398918
 20
372.9360789456418
 30
0.0
  0
SPLINE
  5
15C
330
1F
100
AcDbEntity
  8
0
  6
Continuous
 62
     7
370
    15
100
AcDbSpline
210
0.0
220
0.0
230
1.0
 70
     8
 71
     3
 72
     9
 73
     5
 74
     0
 42
0.00000001
 43
0.00000001
 12
1.0
 22
0.0
 32
0.0
 13
1.0
 23
0.0
 33
0.0
 40
0.0
 40
0.0
 40
0.0
 40
0.0
 40
0.4958362544992922
 40
1.0
 40
1.0
 40
1.0
 40
1.0
 10
1140.270353161615
 20
373.1376618542722
 30
0.0
 10
1140.753672200167
 20
372.8781142111144
 30
0.0
 10
1141.728427543623
 20
372.3546598634288
 30
0.0
 10
1142.732648396443
 20
372.2325547145224
 30
0.0
 10
1143.238940142911
 20
372.1709937253048
 30
0.0
  0
LINE
  5
15D
330
1F
100
AcDbEntity
  8
0
  6
Continuous
 62
     7
370
    15
100
AcDbLine
 10
1140.2703531616
 20
373.1376618543
 30
0.0
 11
1140.2703531616
 21
400.1943856874
 31
0.0
  0
LINE
  5
15E
330
1F
100
AcDbEntity
  8
0
  6
Continuous
 62
     7
370
    15
100
AcDbLine
 10
1165.2600847714
 20
400.1943856874
 30
0.0
 11
1165.2600847714
 21
373.1376618543
 31
0.0
  0
SPLINE
  5
15F
330
1F
100
AcDbEntity
  8
0
  6
Continuous
 62
     7
370
    15
100
AcDbSpline
210
0.0
220
0.0
230
1.0
 70
     8
 71
     3
 72
     9
 73
     5
 74
     0
 42
0.00000001
 43
0.00000001
 12
1.0
 22
0.0
 32
0.0
 13
1.0
 23
0.0
 33
0.0
 40
0.0
 40
0.0
 40
0.0
 40
0.0
 40
0.4950714905107172
 40
1.0
 40
1.0
 40
1.0
 40
1.0
 10
1162.29149779014
 20
372.1709937253048
 30
0.0
 10
1162.788653136033
 20
372.2306754468485
 30
0.0
 10
1163.792862336973
 20
372.3512271705642
 30
0.0
 10
1164.767807276358
 20
372.8737999564136
 30
0.0
 10
1165.260084771436
 20
373.1376618542722
 30
0.0
  0
SPLINE
  5
160
330
1F
100
AcDbEntity
  8
0
  6
Continuous
 62
     7
370
    15
100
AcDbSpline
210
0.0
220
0.0
230
1.0
 70
     8
 71
     3
 72
     9
 73
     5
 74
     0
 42
0.00000001
 43
0.00000001
 12
1.0
 22
0.0
 32
0.0
 13
1.0
 23
0.0
 33
0.0
 40
0.0
 40
0.0
 40
0.0
 40
0.0
 40
0.4958366984813153
 40
1.0
 40
1.0
 40
1.0
 40
1.0
 10
1159.322914534133
 20
372.9360789456418
 30
0.0
 10
1159.806232728934
 20
372.7093472449268
 30
0.0
 10
1160.780985497903
 20
372.2520763301088
 30
0.0
 10
1161.785206443004
 20
372.198170876677
 30
0.0
 10
1162.29149779014
 20
372.1709937253048
 30
0.0
  0
LINE
  5
161
330
1F
100
AcDbEntity
  8
0
  6
Continuous
 62
     7
370
    15
100
AcDbLine
 10
1159.3229145341
 20
372.9360789456
 30
0.0
 11
1159.3229145341
 21
388.8937026658
 31
0.0
  0
LINE
  5
162
330
1F
100
AcDbEntity
  8
0
  6
Continuous
 62
     7
370
    15
100
AcDbLine
 10
1146.8280487292
 20
372.9290455976
 30
0.0
 11
1146.8280487292
 21
387.5140339532
 31
0.0
  0
ARC
  5
163
330
1F
100
AcDbEntity
  8
0
  6
Continuous
 62
     7
370
    15
100
AcDbCircle
 10
1150.959266997
 20
764.7873930369
 30
0.0
 40
391.8801237908048
100
AcDbArc
 50
269.3052428309
 51
269.3959740718
  0
ARC
  5
164
330
1F
100
AcDbEntity
  8
0
  6
Continuous
 62
     7
370
    15
100
AcDbCircle
 10
1154.571170936
 20
764.7873930369
 30
0.0
 40
391.8801237908048
100
AcDbArc
 50
270.6040259282
 51
270.6947571691
  0
LINE
  5
165
330
1F
100
AcDbEntity
  8
0
  6
Continuous
 62
     7
370
    15
100
AcDbLine
 10
1158.7023892038
 20
372.9290455976
 30
0.0
 11
1158.7023892038
 21
387.5140339532
 31
0.0
  0
SPLINE
  5
166
330
1F
100
AcDbEntity
  8
0
  6
Continuous
 62
     7
370
    15
100
AcDbSpline
210
0.0
220
0.0
230
1.0
 70
     8
 71
     3
 72
     9
 73
     5
 74
     0
 42
0.00000001
 43
0.00000001
 12
1.0
 22
0.0
 32
0.0
 13
1.0
 23
0.0
 33
0.0
 40
0.0
 40
0.0
 40
0.0
 40
0.0
 40
0.1340243383398334
 40
1.0
 40
1.0
 40
1.0
 40
1.0
 10
1155.26522030763
 20
372.2544998326352
 30
0.0
 10
1155.421619848192
 20
372.2650433885988
 30
0.0
 10
1156.588568646443
 20
372.3437123534613
 30
0.0
 10
1157.721391866391
 20
372.6573998554602
 30
0.0
 10
1158.702389203828
 20
372.9290455975582
 30
0.0
  0
SPLINE
  5
167
330
1F
100
AcDbEntity
  8
0
  6
Continuous
 62
     7
370
    15
100
AcDbSpline
210
0.0
220
0.0
230
1.0
 70
     8
 71
     3
 72
     9
 73
     5
 74
     0
 42
0.00000001
 43
0.00000001
 12
1.0
 22
0.0
 32
0.0
 13
1.0
 23
0.0
 33
0.0
 40
0.0
 40
0.0
 40
0.0
 40
0.0
 40
0.8504501833121154
 40
0.9999999999999999
 40
0.9999999999999999
 40
0.9999999999999999
 40
0.9999999999999999
 10
1146.828048729223
 20
372.9290455975583
 30
0.0
 10
1147.791229450386
 20
372.6623019214723
 30
0.0
 10
1148.923783408354
 20
372.3486519495867
 30
0.0
 10
1150.090704752339
 20
372.2696780302281
 30
0.0
 10
1150.265217625421
 20
372.2578674950649
 30
0.0
  0
ARC
  5
168
330
1F
100
AcDbEntity
  8
0
  6
Continuous
 62
     7
370
    15
100
AcDbCircle
 10
1150.6373727857
 20
639.3333240927
 30
0.0
 40
267.2647518340721
100
AcDbArc
 50
268.413733499
 51
269.9202179608
  0
ARC
  5
169
330
1F
100
AcDbEntity
  8
0
  6
Continuous
 62
     7
370
    15
100
AcDbCircle
 10
1154.4998069476
 20
666.3798919552
 30
0.0
 40
294.3120558928052
100
AcDbArc
 50
270.1490085223
 51
271.5170400179
  0
ARC
  5
16A
330
1F
100
AcDbEntity
  8
0
  6
Continuous
 62
     7
370
    15
100
AcDbCircle
 10
1140.274634092
 20
373.1461764463
 30
0.0
 40
0.0095301963777266
100
AcDbArc
 50
188.9415259634
 51
243.307859024
  0
ARC
  5
16B
330
1F
100
AcDbEntity
  8
0
  6
Continuous
 62
     7
370
    15
100
AcDbCircle
 10
1143.1311598012
 20
381.3578559118
 30
0.0
 40
9.187494404665458
100
AcDbArc
 50
261.4899324087
 51
270.6721637122
  0
ARC
  5
16C
330
1F
100
AcDbEntity
  8
0
  6
Continuous
 62
     7
370
    15
100
AcDbCircle
 10
1165.2558077191
 20
373.1461736158
 30
0.0
 40
0.009525925789843
100
AcDbArc
 50
296.6789487221
 51
351.0716662904
  0
ARC
  5
16D
330
1F
100
AcDbEntity
  8
0
  6
Continuous
 62
     7
370
    15
100
AcDbCircle
 10
1162.3992687904
 20
381.3580174648
 30
0.0
 40
9.18765583692217
100
AcDbArc
 50
269.3279063574
 51
278.5099876036
  0
CIRCLE
  5
16E
330
1F
100
AcDbEntity
  8
0
  6
Continuous
 62
     7
370
    15
100
AcDbCircle
 10
1152.7643533781
 20
654.7563395551
 30
0.0
 40
6.499132685263947
  0
ELLIPSE
  5
16F
330
1F
100
AcDbEntity
  8
0
  6
Continuous
 62
     7
370
    15
100
AcDbEllipse
 10
1152.7652189781
 20
654.9917661793
 30
0.0
 11
0.0
 21
6.626177327842584
 31
0.0
210
0.0
220
0.0
230
1.0
 40
0.9809577496
 41
3.141592653589913
 42
4.712388980384789
  0
ELLIPSE
  5
170
330
1F
100
AcDbEntity
  8
0
  6
Continuous
 62
     7
370
    15
100
AcDbEllipse
 10
1152.7652189781
 20
654.9917661793
 30
0.0
 11
0.0
 21
6.626177327842584
 31
0.0
210
0.0
220
0.0
230
1.0
 40
0.9809577496
 41
1.570796326794742
 42
3.141592653589913
  0
LINE
  5
171
330
1F
100
AcDbEntity
  8
0
  6
Continuous
 62
     7
370
    15
100
AcDbLine
 10
1262.4652207427
 20
1185.1694077649
 30
0.0
 11
867.065218144
 21
1185.1694077649
 31
0.0
  0
LINE
  5
172
330
1F
100
AcDbEntity
  8
0
  6
Continuous
 62
     7
370
    15
100
AcDbLine
 10
1262.4652207427
 20
1182.274112145
 30
0.0
 11
867.065218144
 21
1182.274112145
 31
0.0
  0
LINE
  5
173
330
1F
100
AcDbEntity
  8
0
  6
Continuous
 62
     7
370
    15
100
AcDbLine
 10
867.065218144
 20
1182.274112145
 30
0.0
 11
867.065218144
 21
1185.1694077649
 31
0.0
  0
LINE
  5
174
330
1F
100
AcDbEntity
  8
0
  6
Continuous
 62
     7
370
    15
100
AcDbLine
 10
1262.4652207427
 20
1185.1694077649
 30
0.0
 11
1262.4652207427
 21
1182.274112145
 31
0.0
  0
LINE
  5
175
330
1F
100
AcDbEntity
  8
0
  6
Continuous
 62
     7
370
    15
100
AcDbLine
 10
867.065218144
 20
1182.274112145
 30
0.0
 11
865.6359285646
 21
1182.274112145
 31
0.0
  0
LINE
  5
176
330
1F
100
AcDbEntity
  8
0
  6
Continuous
 62
     7
370
    15
100
AcDbLine
 10
1263.8945103221
 20
1182.274112145
 30
0.0
 11
1262.4652207427
 21
1182.274112145
 31
0.0
  0
LINE
  5
177
330
1F
100
AcDbEntity
  8
0
  6
Continuous
 62
     7
370
    15
100
AcDbLine
 10
1263.8945103221
 20
1182.274112145
 30
0.0
 11
1263.8945103221
 21
1149.2918521562
 31
0.0
  0
LINE
  5
178
330
1F
100
AcDbEntity
  8
0
  6
Continuous
 62
     7
370
    15
100
AcDbLine
 10
1263.8945103221
 20
1149.2918521562
 30
0.0
 11
865.6359285646
 21
1149.2918521562
 31
0.0
  0
LINE
  5
179
330
1F
100
AcDbEntity
  8
0
  6
Continuous
 62
     7
370
    15
100
AcDbLine
 10
865.6359285646
 20
1149.2918521562
 30
0.0
 11
865.6359285646
 21
1182.274112145
 31
0.0
  0
LINE
  5
17A
330
1F
100
AcDbEntity
  8
0
  6
Continuous
 62
     7
370
    15
100
AcDbLine
 10
1263.8945103221
 20
1182.4811786809
 30
0.0
 11
1262.4652207427
 21
1182.4811786809
 31
0.0
  0
LINE
  5
17B
330
1F
100
AcDbEntity
  8
0
  6
Continuous
 62
     7
370
    15
100
AcDbLine
 10
1263.8945103221
 20
1182.4811786809
 30
0.0
 11
1263.8945103221
 21
1182.274112145
 31
0.0
  0
LINE
  5
17C
330
1F
100
AcDbEntity
  8
0
  6
Continuous
 62
     7
370
    15
100
AcDbLine
 10
867.065218144
 20
1182.4811786809
 30
0.0
 11
865.6359285646
 21
1182.4811786809
 31
0.0
  0
LINE
  5
17D
330
1F
100
AcDbEntity
  8
0
  6
Continuous
 62
     7
370
    15
100
AcDbLine
 10
865.6359285646
 20
1182.274112145
 30
0.0
 11
865.6359285646
 21
1182.4811786809
 31
0.0
  0
SPLINE
  5
17E
330
1F
100
AcDbEntity
  8
0
  6
Continuous
 62
     7
370
    15
100
AcDbSpline
210
0.0
220
0.0
230
1.0
 70
     8
 71
     3
 72
    12
 73
     8
 74
     0
 42
0.00000001
 43
0.00000001
 12
1.0
 22
0.0
 32
0.0
 13
1.0
 23
0.0
 33
0.0
 40
0.0
 40
0.0
 40
0.0
 40
0.0
 40
0.2116463841142466
 40
0.4419534604713634
 40
0.6722747414900356
 40
0.9026021476767309
 40
1.0
 40
1.0
 40
1.0
 40
1.0
 10
867.0652181439814
 20
1185.169407764917
 30
0.0
 10
866.8104887366488
 20
1185.14461188321
 30
0.0
 10
866.2785706340765
 20
1185.092833886757
 30
0.0
 10
865.5603578120415
 20
1184.672299000184
 30
0.0
 10
865.0209059315024
 20
1184.027434280227
 30
0.0
 10
864.7888612379747
 20
1183.379247499382
 30
0.0
 10
864.7706393441106
 20
1182.98619609708
 30
0.0
 10
864.765223913711
 20
1182.869383732324
 30
0.0
  0
SPLINE
  5
17F
330
1F
100
AcDbEntity
  8
0
  6
Continuous
 62
     7
370
    15
100
AcDbSpline
210
0.0
220
0.0
230
1.0
 70
     8
 71
     3
 72
    11
 73
     7
 74
     0
 42
0.00000001
 43
0.00000001
 12
1.0
 22
0.0
 32
0.0
 13
1.0
 23
0.0
 33
0.0
 40
0.0
 40
0.0
 40
0.0
 40
0.0
 40
0.2499229080908712
 40
0.5000315419908622
 40
0.7501375549832465
 40
1.0
 40
1.0
 40
1.0
 40
1.0
 10
867.0652181439814
 20
1184.369394222741
 30
0.0
 10
866.8687220377877
 20
1184.346860343926
 30
0.0
 10
866.4755838027785
 20
1184.30177584064
 30
0.0
 10
865.9796646925321
 20
1183.954831188656
 30
0.0
 10
865.63281030154
 20
1183.458917536346
 30
0.0
 10
865.5877444854754
 20
1183.06583116747
 30
0.0
 10
865.5652225547251
 20
1182.869383732324
 30
0.0
  0
LINE
  5
180
330
1F
100
AcDbEntity
  8
0
  6
Continuous
 62
     7
370
    15
100
AcDbLine
 10
865.5652225547
 20
1182.8693837323
 30
0.0
 11
864.7652239137
 21
1182.8693837323
 31
0.0
  0
LINE
  5
181
330
1F
100
AcDbEntity
  8
0
  6
Continuous
 62
     7
370
    15
100
AcDbLine
 10
1263.965216332
 20
1182.8693837323
 30
0.0
 11
1264.765214973
 21
1182.8693837323
 31
0.0
  0
SPLINE
  5
182
330
1F
100
AcDbEntity
  8
0
  6
Continuous
 62
     7
370
    15
100
AcDbSpline
210
0.0
220
0.0
230
1.0
 70
     8
 71
     3
 72
    11
 73
     7
 74
     0
 42
0.00000001
 43
0.00000001
 12
1.0
 22
0.0
 32
0.0
 13
1.0
 23
0.0
 33
0.0
 40
0.0
 40
0.0
 40
0.0
 40
0.0
 40
0.2499284100328311
 40
0.5000325387940086
 40
0.7501380531420151
 40
1.0
 40
1.0
 40
1.0
 40
1.0
 10
1263.965216332
 20
1182.869383732324
 30
0.0
 10
1263.942682279938
 20
1183.065884263268
 30
0.0
 10
1263.897598332658
 20
1183.459023480012
 30
0.0
 10
1263.550669280796
 20
1183.954956931452
 30
0.0
 10
1263.054753615169
 20
1184.301805728322
 30
0.0
 10
1262.661667867459
 20
1184.34687204287
 30
0.0
 10
1262.465220742744
 20
1184.369394222741
 30
0.0
  0
SPLINE
  5
183
330
1F
100
AcDbEntity
  8
0
  6
Continuous
 62
     7
370
    15
100
AcDbSpline
210
0.0
220
0.0
230
1.0
 70
     8
 71
     3
 72
    12
 73
     8
 74
     0
 42
0.00000001
 43
0.00000001
 12
1.0
 22
0.0
 32
0.0
 13
1.0
 23
0.0
 33
0.0
 40
0.0
 40
0.0
 40
0.0
 40
0.0
 40
0.2116521486508451
 40
0.4419527996044477
 40
0.6722796942295632
 40
0.902601665109507
 40
1.0
 40
1.0
 40
1.0
 40
1.0
 10
1264.765214973014
 20
1182.869383732324
 30
0.0
 10
1264.740434071662
 20
1183.124125440356
 30
0.0
 10
1264.688688843469
 20
1183.656053945495
 30
0.0
 10
1264.268119306118
 20
1184.374247090917
 30
0.0
 10
1263.623271537947
 20
1184.913716706268
 30
0.0
 10
1262.975075694007
 20
1185.145719587327
 30
0.0
 10
1262.582032894786
 20
1185.163980599808
 30
0.0
 10
1262.465220742744
 20
1185.169407764917
 30
0.0
  0
LINE
  5
184
330
1F
100
AcDbEntity
  8
0
  6
Continuous
 62
     7
370
    15
100
AcDbLine
 10
864.7652239137
 20
1182.5070470967
 30
0.0
 11
865.5652225547
 21
1182.5070470967
 31
0.0
  0
LINE
  5
185
330
1F
100
AcDbEntity
  8
0
  6
Continuous
 62
     7
370
    15
100
AcDbLine
 10
865.5652225547
 20
1182.8693837323
 30
0.0
 11
865.5652225547
 21
1182.5070470967
 31
0.0
  0
LINE
  5
186
330
1F
100
AcDbEntity
  8
0
  6
Continuous
 62
     7
370
    15
100
AcDbLine
 10
864.7652239137
 20
1182.8693837323
 30
0.0
 11
864.7652239137
 21
1182.5070470967
 31
0.0
  0
LINE
  5
187
330
1F
100
AcDbEntity
  8
0
  6
Continuous
 62
     7
370
    15
100
AcDbLine
 10
1264.765214973
 20
1182.5070470967
 30
0.0
 11
1263.965216332
 21
1182.5070470967
 31
0.0
  0
LINE
  5
188
330
1F
100
AcDbEntity
  8
0
  6
Continuous
 62
     7
370
    15
100
AcDbLine
 10
1264.765214973
 20
1182.8693837323
 30
0.0
 11
1264.765214973
 21
1182.5070470967
 31
0.0
  0
LINE
  5
189
330
1F
100
AcDbEntity
  8
0
  6
Continuous
 62
     7
370
    15
100
AcDbLine
 10
1263.965216332
 20
1182.8693837323
 30
0.0
 11
1263.965216332
 21
1182.5070470967
 31
0.0
  0
LINE
  5
18A
330
1F
100
AcDbEntity
  8
0
  6
Continuous
 62
     7
370
    15
100
AcDbLine
 10
1264.765214973
 20
1182.4994773068
 30
0.0
 11
1263.965216332
 21
1182.4994773068
 31
0.0
  0
LINE
  5
18B
330
1F
100
AcDbEntity
  8
0
  6
Continuous
 62
     7
370
    15
100
AcDbLine
 10
1264.765214973
 20
1149.5172173181
 30
0.0
 11
1263.965216332
 21
1149.5172173181
 31
0.0
  0
LINE
  5
18C
330
1F
100
AcDbEntity
  8
0
  6
Continuous
 62
     7
370
    15
100
AcDbLine
 10
1264.765214973
 20
1182.4994773068
 30
0.0
 11
1264.765214973
 21
1149.5172173181
 31
0.0
  0
LINE
  5
18D
330
1F
100
AcDbEntity
  8
0
  6
Continuous
 62
     7
370
    15
100
AcDbLine
 10
1263.965216332
 20
1182.4994773068
 30
0.0
 11
1263.965216332
 21
1149.5172173181
 31
0.0
  0
LINE
  5
18E
330
1F
100
AcDbEntity
  8
0
  6
Continuous
 62
     7
370
    15
100
AcDbLine
 10
1264.765214973
 20
1182.5070470967
 30
0.0
 11
1264.765214973
 21
1182.4994773068
 31
0.0
  0
LINE
  5
18F
330
1F
100
AcDbEntity
  8
0
  6
Continuous
 62
     7
370
    15
100
AcDbLine
 10
1263.965216332
 20
1182.5070470967
 30
0.0
 11
1263.965216332
 21
1182.4994773068
 31
0.0
  0
LINE
  5
190
330
1F
100
AcDbEntity
  8
0
  6
Continuous
 62
     7
370
    15
100
AcDbLine
 10
864.7652239137
 20
1149.5172173181
 30
0.0
 11
865.5652225547
 21
1149.5172173181
 31
0.0
  0
LINE
  5
191
330
1F
100
AcDbEntity
  8
0
  6
Continuous
 62
     7
370
    15
100
AcDbLine
 10
864.7652239137
 20
1182.4994773068
 30
0.0
 11
865.5652225547
 21
1182.4994773068
 31
0.0
  0
LINE
  5
192
330
1F
100
AcDbEntity
  8
0
  6
Continuous
 62
     7
370
    15
100
AcDbLine
 10
865.5652225547
 20
1149.5172173181
 30
0.0
 11
865.5652225547
 21
1182.4994773068
 31
0.0
  0
LINE
  5
193
330
1F
100
AcDbEntity
  8
0
  6
Continuous
 62
     7
370
    15
100
AcDbLine
 10
864.7652239137
 20
1149.5172173181
 30
0.0
 11
864.7652239137
 21
1182.4994773068
 31
0.0
  0
LINE
  5
194
330
1F
100
AcDbEntity
  8
0
  6
Continuous
 62
     7
370
    15
100
AcDbLine
 10
865.5652225547
 20
1182.4994773068
 30
0.0
 11
865.5652225547
 21
1182.5070470967
 31
0.0
  0
LINE
  5
195
330
1F
100
AcDbEntity
  8
0
  6
Continuous
 62
     7
370
    15
100
AcDbLine
 10
864.7652239137
 20
1182.4994773068
 30
0.0
 11
864.7652239137
 21
1182.5070470967
 31
0.0
  0
LINE
  5
196
330
1F
100
AcDbEntity
  8
0
  6
Continuous
 62
     7
370
    15
100
AcDbLine
 10
1263.965216332
 20
1149.4989186921
 30
0.0
 11
1263.8945103221
 21
1149.4989186921
 31
0.0
  0
LINE
  5
197
330
1F
100
AcDbEntity
  8
0
  6
Continuous
 62
     7
370
    15
100
AcDbLine
 10
1263.965216332
 20
1149.2918521562
 30
0.0
 11
1263.965216332
 21
1149.4989186921
 31
0.0
  0
LINE
  5
198
330
1F
100
AcDbEntity
  8
0
  6
Continuous
 62
     7
370
    15
100
AcDbLine
 10
1263.965216332
 20
1149.2918521562
 30
0.0
 11
1263.8945103221
 21
1149.2918521562
 31
0.0
  0
LINE
  5
199
330
1F
100
AcDbEntity
  8
0
  6
Continuous
 62
     7
370
    15
100
AcDbLine
 10
865.6359285646
 20
1149.2918521562
 30
0.0
 11
865.5652225547
 21
1149.2918521562
 31
0.0
  0
LINE
  5
19A
330
1F
100
AcDbEntity
  8
0
  6
Continuous
 62
     7
370
    15
100
AcDbLine
 10
865.6359285646
 20
1149.4989186921
 30
0.0
 11
865.5652225547
 21
1149.4989186921
 31
0.0
  0
LINE
  5
19B
330
1F
100
AcDbEntity
  8
0
  6
Continuous
 62
     7
370
    15
100
AcDbLine
 10
865.5652225547
 20
1149.4989186921
 30
0.0
 11
865.5652225547
 21
1149.2918521562
 31
0.0
  0
LINE
  5
19C
330
1F
100
AcDbEntity
  8
0
  6
Continuous
 62
     7
370
    15
100
AcDbLine
 10
1263.965216332
 20
1130.1694006124
 30
0.0
 11
865.5652225547
 21
1130.1694006124
 31
0.0
  0
LINE
  5
19D
330
1F
100
AcDbEntity
  8
0
  6
Continuous
 62
     7
370
    15
100
AcDbLine
 10
1263.965216332
 20
1149.2918521562
 30
0.0
 11
1263.965216332
 21
1130.1694006124
 31
0.0
  0
LINE
  5
19E
330
1F
100
AcDbEntity
  8
0
  6
Continuous
 62
     7
370
    15
100
AcDbLine
 10
865.5652225547
 20
1149.2918521562
 30
0.0
 11
865.5652225547
 21
1130.1694006124
 31
0.0
  0
LINE
  5
19F
330
1F
100
AcDbEntity
  8
0
  6
Continuous
 62
     7
370
    15
100
AcDbLine
 10
864.7652239137
 20
1131.0694009461
 30
0.0
 11
865.5652225547
 21
1131.0694009461
 31
0.0
  0
LINE
  5
1A0
330
1F
100
AcDbEntity
  8
0
  6
Continuous
 62
     7
370
    15
100
AcDbLine
 10
864.7652239137
 20
1149.5247871079
 30
0.0
 11
864.7652239137
 21
1131.0694009461
 31
0.0
  0
LINE
  5
1A1
330
1F
100
AcDbEntity
  8
0
  6
Continuous
 62
     7
370
    15
100
AcDbLine
 10
1264.765214973
 20
1131.0694009461
 30
0.0
 11
1263.965216332
 21
1131.0694009461
 31
0.0
  0
LINE
  5
1A2
330
1F
100
AcDbEntity
  8
0
  6
Continuous
 62
     7
370
    15
100
AcDbLine
 10
1264.765214973
 20
1149.5247871079
 30
0.0
 11
1264.765214973
 21
1131.0694009461
 31
0.0
  0
LINE
  5
1A3
330
1F
100
AcDbEntity
  8
0
  6
Continuous
 62
     7
370
    15
100
AcDbLine
 10
960.1824850374
 20
1128.3693999448
 30
0.0
 11
960.221928411
 21
1128.3693999448
 31
0.0
  0
LINE
  5
1A4
330
1F
100
AcDbEntity
  8
0
  6
Continuous
 62
     7
370
    15
100
AcDbLine
 10
969.3085074954
 20
1128.3693999448
 30
0.0
 11
969.3479508691
 21
1128.3693999448
 31
0.0
  0
SPLINE
  5
1A5
330
1F
100
AcDbEntity
  8
0
  6
Continuous
 62
     7
370
    15
100
AcDbSpline
210
0.0
220
0.0
230
1.0
 70
     8
 71
     3
 72
    12
 73
     8
 74
     0
 42
0.00000001
 43
0.00000001
 12
1.0
 22
0.0
 32
0.0
 13
1.0
 23
0.0
 33
0.0
 40
0.0
 40
0.0
 40
0.0
 40
0.0
 40
0.0424508830061127
 40
0.2847733032527919
 40
0.527826084623048
 40
0.7726148465100264
 40
1.0
 40
1.0
 40
1.0
 40
1.0
 10
969.3085074954447
 20
1128.369399944787
 30
0.0
 10
969.3020937770322
 20
1128.340951168991
 30
0.0
 10
969.2590686230398
 20
1128.150108216308
 30
0.0
 10
969.1025750800028
 20
1127.813154684488
 30
0.0
 10
968.748971686613
 20
1127.447553413239
 30
0.0
 10
968.3023032183702
 20
1127.211921159107
 30
0.0
 10
967.9766881767591
 20
1127.183207358459
 30
0.0
 10
967.8198814921793
 20
1127.169379631524
 30
0.0
  0
LINE
  5
1A6
330
1F
100
AcDbEntity
  8
0
  6
Continuous
 62
     7
370
    15
100
AcDbLine
 10
967.8198814922
 20
1127.1693796315
 30
0.0
 11
961.7105544143
 21
1127.1693796315
 31
0.0
  0
SPLINE
  5
1A7
330
1F
100
AcDbEntity
  8
0
  6
Continuous
 62
     7
370
    15
100
AcDbSpline
210
0.0
220
0.0
230
1.0
 70
     8
 71
     3
 72
    12
 73
     8
 74
     0
 42
0.00000001
 43
0.00000001
 12
1.0
 22
0.0
 32
0.0
 13
1.0
 23
0.0
 33
0.0
 40
0.0
 40
0.0
 40
0.0
 40
0.0
 40
0.1898658765994282
 40
0.4424432687564854
 40
0.5994451273742588
 40
0.842687760851185
 40
1.0
 40
1.0
 40
1.0
 40
1.0
 10
961.7105544143137
 20
1127.169379631524
 30
0.0
 10
961.5797510067373
 20
1127.179063779048
 30
0.0
 10
961.2749406413931
 20
1127.201630687659
 30
0.0
 10
960.8906038025887
 20
1127.382435427085
 30
0.0
 10
960.5478824776011
 20
1127.673738808107
 30
0.0
 10
960.3237367967553
 20
1127.998287704007
 30
0.0
 10
960.2506372285816
 20
1128.264750474796
 30
0.0
 10
960.2219284110483
 20
1128.369399944787
 30
0.0
  0
LINE
  5
1A8
330
1F
100
AcDbEntity
  8
0
  6
Continuous
 62
     7
370
    15
100
AcDbLine
 10
1160.1824880176
 20
1128.3693999448
 30
0.0
 11
1160.2219351166
 21
1128.3693999448
 31
0.0
  0
LINE
  5
1A9
330
1F
100
AcDbEntity
  8
0
  6
Continuous
 62
     7
370
    15
100
AcDbLine
 10
1169.3085030251
 20
1128.3693999448
 30
0.0
 11
1169.3479501241
 21
1128.3693999448
 31
0.0
  0
SPLINE
  5
1AA
330
1F
100
AcDbEntity
  8
0
  6
Continuous
 62
     7
370
    15
100
AcDbSpline
210
0.0
220
0.0
230
1.0
 70
     8
 71
     3
 72
    12
 73
     8
 74
     0
 42
0.00000001
 43
0.00000001
 12
1.0
 22
0.0
 32
0.0
 13
1.0
 23
0.0
 33
0.0
 40
0.0
 40
0.0
 40
0.0
 40
0.0
 40
0.0424502491547443
 40
0.2847753120050843
 40
0.5278292321000381
 40
0.7726191408449428
 40
1.0
 40
1.0
 40
1.0
 40
1.0
 10
1169.308503025096
 20
1128.369399944788
 30
0.0
 10
1169.302092013372
 20
1128.340951107554
 30
0.0
 10
1169.259084071125
 20
1128.150103546924
 30
0.0
 10
1169.102563382085
 20
1127.813157953467
 30
0.0
 10
1168.748969357221
 20
1127.447552713849
 30
0.0
 10
1168.302301624534
 20
1127.211923163281
 30
0.0
 10
1167.97669089134
 20
1127.183207895841
 30
0.0
 10
1167.819888197702
 20
1127.169379631524
 30
0.0
  0
LINE
  5
1AB
330
1F
100
AcDbEntity
  8
0
  6
Continuous
 62
     7
370
    15
100
AcDbLine
 10
1167.8198881977
 20
1127.1693796315
 30
0.0
 11
1161.710549944
 21
1127.1693796315
 31
0.0
  0
SPLINE
  5
1AC
330
1F
100
AcDbEntity
  8
0
  6
Continuous
 62
     7
370
    15
100
AcDbSpline
210
0.0
220
0.0
230
1.0
 70
     8
 71
     3
 72
    12
 73
     8
 74
     0
 42
0.00000001
 43
0.00000001
 12
1.0
 22
0.0
 32
0.0
 13
1.0
 23
0.0
 33
0.0
 40
0.0
 40
0.0
 40
0.0
 40
0.0
 40
0.1898663653754711
 40
0.4424411175222493
 40
0.5994447559176529
 40
0.8426890201745602
 40
1.0
 40
1.0
 40
1.0
 40
1.0
 10
1161.710549943965
 20
1127.169379631524
 30
0.0
 10
1161.579746396503
 20
1127.179063450132
 30
0.0
 10
1161.274937971898
 20
1127.201629424459
 30
0.0
 10
1160.890604793549
 20
1127.382438690408
 30
0.0
 10
1160.547882390718
 20
1127.673738052129
 30
0.0
 10
1160.323728244089
 20
1127.998284425757
 30
0.0
 10
1160.250639447364
 20
1128.264750221565
 30
0.0
 10
1160.221935116571
 20
1128.369399944787
 30
0.0
  0
LINE
  5
1AD
330
1F
100
AcDbEntity
  8
0
  6
Continuous
 62
     7
370
    15
100
AcDbLine
 10
867.4652249151
 20
470.5693811574
 30
0.0
 11
880.0652146869
 21
470.5693811574
 31
0.0
  0
LINE
  5
1AE
330
1F
100
AcDbEntity
  8
0
  6
Continuous
 62
     7
370
    15
100
AcDbLine
 10
867.4652249151
 20
470.5693811574
 30
0.0
 11
864.7652239137
 21
470.5693811574
 31
0.0
  0
LINE
  5
1AF
330
1F
100
AcDbEntity
  8
0
  6
Continuous
 62
     7
370
    15
100
AcDbLine
 10
864.7652239137
 20
1131.0694009461
 30
0.0
 11
864.7652239137
 21
470.5693811574
 31
0.0
  0
SPLINE
  5
1B0
330
1F
100
AcDbEntity
  8
0
  6
Continuous
 62
     7
370
    15
100
AcDbSpline
210
0.0
220
0.0
230
1.0
 70
     8
 71
     3
 72
     9
 73
     5
 74
     0
 42
0.00000001
 43
0.00000001
 12
1.0
 22
0.0
 32
0.0
 13
1.0
 23
0.0
 33
0.0
 40
0.0
 40
0.0
 40
0.0
 40
0.0
 40
0.5180950166541929
 40
1.0
 40
1.0
 40
1.0
 40
1.0
 10
865.8548266225275
 20
1183.705934921747
 30
0.0
 10
866.038261067503
 20
1183.78441483628
 30
0.0
 10
866.3923166732875
 20
1183.935892677238
 30
0.0
 10
866.8463953613654
 20
1184.087365314687
 30
0.0
 10
867.0652181439814
 20
1184.160360733514
 30
0.0
  0
LINE
  5
1B1
330
1F
100
AcDbEntity
  8
0
  6
Continuous
 62
     7
370
    15
100
AcDbLine
 10
1264.765214973
 20
1131.0694009461
 30
0.0
 11
1264.765214973
 21
470.5693811574
 31
0.0
  0
LINE
  5
1B2
330
1F
100
AcDbEntity
  8
0
  6
Continuous
 62
     7
370
    15
100
AcDbLine
 10
1264.765214973
 20
470.5693811574
 30
0.0
 11
1262.0652139717
 21
470.5693811574
 31
0.0
  0
SPLINE
  5
1B3
330
1F
100
AcDbEntity
  8
0
  6
Continuous
 62
     7
370
    15
100
AcDbSpline
210
0.0
220
0.0
230
1.0
 70
     8
 71
     3
 72
    11
 73
     7
 74
     0
 42
0.00000001
 43
0.00000001
 12
1.0
 22
0.0
 32
0.0
 13
1.0
 23
0.0
 33
0.0
 40
0.0
 40
0.0
 40
0.0
 40
0.0
 40
0.169633537891953
 40
0.4464230586960216
 40
0.7232116074715081
 40
1.0
 40
1.0
 40
1.0
 40
1.0
 10
1262.465220742744
 20
1184.160360733514
 30
0.0
 10
1262.680747952495
 20
1184.087365319916
 30
0.0
 10
1263.247948975387
 20
1183.895263945305
 30
0.0
 10
1264.01712812608
 20
1183.584043293569
 30
0.0
 10
1264.643961155358
 20
1183.226713832394
 30
0.0
 10
1264.724797041401
 20
1182.988493743268
 30
0.0
 10
1264.765214973014
 20
1182.869383732324
 30
0.0
  0
LINE
  5
1B4
330
1F
100
AcDbEntity
  8
0
  6
Continuous
 62
     7
370
    15
100
AcDbLine
 10
1249.4652241998
 20
470.5693811574
 30
0.0
 11
1262.0652139717
 21
470.5693811574
 31
0.0
  0
LINE
  5
1B5
330
1F
100
AcDbEntity
  8
0
  6
Continuous
 62
     7
370
    15
100
AcDbLine
 10
1264.744502359
 20
470.3694075742
 30
0.0
 11
1264.744502359
 21
442.0410484471
 31
0.0
  0
SPLINE
  5
1B6
330
1F
100
AcDbEntity
  8
0
  6
Continuous
 62
     7
370
    15
100
AcDbSpline
210
0.0
220
0.0
230
1.0
 70
     8
 71
     3
 72
    11
 73
     7
 74
     0
 42
0.00000001
 43
0.00000001
 12
1.0
 22
0.0
 32
0.0
 13
1.0
 23
0.0
 33
0.0
 40
0.0
 40
0.0
 40
0.0
 40
0.0
 40
0.2499995894026474
 40
0.4999991684137866
 40
0.749999893495391
 40
1.0
 40
1.0
 40
1.0
 40
1.0
 10
1264.744502358955
 20
442.0410484471371
 30
0.0
 10
1264.703920761357
 20
442.049386530607
 30
0.0
 10
1264.62275756785
 20
442.0660626972
 30
0.0
 10
1263.998379714335
 20
442.0910163734934
 30
0.0
 10
1263.105902613298
 20
442.1160337057964
 30
0.0
 10
1262.39830148436
 20
442.1327014013042
 30
0.0
 10
1262.044501357597
 20
442.1410352387479
 30
0.0
  0
LINE
  5
1B7
330
1F
100
AcDbEntity
  8
0
  6
Continuous
 62
     7
370
    15
100
AcDbLine
 10
1262.0445013576
 20
442.1410352387
 30
0.0
 11
1262.0445013576
 21
470.3694075742
 31
0.0
  0
LINE
  5
1B8
330
1F
100
AcDbEntity
  8
0
  6
Continuous
 62
     7
370
    15
100
AcDbLine
 10
1262.0445013576
 20
470.3694075742
 30
0.0
 11
1264.744502359
 21
470.3694075742
 31
0.0
  0
LINE
  5
1B9
330
1F
100
AcDbEntity
  8
0
  6
Continuous
 62
     7
370
    15
100
AcDbLine
 10
1263.544511848
 20
442.0693904557
 30
0.0
 11
1263.544511848
 21
442.1410352387
 31
0.0
  0
LINE
  5
1BA
330
1F
100
AcDbEntity
  8
0
  6
Continuous
 62
     7
370
    15
100
AcDbLine
 10
865.9859270387
 20
442.0693904557
 30
0.0
 11
1263.544511848
 21
442.0693904557
 31
0.0
  0
LINE
  5
1BB
330
1F
100
AcDbEntity
  8
0
  6
Continuous
 62
     7
370
    15
100
AcDbLine
 10
865.9859270387
 20
442.1410352387
 30
0.0
 11
865.9859270387
 21
442.0693904557
 31
0.0
  0
LINE
  5
1BC
330
1F
100
AcDbEntity
  8
0
  6
Continuous
 62
     7
370
    15
100
AcDbLine
 10
867.485922628
 20
442.1410352387
 30
0.0
 11
865.9859270387
 21
442.1410352387
 31
0.0
  0
LINE
  5
1BD
330
1F
100
AcDbEntity
  8
0
  6
Continuous
 62
     7
370
    15
100
AcDbLine
 10
867.485922628
 20
470.3694075742
 30
0.0
 11
867.485922628
 21
442.1410352387
 31
0.0
  0
LINE
  5
1BE
330
1F
100
AcDbEntity
  8
0
  6
Continuous
 62
     7
370
    15
100
AcDbLine
 10
882.6359332138
 20
470.3694075742
 30
0.0
 11
867.485922628
 21
470.3694075742
 31
0.0
  0
LINE
  5
1BF
330
1F
100
AcDbEntity
  8
0
  6
Continuous
 62
     7
370
    15
100
AcDbLine
 10
882.6359332138
 20
467.869380156
 30
0.0
 11
882.6359332138
 21
470.3694075742
 31
0.0
  0
LINE
  5
1C0
330
1F
100
AcDbEntity
  8
0
  6
Continuous
 62
     7
370
    15
100
AcDbLine
 10
1246.894505673
 20
467.869380156
 30
0.0
 11
882.6359332138
 21
467.869380156
 31
0.0
  0
LINE
  5
1C1
330
1F
100
AcDbEntity
  8
0
  6
Continuous
 62
     7
370
    15
100
AcDbLine
 10
1246.894505673
 20
470.3694075742
 30
0.0
 11
1246.894505673
 21
467.869380156
 31
0.0
  0
LINE
  5
1C2
330
1F
100
AcDbEntity
  8
0
  6
Continuous
 62
     7
370
    15
100
AcDbLine
 10
1262.0445013576
 20
470.3694075742
 30
0.0
 11
1246.894505673
 21
470.3694075742
 31
0.0
  0
LINE
  5
1C3
330
1F
100
AcDbEntity
  8
0
  6
Continuous
 62
     7
370
    15
100
AcDbLine
 10
1262.0445013576
 20
442.1410352387
 30
0.0
 11
1263.544511848
 21
442.1410352387
 31
0.0
  0
LINE
  5
1C4
330
1F
100
AcDbEntity
  8
0
  6
Continuous
 62
     7
370
    15
100
AcDbLine
 10
882.7652156883
 20
470.6401020684
 30
0.0
 11
882.7652156883
 21
470.5693811574
 31
0.0
  0
LINE
  5
1C5
330
1F
100
AcDbEntity
  8
0
  6
Continuous
 62
     7
370
    15
100
AcDbLine
 10
882.7652156883
 20
470.5693811574
 30
0.0
 11
880.0652146869
 21
470.5693811574
 31
0.0
  0
LINE
  5
1C6
330
1F
100
AcDbEntity
  8
0
  6
Continuous
 62
     7
370
    15
100
AcDbLine
 10
882.7652156883
 20
1130.1694006124
 30
0.0
 11
882.7652156883
 21
470.6401020684
 31
0.0
  0
SPLINE
  5
1C7
330
1F
100
AcDbEntity
  8
0
  6
Continuous
 62
     7
370
    15
100
AcDbSpline
210
0.0
220
0.0
230
1.0
 70
     8
 71
     3
 72
    11
 73
     7
 74
     0
 42
0.00000001
 43
0.00000001
 12
1.0
 22
0.0
 32
0.0
 13
1.0
 23
0.0
 33
0.0
 40
0.0
 40
0.0
 40
0.0
 40
0.0
 40
0.2499975068129569
 40
0.4999990984610817
 40
0.7499995440347688
 40
1.0
 40
1.0
 40
1.0
 40
1.0
 10
867.4859226279673
 20
442.1410352387479
 30
0.0
 10
867.1321277101457
 20
442.1327013703329
 30
0.0
 10
866.4245320936691
 20
442.1160334973317
 30
0.0
 10
865.5320591870669
 20
442.0910163982515
 30
0.0
 10
864.9076813152062
 20
442.0660626910106
 30
0.0
 10
864.8265181241446
 20
442.0493865285439
 30
0.0
 10
864.7859365277704
 20
442.0410484471371
 30
0.0
  0
LINE
  5
1C8
330
1F
100
AcDbEntity
  8
0
  6
Continuous
 62
     7
370
    15
100
AcDbLine
 10
864.7859365278
 20
442.0410484471
 30
0.0
 11
864.7859365278
 21
470.3694075742
 31
0.0
  0
LINE
  5
1C9
330
1F
100
AcDbEntity
  8
0
  6
Continuous
 62
     7
370
    15
100
AcDbLine
 10
864.7859365278
 20
470.3694075742
 30
0.0
 11
867.485922628
 21
470.3694075742
 31
0.0
  0
LINE
  5
1CA
330
1F
100
AcDbEntity
  8
0
  6
Continuous
 62
     7
370
    15
100
AcDbLine
 10
865.9859270387
 20
418.8693851628
 30
0.0
 11
865.9859270387
 21
442.0693904557
 31
0.0
  0
LINE
  5
1CB
330
1F
100
AcDbEntity
  8
0
  6
Continuous
 62
     7
370
    15
100
AcDbLine
 10
1263.544511848
 20
442.0693904557
 30
0.0
 11
1263.544511848
 21
418.8693851628
 31
0.0
  0
SPLINE
  5
1CC
330
1F
100
AcDbEntity
  8
0
  6
Continuous
 62
     7
370
    15
100
AcDbSpline
210
0.0
220
0.0
230
1.0
 70
     8
 71
     3
 72
    11
 73
     7
 74
     0
 42
0.00000001
 43
0.00000001
 12
1.0
 22
0.0
 32
0.0
 13
1.0
 23
0.0
 33
0.0
 40
0.0
 40
0.0
 40
0.0
 40
0.0
 40
0.2499999807519724
 40
0.5000007464937112
 40
0.750000368022433
 40
1.0
 40
1.0
 40
1.0
 40
1.0
 10
882.6359332137522
 20
467.8693801560452
 30
0.0
 10
882.6525959245555
 20
468.223180334964
 30
0.0
 10
882.6859213984824
 20
468.9307818037199
 30
0.0
 10
882.7359411397098
 20
469.823258464467
 30
0.0
 10
882.7859230008985
 20
470.447636378814
 30
0.0
 10
882.819265399598
 20
470.5287995639748
 30
0.0
 10
882.835936599296
 20
470.5693811574033
 30
0.0
  0
SPLINE
  5
1CD
330
1F
100
AcDbEntity
  8
0
  6
Continuous
 62
     7
370
    15
100
AcDbSpline
210
0.0
220
0.0
230
1.0
 70
     8
 71
     3
 72
    11
 73
     7
 74
     0
 42
0.00000001
 43
0.00000001
 12
1.0
 22
0.0
 32
0.0
 13
1.0
 23
0.0
 33
0.0
 40
0.0
 40
0.0
 40
0.0
 40
0.0
 40
0.2499996319775671
 40
0.4999992535062889
 40
0.7500000192480277
 40
1.0
 40
1.0
 40
1.0
 40
1.0
 10
1246.694502287429
 20
470.5693811574033
 30
0.0
 10
1246.711173487127
 20
470.5287995639748
 30
0.0
 10
1246.744515885827
 20
470.4476363788142
 30
0.0
 10
1246.794497747016
 20
469.8232584644667
 30
0.0
 10
1246.844517488243
 20
468.9307818037199
 30
0.0
 10
1246.87784296217
 20
468.223180334964
 30
0.0
 10
1246.894505672973
 20
467.8693801560452
 30
0.0
  0
LINE
  5
1CE
330
1F
100
AcDbEntity
  8
0
  6
Continuous
 62
     7
370
    15
100
AcDbLine
 10
882.8359365993
 20
470.5693811574
 30
0.0
 11
1246.6945022874
 21
470.5693811574
 31
0.0
  0
LINE
  5
1CF
330
1F
100
AcDbEntity
  8
0
  6
Continuous
 62
     7
370
    15
100
AcDbLine
 10
1249.4652241998
 20
470.5693811574
 30
0.0
 11
1246.7652231985
 21
470.5693811574
 31
0.0
  0
LINE
  5
1D0
330
1F
100
AcDbEntity
  8
0
  6
Continuous
 62
     7
370
    15
100
AcDbLine
 10
1246.7652231985
 20
470.5693811574
 30
0.0
 11
1246.7652231985
 21
470.6401020684
 31
0.0
  0
LINE
  5
1D1
330
1F
100
AcDbEntity
  8
0
  6
Continuous
 62
     7
370
    15
100
AcDbLine
 10
1246.7652231985
 20
470.6401020684
 30
0.0
 11
1246.7652231985
 21
1130.1694006124
 31
0.0
  0
SPLINE
  5
1D2
330
1F
100
AcDbEntity
  8
0
  6
Continuous
 62
     7
370
    15
100
AcDbSpline
210
0.0
220
0.0
230
1.0
 70
     8
 71
     3
 72
    10
 73
     6
 74
     0
 42
0.00000001
 43
0.00000001
 12
1.0
 22
0.0
 32
0.0
 13
1.0
 23
0.0
 33
0.0
 40
0.0
 40
0.0
 40
0.0
 40
0.0
 40
0.0145202044457768
 40
0.6154754937282462
 40
0.9999999999999999
 40
0.9999999999999999
 40
0.9999999999999999
 40
0.9999999999999999
 10
1263.12207882933
 20
1183.931717316156
 30
0.0
 10
1263.120227193339
 20
1183.934272871518
 30
0.0
 10
1263.041740930957
 20
1184.042596532108
 30
0.0
 10
1262.817805462837
 20
1184.196792234417
 30
0.0
 10
1262.564182085589
 20
1184.268427254051
 30
0.0
 10
1262.465220742744
 20
1184.296378532892
 30
0.0
  0
LINE
  5
1D3
330
1F
100
AcDbEntity
  8
0
  6
Continuous
 62
     7
370
    15
100
AcDbLine
 10
1262.0652139717
 20
1185.5693847337
 30
0.0
 11
1262.0652139717
 21
1185.1694077649
 31
0.0
  0
SPLINE
  5
1D4
330
1F
100
AcDbEntity
  8
0
  6
Continuous
 62
     7
370
    15
100
AcDbSpline
210
0.0
220
0.0
230
1.0
 70
     8
 71
     3
 72
    12
 73
     8
 74
     0
 42
0.00000001
 43
0.00000001
 12
1.0
 22
0.0
 32
0.0
 13
1.0
 23
0.0
 33
0.0
 40
0.0
 40
0.0
 40
0.0
 40
0.0
 40
0.0672023280282075
 40
0.3919496685452972
 40
0.6811644521500829
 40
0.9306417498101218
 40
1.0
 40
1.0
 40
1.0
 40
1.0
 10
1264.60839515261
 20
1183.674761692529
 30
0.0
 10
1264.59694515637
 20
1183.744484838678
 30
0.0
 10
1264.530164400958
 20
1184.151136882212
 30
0.0
 10
1264.05309826391
 20
1184.772295000695
 30
0.0
 10
1263.241669169365
 20
1185.36426999603
 30
0.0
 10
1262.526671072357
 20
1185.5561836091
 30
0.0
 10
1262.147662112775
 20
1185.567026100169
 30
0.0
 10
1262.065213971656
 20
1185.569384733682
 30
0.0
  0
SPLINE
  5
1D5
330
1F
100
AcDbEntity
  8
0
  6
Continuous
 62
     7
370
    15
100
AcDbSpline
210
0.0
220
0.0
230
1.0
 70
     8
 71
     3
 72
    10
 73
     6
 74
     0
 42
0.00000001
 43
0.00000001
 12
1.0
 22
0.0
 32
0.0
 13
1.0
 23
0.0
 33
0.0
 40
0.0
 40
0.0
 40
0.0
 40
0.0
 40
0.0497059185446817
 40
0.6045779030423327
 40
1.0
 40
1.0
 40
1.0
 40
1.0
 10
867.0652181439814
 20
1184.309521357065
 30
0.0
 10
867.0520740189737
 20
1184.307685262623
 30
0.0
 10
866.8922007530294
 20
1184.285352668038
 30
0.0
 10
866.6578885287861
 20
1184.152349582436
 30
0.0
 10
866.4993273855749
 20
1184.003702780059
 30
0.0
 10
866.4333493047175
 20
1183.941850105768
 30
0.0
  0
SPLINE
  5
1D6
330
1F
100
AcDbEntity
  8
0
  6
Continuous
 62
     7
370
    15
100
AcDbSpline
210
0.0
220
0.0
230
1.0
 70
     8
 71
     3
 72
    12
 73
     8
 74
     0
 42
0.00000001
 43
0.00000001
 12
1.0
 22
0.0
 32
0.0
 13
1.0
 23
0.0
 33
0.0
 40
0.0
 40
0.0
 40
0.0
 40
0.0
 40
0.2213396327849007
 40
0.4427221347341514
 40
0.6663957748472725
 40
0.9007438642440337
 40
1.0
 40
1.0
 40
1.0
 40
1.0
 10
867.4652249150691
 20
1185.569384733682
 30
0.0
 10
867.1751764092396
 20
1185.541957769728
 30
0.0
 10
866.5950232208494
 20
1185.487098529754
 30
0.0
 10
865.82177137165
 20
1185.066199559549
 30
0.0
 10
865.2410022335669
 20
1184.460301798297
 30
0.0
 10
864.9063149339796
 20
1183.873947668014
 30
0.0
 10
864.8606366846997
 20
1183.491645753608
 30
0.0
 10
864.8470461898264
 20
1183.377900759225
 30
0.0
  0
LINE
  5
1D7
330
1F
100
AcDbEntity
  8
0
  6
Continuous
 62
     7
370
    15
100
AcDbLine
 10
867.4652249151
 20
1185.5693847337
 30
0.0
 11
867.4652249151
 21
1185.1694077649
 31
0.0
  0
LINE
  5
1D8
330
1F
100
AcDbEntity
  8
0
  6
Continuous
 62
     7
370
    15
100
AcDbLine
 10
867.4652249151
 20
1185.5693847337
 30
0.0
 11
903.965216928
 21
1185.5693847337
 31
0.0
  0
LINE
  5
1D9
330
1F
100
AcDbEntity
  8
0
  6
Continuous
 62
     7
370
    15
100
AcDbLine
 10
1262.0652139717
 20
1185.5693847337
 30
0.0
 11
1225.5652219587
 21
1185.5693847337
 31
0.0
  0
LINE
  5
1DA
330
1F
100
AcDbEntity
  8
0
  6
Continuous
 62
     7
370
    15
100
AcDbLine
 10
905.9652209812
 20
1185.5693847337
 30
0.0
 11
905.9652209812
 21
1185.1694077649
 31
0.0
  0
LINE
  5
1DB
330
1F
100
AcDbEntity
  8
0
  6
Continuous
 62
     7
370
    15
100
AcDbLine
 10
903.965216928
 20
1185.5693847337
 30
0.0
 11
905.9652209812
 21
1185.5693847337
 31
0.0
  0
LINE
  5
1DC
330
1F
100
AcDbEntity
  8
0
  6
Continuous
 62
     7
370
    15
100
AcDbLine
 10
1223.5652179056
 20
1185.1694077649
 30
0.0
 11
1223.5652179056
 21
1185.5693847337
 31
0.0
  0
LINE
  5
1DD
330
1F
100
AcDbEntity
  8
0
  6
Continuous
 62
     7
370
    15
100
AcDbLine
 10
1223.5652179056
 20
1185.5693847337
 30
0.0
 11
1225.5652219587
 21
1185.5693847337
 31
0.0
  0
LINE
  5
1DE
330
1F
100
AcDbEntity
  8
0
  6
Continuous
 62
     7
370
    15
100
AcDbLine
 10
1264.744502359
 20
442.0410484471
 30
0.0
 11
1263.544511848
 21
442.0410484471
 31
0.0
  0
LINE
  5
1DF
330
1F
100
AcDbEntity
  8
0
  6
Continuous
 62
     7
370
    15
100
AcDbLine
 10
1264.744502359
 20
442.0410484471
 30
0.0
 11
1264.744502359
 21
420.1693922677
 31
0.0
  0
LINE
  5
1E0
330
1F
100
AcDbEntity
  8
0
  6
Continuous
 62
     7
370
    15
100
AcDbLine
 10
864.7859365278
 20
420.1693922677
 30
0.0
 11
864.7859365278
 21
442.0410484471
 31
0.0
  0
LINE
  5
1E1
330
1F
100
AcDbEntity
  8
0
  6
Continuous
 62
     7
370
    15
100
AcDbLine
 10
864.7859365278
 20
442.0410484471
 30
0.0
 11
865.9859270387
 21
442.0410484471
 31
0.0
  0
SPLINE
  5
1E2
330
1F
100
AcDbEntity
  8
0
  6
Continuous
 62
     7
370
    15
100
AcDbSpline
210
0.0
220
0.0
230
1.0
 70
     8
 71
     3
 72
    12
 73
     8
 74
     0
 42
0.00000001
 43
0.00000001
 12
1.0
 22
0.0
 32
0.0
 13
1.0
 23
0.0
 33
0.0
 40
0.0
 40
0.0
 40
0.0
 40
0.0
 40
0.1759730655809116
 40
0.3519516436784583
 40
0.5271768732932899
 40
0.808145521614329
 40
1.0
 40
1.0
 40
1.0
 40
1.0
 10
882.835936599296
 20
470.5693811574033
 30
0.0
 10
882.8656230435017
 20
470.5849670453696
 30
0.0
 10
882.9249968618677
 20
470.6161393095445
 30
0.0
 10
883.0889577955513
 20
470.8508735434418
 30
0.0
 10
883.4099580748643
 20
471.2108636987382
 30
0.0
 10
883.8254495169276
 20
471.6283653888589
 30
0.0
 10
884.1382877631282
 20
471.9420925448883
 30
0.0
 10
884.2652261786875
 20
472.0693916478207
 30
0.0
  0
LINE
  5
1E3
330
1F
100
AcDbEntity
  8
0
  6
Continuous
 62
     7
370
    15
100
AcDbLine
 10
1245.265212708
 20
472.0693916478
 30
0.0
 11
884.2652261787
 21
472.0693916478
 31
0.0
  0
SPLINE
  5
1E4
330
1F
100
AcDbEntity
  8
0
  6
Continuous
 62
     7
370
    15
100
AcDbSpline
210
0.0
220
0.0
230
1.0
 70
     8
 71
     3
 72
    12
 73
     8
 74
     0
 42
0.00000001
 43
0.00000001
 12
1.0
 22
0.0
 32
0.0
 13
1.0
 23
0.0
 33
0.0
 40
0.0
 40
0.0
 40
0.0
 40
0.0
 40
0.3425515060519242
 40
0.5625345504323364
 40
0.7358870184037922
 40
0.9098263620812557
 40
1.0
 40
1.0
 40
1.0
 40
1.0
 10
1245.265212708038
 20
472.0693916478207
 30
0.0
 10
1245.490692339501
 20
471.8380163265828
 30
0.0
 10
1245.860972664871
 20
471.4580541602685
 30
0.0
 10
1246.307718052512
 20
471.0152529606408
 30
0.0
 10
1246.552606741962
 20
470.7250990528682
 30
0.0
 10
1246.662088188628
 20
470.5863044507247
 30
0.0
 10
1246.68625219542
 20
470.573688503039
 30
0.0
 10
1246.694502287429
 20
470.5693811574033
 30
0.0
  0
SPLINE
  5
1E5
330
1F
100
AcDbEntity
  8
0
  6
Continuous
 62
     7
370
    15
100
AcDbSpline
210
0.0
220
0.0
230
1.0
 70
     8
 71
     3
 72
    11
 73
     7
 74
     0
 42
0.00000001
 43
0.00000001
 12
1.0
 22
0.0
 32
0.0
 13
1.0
 23
0.0
 33
0.0
 40
0.0
 40
0.0
 40
0.0
 40
0.0
 40
0.2500046901019688
 40
0.4999979354477079
 40
0.7499986090947908
 40
1.0
 40
1.0
 40
1.0
 40
1.0
 10
884.2652261786875
 20
472.0693916478207
 30
0.0
 10
884.068666839655
 20
471.9502800359605
 30
0.0
 10
883.6755571597162
 20
471.7120622649512
 30
0.0
 10
883.1797307226432
 20
471.3547647352823
 30
0.0
 10
882.8328671212766
 20
470.9974296870246
 30
0.0
 10
882.7877661875049
 20
470.7592113885366
 30
0.0
 10
882.7652156882701
 20
470.6401020684292
 30
0.0
  0
LINE
  5
1E6
330
1F
100
AcDbEntity
  8
0
  6
Continuous
 62
     7
370
    15
100
AcDbLine
 10
884.2652261787
 20
472.0693916478
 30
0.0
 11
884.2652261787
 21
1129.069396893
 31
0.0
  0
SPLINE
  5
1E7
330
1F
100
AcDbEntity
  8
0
  6
Continuous
 62
     7
370
    15
100
AcDbSpline
210
0.0
220
0.0
230
1.0
 70
     8
 71
     3
 72
    10
 73
     6
 74
     0
 42
0.00000001
 43
0.00000001
 12
1.0
 22
0.0
 32
0.0
 13
1.0
 23
0.0
 33
0.0
 40
0.0
 40
0.0
 40
0.0
 40
0.0
 40
0.3200453658455206
 40
0.646917808087001
 40
1.0
 40
1.0
 40
1.0
 40
1.0
 10
882.8644574218212
 20
1130.169400612359
 30
0.0
 10
882.9525532758647
 20
1130.052070213638
 30
0.0
 10
883.1306242085558
 20
1129.814906572283
 30
0.0
 10
883.6433263407797
 20
1129.448463798796
 30
0.0
 10
884.0526667109339
 20
1129.198958367115
 30
0.0
 10
884.2652261786875
 20
1129.06939689303
 30
0.0
  0
SPLINE
  5
1E8
330
1F
100
AcDbEntity
  8
0
  6
Continuous
 62
     7
370
    15
100
AcDbSpline
210
0.0
220
0.0
230
1.0
 70
     8
 71
     3
 72
    10
 73
     6
 74
     0
 42
0.00000001
 43
0.00000001
 12
1.0
 22
0.0
 32
0.0
 13
1.0
 23
0.0
 33
0.0
 40
0.0
 40
0.0
 40
0.0
 40
0.0
 40
0.4986092211522556
 40
0.8449212952616142
 40
1.0
 40
1.0
 40
1.0
 40
1.0
 10
884.2652261786875
 20
1129.06939689303
 30
0.0
 10
884.0564091804611
 20
1129.281073957639
 30
0.0
 10
883.7025570631528
 20
1129.639772617871
 30
0.0
 10
883.3078343718631
 20
1130.033505687931
 30
0.0
 10
883.1657133801535
 20
1130.204582666961
 30
0.0
 10
883.1217557721552
 20
1130.257496277337
 30
0.0
  0
SPLINE
  5
1E9
330
1F
100
AcDbEntity
  8
0
  6
Continuous
 62
     7
370
    15
100
AcDbSpline
210
0.0
220
0.0
230
1.0
 70
     8
 71
     3
 72
    10
 73
     6
 74
     0
 42
0.00000001
 43
0.00000001
 12
1.0
 22
0.0
 32
0.0
 13
1.0
 23
0.0
 33
0.0
 40
0.0
 40
0.0
 40
0.0
 40
0.0
 40
0.1121174260919815
 40
0.5690897171681006
 40
1.0
 40
1.0
 40
1.0
 40
1.0
 10
1246.33703833155
 20
1130.169400612359
 30
0.0
 10
1246.30674010015
 20
1130.135325847624
 30
0.0
 10
1246.152951233074
 20
1129.96236791502
 30
0.0
 10
1245.766573067712
 20
1129.584345587666
 30
0.0
 10
1245.429030197103
 20
1129.237654316108
 30
0.0
 10
1245.265212708038
 20
1129.06939689303
 30
0.0
  0
LINE
  5
1EA
330
1F
100
AcDbEntity
  8
0
  6
Continuous
 62
     7
370
    15
100
AcDbLine
 10
1245.265212708
 20
1129.069396893
 30
0.0
 11
1245.265212708
 21
472.0693916478
 31
0.0
  0
SPLINE
  5
1EB
330
1F
100
AcDbEntity
  8
0
  6
Continuous
 62
     7
370
    15
100
AcDbSpline
210
0.0
220
0.0
230
1.0
 70
     8
 71
     3
 72
    11
 73
     7
 74
     0
 42
0.00000001
 43
0.00000001
 12
1.0
 22
0.0
 32
0.0
 13
1.0
 23
0.0
 33
0.0
 40
0.0
 40
0.0
 40
0.0
 40
0.0
 40
0.3248443429088489
 40
0.649673815039411
 40
0.9745129391555737
 40
1.0
 40
1.0
 40
1.0
 40
1.0
 10
1245.265212708038
 20
1129.06939689303
 30
0.0
 10
1245.462780933695
 20
1129.188507382287
 30
0.0
 10
1245.857908340697
 20
1129.426722908142
 30
0.0
 10
1246.338602206029
 20
1129.784037276043
 30
0.0
 10
1246.618755390667
 20
1130.031560556452
 30
0.0
 10
1246.657194650764
 20
1130.160052517445
 30
0.0
 10
1246.659991198104
 20
1130.169400612359
 30
0.0
  0
SPLINE
  5
1EC
330
1F
100
AcDbEntity
  8
0
  6
Continuous
 62
     7
370
    15
100
AcDbSpline
210
0.0
220
0.0
230
1.0
 70
     8
 71
     3
 72
    11
 73
     7
 74
     0
 42
0.00000001
 43
0.00000001
 12
1.0
 22
0.0
 32
0.0
 13
1.0
 23
0.0
 33
0.0
 40
0.0
 40
0.0
 40
0.0
 40
0.0
 40
0.2500013909052093
 40
0.5000020645522921
 40
0.7499953098980312
 40
1.0
 40
1.0
 40
1.0
 40
1.0
 10
1246.765223198455
 20
470.6401020684292
 30
0.0
 10
1246.742672699221
 20
470.7592113885366
 30
0.0
 10
1246.697571765449
 20
470.9974296870246
 30
0.0
 10
1246.350708164082
 20
471.3547647352823
 30
0.0
 10
1245.854881727009
 20
471.7120622649511
 30
0.0
 10
1245.46177204707
 20
471.9502800359605
 30
0.0
 10
1245.265212708038
 20
472.0693916478207
 30
0.0
  0
ARC
  5
1ED
330
1F
100
AcDbEntity
  8
0
  6
Continuous
 62
     7
370
    15
100
AcDbCircle
 10
1180.0152189781
 20
641.5693937377
 30
0.0
 40
41.00000000000023
100
AcDbArc
 50
270.0
 51
0.0
  0
LINE
  5
1EE
330
1F
100
AcDbEntity
  8
0
  6
Continuous
 62
     7
370
    15
100
AcDbLine
 10
1221.0152194434
 20
641.5693998733
 30
0.0
 11
1221.0152194434
 21
1074.5693833032
 31
0.0
  0
ARC
  5
1EF
330
1F
100
AcDbEntity
  8
0
  6
Continuous
 62
     7
370
    15
100
AcDbCircle
 10
1180.0152189781
 20
1074.5693937377
 30
0.0
 40
41.0
100
AcDbArc
 50
0.0
 51
90.0
  0
LINE
  5
1F0
330
1F
100
AcDbEntity
  8
0
  6
Continuous
 62
     7
370
    15
100
AcDbLine
 10
1180.0152183109
 20
1115.5693918862
 30
0.0
 11
949.5152205759
 21
1115.5693918862
 31
0.0
  0
ARC
  5
1F1
330
1F
100
AcDbEntity
  8
0
  6
Continuous
 62
     7
370
    15
100
AcDbCircle
 10
949.5152189781
 20
1074.5693937377
 30
0.0
 40
41.00000000000011
100
AcDbArc
 50
90.0
 51
180.0
  0
LINE
  5
1F2
330
1F
100
AcDbEntity
  8
0
  6
Continuous
 62
     7
370
    15
100
AcDbLine
 10
908.5152119928
 20
1074.5693833032
 30
0.0
 11
908.5152119928
 21
641.5693998733
 31
0.0
  0
ARC
  5
1F3
330
1F
100
AcDbEntity
  8
0
  6
Continuous
 62
     7
370
    15
100
AcDbCircle
 10
949.5152189781
 20
641.5693937377
 30
0.0
 40
41.00000000000023
100
AcDbArc
 50
180.0
 51
270.0
  0
LINE
  5
1F4
330
1F
100
AcDbEntity
  8
0
  6
Continuous
 62
     7
370
    15
100
AcDbLine
 10
949.5152205759
 20
600.5693912902
 30
0.0
 11
1180.0152183109
 21
600.5693912902
 31
0.0
  0
LINE
  5
1F5
330
1F
100
AcDbEntity
  8
0
  6
Continuous
 62
     7
370
    15
100
AcDbLine
 10
1263.544511848
 20
470.5693811574
 30
0.0
 11
1263.544511848
 21
470.3694075742
 31
0.0
  0
LINE
  5
1F6
330
1F
100
AcDbEntity
  8
0
  6
Continuous
 62
     7
370
    15
100
AcDbLine
 10
1264.744502359
 20
470.5693811574
 30
0.0
 11
1264.744502359
 21
470.3694075742
 31
0.0
  0
LINE
  5
1F7
330
1F
100
AcDbEntity
  8
0
  6
Continuous
 62
     7
370
    15
100
AcDbLine
 10
864.7859365278
 20
470.3694075742
 30
0.0
 11
864.7859365278
 21
470.5693811574
 31
0.0
  0
LINE
  5
1F8
330
1F
100
AcDbEntity
  8
0
  6
Continuous
 62
     7
370
    15
100
AcDbLine
 10
865.9859270387
 20
470.3694075742
 30
0.0
 11
865.9859270387
 21
470.5693811574
 31
0.0
  0
SPLINE
  5
1F9
330
1F
100
AcDbEntity
  8
0
  6
Continuous
 62
     7
370
    15
100
AcDbSpline
210
0.0
220
0.0
230
1.0
 70
     8
 71
     3
 72
    21
 73
    17
 74
     0
 42
0.00000001
 43
0.00000001
 12
1.0
 22
0.0
 32
0.0
 13
1.0
 23
0.0
 33
0.0
 40
0.0
 40
0.0
 40
0.0
 40
0.0
 40
0.0776316188920097
 40
0.1576634056092996
 40
0.239951405570097
 40
0.3042751210202186
 40
0.3686069625985123
 40
0.434299480814472
 40
0.4999999875431164
 40
0.5656926238134344
 40
0.6313930338178232
 40
0.6957169182862928
 40
0.760048617502397
 40
0.8423296698783999
 40
0.9223649434055967
 40
1.0
 40
1.0
 40
1.0
 40
1.0
 10
1220.56521927647
 20
644.069397489076
 30
0.0
 10
1220.503836229566
 20
642.3295341707425
 30
0.0
 10
1220.379172331537
 20
638.7960154836629
 30
0.0
 10
1219.351656950369
 20
633.4991645360352
 30
0.0
 10
1217.796216945356
 20
628.6547565931802
 30
0.0
 10
1215.833478858088
 20
624.347614522725
 30
0.0
 10
1213.633898128096
 20
620.5828694302512
 30
0.0
 10
1211.045674247654
 20
617.0348582368215
 30
0.0
 10
1208.082843021624
 20
613.752021387088
 30
0.0
 10
1204.799895765562
 20
610.7890503108981
 30
0.0
 10
1201.252029145929
 20
608.2009280402101
 30
0.0
 10
1197.487167519586
 20
606.0011994766068
 30
0.0
 10
1193.180158412082
 20
604.03853255495
 30
0.0
 10
1188.335670366329
 20
602.483035081392
 30
0.0
 10
1183.03883514002
 20
601.4554151788482
 30
0.0
 10
1179.505158968976
 20
601.3307647000988
 30
0.0
 10
1177.765217476409
 20
601.269388238435
 30
0.0
  0
LINE
  5
1FA
330
1F
100
AcDbEntity
  8
0
  6
Continuous
 62
     7
370
    15
100
AcDbLine
 10
1220.5652192765
 20
1072.0693856874
 30
0.0
 11
1220.5652192765
 21
644.0693974891
 31
0.0
  0
SPLINE
  5
1FB
330
1F
100
AcDbEntity
  8
0
  6
Continuous
 62
     7
370
    15
100
AcDbSpline
210
0.0
220
0.0
230
1.0
 70
     8
 71
     3
 72
    21
 73
    17
 74
     0
 42
0.00000001
 43
0.00000001
 12
1.0
 22
0.0
 32
0.0
 13
1.0
 23
0.0
 33
0.0
 40
0.0
 40
0.0
 40
0.0
 40
0.0
 40
0.0776314986245677
 40
0.1576632824136301
 40
0.2399513134411964
 40
0.3042752743131726
 40
0.368606977969896
 40
0.4342994937822777
 40
0.5000000061724759
 40
0.5656924834365065
 40
0.6313932009017512
 40
0.6957166839316681
 40
0.7600485736155222
 40
0.8423296603400741
 40
0.9223648423213224
 40
1.0
 40
1.0
 40
1.0
 40
1.0
 10
1177.765217476409
 20
1114.869394937997
 30
0.0
 10
1179.505078258723
 20
1114.808014664779
 30
0.0
 10
1183.038594508472
 20
1114.683356304159
 30
0.0
 10
1188.335444716174
 20
1113.65584219129
 30
0.0
 10
1193.179854090761
 20
1112.100387973823
 30
0.0
 10
1197.487002703639
 20
1110.137655441428
 30
0.0
 10
1201.251738697575
 20
1107.938053447219
 30
0.0
 10
1204.799747349811
 20
1105.349833097224
 30
0.0
 10
1208.082593924171
 20
1102.387016765897
 30
0.0
 10
1211.045561532346
 20
1099.104061576937
 30
0.0
 10
1213.633688592205
 20
1095.556204891352
 30
0.0
 10
1215.833408703852
 20
1091.791336427052
 30
0.0
 10
1217.796098591382
 20
1087.484341100284
 30
0.0
 10
1219.351560903388
 20
1082.639838216634
 30
0.0
 10
1220.379206952718
 20
1077.343007766773
 30
0.0
 10
1220.503847586271
 20
1073.809330084338
 30
0.0
 10
1220.56521927647
 20
1072.069385687356
 30
0.0
  0
LINE
  5
1FC
330
1F
100
AcDbEntity
  8
0
  6
Continuous
 62
     7
370
    15
100
AcDbLine
 10
951.7652214103
 20
1114.869394938
 30
0.0
 11
1177.7652174764
 21
1114.869394938
 31
0.0
  0
SPLINE
  5
1FD
330
1F
100
AcDbEntity
  8
0
  6
Continuous
 62
     7
370
    15
100
AcDbSpline
210
0.0
220
0.0
230
1.0
 70
     8
 71
     3
 72
    21
 73
    17
 74
     0
 42
0.00000001
 43
0.00000001
 12
1.0
 22
0.0
 32
0.0
 13
1.0
 23
0.0
 33
0.0
 40
0.0
 40
0.0
 40
0.0
 40
0.0
 40
0.0776316242618006
 40
0.1576634095548231
 40
0.2399514421287488
 40
0.3042753122986801
 40
0.3686068256730577
 40
0.4342995218481648
 40
0.4999999531389245
 40
0.5656925059066802
 40
0.6313929147418466
 40
0.6957168938108992
 40
0.7600485828843717
 40
0.842329602999819
 40
0.9223648476132784
 40
1.0
 40
1.0
 40
1.0
 40
1.0
 10
908.965212159675
 20
1072.069385687356
 30
0.0
 10
909.0265987184923
 20
1073.809248810278
 30
0.0
 10
909.1512697434258
 20
1077.342766944504
 30
0.0
 10
910.1787766613902
 20
1082.639621412355
 30
0.0
 10
911.7342406031366
 20
1087.484024396414
 30
0.0
 10
913.6969431393721
 20
1091.79118032124
 30
0.0
 10
915.8965648663881
 20
1095.555902124625
 30
0.0
 10
918.4847649353673
 20
1099.103922602595
 30
0.0
 10
921.4475966393323
 20
1102.386761045088
 30
0.0
 10
924.7305363959489
 20
1105.349734301422
 30
0.0
 10
928.2784027916455
 20
1107.937859406741
 30
0.0
 10
932.0432730572985
 20
1110.137573619651
 30
0.0
 10
936.3502659591741
 20
1112.100283735342
 30
0.0
 10
941.1947752273886
 20
1113.655707888037
 30
0.0
 10
946.4915958985938
 20
1114.683400445783
 30
0.0
 10
950.0252763843707
 20
1114.808029148777
 30
0.0
 10
951.7652214103159
 20
1114.869394937997
 30
0.0
  0
LINE
  5
1FE
330
1F
100
AcDbEntity
  8
0
  6
Continuous
 62
     7
370
    15
100
AcDbLine
 10
908.9652121597
 20
644.0693974891
 30
0.0
 11
908.9652121597
 21
1072.0693856874
 31
0.0
  0
SPLINE
  5
1FF
330
1F
100
AcDbEntity
  8
0
  6
Continuous
 62
     7
370
    15
100
AcDbSpline
210
0.0
220
0.0
230
1.0
 70
     8
 71
     3
 72
    21
 73
    17
 74
     0
 42
0.00000001
 43
0.00000001
 12
1.0
 22
0.0
 32
0.0
 13
1.0
 23
0.0
 33
0.0
 40
0.0
 40
0.0
 40
0.0
 40
0.0
 40
0.077631628063619
 40
0.1576634172760018
 40
0.239951453879782
 40
0.3042751253797986
 40
0.3686070248874062
 40
0.4342995451514138
 40
0.499999979659691
 40
0.5656925356445782
 40
0.631392947697261
 40
0.6957169299164225
 40
0.7600485302283625
 40
0.8423296225286576
 40
0.9223648303093717
 40
1.0
 40
1.0
 40
1.0
 40
1.0
 10
951.7652214103159
 20
601.269388238435
 30
0.0
 10
950.0253582316129
 20
601.3307746885771
 30
0.0
 10
946.4918399840992
 20
601.4554454928002
 30
0.0
 10
941.1949863943156
 20
602.4829541214406
 30
0.0
 10
936.3505845286007
 20
604.0384104525963
 30
0.0
 10
932.0434341662929
 20
606.0011325500548
 30
0.0
 10
928.2786956543523
 20
608.2007260952896
 30
0.0
 10
924.7306840889174
 20
610.7889475786774
 30
0.0
 10
921.4478454665995
 20
613.7517717244309
 30
0.0
 10
918.4848725629047
 20
617.0347125780531
 30
0.0
 10
915.8967491983336
 20
620.5825794475336
 30
0.0
 10
913.6970288576285
 20
624.3474450049702
 30
0.0
 10
911.7343480061639
 20
628.6544495035072
 30
0.0
 10
910.1788866530376
 20
633.4989455126316
 30
0.0
 10
909.1512318286485
 20
638.7957748741173
 30
0.0
 10
909.0265862698085
 20
642.3294530146057
 30
0.0
 10
908.965212159675
 20
644.069397489076
 30
0.0
  0
LINE
  5
200
330
1F
100
AcDbEntity
  8
0
  6
Continuous
 62
     7
370
    15
100
AcDbLine
 10
1177.7652174764
 20
601.2693882384
 30
0.0
 11
951.7652214103
 21
601.2693882384
 31
0.0
  0
LINE
  5
201
330
1F
100
AcDbEntity
  8
0
  6
Continuous
 62
     7
370
    15
100
AcDbLine
 10
1177.7652174764
 20
604.0693909326
 30
0.0
 11
951.7652214103
 21
604.0693909326
 31
0.0
  0
LINE
  5
202
330
1F
100
AcDbEntity
  8
0
  6
Continuous
 62
     7
370
    15
100
AcDbLine
 10
1177.7652174764
 20
601.2693882384
 30
0.0
 11
1177.7652174764
 21
604.0693909326
 31
0.0
  0
LINE
  5
203
330
1F
100
AcDbEntity
  8
0
  6
Continuous
 62
     7
370
    15
100
AcDbLine
 10
951.7652214103
 20
601.2693882384
 30
0.0
 11
951.7652214103
 21
604.0693909326
 31
0.0
  0
LINE
  5
204
330
1F
100
AcDbEntity
  8
0
  6
Continuous
 62
     7
370
    15
100
AcDbLine
 10
908.9652121597
 20
1072.0693856874
 30
0.0
 11
911.7652148538
 21
1072.0693856874
 31
0.0
  0
LINE
  5
205
330
1F
100
AcDbEntity
  8
0
  6
Continuous
 62
     7
370
    15
100
AcDbLine
 10
911.7652148538
 20
644.0693974891
 30
0.0
 11
911.7652148538
 21
1072.0693856874
 31
0.0
  0
LINE
  5
206
330
1F
100
AcDbEntity
  8
0
  6
Continuous
 62
     7
370
    15
100
AcDbLine
 10
911.7652148538
 20
644.0693974891
 30
0.0
 11
908.9652121597
 21
644.0693974891
 31
0.0
  0
LINE
  5
207
330
1F
100
AcDbEntity
  8
0
  6
Continuous
 62
     7
370
    15
100
AcDbLine
 10
1217.7652165823
 20
1072.0693856874
 30
0.0
 11
1217.7652165823
 21
644.0693974891
 31
0.0
  0
LINE
  5
208
330
1F
100
AcDbEntity
  8
0
  6
Continuous
 62
     7
370
    15
100
AcDbLine
 10
1220.5652192765
 20
1072.0693856874
 30
0.0
 11
1217.7652165823
 21
1072.0693856874
 31
0.0
  0
LINE
  5
209
330
1F
100
AcDbEntity
  8
0
  6
Continuous
 62
     7
370
    15
100
AcDbLine
 10
1220.5652192765
 20
644.0693974891
 30
0.0
 11
1217.7652165823
 21
644.0693974891
 31
0.0
  0
LINE
  5
20A
330
1F
100
AcDbEntity
  8
0
  6
Continuous
 62
     7
370
    15
100
AcDbLine
 10
951.7652214103
 20
1112.069407145
 30
0.0
 11
1177.7652174764
 21
1112.069407145
 31
0.0
  0
LINE
  5
20B
330
1F
100
AcDbEntity
  8
0
  6
Continuous
 62
     7
370
    15
100
AcDbLine
 10
951.7652214103
 20
1114.869394938
 30
0.0
 11
951.7652214103
 21
1112.069407145
 31
0.0
  0
LINE
  5
20C
330
1F
100
AcDbEntity
  8
0
  6
Continuous
 62
     7
370
    15
100
AcDbLine
 10
1177.7652174764
 20
1114.869394938
 30
0.0
 11
1177.7652174764
 21
1112.069407145
 31
0.0
  0
ARC
  5
20D
330
1F
100
AcDbEntity
  8
0
  6
Continuous
 62
     7
370
    15
100
AcDbCircle
 10
951.7652189781
 20
644.0693937377
 30
0.0
 40
40.00000000000011
100
AcDbArc
 50
180.0
 51
270.0
  0
ARC
  5
20E
330
1F
100
AcDbEntity
  8
0
  6
Continuous
 62
     7
370
    15
100
AcDbCircle
 10
1177.7652189781
 20
644.0693937377
 30
0.0
 40
40.00000000000011
100
AcDbArc
 50
270.0
 51
0.0
  0
ARC
  5
20F
330
1F
100
AcDbEntity
  8
0
  6
Continuous
 62
     7
370
    15
100
AcDbCircle
 10
951.7652189781
 20
1072.0693937377
 30
0.0
 40
39.99999999999989
100
AcDbArc
 50
90.0
 51
180.0
  0
ARC
  5
210
330
1F
100
AcDbEntity
  8
0
  6
Continuous
 62
     7
370
    15
100
AcDbCircle
 10
1177.7652189781
 20
1072.0693937377
 30
0.0
 40
40.0
100
AcDbArc
 50
0.0
 51
90.0
  0
ARC
  5
211
330
1F
100
AcDbEntity
  8
0
  6
Continuous
 62
     7
370
    15
100
AcDbCircle
 10
1084.3652189781
 20
1111.9693937377
 30
0.0
 40
0.1000000000001364
100
AcDbArc
 50
90.0
 51
180.0
  0
LINE
  5
212
330
1F
100
AcDbEntity
  8
0
  6
Continuous
 62
     7
370
    15
100
AcDbLine
 10
1084.2652198457
 20
1111.9693905511
 30
0.0
 11
1079.2652190261
 21
1111.9693905511
 31
0.0
  0
ARC
  5
213
330
1F
100
AcDbEntity
  8
0
  6
Continuous
 62
     7
370
    15
100
AcDbCircle
 10
1079.1652189781
 20
1111.9693937377
 30
0.0
 40
0.0999999999999091
100
AcDbArc
 50
0.0
 51
90.0
  0
ARC
  5
214
330
1F
100
AcDbEntity
  8
0
  6
Continuous
 62
     7
370
    15
100
AcDbCircle
 10
1067.3652189781
 20
1111.9693937377
 30
0.0
 40
0.0999999999999091
100
AcDbArc
 50
90.0
 51
180.0
  0
LINE
  5
215
330
1F
100
AcDbEntity
  8
0
  6
Continuous
 62
     7
370
    15
100
AcDbLine
 10
1067.2652207845
 20
1111.9693905511
 30
0.0
 11
1062.2652181023
 21
1111.9693905511
 31
0.0
  0
ARC
  5
216
330
1F
100
AcDbEntity
  8
0
  6
Continuous
 62
     7
370
    15
100
AcDbCircle
 10
1062.1652189781
 20
1111.9693937377
 30
0.0
 40
0.1000000000001364
100
AcDbArc
 50
0.0
 51
90.0
  0
ARC
  5
217
330
1F
100
AcDbEntity
  8
0
  6
Continuous
 62
     7
370
    15
100
AcDbCircle
 10
1049.6214151729
 20
1111.9818744767
 30
0.0
 40
0.0893077628346808
100
AcDbArc
 50
101.4426269219
 51
188.0354311986
  0
LINE
  5
218
330
1F
100
AcDbEntity
  8
0
  6
Continuous
 62
     7
370
    15
100
AcDbLine
 10
1049.5329842501
 20
1111.9693905511
 30
0.0
 11
1045.2652171784
 21
1111.9693905511
 31
0.0
  0
ARC
  5
219
330
1F
100
AcDbEntity
  8
0
  6
Continuous
 62
     7
370
    15
100
AcDbCircle
 10
1045.1652189781
 20
1111.9693937377
 30
0.0
 40
0.1000000000001364
100
AcDbArc
 50
0.0
 51
90.0
  0
ARC
  5
21A
330
1F
100
AcDbEntity
  8
0
  6
Continuous
 62
     7
370
    15
100
AcDbCircle
 10
1069.1652189781
 20
1111.9693937377
 30
0.0
 40
0.1000000000001364
100
AcDbArc
 50
0.0
 51
90.0
  0
ARC
  5
21B
330
1F
100
AcDbEntity
  8
0
  6
Continuous
 62
     7
370
    15
100
AcDbCircle
 10
1073.6214100746
 20
1111.9818782287
 30
0.0
 40
0.0893030326455476
100
AcDbArc
 50
101.4397673317
 51
188.0382907889
  0
LINE
  5
21C
330
1F
100
AcDbEntity
  8
0
  6
Continuous
 62
     7
370
    15
100
AcDbLine
 10
1073.5329844587
 20
1111.9693905511
 30
0.0
 11
1069.265217387
 21
1111.9693905511
 31
0.0
  0
ARC
  5
21D
330
1F
100
AcDbEntity
  8
0
  6
Continuous
 62
     7
370
    15
100
AcDbCircle
 10
1055.909028415
 20
1111.9818812415
 30
0.0
 40
0.0893001584748467
100
AcDbArc
 50
351.9594965697
 51
78.5595995795
  0
ARC
  5
21E
330
1F
100
AcDbEntity
  8
0
  6
Continuous
 62
     7
370
    15
100
AcDbCircle
 10
1060.3652189781
 20
1111.9693937377
 30
0.0
 40
0.0999999999999091
100
AcDbArc
 50
90.0
 51
180.0
  0
LINE
  5
21F
330
1F
100
AcDbEntity
  8
0
  6
Continuous
 62
     7
370
    15
100
AcDbLine
 10
1060.2652177744
 20
1111.9693905511
 30
0.0
 11
1055.9974507027
 21
1111.9693905511
 31
0.0
  0
LINE
  5
220
330
1F
100
AcDbEntity
  8
0
  6
Continuous
 62
     7
370
    15
100
AcDbLine
 10
1079.2652190261
 20
1110.1693898835
 30
0.0
 11
1084.2652198457
 21
1110.1693898835
 31
0.0
  0
ARC
  5
221
330
1F
100
AcDbEntity
  8
0
  6
Continuous
 62
     7
370
    15
100
AcDbCircle
 10
1083.1652189782
 20
1110.1693937377
 30
0.0
 40
1.099999999914417
100
AcDbArc
 50
270.0
 51
0.0
  0
SPLINE
  5
222
330
1F
100
AcDbEntity
  8
0
  6
Continuous
 62
     7
370
    15
100
AcDbSpline
210
0.0
220
0.0
230
1.0
 70
    24
 71
     3
 72
    19
 73
    15
 74
     0
 42
0.00000001
 43
0.00000001
 12
1.0
 22
0.0
 32
0.0
 13
1.0
 23
0.0
 33
0.0
 40
0.0
 40
0.0
 40
0.0
 40
0.0
 40
0.1197216993448103
 40
0.1847994713746816
 40
0.2500000690987157
 40
0.3150785072064513
 40
0.3802785090247198
 40
0.5000002083695302
 40
0.6197210726423307
 40
0.6847992085738014
 40
0.749999684922382
 40
0.8150774643873359
 40
0.8802782210131123
 40
1.0
 40
1.0
 40
1.0
 40
1.0
 10
1080.36521902017
 20
1109.069386164193
 30
0.0
 10
1080.384021060641
 20
1109.069386164193
 30
0.0
 10
1080.413043428006
 20
1109.069386164193
 30
0.0
 10
1080.587325730107
 20
1109.069386164193
 30
0.0
 10
1080.768169255153
 20
1109.069386164193
 30
0.0
 10
1080.990981380854
 20
1109.069386164193
 30
0.0
 10
1081.31723144731
 20
1109.069386164193
 30
0.0
 10
1081.765219252223
 20
1109.069386164193
 30
0.0
 10
1082.213027274181
 20
1109.069386164193
 30
0.0
 10
1082.539304210188
 20
1109.069386164193
 30
0.0
 10
1082.762013570849
 20
1109.069386164193
 30
0.0
 10
1082.943014693621
 20
1109.069386164193
 30
0.0
 10
1083.117367686335
 20
1109.069386164193
 30
0.0
 10
1083.146414490498
 20
1109.069386164193
 30
0.0
 10
1083.165219851654
 20
1109.069386164193
 30
0.0
  0
ARC
  5
223
330
1F
100
AcDbEntity
  8
0
  6
Continuous
 62
     7
370
    15
100
AcDbCircle
 10
1080.365218978
 20
1110.1693937377
 30
0.0
 40
1.099999999914417
100
AcDbArc
 50
180.0
 51
270.0
  0
LINE
  5
224
330
1F
100
AcDbEntity
  8
0
  6
Continuous
 62
     7
370
    15
100
AcDbLine
 10
1062.2652181023
 20
1110.1693898835
 30
0.0
 11
1067.2652207845
 21
1110.1693898835
 31
0.0
  0
ARC
  5
225
330
1F
100
AcDbEntity
  8
0
  6
Continuous
 62
     7
370
    15
100
AcDbCircle
 10
1066.1652189782
 20
1110.1693937377
 30
0.0
 40
1.099999999914417
100
AcDbArc
 50
270.0
 51
0.0
  0
SPLINE
  5
226
330
1F
100
AcDbEntity
  8
0
  6
Continuous
 62
     7
370
    15
100
AcDbSpline
210
0.0
220
0.0
230
1.0
 70
    24
 71
     3
 72
    19
 73
    15
 74
     0
 42
0.00000001
 43
0.00000001
 12
1.0
 22
0.0
 32
0.0
 13
1.0
 23
0.0
 33
0.0
 40
0.0
 40
0.0
 40
0.0
 40
0.0
 40
0.1197216898097519
 40
0.1847994566565998
 40
0.2500000491878284
 40
0.3150784821124876
 40
0.380278478737998
 40
0.5000001685477499
 40
0.6197210232855586
 40
0.684799154033977
 40
0.7499996251897616
 40
0.8150773994716916
 40
0.8802781509046497
 40
1.0
 40
1.0
 40
1.0
 40
1.0
 10
1063.365218096298
 20
1109.069386164193
 30
0.0
 10
1063.384020136769
 20
1109.069386164193
 30
0.0
 10
1063.413042504133
 20
1109.069386164193
 30
0.0
 10
1063.587324806236
 20
1109.069386164193
 30
0.0
 10
1063.768168331276
 20
1109.069386164193
 30
0.0
 10
1063.990980456999
 20
1109.069386164193
 30
0.0
 10
1064.317230523353
 20
1109.069386164193
 30
0.0
 10
1064.765218328977
 20
1109.069386164193
 30
0.0
 10
1065.213026348461
 20
1109.069386164193
 30
0.0
 10
1065.539303289825
 20
1109.069386164193
 30
0.0
 10
1065.762012633601
 20
1109.069386164194
 30
0.0
 10
1065.94301381967
 20
1109.069386164193
 30
0.0
 10
1066.117366565274
 20
1109.069386164193
 30
0.0
 10
1066.146414617102
 20
1109.069386164193
 30
0.0
 10
1066.165220790428
 20
1109.069386164193
 30
0.0
  0
ARC
  5
227
330
1F
100
AcDbEntity
  8
0
  6
Continuous
 62
     7
370
    15
100
AcDbCircle
 10
1063.365218978
 20
1110.1693937377
 30
0.0
 40
1.099999999914189
100
AcDbArc
 50
180.0
 51
270.0
  0
SPLINE
  5
228
330
1F
100
AcDbEntity
  8
0
  6
Continuous
 62
     7
370
    15
100
AcDbSpline
210
0.0
220
0.0
230
1.0
 70
    24
 71
     3
 72
    15
 73
    11
 74
     0
 42
0.00000001
 43
0.00000001
 12
1.0
 22
0.0
 32
0.0
 13
1.0
 23
0.0
 33
0.0
 40
0.0
 40
0.0
 40
0.0
 40
0.0
 40
0.1222494764819733
 40
0.2500011531399176
 40
0.3777506857867768
 40
0.500000459090632
 40
0.622249856002445
 40
0.7499997599229454
 40
0.8777497404451171
 40
1.0
 40
1.0
 40
1.0
 40
1.0
 10
1070.365217381042
 20
1109.069386164193
 30
0.0
 10
1070.376498431049
 20
1109.069386164193
 30
0.0
 10
1070.399568268168
 20
1109.069386164193
 30
0.0
 10
1070.584927341529
 20
1109.069386164193
 30
0.0
 10
1070.866290750214
 20
1109.069386164193
 30
0.0
 10
1071.222037986452
 20
1109.069386164193
 30
0.0
 10
1071.622997684692
 20
1109.069386164193
 30
0.0
 10
1072.04145373782
 20
1109.069386164193
 30
0.0
 10
1072.441531424544
 20
1109.069386164193
 30
0.0
 10
1072.652168346721
 20
1109.069386164193
 30
0.0
 10
1072.75516992144
 20
1109.069386164193
 30
0.0
  0
ARC
  5
229
330
1F
100
AcDbEntity
  8
0
  6
Continuous
 62
     7
370
    15
100
AcDbCircle
 10
1070.365218978
 20
1110.1693937377
 30
0.0
 40
1.099999999914417
100
AcDbArc
 50
180.0
 51
270.0
  0
LINE
  5
22A
330
1F
100
AcDbEntity
  8
0
  6
Continuous
 62
     7
370
    15
100
AcDbLine
 10
1069.265217387
 20
1110.1693898835
 30
0.0
 11
1073.5329844587
 21
1110.1693898835
 31
0.0
  0
ARC
  5
22B
330
1F
100
AcDbEntity
  8
0
  6
Continuous
 62
     7
370
    15
100
AcDbCircle
 10
1072.5606968521
 20
1110.0318972724
 30
0.0
 40
0.981961001358251
100
AcDbArc
 50
281.4226950727
 51
8.0489111434
  0
SPLINE
  5
22C
330
1F
100
AcDbEntity
  8
0
  6
Continuous
 62
     7
370
    15
100
AcDbSpline
210
0.0
220
0.0
230
1.0
 70
    24
 71
     3
 72
    15
 73
    11
 74
     0
 42
0.00000001
 43
0.00000001
 12
1.0
 22
0.0
 32
0.0
 13
1.0
 23
0.0
 33
0.0
 40
0.0
 40
0.0
 40
0.0
 40
0.0
 40
0.1222493776802322
 40
0.2500004515941763
 40
0.3777503829887838
 40
0.4999998061917557
 40
0.6222486317182665
 40
0.7499989557394048
 40
0.8777506598718374
 40
1.0
 40
1.0
 40
1.0
 40
1.0
 10
1056.775268965286
 20
1109.069386164193
 30
0.0
 10
1056.878269197775
 20
1109.069386164193
 30
0.0
 10
1057.088905072781
 20
1109.069386164193
 30
0.0
 10
1057.488984315086
 20
1109.069386164193
 30
0.0
 10
1057.907440962276
 20
1109.069386164193
 30
0.0
 10
1058.30840044903
 20
1109.069386164193
 30
0.0
 10
1058.664144860726
 20
1109.069386164193
 30
0.0
 10
1058.945511658233
 20
1109.069386164193
 30
0.0
 10
1059.13087139976
 20
1109.069386164193
 30
0.0
 10
1059.153938215497
 20
1109.069386164193
 30
0.0
 10
1059.165217780393
 20
1109.069386164193
 30
0.0
  0
ARC
  5
22D
330
1F
100
AcDbEntity
  8
0
  6
Continuous
 62
     7
370
    15
100
AcDbCircle
 10
1056.96974694
 20
1110.0319040338
 30
0.0
 40
0.9819686002538984
100
AcDbArc
 50
171.95154999
 51
258.5771025132
  0
LINE
  5
22E
330
1F
100
AcDbEntity
  8
0
  6
Continuous
 62
     7
370
    15
100
AcDbLine
 10
1055.9974507027
 20
1110.1693898835
 30
0.0
 11
1060.2652177744
 21
1110.1693898835
 31
0.0
  0
ARC
  5
22F
330
1F
100
AcDbEntity
  8
0
  6
Continuous
 62
     7
370
    15
100
AcDbCircle
 10
1059.1652189782
 20
1110.1693937377
 30
0.0
 40
1.099999999914189
100
AcDbArc
 50
270.0
 51
0.0
  0
SPLINE
  5
230
330
1F
100
AcDbEntity
  8
0
  6
Continuous
 62
     7
370
    15
100
AcDbSpline
210
0.0
220
0.0
230
1.0
 70
    24
 71
     3
 72
    15
 73
    11
 74
     0
 42
0.00000001
 43
0.00000001
 12
1.0
 22
0.0
 32
0.0
 13
1.0
 23
0.0
 33
0.0
 40
0.0
 40
0.0
 40
0.0
 40
0.0
 40
0.1222496485759787
 40
0.2500005425804855
 40
0.3777517828717465
 40
0.5000017282700249
 40
0.6222491001615849
 40
0.7500003161576971
 40
0.8777504765170875
 40
0.9999999999999999
 40
0.9999999999999999
 40
0.9999999999999999
 40
0.9999999999999999
 10
1046.365220897716
 20
1109.069386164193
 30
0.0
 10
1046.376502669789
 20
1109.069386164193
 30
0.0
 10
1046.399573894715
 20
1109.069386164193
 30
0.0
 10
1046.584921208912
 20
1109.069386164193
 30
0.0
 10
1046.866294890604
 20
1109.069386164193
 30
0.0
 10
1047.222038934398
 20
1109.069386164193
 30
0.0
 10
1047.622997382889
 20
1109.069386164193
 30
0.0
 10
1048.041452218692
 20
1109.069386164193
 30
0.0
 10
1048.441530682102
 20
1109.069386164193
 30
0.0
 10
1048.652165723511
 20
1109.069386164193
 30
0.0
 10
1048.755165987533
 20
1109.069386164193
 30
0.0
  0
ARC
  5
231
330
1F
100
AcDbEntity
  8
0
  6
Continuous
 62
     7
370
    15
100
AcDbCircle
 10
1046.365218978
 20
1110.1693937377
 30
0.0
 40
1.099999999914417
100
AcDbArc
 50
180.0
 51
270.0
  0
LINE
  5
232
330
1F
100
AcDbEntity
  8
0
  6
Continuous
 62
     7
370
    15
100
AcDbLine
 10
1045.2652171784
 20
1110.1693898835
 30
0.0
 11
1049.5329842501
 21
1110.1693898835
 31
0.0
  0
ARC
  5
233
330
1F
100
AcDbEntity
  8
0
  6
Continuous
 62
     7
370
    15
100
AcDbCircle
 10
1048.5606908823
 20
1110.0319020048
 30
0.0
 40
0.981966043163442
100
AcDbArc
 50
281.4227568237
 51
8.0485906731
  0
LINE
  5
234
330
1F
100
AcDbEntity
  8
0
  6
Continuous
 62
     7
370
    15
100
AcDbLine
 10
1079.2652190261
 20
1111.9693905511
 30
0.0
 11
1079.2652190261
 21
1110.1693898835
 31
0.0
  0
LINE
  5
235
330
1F
100
AcDbEntity
  8
0
  6
Continuous
 62
     7
370
    15
100
AcDbLine
 10
1084.2652198457
 20
1111.9693905511
 30
0.0
 11
1084.2652198457
 21
1110.1693898835
 31
0.0
  0
LINE
  5
236
330
1F
100
AcDbEntity
  8
0
  6
Continuous
 62
     7
370
    15
100
AcDbLine
 10
1055.9974507027
 20
1111.9693905511
 30
0.0
 11
1055.9974507027
 21
1110.1693898835
 31
0.0
  0
LINE
  5
237
330
1F
100
AcDbEntity
  8
0
  6
Continuous
 62
     7
370
    15
100
AcDbLine
 10
1060.2652177744
 20
1110.1693898835
 30
0.0
 11
1060.2652177744
 21
1111.9693905511
 31
0.0
  0
LINE
  5
238
330
1F
100
AcDbEntity
  8
0
  6
Continuous
 62
     7
370
    15
100
AcDbLine
 10
1069.265217387
 20
1111.9693905511
 30
0.0
 11
1069.265217387
 21
1110.1693898835
 31
0.0
  0
LINE
  5
239
330
1F
100
AcDbEntity
  8
0
  6
Continuous
 62
     7
370
    15
100
AcDbLine
 10
1073.5329844587
 20
1110.1693898835
 30
0.0
 11
1073.5329844587
 21
1111.9693905511
 31
0.0
  0
LINE
  5
23A
330
1F
100
AcDbEntity
  8
0
  6
Continuous
 62
     7
370
    15
100
AcDbLine
 10
1045.2652171784
 20
1111.9693905511
 30
0.0
 11
1045.2652171784
 21
1110.1693898835
 31
0.0
  0
LINE
  5
23B
330
1F
100
AcDbEntity
  8
0
  6
Continuous
 62
     7
370
    15
100
AcDbLine
 10
1049.5329842501
 20
1110.1693898835
 30
0.0
 11
1049.5329842501
 21
1111.9693905511
 31
0.0
  0
LINE
  5
23C
330
1F
100
AcDbEntity
  8
0
  6
Continuous
 62
     7
370
    15
100
AcDbLine
 10
1062.2652181023
 20
1111.9693905511
 30
0.0
 11
1062.2652181023
 21
1110.1693898835
 31
0.0
  0
LINE
  5
23D
330
1F
100
AcDbEntity
  8
0
  6
Continuous
 62
     7
370
    15
100
AcDbLine
 10
1067.2652207845
 20
1111.9693905511
 30
0.0
 11
1067.2652207845
 21
1110.1693898835
 31
0.0
  0
LINE
  5
23E
330
1F
100
AcDbEntity
  8
0
  6
Continuous
 62
     7
370
    15
100
AcDbLine
 10
1079.2652190261
 20
1111.9693905511
 30
0.0
 11
1073.5329844587
 21
1111.9693905511
 31
0.0
  0
LINE
  5
23F
330
1F
100
AcDbEntity
  8
0
  6
Continuous
 62
     7
370
    15
100
AcDbLine
 10
1052.7652174764
 20
1111.9693905511
 30
0.0
 11
1052.7652174764
 21
1112.069407145
 31
0.0
  0
LINE
  5
240
330
1F
100
AcDbEntity
  8
0
  6
Continuous
 62
     7
370
    15
100
AcDbLine
 10
1055.9974507027
 20
1111.9693905511
 30
0.0
 11
1052.7652174764
 21
1111.9693905511
 31
0.0
  0
LINE
  5
241
330
1F
100
AcDbEntity
  8
0
  6
Continuous
 62
     7
370
    15
100
AcDbLine
 10
1052.7652174764
 20
1111.9693905511
 30
0.0
 11
1049.5329842501
 21
1111.9693905511
 31
0.0
  0
LINE
  5
242
330
1F
100
AcDbEntity
  8
0
  6
Continuous
 62
     7
370
    15
100
AcDbLine
 10
1052.7652174764
 20
1110.1693898835
 30
0.0
 11
1052.7652174764
 21
1111.9693905511
 31
0.0
  0
LINE
  5
243
330
1F
100
AcDbEntity
  8
0
  6
Continuous
 62
     7
370
    15
100
AcDbLine
 10
1055.9974507027
 20
1110.1693898835
 30
0.0
 11
1052.7652174764
 21
1110.1693898835
 31
0.0
  0
LINE
  5
244
330
1F
100
AcDbEntity
  8
0
  6
Continuous
 62
     7
370
    15
100
AcDbLine
 10
1073.5329844587
 20
1110.1693898835
 30
0.0
 11
1079.2652190261
 21
1110.1693898835
 31
0.0
  0
LINE
  5
245
330
1F
100
AcDbEntity
  8
0
  6
Continuous
 62
     7
370
    15
100
AcDbLine
 10
1072.7551699214
 20
1109.0693861642
 30
0.0
 11
1080.3652190202
 21
1109.0693861642
 31
0.0
  0
LINE
  5
246
330
1F
100
AcDbEntity
  8
0
  6
Continuous
 62
     7
370
    15
100
AcDbLine
 10
1052.7652174764
 20
1110.1693898835
 30
0.0
 11
1049.5329842501
 21
1110.1693898835
 31
0.0
  0
LINE
  5
247
330
1F
100
AcDbEntity
  8
0
  6
Continuous
 62
     7
370
    15
100
AcDbLine
 10
1048.7551659875
 20
1109.0693861642
 30
0.0
 11
1052.7652174764
 21
1109.0693861642
 31
0.0
  0
LINE
  5
248
330
1F
100
AcDbEntity
  8
0
  6
Continuous
 62
     7
370
    15
100
AcDbLine
 10
1052.7652174764
 20
1110.1693898835
 30
0.0
 11
1052.7652174764
 21
1109.0693861642
 31
0.0
  0
LINE
  5
249
330
1F
100
AcDbEntity
  8
0
  6
Continuous
 62
     7
370
    15
100
AcDbLine
 10
1052.7652174764
 20
1109.0693861642
 30
0.0
 11
1056.7752689653
 21
1109.0693861642
 31
0.0
  0
LINE
  5
24A
330
1F
100
AcDbEntity
  8
0
  6
Continuous
 62
     7
370
    15
100
AcDbLine
 10
1084.7652189963
 20
1111.56938378
 30
0.0
 11
1084.7652189963
 21
1112.069407145
 31
0.0
  0
LINE
  5
24B
330
1F
100
AcDbEntity
  8
0
  6
Continuous
 62
     7
370
    15
100
AcDbLine
 10
1044.7652161651
 20
1111.56938378
 30
0.0
 11
1044.7652161651
 21
1112.069407145
 31
0.0
  0
LINE
  5
24C
330
1F
100
AcDbEntity
  8
0
  6
Continuous
 62
     7
370
    15
100
AcDbLine
 10
1044.2652226024
 20
1110.0694030919
 30
0.0
 11
1044.7652161651
 21
1110.0694030919
 31
0.0
  0
LINE
  5
24D
330
1F
100
AcDbEntity
  8
0
  6
Continuous
 62
     7
370
    15
100
AcDbLine
 10
1044.7652161651
 20
1111.56938378
 30
0.0
 11
1044.7652161651
 21
1110.0694030919
 31
0.0
  0
LINE
  5
24E
330
1F
100
AcDbEntity
  8
0
  6
Continuous
 62
     7
370
    15
100
AcDbLine
 10
1084.7652189963
 20
1111.56938378
 30
0.0
 11
1084.7652189963
 21
1110.0694030919
 31
0.0
  0
LINE
  5
24F
330
1F
100
AcDbEntity
  8
0
  6
Continuous
 62
     7
370
    15
100
AcDbLine
 10
1044.7652161651
 20
1110.0694030919
 30
0.0
 11
1045.2697769337
 21
1110.0694030919
 31
0.0
  0
LINE
  5
250
330
1F
100
AcDbEntity
  8
0
  6
Continuous
 62
     7
370
    15
100
AcDbLine
 10
1060.2606654697
 20
1110.0694030919
 30
0.0
 11
1062.2697741323
 21
1110.0694030919
 31
0.0
  0
LINE
  5
251
330
1F
100
AcDbEntity
  8
0
  6
Continuous
 62
     7
370
    15
100
AcDbLine
 10
1067.2606647544
 20
1110.0694030919
 30
0.0
 11
1069.269773417
 21
1110.0694030919
 31
0.0
  0
LINE
  5
252
330
1F
100
AcDbEntity
  8
0
  6
Continuous
 62
     7
370
    15
100
AcDbLine
 10
1084.2606638157
 20
1110.0694030919
 30
0.0
 11
1084.7652189963
 21
1110.0694030919
 31
0.0
  0
LINE
  5
253
330
1F
100
AcDbEntity
  8
0
  6
Continuous
 62
     7
370
    15
100
AcDbLine
 10
1084.7652189963
 20
1110.0694030919
 30
0.0
 11
1085.265218147
 21
1110.0694030919
 31
0.0
  0
LINE
  5
254
330
1F
100
AcDbEntity
  8
0
  6
Continuous
 62
     7
370
    15
100
AcDbLine
 10
951.7652214103
 20
1097.3634511628
 30
0.0
 11
951.7652214103
 21
1112.069407145
 31
0.0
  0
LINE
  5
255
330
1F
100
AcDbEntity
  8
0
  6
Continuous
 62
     7
370
    15
100
AcDbLine
 10
1177.7652174764
 20
1112.069407145
 30
0.0
 11
1177.7652174764
 21
1097.3634511628
 31
0.0
  0
LINE
  5
256
330
1F
100
AcDbEntity
  8
0
  6
Continuous
 62
     7
370
    15
100
AcDbLine
 10
1177.7652174764
 20
1097.3634511628
 30
0.0
 11
951.7652214103
 21
1097.3634511628
 31
0.0
  0
SPLINE
  5
257
330
1F
100
AcDbEntity
  8
0
  6
Continuous
 62
     7
370
    15
100
AcDbSpline
210
0.0
220
0.0
230
1.0
 70
     8
 71
     3
 72
    16
 73
    12
 74
     0
 42
0.00000001
 43
0.00000001
 12
1.0
 22
0.0
 32
0.0
 13
1.0
 23
0.0
 33
0.0
 40
0.0
 40
0.0
 40
0.0
 40
0.0
 40
0.1164857806530122
 40
0.2399506944284071
 40
0.3043399984998882
 40
0.3687167812015658
 40
0.5000519558066074
 40
0.6313917675714897
 40
0.7600067140686269
 40
0.8834919958164101
 40
1.0
 40
1.0
 40
1.0
 40
1.0
 10
1177.765217476409
 20
1097.36345116282
 30
0.0
 10
1179.289877803569
 20
1097.282732234633
 30
0.0
 10
1182.430547009875
 20
1097.116458181583
 30
0.0
 10
1186.279973857594
 20
1095.962684749031
 30
0.0
 10
1189.285037384578
 20
1094.60059696022
 30
0.0
 10
1192.225267843086
 20
1092.881654344779
 30
0.0
 10
1195.56865518018
 20
1090.166967292231
 30
0.0
 10
1198.819614032423
 20
1086.168890629567
 30
0.0
 10
1201.126197516816
 20
1081.68847705494
 30
0.0
 10
1202.517041031053
 20
1077.029131885613
 30
0.0
 10
1202.684110056174
 20
1073.888235879654
 30
0.0
 10
1202.765215986293
 20
1072.363445202356
 30
0.0
  0
ARC
  5
258
330
1F
100
AcDbEntity
  8
0
  6
Continuous
 62
     7
370
    15
100
AcDbCircle
 10
1206.5136983851
 20
880.8511718318
 30
0.0
 40
191.5489545047619
100
AcDbArc
 50
86.6325276817
 51
91.121310905
  0
SPLINE
  5
259
330
1F
100
AcDbEntity
  8
0
  6
Continuous
 62
     7
370
    15
100
AcDbSpline
210
0.0
220
0.0
230
1.0
 70
     8
 71
     3
 72
    16
 73
    12
 74
     0
 42
0.00000001
 43
0.00000001
 12
1.0
 22
0.0
 32
0.0
 13
1.0
 23
0.0
 33
0.0
 40
0.0
 40
0.0
 40
0.0
 40
0.0
 40
0.1165080193485747
 40
0.2399932987759981
 40
0.3043907244486619
 40
0.3687732550521555
 40
0.5001133038972945
 40
0.6314481811329574
 40
0.7600491208904702
 40
0.8835140323458879
 40
0.9999999999999999
 40
0.9999999999999999
 40
0.9999999999999999
 40
0.9999999999999999
 10
926.7652154498516
 20
1072.363445202356
 30
0.0
 10
926.8459408840691
 20
1073.888101012142
 30
0.0
 10
927.0122261180072
 20
1077.028718965606
 30
0.0
 10
928.1659511483912
 20
1080.878155546121
 30
0.0
 10
929.5280484071156
 20
1083.883248757987
 30
0.0
 10
931.2469567438216
 20
1086.82340844073
 30
0.0
 10
933.9615630044822
 20
1090.1667269264
 30
0.0
 10
937.9596140516205
 20
1093.417760271729
 30
0.0
 10
942.440080550676
 20
1095.724363426042
 30
0.0
 10
947.0994735449366
 20
1097.115285932785
 30
0.0
 10
950.2404235117159
 20
1097.282349090402
 30
0.0
 10
951.7652214103159
 20
1097.36345116282
 30
0.0
  0
ARC
  5
25A
330
1F
100
AcDbEntity
  8
0
  6
Continuous
 62
     7
370
    15
100
AcDbCircle
 10
923.0167372447
 20
880.8509579119
 30
0.0
 40
191.549168301565
100
AcDbArc
 50
88.8786916014
 51
93.367469812
  0
ARC
  5
25B
330
1F
100
AcDbEntity
  8
0
  6
Continuous
 62
     7
370
    15
100
AcDbCircle
 10
1206.5136983851
 20
452.8511836335
 30
0.0
 40
191.5489545046944
100
AcDbArc
 50
86.6325276817
 51
91.121310905
  0
LINE
  5
25C
330
1F
100
AcDbEntity
  8
0
  6
Continuous
 62
     7
370
    15
100
AcDbLine
 10
1202.7652159863
 20
644.3634570041
 30
0.0
 11
1202.7652159863
 21
1072.3634452024
 31
0.0
  0
LINE
  5
25D
330
1F
100
AcDbEntity
  8
0
  6
Continuous
 62
     7
370
    15
100
AcDbLine
 10
926.7652154499
 20
1072.3634452024
 30
0.0
 11
926.7652154499
 21
644.3634570041
 31
0.0
  0
ARC
  5
25E
330
1F
100
AcDbEntity
  8
0
  6
Continuous
 62
     7
370
    15
100
AcDbCircle
 10
923.0167372447
 20
452.8509697137
 30
0.0
 40
191.5491683014973
100
AcDbArc
 50
88.8786916014
 51
93.367469812
  0
SPLINE
  5
25F
330
1F
100
AcDbEntity
  8
0
  6
Continuous
 62
     7
370
    15
100
AcDbSpline
210
0.0
220
0.0
230
1.0
 70
     8
 71
     3
 72
    16
 73
    12
 74
     0
 42
0.00000001
 43
0.00000001
 12
1.0
 22
0.0
 32
0.0
 13
1.0
 23
0.0
 33
0.0
 40
0.0
 40
0.0
 40
0.0
 40
0.0
 40
0.1164860094339576
 40
0.2399508254410982
 40
0.3043401291193131
 40
0.3687169145158988
 40
0.500051799717294
 40
0.6313918565284787
 40
0.7600070649761854
 40
0.8834923518932467
 40
0.9999999999999999
 40
0.9999999999999999
 40
0.9999999999999999
 40
0.9999999999999999
 10
951.7652214103159
 20
619.3634510436108
 30
0.0
 10
950.2405591313432
 20
619.4441775723361
 30
0.0
 10
947.0998903580187
 20
619.6104670460397
 30
0.0
 10
943.2504555441677
 20
620.7642147091673
 30
0.0
 10
940.245394423125
 20
622.126306182737
 30
0.0
 10
937.305165223723
 20
623.8452438091682
 30
0.0
 10
933.9617931816347
 20
626.5599462541209
 30
0.0
 10
930.7108088676969
 20
630.5580060126921
 30
0.0
 10
928.404247021328
 20
635.0384397455333
 30
0.0
 10
927.0134001864952
 20
639.6977801589021
 30
0.0
 10
926.8463244895855
 20
642.8386711782464
 30
0.0
 10
926.7652154498516
 20
644.3634570040753
 30
0.0
  0
LINE
  5
260
330
1F
100
AcDbEntity
  8
0
  6
Continuous
 62
     7
370
    15
100
AcDbLine
 10
951.7652214103
 20
604.0693909326
 30
0.0
 11
951.7652214103
 21
619.3634510436
 31
0.0
  0
SPLINE
  5
261
330
1F
100
AcDbEntity
  8
0
  6
Continuous
 62
     7
370
    15
100
AcDbSpline
210
0.0
220
0.0
230
1.0
 70
     8
 71
     3
 72
    16
 73
    12
 74
     0
 42
0.00000001
 43
0.00000001
 12
1.0
 22
0.0
 32
0.0
 13
1.0
 23
0.0
 33
0.0
 40
0.0
 40
0.0
 40
0.0
 40
0.0
 40
0.1165076435918762
 40
0.2399929441173096
 40
0.3043903807925605
 40
0.3687733526897673
 40
0.5001131844266898
 40
0.6314483790030666
 40
0.7600493373056615
 40
0.8835141669189184
 40
1.0
 40
1.0
 40
1.0
 40
1.0
 10
1202.765215986293
 20
644.3634570040753
 30
0.0
 10
1202.684493269366
 20
642.8388061497145
 30
0.0
 10
1202.518213342184
 20
639.6981929160386
 30
0.0
 10
1201.364487571042
 20
635.8487616348294
 30
0.0
 10
1200.002388003978
 20
632.8436631357326
 30
0.0
 10
1198.283478601813
 20
629.9035023713127
 30
0.0
 10
1195.568884170594
 20
626.5601641897538
 30
0.0
 10
1191.570817248932
 20
623.3091492051439
 30
0.0
 10
1187.090354423398
 20
621.0025319248782
 30
0.0
 10
1182.430956722436
 20
619.6116404590045
 30
0.0
 10
1179.290012298079
 20
619.4445610061334
 30
0.0
 10
1177.765217476409
 20
619.3634510436108
 30
0.0
  0
LINE
  5
262
330
1F
100
AcDbEntity
  8
0
  6
Continuous
 62
     7
370
    15
100
AcDbLine
 10
1177.7652174764
 20
619.3634510436
 30
0.0
 11
1177.7652174764
 21
604.0693909326
 31
0.0
  0
LINE
  5
263
330
1F
100
AcDbEntity
  8
0
  6
Continuous
 62
     7
370
    15
100
AcDbLine
 10
951.7652214103
 20
619.3634510436
 30
0.0
 11
1177.7652174764
 21
619.3634510436
 31
0.0
  0
SPLINE
  5
264
330
1F
100
AcDbEntity
  8
0
  6
Continuous
 62
     7
370
    15
100
AcDbSpline
210
0.0
220
0.0
230
1.0
 70
    11
 71
     3
 72
    43
 73
    39
 74
     0
 42
0.00000001
 43
0.00000001
 12
1.0
 22
0.0
 32
0.0
 13
1.0
 23
0.0
 33
0.0
 40
0.0
 40
0.0
 40
0.0
 40
0.0
 40
0.0291242162105597
 40
0.0599929250038451
 40
0.0760914286269952
 40
0.0921862855189592
 40
0.125020659680742
 40
0.1578549780944231
 40
0.1900071365448614
 40
0.2208757652056031
 40
0.2499999730670101
 40
0.279124180928417
 40
0.3099929116450486
 40
0.3260914729703688
 40
0.342186258140476
 40
0.3750206573919967
 40
0.4078550328414883
 40
0.4400070600715849
 40
0.4708757976438351
 40
0.5000000043389321
 40
0.5291242110340292
 40
0.55999293609223
 40
0.57609143971538
 40
0.5921862655357784
 40
0.6250206207719206
 40
0.65785503644327
 40
0.6900070886258194
 40
0.7208758229405263
 40
0.7500000319915786
 40
0.7791242410426309
 40
0.8099928733014599
 40
0.826091429230054
 40
0.8421862995273445
 40
0.8750206343608949
 40
0.9078549883093276
 40
0.9400070875102157
 40
0.9708757837894403
 40
1.0
 40
1.0
 40
1.0
 40
1.0
 10
1152.765218966525
 20
631.2159389653256
 30
0.0
 10
1154.155706025777
 20
631.2895527056467
 30
0.0
 10
1157.019968028964
 20
631.4411895280904
 30
0.0
 10
1160.530647415381
 20
632.4931748289996
 30
0.0
 10
1163.271308552796
 20
633.7351669293303
 30
0.0
 10
1165.952638671408
 20
635.3025491490878
 30
0.0
 10
1169.00269938904
 20
637.7777983704673
 30
0.0
 10
1171.963869952146
 20
641.4233480154578
 30
0.0
 10
1174.080846594315
 20
645.5087338742151
 30
0.0
 10
1175.3024832235
 20
649.757223111249
 30
0.0
 10
1175.692694147719
 20
654.0116620664389
 30
0.0
 10
1175.302774009208
 20
658.265460128315
 30
0.0
 10
1174.292681675148
 20
661.7754978230192
 30
0.0
 10
1173.044572208463
 20
664.5156277319943
 30
0.0
 10
1171.47838415308
 20
667.1964506508253
 30
0.0
 10
1169.001917578101
 20
670.2459256822467
 30
0.0
 10
1165.355899959605
 20
673.2065158488881
 30
0.0
 10
1161.269668606229
 20
675.3230917430421
 30
0.0
 10
1157.020378105327
 20
676.5444910110126
 30
0.0
 10
1152.765112689014
 20
676.93462534247
 30
0.0
 10
1148.510498267191
 20
676.544783854734
 30
0.0
 10
1144.999788413211
 20
675.5348825353207
 30
0.0
 10
1142.259135666011
 20
674.2870093212139
 30
0.0
 10
1139.577790632733
 20
672.7211391845893
 30
0.0
 10
1136.527736991355
 20
670.2451351007061
 30
0.0
 10
1133.566573988363
 20
666.5998215822697
 30
0.0
 10
1131.449586888045
 20
662.5143729325627
 30
0.0
 10
1130.227957417902
 20
658.2658978326489
 30
0.0
 10
1129.837740757898
 20
654.0114496168936
 30
0.0
 10
1130.227662309688
 20
649.7576606555731
 30
0.0
 10
1131.237760227106
 20
646.247616018347
 30
0.0
 10
1132.485869893837
 20
643.5075156378864
 30
0.0
 10
1134.052040578909
 20
640.8265661525058
 30
0.0
 10
1136.528528635065
 20
637.778011144633
 30
0.0
 10
1140.17454275615
 20
634.8136949352931
 30
0.0
 10
1144.260754507395
 20
632.7104584965364
 30
0.0
 10
1148.51009445173
 20
631.4422596765373
 30
0.0
 10
1151.374609011076
 20
631.289902449365
 30
0.0
 10
1152.765218966525
 20
631.2159389653256
 30
0.0
  0
CIRCLE
  5
265
330
1F
100
AcDbEntity
  8
0
  6
Continuous
 62
     7
370
    15
100
AcDbCircle
 10
1152.7655878944
 20
654.0690869543
 30
0.0
 40
19.99878586220669
  0
SPLINE
  5
266
330
1F
100
AcDbEntity
  8
0
  6
Continuous
 62
     7
370
    15
100
AcDbSpline
210
0.0
220
0.0
230
1.0
 70
    11
 71
     3
 72
    43
 73
    39
 74
     0
 42
0.00000001
 43
0.00000001
 12
1.0
 22
0.0
 32
0.0
 13
1.0
 23
0.0
 33
0.0
 40
0.0
 40
0.0
 40
0.0
 40
0.0
 40
0.0291241919472507
 40
0.059992945300369
 40
0.0921449632041478
 40
0.1249793342908233
 40
0.1578137606483537
 40
0.1739082040534954
 40
0.1900071032708262
 40
0.2208758278708446
 40
0.2499999354143894
 40
0.2791241698535623
 40
0.3099928920985212
 40
0.3421449572088766
 40
0.374979383566407
 40
0.4078137531081094
 40
0.4239081928840107
 40
0.4400070505330427
 40
0.470875803886161
 40
0.4999999958334116
 40
0.5291241877806623
 40
0.5599929411337806
 40
0.5921449740387935
 40
0.6249793314524853
 40
0.6578137578100157
 40
0.673908209095997
 40
0.690007104067164
 40
0.7208758306298045
 40
0.7500000622138097
 40
0.7791241669021743
 40
0.8099928958198742
 40
0.8421449587542195
 40
0.8749793851117499
 40
0.9078137440704153
 40
0.9239081838463166
 40
0.9400070546996311
 40
0.9708758080527493
 40
1.0
 40
1.0
 40
1.0
 40
1.0
 10
1152.765218966525
 20
635.1132333674481
 30
0.0
 10
1153.924060221577
 20
635.1748663153596
 30
0.0
 10
1156.311158210493
 20
635.3018240719715
 30
0.0
 10
1159.852265695966
 20
636.3586794603607
 30
0.0
 10
1163.257451318891
 20
638.1113541293537
 30
0.0
 10
1166.295800265778
 20
640.5816193458783
 30
0.0
 10
1168.359517550024
 20
643.1220827290007
 30
0.0
 10
1169.664669346957
 20
645.3562009847457
 30
0.0
 10
1170.704770596104
 20
647.6396151806053
 30
0.0
 10
1171.546506825022
 20
650.5646689134873
 30
0.0
 10
1171.87145569023
 20
654.1094922922011
 30
0.0
 10
1171.54626460637
 20
657.6548610951094
 30
0.0
 10
1170.528249717649
 20
661.1952612992447
 30
0.0
 10
1168.76408687763
 20
664.5997984466816
 30
0.0
 10
1166.29645562218
 20
667.6375644440866
 30
0.0
 10
1163.754752978255
 20
669.7008909285795
 30
0.0
 10
1161.5203003409
 20
671.0057825776266
 30
0.0
 10
1159.236424858032
 20
672.045681520958
 30
0.0
 10
1156.310818402554
 20
672.8872636708959
 30
0.0
 10
1152.765307597639
 20
673.2121492723282
 30
0.0
 10
1149.219254387901
 20
672.8870203347631
 30
0.0
 10
1145.678179060276
 20
671.8691918622565
 30
0.0
 10
1142.272983487986
 20
670.1053825299996
 30
0.0
 10
1139.234637596647
 20
667.6382201422024
 30
0.0
 10
1137.170921580958
 20
665.0970025576003
 30
0.0
 10
1135.865765857259
 20
662.8629823979264
 30
0.0
 10
1134.825669277425
 20
660.5795435157657
 30
0.0
 10
1133.983924853213
 20
657.6544970369002
 30
0.0
 10
1133.65898723241
 20
654.1096693286831
 30
0.0
 10
1133.984170475857
 20
650.5643036165857
 30
0.0
 10
1135.002189230227
 20
647.0238966237839
 30
0.0
 10
1136.766350769427
 20
643.6194100664236
 30
0.0
 10
1139.233982303462
 20
640.5814468793425
 30
0.0
 10
1141.775683750371
 20
638.5187357252768
 30
0.0
 10
1144.010135431507
 20
637.2126063339305
 30
0.0
 10
1146.294016316998
 20
636.1776078275324
 30
0.0
 10
1149.219593596059
 20
635.3009330296387
 30
0.0
 10
1151.60648028784
 20
635.1745751156114
 30
0.0
 10
1152.765218966525
 20
635.1132333674481
 30
0.0
  0
LINE
  5
267
330
1F
100
AcDbEntity
  8
0
  6
Continuous
 62
     7
370
    15
100
AcDbLine
 10
1114.7652189661
 20
688.1180346408
 30
0.0
 11
1114.7652189661
 21
691.1180332699
 31
0.0
  0
LINE
  5
268
330
1F
100
AcDbEntity
  8
0
  6
Continuous
 62
     7
370
    15
100
AcDbLine
 10
1114.7652189661
 20
686.3611653843
 30
0.0
 11
1114.7652189661
 21
688.1180346408
 31
0.0
  0
LINE
  5
269
330
1F
100
AcDbEntity
  8
0
  6
Continuous
 62
     7
370
    15
100
AcDbLine
 10
1014.7652224236
 20
688.1180346408
 30
0.0
 11
1014.7652224236
 21
686.3611653843
 31
0.0
  0
LINE
  5
26A
330
1F
100
AcDbEntity
  8
0
  6
Continuous
 62
     7
370
    15
100
AcDbLine
 10
1014.7652224236
 20
689.7782251635
 30
0.0
 11
1014.7652224236
 21
688.1180346408
 31
0.0
  0
CIRCLE
  5
26B
330
1F
100
AcDbEntity
  8
0
  6
Continuous
 62
     7
370
    15
100
AcDbCircle
 10
1152.7655018409
 20
654.1009274255
 30
0.0
 40
8.66947440093728
  0
CIRCLE
  5
26C
330
1F
100
AcDbEntity
  8
0
  6
Continuous
 62
     7
370
    15
100
AcDbCircle
 10
1152.7655081717
 20
654.0985744385
 30
0.0
 40
9.499375944791462
  0
ARC
  5
26D
330
1F
100
AcDbEntity
  8
0
  6
Continuous
 62
     7
370
    15
100
AcDbCircle
 10
1152.7660562478
 20
654.7181657594
 30
0.0
 40
8.66919374960035
100
AcDbArc
 50
269.9944663041
 51
357.9531988406
  0
ARC
  5
26E
330
1F
100
AcDbEntity
  8
0
  6
Continuous
 62
     7
370
    15
100
AcDbCircle
 10
1152.7643816409
 20
654.7181637829
 30
0.0
 40
8.669191773179893
100
AcDbArc
 50
182.0467885555
 51
270.0055339907
  0
LINE
  5
26F
330
1F
100
AcDbEntity
  8
0
  6
Continuous
 62
     7
370
    15
100
AcDbLine
 10
1114.7652189661
 20
689.7782251635
 30
0.0
 11
1114.7652189661
 21
686.3611653843
 31
0.0
  0
LINE
  5
270
330
1F
100
AcDbEntity
  8
0
  6
Continuous
 62
     7
370
    15
100
AcDbLine
 10
1014.7652224236
 20
688.1180346408
 30
0.0
 11
1014.7652224236
 21
691.1180332699
 31
0.0
  0
SPLINE
  5
271
330
1F
100
AcDbEntity
  8
0
  6
Continuous
 62
     7
370
    15
100
AcDbSpline
210
0.0
220
0.0
230
1.0
 70
     8
 71
     3
 72
     9
 73
     5
 74
     0
 42
0.00000001
 43
0.00000001
 12
1.0
 22
0.0
 32
0.0
 13
1.0
 23
0.0
 33
0.0
 40
0.0
 40
0.0
 40
0.0
 40
0.0
 40
0.2334567208449403
 40
1.0
 40
1.0
 40
1.0
 40
1.0
 10
1194.207434409183
 20
1109.488645235544
 30
0.0
 10
1193.812779378323
 20
1109.798012111125
 30
0.0
 10
1192.122294609104
 20
1111.123169401354
 30
0.0
 10
1190.877201826362
 20
1112.893491446018
 30
0.0
 10
1189.922784321826
 20
1114.250519911294
 30
0.0
  0
LINE
  5
272
330
1F
100
AcDbEntity
  8
0
  6
Continuous
 62
     7
370
    15
100
AcDbLine
 10
906.5443695121
 20
1202.119389216
 30
0.0
 11
901.8485516839
 21
1202.119389216
 31
0.0
  0
LWPOLYLINE
  5
273
330
1F
100
AcDbEntity
  8
0
  6
Continuous
 62
     7
370
    15
100
AcDbPolyline
 90
        9
 70
   128
 43
0.0
 10
901.8485516839
 20
1202.119389216
 10
901.84670394
 20
1202.1681756177
 10
901.8412203126
 20
1202.2150546708
 10
901.8323094182
 20
1202.2582978406
 10
901.8203139835
 20
1202.2961765924
 10
901.8057108455
 20
1202.3272604146
 10
901.7890364461
 20
1202.3503572145
 10
901.7709613376
 20
1202.3646027246
 10
901.7521560722
 20
1202.3694008985
  0
LINE
  5
274
330
1F
100
AcDbEntity
  8
0
  6
Continuous
 62
     7
370
    15
100
AcDbLine
 10
901.7521560722
 20
1202.3694008985
 30
0.0
 11
906.3328624301
 21
1202.3694008985
 31
0.0
  0
ARC
  5
275
330
1F
100
AcDbEntity
  8
0
  6
Continuous
 62
     7
370
    15
100
AcDbCircle
 10
906.3118267342
 20
1202.1371327834
 30
0.0
 40
0.2332187337340958
100
AcDbArc
 50
355.6366504194
 51
84.8250433049
  0
LINE
  5
276
330
1F
100
AcDbEntity
  8
0
  6
Continuous
 62
     7
370
    15
100
AcDbLine
 10
901.5612870984
 20
1202.119389216
 30
0.0
 11
901.8485516839
 21
1202.119389216
 31
0.0
  0
ARC
  5
277
330
1F
100
AcDbEntity
  8
0
  6
Continuous
 62
     7
370
    15
100
AcDbCircle
 10
901.7863272944
 20
1202.1454488463
 30
0.0
 40
0.2265440224520104
100
AcDbArc
 50
98.6754354123
 51
186.6054245069
  0
LINE
  5
278
330
1F
100
AcDbEntity
  8
0
  6
Continuous
 62
     7
370
    15
100
AcDbLine
 10
901.5612870984
 20
1202.119389216
 30
0.0
 11
901.0853142076
 21
1202.119389216
 31
0.0
  0
ARC
  5
279
330
1F
100
AcDbEntity
  8
0
  6
Continuous
 62
     7
370
    15
100
AcDbCircle
 10
901.3103482394
 20
1202.1454555889
 30
0.0
 40
0.226538675038067
100
AcDbArc
 50
98.6778771287
 51
186.6072978586
  0
LINE
  5
27A
330
1F
100
AcDbEntity
  8
0
  6
Continuous
 62
     7
370
    15
100
AcDbLine
 10
901.2761682802
 20
1202.3694008985
 30
0.0
 11
901.7521560722
 21
1202.3694008985
 31
0.0
  0
LINE
  5
27B
330
1F
100
AcDbEntity
  8
0
  6
Continuous
 62
     7
370
    15
100
AcDbLine
 10
889.7826940351
 20
1202.119389216
 30
0.0
 11
889.3067062431
 21
1202.119389216
 31
0.0
  0
LINE
  5
27C
330
1F
100
AcDbEntity
  8
0
  6
Continuous
 62
     7
370
    15
100
AcDbLine
 10
890.1881844335
 20
1202.119389216
 30
0.0
 11
889.7826940351
 21
1202.119389216
 31
0.0
  0
ARC
  5
27D
330
1F
100
AcDbEntity
  8
0
  6
Continuous
 62
     7
370
    15
100
AcDbCircle
 10
890.0077280669
 20
1202.1454555889
 30
0.0
 40
0.2265386750378461
100
AcDbArc
 50
98.6778771287
 51
186.6072978586
  0
ARC
  5
27E
330
1F
100
AcDbEntity
  8
0
  6
Continuous
 62
     7
370
    15
100
AcDbCircle
 10
889.9544078659
 20
1202.1358298611
 30
0.0
 40
0.234353959552137
100
AcDbArc
 50
355.9772220309
 51
85.3153002834
  0
LINE
  5
27F
330
1F
100
AcDbEntity
  8
0
  6
Continuous
 62
     7
370
    15
100
AcDbLine
 10
889.9735481077
 20
1202.3694008985
 30
0.0
 11
892.1854317718
 21
1202.3694008985
 31
0.0
  0
LINE
  5
280
330
1F
100
AcDbEntity
  8
0
  6
Continuous
 62
     7
370
    15
100
AcDbLine
 10
889.4975752168
 20
1202.3694008985
 30
0.0
 11
889.9735481077
 21
1202.3694008985
 31
0.0
  0
ARC
  5
281
330
1F
100
AcDbEntity
  8
0
  6
Continuous
 62
     7
370
    15
100
AcDbCircle
 10
889.531746439
 20
1202.1454488463
 30
0.0
 40
0.2265440224520275
100
AcDbArc
 50
98.6754354123
 51
186.6054245069
  0
LINE
  5
282
330
1F
100
AcDbEntity
  8
0
  6
Continuous
 62
     7
370
    15
100
AcDbLine
 10
894.4362074666
 20
1198.7693995633
 30
0.0
 11
894.4362074666
 21
1202.7228266397
 31
0.0
  0
SPLINE
  5
283
330
1F
100
AcDbEntity
  8
0
  6
Continuous
 62
     7
370
    15
100
AcDbSpline
210
0.0
220
0.0
230
1.0
 70
     8
 71
     3
 72
     9
 73
     5
 74
     0
 42
0.00000001
 43
0.00000001
 12
1.0
 22
0.0
 32
0.0
 13
1.0
 23
0.0
 33
0.0
 40
0.0
 40
0.0
 40
0.0
 40
0.0
 40
0.0701972025381056
 40
1.0
 40
1.0
 40
1.0
 40
1.0
 10
897.3010898166117
 20
1203.169384638315
 30
0.0
 10
897.2331781938165
 20
1203.168944035797
 30
0.0
 10
896.2657376072993
 20
1203.162667396528
 30
0.0
 10
895.3176976609059
 20
1202.934747343013
 30
0.0
 10
894.4362074666437
 20
1202.722826639657
 30
0.0
  0
LINE
  5
284
330
1F
100
AcDbEntity
  8
0
  6
Continuous
 62
     7
370
    15
100
AcDbLine
 10
900.1659870677
 20
1202.7228266397
 30
0.0
 11
897.3010898166
 21
1203.1693846383
 31
0.0
  0
LINE
  5
285
330
1F
100
AcDbEntity
  8
0
  6
Continuous
 62
     7
370
    15
100
AcDbLine
 10
900.1659870677
 20
1198.7693995633
 30
0.0
 11
900.1659870677
 21
1202.7228266397
 31
0.0
  0
SPLINE
  5
286
330
1F
100
AcDbEntity
  8
0
  6
Continuous
 62
     7
370
    15
100
AcDbSpline
210
0.0
220
0.0
230
1.0
 70
     8
 71
     3
 72
     9
 73
     5
 74
     0
 42
0.00000001
 43
0.00000001
 12
1.0
 22
0.0
 32
0.0
 13
1.0
 23
0.0
 33
0.0
 40
0.0
 40
0.0
 40
0.0
 40
0.0
 40
0.2686346066632621
 40
0.9999999999999999
 40
0.9999999999999999
 40
0.9999999999999999
 40
0.9999999999999999
 10
901.905503922027
 20
1203.169384638315
 30
0.0
 10
901.7473321301464
 20
1203.162759220198
 30
0.0
 10
901.1585331148398
 20
1203.138095911924
 30
0.0
 10
900.5852595291952
 20
1202.898245171078
 30
0.0
 10
900.1659870677408
 20
1202.722826639657
 30
0.0
  0
LINE
  5
287
330
1F
100
AcDbEntity
  8
0
  6
Continuous
 62
     7
370
    15
100
AcDbLine
 10
901.905503922
 20
1203.1693846383
 30
0.0
 11
897.3010898166
 21
1203.1693846383
 31
0.0
  0
LINE
  5
288
330
1F
100
AcDbEntity
  8
0
  6
Continuous
 62
     7
370
    15
100
AcDbLine
 10
894.4362074666
 20
1202.7228266397
 30
0.0
 11
893.3108121686
 21
1203.1693846383
 31
0.0
  0
LINE
  5
289
330
1F
100
AcDbEntity
  8
0
  6
Continuous
 62
     7
370
    15
100
AcDbLine
 10
897.3010898166
 20
1203.1693846383
 30
0.0
 11
893.3108121686
 21
1203.1693846383
 31
0.0
  0
SPLINE
  5
28A
330
1F
100
AcDbEntity
  8
0
  6
Continuous
 62
     7
370
    15
100
AcDbSpline
210
0.0
220
0.0
230
1.0
 70
     8
 71
     3
 72
     9
 73
     5
 74
     0
 42
0.00000001
 43
0.00000001
 12
1.0
 22
0.0
 32
0.0
 13
1.0
 23
0.0
 33
0.0
 40
0.0
 40
0.0
 40
0.0
 40
0.0
 40
0.2575496988324069
 40
0.9999999999999999
 40
0.9999999999999999
 40
0.9999999999999999
 40
0.9999999999999999
 10
903.645005875152
 20
1202.722826639657
 30
0.0
 10
903.4989706513609
 20
1202.790235043157
 30
0.0
 10
902.9319530060162
 20
1203.051964735736
 30
0.0
 10
902.342869298262
 20
1203.119352541574
 30
0.0
 10
901.905503922027
 20
1203.169384638315
 30
0.0
  0
LINE
  5
28B
330
1F
100
AcDbEntity
  8
0
  6
Continuous
 62
     7
370
    15
100
AcDbLine
 10
903.6450058752
 20
1202.3694008985
 30
0.0
 11
903.6450058752
 21
1202.7228266397
 31
0.0
  0
LINE
  5
28C
330
1F
100
AcDbEntity
  8
0
  6
Continuous
 62
     7
370
    15
100
AcDbLine
 10
892.1854317718
 20
1198.7693995633
 30
0.0
 11
892.1854317718
 21
1202.7228266397
 31
0.0
  0
SPLINE
  5
28D
330
1F
100
AcDbEntity
  8
0
  6
Continuous
 62
     7
370
    15
100
AcDbSpline
210
0.0
220
0.0
230
1.0
 70
     8
 71
     3
 72
     9
 73
     5
 74
     0
 42
0.00000001
 43
0.00000001
 12
1.0
 22
0.0
 32
0.0
 13
1.0
 23
0.0
 33
0.0
 40
0.0
 40
0.0
 40
0.0
 40
0.0
 40
0.0701977424405839
 40
1.0
 40
1.0
 40
1.0
 40
1.0
 10
893.3108121686395
 20
1203.169384638315
 30
0.0
 10
893.2841365637252
 20
1203.168944041842
 30
0.0
 10
892.904129971107
 20
1203.162667536964
 30
0.0
 10
892.5317093272326
 20
1202.934747346912
 30
0.0
 10
892.1854317717965
 20
1202.722826639657
 30
0.0
  0
LINE
  5
28E
330
1F
100
AcDbEntity
  8
0
  6
Continuous
 62
     7
370
    15
100
AcDbLine
 10
903.3462524944
 20
1202.8497547307
 30
0.0
 11
903.6450058752
 21
1202.7228266397
 31
0.0
  0
LINE
  5
28F
330
1F
100
AcDbEntity
  8
0
  6
Continuous
 62
     7
370
    15
100
AcDbLine
 10
902.9152215057
 20
1203.1693846383
 30
0.0
 11
901.905503922
 21
1203.1693846383
 31
0.0
  0
LINE
  5
290
330
1F
100
AcDbEntity
  8
0
  6
Continuous
 62
     7
370
    15
100
AcDbLine
 10
892.9152161413
 20
1203.1693846383
 30
0.0
 11
893.3108121686
 21
1203.1693846383
 31
0.0
  0
LINE
  5
291
330
1F
100
AcDbEntity
  8
0
  6
Continuous
 62
     8
370
    15
100
AcDbLine
 10
866.7152196699
 20
1184.1577679315
 30
0.0
 11
866.7152196699
 21
1184.0393037
 31
0.0
  0
LINE
  5
292
330
1F
100
AcDbEntity
  8
0
  6
Continuous
 62
     8
370
    15
100
AcDbLine
 10
864.7859365278
 20
459.1151267686
 30
0.0
 11
864.7652239137
 21
459.1151267686
 31
0.0
  0
LINE
  5
293
330
1F
100
AcDbEntity
  8
0
  6
Continuous
 62
     8
370
    15
100
AcDbLine
 10
1264.765214973
 20
459.1151267686
 30
0.0
 11
1264.744502359
 21
459.1151267686
 31
0.0
  0
LINE
  5
294
330
1F
100
AcDbEntity
  8
0
  6
Continuous
 62
     8
370
    15
100
AcDbLine
 10
1264.765214973
 20
457.165458838
 30
0.0
 11
1264.744502359
 21
457.165458838
 31
0.0
  0
LINE
  5
295
330
1F
100
AcDbEntity
  8
0
  6
Continuous
 62
     8
370
    15
100
AcDbLine
 10
864.7859365278
 20
457.165458838
 30
0.0
 11
864.7652239137
 21
457.165458838
 31
0.0
  0
LINE
  5
296
330
1F
100
AcDbEntity
  8
0
  6
Continuous
 62
     8
370
    15
100
AcDbLine
 10
1264.765214973
 20
432.841339747
 30
0.0
 11
1264.744502359
 21
432.841339747
 31
0.0
  0
LINE
  5
297
330
1F
100
AcDbEntity
  8
0
  6
Continuous
 62
     8
370
    15
100
AcDbLine
 10
864.7859365278
 20
432.841339747
 30
0.0
 11
864.7652239137
 21
432.841339747
 31
0.0
  0
LINE
  5
298
330
1F
100
AcDbEntity
  8
0
  6
Continuous
 62
     8
370
    15
100
AcDbLine
 10
1264.765214973
 20
426.7509669461
 30
0.0
 11
1264.744502359
 21
426.7509669461
 31
0.0
  0
LINE
  5
299
330
1F
100
AcDbEntity
  8
0
  6
Continuous
 62
     8
370
    15
100
AcDbLine
 10
864.7859365278
 20
426.7509669461
 30
0.0
 11
864.7652239137
 21
426.7509669461
 31
0.0
  0
LINE
  5
29A
330
1F
100
AcDbEntity
  8
0
  6
Continuous
 62
     8
370
    15
100
AcDbLine
 10
1264.765214973
 20
407.3005706468
 30
0.0
 11
1076.8448383146
 21
407.3005706468
 31
0.0
  0
LINE
  5
29B
330
1F
100
AcDbEntity
  8
0
  6
Continuous
 62
     8
370
    15
100
AcDbLine
 10
1052.6935205393
 20
407.3005706468
 30
0.0
 11
864.7652239137
 21
407.3005706468
 31
0.0
  0
LINE
  5
29C
330
1F
100
AcDbEntity
  8
0
  6
Continuous
 62
     8
370
    15
100
AcDbLine
 10
1075.9144172602
 20
414.3809765973
 30
0.0
 11
1076.55097624
 21
418.8693851628
 31
0.0
  0
LINE
  5
29D
330
1F
100
AcDbEntity
  8
0
  6
Continuous
 62
     8
370
    15
100
AcDbLine
 10
1052.9794626468
 20
418.8693851628
 30
0.0
 11
1053.6160216265
 21
414.3809765973
 31
0.0
  0
LINE
  5
29E
330
1F
100
AcDbEntity
  8
0
  6
Continuous
 62
     8
370
    15
100
AcDbLine
 10
1064.3127829366
 20
418.8693851628
 30
0.0
 11
1064.23262214
 21
416.5667981305
 31
0.0
  0
LINE
  5
29F
330
1F
100
AcDbEntity
  8
0
  6
Continuous
 62
     8
370
    15
100
AcDbLine
 10
1065.2978130215
 20
416.5667981305
 30
0.0
 11
1065.2324230009
 21
418.8693851628
 31
0.0
  0
ARC
  5
2A0
330
1F
100
AcDbEntity
  8
0
  6
Continuous
 62
     8
370
    15
100
AcDbCircle
 10
1053.4243439938
 20
415.0409494978
 30
0.0
 40
0.6872441664034309
100
AcDbArc
 50
245.3698842733
 51
286.1950186958
  0
ARC
  5
2A1
330
1F
100
AcDbEntity
  8
0
  6
Continuous
 62
     8
370
    15
100
AcDbCircle
 10
1076.0857701966
 20
415.3165634613
 30
0.0
 40
0.9511490992092151
100
AcDbArc
 50
259.6212931811
 51
288.8138038498
  0
ARC
  5
2A2
330
1F
100
AcDbEntity
  8
0
  6
Continuous
 62
     8
370
    15
100
AcDbCircle
 10
1047.6339797172
 20
410.0093167529
 30
0.0
 40
7.475159422674584
100
AcDbArc
 50
317.6909638481
 51
356.9498389256
  0
LINE
  5
2A3
330
1F
100
AcDbEntity
  8
0
  6
Continuous
 62
     8
370
    15
100
AcDbLine
 10
1051.5229821735
 20
418.8693851628
 30
0.0
 11
1050.67033773
 21
418.1472450891
 31
0.0
  0
ARC
  5
2A4
330
1F
100
AcDbEntity
  8
0
  6
Continuous
 62
     8
370
    15
100
AcDbCircle
 10
1081.7514933869
 20
409.9385070124
 30
0.0
 40
7.320431887495282
100
AcDbArc
 50
180.9343450613
 51
222.6629098949
  0
LINE
  5
2A5
330
1F
100
AcDbEntity
  8
0
  6
Continuous
 62
     8
370
    15
100
AcDbLine
 10
1078.8600974315
 20
418.1472450891
 30
0.0
 11
1078.0074567132
 21
418.8693851628
 31
0.0
  0
LINE
  5
2A6
330
1F
100
AcDbEntity
  8
0
  6
Continuous
 62
     8
370
    15
100
AcDbLine
 10
1078.8600974315
 20
418.1472450891
 30
0.0
 11
1079.2009242409
 21
418.8693851628
 31
0.0
  0
LINE
  5
2A7
330
1F
100
AcDbEntity
  8
0
  6
Continuous
 62
     8
370
    15
100
AcDbLine
 10
1050.3295183711
 20
418.8693851628
 30
0.0
 11
1050.67033773
 21
418.1472450891
 31
0.0
  0
ARC
  5
2A8
330
1F
100
AcDbEntity
  8
0
  6
Continuous
 62
     8
370
    15
100
AcDbCircle
 10
1054.0443444801
 20
414.4794411975
 30
0.0
 40
0.8960651221118128
100
AcDbArc
 50
220.3673053455
 51
275.5121181933
  0
ARC
  5
2A9
330
1F
100
AcDbEntity
  8
0
  6
Continuous
 62
     8
370
    15
100
AcDbCircle
 10
1075.4846426293
 20
414.483023615
 30
0.0
 40
0.8994933013293234
100
AcDbArc
 50
264.6018486481
 51
319.5187278132
  0
LWPOLYLINE
  5
2AA
330
1F
100
AcDbEntity
  8
0
  6
Continuous
 62
     8
370
    15
100
AcDbPolyline
 90
        3
 70
   128
 43
0.0
 10
1053.141490423
 20
404.7699362435
 10
1053.1399593287
 20
404.8716515698
 10
1053.1620465749
 20
404.9775690236
  0
ARC
  5
2AB
330
1F
100
AcDbEntity
  8
0
  6
Continuous
 62
     8
370
    15
100
AcDbCircle
 10
1053.9862886969
 20
404.260924592
 30
0.0
 40
0.3281077467603257
100
AcDbArc
 50
259.0330246747
 51
296.0574252545
  0
ARC
  5
2AC
330
1F
100
AcDbEntity
  8
0
  6
Continuous
 62
     8
370
    15
100
AcDbCircle
 10
1075.5441501898
 20
404.260924592
 30
0.0
 40
0.3281077467603257
100
AcDbArc
 50
243.9425747455
 51
280.9669753253
  0
ARC
  5
2AD
330
1F
100
AcDbEntity
  8
0
  6
Continuous
 62
     8
370
    15
100
AcDbCircle
 10
1075.9232838701
 20
404.8287679145
 30
0.0
 40
0.469318632347236
100
AcDbArc
 50
350.7878400648
 51
18.4850830069
  0
ARC
  5
2AE
330
1F
100
AcDbEntity
  8
0
  6
Continuous
 62
     8
370
    15
100
AcDbCircle
 10
1051.0818790178
 20
417.929838121
 30
0.0
 40
0.4654374516267356
100
AcDbArc
 50
152.1536267451
 51
190.9666468022
  0
ARC
  5
2AF
330
1F
100
AcDbEntity
  8
0
  6
Continuous
 62
     8
370
    15
100
AcDbCircle
 10
1078.4480595562
 20
417.9296828615
 30
0.0
 40
0.4659490675616959
100
AcDbArc
 50
349.4417283064
 51
27.8347313248
  0
LINE
  5
2B0
330
1F
100
AcDbEntity
  8
0
  6
Continuous
 62
     8
370
    15
100
AcDbLine
 10
960.1578832202
 20
1128.5386473336
 30
0.0
 11
969.3725526863
 21
1128.5386473336
 31
0.0
  0
LINE
  5
2B1
330
1F
100
AcDbEntity
  8
0
  6
Continuous
 62
     8
370
    15
100
AcDbLine
 10
1160.1578899258
 20
1128.5386473336
 30
0.0
 11
1169.3725482159
 21
1128.5386473336
 31
0.0
  0
LINE
  5
2B2
330
1F
100
AcDbEntity
  8
0
  6
Continuous
 62
     8
370
    15
100
AcDbLine
 10
880.0652146869
 20
1130.1694006124
 30
0.0
 11
880.0652146869
 21
470.5693811574
 31
0.0
  0
LINE
  5
2B3
330
1F
100
AcDbEntity
  8
0
  6
Continuous
 62
     8
370
    15
100
AcDbLine
 10
867.4652249151
 20
1130.1694006124
 30
0.0
 11
867.4652249151
 21
470.5693811574
 31
0.0
  0
LINE
  5
2B4
330
1F
100
AcDbEntity
  8
0
  6
Continuous
 62
     8
370
    15
100
AcDbLine
 10
1262.0652139717
 20
470.5693811574
 30
0.0
 11
1262.0652139717
 21
1130.1694006124
 31
0.0
  0
LINE
  5
2B5
330
1F
100
AcDbEntity
  8
0
  6
Continuous
 62
     8
370
    15
100
AcDbLine
 10
1249.4652241998
 20
470.5693811574
 30
0.0
 11
1249.4652241998
 21
1130.1694006124
 31
0.0
  0
LINE
  5
2B6
330
1F
100
AcDbEntity
  8
0
  6
Continuous
 62
     8
370
    15
100
AcDbLine
 10
903.965216928
 20
1185.1694077649
 30
0.0
 11
903.965216928
 21
1185.5693847337
 31
0.0
  0
LINE
  5
2B7
330
1F
100
AcDbEntity
  8
0
  6
Continuous
 62
     8
370
    15
100
AcDbLine
 10
1225.5652219587
 20
1185.5693847337
 30
0.0
 11
1225.5652219587
 21
1185.1694077649
 31
0.0
  0
LINE
  5
2B8
330
1F
100
AcDbEntity
  8
0
  6
Continuous
 62
     8
370
    15
100
AcDbLine
 10
884.2652261787
 20
1129.069396893
 30
0.0
 11
960.111451202
 21
1129.069396893
 31
0.0
  0
LINE
  5
2B9
330
1F
100
AcDbEntity
  8
0
  6
Continuous
 62
     8
370
    15
100
AcDbLine
 10
969.4189847045
 20
1129.069396893
 30
0.0
 11
1160.1114579075
 21
1129.069396893
 31
0.0
  0
LINE
  5
2BA
330
1F
100
AcDbEntity
  8
0
  6
Continuous
 62
     8
370
    15
100
AcDbLine
 10
1169.4189802342
 20
1129.069396893
 30
0.0
 11
1245.265212708
 21
1129.069396893
 31
0.0
  0
LINE
  5
2BB
330
1F
100
AcDbEntity
  8
0
  6
Continuous
 62
     8
370
    15
100
AcDbLine
 10
1084.7652189963
 20
1111.56938378
 30
0.0
 11
1084.2652198457
 21
1111.56938378
 31
0.0
  0
LINE
  5
2BC
330
1F
100
AcDbEntity
  8
0
  6
Continuous
 62
     8
370
    15
100
AcDbLine
 10
1069.265217387
 20
1111.56938378
 30
0.0
 11
1067.2652207845
 21
1111.56938378
 31
0.0
  0
LINE
  5
2BD
330
1F
100
AcDbEntity
  8
0
  6
Continuous
 62
     8
370
    15
100
AcDbLine
 10
1062.2652181023
 20
1111.56938378
 30
0.0
 11
1060.2652177744
 21
1111.56938378
 31
0.0
  0
LINE
  5
2BE
330
1F
100
AcDbEntity
  8
0
  6
Continuous
 62
     8
370
    15
100
AcDbLine
 10
1045.2652171784
 20
1111.56938378
 30
0.0
 11
1044.7652161651
 21
1111.56938378
 31
0.0
  0
LINE
  5
2BF
330
1F
100
AcDbEntity
  8
0
  6
Continuous
 62
     8
370
    15
100
AcDbLine
 10
1044.7652161651
 20
1111.56938378
 30
0.0
 11
1042.7652195626
 21
1111.56938378
 31
0.0
  0
LINE
  5
2C0
330
1F
100
AcDbEntity
  8
0
  6
Continuous
 62
     8
370
    15
100
AcDbLine
 10
1086.7652193242
 20
1111.56938378
 30
0.0
 11
1084.7652189963
 21
1111.56938378
 31
0.0
  0
ARC
  5
2C1
330
1F
100
AcDbEntity
  8
0
  6
Continuous
 62
     8
370
    15
100
AcDbCircle
 10
1152.7632727726
 20
654.0918684812
 30
0.0
 40
19.99805344804232
100
AcDbArc
 50
180.0054067385
 51
270.0055759777
  0
ARC
  5
2C2
330
1F
100
AcDbEntity
  8
0
  6
Continuous
 62
     8
370
    15
100
AcDbCircle
 10
1152.7671613235
 20
654.0918723189
 30
0.0
 40
19.99805728536002
100
AcDbArc
 50
269.9944350165
 51
359.9945822673
  0
LINE
  5
2C3
330
1F
100
AcDbEntity
  8
0
  6
Continuous
 62
     8
370
    15
100
AcDbLine
 10
906.5443695121
 20
1198.7693995633
 30
0.0
 11
906.5443695121
 21
1202.119389216
 31
0.0
  0
LINE
  5
2C4
330
1F
100
AcDbEntity
  8
0
  6
Continuous
 62
     8
370
    15
100
AcDbLine
 10
901.8485516839
 20
1202.119389216
 30
0.0
 11
901.8485516839
 21
1198.7693995633
 31
0.0
  0
LINE
  5
2C5
330
1F
100
AcDbEntity
  8
0
  6
Continuous
 62
     8
370
    15
100
AcDbLine
 10
901.5612870984
 20
1198.7693995633
 30
0.0
 11
901.5612870984
 21
1202.119389216
 31
0.0
  0
LINE
  5
2C6
330
1F
100
AcDbEntity
  8
0
  6
Continuous
 62
     8
370
    15
100
AcDbLine
 10
901.0853142076
 20
1202.119389216
 30
0.0
 11
901.0853142076
 21
1198.7693995633
 31
0.0
  0
LINE
  5
2C7
330
1F
100
AcDbEntity
  8
0
  6
Continuous
 62
     8
370
    15
100
AcDbLine
 10
901.0853142076
 20
1202.119389216
 30
0.0
 11
901.0261714988
 21
1202.119389216
 31
0.0
  0
LINE
  5
2C8
330
1F
100
AcDbEntity
  8
0
  6
Continuous
 62
     8
370
    15
100
AcDbLine
 10
906.5443695121
 20
1202.119389216
 30
0.0
 11
906.5828592115
 21
1202.119389216
 31
0.0
  0
LINE
  5
2C9
330
1F
100
AcDbEntity
  8
0
  6
Continuous
 62
     8
370
    15
100
AcDbLine
 10
889.3067062431
 20
1202.119389216
 30
0.0
 11
889.3067062431
 21
1198.7693995633
 31
0.0
  0
LINE
  5
2CA
330
1F
100
AcDbEntity
  8
0
  6
Continuous
 62
     8
370
    15
100
AcDbLine
 10
889.7826940351
 20
1198.7693995633
 30
0.0
 11
889.7826940351
 21
1202.119389216
 31
0.0
  0
LINE
  5
2CB
330
1F
100
AcDbEntity
  8
0
  6
Continuous
 62
     8
370
    15
100
AcDbLine
 10
890.1881844335
 20
1202.119389216
 30
0.0
 11
890.1881844335
 21
1198.7693995633
 31
0.0
  0
LINE
  5
2CC
330
1F
100
AcDbEntity
  8
0
  6
Continuous
 62
     8
370
    15
100
AcDbLine
 10
892.1854317718
 20
1202.119389216
 30
0.0
 11
890.1881844335
 21
1202.119389216
 31
0.0
  0
LINE
  5
2CD
330
1F
100
AcDbEntity
  8
0
  6
Continuous
 62
     8
370
    15
100
AcDbLine
 10
889.2475784355
 20
1202.119389216
 30
0.0
 11
889.3067062431
 21
1202.119389216
 31
0.0
  0
ENDSEC
  0
SECTION
  2
OBJECTS
  0
DICTIONARY
  5
C
330
0
100
AcDbDictionary
281
     1
  3
ACAD_GROUP
350
D
  3
ACAD_LAYOUT
350
1A
  3
ACAD_MLINESTYLE
350
17
  3
ACAD_PLOTSETTINGS
350
19
  3
ACAD_PLOTSTYLENAME
350
E
  0
DICTIONARY
  5
D
102
{ACAD_REACTORS
330
C
102
}
330
C
100
AcDbDictionary
281
     1
  0
DICTIONARY
  5
1A
102
{ACAD_REACTORS
330
C
102
}
330
C
100
AcDbDictionary
281
     1
  3
Layout1
350
1E
  3
Layout2
350
26
  3
Model
350
22
  0
DICTIONARY
  5
17
102
{ACAD_REACTORS
330
C
102
}
330
C
100
AcDbDictionary
281
     1
  3
Standard
350
18
  0
DICTIONARY
  5
19
102
{ACAD_REACTORS
330
C
102
}
330
C
100
AcDbDictionary
281
     1
  0
ACDBDICTIONARYWDFLT
  5
E
102
{ACAD_REACTORS
330
C
102
}
330
C
100
AcDbDictionary
281
     1
  3
Normal
350
F
100
AcDbDictionaryWithDefault
340
F
  0
LAYOUT
  5
1E
102
{ACAD_REACTORS
330
1A
102
}
330
1A
100
AcDbPlotSettings
  1

  2
none_device
  4

  6

 40
0.0
 41
0.0
 42
0.0
 43
0.0
 44
0.0
 45
0.0
 46
0.0
 47
0.0
 48
0.0
 49
0.0
140
0.0
141
0.0
142
1.0
143
1.0
 70
   688
 72
     0
 73
     0
 74
     5
  7

 75
    16
147
1.0
148
0.0
149
0.0
100
AcDbLayout
  1
Layout1
 70
     1
 71
     1
 10
0.0
 20
0.0
 11
420.0
 21
297.0
 12
0.0
 22
0.0
 32
0.0
 14
1.0000000000E+20
 24
1.0000000000E+20
 34
1.0000000000E+20
 15
-1.0000000000E+20
 25
-1.0000000000E+20
 35
-1.0000000000E+20
146
0.0
 13
0.0
 23
0.0
 33
0.0
 16
1.0
 26
0.0
 36
0.0
 17
0.0
 27
1.0
 37
0.0
 76
     0
330
1B
  0
LAYOUT
  5
26
102
{ACAD_REACTORS
330
1A
102
}
330
1A
100
AcDbPlotSettings
  1

  2
none_device
  4

  6

 40
0.0
 41
0.0
 42
0.0
 43
0.0
 44
0.0
 45
0.0
 46
0.0
 47
0.0
 48
0.0
 49
0.0
140
0.0
141
0.0
142
1.0
143
1.0
 70
   688
 72
     0
 73
     0
 74
     5
  7

 75
    16
147
1.0
148
0.0
149
0.0
100
AcDbLayout
  1
Layout2
 70
     1
 71
     2
 10
0.0
 20
0.0
 11
0.0
 21
0.0
 12
0.0
 22
0.0
 32
0.0
 14
0.0
 24
0.0
 34
0.0
 15
0.0
 25
0.0
 35
0.0
146
0.0
 13
0.0
 23
0.0
 33
0.0
 16
1.0
 26
0.0
 36
0.0
 17
0.0
 27
1.0
 37
0.0
 76
     0
330
23
  0
LAYOUT
  5
22
102
{ACAD_REACTORS
330
1A
102
}
330
1A
100
AcDbPlotSettings
  1

  2
none_device
  4

  6

 40
0.0
 41
0.0
 42
0.0
 43
0.0
 44
0.0
 45
0.0
 46
0.0
 47
0.0
 48
0.0
 49
0.0
140
0.0
141
0.0
142
1.0
143
1.0
 70
  1712
 72
     0
 73
     0
 74
     0
  7

 75
     0
147
1.0
148
0.0
149
0.0
100
AcDbLayout
  1
Model
 70
     1
 71
     0
 10
0.0
 20
0.0
 11
2159.0
 21
1397.0
 12
0.0
 22
0.0
 32
0.0
 14
0.0
 24
0.0
 34
0.0
 15
2159.0
 25
1397.0
 35
0.0
146
0.0
 13
0.0
 23
0.0
 33
0.0
 16
1.0
 26
0.0
 36
0.0
 17
0.0
 27
1.0
 37
0.0
 76
     0
330
1F
331
29
  0
MLINESTYLE
  5
18
102
{ACAD_REACTORS
330
17
102
}
330
17
100
AcDbMlineStyle
  2
Standard
 70
     0
  3

 62
   256
 51
90.0
 52
90.0
 71
     2
 49
0.5
 62
   256
  6
BYLAYER
 49
-0.5
 62
   256
  6
BYLAYER
  0
ACDBPLACEHOLDER
  5
F
102
{ACAD_REACTORS
330
E
102
}
330
E
  0
ENDSEC
  0
EOF
