  0
SECTION
  2
HEADER
  9
$ACADVER
  1
AC1015
  9
$ACADMAINTVER
 70
     6
  9
$DWGCODEPAGE
  3
ANSI_1252
  9
$INSBASE
 10
0.0
 20
0.0
 30
0.0
  9
$EXTMIN
 10
0.0
 20
0.0
 30
0.0
  9
$EXTMAX
 10
2159.0
 20
1397.0
 30
0.0
  9
$LIMMIN
 10
0.0
 20
0.0
  9
$LIMMAX
 10
2159.0
 20
1397.0
  9
$ORTHOMODE
 70
     0
  9
$REGENMODE
 70
     1
  9
$FILLMODE
 70
     1
  9
$QTEXTMODE
 70
     0
  9
$MIRRTEXT
 70
     1
  9
$LTSCALE
 40
5.0
  9
$ATTMODE
 70
     1
  9
$TEXTSIZE
 40
17.5
  9
$TRACEWID
 40
1.0
  9
$TEXTSTYLE
  7
Standard
  9
$CLAYER
  8
0
  9
$CELTYPE
  6
ByLayer
  9
$CECOLOR
 62
   256
  9
$CELTSCALE
 40
1.0
  9
$DISPSILH
 70
     0
  9
$DIMSCALE
 40
1.0
  9
$DIMASZ
 40
16.51
  9
$DIMEXO
 40
5.0
  9
$DIMDLI
 40
3.75
  9
$DIMRND
 40
0.0
  9
$DIMDLE
 40
0.0
  9
$DIMEXE
 40
5.0
  9
$DIMTP
 40
0.0
  9
$DIMTM
 40
0.0
  9
$DIMTXT
 40
17.5
  9
$DIMCEN
 40
2.5
  9
$DIMTSZ
 40
0.0
  9
$DIMTOL
 70
     0
  9
$DIMLIM
 70
     0
  9
$DIMTIH
 70
     1
  9
$DIMTOH
 70
     1
  9
$DIMSE1
 70
     0
  9
$DIMSE2
 70
     0
  9
$DIMTAD
 70
     1
  9
$DIMZIN
 70
     0
  9
$DIMBLK
  1

  9
$DIMASO
 70
     1
  9
$DIMSHO
 70
     1
  9
$DIMPOST
  1

  9
$DIMAPOST
  1

  9
$DIMALT
 70
     0
  9
$DIMALTD
 70
     3
  9
$DIMALTF
 40
0.0393700787
  9
$DIMLFAC
 40
1.0
  9
$DIMTOFL
 70
     1
  9
$DIMTVP
 40
0.0
  9
$DIMTIX
 70
     0
  9
$DIMSOXD
 70
     0
  9
$DIMSAH
 70
     0
  9
$DIMBLK1
  1

  9
$DIMBLK2
  1

  9
$DIMSTYLE
  2
ISO-25
  9
$DIMCLRD
 70
     0
  9
$DIMCLRE
 70
     0
  9
$DIMCLRT
 70
     0
  9
$DIMTFAC
 40
1.0
  9
$DIMGAP
 40
7.62
  9
$DIMJUST
 70
     0
  9
$DIMSD1
 70
     0
  9
$DIMSD2
 70
     0
  9
$DIMTOLJ
 70
     0
  9
$DIMTZIN
 70
     0
  9
$DIMALTZ
 70
     0
  9
$DIMALTTZ
 70
     0
  9
$DIMUPT
 70
     0
  9
$DIMDEC
 70
     3
  9
$DIMTDEC
 70
     3
  9
$DIMALTU
 70
     2
  9
$DIMALTTD
 70
     3
  9
$DIMTXSTY
  7
Standard
  9
$DIMAUNIT
 70
     0
  9
$DIMADEC
 70
     2
  9
$DIMALTRND
 40
0.0
  9
$DIMAZIN
 70
     0
  9
$DIMDSEP
 70
    44
  9
$DIMATFIT
 70
     3
  9
$DIMFRAC
 70
     0
  9
$DIMLDRBLK
  1

  9
$DIMLUNIT
 70
     2
  9
$DIMLWD
 70
    -2
  9
$DIMLWE
 70
    -2
  9
$DIMTMOVE
 70
     0
  9
$LUNITS
 70
     2
  9
$LUPREC
 70
     8
  9
$SKETCHINC
 40
1.0
  9
$FILLETRAD
 40
10.0
  9
$AUNITS
 70
     0
  9
$AUPREC
 70
     8
  9
$MENU
  1
.
  9
$ELEVATION
 40
0.0
  9
$PELEVATION
 40
0.0
  9
$THICKNESS
 40
0.0
  9
$LIMCHECK
 70
     0
  9
$CHAMFERA
 40
10.0
  9
$CHAMFERB
 40
10.0
  9
$CHAMFERC
 40
20.0
  9
$CHAMFERD
 40
0.0
  9
$SKPOLY
 70
     0
  9
$TDCREATE
 40
2456246.35693794
  9
$TDUCREATE
 40
2456246.35693794
  9
$TDUPDATE
 40
2456246.356939746
  9
$TDUUPDATE
 40
2456246.356939746
  9
$TDINDWG
 40
0.0000000116
  9
$TDUSRTIMER
 40
0.0000000116
  9
$USRTIMER
 70
     1
  9
$ANGBASE
 50
0.0
  9
$ANGDIR
 70
     0
  9
$PDMODE
 70
     0
  9
$PDSIZE
 40
-1.0
  9
$PLINEWID
 40
0.0
  9
$SPLFRAME
 70
     0
  9
$SPLINETYPE
 70
     6
  9
$SPLINESEGS
 70
     8
  9
$HANDSEED
  5
374
  9
$SURFTAB1
 70
     6
  9
$SURFTAB2
 70
     6
  9
$SURFTYPE
 70
     6
  9
$SURFU
 70
     6
  9
$SURFV
 70
     6
  9
$UCSBASE
  2

  9
$UCSNAME
  2

  9
$UCSORG
 10
0.0
 20
0.0
 30
0.0
  9
$UCSXDIR
 10
1.0
 20
0.0
 30
0.0
  9
$UCSYDIR
 10
0.0
 20
1.0
 30
0.0
  9
$UCSORTHOREF
  2

  9
$UCSORTHOVIEW
 70
     0
  9
$UCSORGTOP
 10
0.0
 20
0.0
 30
0.0
  9
$UCSORGBOTTOM
 10
0.0
 20
0.0
 30
0.0
  9
$UCSORGLEFT
 10
0.0
 20
0.0
 30
0.0
  9
$UCSORGRIGHT
 10
0.0
 20
0.0
 30
0.0
  9
$UCSORGFRONT
 10
0.0
 20
0.0
 30
0.0
  9
$UCSORGBACK
 10
0.0
 20
0.0
 30
0.0
  9
$PUCSBASE
  2

  9
$PUCSNAME
  2

  9
$PUCSORG
 10
0.0
 20
0.0
 30
0.0
  9
$PUCSXDIR
 10
1.0
 20
0.0
 30
0.0
  9
$PUCSYDIR
 10
0.0
 20
1.0
 30
0.0
  9
$PUCSORTHOREF
  2

  9
$PUCSORTHOVIEW
 70
     0
  9
$PUCSORGTOP
 10
0.0
 20
0.0
 30
0.0
  9
$PUCSORGBOTTOM
 10
0.0
 20
0.0
 30
0.0
  9
$PUCSORGLEFT
 10
0.0
 20
0.0
 30
0.0
  9
$PUCSORGRIGHT
 10
0.0
 20
0.0
 30
0.0
  9
$PUCSORGFRONT
 10
0.0
 20
0.0
 30
0.0
  9
$PUCSORGBACK
 10
0.0
 20
0.0
 30
0.0
  9
$USERI1
 70
     0
  9
$USERI2
 70
     0
  9
$USERI3
 70
     0
  9
$USERI4
 70
     0
  9
$USERI5
 70
     0
  9
$USERR1
 40
0.0
  9
$USERR2
 40
0.0
  9
$USERR3
 40
0.0
  9
$USERR4
 40
0.0
  9
$USERR5
 40
0.0
  9
$WORLDVIEW
 70
     1
  9
$SHADEDGE
 70
     3
  9
$SHADEDIF
 70
    70
  9
$TILEMODE
 70
     1
  9
$MAXACTVP
 70
    64
  9
$PINSBASE
 10
0.0
 20
0.0
 30
0.0
  9
$PLIMCHECK
 70
     0
  9
$PEXTMIN
 10
1.0000000000E+20
 20
1.0000000000E+20
 30
1.0000000000E+20
  9
$PEXTMAX
 10
-1.0000000000E+20
 20
-1.0000000000E+20
 30
-1.0000000000E+20
  9
$PLIMMIN
 10
0.0
 20
0.0
  9
$PLIMMAX
 10
420.0
 20
297.0
  9
$UNITMODE
 70
     0
  9
$VISRETAIN
 70
     1
  9
$PLINEGEN
 70
     0
  9
$PSLTSCALE
 70
     1
  9
$TREEDEPTH
 70
  3020
  9
$CMLSTYLE
  2
Standard
  9
$CMLJUST
 70
     0
  9
$CMLSCALE
 40
20.0
  9
$PROXYGRAPHICS
 70
     1
  9
$MEASUREMENT
 70
     1
  9
$CELWEIGHT
370
    -1
  9
$ENDCAPS
280
     0
  9
$JOINSTYLE
280
     0
  9
$LWDISPLAY
290
     1
  9
$INSUNITS
 70
     4
  9
$HYPERLINKBASE
  1

  9
$STYLESHEET
  1

  9
$XEDIT
290
     1
  9
$CEPSNTYPE
380
     0
  9
$PSTYLEMODE
290
     1
  9
$FINGERPRINTGUID
  2
{5829B6B9-29DA-4368-A355-D81889AD171E}
  9
$VERSIONGUID
  2
{FAEB1C32-E019-11D5-929B-00C0DF256EC4}
  9
$EXTNAMES
290
     1
  9
$PSVPSCALE
 40
0.0
  9
$OLESTARTUP
290
     0
  0
ENDSEC
  0
SECTION
  2
CLASSES
  0
CLASS
  1
ACDBDICTIONARYWDFLT
  2
AcDbDictionaryWithDefault
  3
ObjectDBX Classes
 90
        0
280
     0
281
     0
  0
CLASS
  1
VISUALSTYLE
  2
AcDbVisualStyle
  3
ObjectDBX Classes
 90
     4095
280
     0
281
     0
  0
CLASS
  1
MATERIAL
  2
AcDbMaterial
  3
ObjectDBX Classes
 90
     1153
280
     0
281
     0
  0
CLASS
  1
ACDBPLACEHOLDER
  2
AcDbPlaceHolder
  3
ObjectDBX Classes
 90
        0
280
     0
281
     0
  0
CLASS
  1
LAYOUT
  2
AcDbLayout
  3
ObjectDBX Classes
 90
        0
280
     0
281
     0
  0
ENDSEC
  0
SECTION
  2
TABLES
  0
TABLE
  2
VPORT
  5
8
330
0
100
AcDbSymbolTable
 70
     1
  0
VPORT
  5
29
330
8
100
AcDbSymbolTableRecord
100
AcDbViewportTableRecord
  2
*Active
 70
     0
 10
0.0
 20
0.0
 11
1.0
 21
1.0
 12
1079.5
 22
698.5
 13
0.0
 23
0.0
 14
10.0
 24
10.0
 15
10.0
 25
10.0
 16
0.0
 26
0.0
 36
1.0
 17
0.0
 27
0.0
 37
0.0
 40
1397.0
 41
1.5454545455
 42
50.0
 43
0.0
 44
0.0
 50
0.0
 51
0.0
 71
     0
 72
  2000
 73
     1
 74
     3
 75
     0
 76
     0
 77
     0
 78
     0
281
     0
 65
     1
110
0.0
120
0.0
130
0.0
111
1.0
121
0.0
131
0.0
112
0.0
122
1.0
132
0.0
 79
     0
146
0.0
  0
ENDTAB
  0
TABLE
  2
LTYPE
  5
5
330
0
100
AcDbSymbolTable
 70
     6
  0
LTYPE
  5
14
330
5
100
AcDbSymbolTableRecord
100
AcDbLinetypeTableRecord
  2
ByBlock
 70
     0
  3

 72
    65
 73
     0
 40
0.0
  0
LTYPE
  5
15
330
5
100
AcDbSymbolTableRecord
100
AcDbLinetypeTableRecord
  2
ByLayer
 70
     0
  3

 72
    65
 73
     0
 40
0.0
  0
LTYPE
  5
16
330
5
100
AcDbSymbolTableRecord
100
AcDbLinetypeTableRecord
  2
Continuous
 70
     0
  3
Solid line
 72
    65
 73
     0
 40
0.0
  0
LTYPE
  5
3F
330
5
100
AcDbSymbolTableRecord
100
AcDbLinetypeTableRecord
  2
HIDDEN
 70
     0
  3
Hidden __ __ __ __ __ __ __ __ __ __ __ __ __ __
 72
    65
 73
     2
 40
1.905
 49
1.27
 74
     0
 49
-0.635
 74
     0
  0
LTYPE
  5
40
330
5
100
AcDbSymbolTableRecord
100
AcDbLinetypeTableRecord
  2
PHANTOM
 70
     0
  3
Phantom ______  __  __  ______  __  __  ______
 72
    65
 73
     6
 40
12.7
 49
6.35
 74
     0
 49
-1.27
 74
     0
 49
1.27
 74
     0
 49
-1.27
 74
     0
 49
1.27
 74
     0
 49
-1.27
 74
     0
  0
LTYPE
  5
41
330
5
100
AcDbSymbolTableRecord
100
AcDbLinetypeTableRecord
  2
CENTER
 70
     0
  3
Center ____ _ ____ _ ____ _ ____ _ ____ _ ____
 72
    65
 73
     4
 40
10.16
 49
6.35
 74
     0
 49
-1.27
 74
     0
 49
1.27
 74
     0
 49
-1.27
 74
     0
  0
LTYPE
  5
42
330
5
100
AcDbSymbolTableRecord
100
AcDbLinetypeTableRecord
  2
CENTERX2
 70
     0
  3
Center (2x) ________  __  ________  __  _____
 72
    65
 73
     4
 40
20.32
 49
12.7
 74
     0
 49
-2.54
 74
     0
 49
2.54
 74
     0
 49
-2.54
 74
     0
  0
LTYPE
  5
43
330
5
100
AcDbSymbolTableRecord
100
AcDbLinetypeTableRecord
  2
DOT2
 70
     0
  3
Dot (.5x) ........................................
 72
    65
 73
     2
 40
0.635
 49
0.0
 74
     0
 49
-0.635
 74
     0
  0
ENDTAB
  0
TABLE
  2
LAYER
  5
2
330
0
100
AcDbSymbolTable
 70
     1
  0
LAYER
  5
10
330
2
100
AcDbSymbolTableRecord
100
AcDbLayerTableRecord
  2
0
 70
     0
 62
     7
  6
Continuous
370
    -3
390
F
  0
ENDTAB
  0
TABLE
  2
STYLE
  5
3
330
0
100
AcDbSymbolTable
 70
     1
  0
STYLE
  5
11
330
3
100
AcDbSymbolTableRecord
100
AcDbTextStyleTableRecord
  2
Standard
 70
     0
 40
0.0
 41
1.0
 50
0.0
 71
     0
 42
17.5
  3
txt
  4

  0
ENDTAB
  0
TABLE
  2
VIEW
  5
6
330
0
100
AcDbSymbolTable
 70
     0
  0
ENDTAB
  0
TABLE
  2
UCS
  5
7
330
0
100
AcDbSymbolTable
 70
     0
  0
ENDTAB
  0
TABLE
  2
APPID
  5
9
330
0
100
AcDbSymbolTable
 70
     1
  0
APPID
  5
12
330
9
100
AcDbSymbolTableRecord
100
AcDbRegAppTableRecord
  2
ACAD
 70
     0
  0
ENDTAB
  0
TABLE
  2
DIMSTYLE
  5
A
330
0
100
AcDbSymbolTable
 70
     1
100
AcDbDimStyleTable
  0
DIMSTYLE
105
27
330
A
100
AcDbSymbolTableRecord
100
AcDbDimStyleTableRecord
  2
ISO-25
 70
     0
 41
2.5
 42
0.625
 43
3.75
 44
1.25
 73
     0
 74
     0
 77
     1
 78
     8
140
2.5
141
2.5
143
0.0393700787
147
0.625
171
     3
172
     1
178
     0
271
     2
272
     2
274
     3
278
    44
283
     0
284
     8
340
11
  0
ENDTAB
  0
TABLE
  2
BLOCK_RECORD
  5
1
330
0
100
AcDbSymbolTable
 70
     1
  0
BLOCK_RECORD
  5
1F
330
1
100
AcDbSymbolTableRecord
100
AcDbBlockTableRecord
  2
*Model_Space
340
22
  0
BLOCK_RECORD
  5
1B
330
1
100
AcDbSymbolTableRecord
100
AcDbBlockTableRecord
  2
*Paper_Space
340
1E
  0
BLOCK_RECORD
  5
23
330
1
100
AcDbSymbolTableRecord
100
AcDbBlockTableRecord
  2
*Paper_Space0
340
26
  0
ENDTAB
  0
ENDSEC
  0
SECTION
  2
BLOCKS
  0
BLOCK
  5
20
330
1F
100
AcDbEntity
  8
0
100
AcDbBlockBegin
  2
*Model_Space
 70
     0
 10
0.0
 20
0.0
 30
0.0
  3
*Model_Space
  1

  0
ENDBLK
  5
21
330
1F
100
AcDbEntity
  8
0
100
AcDbBlockEnd
  0
BLOCK
  5
1C
330
1B
100
AcDbEntity
 67
     1
  8
0
100
AcDbBlockBegin
  2
*Paper_Space
 70
     0
 10
0.0
 20
0.0
 30
0.0
  3
*Paper_Space
  1

  0
ENDBLK
  5
1D
330
1B
100
AcDbEntity
 67
     1
  8
0
100
AcDbBlockEnd
  0
BLOCK
  5
24
330
23
100
AcDbEntity
  8
0
100
AcDbBlockBegin
  2
*Paper_Space0
 70
     0
 10
0.0
 20
0.0
 30
0.0
  3
*Paper_Space0
  1

  0
ENDBLK
  5
25
330
23
100
AcDbEntity
  8
0
100
AcDbBlockEnd
  0
ENDSEC
  0
SECTION
  2
ENTITIES
  0
LINE
  5
44
330
1F
100
AcDbEntity
  8
0
  6
Continuous
 62
     7
370
    15
100
AcDbLine
 10
1397.3834421872
 20
887.0251187816
 30
0.0
 11
1397.2883365355
 21
886.9942170821
 31
0.0
  0
LINE
  5
45
330
1F
100
AcDbEntity
  8
0
  6
Continuous
 62
     7
370
    15
100
AcDbLine
 10
1390.121272818
 20
926.4294368197
 30
0.0
 11
1390.1225273567
 21
926.4266190795
 31
0.0
  0
LINE
  5
46
330
1F
100
AcDbEntity
  8
0
  6
Continuous
 62
     7
370
    15
100
AcDbLine
 10
1405.6521141036
 20
801.0309123857
 30
0.0
 11
1405.6521141036
 21
800.5309123857
 31
0.0
  0
LINE
  5
47
330
1F
100
AcDbEntity
  8
0
  6
Continuous
 62
     7
370
    15
100
AcDbLine
 10
1413.6521141036
 20
800.5309123857
 30
0.0
 11
1413.6521141036
 21
801.0309123857
 31
0.0
  0
LINE
  5
48
330
1F
100
AcDbEntity
  8
0
  6
Continuous
 62
     7
370
    15
100
AcDbLine
 10
1386.6521141036
 20
801.0309123857
 30
0.0
 11
1386.6521141036
 21
800.5309123857
 31
0.0
  0
LINE
  5
49
330
1F
100
AcDbEntity
  8
0
  6
Continuous
 62
     7
370
    15
100
AcDbLine
 10
1394.6521141036
 20
800.5309123857
 30
0.0
 11
1394.6521141036
 21
801.0309123857
 31
0.0
  0
LINE
  5
4A
330
1F
100
AcDbEntity
  8
0
  6
Continuous
 62
     7
370
    15
100
AcDbLine
 10
1421.9545701658
 20
857.709253104
 30
0.0
 11
1424.0153910506
 21
859.4263502236
 31
0.0
  0
LINE
  5
4B
330
1F
100
AcDbEntity
  8
0
  6
Continuous
 62
     7
370
    15
100
AcDbLine
 10
1419.1205347066
 20
855.3479056625
 30
0.0
 11
1419.8684807071
 21
855.9711019492
 31
0.0
  0
LINE
  5
4C
330
1F
100
AcDbEntity
  8
0
  6
Continuous
 62
     7
370
    15
100
AcDbLine
 10
1415.7408938652
 20
852.5319542147
 30
0.0
 11
1416.9347494009
 21
853.5266869044
 31
0.0
  0
LINE
  5
4D
330
1F
100
AcDbEntity
  8
0
  6
Continuous
 62
     7
370
    15
100
AcDbLine
 10
1398.5337592259
 20
914.1593356621
 30
0.0
 11
1395.6547892308
 21
914.3506277739
 31
0.0
  0
LINE
  5
4E
330
1F
100
AcDbEntity
  8
0
  6
Continuous
 62
     7
370
    15
100
AcDbLine
 10
1406.4014223712
 20
913.6365716525
 30
0.0
 11
1403.5226053951
 21
913.827853597
 31
0.0
  0
LINE
  5
4F
330
1F
100
AcDbEntity
  8
0
  6
Continuous
 62
     7
370
    15
100
AcDbLine
 10
1424.0153910506
 20
859.4263502236
 30
0.0
 11
1439.7765852121
 21
873.7316419905
 31
0.0
  0
LINE
  5
50
330
1F
100
AcDbEntity
  8
0
  6
Continuous
 62
     7
370
    15
100
AcDbLine
 10
1406.8984716458
 20
913.5823312736
 30
0.0
 11
1406.4014223712
 21
913.6365716525
 31
0.0
  0
ARC
  5
51
330
1F
100
AcDbEntity
  8
0
  6
Continuous
 62
     7
370
    15
100
AcDbCircle
 10
1439.1045059691
 20
874.4721212211
 30
0.0
 40
1.000000000000163
100
AcDbArc
 50
312.2277453179
 51
18.0
  0
LINE
  5
52
330
1F
100
AcDbEntity
  8
0
  6
Continuous
 62
     7
370
    15
100
AcDbLine
 10
1405.9933985972
 20
876.0595239745
 30
0.0
 11
1407.9062994532
 21
876.6443564568
 31
0.0
  0
LINE
  5
53
330
1F
100
AcDbEntity
  8
0
  6
Continuous
 62
     7
370
    15
100
AcDbLine
 10
1403.5260965962
 20
913.8376436756
 30
0.0
 11
1398.5316490145
 21
914.1694979244
 31
0.0
  0
LINE
  5
54
330
1F
100
AcDbEntity
  8
0
  6
Continuous
 62
     7
370
    15
100
AcDbLine
 10
1416.8964643657
 20
853.481771125
 30
0.0
 11
1419.2066117511
 21
855.4066096447
 31
0.0
  0
LINE
  5
55
330
1F
100
AcDbEntity
  8
0
  6
Continuous
 62
     7
370
    15
100
AcDbLine
 10
1419.8698186857
 20
855.9592004717
 30
0.0
 11
1420.7670835118
 21
856.706810737
 31
0.0
  0
LINE
  5
56
330
1F
100
AcDbEntity
  8
0
  6
Continuous
 62
     7
370
    15
100
AcDbLine
 10
1401.6206829622
 20
873.9842326051
 30
0.0
 11
1404.4241067535
 21
876.0352056806
 31
0.0
  0
LINE
  5
57
330
1F
100
AcDbEntity
  8
0
  6
Continuous
 62
     7
370
    15
100
AcDbLine
 10
1400.3141807284
 20
888.6842573474
 30
0.0
 11
1396.6301133778
 21
888.6964128608
 31
0.0
  0
SPLINE
  5
58
330
1F
100
AcDbEntity
  8
0
  6
Continuous
 62
     7
370
    15
100
AcDbSpline
210
0.0
220
0.0
230
1.0
 70
     8
 71
     3
 72
     9
 73
     5
 74
     0
 42
0.00000001
 43
0.00000001
 12
1.0
 22
0.0
 32
0.0
 13
1.0
 23
0.0
 33
0.0
 40
0.0
 40
0.0
 40
0.0
 40
0.0
 40
0.986488718166751
 40
1.0
 40
1.0
 40
1.0
 40
1.0
 10
648.2440310790771
 20
782.9480770149582
 30
0.0
 10
647.9519732148644
 20
782.7728038346171
 30
0.0
 10
647.6559152277489
 20
782.5951300537483
 30
0.0
 10
647.4414842182691
 20
782.3329117015151
 30
0.0
 10
647.4385869804662
 20
782.329368795456
 30
0.0
  0
SPLINE
  5
59
330
1F
100
AcDbEntity
  8
0
  6
Continuous
 62
     7
370
    15
100
AcDbSpline
210
0.0
220
0.0
230
1.0
 70
     8
 71
     3
 72
     9
 73
     5
 74
     0
 42
0.00000001
 43
0.00000001
 12
1.0
 22
0.0
 32
0.0
 13
1.0
 23
0.0
 33
0.0
 40
0.0
 40
0.0
 40
0.0
 40
0.0
 40
0.1792503286595417
 40
1.0
 40
1.0
 40
1.0
 40
1.0
 10
651.9975120609023
 20
782.3046409442279
 30
0.0
 10
651.9623983040776
 20
782.353915471816
 30
0.0
 10
651.7665060170881
 20
782.6288077297909
 30
0.0
 10
651.457833148258
 20
782.7849924539504
 30
0.0
 10
651.2044899926141
 20
782.9131810149726
 30
0.0
  0
LINE
  5
5A
330
1F
100
AcDbEntity
  8
0
  6
Continuous
 62
     7
370
    15
100
AcDbLine
 10
652.2219614159
 20
781.3185869128
 30
0.0
 11
652.0167031882
 21
782.3185869128
 31
0.0
  0
LINE
  5
5B
330
1F
100
AcDbEntity
  8
0
  6
Continuous
 62
     7
370
    15
100
AcDbLine
 10
647.4272196436
 20
782.3185869128
 30
0.0
 11
647.2219614159
 21
781.3185869128
 31
0.0
  0
LINE
  5
5C
330
1F
100
AcDbEntity
  8
0
  6
Continuous
 62
     7
370
    15
100
AcDbLine
 10
652.3219614159
 20
784.9185869128
 30
0.0
 11
647.1219614159
 21
784.9185869128
 31
0.0
  0
LINE
  5
5D
330
1F
100
AcDbEntity
  8
0
  6
Continuous
 62
     7
370
    15
100
AcDbLine
 10
1365.6521141036
 20
745.0141915752
 30
0.0
 11
1365.3369931236
 21
744.0986308882
 31
0.0
  0
SPLINE
  5
5E
330
1F
100
AcDbEntity
  8
0
  6
Continuous
 62
     7
370
    15
100
AcDbSpline
210
0.0
220
0.0
230
1.0
 70
     8
 71
     3
 72
     9
 73
     5
 74
     0
 42
0.00000001
 43
0.00000001
 12
1.0
 22
0.0
 32
0.0
 13
1.0
 23
0.0
 33
0.0
 40
0.0
 40
0.0
 40
0.0
 40
0.0
 40
0.623366344135745
 40
1.0
 40
1.0
 40
1.0
 40
1.0
 10
1365.652114103601
 20
729.391818347858
 30
0.0
 10
1365.579231375488
 20
729.0841589611385
 30
0.0
 10
1365.462313404543
 20
728.5906138899077
 30
0.0
 10
1365.371279540587
 20
728.2211389842224
 30
0.0
 10
1365.336993123598
 20
728.081982299744
 30
0.0
  0
SPLINE
  5
5F
330
1F
100
AcDbEntity
  8
0
  6
Continuous
 62
     7
370
    15
100
AcDbSpline
210
0.0
220
0.0
230
1.0
 70
     8
 71
     3
 72
     9
 73
     5
 74
     0
 42
0.00000001
 43
0.00000001
 12
1.0
 22
0.0
 32
0.0
 13
1.0
 23
0.0
 33
0.0
 40
0.0
 40
0.0
 40
0.0
 40
0.0
 40
0.599727175825513
 40
1.0
 40
1.0
 40
1.0
 40
1.0
 10
1365.336993123602
 20
747.3954443251881
 30
0.0
 10
1365.414662723311
 20
747.8600507967556
 30
0.0
 10
1365.54417094445
 20
748.6347471758681
 30
0.0
 10
1365.621258178659
 20
749.2676451490673
 30
0.0
 10
1365.652114103604
 20
749.5209770082142
 30
0.0
  0
SPLINE
  5
60
330
1F
100
AcDbEntity
  8
0
  6
Continuous
 62
     7
370
    15
100
AcDbSpline
210
0.0
220
0.0
230
1.0
 70
     8
 71
     3
 72
    10
 73
     6
 74
     0
 42
0.00000001
 43
0.00000001
 12
1.0
 22
0.0
 32
0.0
 13
1.0
 23
0.0
 33
0.0
 40
0.0
 40
0.0
 40
0.0
 40
0.0
 40
0.3606004847036378
 40
0.9764847219254833
 40
1.0
 40
1.0
 40
1.0
 40
1.0
 10
1365.652114103604
 20
754.7212588736295
 30
0.0
 10
1365.62648077046
 20
754.765752139146
 30
0.0
 10
1365.557067224863
 20
754.8862372628447
 30
0.0
 10
1365.428244760572
 20
754.9640570699245
 30
0.0
 10
1365.340230051846
 20
754.9678310700074
 30
0.0
 10
1365.336993123602
 20
754.9679698668931
 30
0.0
  0
LINE
  5
61
330
1F
100
AcDbEntity
  8
0
  6
Continuous
 62
     7
370
    15
100
AcDbLine
 10
1365.3369931236
 20
741.1557653781
 30
0.0
 11
1365.6521141036
 21
742.0780852677
 31
0.0
  0
LINE
  5
62
330
1F
100
AcDbEntity
  8
0
  6
Continuous
 62
     7
370
    15
100
AcDbLine
 10
1402.1663186837
 20
872.3049385278
 30
0.0
 11
1406.731389962
 21
873.7882201008
 31
0.0
  0
LINE
  5
63
330
1F
100
AcDbEntity
  8
0
  6
Continuous
 62
     7
370
    15
100
AcDbLine
 10
1400.8600670688
 20
891.8582939104
 30
0.0
 11
1396.1047844874
 21
890.3132089385
 31
0.0
  0
LINE
  5
64
330
1F
100
AcDbEntity
  8
0
  6
Continuous
 62
     7
370
    15
100
AcDbLine
 10
1436.8496325647
 20
767.2035086352
 30
0.0
 11
1436.5457694032
 21
751.7064873996
 31
0.0
  0
ARC
  5
65
330
1F
100
AcDbEntity
  8
0
  6
Continuous
 62
     7
370
    15
100
AcDbCircle
 10
1439.3491521188
 20
767.1544984479
 30
0.0
 40
2.500000000003986
100
AcDbArc
 50
96.4489391781
 51
178.8766972859
  0
LINE
  5
66
330
1F
100
AcDbEntity
  8
0
  6
Continuous
 62
     7
370
    15
100
AcDbLine
 10
1454.3163998252
 20
749.9077649536
 30
0.0
 11
1454.3448257339
 21
751.357486295
 31
0.0
  0
LINE
  5
67
330
1F
100
AcDbEntity
  8
0
  6
Continuous
 62
     7
370
    15
100
AcDbLine
 10
1438.1079467102
 20
751.675856472
 30
0.0
 11
1438.0795208015
 21
750.2261351306
 31
0.0
  0
LINE
  5
68
330
1F
100
AcDbEntity
  8
0
  6
Continuous
 62
     7
370
    15
100
AcDbLine
 10
1365.3369931236
 20
733.1489032199
 30
0.0
 11
1365.6521141036
 21
733.1427243772
 31
0.0
  0
LINE
  5
69
330
1F
100
AcDbEntity
  8
0
  6
Continuous
 62
     7
370
    15
100
AcDbLine
 10
1365.6521141036
 20
748.1456076064
 30
0.0
 11
1365.4572395156
 21
748.1494286768
 31
0.0
  0
ARC
  5
6A
330
1F
100
AcDbEntity
  8
0
  6
Continuous
 62
     7
370
    15
100
AcDbCircle
 10
1332.3369931236
 20
530.3185869128
 30
0.0
 40
2.000000000000114
100
AcDbArc
 50
270.0
 51
0.0
  0
ARC
  5
6B
330
1F
100
AcDbEntity
  8
0
  6
Continuous
 62
     7
370
    15
100
AcDbCircle
 10
1279.3369931236
 20
530.3185869128
 30
0.0
 40
2.000000000000227
100
AcDbArc
 50
180.0
 51
270.0
  0
LINE
  5
6C
330
1F
100
AcDbEntity
  8
0
  6
Continuous
 62
     7
370
    15
100
AcDbLine
 10
1334.3369931236
 20
530.3185869128
 30
0.0
 11
1334.3369931236
 21
534.3185869128
 31
0.0
  0
LINE
  5
6D
330
1F
100
AcDbEntity
  8
0
  6
Continuous
 62
     7
370
    15
100
AcDbLine
 10
1277.3369931236
 20
534.3185869128
 30
0.0
 11
1277.3369931236
 21
530.3185869128
 31
0.0
  0
LINE
  5
6E
330
1F
100
AcDbEntity
  8
0
  6
Continuous
 62
     7
370
    15
100
AcDbLine
 10
741.0369931236
 20
530.3185869128
 30
0.0
 11
741.0369931236
 21
534.3185869128
 31
0.0
  0
LINE
  5
6F
330
1F
100
AcDbEntity
  8
0
  6
Continuous
 62
     7
370
    15
100
AcDbLine
 10
684.0369931236
 20
534.3185869128
 30
0.0
 11
684.0369931236
 21
530.3185869128
 31
0.0
  0
ARC
  5
70
330
1F
100
AcDbEntity
  8
0
  6
Continuous
 62
     7
370
    15
100
AcDbCircle
 10
739.0369931236
 20
530.3185869128
 30
0.0
 40
2.000000000000114
100
AcDbArc
 50
270.0
 51
0.0
  0
ARC
  5
71
330
1F
100
AcDbEntity
  8
0
  6
Continuous
 62
     7
370
    15
100
AcDbCircle
 10
686.0369931236
 20
530.3185869128
 30
0.0
 40
2.000000000000114
100
AcDbArc
 50
180.0
 51
270.0
  0
LINE
  5
72
330
1F
100
AcDbEntity
  8
0
  6
Continuous
 62
     7
370
    15
100
AcDbLine
 10
1334.1369931236
 20
534.3185869128
 30
0.0
 11
1334.1369931236
 21
582.3185869128
 31
0.0
  0
LINE
  5
73
330
1F
100
AcDbEntity
  8
0
  6
Continuous
 62
     7
370
    15
100
AcDbLine
 10
1277.5369931236
 20
582.3185869128
 30
0.0
 11
1277.5369931236
 21
534.3185869128
 31
0.0
  0
LINE
  5
74
330
1F
100
AcDbEntity
  8
0
  6
Continuous
 62
     7
370
    15
100
AcDbLine
 10
740.8369931236
 20
534.3185869128
 30
0.0
 11
740.8369931236
 21
582.3185869128
 31
0.0
  0
LINE
  5
75
330
1F
100
AcDbEntity
  8
0
  6
Continuous
 62
     7
370
    15
100
AcDbLine
 10
684.2369931236
 20
582.3185869128
 30
0.0
 11
684.2369931236
 21
534.3185869128
 31
0.0
  0
LWPOLYLINE
  5
76
330
1F
100
AcDbEntity
  8
0
  6
Continuous
 62
     7
370
    15
100
AcDbPolyline
 90
        3
 70
   128
 43
0.0
 10
744.4369931236
 20
674.8185869128
 10
744.465815203
 20
675.1112223959
 10
744.5369931236
 20
675.3571033936
  0
LWPOLYLINE
  5
77
330
1F
100
AcDbEntity
  8
0
  6
Continuous
 62
     7
370
    15
100
AcDbPolyline
 90
        3
 70
   128
 43
0.0
 10
680.5369931236
 20
675.3571033935
 10
680.6081710442
 20
675.1112223959
 10
680.6369931236
 20
674.8185869128
  0
LINE
  5
78
330
1F
100
AcDbEntity
  8
0
  6
Continuous
 62
     7
370
    15
100
AcDbLine
 10
744.4369931236
 20
588.3511528585
 30
0.0
 11
744.4369931236
 21
674.8185869128
 31
0.0
  0
LINE
  5
79
330
1F
100
AcDbEntity
  8
0
  6
Continuous
 62
     7
370
    15
100
AcDbLine
 10
680.6369931236
 20
674.8185869128
 30
0.0
 11
680.6369931236
 21
588.3511528585
 31
0.0
  0
ARC
  5
7A
330
1F
100
AcDbEntity
  8
0
  6
Continuous
 62
     7
370
    15
100
AcDbCircle
 10
739.7369931236
 20
588.3511528585
 30
0.0
 40
4.700000000000045
100
AcDbArc
 50
350.5402980318
 51
0.0
  0
ARC
  5
7B
330
1F
100
AcDbEntity
  8
0
  6
Continuous
 62
     7
370
    15
100
AcDbCircle
 10
685.3369931236
 20
588.3511528585
 30
0.0
 40
4.700000000000045
100
AcDbArc
 50
180.0
 51
189.4597019682
  0
LINE
  5
7C
330
1F
100
AcDbEntity
  8
0
  6
Continuous
 62
     7
370
    15
100
AcDbLine
 10
680.7009063506
 20
587.578689634
 30
0.0
 11
681.5773429033
 21
582.3185869128
 31
0.0
  0
LINE
  5
7D
330
1F
100
AcDbEntity
  8
0
  6
Continuous
 62
     7
370
    15
100
AcDbLine
 10
743.496643344
 20
582.3185869128
 30
0.0
 11
744.3730798966
 21
587.578689634
 31
0.0
  0
LWPOLYLINE
  5
7E
330
1F
100
AcDbEntity
  8
0
  6
Continuous
 62
     7
370
    15
100
AcDbPolyline
 90
        3
 70
   128
 43
0.0
 10
1337.7369931236
 20
674.8185869128
 10
1337.765815203
 20
675.1112223959
 10
1337.8369931236
 20
675.3571033936
  0
LWPOLYLINE
  5
7F
330
1F
100
AcDbEntity
  8
0
  6
Continuous
 62
     7
370
    15
100
AcDbPolyline
 90
        3
 70
   128
 43
0.0
 10
1273.8369931236
 20
675.3571033935
 10
1273.9081710442
 20
675.1112223959
 10
1273.9369931236
 20
674.8185869128
  0
ARC
  5
80
330
1F
100
AcDbEntity
  8
0
  6
Continuous
 62
     7
370
    15
100
AcDbCircle
 10
1333.0369931236
 20
588.3511528585
 30
0.0
 40
4.70000000000001
100
AcDbArc
 50
350.5402980318
 51
0.0
  0
ARC
  5
81
330
1F
100
AcDbEntity
  8
0
  6
Continuous
 62
     7
370
    15
100
AcDbCircle
 10
1278.6369931236
 20
588.3511528585
 30
0.0
 40
4.700000000000045
100
AcDbArc
 50
180.0
 51
189.4597019682
  0
LINE
  5
82
330
1F
100
AcDbEntity
  8
0
  6
Continuous
 62
     7
370
    15
100
AcDbLine
 10
1337.7369931236
 20
588.3511528585
 30
0.0
 11
1337.7369931236
 21
674.8185869128
 31
0.0
  0
LINE
  5
83
330
1F
100
AcDbEntity
  8
0
  6
Continuous
 62
     7
370
    15
100
AcDbLine
 10
1273.9369931236
 20
674.8185869128
 30
0.0
 11
1273.9369931236
 21
588.3511528585
 31
0.0
  0
LINE
  5
84
330
1F
100
AcDbEntity
  8
0
  6
Continuous
 62
     7
370
    15
100
AcDbLine
 10
1274.0009063506
 20
587.578689634
 30
0.0
 11
1274.8773429033
 21
582.3185869128
 31
0.0
  0
LINE
  5
85
330
1F
100
AcDbEntity
  8
0
  6
Continuous
 62
     7
370
    15
100
AcDbLine
 10
1336.796643344
 20
582.3185869128
 30
0.0
 11
1337.6730798966
 21
587.578689634
 31
0.0
  0
ARC
  5
86
330
1F
100
AcDbEntity
  8
0
  6
Continuous
 62
     7
370
    15
100
AcDbCircle
 10
1264.3040932859
 20
675.7514867506
 30
0.0
 40
0.5671001622693461
100
AcDbArc
 50
90.0
 51
250.0
  0
LINE
  5
87
330
1F
100
AcDbEntity
  8
0
  6
Continuous
 62
     7
370
    15
100
AcDbLine
 10
1264.1101336071
 20
675.2185869128
 30
0.0
 11
1264.7709254895
 21
674.9780783366
 31
0.0
  0
LINE
  5
88
330
1F
100
AcDbEntity
  8
0
  6
Continuous
 62
     7
370
    15
100
AcDbLine
 10
1265.0634904317
 20
670.9185869128
 30
0.0
 11
1265.8369931236
 21
670.3185869128
 31
0.0
  0
LINE
  5
89
330
1F
100
AcDbEntity
  8
0
  6
Continuous
 62
     7
370
    15
100
AcDbLine
 10
1337.8369931236
 20
676.3185869128
 30
0.0
 11
1337.8369931236
 21
662.2185869128
 31
0.0
  0
LINE
  5
8A
330
1F
100
AcDbEntity
  8
0
  6
Continuous
 62
     7
370
    15
100
AcDbLine
 10
1343.8369931236
 20
662.2185869128
 30
0.0
 11
1343.8369931236
 21
676.3185869128
 31
0.0
  0
LINE
  5
8B
330
1F
100
AcDbEntity
  8
0
  6
Continuous
 62
     7
370
    15
100
AcDbLine
 10
1267.8369931236
 20
676.3185869128
 30
0.0
 11
1267.8369931236
 21
662.2185869128
 31
0.0
  0
LINE
  5
8C
330
1F
100
AcDbEntity
  8
0
  6
Continuous
 62
     7
370
    15
100
AcDbLine
 10
1273.8369931236
 20
662.2185869128
 30
0.0
 11
1273.8369931236
 21
676.3185869128
 31
0.0
  0
LINE
  5
8D
330
1F
100
AcDbEntity
  8
0
  6
Continuous
 62
     7
370
    15
100
AcDbLine
 10
744.5369931236
 20
676.3185869128
 30
0.0
 11
744.5369931236
 21
662.2185869128
 31
0.0
  0
LINE
  5
8E
330
1F
100
AcDbEntity
  8
0
  6
Continuous
 62
     7
370
    15
100
AcDbLine
 10
750.5369931236
 20
662.2185869128
 30
0.0
 11
750.5369931236
 21
676.3185869128
 31
0.0
  0
LINE
  5
8F
330
1F
100
AcDbEntity
  8
0
  6
Continuous
 62
     7
370
    15
100
AcDbLine
 10
674.5369931236
 20
676.3185869128
 30
0.0
 11
674.5369931236
 21
662.2185869128
 31
0.0
  0
LINE
  5
90
330
1F
100
AcDbEntity
  8
0
  6
Continuous
 62
     7
370
    15
100
AcDbLine
 10
680.5369931236
 20
662.2185869128
 30
0.0
 11
680.5369931236
 21
676.3185869128
 31
0.0
  0
SPLINE
  5
91
330
1F
100
AcDbEntity
  8
0
  6
Continuous
 62
     7
370
    15
100
AcDbSpline
210
0.0
220
0.0
230
1.0
 70
     8
 71
     3
 72
    13
 73
     9
 74
     0
 42
0.00000001
 43
0.00000001
 12
1.0
 22
0.0
 32
0.0
 13
1.0
 23
0.0
 33
0.0
 40
0.0
 40
0.0
 40
0.0
 40
0.0
 40
0.1537005146053783
 40
0.4677837651261921
 40
0.6522647620222547
 40
0.8142558356547451
 40
0.9817880838849721
 40
1.0
 40
1.0
 40
1.0
 40
1.0
 10
646.2346071863176
 20
708.9806401711553
 30
0.0
 10
646.2349711264526
 20
708.9735614535289
 30
0.0
 10
646.2360787693716
 20
708.9520175491897
 30
0.0
 10
646.2138116406849
 20
708.9114299209995
 30
0.0
 10
646.1516741970482
 20
708.8633265017066
 30
0.0
 10
646.0802040635992
 20
708.8357149701667
 30
0.0
 10
646.0214927508135
 20
708.8245444096109
 30
0.0
 10
645.9903483019087
 20
708.8264232588398
 30
0.0
 10
645.9872946388615
 20
708.8266074769803
 30
0.0
  0
LINE
  5
92
330
1F
100
AcDbEntity
  8
0
  6
Continuous
 62
     7
370
    15
100
AcDbLine
 10
645.9869931236
 20
708.8259690174
 30
0.0
 11
640.8869931236
 21
708.8259690174
 31
0.0
  0
ARC
  5
93
330
1F
100
AcDbEntity
  8
0
  6
Continuous
 62
     7
370
    15
100
AcDbCircle
 10
640.8869931236
 20
708.5759690174
 30
0.0
 40
0.25
100
AcDbArc
 50
90.0
 51
180.0
  0
ARC
  5
94
330
1F
100
AcDbEntity
  8
0
  6
Continuous
 62
     7
370
    15
100
AcDbCircle
 10
640.8869931236
 20
704.1381478028
 30
0.0
 40
0.2500000000001137
100
AcDbArc
 50
180.0
 51
270.0
  0
LINE
  5
95
330
1F
100
AcDbEntity
  8
0
  6
Continuous
 62
     7
370
    15
100
AcDbLine
 10
640.8869931236
 20
703.8881478028
 30
0.0
 11
645.9869931236
 21
703.8881478028
 31
0.0
  0
ARC
  5
96
330
1F
100
AcDbEntity
  8
0
  6
Continuous
 62
     7
370
    15
100
AcDbCircle
 10
647.1869931236
 20
704.8685869128
 30
0.0
 40
0.25
100
AcDbArc
 50
301.0756875734
 51
0.0
  0
LINE
  5
97
330
1F
100
AcDbEntity
  8
0
  6
Continuous
 62
     7
370
    15
100
AcDbLine
 10
645.9869931236
 20
722.7490260229
 30
0.0
 11
640.8869931236
 21
722.7490260229
 31
0.0
  0
ARC
  5
98
330
1F
100
AcDbEntity
  8
0
  6
Continuous
 62
     7
370
    15
100
AcDbCircle
 10
640.8869931236
 20
722.4990260229
 30
0.0
 40
0.25
100
AcDbArc
 50
90.0
 51
180.0
  0
SPLINE
  5
99
330
1F
100
AcDbEntity
  8
0
  6
Continuous
 62
     7
370
    15
100
AcDbSpline
210
0.0
220
0.0
230
1.0
 70
     8
 71
     3
 72
    13
 73
     9
 74
     0
 42
0.00000001
 43
0.00000001
 12
1.0
 22
0.0
 32
0.0
 13
1.0
 23
0.0
 33
0.0
 40
0.0
 40
0.0
 40
0.0
 40
0.0
 40
0.1560186113409839
 40
0.4086735129019723
 40
0.5953335874225814
 40
0.7561090603054667
 40
0.9249103809612351
 40
1.0
 40
1.0
 40
1.0
 40
1.0
 10
646.2380391777056
 20
716.8746335693522
 30
0.0
 10
646.2377827368869
 20
716.8768518383528
 30
0.0
 10
646.2371110184984
 20
716.8826623488889
 30
0.0
 10
646.247469861105
 20
716.9057128605459
 30
0.0
 10
646.2931903382257
 20
716.9454693641105
 30
0.0
 10
646.3609648165927
 20
716.9760069645953
 30
0.0
 10
646.4298201772434
 20
716.9926041135878
 30
0.0
 10
646.4735340988692
 20
716.9914578079859
 30
0.0
 10
646.4869928264696
 20
716.9911048811775
 30
0.0
  0
LINE
  5
9A
330
1F
100
AcDbEntity
  8
0
  6
Continuous
 62
     7
370
    15
100
AcDbLine
 10
646.4869931236
 20
716.9929962488
 30
0.0
 11
651.5869931236
 21
716.9929962488
 31
0.0
  0
ARC
  5
9B
330
1F
100
AcDbEntity
  8
0
  6
Continuous
 62
     7
370
    15
100
AcDbCircle
 10
651.5869931236
 20
717.2429962488
 30
0.0
 40
0.25
100
AcDbArc
 50
270.0
 51
0.0
  0
ARC
  5
9C
330
1F
100
AcDbEntity
  8
0
  6
Continuous
 62
     7
370
    15
100
AcDbCircle
 10
651.5869931236
 20
722.0691632209
 30
0.0
 40
0.2500000000001137
100
AcDbArc
 50
0.0
 51
90.0
  0
LINE
  5
9D
330
1F
100
AcDbEntity
  8
0
  6
Continuous
 62
     7
370
    15
100
AcDbLine
 10
651.5869931236
 20
722.3191632209
 30
0.0
 11
646.4869931236
 21
722.3191632209
 31
0.0
  0
ARC
  5
9E
330
1F
100
AcDbEntity
  8
0
  6
Continuous
 62
     7
370
    15
100
AcDbCircle
 10
645.2869931236
 20
721.7685869128
 30
0.0
 40
0.2500000000001137
100
AcDbArc
 50
90.0
 51
180.0
  0
LINE
  5
9F
330
1F
100
AcDbEntity
  8
0
  6
Continuous
 62
     7
370
    15
100
AcDbLine
 10
645.5502135363
 20
722.0185869128
 30
0.0
 11
645.2869931236
 21
722.0185869128
 31
0.0
  0
LINE
  5
A0
330
1F
100
AcDbEntity
  8
0
  6
Continuous
 62
     7
370
    15
100
AcDbLine
 10
647.0585141405
 20
704.3180106047
 30
0.0
 11
651.5869931236
 21
704.3180106047
 31
0.0
  0
ARC
  5
A1
330
1F
100
AcDbEntity
  8
0
  6
Continuous
 62
     7
370
    15
100
AcDbCircle
 10
651.5869931236
 20
704.5680106047
 30
0.0
 40
0.25
100
AcDbArc
 50
270.0
 51
0.0
  0
LINE
  5
A2
330
1F
100
AcDbEntity
  8
0
  6
Continuous
 62
     7
370
    15
100
AcDbLine
 10
652.8869931236
 20
708.3185869128
 30
0.0
 11
653.0833500575
 21
707.9784867269
 31
0.0
  0
LINE
  5
A3
330
1F
100
AcDbEntity
  8
0
  6
Continuous
 62
     7
370
    15
100
AcDbLine
 10
653.0833500575
 20
718.6586870988
 30
0.0
 11
652.8869931236
 21
718.3185869128
 31
0.0
  0
LINE
  5
A4
330
1F
100
AcDbEntity
  8
0
  6
Continuous
 62
     7
370
    15
100
AcDbLine
 10
652.6369931236
 20
718.3185869128
 30
0.0
 11
652.5487870066
 21
718.471364389
 31
0.0
  0
LINE
  5
A5
330
1F
100
AcDbEntity
  8
0
  6
Continuous
 62
     7
370
    15
100
AcDbLine
 10
652.5487870066
 20
708.1658094367
 30
0.0
 11
652.6369931236
 21
708.3185869128
 31
0.0
  0
LINE
  5
A6
330
1F
100
AcDbEntity
  8
0
  6
Continuous
 62
     7
370
    15
100
AcDbLine
 10
647.4369931236
 20
708.3185869128
 30
0.0
 11
647.5251992406
 21
708.1658094367
 31
0.0
  0
LINE
  5
A7
330
1F
100
AcDbEntity
  8
0
  6
Continuous
 62
     7
370
    15
100
AcDbLine
 10
652.8869931236
 20
716.3185869128
 30
0.0
 11
652.6369931236
 21
716.3185869128
 31
0.0
  0
LINE
  5
A8
330
1F
100
AcDbEntity
  8
0
  6
Continuous
 62
     7
370
    15
100
AcDbLine
 10
652.6369931236
 20
710.3185869128
 30
0.0
 11
652.8869931236
 21
710.3185869128
 31
0.0
  0
ARC
  5
A9
330
1F
100
AcDbEntity
  8
0
  6
Continuous
 62
     7
370
    15
100
AcDbCircle
 10
661.0869931236
 20
680.7685869128
 30
0.0
 40
2.450000000000014
100
AcDbArc
 50
200.1573985153
 51
224.2900095808
  0
LINE
  5
AA
330
1F
100
AcDbEntity
  8
0
  6
Continuous
 62
     7
370
    15
100
AcDbLine
 10
1365.3369931236
 20
678.3185869128
 30
0.0
 11
1365.4967706697
 21
678.3185869128
 31
0.0
  0
LINE
  5
AB
330
1F
100
AcDbEntity
  8
0
  6
Continuous
 62
     7
370
    15
100
AcDbLine
 10
1366.6074575375
 20
678.3185869128
 30
0.0
 11
1366.7455029253
 21
678.3185869128
 31
0.0
  0
LINE
  5
AC
330
1F
100
AcDbEntity
  8
0
  6
Continuous
 62
     7
370
    15
100
AcDbLine
 10
1363.4216955524
 20
679.5185869128
 30
0.0
 11
1365.6521141036
 21
679.5185869128
 31
0.0
  0
ARC
  5
AD
330
1F
100
AcDbEntity
  8
0
  6
Continuous
 62
     7
370
    15
100
AcDbCircle
 10
1421.0869931236
 20
680.7685869128
 30
0.0
 40
2.450000000000107
100
AcDbArc
 50
302.2615457102
 51
328.2926062641
  0
LINE
  5
AE
330
1F
100
AcDbEntity
  8
0
  6
Continuous
 62
     7
370
    15
100
AcDbLine
 10
659.8369931236
 20
940.5185869128
 30
0.0
 11
659.8369931236
 21
940.7185869128
 31
0.0
  0
LINE
  5
AF
330
1F
100
AcDbEntity
  8
0
  6
Continuous
 62
     7
370
    15
100
AcDbLine
 10
658.6369931236
 20
940.6786759509
 30
0.0
 11
658.6369931236
 21
940.7185869128
 31
0.0
  0
LINE
  5
B0
330
1F
100
AcDbEntity
  8
0
  6
Continuous
 62
     7
370
    15
100
AcDbLine
 10
1386.1262577328
 20
921.9947768496
 30
0.0
 11
1385.8409407779
 21
921.9020717513
 31
0.0
  0
LINE
  5
B1
330
1F
100
AcDbEntity
  8
0
  6
Continuous
 62
     7
370
    15
100
AcDbLine
 10
1386.1262577328
 20
921.9947768496
 30
0.0
 11
1386.7442917215
 21
920.092663817
 31
0.0
  0
LINE
  5
B2
330
1F
100
AcDbEntity
  8
0
  6
Continuous
 62
     7
370
    15
100
AcDbLine
 10
1386.7442917215
 20
920.092663817
 30
0.0
 11
1386.4589747666
 21
919.9999587187
 31
0.0
  0
LINE
  5
B3
330
1F
100
AcDbEntity
  8
0
  6
Continuous
 62
     7
370
    15
100
AcDbLine
 10
1386.1357682979
 20
921.9978670196
 30
0.0
 11
1386.1262577328
 21
921.9947768496
 31
0.0
  0
LINE
  5
B4
330
1F
100
AcDbEntity
  8
0
  6
Continuous
 62
     7
370
    15
100
AcDbLine
 10
1386.1357682979
 20
921.9978670196
 30
0.0
 11
1387.3812639676
 21
918.1646255014
 31
0.0
  0
LINE
  5
B5
330
1F
100
AcDbEntity
  8
0
  6
Continuous
 62
     7
370
    15
100
AcDbLine
 10
1387.3812639676
 20
918.1646255014
 30
0.0
 11
1387.3717534024
 21
918.1615353314
 31
0.0
  0
LINE
  5
B6
330
1F
100
AcDbEntity
  8
0
  6
Continuous
 62
     7
370
    15
100
AcDbLine
 10
1390.2835934888
 20
909.2321737145
 30
0.0
 11
1390.2740829236
 21
909.2290835446
 31
0.0
  0
LINE
  5
B7
330
1F
100
AcDbEntity
  8
0
  6
Continuous
 62
     7
370
    15
100
AcDbLine
 10
1391.7514242121
 20
904.7146552621
 30
0.0
 11
1391.7419136469
 21
904.7115650922
 31
0.0
  0
LINE
  5
B8
330
1F
100
AcDbEntity
  8
0
  6
Continuous
 62
     7
370
    15
100
AcDbLine
 10
1390.2835934888
 20
909.2321737145
 30
0.0
 11
1391.7514242121
 21
904.7146552621
 31
0.0
  0
LINE
  5
B9
330
1F
100
AcDbEntity
  8
0
  6
Continuous
 62
     7
370
    15
100
AcDbLine
 10
1389.5663440898
 20
911.4396403817
 30
0.0
 11
1389.5568335247
 21
911.4365502118
 31
0.0
  0
LINE
  5
BA
330
1F
100
AcDbEntity
  8
0
  6
Continuous
 62
     7
370
    15
100
AcDbLine
 10
1393.9365043343
 20
897.9896701425
 30
0.0
 11
1393.9269937692
 21
897.9865799725
 31
0.0
  0
LINE
  5
BB
330
1F
100
AcDbEntity
  8
0
  6
Continuous
 62
     7
370
    15
100
AcDbLine
 10
1394.7787335753
 20
895.3651943934
 30
0.0
 11
1394.4934166204
 21
895.272489295
 31
0.0
  0
LINE
  5
BC
330
1F
100
AcDbEntity
  8
0
  6
Continuous
 62
     7
370
    15
100
AcDbLine
 10
1393.9269937692
 20
897.9865799725
 30
0.0
 11
1394.7787335753
 21
895.3651943934
 31
0.0
  0
LINE
  5
BD
330
1F
100
AcDbEntity
  8
0
  6
Continuous
 62
     7
370
    15
100
AcDbLine
 10
1386.4589747666
 20
919.9999587187
 30
0.0
 11
1394.4934166204
 21
895.272489295
 31
0.0
  0
LINE
  5
BE
330
1F
100
AcDbEntity
  8
0
  6
Continuous
 62
     7
370
    15
100
AcDbLine
 10
1386.7442917215
 20
920.092663817
 30
0.0
 11
1387.3717534024
 21
918.1615353314
 31
0.0
  0
LINE
  5
BF
330
1F
100
AcDbEntity
  8
0
  6
Continuous
 62
     7
370
    15
100
AcDbLine
 10
1389.5568335247
 20
911.4365502118
 30
0.0
 11
1391.7419136469
 21
904.7115650922
 31
0.0
  0
LINE
  5
C0
330
1F
100
AcDbEntity
  8
0
  6
Continuous
 62
     7
370
    15
100
AcDbLine
 10
1391.7514242121
 20
904.7146552621
 30
0.0
 11
1393.9365043343
 21
897.9896701425
 31
0.0
  0
LINE
  5
C1
330
1F
100
AcDbEntity
  8
0
  6
Continuous
 62
     7
370
    15
100
AcDbLine
 10
1387.3812639676
 20
918.1646255014
 30
0.0
 11
1389.5663440898
 21
911.4396403817
 31
0.0
  0
LINE
  5
C2
330
1F
100
AcDbEntity
  8
0
  6
Continuous
 62
     7
370
    15
100
AcDbLine
 10
1395.396767564
 20
893.4630813608
 30
0.0
 11
1395.1114506091
 21
893.3703762625
 31
0.0
  0
LINE
  5
C3
330
1F
100
AcDbEntity
  8
0
  6
Continuous
 62
     7
370
    15
100
AcDbLine
 10
1394.7787335753
 20
895.3651943934
 30
0.0
 11
1395.396767564
 21
893.4630813608
 31
0.0
  0
LINE
  5
C4
330
1F
100
AcDbEntity
  8
0
  6
Continuous
 62
     7
370
    15
100
AcDbLine
 10
1395.4062781292
 20
893.4661715307
 30
0.0
 11
1395.396767564
 21
893.4630813608
 31
0.0
  0
LINE
  5
C5
330
1F
100
AcDbEntity
  8
0
  6
Continuous
 62
     7
370
    15
100
AcDbLine
 10
1393.9384474059
 20
897.9836899831
 30
0.0
 11
1395.4062781292
 21
893.4661715307
 31
0.0
  0
LINE
  5
C6
330
1F
100
AcDbEntity
  8
0
  6
Continuous
 62
     7
370
    15
100
AcDbLine
 10
1389.5663440898
 20
911.4396403817
 30
0.0
 11
1390.2835934888
 21
909.2321737145
 31
0.0
  0
LINE
  5
C7
330
1F
100
AcDbEntity
  8
0
  6
Continuous
 62
     7
370
    15
100
AcDbLine
 10
1393.9384474059
 20
897.9836899831
 30
0.0
 11
1393.9289368407
 21
897.9805998132
 31
0.0
  0
LINE
  5
C8
330
1F
100
AcDbEntity
  8
0
  6
Continuous
 62
     7
370
    15
100
AcDbLine
 10
1393.9365043343
 20
897.9896701425
 30
0.0
 11
1393.9384474059
 21
897.9836899831
 31
0.0
  0
LINE
  5
C9
330
1F
100
AcDbEntity
  8
0
  6
Continuous
 62
     7
370
    15
100
AcDbLine
 10
1396.656535581
 20
888.615093681
 30
0.0
 11
1404.072943446
 21
865.7897372899
 31
0.0
  0
LINE
  5
CA
330
1F
100
AcDbEntity
  8
0
  6
Continuous
 62
     7
370
    15
100
AcDbLine
 10
1396.7516412326
 20
888.6459953804
 30
0.0
 11
1396.656535581
 21
888.615093681
 31
0.0
  0
LINE
  5
CB
330
1F
100
AcDbEntity
  8
0
  6
Continuous
 62
     7
370
    15
100
AcDbLine
 10
1396.7516412326
 20
888.6459953804
 30
0.0
 11
1404.1680490976
 21
865.8206389893
 31
0.0
  0
LINE
  5
CC
330
1F
100
AcDbEntity
  8
0
  6
Continuous
 62
     7
370
    15
100
AcDbLine
 10
1404.1680490976
 20
865.8206389893
 30
0.0
 11
1404.072943446
 21
865.7897372899
 31
0.0
  0
LINE
  5
CD
330
1F
100
AcDbEntity
  8
0
  6
Continuous
 62
     7
370
    15
100
AcDbLine
 10
1403.4865278261
 20
868.2417525847
 30
0.0
 11
1403.3914221745
 21
868.2108508853
 31
0.0
  0
LINE
  5
CE
330
1F
100
AcDbEntity
  8
0
  6
Continuous
 62
     7
370
    15
100
AcDbLine
 10
1403.4865278261
 20
868.2417525847
 30
0.0
 11
1403.7182905719
 21
867.5284601975
 31
0.0
  0
LINE
  5
CF
330
1F
100
AcDbEntity
  8
0
  6
Continuous
 62
     7
370
    15
100
AcDbLine
 10
1403.7182905719
 20
867.5284601975
 30
0.0
 11
1403.6231849202
 21
867.4975584981
 31
0.0
  0
LINE
  5
D0
330
1F
100
AcDbEntity
  8
0
  6
Continuous
 62
     7
370
    15
100
AcDbLine
 10
1397.4606964358
 20
886.7873546525
 30
0.0
 11
1397.3655907841
 21
886.756452953
 31
0.0
  0
LINE
  5
D1
330
1F
100
AcDbEntity
  8
0
  6
Continuous
 62
     7
370
    15
100
AcDbLine
 10
1397.4606964358
 20
886.7873546525
 30
0.0
 11
1403.4865278261
 21
868.2417525847
 31
0.0
  0
LINE
  5
D2
330
1F
100
AcDbEntity
  8
0
  6
Continuous
 62
     7
370
    15
100
AcDbLine
 10
1397.3834421872
 20
887.0251187816
 30
0.0
 11
1397.4606964358
 21
886.7873546525
 31
0.0
  0
SPLINE
  5
D3
330
1F
100
AcDbEntity
  8
0
  6
Continuous
 62
     7
370
    15
100
AcDbSpline
210
0.0
220
0.0
230
1.0
 70
     8
 71
     3
 72
    11
 73
     7
 74
     0
 42
0.00000001
 43
0.00000001
 12
1.0
 22
0.0
 32
0.0
 13
1.0
 23
0.0
 33
0.0
 40
0.0
 40
0.0
 40
0.0
 40
0.0
 40
0.2500000000000016
 40
0.4999999999999968
 40
0.7499999999999949
 40
1.0
 40
1.0
 40
1.0
 40
1.0
 10
1365.336993123598
 20
677.5185869128417
 30
0.0
 10
1365.166159790265
 20
677.5494016370557
 30
0.0
 10
1364.824493123598
 20
677.6110310854838
 30
0.0
 10
1364.311993123599
 20
678.0850919723846
 30
0.0
 10
1363.799493123598
 20
678.7627090934334
 30
0.0
 10
1363.457826456932
 20
679.299960973039
 30
0.0
 10
1363.286993123599
 20
679.5685869128417
 30
0.0
  0
SPLINE
  5
D4
330
1F
100
AcDbEntity
  8
0
  6
Continuous
 62
     7
370
    15
100
AcDbSpline
210
0.0
220
0.0
230
1.0
 70
     8
 71
     3
 72
    11
 73
     7
 74
     0
 42
0.00000001
 43
0.00000001
 12
1.0
 22
0.0
 32
0.0
 13
1.0
 23
0.0
 33
0.0
 40
0.0
 40
0.0
 40
0.0
 40
0.0
 40
0.2499999999999954
 40
0.4999999999999906
 40
0.7500000000000113
 40
1.0
 40
1.0
 40
1.0
 40
1.0
 10
1365.336993123598
 20
678.3185869128416
 30
0.0
 10
1365.166159790265
 20
678.3373763788259
 30
0.0
 10
1364.824493123598
 20
678.3749553107942
 30
0.0
 10
1364.311993123599
 20
678.6640168271971
 30
0.0
 10
1363.799493123598
 20
679.0771979985685
 30
0.0
 10
1363.457826456932
 20
679.404790608084
 30
0.0
 10
1363.286993123599
 20
679.5685869128417
 30
0.0
  0
LINE
  5
D5
330
1F
100
AcDbEntity
  8
0
  6
Continuous
 62
     7
370
    15
100
AcDbLine
 10
1365.3369931236
 20
678.3185869128
 30
0.0
 11
1365.3369931236
 21
677.5185869128
 31
0.0
  0
LINE
  5
D6
330
1F
100
AcDbEntity
  8
0
  6
Continuous
 62
     7
370
    15
100
AcDbLine
 10
1363.2869931236
 20
679.5685869128
 30
0.0
 11
1363.2869931236
 21
938.4685869128
 31
0.0
  0
SPLINE
  5
D7
330
1F
100
AcDbEntity
  8
0
  6
Continuous
 62
     7
370
    15
100
AcDbSpline
210
0.0
220
0.0
230
1.0
 70
     8
 71
     3
 72
    12
 73
     8
 74
     0
 42
0.00000001
 43
0.00000001
 12
1.0
 22
0.0
 32
0.0
 13
1.0
 23
0.0
 33
0.0
 40
0.0
 40
0.0
 40
0.0
 40
0.0
 40
0.1454404972016528
 40
0.2766796332855305
 40
0.4978135062080051
 40
0.7087259376917685
 40
1.0
 40
1.0
 40
1.0
 40
1.0
 10
1365.336993123598
 20
939.647876234723
 30
0.0
 10
1365.325068929694
 20
939.6309892488547
 30
0.0
 10
1365.30238486535
 20
939.5988641863909
 30
0.0
 10
1365.097807641677
 20
939.5028977308347
 30
0.0
 10
1364.709446937379
 20
939.3270536835329
 30
0.0
 10
1364.074966674698
 20
938.9432805975583
 30
0.0
 10
1363.576252943076
 20
938.6428437890487
 30
0.0
 10
1363.286993123599
 20
938.4685869128416
 30
0.0
  0
LINE
  5
D8
330
1F
100
AcDbEntity
  8
0
  6
Continuous
 62
     7
370
    15
100
AcDbLine
 10
1365.3369931236
 20
939.6478762347
 30
0.0
 11
1365.3369931236
 21
680.5685869128
 31
0.0
  0
SPLINE
  5
D9
330
1F
100
AcDbEntity
  8
0
  6
Continuous
 62
     7
370
    15
100
AcDbSpline
210
0.0
220
0.0
230
1.0
 70
     8
 71
     3
 72
    12
 73
     8
 74
     0
 42
0.00000001
 43
0.00000001
 12
1.0
 22
0.0
 32
0.0
 13
1.0
 23
0.0
 33
0.0
 40
0.0
 40
0.0
 40
0.0
 40
0.0
 40
0.2248264012234076
 40
0.4497033531779081
 40
0.6745804852700852
 40
0.8994574041190856
 40
0.9999999999999999
 40
0.9999999999999999
 40
0.9999999999999999
 40
0.9999999999999999
 10
1363.286993123599
 20
679.5685869128415
 30
0.0
 10
1363.528344706551
 20
679.643555429628
 30
0.0
 10
1364.011102138765
 20
679.7935093193769
 30
0.0
 10
1364.646558380433
 20
680.0184836117638
 30
0.0
 10
1365.111047027327
 20
680.2433362408997
 30
0.0
 10
1365.315248019281
 20
680.427175007492
 30
0.0
 10
1365.331860485786
 20
680.5352085449115
 30
0.0
 10
1365.336993123598
 20
680.5685869128416
 30
0.0
  0
LINE
  5
DA
330
1F
100
AcDbEntity
  8
0
  6
Continuous
 62
     7
370
    15
100
AcDbLine
 10
657.8369931236
 20
677.5185869128
 30
0.0
 11
1365.3369931236
 21
677.5185869128
 31
0.0
  0
SPLINE
  5
DB
330
1F
100
AcDbEntity
  8
0
  6
Continuous
 62
     7
370
    15
100
AcDbSpline
210
0.0
220
0.0
230
1.0
 70
     8
 71
     3
 72
    11
 73
     7
 74
     0
 42
0.00000001
 43
0.00000001
 12
1.0
 22
0.0
 32
0.0
 13
1.0
 23
0.0
 33
0.0
 40
0.0
 40
0.0
 40
0.0
 40
0.0
 40
0.2166920199839796
 40
0.4715098753230783
 40
0.7264234855550923
 40
0.9999999999999999
 40
0.9999999999999999
 40
0.9999999999999999
 40
0.9999999999999999
 10
659.8869931235985
 20
679.5685869128417
 30
0.0
 10
659.7391541757909
 20
679.3360833358811
 30
0.0
 10
659.4174647852271
 20
678.8301683852841
 30
0.0
 10
658.9207591723127
 20
678.1524438936349
 30
0.0
 10
658.3856462276243
 20
677.6268507887804
 30
0.0
 10
658.0241329403138
 20
677.5555145849016
 30
0.0
 10
657.8369931235986
 20
677.5185869128417
 30
0.0
  0
LINE
  5
DC
330
1F
100
AcDbEntity
  8
0
  6
Continuous
 62
     7
370
    15
100
AcDbLine
 10
659.8869931236
 20
679.5685869128
 30
0.0
 11
1363.2869931236
 21
679.5685869128
 31
0.0
  0
LINE
  5
DD
330
1F
100
AcDbEntity
  8
0
  6
Continuous
 62
     7
370
    15
100
AcDbLine
 10
659.8869931236
 20
938.4685869128
 30
0.0
 11
659.8869931236
 21
679.5685869128
 31
0.0
  0
LINE
  5
DE
330
1F
100
AcDbEntity
  8
0
  6
Continuous
 62
     7
370
    15
100
AcDbLine
 10
1363.2869931236
 20
938.4685869128
 30
0.0
 11
659.8869931236
 21
938.4685869128
 31
0.0
  0
SPLINE
  5
DF
330
1F
100
AcDbEntity
  8
0
  6
Continuous
 62
     7
370
    15
100
AcDbSpline
210
0.0
220
0.0
230
1.0
 70
     8
 71
     3
 72
    12
 73
     8
 74
     0
 42
0.00000001
 43
0.00000001
 12
1.0
 22
0.0
 32
0.0
 13
1.0
 23
0.0
 33
0.0
 40
0.0
 40
0.0
 40
0.0
 40
0.0
 40
0.2286702771455699
 40
0.4574139526360186
 40
0.6861579520287874
 40
0.914901766662602
 40
1.0
 40
1.0
 40
1.0
 40
1.0
 10
1363.286993123599
 20
938.4685869128418
 30
0.0
 10
1363.376910824926
 20
938.7140593324125
 30
0.0
 10
1363.55677508927
 20
939.2050829630326
 30
0.0
 10
1363.826634257668
 20
939.8482486643711
 30
0.0
 10
1364.09633235321
 20
940.3124163284483
 30
0.0
 10
1364.310140456343
 20
940.5011962023551
 30
0.0
 10
1364.432975687431
 20
940.5148772880978
 30
0.0
 10
1364.46628244548
 20
940.5185869128417
 30
0.0
  0
SPLINE
  5
E0
330
1F
100
AcDbEntity
  8
0
  6
Continuous
 62
     7
370
    15
100
AcDbSpline
210
0.0
220
0.0
230
1.0
 70
     8
 71
     3
 72
    12
 73
     8
 74
     0
 42
0.00000001
 43
0.00000001
 12
1.0
 22
0.0
 32
0.0
 13
1.0
 23
0.0
 33
0.0
 40
0.0
 40
0.0
 40
0.0
 40
0.0
 40
0.1883674158493013
 40
0.3766352028637334
 40
0.5661514649925342
 40
0.8121475923567668
 40
0.9999999999999999
 40
0.9999999999999999
 40
0.9999999999999999
 40
0.9999999999999999
 10
658.7077038017172
 20
940.5185869128416
 30
0.0
 10
658.7224458397338
 20
940.4982408984638
 30
0.0
 10
658.7519221186009
 20
940.4575596308567
 30
0.0
 10
658.8963267362802
 20
940.1449893692562
 30
0.0
 10
659.1671115835258
 20
939.6670311084704
 30
0.0
 10
659.518509386136
 20
939.0854877625303
 30
0.0
 10
659.7756525215325
 20
938.65498893018
 30
0.0
 10
659.8869931235986
 20
938.4685869128417
 30
0.0
  0
LINE
  5
E1
330
1F
100
AcDbEntity
  8
0
  6
Continuous
 62
     7
370
    15
100
AcDbLine
 10
658.7077038017
 20
940.5185869128
 30
0.0
 11
1364.4662824455
 21
940.5185869128
 31
0.0
  0
LINE
  5
E2
330
1F
100
AcDbEntity
  8
0
  6
Continuous
 62
     7
370
    15
100
AcDbLine
 10
1364.4662824455
 20
939.7185869128
 30
0.0
 11
1364.4662824455
 21
940.5185869128
 31
0.0
  0
SPLINE
  5
E3
330
1F
100
AcDbEntity
  8
0
  6
Continuous
 62
     7
370
    15
100
AcDbSpline
210
0.0
220
0.0
230
1.0
 70
     8
 71
     3
 72
    11
 73
     7
 74
     0
 42
0.00000001
 43
0.00000001
 12
1.0
 22
0.0
 32
0.0
 13
1.0
 23
0.0
 33
0.0
 40
0.0
 40
0.0
 40
0.0
 40
0.0
 40
0.2506688637244492
 40
0.5014856490564905
 40
0.7523028878589465
 40
1.0
 40
1.0
 40
1.0
 40
1.0
 10
1363.286993123599
 20
938.4685869128417
 30
0.0
 10
1363.38553269713
 20
938.6328244540806
 30
0.0
 10
1363.582669993147
 20
938.9613964543838
 30
0.0
 10
1363.87840409542
 20
939.3754458442418
 30
0.0
 10
1364.172984350733
 20
939.6630060787818
 30
0.0
 10
1364.368925202046
 20
939.7001374346869
 30
0.0
 10
1364.46628244548
 20
939.7185869128417
 30
0.0
  0
LINE
  5
E4
330
1F
100
AcDbEntity
  8
0
  6
Continuous
 62
     7
370
    15
100
AcDbLine
 10
1365.3369931236
 20
939.6478762347
 30
0.0
 11
1364.5369931236
 21
939.6478762347
 31
0.0
  0
SPLINE
  5
E5
330
1F
100
AcDbEntity
  8
0
  6
Continuous
 62
     7
370
    15
100
AcDbSpline
210
0.0
220
0.0
230
1.0
 70
     8
 71
     3
 72
    13
 73
     9
 74
     0
 42
0.00000001
 43
0.00000001
 12
1.0
 22
0.0
 32
0.0
 13
1.0
 23
0.0
 33
0.0
 40
0.0
 40
0.0
 40
0.0
 40
0.0
 40
0.1324496570605066
 40
0.2535502158244801
 40
0.3645036189253484
 40
0.4668796236397428
 40
0.6855382790492205
 40
1.0
 40
1.0
 40
1.0
 40
1.0
 10
1364.536993123598
 20
939.647876234723
 30
0.0
 10
1364.529691293788
 20
939.6309908721978
 30
0.0
 10
1364.515713299692
 20
939.5986669884858
 30
0.0
 10
1364.415317127385
 20
939.5212934627124
 30
0.0
 10
1364.285374458302
 20
939.4251761375394
 30
0.0
 10
1364.084585285929
 20
939.2581779105515
 30
0.0
 10
1363.759165407793
 20
938.9349103411288
 30
0.0
 10
1363.462173922655
 20
938.6415977258874
 30
0.0
 10
1363.286993123599
 20
938.4685869128416
 30
0.0
  0
SPLINE
  5
E6
330
1F
100
AcDbEntity
  8
0
  6
Continuous
 62
     7
370
    15
100
AcDbSpline
210
0.0
220
0.0
230
1.0
 70
     8
 71
     3
 72
    11
 73
     7
 74
     0
 42
0.00000001
 43
0.00000001
 12
1.0
 22
0.0
 32
0.0
 13
1.0
 23
0.0
 33
0.0
 40
0.0
 40
0.0
 40
0.0
 40
0.0
 40
0.2499999999999932
 40
0.4999999999999984
 40
0.7499999999999979
 40
1.0
 40
1.0
 40
1.0
 40
1.0
 10
659.8869931235987
 20
938.4685869128416
 30
0.0
 10
659.6183671837958
 20
938.5668610229983
 30
0.0
 10
659.0811153041903
 20
938.763409243312
 30
0.0
 10
658.4034981831414
 20
939.0582315737822
 30
0.0
 10
657.9294372962407
 20
939.3530539042528
 30
0.0
 10
657.8678078478127
 20
939.5496021245663
 30
0.0
 10
657.8369931235986
 20
939.647876234723
 30
0.0
  0
LINE
  5
E7
330
1F
100
AcDbEntity
  8
0
  6
Continuous
 62
     7
370
    15
100
AcDbLine
 10
658.6369931236
 20
939.6478762347
 30
0.0
 11
657.8369931236
 21
939.6478762347
 31
0.0
  0
SPLINE
  5
E8
330
1F
100
AcDbEntity
  8
0
  6
Continuous
 62
     7
370
    15
100
AcDbSpline
210
0.0
220
0.0
230
1.0
 70
     8
 71
     3
 72
    11
 73
     7
 74
     0
 42
0.00000001
 43
0.00000001
 12
1.0
 22
0.0
 32
0.0
 13
1.0
 23
0.0
 33
0.0
 40
0.0
 40
0.0
 40
0.0
 40
0.0
 40
0.2500000000000114
 40
0.5000000000000063
 40
0.7499999999999987
 40
1.0
 40
1.0
 40
1.0
 40
1.0
 10
659.8869931235987
 20
938.4685869128416
 30
0.0
 10
659.7231968188407
 20
938.5668610229983
 30
0.0
 10
659.3956042093251
 20
938.763409243312
 30
0.0
 10
658.982423037954
 20
939.0582315737822
 30
0.0
 10
658.6933615215511
 20
939.3530539042528
 30
0.0
 10
658.6557825895828
 20
939.5496021245663
 30
0.0
 10
658.6369931235986
 20
939.647876234723
 30
0.0
  0
LWPOLYLINE
  5
E9
330
1F
100
AcDbEntity
  8
0
  6
Continuous
 62
     7
370
    15
100
AcDbPolyline
 90
        2
 70
   128
 43
0.0
 10
659.8869931236
 20
938.4685869128
 10
659.8869931236
 20
938.4685869128
  0
LINE
  5
EA
330
1F
100
AcDbEntity
  8
0
  6
Continuous
 62
     7
370
    15
100
AcDbLine
 10
658.7077038017
 20
940.5185869128
 30
0.0
 11
658.7077038017
 21
939.7185869128
 31
0.0
  0
SPLINE
  5
EB
330
1F
100
AcDbEntity
  8
0
  6
Continuous
 62
     7
370
    15
100
AcDbSpline
210
0.0
220
0.0
230
1.0
 70
     8
 71
     3
 72
    12
 73
     8
 74
     0
 42
0.00000001
 43
0.00000001
 12
1.0
 22
0.0
 32
0.0
 13
1.0
 23
0.0
 33
0.0
 40
0.0
 40
0.0
 40
0.0
 40
0.0
 40
0.1779530337847971
 40
0.3355033292010842
 40
0.4996134486844874
 40
0.7742146411662335
 40
1.0
 40
1.0
 40
1.0
 40
1.0
 10
658.7077038017172
 20
939.7185869128417
 30
0.0
 10
658.7234604754241
 20
939.7048872499719
 30
0.0
 10
658.7531672827395
 20
939.6790586231485
 30
0.0
 10
658.891348352829
 20
939.4990688794742
 30
0.0
 10
659.1388747689336
 20
939.225943218669
 30
0.0
 10
659.4905536115249
 20
938.8743962341425
 30
0.0
 10
659.7637299730438
 20
938.5947633759456
 30
0.0
 10
659.8869931235986
 20
938.4685869128417
 30
0.0
  0
LINE
  5
EC
330
1F
100
AcDbEntity
  8
0
  6
Continuous
 62
     7
370
    15
100
AcDbLine
 10
657.8369931236
 20
677.5185869128
 30
0.0
 11
657.8369931236
 21
678.3185869128
 31
0.0
  0
SPLINE
  5
ED
330
1F
100
AcDbEntity
  8
0
  6
Continuous
 62
     7
370
    15
100
AcDbSpline
210
0.0
220
0.0
230
1.0
 70
     8
 71
     3
 72
    11
 73
     7
 74
     0
 42
0.00000001
 43
0.00000001
 12
1.0
 22
0.0
 32
0.0
 13
1.0
 23
0.0
 33
0.0
 40
0.0
 40
0.0
 40
0.0
 40
0.0
 40
0.288953087969247
 40
0.6002063807314292
 40
0.911612525617842
 40
1.0
 40
1.0
 40
1.0
 40
1.0
 10
659.8869931235985
 20
679.5685869128417
 30
0.0
 10
659.6895679600441
 20
679.3794246138615
 30
0.0
 10
659.2794811749708
 20
678.9865012516658
 30
0.0
 10
658.6564386608086
 20
678.5172052509306
 30
0.0
 10
658.1691438630427
 20
678.33220761944
 30
0.0
 10
657.8971305712702
 20
678.3210530055914
 30
0.0
 10
657.8369931235986
 20
678.3185869128417
 30
0.0
  0
LINE
  5
EE
330
1F
100
AcDbEntity
  8
0
  6
Continuous
 62
     7
370
    15
100
AcDbLine
 10
657.8369931236
 20
680.5685869128
 30
0.0
 11
657.8369931236
 21
939.6478762347
 31
0.0
  0
SPLINE
  5
EF
330
1F
100
AcDbEntity
  8
0
  6
Continuous
 62
     7
370
    15
100
AcDbSpline
210
0.0
220
0.0
230
1.0
 70
     8
 71
     3
 72
    11
 73
     7
 74
     0
 42
0.00000001
 43
0.00000001
 12
1.0
 22
0.0
 32
0.0
 13
1.0
 23
0.0
 33
0.0
 40
0.0
 40
0.0
 40
0.0
 40
0.0
 40
0.2499999999999954
 40
0.4999999999999959
 40
0.750000000000003
 40
1.0
 40
1.0
 40
1.0
 40
1.0
 10
657.8369931235986
 20
680.5685869128416
 30
0.0
 10
657.8678078478127
 20
680.4852535795084
 30
0.0
 10
657.9294372962407
 20
680.3185869128417
 30
0.0
 10
658.4034981831416
 20
680.0685869128417
 30
0.0
 10
659.0811153041902
 20
679.8185869128417
 30
0.0
 10
659.6183671837957
 20
679.6519202461751
 30
0.0
 10
659.8869931235985
 20
679.5685869128417
 30
0.0
  0
LINE
  5
F0
330
1F
100
AcDbEntity
  8
0
  6
Continuous
 62
     7
370
    15
100
AcDbLine
 10
668.6369931236
 20
940.7185869128
 30
0.0
 11
668.6369931236
 21
940.5185869128
 31
0.0
  0
LINE
  5
F1
330
1F
100
AcDbEntity
  8
0
  6
Continuous
 62
     7
370
    15
100
AcDbLine
 10
1354.5369931236
 20
940.5185869128
 30
0.0
 11
1354.5369931236
 21
940.7185869128
 31
0.0
  0
LINE
  5
F2
330
1F
100
AcDbEntity
  8
0
  6
Continuous
 62
     7
370
    15
100
AcDbLine
 10
1409.4042125184
 20
846.7929238516
 30
0.0
 11
1408.9286842602
 21
846.6384153544
 31
0.0
  0
LINE
  5
F3
330
1F
100
AcDbEntity
  8
0
  6
Continuous
 62
     7
370
    15
100
AcDbLine
 10
1408.9286842602
 20
846.6384153544
 30
0.0
 11
1384.5484388096
 21
921.67309541
 31
0.0
  0
LINE
  5
F4
330
1F
100
AcDbEntity
  8
0
  6
Continuous
 62
     7
370
    15
100
AcDbLine
 10
1426.8707167367
 20
802.5988216784
 30
0.0
 11
1439.2894188832
 21
817.3988545769
 31
0.0
  0
LINE
  5
F5
330
1F
100
AcDbEntity
  8
0
  6
Continuous
 62
     7
370
    15
100
AcDbLine
 10
1439.2894188832
 20
817.3988545769
 30
0.0
 11
1439.6724411048
 21
817.077460772
 31
0.0
  0
LINE
  5
F6
330
1F
100
AcDbEntity
  8
0
  6
Continuous
 62
     7
370
    15
100
AcDbLine
 10
1426.8707167367
 20
802.5988216784
 30
0.0
 11
1427.2537389583
 21
802.2774278736
 31
0.0
  0
LINE
  5
F7
330
1F
100
AcDbEntity
  8
0
  6
Continuous
 62
     7
370
    15
100
AcDbLine
 10
1365.6521141036
 20
802.8309123857
 30
0.0
 11
1365.6521141036
 21
921.5185869128
 31
0.0
  0
LINE
  5
F8
330
1F
100
AcDbEntity
  8
0
  6
Continuous
 62
     7
370
    15
100
AcDbLine
 10
1365.6521141036
 20
921.5185869128
 30
0.0
 11
1366.1521141036
 21
921.5185869128
 31
0.0
  0
LINE
  5
F9
330
1F
100
AcDbEntity
  8
0
  6
Continuous
 62
     7
370
    15
100
AcDbLine
 10
1366.1521141036
 20
921.5185869128
 30
0.0
 11
1366.1521141036
 21
802.8309123857
 31
0.0
  0
LINE
  5
FA
330
1F
100
AcDbEntity
  8
0
  6
Continuous
 62
     7
370
    15
100
AcDbLine
 10
1366.1521141036
 20
802.8309123857
 30
0.0
 11
1365.6521141036
 21
802.8309123857
 31
0.0
  0
LINE
  5
FB
330
1F
100
AcDbEntity
  8
0
  6
Continuous
 62
     7
370
    15
100
AcDbLine
 10
1415.9818053464
 20
839.9816270863
 30
0.0
 11
1415.8107952748
 21
839.5117807759
 31
0.0
  0
ARC
  5
FC
330
1F
100
AcDbEntity
  8
0
  6
Continuous
 62
     7
370
    15
100
AcDbCircle
 10
1419.6756228944
 20
850.1303073908
 30
0.0
 40
11.30000000000022
100
AcDbArc
 50
198.0
 51
250.0
  0
LINE
  5
FD
330
1F
100
AcDbEntity
  8
0
  6
Continuous
 62
     7
370
    15
100
AcDbLine
 10
1366.6521141036
 20
802.3309123857
 30
0.0
 11
1426.2961834044
 21
802.3309123857
 31
0.0
  0
LINE
  5
FE
330
1F
100
AcDbEntity
  8
0
  6
Continuous
 62
     7
370
    15
100
AcDbLine
 10
1426.2961834044
 20
802.3309123857
 30
0.0
 11
1426.2961834044
 21
801.8309123857
 31
0.0
  0
LINE
  5
FF
330
1F
100
AcDbEntity
  8
0
  6
Continuous
 62
     7
370
    15
100
AcDbLine
 10
1366.6521141036
 20
802.3309123857
 30
0.0
 11
1366.6521141036
 21
801.8309123857
 31
0.0
  0
ARC
  5
100
330
1F
100
AcDbEntity
  8
0
  6
Continuous
 62
     7
370
    15
100
AcDbCircle
 10
1426.2961834044
 20
803.0809123857
 30
0.0
 40
0.7500000000000727
100
AcDbArc
 50
270.0
 51
320.0
  0
ARC
  5
101
330
1F
100
AcDbEntity
  8
0
  6
Continuous
 62
     7
370
    15
100
AcDbCircle
 10
1366.6521141036
 20
802.8309123857
 30
0.0
 40
0.5000000000001137
100
AcDbArc
 50
180.0
 51
270.0
  0
ARC
  5
102
330
1F
100
AcDbEntity
  8
0
  6
Continuous
 62
     7
370
    15
100
AcDbCircle
 10
1366.6521141036
 20
921.5185869128
 30
0.0
 40
0.5000000000001137
100
AcDbArc
 50
90.0
 51
180.0
  0
LINE
  5
103
330
1F
100
AcDbEntity
  8
0
  6
Continuous
 62
     7
370
    15
100
AcDbLine
 10
1384.0729105515
 20
922.0185869128
 30
0.0
 11
1366.6521141036
 21
922.0185869128
 31
0.0
  0
ARC
  5
104
330
1F
100
AcDbEntity
  8
0
  6
Continuous
 62
     7
370
    15
100
AcDbCircle
 10
1384.0729105515
 20
921.5185869128
 30
0.0
 40
0.5000000000001137
100
AcDbArc
 50
18.0
 51
90.0
  0
LINE
  5
105
330
1F
100
AcDbEntity
  8
0
  6
Continuous
 62
     7
370
    15
100
AcDbLine
 10
1435.2611880352
 20
832.4324167664
 30
0.0
 11
1415.8107952748
 21
839.5117807759
 31
0.0
  0
ARC
  5
106
330
1F
100
AcDbEntity
  8
0
  6
Continuous
 62
     7
370
    15
100
AcDbCircle
 10
1432.0119966736
 20
823.5053368689
 30
0.0
 40
9.50000000000009
100
AcDbArc
 50
320.0
 51
70.0
  0
LINE
  5
107
330
1F
100
AcDbEntity
  8
0
  6
Continuous
 62
     7
370
    15
100
AcDbLine
 10
1366.6521141036
 20
922.5185869128
 30
0.0
 11
1366.6521141036
 21
922.0185869128
 31
0.0
  0
LINE
  5
108
330
1F
100
AcDbEntity
  8
0
  6
Continuous
 62
     7
370
    15
100
AcDbLine
 10
1435.2611880352
 20
832.4324167664
 30
0.0
 11
1435.4321981068
 21
832.9022630767
 31
0.0
  0
ARC
  5
109
330
1F
100
AcDbEntity
  8
0
  6
Continuous
 62
     7
370
    15
100
AcDbCircle
 10
1366.6521141036
 20
802.8309123857
 30
0.0
 40
1.000000000000114
100
AcDbArc
 50
180.0
 51
270.0
  0
ARC
  5
10A
330
1F
100
AcDbEntity
  8
0
  6
Continuous
 62
     7
370
    15
100
AcDbCircle
 10
1366.6521141036
 20
921.5185869128
 30
0.0
 40
1.0
100
AcDbArc
 50
90.0
 51
180.0
  0
LINE
  5
10B
330
1F
100
AcDbEntity
  8
0
  6
Continuous
 62
     7
370
    15
100
AcDbLine
 10
1409.4042125184
 20
846.7929238516
 30
0.0
 11
1410.1650577314
 21
847.0401374471
 31
0.0
  0
ARC
  5
10C
330
1F
100
AcDbEntity
  8
0
  6
Continuous
 62
     7
370
    15
100
AcDbCircle
 10
1419.6756228944
 20
850.1303073908
 30
0.0
 40
9.999999999999995
100
AcDbArc
 50
198.0
 51
250.0
  0
LINE
  5
10D
330
1F
100
AcDbEntity
  8
0
  6
Continuous
 62
     7
370
    15
100
AcDbLine
 10
1416.2554214611
 20
840.7333811829
 30
0.0
 11
1415.9818053464
 21
839.9816270863
 31
0.0
  0
ARC
  5
10E
330
1F
100
AcDbEntity
  8
0
  6
Continuous
 62
     7
370
    15
100
AcDbCircle
 10
1419.6756228944
 20
850.1303073908
 30
0.0
 40
10.80000000000021
100
AcDbArc
 50
198.0
 51
250.0
  0
ARC
  5
10F
330
1F
100
AcDbEntity
  8
0
  6
Continuous
 62
     7
370
    15
100
AcDbCircle
 10
1383.8912749195
 20
921.2685869128
 30
0.0
 40
2.049999999999984
100
AcDbArc
 50
18.0
 51
90.0
  0
LINE
  5
110
330
1F
100
AcDbEntity
  8
0
  6
Continuous
 62
     7
370
    15
100
AcDbLine
 10
1385.0800955648
 20
921.6548581558
 30
0.0
 11
1385.8409407779
 21
921.9020717513
 31
0.0
  0
ARC
  5
111
330
1F
100
AcDbEntity
  8
0
  6
Continuous
 62
     7
370
    15
100
AcDbCircle
 10
1383.8912749195
 20
921.2685869128
 30
0.0
 40
1.249999999999888
100
AcDbArc
 50
18.0
 51
90.0
  0
LINE
  5
112
330
1F
100
AcDbEntity
  8
0
  6
Continuous
 62
     7
370
    15
100
AcDbLine
 10
1383.8912749195
 20
922.5185869128
 30
0.0
 11
1383.8912749195
 21
923.3185869128
 31
0.0
  0
LINE
  5
113
330
1F
100
AcDbEntity
  8
0
  6
Continuous
 62
     7
370
    15
100
AcDbLine
 10
1435.4321981068
 20
832.9022630767
 30
0.0
 11
1435.7058142215
 21
833.6540171734
 31
0.0
  0
LINE
  5
114
330
1F
100
AcDbEntity
  8
0
  6
Continuous
 62
     7
370
    15
100
AcDbLine
 10
1435.4321981068
 20
832.9022630767
 30
0.0
 11
1415.9818053464
 21
839.9816270863
 31
0.0
  0
LINE
  5
115
330
1F
100
AcDbEntity
  8
0
  6
Continuous
 62
     7
370
    15
100
AcDbLine
 10
1435.7058142215
 20
833.6540171734
 30
0.0
 11
1416.2554214611
 21
840.7333811829
 31
0.0
  0
ARC
  5
116
330
1F
100
AcDbEntity
  8
0
  6
Continuous
 62
     7
370
    15
100
AcDbCircle
 10
1432.0119966736
 20
823.5053368689
 30
0.0
 40
10.0000000000001
100
AcDbArc
 50
320.0
 51
70.0
  0
ARC
  5
117
330
1F
100
AcDbEntity
  8
0
  6
Continuous
 62
     7
370
    15
100
AcDbCircle
 10
1432.0119966736
 20
823.5053368689
 30
0.0
 40
10.80000000000024
100
AcDbArc
 50
320.0
 51
70.0
  0
LINE
  5
118
330
1F
100
AcDbEntity
  8
0
  6
Continuous
 62
     7
370
    15
100
AcDbLine
 10
1440.2852766593
 20
816.5632306843
 30
0.0
 11
1439.6724411048
 21
817.077460772
 31
0.0
  0
LINE
  5
119
330
1F
100
AcDbEntity
  8
0
  6
Continuous
 62
     7
370
    15
100
AcDbLine
 10
1410.1650577314
 20
847.0401374471
 30
0.0
 11
1385.8409407779
 21
921.9020717513
 31
0.0
  0
LINE
  5
11A
330
1F
100
AcDbEntity
  8
0
  6
Continuous
 62
     7
370
    15
100
AcDbLine
 10
1409.4042125184
 20
846.7929238516
 30
0.0
 11
1385.0800955648
 21
921.6548581558
 31
0.0
  0
LINE
  5
11B
330
1F
100
AcDbEntity
  8
0
  6
Continuous
 62
     7
370
    15
100
AcDbLine
 10
1365.6521141036
 20
801.8309123857
 30
0.0
 11
1426.2961834044
 21
801.8309123857
 31
0.0
  0
LINE
  5
11C
330
1F
100
AcDbEntity
  8
0
  6
Continuous
 62
     7
370
    15
100
AcDbLine
 10
1426.2961834044
 20
801.0309123857
 30
0.0
 11
1426.2961834044
 21
801.8309123857
 31
0.0
  0
LINE
  5
11D
330
1F
100
AcDbEntity
  8
0
  6
Continuous
 62
     7
370
    15
100
AcDbLine
 10
1365.6521141036
 20
801.8309123857
 30
0.0
 11
1365.6521141036
 21
801.0309123857
 31
0.0
  0
LINE
  5
11E
330
1F
100
AcDbEntity
  8
0
  6
Continuous
 62
     7
370
    15
100
AcDbLine
 10
1365.6521141036
 20
801.0309123857
 30
0.0
 11
1426.2961834044
 21
801.0309123857
 31
0.0
  0
LINE
  5
11F
330
1F
100
AcDbEntity
  8
0
  6
Continuous
 62
     7
370
    15
100
AcDbLine
 10
1427.2537389583
 20
802.2774278736
 30
0.0
 11
1427.8665745128
 21
801.7631977858
 31
0.0
  0
LINE
  5
120
330
1F
100
AcDbEntity
  8
0
  6
Continuous
 62
     7
370
    15
100
AcDbLine
 10
1427.2537389583
 20
802.2774278736
 30
0.0
 11
1439.6724411048
 21
817.077460772
 31
0.0
  0
LINE
  5
121
330
1F
100
AcDbEntity
  8
0
  6
Continuous
 62
     7
370
    15
100
AcDbLine
 10
1427.8665745128
 20
801.7631977858
 30
0.0
 11
1440.2852766593
 21
816.5632306843
 31
0.0
  0
ARC
  5
122
330
1F
100
AcDbEntity
  8
0
  6
Continuous
 62
     7
370
    15
100
AcDbCircle
 10
1426.2961834044
 20
803.0809123857
 30
0.0
 40
1.250000000000161
100
AcDbArc
 50
270.0
 51
320.0
  0
ARC
  5
123
330
1F
100
AcDbEntity
  8
0
  6
Continuous
 62
     7
370
    15
100
AcDbCircle
 10
1426.2961834044
 20
803.0809123857
 30
0.0
 40
2.050000000000126
100
AcDbArc
 50
270.0
 51
320.0
  0
LINE
  5
124
330
1F
100
AcDbEntity
  8
0
  6
Continuous
 62
     7
370
    15
100
AcDbLine
 10
1365.6521141036
 20
922.5185869128
 30
0.0
 11
1383.8912749195
 21
922.5185869128
 31
0.0
  0
LINE
  5
125
330
1F
100
AcDbEntity
  8
0
  6
Continuous
 62
     7
370
    15
100
AcDbLine
 10
1365.6521141036
 20
923.3185869128
 30
0.0
 11
1383.8912749195
 21
923.3185869128
 31
0.0
  0
LINE
  5
126
330
1F
100
AcDbEntity
  8
0
  6
Continuous
 62
     7
370
    15
100
AcDbLine
 10
1365.6521141036
 20
923.3185869128
 30
0.0
 11
1365.6521141036
 21
922.5185869128
 31
0.0
  0
LINE
  5
127
330
1F
100
AcDbEntity
  8
0
  6
Continuous
 62
     7
370
    15
100
AcDbLine
 10
1385.4445729903
 20
923.1219663658
 30
0.0
 11
1385.8409407779
 21
921.9020717513
 31
0.0
  0
LINE
  5
128
330
1F
100
AcDbEntity
  8
0
  6
Continuous
 62
     7
370
    15
100
AcDbLine
 10
1398.7942545919
 20
930.3062375041
 30
0.0
 11
1398.7999546656
 21
930.2934349289
 31
0.0
  0
LINE
  5
129
330
1F
100
AcDbEntity
  8
0
  6
Continuous
 62
     7
370
    15
100
AcDbLine
 10
1394.2322273774
 20
928.2597517135
 30
0.0
 11
1398.7999546656
 21
930.2934349289
 31
0.0
  0
ARC
  5
12A
330
1F
100
AcDbEntity
  8
0
  6
Continuous
 62
     7
370
    15
100
AcDbCircle
 10
1386.6333936357
 20
923.5082376087
 30
0.0
 40
2.050000000000313
100
AcDbArc
 50
160.9968769924
 51
188.956998441
  0
ARC
  5
12B
330
1F
100
AcDbEntity
  8
0
  6
Continuous
 62
     7
370
    15
100
AcDbCircle
 10
1386.6333936357
 20
923.5082376087
 30
0.0
 40
1.250000000000356
100
AcDbArc
 50
114.0
 51
198.0
  0
LINE
  5
12C
330
1F
100
AcDbEntity
  8
0
  6
Continuous
 62
     7
370
    15
100
AcDbLine
 10
1386.1249728318
 20
924.6501694308
 30
0.0
 11
1386.625993907
 21
924.8732383854
 31
0.0
  0
LINE
  5
12D
330
1F
100
AcDbEntity
  8
0
  6
Continuous
 62
     7
370
    15
100
AcDbLine
 10
1389.7983917762
 20
926.285680918
 30
0.0
 11
1394.2322273774
 21
928.2597517135
 31
0.0
  0
LINE
  5
12E
330
1F
100
AcDbEntity
  8
0
  6
Continuous
 62
     7
370
    15
100
AcDbLine
 10
1424.4521141036
 20
765.436534506
 30
0.0
 11
1426.0521141036
 21
765.436534506
 31
0.0
  0
LINE
  5
12F
330
1F
100
AcDbEntity
  8
0
  6
Continuous
 62
     7
370
    15
100
AcDbLine
 10
1426.0521141036
 20
709.4248957156
 30
0.0
 11
1426.0521141036
 21
765.436534506
 31
0.0
  0
LINE
  5
130
330
1F
100
AcDbEntity
  8
0
  6
Continuous
 62
     7
370
    15
100
AcDbLine
 10
1424.4521141036
 20
709.4248957156
 30
0.0
 11
1426.0521141036
 21
709.4248957156
 31
0.0
  0
LINE
  5
131
330
1F
100
AcDbEntity
  8
0
  6
Continuous
 62
     7
370
    15
100
AcDbLine
 10
1424.4521141036
 20
767.4309123857
 30
0.0
 11
1426.0521141036
 21
767.4309123857
 31
0.0
  0
SPLINE
  5
132
330
1F
100
AcDbEntity
  8
0
  6
Continuous
 62
     7
370
    15
100
AcDbSpline
210
0.0
220
0.0
230
1.0
 70
    24
 71
     3
 72
    11
 73
     7
 74
     0
 42
0.00000001
 43
0.00000001
 12
1.0
 22
0.0
 32
0.0
 13
1.0
 23
0.0
 33
0.0
 40
0.0
 40
0.0
 40
0.0
 40
0.0
 40
0.2833534124411232
 40
0.5581116990962641
 40
0.7754835424211796
 40
1.0
 40
1.0
 40
1.0
 40
1.0
 10
1426.052114103603
 20
765.4365345059778
 30
0.0
 10
1426.052114103603
 20
765.7335830807842
 30
0.0
 10
1426.052114103603
 20
766.318669681193
 30
0.0
 10
1426.052114103603
 20
766.9667794516004
 30
0.0
 10
1426.052114103603
 20
767.3606848537128
 30
0.0
 10
1426.052114103603
 20
767.4072522354629
 30
0.0
 10
1426.052114103603
 20
767.4309123857041
 30
0.0
  0
LINE
  5
133
330
1F
100
AcDbEntity
  8
0
  6
Continuous
 62
     7
370
    15
100
AcDbLine
 10
1424.4521141036
 20
707.4309123857
 30
0.0
 11
1426.0521141036
 21
707.4309123857
 31
0.0
  0
SPLINE
  5
134
330
1F
100
AcDbEntity
  8
0
  6
Continuous
 62
     7
370
    15
100
AcDbSpline
210
0.0
220
0.0
230
1.0
 70
    24
 71
     3
 72
    11
 73
     7
 74
     0
 42
0.00000001
 43
0.00000001
 12
1.0
 22
0.0
 32
0.0
 13
1.0
 23
0.0
 33
0.0
 40
0.0
 40
0.0
 40
0.0
 40
0.0
 40
0.2832771686238263
 40
0.5580022489005091
 40
0.7754022428539195
 40
1.0
 40
1.0
 40
1.0
 40
1.0
 10
1426.052114103603
 20
707.4309123857042
 30
0.0
 10
1426.052114103603
 20
707.469196217881
 30
0.0
 10
1426.052114103604
 20
707.544608100014
 30
0.0
 10
1426.052114103603
 20
708.0775467661346
 30
0.0
 10
1426.052114103603
 20
708.7279711960321
 30
0.0
 10
1426.052114103603
 20
709.1900791258482
 30
0.0
 10
1426.052114103603
 20
709.4248957156111
 30
0.0
  0
SPLINE
  5
135
330
1F
100
AcDbEntity
  8
0
  6
Continuous
 62
     7
370
    15
100
AcDbSpline
210
0.0
220
0.0
230
1.0
 70
     8
 71
     3
 72
    11
 73
     7
 74
     0
 42
0.00000001
 43
0.00000001
 12
1.0
 22
0.0
 32
0.0
 13
1.0
 23
0.0
 33
0.0
 40
0.0
 40
0.0
 40
0.0
 40
0.0
 40
0.2371516183832008
 40
0.497800201446403
 40
0.7485397230460175
 40
1.0
 40
1.0
 40
1.0
 40
1.0
 10
1426.052114103603
 20
765.4365345059778
 30
0.0
 10
1426.24710294691
 20
765.4058219816267
 30
0.0
 10
1426.65640011359
 20
765.3413539383
 30
0.0
 10
1427.099989084191
 20
765.2083309633956
 30
0.0
 10
1427.397236091617
 20
765.0549328226283
 30
0.0
 10
1427.433803938927
 20
764.9471604174759
 30
0.0
 10
1427.452114103603
 20
764.8931968776143
 30
0.0
  0
LINE
  5
136
330
1F
100
AcDbEntity
  8
0
  6
Continuous
 62
     7
370
    15
100
AcDbLine
 10
1427.4521141036
 20
764.8931968776
 30
0.0
 11
1427.4521141036
 21
709.9686278938
 31
0.0
  0
SPLINE
  5
137
330
1F
100
AcDbEntity
  8
0
  6
Continuous
 62
     7
370
    15
100
AcDbSpline
210
0.0
220
0.0
230
1.0
 70
     8
 71
     3
 72
    11
 73
     7
 74
     0
 42
0.00000001
 43
0.00000001
 12
1.0
 22
0.0
 32
0.0
 13
1.0
 23
0.0
 33
0.0
 40
0.0
 40
0.0
 40
0.0
 40
0.0
 40
0.2371429336589581
 40
0.4977971043283286
 40
0.74853771103041
 40
1.0
 40
1.0
 40
1.0
 40
1.0
 10
1426.052114103603
 20
709.4248957156111
 30
0.0
 10
1426.247098185241
 20
709.4556301094357
 30
0.0
 10
1426.656397799326
 20
709.5201460197901
 30
0.0
 10
1427.099987970181
 20
709.6532639164814
 30
0.0
 10
1427.397236311382
 20
709.8067748765541
 30
0.0
 10
1427.433803989873
 20
709.9146252265339
 30
0.0
 10
1427.452114103603
 20
709.9686278937941
 30
0.0
  0
SPLINE
  5
138
330
1F
100
AcDbEntity
  8
0
  6
Continuous
 62
     7
370
    15
100
AcDbSpline
210
0.0
220
0.0
230
1.0
 70
     8
 71
     3
 72
    11
 73
     7
 74
     0
 42
0.00000001
 43
0.00000001
 12
1.0
 22
0.0
 32
0.0
 13
1.0
 23
0.0
 33
0.0
 40
0.0
 40
0.0
 40
0.0
 40
0.0
 40
0.2371941589275937
 40
0.4978619749471125
 40
0.7485798819786939
 40
1.0
 40
1.0
 40
1.0
 40
1.0
 10
1426.052114103603
 20
767.4309123857041
 30
0.0
 10
1426.247093344658
 20
767.2879938819672
 30
0.0
 10
1426.656347731292
 20
766.9880131031455
 30
0.0
 10
1427.099962744335
 20
766.3646419578205
 30
0.0
 10
1427.397231104073
 20
765.6489254859088
 30
0.0
 10
1427.433802722662
 20
765.1453411582324
 30
0.0
 10
1427.452114103603
 20
764.8931968776143
 30
0.0
  0
SPLINE
  5
139
330
1F
100
AcDbEntity
  8
0
  6
Continuous
 62
     7
370
    15
100
AcDbSpline
210
0.0
220
0.0
230
1.0
 70
    24
 71
     3
 72
    13
 73
     9
 74
     0
 42
0.00000001
 43
0.00000001
 12
1.0
 22
0.0
 32
0.0
 13
1.0
 23
0.0
 33
0.0
 40
0.0
 40
0.0
 40
0.0
 40
0.0
 40
0.1275360740474346
 40
0.2545887198592411
 40
0.4999418984797862
 40
0.7453299828649758
 40
0.8725055605771154
 40
0.9999999999999999
 40
0.9999999999999999
 40
0.9999999999999999
 40
0.9999999999999999
 10
1426.052114103603
 20
767.4309123857042
 30
0.0
 10
1426.052114103604
 20
767.423645141833
 30
0.0
 10
1426.052114103604
 20
767.409138200735
 30
0.0
 10
1426.052114103603
 20
767.2486470757586
 30
0.0
 10
1426.052114103603
 20
766.882867670388
 30
0.0
 10
1426.052114103603
 20
766.3352926801485
 30
0.0
 10
1426.052114103603
 20
765.8354456962121
 30
0.0
 10
1426.052114103603
 20
765.569615847546
 30
0.0
 10
1426.052114103603
 20
765.4365345059778
 30
0.0
  0
SPLINE
  5
13A
330
1F
100
AcDbEntity
  8
0
  6
Continuous
 62
     7
370
    15
100
AcDbSpline
210
0.0
220
0.0
230
1.0
 70
     8
 71
     3
 72
    11
 73
     7
 74
     0
 42
0.00000001
 43
0.00000001
 12
1.0
 22
0.0
 32
0.0
 13
1.0
 23
0.0
 33
0.0
 40
0.0
 40
0.0
 40
0.0
 40
0.0
 40
0.2514201137491424
 40
0.502138016520487
 40
0.7627995894819225
 40
1.0
 40
1.0
 40
1.0
 40
1.0
 10
1427.452114103603
 20
709.9686278937941
 30
0.0
 10
1427.433802731951
 20
709.7164836165668
 30
0.0
 10
1427.397231131914
 20
709.2128992956633
 30
0.0
 10
1427.099965062715
 20
708.4971886259033
 30
0.0
 10
1426.65635243053
 20
707.8738166990802
 30
0.0
 10
1426.247098339456
 20
707.5738350624878
 30
0.0
 10
1426.052114103603
 20
707.4309123857042
 30
0.0
  0
SPLINE
  5
13B
330
1F
100
AcDbEntity
  8
0
  6
Continuous
 62
     7
370
    15
100
AcDbSpline
210
0.0
220
0.0
230
1.0
 70
    24
 71
     3
 72
    13
 73
     9
 74
     0
 42
0.00000001
 43
0.00000001
 12
1.0
 22
0.0
 32
0.0
 13
1.0
 23
0.0
 33
0.0
 40
0.0
 40
0.0
 40
0.0
 40
0.0
 40
0.127587244129452
 40
0.2546759233236692
 40
0.5000487292309115
 40
0.7453982611490083
 40
0.8725397565424704
 40
1.0
 40
1.0
 40
1.0
 40
1.0
 10
1426.052114103603
 20
709.4248957156111
 30
0.0
 10
1426.052114103603
 20
709.2917242141593
 30
0.0
 10
1426.052114103603
 20
709.0259015974544
 30
0.0
 10
1426.052114103604
 20
708.5261577643153
 30
0.0
 10
1426.052114103603
 20
707.9787543890939
 30
0.0
 10
1426.052114103603
 20
707.6130016129155
 30
0.0
 10
1426.052114103603
 20
707.4527412747344
 30
0.0
 10
1426.052114103603
 20
707.4381947525427
 30
0.0
 10
1426.052114103603
 20
707.4309123857042
 30
0.0
  0
LINE
  5
13C
330
1F
100
AcDbEntity
  8
0
  6
Continuous
 62
     7
370
    15
100
AcDbLine
 10
1367.7021141036
 20
798.4809123857
 30
0.0
 11
1422.4021141036
 21
798.4809123857
 31
0.0
  0
LINE
  5
13D
330
1F
100
AcDbEntity
  8
0
  6
Continuous
 62
     7
370
    15
100
AcDbLine
 10
1422.4021141036
 20
798.4809123857
 30
0.0
 11
1422.4021141036
 21
679.4809123857
 31
0.0
  0
LINE
  5
13E
330
1F
100
AcDbEntity
  8
0
  6
Continuous
 62
     7
370
    15
100
AcDbLine
 10
1367.7021141036
 20
679.4809123857
 30
0.0
 11
1422.4021141036
 21
679.4809123857
 31
0.0
  0
LINE
  5
13F
330
1F
100
AcDbEntity
  8
0
  6
Continuous
 62
     7
370
    15
100
AcDbLine
 10
1367.7021141036
 20
798.4809123857
 30
0.0
 11
1367.7021141036
 21
679.4809123857
 31
0.0
  0
SPLINE
  5
140
330
1F
100
AcDbEntity
  8
0
  6
Continuous
 62
     7
370
    15
100
AcDbSpline
210
0.0
220
0.0
230
1.0
 70
     8
 71
     3
 72
    12
 73
     8
 74
     0
 42
0.00000001
 43
0.00000001
 12
1.0
 22
0.0
 32
0.0
 13
1.0
 23
0.0
 33
0.0
 40
0.0
 40
0.0
 40
0.0
 40
0.0
 40
0.2301693782020289
 40
0.460422164295705
 40
0.6906753391241459
 40
0.9209283614222281
 40
1.0
 40
1.0
 40
1.0
 40
1.0
 10
1366.459185171417
 20
800.5309123857043
 30
0.0
 10
1366.55457473617
 20
800.5048350774101
 30
0.0
 10
1366.745388432581
 20
800.4526710110275
 30
0.0
 10
1367.031680175179
 20
800.0479610263185
 30
0.0
 10
1367.317795305214
 20
799.4599331705616
 30
0.0
 10
1367.541910112624
 20
798.8959085247295
 30
0.0
 10
1367.669498983194
 20
798.5653993511113
 30
0.0
 10
1367.702114103604
 20
798.4809123857042
 30
0.0
  0
LINE
  5
141
330
1F
100
AcDbEntity
  8
0
  6
Continuous
 62
     7
370
    15
100
AcDbLine
 10
1366.4591851714
 20
800.5309123857
 30
0.0
 11
1422.3314034254
 21
800.5309123857
 31
0.0
  0
SPLINE
  5
142
330
1F
100
AcDbEntity
  8
0
  6
Continuous
 62
     7
370
    15
100
AcDbSpline
210
0.0
220
0.0
230
1.0
 70
     8
 71
     3
 72
    11
 73
     7
 74
     0
 42
0.00000001
 43
0.00000001
 12
1.0
 22
0.0
 32
0.0
 13
1.0
 23
0.0
 33
0.0
 40
0.0
 40
0.0
 40
0.0
 40
0.0
 40
0.2499999999999974
 40
0.4999999999999976
 40
0.7500000000000029
 40
1.0
 40
1.0
 40
1.0
 40
1.0
 10
1422.402114103602
 20
798.4809123857042
 30
0.0
 10
1422.396221547087
 20
798.7495383255069
 30
0.0
 10
1422.384436434057
 20
799.2867902051127
 30
0.0
 10
1422.366758764513
 20
799.9644073261612
 30
0.0
 10
1422.349081094969
 20
800.4384682130622
 30
0.0
 10
1422.337295981939
 20
800.5000976614903
 30
0.0
 10
1422.331403425424
 20
800.5309123857043
 30
0.0
  0
SPLINE
  5
143
330
1F
100
AcDbEntity
  8
0
  6
Continuous
 62
     7
370
    15
100
AcDbSpline
210
0.0
220
0.0
230
1.0
 70
     8
 71
     3
 72
    11
 73
     7
 74
     0
 42
0.00000001
 43
0.00000001
 12
1.0
 22
0.0
 32
0.0
 13
1.0
 23
0.0
 33
0.0
 40
0.0
 40
0.0
 40
0.0
 40
0.0
 40
0.2543030279683746
 40
0.5087793961832465
 40
0.7632567853903522
 40
1.0
 40
1.0
 40
1.0
 40
1.0
 10
1366.459185171417
 20
799.7309123857042
 30
0.0
 10
1366.564561999957
 20
799.7114537141141
 30
0.0
 10
1366.775387484911
 20
799.6725231073444
 30
0.0
 10
1367.091642720603
 20
799.3735517743173
 30
0.0
 10
1367.400709960007
 20
798.957580485673
 30
0.0
 10
1367.604093592082
 20
798.6359309943658
 30
0.0
 10
1367.702114103604
 20
798.4809123857042
 30
0.0
  0
LINE
  5
144
330
1F
100
AcDbEntity
  8
0
  6
Continuous
 62
     7
370
    15
100
AcDbLine
 10
1366.4591851714
 20
799.7309123857
 30
0.0
 11
1366.4591851714
 21
800.5309123857
 31
0.0
  0
SPLINE
  5
145
330
1F
100
AcDbEntity
  8
0
  6
Continuous
 62
     7
370
    15
100
AcDbSpline
210
0.0
220
0.0
230
1.0
 70
     8
 71
     3
 72
    12
 73
     8
 74
     0
 42
0.00000001
 43
0.00000001
 12
1.0
 22
0.0
 32
0.0
 13
1.0
 23
0.0
 33
0.0
 40
0.0
 40
0.0
 40
0.0
 40
0.0
 40
0.2905041470770333
 40
0.502170236174953
 40
0.7241740503705267
 40
0.8552184027910903
 40
1.0
 40
1.0
 40
1.0
 40
1.0
 10
1367.702114103596
 20
798.4809123857044
 30
0.0
 10
1367.412959170143
 20
798.6569251206716
 30
0.0
 10
1366.913121206782
 20
798.9611836229259
 30
0.0
 10
1366.278784673247
 20
799.355349375531
 30
0.0
 10
1365.890837037012
 20
799.548469640397
 30
0.0
 10
1365.686576661846
 20
799.660504232137
 30
0.0
 10
1365.663976810926
 20
799.702039416079
 30
0.0
 10
1365.652114103602
 20
799.7238413178925
 30
0.0
  0
LINE
  5
146
330
1F
100
AcDbEntity
  8
0
  6
Continuous
 62
     7
370
    15
100
AcDbLine
 10
1365.6521141036
 20
799.7238413179
 30
0.0
 11
1366.4521141036
 21
799.7238413179
 31
0.0
  0
SPLINE
  5
147
330
1F
100
AcDbEntity
  8
0
  6
Continuous
 62
     7
370
    15
100
AcDbSpline
210
0.0
220
0.0
230
1.0
 70
     8
 71
     3
 72
    13
 73
     9
 74
     0
 42
0.00000001
 43
0.00000001
 12
1.0
 22
0.0
 32
0.0
 13
1.0
 23
0.0
 33
0.0
 40
0.0
 40
0.0
 40
0.0
 40
0.0
 40
0.3126722596679118
 40
0.532156619752513
 40
0.6354859263079451
 40
0.7470179127922786
 40
0.868158616000955
 40
0.9999999999999999
 40
0.9999999999999999
 40
0.9999999999999999
 40
0.9999999999999999
 10
1367.702114103599
 20
798.4809123857044
 30
0.0
 10
1367.526886062055
 20
798.6558100771854
 30
0.0
 10
1367.228654417289
 20
798.9534794783657
 30
0.0
 10
1366.903572883134
 20
799.2847148096052
 30
0.0
 10
1366.703217840811
 20
799.4632668844073
 30
0.0
 10
1366.573443547173
 20
799.570097293071
 30
0.0
 10
1366.473371756485
 20
799.6601507231586
 30
0.0
 10
1366.459397023139
 20
799.702020777344
 30
0.0
 10
1366.452114103602
 20
799.7238413178925
 30
0.0
  0
SPLINE
  5
148
330
1F
100
AcDbEntity
  8
0
  6
Continuous
 62
     7
370
    15
100
AcDbSpline
210
0.0
220
0.0
230
1.0
 70
     8
 71
     3
 72
    12
 73
     8
 74
     0
 42
0.00000001
 43
0.00000001
 12
1.0
 22
0.0
 32
0.0
 13
1.0
 23
0.0
 33
0.0
 40
0.0
 40
0.0
 40
0.0
 40
0.0
 40
0.1888376486366607
 40
0.3778471311120302
 40
0.5698173518508455
 40
0.775581203755288
 40
1.0
 40
1.0
 40
1.0
 40
1.0
 10
1365.652114103599
 20
678.2379834535161
 30
0.0
 10
1365.672714897098
 20
678.2596555315207
 30
0.0
 10
1365.713935229899
 20
678.3030194081542
 30
0.0
 10
1366.029442026316
 20
678.4667176274484
 30
0.0
 10
1366.479281381896
 20
678.736014892612
 30
0.0
 10
1367.049077403985
 20
679.0885408343353
 30
0.0
 10
1367.47823175307
 20
679.346394577972
 30
0.0
 10
1367.702114103599
 20
679.4809123857057
 30
0.0
  0
LWPOLYLINE
  5
149
330
1F
100
AcDbEntity
  8
0
  6
Continuous
 62
     7
370
    15
100
AcDbPolyline
 90
        2
 70
   128
 43
0.0
 10
1367.7021141036
 20
679.4809123857
 10
1367.7021141036
 20
679.4809123857
  0
SPLINE
  5
14A
330
1F
100
AcDbEntity
  8
0
  6
Continuous
 62
     7
370
    15
100
AcDbSpline
210
0.0
220
0.0
230
1.0
 70
     8
 71
     3
 72
    12
 73
     8
 74
     0
 42
0.00000001
 43
0.00000001
 12
1.0
 22
0.0
 32
0.0
 13
1.0
 23
0.0
 33
0.0
 40
0.0
 40
0.0
 40
0.0
 40
0.0
 40
0.175942154499778
 40
0.3356061294352354
 40
0.5051414427420123
 40
0.7914130039670946
 40
1.0
 40
1.0
 40
1.0
 40
1.0
 10
1366.452114103599
 20
678.2379834535161
 30
0.0
 10
1366.465668904779
 20
678.260644273664
 30
0.0
 10
1366.491524416053
 20
678.3038693334074
 30
0.0
 10
1366.672548784215
 20
678.4594285987197
 30
0.0
 10
1366.952960254974
 20
678.7299316933249
 30
0.0
 10
1367.306551177531
 20
679.0909673173046
 30
0.0
 10
1367.584821042175
 20
679.3652851419835
 30
0.0
 10
1367.702114103599
 20
679.4809123857057
 30
0.0
  0
LINE
  5
14B
330
1F
100
AcDbEntity
  8
0
  6
Continuous
 62
     7
370
    15
100
AcDbLine
 10
1365.6521141036
 20
678.2379834535
 30
0.0
 11
1366.4521141036
 21
678.2379834535
 31
0.0
  0
LINE
  5
14C
330
1F
100
AcDbEntity
  8
0
  6
Continuous
 62
     7
370
    15
100
AcDbLine
 10
1365.6521141036
 20
799.7238413179
 30
0.0
 11
1365.6521141036
 21
678.2379834535
 31
0.0
  0
SPLINE
  5
14D
330
1F
100
AcDbEntity
  8
0
  6
Continuous
 62
     7
370
    15
100
AcDbSpline
210
0.0
220
0.0
230
1.0
 70
     8
 71
     3
 72
    11
 73
     7
 74
     0
 42
0.00000001
 43
0.00000001
 12
1.0
 22
0.0
 32
0.0
 13
1.0
 23
0.0
 33
0.0
 40
0.0
 40
0.0
 40
0.0
 40
0.0
 40
0.2499999999999947
 40
0.4999999999999983
 40
0.7499999999999996
 40
0.9999999999999999
 40
0.9999999999999999
 40
0.9999999999999999
 40
0.9999999999999999
 10
1367.702114103603
 20
679.4809123857061
 30
0.0
 10
1367.598536692587
 20
679.2122864459031
 30
0.0
 10
1367.391381870555
 20
678.6750345662973
 30
0.0
 10
1367.080649637508
 20
677.9974174452477
 30
0.0
 10
1366.76991740446
 20
677.5233565583464
 30
0.0
 10
1366.562762582428
 20
677.4617271099182
 30
0.0
 10
1366.459185171413
 20
677.4309123857042
 30
0.0
  0
LINE
  5
14E
330
1F
100
AcDbEntity
  8
0
  6
Continuous
 62
     7
370
    15
100
AcDbLine
 10
1366.4591851714
 20
678.2309123857
 30
0.0
 11
1366.4591851714
 21
677.4309123857
 31
0.0
  0
SPLINE
  5
14F
330
1F
100
AcDbEntity
  8
0
  6
Continuous
 62
     7
370
    15
100
AcDbSpline
210
0.0
220
0.0
230
1.0
 70
     8
 71
     3
 72
    11
 73
     7
 74
     0
 42
0.00000001
 43
0.00000001
 12
1.0
 22
0.0
 32
0.0
 13
1.0
 23
0.0
 33
0.0
 40
0.0
 40
0.0
 40
0.0
 40
0.0
 40
0.2499999999999983
 40
0.4999999999999934
 40
0.7499999999999988
 40
0.9999999999999999
 40
0.9999999999999999
 40
0.9999999999999999
 40
0.9999999999999999
 10
1367.702114103603
 20
679.4809123857054
 30
0.0
 10
1367.598536692587
 20
679.3171160809475
 30
0.0
 10
1367.391381870556
 20
678.9895234714317
 30
0.0
 10
1367.080649637508
 20
678.5763423000601
 30
0.0
 10
1366.76991740446
 20
678.2872807836568
 30
0.0
 10
1366.562762582428
 20
678.2497018516883
 30
0.0
 10
1366.459185171413
 20
678.2309123857042
 30
0.0
  0
LINE
  5
150
330
1F
100
AcDbEntity
  8
0
  6
Continuous
 62
     7
370
    15
100
AcDbLine
 10
1422.2606927474
 20
677.4309123857
 30
0.0
 11
1366.4591851714
 21
677.4309123857
 31
0.0
  0
SPLINE
  5
151
330
1F
100
AcDbEntity
  8
0
  6
Continuous
 62
     7
370
    15
100
AcDbSpline
210
0.0
220
0.0
230
1.0
 70
     8
 71
     3
 72
    11
 73
     7
 74
     0
 42
0.00000001
 43
0.00000001
 12
1.0
 22
0.0
 32
0.0
 13
1.0
 23
0.0
 33
0.0
 40
0.0
 40
0.0
 40
0.0
 40
0.0
 40
0.2499999999999976
 40
0.5000000000000009
 40
0.7499999999999923
 40
1.0
 40
1.0
 40
1.0
 40
1.0
 10
1422.260692747364
 20
677.4309123857042
 30
0.0
 10
1422.272477860384
 20
677.461727109918
 30
0.0
 10
1422.296048086424
 20
677.5233565583457
 30
0.0
 10
1422.331403425483
 20
677.9974174452466
 30
0.0
 10
1422.366758764543
 20
678.6750345662954
 30
0.0
 10
1422.390328990582
 20
679.2122864459013
 30
0.0
 10
1422.402114103602
 20
679.4809123857042
 30
0.0
  0
LINE
  5
152
330
1F
100
AcDbEntity
  8
0
  6
Continuous
 62
     7
370
    15
100
AcDbLine
 10
1422.4021141036
 20
798.4809123857
 30
0.0
 11
1424.4521141036
 21
798.4809123857
 31
0.0
  0
LINE
  5
153
330
1F
100
AcDbEntity
  8
0
  6
Continuous
 62
     7
370
    15
100
AcDbLine
 10
1424.4521141036
 20
798.4809123857
 30
0.0
 11
1424.4521141036
 21
679.4809123857
 31
0.0
  0
LINE
  5
154
330
1F
100
AcDbEntity
  8
0
  6
Continuous
 62
     7
370
    15
100
AcDbLine
 10
1424.4521141036
 20
679.4809123857
 30
0.0
 11
1422.4021141036
 21
679.4809123857
 31
0.0
  0
LINE
  5
155
330
1F
100
AcDbEntity
  8
0
  6
Continuous
 62
     7
370
    15
100
AcDbLine
 10
1422.4021141036
 20
677.4309123857
 30
0.0
 11
1422.2606927474
 21
677.4309123857
 31
0.0
  0
LINE
  5
156
330
1F
100
AcDbEntity
  8
0
  6
Continuous
 62
     7
370
    15
100
AcDbLine
 10
1422.4021141036
 20
678.2309123857
 30
0.0
 11
1422.4021141036
 21
677.4309123857
 31
0.0
  0
ARC
  5
157
330
1F
100
AcDbEntity
  8
0
  6
Continuous
 62
     7
370
    15
100
AcDbCircle
 10
1422.4021141036
 20
679.4809123857
 30
0.0
 40
1.25
100
AcDbArc
 50
270.0
 51
0.0
  0
ARC
  5
158
330
1F
100
AcDbEntity
  8
0
  6
Continuous
 62
     7
370
    15
100
AcDbCircle
 10
1422.4021141036
 20
679.4809123857
 30
0.0
 40
2.050000000000182
100
AcDbArc
 50
270.0
 51
0.0
  0
ARC
  5
159
330
1F
100
AcDbEntity
  8
0
  6
Continuous
 62
     7
370
    15
100
AcDbCircle
 10
1422.4021141036
 20
798.4809123857
 30
0.0
 40
1.25
100
AcDbArc
 50
0.0
 51
90.0
  0
LINE
  5
15A
330
1F
100
AcDbEntity
  8
0
  6
Continuous
 62
     7
370
    15
100
AcDbLine
 10
1422.4021141036
 20
799.7309123857
 30
0.0
 11
1422.4021141036
 21
800.5309123857
 31
0.0
  0
ARC
  5
15B
330
1F
100
AcDbEntity
  8
0
  6
Continuous
 62
     7
370
    15
100
AcDbCircle
 10
1422.4021141036
 20
798.4809123857
 30
0.0
 40
2.050000000000068
100
AcDbArc
 50
0.0
 51
90.0
  0
LINE
  5
15C
330
1F
100
AcDbEntity
  8
0
  6
Continuous
 62
     7
370
    15
100
AcDbLine
 10
1422.3314034256
 20
800.5309123857
 30
0.0
 11
1422.4021141036
 21
800.5309123857
 31
0.0
  0
LINE
  5
15D
330
1F
100
AcDbEntity
  8
0
  6
Continuous
 62
     7
370
    15
100
AcDbLine
 10
1415.7408938652
 20
852.5319542147
 30
0.0
 11
1395.6547892308
 21
914.3506277739
 31
0.0
  0
LINE
  5
15E
330
1F
100
AcDbEntity
  8
0
  6
Continuous
 62
     7
370
    15
100
AcDbLine
 10
1407.8847724488
 20
909.0712895389
 30
0.0
 11
1406.4014223712
 21
913.6365716525
 31
0.0
  0
SPLINE
  5
15F
330
1F
100
AcDbEntity
  8
0
  6
Continuous
 62
     7
370
    15
100
AcDbSpline
210
0.0
220
0.0
230
1.0
 70
     8
 71
     3
 72
     9
 73
     5
 74
     0
 42
0.00000001
 43
0.00000001
 12
1.0
 22
0.0
 32
0.0
 13
1.0
 23
0.0
 33
0.0
 40
0.0
 40
0.0
 40
0.0
 40
0.0
 40
0.520974465233518
 40
1.0
 40
1.0
 40
1.0
 40
1.0
 10
1407.628304116073
 20
907.8263954017451
 30
0.0
 10
1407.579694406639
 20
908.0669084243572
 30
0.0
 10
1407.486389047783
 20
908.528568330288
 30
0.0
 10
1407.755744371038
 20
908.8955134545322
 30
0.0
 10
1407.884772448803
 20
909.0712895389033
 30
0.0
  0
LINE
  5
160
330
1F
100
AcDbEntity
  8
0
  6
Continuous
 62
     7
370
    15
100
AcDbLine
 10
1421.5928233189
 20
864.8480245467
 30
0.0
 11
1407.6283041161
 21
907.8263954017
 31
0.0
  0
SPLINE
  5
161
330
1F
100
AcDbEntity
  8
0
  6
Continuous
 62
     7
370
    15
100
AcDbSpline
210
0.0
220
0.0
230
1.0
 70
     8
 71
     3
 72
     9
 73
     5
 74
     0
 42
0.00000001
 43
0.00000001
 12
1.0
 22
0.0
 32
0.0
 13
1.0
 23
0.0
 33
0.0
 40
0.0
 40
0.0
 40
0.0
 40
0.0
 40
0.4790255347664666
 40
1.0
 40
1.0
 40
1.0
 40
1.0
 10
1422.532040973062
 20
863.9916323372053
 30
0.0
 10
1422.3243364753
 20
864.0579973754246
 30
0.0
 10
1421.890738508831
 20
864.1965391303057
 30
0.0
 10
1421.69486724553
 20
864.6248733537204
 30
0.0
 10
1421.592823318878
 20
864.8480245467052
 30
0.0
  0
LINE
  5
162
330
1F
100
AcDbEntity
  8
0
  6
Continuous
 62
     7
370
    15
100
AcDbLine
 10
1424.0153910506
 20
859.4263502236
 30
0.0
 11
1422.5320409731
 21
863.9916323372
 31
0.0
  0
LINE
  5
163
330
1F
100
AcDbEntity
  8
0
  6
Continuous
 62
     7
370
    15
100
AcDbLine
 10
1401.5830160505
 20
910.8737873254
 30
0.0
 11
1400.5289032811
 21
910.8924817419
 31
0.0
  0
SPLINE
  5
164
330
1F
100
AcDbEntity
  8
0
  6
Continuous
 62
     7
370
    15
100
AcDbSpline
210
0.0
220
0.0
230
1.0
 70
     8
 71
     3
 72
    10
 73
     6
 74
     0
 42
0.00000001
 43
0.00000001
 12
1.0
 22
0.0
 32
0.0
 13
1.0
 23
0.0
 33
0.0
 40
0.0
 40
0.0
 40
0.0
 40
0.0
 40
0.456216198052415
 40
0.9122570840152505
 40
1.0
 40
1.0
 40
1.0
 40
1.0
 10
1399.774615407454
 20
910.8100034036066
 30
0.0
 10
1399.762579123342
 20
910.8474471147582
 30
0.0
 10
1399.738511180349
 20
910.9223201484108
 30
0.0
 10
1399.722445782735
 20
911.0035682549354
 30
0.0
 10
1399.734721158489
 20
911.0444622109069
 30
0.0
 10
1399.736701867108
 20
911.0510607063572
 30
0.0
  0
LINE
  5
165
330
1F
100
AcDbEntity
  8
0
  6
Continuous
 62
     7
370
    15
100
AcDbLine
 10
1400.2009132302
 20
909.5461113322
 30
0.0
 11
1399.7746154075
 21
910.8100034036
 31
0.0
  0
SPLINE
  5
166
330
1F
100
AcDbEntity
  8
0
  6
Continuous
 62
     7
370
    15
100
AcDbSpline
210
0.0
220
0.0
230
1.0
 70
     8
 71
     3
 72
    13
 73
     9
 74
     0
 42
0.00000001
 43
0.00000001
 12
1.0
 22
0.0
 32
0.0
 13
1.0
 23
0.0
 33
0.0
 40
0.0
 40
0.0
 40
0.0
 40
0.0
 40
0.2502198136933822
 40
0.3752570654256078
 40
0.4999161487378849
 40
0.6245567341584172
 40
0.7497048040157931
 40
1.0
 40
1.0
 40
1.0
 40
1.0
 10
1401.558364888602
 20
908.8871495431156
 30
0.0
 10
1401.392503960158
 20
908.8931816472611
 30
0.0
 10
1401.143760727726
 20
908.9022280519665
 30
0.0
 10
1400.81366577805
 20
908.962330154974
 30
0.0
 10
1400.581602242288
 20
909.0414609356118
 30
0.0
 10
1400.420718135296
 20
909.1607993812128
 30
0.0
 10
1400.279146343834
 20
909.3312342017043
 30
0.0
 10
1400.232206452049
 20
909.4601605448262
 30
0.0
 10
1400.200913230189
 20
909.5461113322158
 30
0.0
  0
LINE
  5
167
330
1F
100
AcDbEntity
  8
0
  6
Continuous
 62
     7
370
    15
100
AcDbLine
 10
1404.1263212158
 20
908.8412031963
 30
0.0
 11
1401.5583648886
 21
908.8871495431
 31
0.0
  0
SPLINE
  5
168
330
1F
100
AcDbEntity
  8
0
  6
Continuous
 62
     7
370
    15
100
AcDbSpline
210
0.0
220
0.0
230
1.0
 70
     8
 71
     3
 72
    12
 73
     8
 74
     0
 42
0.00000001
 43
0.00000001
 12
1.0
 22
0.0
 32
0.0
 13
1.0
 23
0.0
 33
0.0
 40
0.0
 40
0.0
 40
0.0
 40
0.0
 40
0.1669308933445277
 40
0.3331906553776512
 40
0.4994050497764629
 40
0.6662498299194723
 40
1.0
 40
1.0
 40
1.0
 40
1.0
 10
1405.153467382595
 20
909.203663038043
 30
0.0
 10
1405.145863581777
 20
909.1612127634987
 30
0.0
 10
1405.130686550568
 20
909.0764828820909
 30
0.0
 10
1405.029861405128
 20
908.9620601410834
 30
0.0
 10
1404.84038081426
 20
908.8898438683129
 30
0.0
 10
1404.53791191541
 20
908.8420667330639
 30
0.0
 10
1404.290963475509
 20
908.8415486235218
 30
0.0
 10
1404.12632121577
 20
908.8412031962501
 30
0.0
  0
LINE
  5
169
330
1F
100
AcDbEntity
  8
0
  6
Continuous
 62
     7
370
    15
100
AcDbLine
 10
1402.6371267076
 20
910.8550733154
 30
0.0
 11
1402.6634835322
 21
911.2966694656
 31
0.0
  0
LINE
  5
16A
330
1F
100
AcDbEntity
  8
0
  6
Continuous
 62
     7
370
    15
100
AcDbLine
 10
1403.8669272438
 20
910.8333097223
 30
0.0
 11
1402.6371267076
 21
910.8550733154
 31
0.0
  0
LINE
  5
16B
330
1F
100
AcDbEntity
  8
0
  6
Continuous
 62
     7
370
    15
100
AcDbLine
 10
1404.3522467963
 20
909.4003391635
 30
0.0
 11
1403.8669272438
 21
910.8333097223
 31
0.0
  0
SPLINE
  5
16C
330
1F
100
AcDbEntity
  8
0
  6
Continuous
 62
     7
370
    15
100
AcDbSpline
210
0.0
220
0.0
230
1.0
 70
     8
 71
     3
 72
    16
 73
    12
 74
     0
 42
0.00000001
 43
0.00000001
 12
1.0
 22
0.0
 32
0.0
 13
1.0
 23
0.0
 33
0.0
 40
0.0
 40
0.0
 40
0.0
 40
0.0
 40
0.0000534006947269
 40
0.1251138953008287
 40
0.2500827936186552
 40
0.3750495760864098
 40
0.5000146416718325
 40
0.6249778542943555
 40
0.749940890561237
 40
0.8749031757843542
 40
0.9999999999999999
 40
0.9999999999999999
 40
0.9999999999999999
 40
0.9999999999999999
 10
1398.533758841965
 20
914.1593298845114
 30
0.0
 10
1398.53373192206
 20
914.1593336075086
 30
0.0
 10
1398.470660567838
 20
914.1680563158203
 30
0.0
 10
1398.692390074329
 20
914.1366890782696
 30
0.0
 10
1399.207925039868
 20
914.068565393994
 30
0.0
 10
1400.045656597996
 20
913.9748777842689
 30
0.0
 10
1401.020609765267
 20
913.8937038411199
 30
0.0
 10
1402.002862563569
 20
913.8428255142801
 30
0.0
 10
1402.829644292032
 20
913.8246305054013
 30
0.0
 10
1403.408742752367
 20
913.8261773701722
 30
0.0
 10
1403.484637569665
 20
913.8272946543465
 30
0.0
 10
1403.522605395111
 20
913.827853596999
 30
0.0
  0
SPLINE
  5
16D
330
1F
100
AcDbEntity
  8
0
  6
Continuous
 62
     7
370
    15
100
AcDbSpline
210
0.0
220
0.0
230
1.0
 70
     8
 71
     3
 72
    17
 73
    13
 74
     0
 42
0.00000001
 43
0.00000001
 12
1.0
 22
0.0
 32
0.0
 13
1.0
 23
0.0
 33
0.0
 40
0.0
 40
0.0
 40
0.0
 40
0.0
 40
0.1239489222954628
 40
0.2494652926613108
 40
0.3120385011415104
 40
0.374537394846264
 40
0.4998289172676538
 40
0.6248446851548602
 40
0.7497730788568184
 40
0.8749687260506194
 40
0.9373854777635947
 40
1.0
 40
1.0
 40
1.0
 40
1.0
 10
1401.507056810386
 20
907.8540711026088
 30
0.0
 10
1401.497891742374
 20
907.9183524401716
 30
0.0
 10
1401.479445705639
 20
908.0477280119054
 30
0.0
 10
1401.332182591719
 20
908.2009245870456
 30
0.0
 10
1401.171288888883
 20
908.3026566747614
 30
0.0
 10
1400.980505284124
 20
908.3853440690486
 30
0.0
 10
1400.706398050448
 20
908.4498345624578
 30
0.0
 10
1400.370965685778
 20
908.4581902691533
 30
0.0
 10
1400.083742389047
 20
908.3878663666678
 30
0.0
 10
1399.916552266535
 20
908.2787849424723
 30
0.0
 10
1399.839195505278
 20
908.1693963119524
 30
0.0
 10
1399.828911848783
 20
908.1080009787484
 30
0.0
 10
1399.823761887353
 20
908.077254755546
 30
0.0
  0
SPLINE
  5
16E
330
1F
100
AcDbEntity
  8
0
  6
Continuous
 62
     7
370
    15
100
AcDbSpline
210
0.0
220
0.0
230
1.0
 70
     8
 71
     3
 72
    13
 73
     9
 74
     0
 42
0.00000001
 43
0.00000001
 12
1.0
 22
0.0
 32
0.0
 13
1.0
 23
0.0
 33
0.0
 40
0.0
 40
0.0
 40
0.0
 40
0.0
 40
0.1251014890283472
 40
0.250035314921529
 40
0.3738121351156921
 40
0.499950631519236
 40
0.7494708103748764
 40
0.9999999999999999
 40
0.9999999999999999
 40
0.9999999999999999
 40
0.9999999999999999
 10
1419.804976501613
 20
855.9711907819536
 30
0.0
 10
1419.807026732598
 20
855.9782270484058
 30
0.0
 10
1419.811124446814
 20
855.9922901511865
 30
0.0
 10
1419.874459540122
 20
856.0626932473104
 30
0.0
 10
1419.986036081812
 20
856.1716962045745
 30
0.0
 10
1420.18519782647
 20
856.353824171286
 30
0.0
 10
1420.480290416748
 20
856.6099690373355
 30
0.0
 10
1420.721845051608
 20
856.8118803593331
 30
0.0
 10
1420.842866076203
 20
856.9130397309167
 30
0.0
  0
SPLINE
  5
16F
330
1F
100
AcDbEntity
  8
0
  6
Continuous
 62
     7
370
    15
100
AcDbSpline
210
0.0
220
0.0
230
1.0
 70
     8
 71
     3
 72
    13
 73
     9
 74
     0
 42
0.00000001
 43
0.00000001
 12
1.0
 22
0.0
 32
0.0
 13
1.0
 23
0.0
 33
0.0
 40
0.0
 40
0.0
 40
0.0
 40
0.0
 40
0.2505319910837852
 40
0.5001531823991264
 40
0.6313897146359593
 40
0.7500675692870126
 40
0.8748998966087019
 40
1.0
 40
1.0
 40
1.0
 40
1.0
 10
1420.842866076203
 20
856.9130397309167
 30
0.0
 10
1420.96359074499
 20
857.013211061363
 30
0.0
 10
1421.204601192504
 20
857.2131895530964
 30
0.0
 10
1421.507706531835
 20
857.4551715073909
 30
0.0
 10
1421.718542959823
 20
857.6147288708455
 30
0.0
 10
1421.843856623858
 20
857.7031927849275
 30
0.0
 10
1421.914958195004
 20
857.7446428624913
 30
0.0
 10
1421.924199685934
 20
857.7416284285695
 30
0.0
 10
1421.928825382037
 20
857.7401195967857
 30
0.0
  0
LINE
  5
170
330
1F
100
AcDbEntity
  8
0
  6
Continuous
 62
     7
370
    15
100
AcDbLine
 10
1419.8666722234
 20
855.973272321
 30
0.0
 11
1420.0686207076
 21
856.1415771197
 31
0.0
  0
LWPOLYLINE
  5
171
330
1F
100
AcDbEntity
  8
0
  6
Continuous
 62
     7
370
    15
100
AcDbPolyline
 90
       12
 70
   128
 43
0.0
 10
1419.1485317136
 20
855.3735526714
 10
1419.1960950865
 20
855.4161215454
 10
1419.0993809027
 20
855.353598132
 10
1418.8368069743
 20
855.1600190636
 10
1418.4520761167
 20
854.861019132
 10
1418.007181129
 20
854.4984667597
 10
1417.5710553207
 20
854.1259594614
 10
1417.2084570093
 20
853.8019431038
 10
1416.9721847572
 20
853.5802964893
 10
1416.9100243112
 20
853.5183293624
 10
1416.8920510939
 20
853.4961173521
 10
1416.8920510939
 20
853.4961173521
  0
LINE
  5
172
330
1F
100
AcDbEntity
  8
0
  6
Continuous
 62
     7
370
    15
100
AcDbLine
 10
1408.4516267533
 20
907.326691378
 30
0.0
 11
1421.9651866686
 21
865.7362304981
 31
0.0
  0
ARC
  5
173
330
1F
100
AcDbEntity
  8
0
  6
Continuous
 62
     7
370
    15
100
AcDbCircle
 10
1421.1733952153
 20
865.5460178339
 30
0.0
 40
0.814318465379741
100
AcDbArc
 50
301.001895257
 51
13.508234223
  0
ARC
  5
174
330
1F
100
AcDbEntity
  8
0
  6
Continuous
 62
     7
370
    15
100
AcDbCircle
 10
1407.6992498128
 20
907.0151733168
 30
0.0
 40
0.8143184653804576
100
AcDbArc
 50
22.491765777
 51
94.998104743
  0
SPLINE
  5
175
330
1F
100
AcDbEntity
  8
0
  6
Continuous
 62
     7
370
    15
100
AcDbSpline
210
0.0
220
0.0
230
1.0
 70
    11
 71
     3
 72
    27
 73
    23
 74
     0
 42
0.00000001
 43
0.00000001
 12
1.0
 22
0.0
 32
0.0
 13
1.0
 23
0.0
 33
0.0
 40
0.0
 40
0.0
 40
0.0
 40
0.0
 40
0.0620932355616817
 40
0.1249696189820292
 40
0.1563172078349542
 40
0.1876169837969312
 40
0.2503672336006318
 40
0.3129762532974529
 40
0.3755438613106459
 40
0.4382514466867477
 40
0.4695214823985409
 40
0.5008832721873818
 40
0.5636229804222368
 40
0.6261777201644692
 40
0.688828122476697
 40
0.7515515712172802
 40
0.7827659697015843
 40
0.8141973728698271
 40
0.8770720850287078
 40
0.9390415535587848
 40
0.9695170344531968
 40
1.0
 40
1.0
 40
1.0
 40
1.0
 10
1401.508325790031
 20
907.8621840395945
 30
0.0
 10
1401.499154627377
 20
907.9264843091561
 30
0.0
 10
1401.480696631234
 20
908.055895832245
 30
0.0
 10
1401.333419889109
 20
908.2091406595877
 30
0.0
 10
1401.172512819231
 20
908.3109049914858
 30
0.0
 10
1400.981722131284
 20
908.3936144665705
 30
0.0
 10
1400.707638433668
 20
908.4581221949119
 30
0.0
 10
1400.372094975577
 20
908.4664954569454
 30
0.0
 10
1400.085222946131
 20
908.3960919938582
 30
0.0
 10
1399.916955131957
 20
908.2871431876291
 30
0.0
 10
1399.841839824616
 20
908.1773830695248
 30
0.0
 10
1399.812188819974
 20
908.05584752923
 30
0.0
 10
1399.856050711825
 20
907.891570284155
 30
0.0
 10
1400.026884017961
 20
907.703383618643
 30
0.0
 10
1400.301918066622
 20
907.5581791755667
 30
0.0
 10
1400.574704225218
 20
907.487636397738
 30
0.0
 10
1400.795719885138
 20
907.4709562451934
 30
0.0
 10
1401.009263169764
 20
907.4832679519467
 30
0.0
 10
1401.247344984213
 20
907.5464179035295
 30
0.0
 10
1401.416760118709
 20
907.6591986421657
 30
0.0
 10
1401.493231312696
 20
907.7706215469926
 30
0.0
 10
1401.503293885749
 20
907.8316607105395
 30
0.0
 10
1401.508325790031
 20
907.8621840395945
 30
0.0
  0
SPLINE
  5
176
330
1F
100
AcDbEntity
  8
0
  6
Continuous
 62
     7
370
    15
100
AcDbSpline
210
0.0
220
0.0
230
1.0
 70
    11
 71
     3
 72
    23
 73
    19
 74
     0
 42
0.00000001
 43
0.00000001
 12
1.0
 22
0.0
 32
0.0
 13
1.0
 23
0.0
 33
0.0
 40
0.0
 40
0.0
 40
0.0
 40
0.0
 40
0.0625065223872718
 40
0.1250086469663811
 40
0.1875084619072492
 40
0.2500086660390559
 40
0.3125084465316577
 40
0.3750089797403776
 40
0.4375114578963587
 40
0.5000137916028766
 40
0.5625154820885797
 40
0.625017964418462
 40
0.6875180779338615
 40
0.7500185489306681
 40
0.8125184266291962
 40
0.8750203272256044
 40
0.9375221040119764
 40
1.0
 40
1.0
 40
1.0
 40
1.0
 10
1400.374814694937
 20
907.8547421323881
 30
0.0
 10
1400.413507230972
 20
907.8308020924708
 30
0.0
 10
1400.490889580728
 20
907.7829236969997
 30
0.0
 10
1400.645535340051
 20
907.7452594745366
 30
0.0
 10
1400.800218422826
 20
907.741697761325
 30
0.0
 10
1400.935397080799
 20
907.7743970326628
 30
0.0
 10
1401.029399604843
 20
907.8377289491788
 30
0.0
 10
1401.068098879291
 20
907.9218397899876
 30
0.0
 10
1401.045533511847
 20
908.0135882224849
 30
0.0
 10
1400.965244442025
 20
908.0990390645277
 30
0.0
 10
1400.839263489605
 20
908.1653039892179
 30
0.0
 10
1400.68702908704
 20
908.2028360529055
 30
0.0
 10
1400.531637154648
 20
908.2058963479564
 30
0.0
 10
1400.396797681482
 20
908.1743651583515
 30
0.0
 10
1400.3029068722
 20
908.1124705284342
 30
0.0
 10
1400.265026186458
 20
908.0299037591051
 30
0.0
 10
1400.285070908572
 20
907.9372528485133
 30
0.0
 10
1400.344903910395
 20
907.8822422006649
 30
0.0
 10
1400.374814694937
 20
907.8547421323881
 30
0.0
  0
SPLINE
  5
177
330
1F
100
AcDbEntity
  8
0
  6
Continuous
 62
     7
370
    15
100
AcDbSpline
210
0.0
220
0.0
230
1.0
 70
    11
 71
     3
 72
    23
 73
    19
 74
     0
 42
0.00000001
 43
0.00000001
 12
1.0
 22
0.0
 32
0.0
 13
1.0
 23
0.0
 33
0.0
 40
0.0
 40
0.0
 40
0.0
 40
0.0
 40
0.0625076862891391
 40
0.1250095818260556
 40
0.1875102903390176
 40
0.2500114364695384
 40
0.3125109278601615
 40
0.3750125754564693
 40
0.4375138772527698
 40
0.5000162884007286
 40
0.5625178045118869
 40
0.6250198246234098
 40
0.6875202637716502
 40
0.7500210371292821
 40
0.8125203429955421
 40
0.8750218612359457
 40
0.9375232120705881
 40
0.9999999999999999
 40
0.9999999999999999
 40
0.9999999999999999
 40
0.9999999999999999
 10
1401.05662306123
 20
907.91495580601
 30
0.0
 10
1401.05342311178
 20
907.9449991504011
 30
0.0
 10
1401.047023509326
 20
908.0050830559486
 30
0.0
 10
1400.963256476977
 20
908.090953597951
 30
0.0
 10
1400.838207695405
 20
908.1570796967477
 30
0.0
 10
1400.685742804278
 20
908.1946232872968
 30
0.0
 10
1400.530457701736
 20
908.1976832734343
 30
0.0
 10
1400.395554718046
 20
908.1661567921395
 30
0.0
 10
1400.301830135406
 20
908.1043643402459
 30
0.0
 10
1400.263227152727
 20
908.0215349465942
 30
0.0
 10
1400.285842989045
 20
907.9299346304366
 30
0.0
 10
1400.365996963017
 20
907.8434976012749
 30
0.0
 10
1400.491724171713
 20
907.7756366592267
 30
0.0
 10
1400.643701704767
 20
907.7369592792573
 30
0.0
 10
1400.799295742778
 20
907.733657104629
 30
0.0
 10
1400.933346103261
 20
907.766384296684
 30
0.0
 10
1401.030862675799
 20
907.8292755972004
 30
0.0
 10
1401.048037391246
 20
907.8863994787373
 30
0.0
 10
1401.05662306123
 20
907.91495580601
 30
0.0
  0
LINE
  5
178
330
1F
100
AcDbEntity
  8
0
  6
Continuous
 62
     7
370
    15
100
AcDbLine
 10
1400.5298772784
 20
910.9015025414
 30
0.0
 11
1401.0151318416
 21
909.4662137012
 31
0.0
  0
LINE
  5
179
330
1F
100
AcDbEntity
  8
0
  6
Continuous
 62
     7
370
    15
100
AcDbLine
 10
1401.0151318416
 20
909.4662137012
 30
0.0
 11
1404.3533616099
 21
909.4089249571
 31
0.0
  0
LINE
  5
17A
330
1F
100
AcDbEntity
  8
0
  6
Continuous
 62
     7
370
    15
100
AcDbLine
 10
1404.3533621385
 20
909.408924948
 30
0.0
 11
1403.8678975929
 21
910.8423417498
 31
0.0
  0
LINE
  5
17B
330
1F
100
AcDbEntity
  8
0
  6
Continuous
 62
     7
370
    15
100
AcDbLine
 10
1403.8678975929
 20
910.8423417498
 30
0.0
 11
1402.6380989709
 21
910.8641010766
 31
0.0
  0
LINE
  5
17C
330
1F
100
AcDbEntity
  8
0
  6
Continuous
 62
     7
370
    15
100
AcDbLine
 10
1402.6380984425
 20
910.8641011292
 30
0.0
 11
1402.6644106765
 21
911.3058344637
 31
0.0
  0
LINE
  5
17D
330
1F
100
AcDbEntity
  8
0
  6
Continuous
 62
     7
370
    15
100
AcDbLine
 10
1402.6644106765
 20
911.3058344637
 30
0.0
 11
1403.2998110329
 21
911.2936817597
 31
0.0
  0
SPLINE
  5
17E
330
1F
100
AcDbEntity
  8
0
  6
Continuous
 62
     7
370
    15
100
AcDbSpline
210
0.0
220
0.0
230
1.0
 70
     8
 71
     3
 72
    13
 73
     9
 74
     0
 42
0.00000001
 43
0.00000001
 12
1.0
 22
0.0
 32
0.0
 13
1.0
 23
0.0
 33
0.0
 40
0.0
 40
0.0
 40
0.0
 40
0.0
 40
0.250053858089771
 40
0.3750733393450437
 40
0.4996111881012956
 40
0.6228119550549814
 40
0.7496074583603762
 40
1.0
 40
1.0
 40
1.0
 40
1.0
 10
1403.299811032858
 20
911.2936817596886
 30
0.0
 10
1403.471731276144
 20
911.2877749090023
 30
0.0
 10
1403.729606520472
 20
911.2789148089067
 30
0.0
 10
1404.072019440058
 20
911.2266548383798
 30
0.0
 10
1404.307136225797
 20
911.1590803507071
 30
0.0
 10
1404.467848115534
 20
911.0611754217305
 30
0.0
 10
1404.610864326387
 20
910.9199872895332
 30
0.0
 10
1404.661335338202
 20
910.8071231266075
 30
0.0
 10
1404.694840018683
 20
910.7321993717492
 30
0.0
  0
LINE
  5
17F
330
1F
100
AcDbEntity
  8
0
  6
Continuous
 62
     7
370
    15
100
AcDbLine
 10
1404.6948400187
 20
910.7321993717
 30
0.0
 11
1405.1215096839
 21
909.4701229992
 31
0.0
  0
SPLINE
  5
180
330
1F
100
AcDbEntity
  8
0
  6
Continuous
 62
     7
370
    15
100
AcDbSpline
210
0.0
220
0.0
230
1.0
 70
     8
 71
     3
 72
    13
 73
     9
 74
     0
 42
0.00000001
 43
0.00000001
 12
1.0
 22
0.0
 32
0.0
 13
1.0
 23
0.0
 33
0.0
 40
0.0
 40
0.0
 40
0.0
 40
0.0
 40
0.2503019843271966
 40
0.3754723006907397
 40
0.5001307036535539
 40
0.6247402415854872
 40
0.7498137154032904
 40
1.0
 40
1.0
 40
1.0
 40
1.0
 10
1405.121509683936
 20
909.4701229992127
 30
0.0
 10
1405.14169176071
 20
909.3837736779301
 30
0.0
 10
1405.171966433999
 20
909.2542430295327
 30
0.0
 10
1405.130004324168
 20
909.0850480255089
 30
0.0
 10
1405.031518938974
 20
908.970496495964
 30
0.0
 10
1404.841427470632
 20
908.8982776398175
 30
0.0
 10
1404.539158628166
 20
908.8504759113138
 30
0.0
 10
1404.292164615056
 20
908.8499589663937
 30
0.0
 10
1404.127493309188
 20
908.8496143183839
 30
0.0
  0
LINE
  5
181
330
1F
100
AcDbEntity
  8
0
  6
Continuous
 62
     7
370
    15
100
AcDbLine
 10
1404.1274933092
 20
908.8496143184
 30
0.0
 11
1401.5595334247
 21
908.8955716135
 31
0.0
  0
SPLINE
  5
182
330
1F
100
AcDbEntity
  8
0
  6
Continuous
 62
     7
370
    15
100
AcDbSpline
210
0.0
220
0.0
230
1.0
 70
     8
 71
     3
 72
    13
 73
     9
 74
     0
 42
0.00000001
 43
0.00000001
 12
1.0
 22
0.0
 32
0.0
 13
1.0
 23
0.0
 33
0.0
 40
0.0
 40
0.0
 40
0.0
 40
0.0
 40
0.2501825044649023
 40
0.3752048891294537
 40
0.4998578627370276
 40
0.624506372587397
 40
0.7496694926848202
 40
1.0
 40
1.0
 40
1.0
 40
1.0
 10
1401.559533424729
 20
908.8955716134612
 30
0.0
 10
1401.393670974617
 20
908.9016054976577
 30
0.0
 10
1401.144922956292
 20
908.9106546630093
 30
0.0
 10
1400.81481859437
 20
908.9707754714251
 30
0.0
 10
1400.582744167679
 20
909.0499338860462
 30
0.0
 10
1400.421857833272
 20
909.1693048629669
 30
0.0
 10
1400.280271481009
 20
909.3397880814849
 30
0.0
 10
1400.23332000385
 20
909.4687511791345
 30
0.0
 10
1400.202018841225
 20
909.5547270660811
 30
0.0
  0
LINE
  5
183
330
1F
100
AcDbEntity
  8
0
  6
Continuous
 62
     7
370
    15
100
AcDbLine
 10
1400.2020188412
 20
909.5547270661
 30
0.0
 11
1399.7756008971
 21
910.8189893963
 31
0.0
  0
SPLINE
  5
184
330
1F
100
AcDbEntity
  8
0
  6
Continuous
 62
     7
370
    15
100
AcDbSpline
210
0.0
220
0.0
230
1.0
 70
     8
 71
     3
 72
    13
 73
     9
 74
     0
 42
0.00000001
 43
0.00000001
 12
1.0
 22
0.0
 32
0.0
 13
1.0
 23
0.0
 33
0.0
 40
0.0
 40
0.0
 40
0.0
 40
0.0
 40
0.2503407739082562
 40
0.3872670275304191
 40
0.5003675824767331
 40
0.6249444354025466
 40
0.7499890650875944
 40
1.0
 40
1.0
 40
1.0
 40
1.0
 10
1399.775599491594
 20
910.8189931588004
 30
0.0
 10
1399.752892914902
 20
910.8938874462935
 30
0.0
 10
1399.717766761364
 20
911.0097458725643
 30
0.0
 10
1399.749031506154
 20
911.1488012640675
 30
0.0
 10
1399.834294253053
 20
911.2418055945927
 30
0.0
 10
1400.007927556445
 20
911.3018687506528
 30
0.0
 10
1400.310173145406
 20
911.3428362977635
 30
0.0
 10
1400.563325171366
 20
911.3423690807099
 30
0.0
 10
1400.732075566398
 20
911.3420576351979
 30
0.0
  0
LINE
  5
185
330
1F
100
AcDbEntity
  8
0
  6
Continuous
 62
     7
370
    15
100
AcDbLine
 10
1400.7320755664
 20
911.3420576352
 30
0.0
 11
1401.2316117185
 21
911.3324832963
 31
0.0
  0
LINE
  5
186
330
1F
100
AcDbEntity
  8
0
  6
Continuous
 62
     7
370
    15
100
AcDbLine
 10
1401.2316122436
 20
911.3324832862
 30
0.0
 11
1401.583988929
 21
910.8828115681
 31
0.0
  0
LINE
  5
187
330
1F
100
AcDbEntity
  8
0
  6
Continuous
 62
     7
370
    15
100
AcDbLine
 10
1401.583988929
 20
910.8828115681
 30
0.0
 11
1400.5298778068
 21
910.9015025321
 31
0.0
  0
LINE
  5
188
330
1F
100
AcDbEntity
  8
0
  6
Continuous
 62
     7
370
    15
100
AcDbLine
 10
1400.2020188412
 20
909.5547270661
 30
0.0
 11
1400.2009132302
 21
909.5461113322
 31
0.0
  0
LINE
  5
189
330
1F
100
AcDbEntity
  8
0
  6
Continuous
 62
     7
370
    15
100
AcDbLine
 10
1401.5595334247
 20
908.8955716135
 30
0.0
 11
1401.5583648886
 21
908.8871495431
 31
0.0
  0
SPLINE
  5
18A
330
1F
100
AcDbEntity
  8
0
  6
Continuous
 62
     7
370
    15
100
AcDbSpline
210
0.0
220
0.0
230
1.0
 70
     8
 71
     3
 72
     9
 73
     5
 74
     0
 42
0.00000001
 43
0.00000001
 12
1.0
 22
0.0
 32
0.0
 13
1.0
 23
0.0
 33
0.0
 40
0.0
 40
0.0
 40
0.0
 40
0.0
 40
0.5315589426747978
 40
1.0
 40
1.0
 40
1.0
 40
1.0
 10
1421.965186668578
 20
865.7362304980927
 30
0.0
 10
1422.046168801072
 20
865.5539113528395
 30
0.0
 10
1422.198517159819
 20
865.2109218353723
 30
0.0
 10
1422.51444320273
 20
865.1137722553717
 30
0.0
 10
1422.662435932308
 20
865.0682634033975
 30
0.0
  0
SPLINE
  5
18B
330
1F
100
AcDbEntity
  8
0
  6
Continuous
 62
     7
370
    15
100
AcDbSpline
210
0.0
220
0.0
230
1.0
 70
     8
 71
     3
 72
    12
 73
     8
 74
     0
 42
0.00000001
 43
0.00000001
 12
1.0
 22
0.0
 32
0.0
 13
1.0
 23
0.0
 33
0.0
 40
0.0
 40
0.0
 40
0.0
 40
0.0
 40
0.0304717459459299
 40
0.0888135668586009
 40
0.3925556175487477
 40
0.6962774394174235
 40
0.9999999999999999
 40
0.9999999999999999
 40
0.9999999999999999
 40
0.9999999999999999
 10
1422.662435932308
 20
865.0682634033975
 30
0.0
 10
1422.665945038359
 20
865.0582551398546
 30
0.0
 10
1422.676172749807
 20
865.0290848525703
 30
0.0
 10
1422.715147059095
 20
864.8966028003379
 30
0.0
 10
1422.742789618247
 20
864.6532736663153
 30
0.0
 10
1422.692226803367
 20
864.3117067562256
 30
0.0
 10
1422.587997313507
 20
864.1186133329139
 30
0.0
 10
1422.535882505201
 20
864.0220665038474
 30
0.0
  0
SPLINE
  5
18C
330
1F
100
AcDbEntity
  8
0
  6
Continuous
 62
     7
370
    15
100
AcDbSpline
210
0.0
220
0.0
230
1.0
 70
     8
 71
     3
 72
    10
 73
     6
 74
     0
 42
0.00000001
 43
0.00000001
 12
1.0
 22
0.0
 32
0.0
 13
1.0
 23
0.0
 33
0.0
 40
0.0
 40
0.0
 40
0.0
 40
0.0
 40
0.2117958997126175
 40
0.4880069094709951
 40
1.0
 40
1.0
 40
1.0
 40
1.0
 10
1422.535882505201
 20
864.0220665038474
 30
0.0
 10
1422.534441863739
 20
864.0194825950664
 30
0.0
 10
1422.531122427486
 20
864.0135289135253
 30
0.0
 10
1422.529360598222
 20
864.0024948218958
 30
0.0
 10
1422.530985492087
 20
863.995909778463
 30
0.0
 10
1422.532040973062
 20
863.991632337205
 30
0.0
  0
SPLINE
  5
18D
330
1F
100
AcDbEntity
  8
0
  6
Continuous
 62
     7
370
    15
100
AcDbSpline
210
0.0
220
0.0
230
1.0
 70
     8
 71
     3
 72
    12
 73
     8
 74
     0
 42
0.00000001
 43
0.00000001
 12
1.0
 22
0.0
 32
0.0
 13
1.0
 23
0.0
 33
0.0
 40
0.0
 40
0.0
 40
0.0
 40
0.0
 40
0.0304717459515756
 40
0.0888135668586497
 40
0.3925556175487309
 40
0.6962774394173638
 40
1.0
 40
1.0
 40
1.0
 40
1.0
 10
1408.62309204968
 20
908.2769209436995
 30
0.0
 10
1408.620048266398
 20
908.2870803997764
 30
0.0
 10
1408.611176794101
 20
908.3166913558728
 30
0.0
 10
1408.56483667617
 20
908.4467801118043
 30
0.0
 10
1408.444174699854
 20
908.6598854050501
 30
0.0
 10
1408.202500530914
 20
908.9064987631311
 30
0.0
 10
1408.004679635765
 20
909.0014500670987
 30
0.0
 10
1407.905769067905
 20
909.0489257768177
 30
0.0
  0
SPLINE
  5
18E
330
1F
100
AcDbEntity
  8
0
  6
Continuous
 62
     7
370
    15
100
AcDbSpline
210
0.0
220
0.0
230
1.0
 70
     8
 71
     3
 72
     9
 73
     5
 74
     0
 42
0.00000001
 43
0.00000001
 12
1.0
 22
0.0
 32
0.0
 13
1.0
 23
0.0
 33
0.0
 40
0.0
 40
0.0
 40
0.0
 40
0.0
 40
0.4684410573252181
 40
0.9999999999999999
 40
0.9999999999999999
 40
0.9999999999999999
 40
0.9999999999999999
 10
1408.623092049681
 20
908.2769209436995
 30
0.0
 10
1408.530112848447
 20
908.1531155651654
 30
0.0
 10
1408.331626401158
 20
907.8888232351104
 30
0.0
 10
1408.409978169924
 20
907.5217907681048
 30
0.0
 10
1408.451626753287
 20
907.3266913780159
 30
0.0
  0
SPLINE
  5
18F
330
1F
100
AcDbEntity
  8
0
  6
Continuous
 62
     7
370
    15
100
AcDbSpline
210
0.0
220
0.0
230
1.0
 70
     8
 71
     3
 72
    11
 73
     7
 74
     0
 42
0.00000001
 43
0.00000001
 12
1.0
 22
0.0
 32
0.0
 13
1.0
 23
0.0
 33
0.0
 40
0.0
 40
0.0
 40
0.0
 40
0.0
 40
0.3704320937886046
 40
0.7442498469295027
 40
0.9442480537691671
 40
0.9999999999999999
 40
0.9999999999999999
 40
0.9999999999999999
 40
0.9999999999999999
 10
1407.884772448803
 20
909.0712895389033
 30
0.0
 10
1407.885911254356
 20
909.0683417172453
 30
0.0
 10
1407.88819927387
 20
909.0624191315555
 30
0.0
 10
1407.894595530609
 20
909.054881548399
 30
0.0
 10
1407.90164635861
 20
909.0505752753586
 30
0.0
 10
1407.905031194653
 20
909.0492210003624
 30
0.0
 10
1407.905769067905
 20
909.0489257768177
 30
0.0
  0
LINE
  5
190
330
1F
100
AcDbEntity
  8
0
  6
Continuous
 62
     7
370
    15
100
AcDbLine
 10
1404.1274933092
 20
908.8496143184
 30
0.0
 11
1404.1263212158
 21
908.8412031963
 31
0.0
  0
SPLINE
  5
191
330
1F
100
AcDbEntity
  8
0
  6
Continuous
 62
     7
370
    15
100
AcDbSpline
210
0.0
220
0.0
230
1.0
 70
     8
 71
     3
 72
    11
 73
     7
 74
     0
 42
0.00000001
 43
0.00000001
 12
1.0
 22
0.0
 32
0.0
 13
1.0
 23
0.0
 33
0.0
 40
0.0
 40
0.0
 40
0.0
 40
0.0
 40
0.365828110989455
 40
0.7252591430831433
 40
0.9820690181776809
 40
1.0
 40
1.0
 40
1.0
 40
1.0
 10
1411.164425202741
 20
908.5163286621475
 30
0.0
 10
1410.788019150865
 20
908.571068344131
 30
0.0
 10
1410.041789097912
 20
908.6795904988132
 30
0.0
 10
1409.167480929888
 20
908.5873066988405
 30
0.0
 10
1408.759976775907
 20
908.3965656154187
 30
0.0
 10
1408.631478498982
 20
908.2842511550479
 30
0.0
 10
1408.62309204968
 20
908.2769209436995
 30
0.0
  0
LINE
  5
192
330
1F
100
AcDbEntity
  8
0
  6
Continuous
 62
     7
370
    15
100
AcDbLine
 10
1411.1644252027
 20
908.5163286621
 30
0.0
 11
1424.8591379677
 21
866.3683366391
 31
0.0
  0
SPLINE
  5
193
330
1F
100
AcDbEntity
  8
0
  6
Continuous
 62
     7
370
    15
100
AcDbSpline
210
0.0
220
0.0
230
1.0
 70
     8
 71
     3
 72
    11
 73
     7
 74
     0
 42
0.00000001
 43
0.00000001
 12
1.0
 22
0.0
 32
0.0
 13
1.0
 23
0.0
 33
0.0
 40
0.0
 40
0.0
 40
0.0
 40
0.0
 40
0.2357948537758689
 40
0.2749019968044835
 40
0.6342531696138418
 40
1.0
 40
1.0
 40
1.0
 40
1.0
 10
1422.662435932308
 20
865.0682634033975
 30
0.0
 10
1422.816404614199
 20
865.0727151351567
 30
0.0
 10
1422.995909371913
 20
865.0779051973241
 30
0.0
 10
1423.452617167037
 20
865.2358184664022
 30
0.0
 10
1424.047475733361
 20
865.5758542850631
 30
0.0
 10
1424.58699762251
 20
866.102627071443
 30
0.0
 10
1424.859137967691
 20
866.3683366391195
 30
0.0
  0
LINE
  5
194
330
1F
100
AcDbEntity
  8
0
  6
Continuous
 62
     7
370
    15
100
AcDbLine
 10
1399.7755994916
 20
910.8189931588
 30
0.0
 11
1399.7746154075
 21
910.8100034036
 31
0.0
  0
LINE
  5
195
330
1F
100
AcDbEntity
  8
0
  6
Continuous
 62
     7
370
    15
100
AcDbLine
 10
1438.7121211954
 20
877.0077253705
 30
0.0
 11
1425.5878837406
 21
865.3969785887
 31
0.0
  0
SPLINE
  5
196
330
1F
100
AcDbEntity
  8
0
  6
Continuous
 62
     7
370
    15
100
AcDbSpline
210
0.0
220
0.0
230
1.0
 70
     8
 71
     3
 72
    10
 73
     6
 74
     0
 42
0.00000001
 43
0.00000001
 12
1.0
 22
0.0
 32
0.0
 13
1.0
 23
0.0
 33
0.0
 40
0.0
 40
0.0
 40
0.0
 40
0.0
 40
0.3554439450437227
 40
0.7142330220663435
 40
1.0
 40
1.0
 40
1.0
 40
1.0
 10
1425.587883740641
 20
865.3969785887234
 30
0.0
 10
1425.205752722138
 20
865.0990870963828
 30
0.0
 10
1424.437894397424
 20
864.5005006137912
 30
0.0
 10
1423.345214732497
 20
864.0110166423409
 30
0.0
 10
1422.784484782649
 20
864.0186723220228
 30
0.0
 10
1422.535882505201
 20
864.0220665038474
 30
0.0
  0
ARC
  5
197
330
1F
100
AcDbEntity
  8
0
  6
Continuous
 62
     7
370
    15
100
AcDbCircle
 10
1421.9054103656
 20
863.3933060259
 30
0.0
 40
4.192292200791366
100
AcDbArc
 50
28.5510775205
 51
45.205872348
  0
LINE
  5
198
330
1F
100
AcDbEntity
  8
0
  6
Continuous
 62
     7
370
    15
100
AcDbLine
 10
1406.8984712179
 20
913.5823273527
 30
0.0
 11
1406.9077716626
 21
913.5812107468
 31
0.0
  0
SPLINE
  5
199
330
1F
100
AcDbEntity
  8
0
  6
Continuous
 62
     7
370
    15
100
AcDbSpline
210
0.0
220
0.0
230
1.0
 70
     8
 71
     3
 72
    12
 73
     8
 74
     0
 42
0.00000001
 43
0.00000001
 12
1.0
 22
0.0
 32
0.0
 13
1.0
 23
0.0
 33
0.0
 40
0.0
 40
0.0
 40
0.0
 40
0.0
 40
0.2238925571850758
 40
0.4477848984197409
 40
0.6716824862031412
 40
0.8955821585469008
 40
1.0
 40
1.0
 40
1.0
 40
1.0
 10
1407.130835117773
 20
913.5558313428742
 30
0.0
 10
1407.103134192304
 20
913.5588945755918
 30
0.0
 10
1407.047732368085
 20
913.5650210380726
 30
0.0
 10
1406.976233754441
 20
913.5731920200427
 30
0.0
 10
1406.924191754987
 20
913.5792508148792
 30
0.0
 10
1406.901018870173
 20
913.582001191545
 30
0.0
 10
1406.899085959332
 20
913.5822486509435
 30
0.0
 10
1406.898471217902
 20
913.5823273527341
 30
0.0
  0
LINE
  5
19A
330
1F
100
AcDbEntity
  8
0
  6
Continuous
 62
     7
370
    15
100
AcDbLine
 10
1407.1308351178
 20
913.5558313429
 30
0.0
 11
1426.1086951646
 21
911.435293373
 31
0.0
  0
LINE
  5
19B
330
1F
100
AcDbEntity
  8
0
  6
Continuous
 62
     7
370
    15
100
AcDbLine
 10
1426.1086951646
 20
911.435293373
 30
0.0
 11
1427.5785498041
 21
911.2733347517
 31
0.0
  0
LINE
  5
19C
330
1F
100
AcDbEntity
  8
0
  6
Continuous
 62
     7
370
    15
100
AcDbLine
 10
1428.6253998465
 20
908.0514616102
 30
0.0
 11
1427.5785498041
 21
911.2733347517
 31
0.0
  0
LINE
  5
19D
330
1F
100
AcDbEntity
  8
0
  6
Continuous
 62
     7
370
    15
100
AcDbLine
 10
1411.1830429809
 20
909.7305198506
 30
0.0
 11
1428.6253998465
 21
908.0514616102
 31
0.0
  0
SPLINE
  5
19E
330
1F
100
AcDbEntity
  8
0
  6
Continuous
 62
     7
370
    15
100
AcDbSpline
210
0.0
220
0.0
230
1.0
 70
     8
 71
     3
 72
    10
 73
     6
 74
     0
 42
0.00000001
 43
0.00000001
 12
1.0
 22
0.0
 32
0.0
 13
1.0
 23
0.0
 33
0.0
 40
0.0
 40
0.0
 40
0.0
 40
0.0
 40
0.2857669779336485
 40
0.6445560549562848
 40
1.0
 40
1.0
 40
1.0
 40
1.0
 10
1407.905769067905
 20
909.0489257768177
 30
0.0
 10
1408.104897485181
 20
909.197796479966
 30
0.0
 10
1408.554037648249
 20
909.5335788499711
 30
0.0
 10
1409.725745526236
 20
909.7798389911181
 30
0.0
 10
1410.69879626689
 20
909.7469081532149
 30
0.0
 10
1411.183042980919
 20
909.7305198505514
 30
0.0
  0
ARC
  5
19F
330
1F
100
AcDbEntity
  8
0
  6
Continuous
 62
     7
370
    15
100
AcDbCircle
 10
1407.0261302563
 20
909.1870214632
 30
0.0
 40
4.192292200783371
100
AcDbArc
 50
350.794127652
 51
7.4489224795
  0
LINE
  5
1A0
330
1F
100
AcDbEntity
  8
0
  6
Continuous
 62
     7
370
    15
100
AcDbLine
 10
1403.8678975929
 20
910.8423417498
 30
0.0
 11
1403.8669272438
 21
910.8333097223
 31
0.0
  0
LINE
  5
1A1
330
1F
100
AcDbEntity
  8
0
  6
Continuous
 62
     7
370
    15
100
AcDbLine
 10
1424.8591379677
 20
866.3683366391
 30
0.0
 11
1438.0288318846
 21
877.8391828157
 31
0.0
  0
ARC
  5
1A2
330
1F
100
AcDbEntity
  8
0
  6
Continuous
 62
     7
370
    15
100
AcDbCircle
 10
1434.0240551715
 20
873.8515776505
 30
0.0
 40
5.651480467596886
100
AcDbArc
 50
33.9496313683
 51
44.8769008127
  0
LINE
  5
1A3
330
1F
100
AcDbEntity
  8
0
  6
Continuous
 62
     7
370
    15
100
AcDbLine
 10
1428.5613256062
 20
906.9771710271
 30
0.0
 11
1411.1644252027
 21
908.5163286621
 31
0.0
  0
ARC
  5
1A4
330
1F
100
AcDbEntity
  8
0
  6
Continuous
 62
     7
370
    15
100
AcDbCircle
 10
1422.9775376785
 20
907.8492626818
 30
0.0
 40
5.651480467570447
100
AcDbArc
 50
351.1230991873
 51
2.0503686318
  0
LINE
  5
1A5
330
1F
100
AcDbEntity
  8
0
  6
Continuous
 62
     7
370
    15
100
AcDbLine
 10
1438.0288318846
 20
877.8391828157
 30
0.0
 11
1428.5613256062
 21
906.9771710271
 31
0.0
  0
LINE
  5
1A6
330
1F
100
AcDbEntity
  8
0
  6
Continuous
 62
     7
370
    15
100
AcDbLine
 10
1401.583988929
 20
910.8828115681
 30
0.0
 11
1401.5830160505
 21
910.8737873254
 31
0.0
  0
LINE
  5
1A7
330
1F
100
AcDbEntity
  8
0
  6
Continuous
 62
     7
370
    15
100
AcDbLine
 10
1402.6380984398
 20
910.8641010859
 30
0.0
 11
1402.6371267076
 21
910.8550733154
 31
0.0
  0
LINE
  5
1A8
330
1F
100
AcDbEntity
  8
0
  6
Continuous
 62
     7
370
    15
100
AcDbLine
 10
1402.6644106765
 20
911.3058344637
 30
0.0
 11
1402.6634835322
 21
911.2966694656
 31
0.0
  0
ARC
  5
1A9
330
1F
100
AcDbEntity
  8
0
  6
Continuous
 62
     7
370
    15
100
AcDbCircle
 10
1438.6056183617
 20
876.7976134741
 30
0.0
 40
1.190608807907461
100
AcDbArc
 50
68.5914088265
 51
118.9762263586
  0
ARC
  5
1AA
330
1F
100
AcDbEntity
  8
0
  6
Continuous
 62
     7
370
    15
100
AcDbCircle
 10
1438.2323278143
 20
877.6920372625
 30
0.0
 40
0.8357538238392036
100
AcDbArc
 50
305.0355498024
 51
14.8386162464
  0
ARC
  5
1AB
330
1F
100
AcDbEntity
  8
0
  6
Continuous
 62
     7
370
    15
100
AcDbCircle
 10
1428.41573657
 20
908.1588449102
 30
0.0
 40
1.190608807905908
100
AcDbArc
 50
277.0237736414
 51
327.4085911735
  0
ARC
  5
1AC
330
1F
100
AcDbEntity
  8
0
  6
Continuous
 62
     7
370
    15
100
AcDbCircle
 10
1428.6394672854
 20
907.2158261866
 30
0.0
 40
0.8357538238404962
100
AcDbArc
 50
21.1613837537
 51
90.9644501975
  0
LINE
  5
1AD
330
1F
100
AcDbEntity
  8
0
  6
Continuous
 62
     7
370
    15
100
AcDbLine
 10
1429.4188639869
 20
907.5175300741
 30
0.0
 11
1439.0402100868
 21
877.906071577
 31
0.0
  0
LINE
  5
1AE
330
1F
100
AcDbEntity
  8
0
  6
Continuous
 62
     7
370
    15
100
AcDbLine
 10
1439.0402100868
 20
877.906071577
 30
0.0
 11
1440.0555624853
 21
874.7811382155
 31
0.0
  0
LINE
  5
1AF
330
1F
100
AcDbEntity
  8
0
  6
Continuous
 62
     7
370
    15
100
AcDbLine
 10
1428.42198018
 20
910.585622955
 30
0.0
 11
1429.4188639869
 21
907.5175300741
 31
0.0
  0
SPLINE
  5
1B0
330
1F
100
AcDbEntity
  8
0
  6
Continuous
 62
     7
370
    15
100
AcDbSpline
210
0.0
220
0.0
230
1.0
 70
     8
 71
     3
 72
    11
 73
     7
 74
     0
 42
0.00000001
 43
0.00000001
 12
1.0
 22
0.0
 32
0.0
 13
1.0
 23
0.0
 33
0.0
 40
0.0
 40
0.0
 40
0.0
 40
0.0
 40
0.2933118760926863
 40
0.5865991201419656
 40
0.8805021461502919
 40
1.0
 40
1.0
 40
1.0
 40
1.0
 10
1427.578549804054
 20
911.2733347517482
 30
0.0
 10
1427.689232089287
 20
911.2500016283949
 30
0.0
 10
1427.910587364762
 20
911.2033373411813
 30
0.0
 10
1428.188481225459
 20
910.9987411973898
 30
0.0
 10
1428.351077573365
 20
910.7766699245421
 30
0.0
 10
1428.406080894096
 20
910.6284635575745
 30
0.0
 10
1428.42198018
 20
910.5856229550448
 30
0.0
  0
SPLINE
  5
1B1
330
1F
100
AcDbEntity
  8
0
  6
Continuous
 62
     7
370
    15
100
AcDbSpline
210
0.0
220
0.0
230
1.0
 70
    24
 71
     3
 72
    15
 73
    11
 74
     0
 42
0.00000001
 43
0.00000001
 12
1.0
 22
0.0
 32
0.0
 13
1.0
 23
0.0
 33
0.0
 40
0.0
 40
0.0
 40
0.0
 40
0.0
 40
0.0013085590450154
 40
0.0031123972377592
 40
0.0059032470887039
 40
0.0102791707597361
 40
0.0184846044874659
 40
0.0492181494334044
 40
0.1106093070874068
 40
1.0
 40
1.0
 40
1.0
 40
1.0
 10
1403.409457272422
 20
884.0120776509236
 30
0.0
 10
1403.409534972813
 20
884.012102897311
 30
0.0
 10
1403.409719782573
 20
884.0121629456422
 30
0.0
 10
1403.411551745909
 20
884.0127581866129
 30
0.0
 10
1403.41555757223
 20
884.0140597584842
 30
0.0
 10
1403.423826196666
 20
884.0167463974244
 30
0.0
 10
1403.449239546561
 20
884.0250036953523
 30
0.0
 10
1403.511811866906
 20
884.0453346746714
 30
0.0
 10
1404.131252050058
 20
884.2466029908153
 30
0.0
 10
1404.741099848668
 20
884.4447545522879
 30
0.0
 10
1405.311570305012
 20
884.6301116396735
 30
0.0
  0
LINE
  5
1B2
330
1F
100
AcDbEntity
  8
0
  6
Continuous
 62
     7
370
    15
100
AcDbLine
 10
1406.0949006144
 20
882.2192688425
 30
0.0
 11
1404.1819997584
 21
881.6344363602
 31
0.0
  0
LINE
  5
1B3
330
1F
100
AcDbEntity
  8
0
  6
Continuous
 62
     7
370
    15
100
AcDbLine
 10
1407.0145762168
 20
879.3887983813
 30
0.0
 11
1405.111321355
 21
878.7742785815
 31
0.0
  0
SPLINE
  5
1B4
330
1F
100
AcDbEntity
  8
0
  6
Continuous
 62
     7
370
    15
100
AcDbSpline
210
0.0
220
0.0
230
1.0
 70
     8
 71
     3
 72
    13
 73
     9
 74
     0
 42
0.00000001
 43
0.00000001
 12
1.0
 22
0.0
 32
0.0
 13
1.0
 23
0.0
 33
0.0
 40
0.0
 40
0.0
 40
0.0
 40
0.0
 40
0.125124953227302
 40
0.2500775928991124
 40
0.373863267179906
 40
0.4999999146441211
 40
0.7494986643534679
 40
0.9999999999999999
 40
0.9999999999999999
 40
0.9999999999999999
 40
0.9999999999999999
 10
1419.81137366596
 20
855.9635207893076
 30
0.0
 10
1419.813423407652
 20
855.9705582347138
 30
0.0
 10
1419.817520068271
 20
855.9846234340358
 30
0.0
 10
1419.880850627473
 20
856.0550277313984
 30
0.0
 10
1419.992423392987
 20
856.1640325622535
 30
0.0
 10
1420.191580847876
 20
856.3461621278805
 30
0.0
 10
1420.486677647801
 20
856.6023143621453
 30
0.0
 10
1420.72823581076
 20
856.804228972129
 30
0.0
 10
1420.849257075015
 20
856.9053887138348
 30
0.0
  0
SPLINE
  5
1B5
330
1F
100
AcDbEntity
  8
0
  6
Continuous
 62
     7
370
    15
100
AcDbSpline
210
0.0
220
0.0
230
1.0
 70
     8
 71
     3
 72
    13
 73
     9
 74
     0
 42
0.00000001
 43
0.00000001
 12
1.0
 22
0.0
 32
0.0
 13
1.0
 23
0.0
 33
0.0
 40
0.0
 40
0.0
 40
0.0
 40
0.0
 40
0.2505102605956605
 40
0.5001152999064092
 40
0.6261385938060927
 40
0.7500167354089233
 40
0.8748719395880313
 40
0.9999999999999999
 40
0.9999999999999999
 40
0.9999999999999999
 40
0.9999999999999999
 10
1420.849257075015
 20
856.9053887138348
 30
0.0
 10
1420.96997353776
 20
857.0055533916554
 30
0.0
 10
1421.210970253127
 20
857.2055208012503
 30
0.0
 10
1421.511684076466
 20
857.4455909920387
 30
0.0
 10
1421.72268684003
 20
857.6053946949424
 30
0.0
 10
1421.849290375307
 20
857.6949823157486
 30
0.0
 10
1421.921345403082
 20
857.7369692546432
 30
0.0
 10
1421.930593408296
 20
857.7339574314683
 30
0.0
 10
1421.935222457992
 20
857.7324498761812
 30
0.0
  0
SPLINE
  5
1B6
330
1F
100
AcDbEntity
  8
0
  6
Continuous
 62
     7
370
    15
100
AcDbSpline
210
0.0
220
0.0
230
1.0
 70
     8
 71
     3
 72
    13
 73
     9
 74
     0
 42
0.00000001
 43
0.00000001
 12
1.0
 22
0.0
 32
0.0
 13
1.0
 23
0.0
 33
0.0
 40
0.0
 40
0.0
 40
0.0
 40
0.0
 40
0.1251536994641148
 40
0.250094178871429
 40
0.3749676674078481
 40
0.5000391529946142
 40
0.749469622148738
 40
1.0
 40
1.0
 40
1.0
 40
1.0
 10
1421.935222457992
 20
857.7324498761812
 30
0.0
 10
1421.933362718816
 20
857.7260143982209
 30
0.0
 10
1421.929646408838
 20
857.7131544062026
 30
0.0
 10
1421.867272878263
 20
857.6500240198783
 30
0.0
 10
1421.753775213502
 20
857.5477046840499
 30
0.0
 10
1421.554080983914
 20
857.3751738966813
 30
0.0
 10
1421.259773022471
 20
857.1271193226079
 30
0.0
 10
1421.020870318894
 20
856.9279931790348
 30
0.0
 10
1420.901156175366
 20
856.8282110695193
 30
0.0
  0
SPLINE
  5
1B7
330
1F
100
AcDbEntity
  8
0
  6
Continuous
 62
     7
370
    15
100
AcDbSpline
210
0.0
220
0.0
230
1.0
 70
     8
 71
     3
 72
     9
 73
     5
 74
     0
 42
0.00000001
 43
0.00000001
 12
1.0
 22
0.0
 32
0.0
 13
1.0
 23
0.0
 33
0.0
 40
0.0
 40
0.0
 40
0.0
 40
0.0
 40
0.5015812974766635
 40
1.0
 40
1.0
 40
1.0
 40
1.0
 10
1420.901156175366
 20
856.8282110695193
 30
0.0
 10
1420.760291295962
 20
856.7108820561788
 30
0.0
 10
1420.479449725288
 20
856.476963818137
 30
0.0
 10
1420.221898253084
 20
856.2674810840177
 30
0.0
 10
1420.093529782475
 20
856.1630709714769
 30
0.0
  0
SPLINE
  5
1B8
330
1F
100
AcDbEntity
  8
0
  6
Continuous
 62
     7
370
    15
100
AcDbSpline
210
0.0
220
0.0
230
1.0
 70
     8
 71
     3
 72
    12
 73
     8
 74
     0
 42
0.00000001
 43
0.00000001
 12
1.0
 22
0.0
 32
0.0
 13
1.0
 23
0.0
 33
0.0
 40
0.0
 40
0.0
 40
0.0
 40
0.0
 40
0.2500066011229195
 40
0.4997226159558049
 40
0.7495319830089641
 40
0.8747378593258145
 40
1.0
 40
1.0
 40
1.0
 40
1.0
 10
1420.093527331318
 20
856.1630690179937
 30
0.0
 10
1420.052227955563
 20
856.1302963233661
 30
0.0
 10
1419.969677206916
 20
856.064789026288
 30
0.0
 10
1419.87870661286
 20
855.996762706761
 30
0.0
 10
1419.833492304669
 20
855.9676209694371
 30
0.0
 10
1419.815366761973
 20
855.9603783771141
 30
0.0
 10
1419.812704897282
 20
855.9624731617212
 30
0.0
 10
1419.81137366596
 20
855.9635207893076
 30
0.0
  0
SPLINE
  5
1B9
330
1F
100
AcDbEntity
  8
0
  6
Continuous
 62
     7
370
    15
100
AcDbSpline
210
0.0
220
0.0
230
1.0
 70
     8
 71
     3
 72
    11
 73
     7
 74
     0
 42
0.00000001
 43
0.00000001
 12
1.0
 22
0.0
 32
0.0
 13
1.0
 23
0.0
 33
0.0
 40
0.0
 40
0.0
 40
0.0
 40
0.0
 40
0.2500151668637769
 40
0.4996999026569186
 40
0.7496483079943256
 40
1.0
 40
1.0
 40
1.0
 40
1.0
 10
1421.577635671169
 20
857.4346495481707
 30
0.0
 10
1421.575520794306
 20
857.4348834934486
 30
0.0
 10
1421.571293835696
 20
857.4353510748124
 30
0.0
 10
1421.539022021963
 20
857.414336132987
 30
0.0
 10
1421.492026810437
 20
857.3802796061015
 30
0.0
 10
1421.452712034727
 20
857.3500717128936
 30
0.0
 10
1421.433038801258
 20
857.3349555911565
 30
0.0
  0
SPLINE
  5
1BA
330
1F
100
AcDbEntity
  8
0
  6
Continuous
 62
     7
370
    15
100
AcDbSpline
210
0.0
220
0.0
230
1.0
 70
     8
 71
     3
 72
     9
 73
     5
 74
     0
 42
0.00000001
 43
0.00000001
 12
1.0
 22
0.0
 32
0.0
 13
1.0
 23
0.0
 33
0.0
 40
0.0
 40
0.0
 40
0.0
 40
0.0
 40
0.4986001211987666
 40
1.0
 40
1.0
 40
1.0
 40
1.0
 10
1421.433038801258
 20
857.3349555911565
 30
0.0
 10
1421.341669585751
 20
857.2623023261834
 30
0.0
 10
1421.15841809498
 20
857.1165878309716
 30
0.0
 10
1420.965426954177
 20
856.9560047267995
 30
0.0
 10
1420.868661219569
 20
856.8754883778299
 30
0.0
  0
SPLINE
  5
1BB
330
1F
100
AcDbEntity
  8
0
  6
Continuous
 62
     7
370
    15
100
AcDbSpline
210
0.0
220
0.0
230
1.0
 70
     8
 71
     3
 72
    12
 73
     8
 74
     0
 42
0.00000001
 43
0.00000001
 12
1.0
 22
0.0
 32
0.0
 13
1.0
 23
0.0
 33
0.0
 40
0.0
 40
0.0
 40
0.0
 40
0.0
 40
0.5005140901918355
 40
0.6257710336535286
 40
0.750854831554883
 40
0.875498561298299
 40
1.0
 40
1.0
 40
1.0
 40
1.0
 10
1420.868661219569
 20
856.8754883778299
 30
0.0
 10
1420.725603534092
 20
856.7561097040455
 30
0.0
 10
1420.546744721788
 20
856.6068557318711
 30
0.0
 10
1420.344195886477
 20
856.4313408687512
 30
0.0
 10
1420.257416975135
 20
856.3530898044173
 30
0.0
 10
1420.187347239547
 20
856.2866993544612
 30
0.0
 10
1420.180289282122
 20
856.2745755362203
 30
0.0
 10
1420.176762318869
 20
856.2685170891591
 30
0.0
  0
SPLINE
  5
1BC
330
1F
100
AcDbEntity
  8
0
  6
Continuous
 62
     7
370
    15
100
AcDbSpline
210
0.0
220
0.0
230
1.0
 70
     8
 71
     3
 72
    13
 73
     9
 74
     0
 42
0.00000001
 43
0.00000001
 12
1.0
 22
0.0
 32
0.0
 13
1.0
 23
0.0
 33
0.0
 40
0.0
 40
0.0
 40
0.0
 40
0.0
 40
0.1245435151117474
 40
0.1882780285310521
 40
0.2497238484100091
 40
0.3616625107058817
 40
0.4997987570722963
 40
1.0
 40
1.0
 40
1.0
 40
1.0
 10
1420.176762318869
 20
856.2685170891591
 30
0.0
 10
1420.181637301506
 20
856.2695121688287
 30
0.0
 10
1420.189007031829
 20
856.271016475482
 30
0.0
 10
1420.227522610854
 20
856.2982028997926
 30
0.0
 10
1420.275150212468
 20
856.3340276531078
 30
0.0
 10
1420.356084150646
 20
856.3981062383862
 30
0.0
 10
1420.568377146048
 20
856.5703303647931
 30
0.0
 10
1420.75837688352
 20
856.728448197133
 30
0.0
 10
1420.90726067373
 20
856.8523493271654
 30
0.0
  0
SPLINE
  5
1BD
330
1F
100
AcDbEntity
  8
0
  6
Continuous
 62
     7
370
    15
100
AcDbSpline
210
0.0
220
0.0
230
1.0
 70
     8
 71
     3
 72
    12
 73
     8
 74
     0
 42
0.00000001
 43
0.00000001
 12
1.0
 22
0.0
 32
0.0
 13
1.0
 23
0.0
 33
0.0
 40
0.0
 40
0.0
 40
0.0
 40
0.0
 40
0.5003240729893897
 40
0.6255263234197125
 40
0.7506316743525755
 40
0.8753616000337596
 40
1.0
 40
1.0
 40
1.0
 40
1.0
 10
1420.90726067373
 20
856.8523493271654
 30
0.0
 10
1421.047568318503
 20
856.9692696913156
 30
0.0
 10
1421.222986872038
 20
857.1154484771629
 30
0.0
 10
1421.419843824317
 20
857.2840358840288
 30
0.0
 10
1421.503941645163
 20
857.3583052644292
 30
0.0
 10
1421.568630911856
 20
857.4184603902155
 30
0.0
 10
1421.574634819269
 20
857.4292544827716
 30
0.0
 10
1421.577635671169
 20
857.4346495481707
 30
0.0
  0
LINE
  5
1BE
330
1F
100
AcDbEntity
  8
0
  6
Continuous
 62
     7
370
    15
100
AcDbLine
 10
1419.811373666
 20
855.9635207893
 30
0.0
 11
1419.8049765016
 21
855.971190782
 31
0.0
  0
LINE
  5
1BF
330
1F
100
AcDbEntity
  8
0
  6
Continuous
 62
     7
370
    15
100
AcDbLine
 10
1420.849257075
 20
856.9053887138
 30
0.0
 11
1420.8428660762
 21
856.9130397309
 31
0.0
  0
SPLINE
  5
1C0
330
1F
100
AcDbEntity
  8
0
  6
Continuous
 62
     7
370
    15
100
AcDbSpline
210
0.0
220
0.0
230
1.0
 70
     8
 71
     3
 72
    16
 73
    12
 74
     0
 42
0.00000001
 43
0.00000001
 12
1.0
 22
0.0
 32
0.0
 13
1.0
 23
0.0
 33
0.0
 40
0.0
 40
0.0
 40
0.0
 40
0.0
 40
0.0000094554149468
 40
0.1250694388167961
 40
0.2501193702577719
 40
0.3751545253570123
 40
0.5001792486034873
 40
0.6252023972191577
 40
0.7502238890245408
 40
0.8753394403969678
 40
0.9999999999999999
 40
0.9999999999999999
 40
0.9999999999999999
 40
0.9999999999999999
 10
1398.534355152338
 20
914.1693170648347
 30
0.0
 10
1398.534350400692
 20
914.1693177221198
 30
0.0
 10
1398.471499040751
 20
914.1780118183541
 30
0.0
 10
1398.693383933647
 20
914.1466169442855
 30
0.0
 10
1399.209275817242
 20
914.0784425196272
 30
0.0
 10
1400.047684750672
 20
913.9846916791203
 30
0.0
 10
1401.023279373392
 20
913.9035099773064
 30
0.0
 10
1402.005850307995
 20
913.852689213308
 30
0.0
 10
1402.832594783385
 20
913.834571494182
 30
0.0
 10
1403.410096753493
 20
913.836165492872
 30
0.0
 10
1403.48559034389
 20
913.8372769027213
 30
0.0
 10
1403.523268379586
 20
913.8378315953747
 30
0.0
  0
LINE
  5
1C1
330
1F
100
AcDbEntity
  8
0
  6
Continuous
 62
     7
370
    15
100
AcDbLine
 10
1421.935222458
 20
857.7324498762
 30
0.0
 11
1421.928825382
 21
857.7401195968
 31
0.0
  0
SPLINE
  5
1C2
330
1F
100
AcDbEntity
  8
0
  6
Continuous
 62
     7
370
    15
100
AcDbSpline
210
0.0
220
0.0
230
1.0
 70
     8
 71
     3
 72
    12
 73
     8
 74
     0
 42
0.00000001
 43
0.00000001
 12
1.0
 22
0.0
 32
0.0
 13
1.0
 23
0.0
 33
0.0
 40
0.0
 40
0.0
 40
0.0
 40
0.0
 40
0.5003642248301488
 40
0.6255718542238374
 40
0.7506742410322408
 40
0.8753886870836729
 40
0.9999999999999999
 40
0.9999999999999999
 40
0.9999999999999999
 40
0.9999999999999999
 10
1420.900861661368
 20
856.8600250074195
 30
0.0
 10
1421.041167869483
 20
856.9769441282807
 30
0.0
 10
1421.2165833177
 20
857.1231202687836
 30
0.0
 10
1421.413442063053
 20
857.2917076668923
 30
0.0
 10
1421.497539188814
 20
857.3659749873439
 30
0.0
 10
1421.562231624493
 20
857.4261306439184
 30
0.0
 10
1421.56823709106
 20
857.4369245753462
 30
0.0
 10
1421.571238582269
 20
857.4423193086152
 30
0.0
  0
SPLINE
  5
1C3
330
1F
100
AcDbEntity
  8
0
  6
Continuous
 62
     7
370
    15
100
AcDbSpline
210
0.0
220
0.0
230
1.0
 70
     8
 71
     3
 72
    13
 73
     9
 74
     0
 42
0.00000001
 43
0.00000001
 12
1.0
 22
0.0
 32
0.0
 13
1.0
 23
0.0
 33
0.0
 40
0.0
 40
0.0
 40
0.0
 40
0.0
 40
0.1245166140732131
 40
0.1882412551836513
 40
0.2496813801980475
 40
0.3616187086198847
 40
0.4997610915774511
 40
1.0
 40
1.0
 40
1.0
 40
1.0
 10
1420.170365221573
 20
856.2761868754436
 30
0.0
 10
1420.175240279656
 20
856.277182913485
 30
0.0
 10
1420.182610276498
 20
856.2786887001029
 30
0.0
 10
1420.221125605062
 20
856.3058765019222
 30
0.0
 10
1420.268754313334
 20
856.3417032970667
 30
0.0
 10
1420.349688388252
 20
856.405783100464
 30
0.0
 10
1420.561982065915
 20
856.5780092046256
 30
0.0
 10
1420.75197904103
 20
856.7361248013877
 30
0.0
 10
1420.900861661368
 20
856.8600250074195
 30
0.0
  0
LINE
  5
1C4
330
1F
100
AcDbEntity
  8
0
  6
Continuous
 62
     7
370
    15
100
AcDbLine
 10
1416.8984289296
 20
853.4884496945
 30
0.0
 11
1416.9809255819
 21
853.5526900148
 31
0.0
  0
LWPOLYLINE
  5
1C5
330
1F
100
AcDbEntity
  8
0
  6
Continuous
 62
     7
370
    15
100
AcDbPolyline
 90
       11
 70
   128
 43
0.0
 10
1419.126698663
 20
855.3405950546
 10
1419.2024896851
 20
855.4084480104
 10
1419.1055206661
 20
855.3457368541
 10
1418.8423782907
 20
855.1517226162
 10
1418.4574640386
 20
854.8525508004
 10
1418.0121403187
 20
854.4896040434
 10
1417.5759068753
 20
854.116942275
 10
1417.2132805736
 20
853.7928288468
 10
1416.9771824024
 20
853.5712577146
 10
1416.8984289296
 20
853.4884496945
 10
1416.8984289296
 20
853.4884496945
  0
LINE
  5
1C6
330
1F
100
AcDbEntity
  8
0
  6
Continuous
 62
     7
370
    15
100
AcDbLine
 10
1420.9008616614
 20
856.8600250074
 30
0.0
 11
1420.9072606737
 21
856.8523493272
 31
0.0
  0
LINE
  5
1C7
330
1F
100
AcDbEntity
  8
0
  6
Continuous
 62
     7
370
    15
100
AcDbLine
 10
1420.1703652216
 20
856.2761868754
 30
0.0
 11
1420.1767623189
 21
856.2685170892
 31
0.0
  0
LINE
  5
1C8
330
1F
100
AcDbEntity
  8
0
  6
Continuous
 62
     7
370
    15
100
AcDbLine
 10
1421.5712385823
 20
857.4423193086
 30
0.0
 11
1421.5776356712
 21
857.4346495482
 31
0.0
  0
LINE
  5
1C9
330
1F
100
AcDbEntity
  8
0
  6
Continuous
 62
     7
370
    15
100
AcDbLine
 10
1420.0750217973
 20
856.1338952903
 30
0.0
 11
1420.0686208014
 21
856.141577075
 31
0.0
  0
LINE
  5
1CA
330
1F
100
AcDbEntity
  8
0
  6
Continuous
 62
     7
370
    15
100
AcDbLine
 10
1419.8730731921
 20
855.9655905388
 30
0.0
 11
1420.0750213924
 21
856.1338949529
 31
0.0
  0
LINE
  5
1CB
330
1F
100
AcDbEntity
  8
0
  6
Continuous
 62
     7
370
    15
100
AcDbLine
 10
1419.8730731921
 20
855.9655905388
 30
0.0
 11
1419.8666721923
 21
855.9732723358
 31
0.0
  0
LINE
  5
1CC
330
1F
100
AcDbEntity
  8
0
  6
Continuous
 62
     7
370
    15
100
AcDbLine
 10
1420.0750217973
 20
856.1338952903
 30
0.0
 11
1421.9468260424
 21
857.7010825412
 31
0.0
  0
LINE
  5
1CD
330
1F
100
AcDbEntity
  8
0
  6
Continuous
 62
     7
370
    15
100
AcDbLine
 10
1400.3141807284
 20
888.6842573474
 30
0.0
 11
1404.4241067535
 21
876.0352056806
 31
0.0
  0
LWPOLYLINE
  5
1CE
330
1F
100
AcDbEntity
  8
0
  6
Continuous
 62
     7
370
    15
100
AcDbPolyline
 90
        3
 70
   128
 43
0.0
 10
1365.6521141036
 20
870.4501369431
 10
1365.5058417714
 20
870.7040203743
 10
1365.3369931236
 20
870.8529383644
  0
ARC
  5
1CF
330
1F
100
AcDbEntity
  8
0
  6
Continuous
 62
     7
370
    15
100
AcDbCircle
 10
1364.8975169989
 20
870.1844619356
 30
0.0
 40
0.7999999999999543
100
AcDbArc
 50
303.3220995168
 51
340.6040924721
  0
LINE
  5
1D0
330
1F
100
AcDbEntity
  8
0
  6
Continuous
 62
     7
370
    15
100
AcDbLine
 10
1365.3369931236
 20
873.6919355021
 30
0.0
 11
1365.6521141036
 21
873.7943245152
 31
0.0
  0
LINE
  5
1D1
330
1F
100
AcDbEntity
  8
0
  6
Continuous
 62
     7
370
    15
100
AcDbLine
 10
1365.6521141036
 20
867.0649662801
 30
0.0
 11
1365.3369931236
 21
866.962577267
 31
0.0
  0
LINE
  5
1D2
330
1F
100
AcDbEntity
  8
0
  6
Continuous
 62
     7
370
    15
100
AcDbLine
 10
1365.3369931236
 20
866.0688343764
 30
0.0
 11
1365.6521141036
 21
866.1712233895
 31
0.0
  0
LINE
  5
1D3
330
1F
100
AcDbEntity
  8
0
  6
Continuous
 62
     7
370
    15
100
AcDbLine
 10
1365.6521141036
 20
874.6880674058
 30
0.0
 11
1365.3369931236
 21
874.5856783927
 31
0.0
  0
LINE
  5
1D4
330
1F
100
AcDbEntity
  8
0
  6
Continuous
 62
     7
370
    15
100
AcDbLine
 10
649.2219614159
 20
783.2377461566
 30
0.0
 11
648.2459952076
 21
782.9035174231
 31
0.0
  0
SPLINE
  5
1D5
330
1F
100
AcDbEntity
  8
0
  6
Continuous
 62
     7
370
    15
100
AcDbSpline
210
0.0
220
0.0
230
1.0
 70
    24
 71
     3
 72
     9
 73
     5
 74
     0
 42
0.00000001
 43
0.00000001
 12
1.0
 22
0.0
 32
0.0
 13
1.0
 23
0.0
 33
0.0
 40
0.0
 40
0.0
 40
0.0
 40
0.0
 40
0.608517784519563
 40
1.0
 40
1.0
 40
1.0
 40
1.0
 10
649.221961415933
 20
782.9035174230692
 30
0.0
 10
649.2219614159329
 20
782.9945814278288
 30
0.0
 10
649.221961415933
 20
783.144230307576
 30
0.0
 10
649.221961415933
 20
783.2114362323182
 30
0.0
 10
649.221961415933
 20
783.2377461566298
 30
0.0
  0
LINE
  5
1D6
330
1F
100
AcDbEntity
  8
0
  6
Continuous
 62
     7
370
    15
100
AcDbLine
 10
650.2219614159
 20
782.9035174231
 30
0.0
 11
649.2219614159
 21
782.9035174231
 31
0.0
  0
LINE
  5
1D7
330
1F
100
AcDbEntity
  8
0
  6
Continuous
 62
     7
370
    15
100
AcDbLine
 10
650.2219614159
 20
783.2377461566
 30
0.0
 11
650.2219614159
 21
782.9035174231
 31
0.0
  0
LINE
  5
1D8
330
1F
100
AcDbEntity
  8
0
  6
Continuous
 62
     7
370
    15
100
AcDbLine
 10
651.1979276242
 20
782.9035174231
 30
0.0
 11
650.2219614159
 21
783.2377461566
 31
0.0
  0
LINE
  5
1D9
330
1F
100
AcDbEntity
  8
0
  6
Continuous
 62
     7
370
    15
100
AcDbLine
 10
652.0167031882
 20
782.3185869128
 30
0.0
 11
647.4272196843
 21
782.3185869128
 31
0.0
  0
LINE
  5
1DA
330
1F
100
AcDbEntity
  8
0
  6
Continuous
 62
     7
370
    15
100
AcDbLine
 10
651.2219614159
 20
781.3185869128
 30
0.0
 11
648.2219614159
 21
781.3185869128
 31
0.0
  0
LINE
  5
1DB
330
1F
100
AcDbEntity
  8
0
  6
Continuous
 62
     7
370
    15
100
AcDbLine
 10
652.3219614159
 20
781.3185869128
 30
0.0
 11
651.2219614159
 21
781.3185869128
 31
0.0
  0
LINE
  5
1DC
330
1F
100
AcDbEntity
  8
0
  6
Continuous
 62
     7
370
    15
100
AcDbLine
 10
648.2219614159
 20
781.3185869128
 30
0.0
 11
647.1219614159
 21
781.3185869128
 31
0.0
  0
LINE
  5
1DD
330
1F
100
AcDbEntity
  8
0
  6
Continuous
 62
     7
370
    15
100
AcDbLine
 10
652.3219614159
 20
781.3185869128
 30
0.0
 11
652.3219614159
 21
779.3185869128
 31
0.0
  0
LINE
  5
1DE
330
1F
100
AcDbEntity
  8
0
  6
Continuous
 62
     7
370
    15
100
AcDbLine
 10
652.3219614159
 20
779.3185869128
 30
0.0
 11
647.1219614159
 21
779.3185869128
 31
0.0
  0
LINE
  5
1DF
330
1F
100
AcDbEntity
  8
0
  6
Continuous
 62
     7
370
    15
100
AcDbLine
 10
647.1219614159
 20
781.3185869128
 30
0.0
 11
647.1219614159
 21
779.3185869128
 31
0.0
  0
LINE
  5
1E0
330
1F
100
AcDbEntity
  8
0
  6
Continuous
 62
     7
370
    15
100
AcDbLine
 10
652.3219614159
 20
784.2349640551
 30
0.0
 11
647.1219614159
 21
784.2349640551
 31
0.0
  0
LINE
  5
1E1
330
1F
100
AcDbEntity
  8
0
  6
Continuous
 62
     7
370
    15
100
AcDbLine
 10
652.3219614159
 20
784.2349640551
 30
0.0
 11
652.3219614159
 21
781.3185869128
 31
0.0
  0
LINE
  5
1E2
330
1F
100
AcDbEntity
  8
0
  6
Continuous
 62
     7
370
    15
100
AcDbLine
 10
647.1219614159
 20
784.2349640551
 30
0.0
 11
647.1219614159
 21
781.3185869128
 31
0.0
  0
LINE
  5
1E3
330
1F
100
AcDbEntity
  8
0
  6
Continuous
 62
     7
370
    15
100
AcDbLine
 10
652.3219614159
 20
784.9185869128
 30
0.0
 11
652.3219614159
 21
784.2349640551
 31
0.0
  0
LINE
  5
1E4
330
1F
100
AcDbEntity
  8
0
  6
Continuous
 62
     7
370
    15
100
AcDbLine
 10
647.1219614159
 20
784.9185869128
 30
0.0
 11
647.1219614159
 21
784.2349640551
 31
0.0
  0
LINE
  5
1E5
330
1F
100
AcDbEntity
  8
0
  6
Continuous
 62
     7
370
    15
100
AcDbLine
 10
657.8369931236
 20
779.5244743631
 30
0.0
 11
652.4369931236
 21
779.5244743631
 31
0.0
  0
LINE
  5
1E6
330
1F
100
AcDbEntity
  8
0
  6
Continuous
 62
     7
370
    15
100
AcDbLine
 10
644.2369931236
 20
777.1126994625
 30
0.0
 11
657.8369931236
 21
777.1126994625
 31
0.0
  0
LINE
  5
1E7
330
1F
100
AcDbEntity
  8
0
  6
Continuous
 62
     7
370
    15
100
AcDbLine
 10
644.2369931236
 20
777.1126994625
 30
0.0
 11
644.2369931236
 21
779.5244743631
 31
0.0
  0
LINE
  5
1E8
330
1F
100
AcDbEntity
  8
0
  6
Continuous
 62
     7
370
    15
100
AcDbLine
 10
644.2369931236
 20
779.5244743631
 30
0.0
 11
646.8369931236
 21
779.5244743631
 31
0.0
  0
LINE
  5
1E9
330
1F
100
AcDbEntity
  8
0
  6
Continuous
 62
     7
370
    15
100
AcDbLine
 10
646.8369931236
 20
779.3185869128
 30
0.0
 11
646.8369931236
 21
779.5244743631
 31
0.0
  0
LINE
  5
1EA
330
1F
100
AcDbEntity
  8
0
  6
Continuous
 62
     7
370
    15
100
AcDbLine
 10
652.4369931236
 20
779.3185869128
 30
0.0
 11
652.3219614159
 21
779.3185869128
 31
0.0
  0
LINE
  5
1EB
330
1F
100
AcDbEntity
  8
0
  6
Continuous
 62
     7
370
    15
100
AcDbLine
 10
647.1219614159
 20
779.3185869128
 30
0.0
 11
646.8369931236
 21
779.3185869128
 31
0.0
  0
LINE
  5
1EC
330
1F
100
AcDbEntity
  8
0
  6
Continuous
 62
     7
370
    15
100
AcDbLine
 10
652.4369931236
 20
779.5244743631
 30
0.0
 11
652.4369931236
 21
779.3185869128
 31
0.0
  0
LINE
  5
1ED
330
1F
100
AcDbEntity
  8
0
  6
Continuous
 62
     7
370
    15
100
AcDbLine
 10
657.8369931236
 20
786.3126994625
 30
0.0
 11
652.4369931236
 21
786.3126994625
 31
0.0
  0
LINE
  5
1EE
330
1F
100
AcDbEntity
  8
0
  6
Continuous
 62
     7
370
    15
100
AcDbLine
 10
652.4369931236
 20
786.3126994625
 30
0.0
 11
652.4369931236
 21
779.5244743631
 31
0.0
  0
ELLIPSE
  5
1EF
330
1F
100
AcDbEntity
  8
0
  6
Continuous
 62
     7
370
    15
100
AcDbEllipse
 10
649.7219614159
 20
773.7749933734
 30
0.0
 11
0.0
 21
1.732050807568953
 31
0.0
210
0.0
220
0.0
230
1.0
 40
0.5773502692
 41
0.0
 42
6.283185307179586
  0
LINE
  5
1F0
330
1F
100
AcDbEntity
  8
0
  6
Continuous
 62
     7
370
    15
100
AcDbLine
 10
644.2369931236
 20
770.3244743631
 30
0.0
 11
657.8369931236
 21
770.3244743631
 31
0.0
  0
LINE
  5
1F1
330
1F
100
AcDbEntity
  8
0
  6
Continuous
 62
     7
370
    15
100
AcDbLine
 10
644.2369931236
 20
770.3244743631
 30
0.0
 11
644.2369931236
 21
777.1126994625
 31
0.0
  0
LINE
  5
1F2
330
1F
100
AcDbEntity
  8
0
  6
Continuous
 62
     7
370
    15
100
AcDbLine
 10
644.2369931236
 20
786.3126994625
 30
0.0
 11
646.8369931236
 21
786.3126994625
 31
0.0
  0
LINE
  5
1F3
330
1F
100
AcDbEntity
  8
0
  6
Continuous
 62
     7
370
    15
100
AcDbLine
 10
646.8369931236
 20
779.5244743631
 30
0.0
 11
646.8369931236
 21
786.3126994625
 31
0.0
  0
LINE
  5
1F4
330
1F
100
AcDbEntity
  8
0
  6
Continuous
 62
     7
370
    15
100
AcDbLine
 10
644.2369931236
 20
779.5244743631
 30
0.0
 11
644.2369931236
 21
786.3126994625
 31
0.0
  0
LINE
  5
1F5
330
1F
100
AcDbEntity
  8
0
  6
Continuous
 62
     7
370
    15
100
AcDbLine
 10
657.8369931236
 20
787.5185869128
 30
0.0
 11
652.4369931236
 21
787.5185869128
 31
0.0
  0
LINE
  5
1F6
330
1F
100
AcDbEntity
  8
0
  6
Continuous
 62
     7
370
    15
100
AcDbLine
 10
652.4369931236
 20
787.5185869128
 30
0.0
 11
652.4369931236
 21
786.3126994625
 31
0.0
  0
LINE
  5
1F7
330
1F
100
AcDbEntity
  8
0
  6
Continuous
 62
     7
370
    15
100
AcDbLine
 10
644.2369931236
 20
769.1185869128
 30
0.0
 11
657.8369931236
 21
769.1185869128
 31
0.0
  0
LINE
  5
1F8
330
1F
100
AcDbEntity
  8
0
  6
Continuous
 62
     7
370
    15
100
AcDbLine
 10
644.2369931236
 20
769.1185869128
 30
0.0
 11
644.2369931236
 21
770.3244743631
 31
0.0
  0
LINE
  5
1F9
330
1F
100
AcDbEntity
  8
0
  6
Continuous
 62
     7
370
    15
100
AcDbLine
 10
644.2369931236
 20
787.5185869128
 30
0.0
 11
646.8369931236
 21
787.5185869128
 31
0.0
  0
LINE
  5
1FA
330
1F
100
AcDbEntity
  8
0
  6
Continuous
 62
     7
370
    15
100
AcDbLine
 10
646.8369931236
 20
786.3126994625
 30
0.0
 11
646.8369931236
 21
787.5185869128
 31
0.0
  0
LINE
  5
1FB
330
1F
100
AcDbEntity
  8
0
  6
Continuous
 62
     7
370
    15
100
AcDbLine
 10
644.2369931236
 20
786.3126994625
 30
0.0
 11
644.2369931236
 21
787.5185869128
 31
0.0
  0
LINE
  5
1FC
330
1F
100
AcDbEntity
  8
0
  6
Continuous
 62
     7
370
    15
100
AcDbLine
 10
1365.6521141036
 20
892.1325606806
 30
0.0
 11
1365.3369931236
 21
893.1024033329
 31
0.0
  0
LINE
  5
1FD
330
1F
100
AcDbEntity
  8
0
  6
Continuous
 62
     7
370
    15
100
AcDbLine
 10
1365.3369931236
 20
899.2424675511
 30
0.0
 11
1365.6521141036
 21
899.3448565642
 31
0.0
  0
LINE
  5
1FE
330
1F
100
AcDbEntity
  8
0
  6
Continuous
 62
     7
370
    15
100
AcDbLine
 10
1405.2343160564
 20
884.8678757687
 30
0.0
 11
1403.3322030238
 21
884.24984178
 31
0.0
  0
LINE
  5
1FF
330
1F
100
AcDbEntity
  8
0
  6
Continuous
 62
     7
370
    15
100
AcDbLine
 10
1365.3369931236
 20
694.5185869128
 30
0.0
 11
1365.6521141036
 21
694.5185869128
 31
0.0
  0
LINE
  5
200
330
1F
100
AcDbEntity
  8
0
  6
Continuous
 62
     7
370
    15
100
AcDbLine
 10
1365.3369931236
 20
693.3185869128
 30
0.0
 11
1365.6521141036
 21
693.3185869128
 31
0.0
  0
LINE
  5
201
330
1F
100
AcDbEntity
  8
0
  6
Continuous
 62
     7
370
    15
100
AcDbLine
 10
1365.6521141036
 20
711.4608868127
 30
0.0
 11
1365.3369931236
 21
711.4608868127
 31
0.0
  0
LINE
  5
202
330
1F
100
AcDbEntity
  8
0
  6
Continuous
 62
     7
370
    15
100
AcDbLine
 10
1365.6521141036
 20
712.1537071358
 30
0.0
 11
1365.3369931236
 21
712.1537071358
 31
0.0
  0
LINE
  5
203
330
1F
100
AcDbEntity
  8
0
  6
Continuous
 62
     7
370
    15
100
AcDbLine
 10
1365.6521141036
 20
706.6037071358
 30
0.0
 11
1365.3369931236
 21
706.6037071358
 31
0.0
  0
LINE
  5
204
330
1F
100
AcDbEntity
  8
0
  6
Continuous
 62
     7
370
    15
100
AcDbLine
 10
1365.6521141036
 20
690.5685869128
 30
0.0
 11
1365.3369931236
 21
690.5685869128
 31
0.0
  0
LINE
  5
205
330
1F
100
AcDbEntity
  8
0
  6
Continuous
 62
     7
370
    15
100
AcDbLine
 10
1365.6521141036
 20
693.0185869128
 30
0.0
 11
1365.3369931236
 21
693.0185869128
 31
0.0
  0
LINE
  5
206
330
1F
100
AcDbEntity
  8
0
  6
Continuous
 62
     7
370
    15
100
AcDbLine
 10
1365.6521141036
 20
698.0185869128
 30
0.0
 11
1365.3369931236
 21
698.0185869128
 31
0.0
  0
LINE
  5
207
330
1F
100
AcDbEntity
  8
0
  6
Continuous
 62
     7
370
    15
100
AcDbLine
 10
1365.6521141036
 20
696.0185869128
 30
0.0
 11
1365.3369931236
 21
696.0185869128
 31
0.0
  0
LINE
  5
208
330
1F
100
AcDbEntity
  8
0
  6
Continuous
 62
     7
370
    15
100
AcDbLine
 10
1365.6521141036
 20
715.4037071358
 30
0.0
 11
1365.3369931236
 21
715.4037071358
 31
0.0
  0
LINE
  5
209
330
1F
100
AcDbEntity
  8
0
  6
Continuous
 62
     7
370
    15
100
AcDbLine
 10
1365.6521141036
 20
725.9637071358
 30
0.0
 11
1365.3369931236
 21
725.9637071358
 31
0.0
  0
LINE
  5
20A
330
1F
100
AcDbEntity
  8
0
  6
Continuous
 62
     7
370
    15
100
AcDbLine
 10
1365.6521141036
 20
704.4037071358
 30
0.0
 11
1365.3369931236
 21
704.4037071358
 31
0.0
  0
LINE
  5
20B
330
1F
100
AcDbEntity
  8
0
  6
Continuous
 62
     7
370
    15
100
AcDbLine
 10
1365.6521141036
 20
702.4037071358
 30
0.0
 11
1365.3369931236
 21
702.4037071358
 31
0.0
  0
LINE
  5
20C
330
1F
100
AcDbEntity
  8
0
  6
Continuous
 62
     7
370
    15
100
AcDbLine
 10
1365.6521141036
 20
701.9037071358
 30
0.0
 11
1365.3369931236
 21
701.9037071358
 31
0.0
  0
LINE
  5
20D
330
1F
100
AcDbEntity
  8
0
  6
Continuous
 62
     7
370
    15
100
AcDbLine
 10
1365.6521141036
 20
701.6037071358
 30
0.0
 11
1365.3369931236
 21
701.6037071358
 31
0.0
  0
LINE
  5
20E
330
1F
100
AcDbEntity
  8
0
  6
Continuous
 62
     7
370
    15
100
AcDbLine
 10
1365.4419547533
 20
696.8185869128
 30
0.0
 11
1365.4419547533
 21
696.0185869128
 31
0.0
  0
LINE
  5
20F
330
1F
100
AcDbEntity
  8
0
  6
Continuous
 62
     7
370
    15
100
AcDbLine
 10
1365.3369931236
 20
696.0212757356
 30
0.0
 11
1365.4419547533
 21
696.0185869128
 31
0.0
  0
LINE
  5
210
330
1F
100
AcDbEntity
  8
0
  6
Continuous
 62
     7
370
    15
100
AcDbLine
 10
1365.3369931236
 20
696.8230014857
 30
0.0
 11
1365.4419547533
 21
696.8185869128
 31
0.0
  0
LINE
  5
211
330
1F
100
AcDbEntity
  8
0
  6
Continuous
 62
     7
370
    15
100
AcDbLine
 10
1365.4419547533
 20
696.0185869128
 30
0.0
 11
1365.6521141036
 21
696.0185869128
 31
0.0
  0
LINE
  5
212
330
1F
100
AcDbEntity
  8
0
  6
Continuous
 62
     7
370
    15
100
AcDbLine
 10
1365.4419547533
 20
696.8185869128
 30
0.0
 11
1365.6521141036
 21
696.8185869128
 31
0.0
  0
LINE
  5
213
330
1F
100
AcDbEntity
  8
0
  6
Continuous
 62
     7
370
    15
100
AcDbLine
 10
1400.8600670688
 20
891.8582939104
 30
0.0
 11
1406.731389962
 21
873.7882201008
 31
0.0
  0
LINE
  5
214
330
1F
100
AcDbEntity
  8
0
  6
Continuous
 62
     7
370
    15
100
AcDbLine
 10
1470.8353814873
 20
744.0828061684
 30
0.0
 11
1470.619736663
 21
733.0849201301
 31
0.0
  0
SPLINE
  5
215
330
1F
100
AcDbEntity
  8
0
  6
Continuous
 62
     7
370
    15
100
AcDbSpline
210
0.0
220
0.0
230
1.0
 70
     8
 71
     3
 72
     9
 73
     5
 74
     0
 42
0.00000001
 43
0.00000001
 12
1.0
 22
0.0
 32
0.0
 13
1.0
 23
0.0
 33
0.0
 40
0.0
 40
0.0
 40
0.0
 40
0.0
 40
0.4950717252451631
 40
1.0
 40
1.0
 40
1.0
 40
1.0
 10
1470.619736662976
 20
733.0849201301394
 30
0.0
 10
1470.593825660169
 20
733.9466914067885
 30
0.0
 10
1470.541487783684
 20
735.6873912543153
 30
0.0
 10
1470.08511319773
 20
737.3853188995346
 30
0.0
 10
1469.854676765402
 20
738.2426505760938
 30
0.0
  0
LINE
  5
216
330
1F
100
AcDbEntity
  8
0
  6
Continuous
 62
     7
370
    15
100
AcDbLine
 10
1469.8546767654
 20
738.2426505761
 30
0.0
 11
1469.8687234399
 21
738.9590309762
 31
0.0
  0
SPLINE
  5
217
330
1F
100
AcDbEntity
  8
0
  6
Continuous
 62
     7
370
    15
100
AcDbSpline
210
0.0
220
0.0
230
1.0
 70
     8
 71
     3
 72
     9
 73
     5
 74
     0
 42
0.00000001
 43
0.00000001
 12
1.0
 22
0.0
 32
0.0
 13
1.0
 23
0.0
 33
0.0
 40
0.0
 40
0.0
 40
0.0
 40
0.0
 40
0.4958362756181805
 40
1.0
 40
1.0
 40
1.0
 40
1.0
 10
1469.868723439915
 20
738.9590309762309
 30
0.0
 10
1470.128266919061
 20
739.7912356478048
 30
0.0
 10
1470.651712846494
 20
741.4696216645125
 30
0.0
 10
1470.773819660921
 20
743.2069222399035
 30
0.0
 10
1470.835381487256
 20
744.0828061683634
 30
0.0
  0
LINE
  5
218
330
1F
100
AcDbEntity
  8
0
  6
Continuous
 62
     7
370
    15
100
AcDbLine
 10
1427.4521141036
 20
739.0740733734
 30
0.0
 11
1469.8546767654
 21
738.2426505761
 31
0.0
  0
LINE
  5
219
330
1F
100
AcDbEntity
  8
0
  6
Continuous
 62
     7
370
    15
100
AcDbLine
 10
1469.8687234399
 20
738.9590309762
 30
0.0
 11
1427.4521141036
 21
739.7907291985
 31
0.0
  0
SPLINE
  5
21A
330
1F
100
AcDbEntity
  8
0
  6
Continuous
 62
     7
370
    15
100
AcDbSpline
210
0.0
220
0.0
230
1.0
 70
     8
 71
     3
 72
     9
 73
     5
 74
     0
 42
0.00000001
 43
0.00000001
 12
1.0
 22
0.0
 32
0.0
 13
1.0
 23
0.0
 33
0.0
 40
0.0
 40
0.0
 40
0.0
 40
0.0
 40
0.4958362756181786
 40
1.0
 40
1.0
 40
1.0
 40
1.0
 10
1469.653078615636
 20
727.9611449380069
 30
0.0
 10
1469.912622094782
 20
728.7933496095808
 30
0.0
 10
1470.436068022215
 20
730.4717356262885
 30
0.0
 10
1470.558174836643
 20
732.2090362016795
 30
0.0
 10
1470.619736662976
 20
733.0849201301394
 30
0.0
  0
LINE
  5
21B
330
1F
100
AcDbEntity
  8
0
  6
Continuous
 62
     7
370
    15
100
AcDbLine
 10
1469.6530786156
 20
727.961144938
 30
0.0
 11
1427.4521141036
 21
728.7886148304
 31
0.0
  0
LINE
  5
21C
330
1F
100
AcDbEntity
  8
0
  6
Continuous
 62
     7
370
    15
100
AcDbLine
 10
1427.4521141036
 20
750.0761877415
 30
0.0
 11
1441.4032196079
 21
749.8026366532
 31
0.0
  0
ELLIPSE
  5
21D
330
1F
100
AcDbEntity
  8
0
  6
Continuous
 62
     7
370
    15
100
AcDbEllipse
 10
1446.4136051377
 20
761.0648360803
 30
0.0
 11
0.275716661033357
 21
14.06154971270337
 31
0.0
210
0.0
220
0.0
230
1.0
 40
0.5773502692
 41
2.510863596395743
 42
2.519752493832096
  0
LINE
  5
21E
330
1F
100
AcDbEntity
  8
0
  6
Continuous
 62
     7
370
    15
100
AcDbLine
 10
1450.9187499881
 20
749.542767261
 30
0.0
 11
1441.4602509368
 21
749.7282280267
 31
0.0
  0
ELLIPSE
  5
21F
330
1F
100
AcDbEntity
  8
0
  6
Continuous
 62
     7
370
    15
100
AcDbEllipse
 10
1446.4136051377
 20
761.0648360803
 30
0.0
 11
0.275716661033357
 21
14.06154971270337
 31
0.0
210
0.0
220
0.0
230
1.0
 40
0.5773502692
 41
3.763432813347523
 42
3.772321710783861
  0
LINE
  5
220
330
1F
100
AcDbEntity
  8
0
  6
Continuous
 62
     7
370
    15
100
AcDbLine
 10
1450.9786543443
 20
749.6148830309
 30
0.0
 11
1470.0703215897
 21
749.2405366143
 31
0.0
  0
SPLINE
  5
221
330
1F
100
AcDbEntity
  8
0
  6
Continuous
 62
     7
370
    15
100
AcDbSpline
210
0.0
220
0.0
230
1.0
 70
     8
 71
     3
 72
     9
 73
     5
 74
     0
 42
0.00000001
 43
0.00000001
 12
1.0
 22
0.0
 32
0.0
 13
1.0
 23
0.0
 33
0.0
 40
0.0
 40
0.0
 40
0.0
 40
0.0
 40
0.4950717252451546
 40
1.0
 40
1.0
 40
1.0
 40
1.0
 10
1470.835381487256
 20
744.0828061683634
 30
0.0
 10
1470.809470484448
 20
744.9445774450126
 30
0.0
 10
1470.757132607963
 20
746.6852772925394
 30
0.0
 10
1470.300758022009
 20
748.3832049377585
 30
0.0
 10
1470.070321589681
 20
749.2405366143176
 30
0.0
  0
LINE
  5
222
330
1F
100
AcDbEntity
  8
0
  6
Continuous
 62
     7
370
    15
100
AcDbLine
 10
1452.0748336083
 20
764.8929032643
 30
0.0
 11
1452.1046064621
 21
766.4113188117
 31
0.0
  0
LINE
  5
223
330
1F
100
AcDbEntity
  8
0
  6
Continuous
 62
     7
370
    15
100
AcDbLine
 10
1455.8548837879
 20
765.4160173546
 30
0.0
 11
1455.8152582165
 21
763.3951132135
 31
0.0
  0
LINE
  5
224
330
1F
100
AcDbEntity
  8
0
  6
Continuous
 62
     7
370
    15
100
AcDbLine
 10
1452.005435183
 20
761.3535835756
 30
0.0
 11
1452.0352080369
 21
762.8719991231
 31
0.0
  0
LINE
  5
225
330
1F
100
AcDbEntity
  8
0
  6
Continuous
 62
     7
370
    15
100
AcDbLine
 10
1455.7854853626
 20
761.876697666
 30
0.0
 11
1455.7458597912
 21
759.8557935248
 31
0.0
  0
LINE
  5
226
330
1F
100
AcDbEntity
  8
0
  6
Continuous
 62
     7
370
    15
100
AcDbLine
 10
1451.9360367577
 20
757.8142638869
 30
0.0
 11
1451.9658096116
 21
759.3326794344
 31
0.0
  0
LINE
  5
227
330
1F
100
AcDbEntity
  8
0
  6
Continuous
 62
     7
370
    15
100
AcDbLine
 10
1455.7160869374
 20
758.3373779773
 30
0.0
 11
1455.5787519116
 21
751.3332916641
 31
0.0
  0
LINE
  5
228
330
1F
100
AcDbEntity
  8
0
  6
Continuous
 62
     7
370
    15
100
AcDbLine
 10
1455.5787519116
 20
751.3332916641
 30
0.0
 11
1436.5457694032
 21
751.7064873996
 31
0.0
  0
LINE
  5
229
330
1F
100
AcDbEntity
  8
0
  6
Continuous
 62
     7
370
    15
100
AcDbLine
 10
1439.06562814
 20
769.549888474
 30
0.0
 11
1439.7384497877
 21
769.6452622361
 31
0.0
  0
LINE
  5
22A
330
1F
100
AcDbEntity
  8
0
  6
Continuous
 62
     7
370
    15
100
AcDbLine
 10
1453.419987681
 20
769.3769967872
 30
0.0
 11
1439.7384497877
 21
769.6452622361
 31
0.0
  0
SPLINE
  5
22B
330
1F
100
AcDbEntity
  8
0
  6
Continuous
 62
     7
370
    15
100
AcDbSpline
210
0.0
220
0.0
230
1.0
 70
     8
 71
     3
 72
    12
 73
     8
 74
     0
 42
0.00000001
 43
0.00000001
 12
1.0
 22
0.0
 32
0.0
 13
1.0
 23
0.0
 33
0.0
 40
0.0
 40
0.0
 40
0.0
 40
0.0
 40
0.1872679619888629
 40
0.4344493250522519
 40
0.6678775615771763
 40
0.8906015608479382
 40
1.0
 40
1.0
 40
1.0
 40
1.0
 10
1453.419987681001
 20
769.3769967872465
 30
0.0
 10
1453.656152563148
 20
769.3456294744125
 30
0.0
 10
1454.204039519145
 20
769.2728593767156
 30
0.0
 10
1454.967223453084
 20
768.8524569118317
 30
0.0
 10
1455.56594335158
 20
768.1752316916132
 30
0.0
 10
1455.840274005913
 20
767.4924775123442
 30
0.0
 10
1455.871976630747
 20
767.0724702553132
 30
0.0
 10
1455.882419218397
 20
766.9341232692743
 30
0.0
  0
SPLINE
  5
22C
330
1F
100
AcDbEntity
  8
0
  6
Continuous
 62
     7
370
    15
100
AcDbSpline
210
0.0
220
0.0
230
1.0
 70
    24
 71
     3
 72
     9
 73
     5
 74
     0
 42
0.00000001
 43
0.00000001
 12
1.0
 22
0.0
 32
0.0
 13
1.0
 23
0.0
 33
0.0
 40
0.0
 40
0.0
 40
0.0
 40
0.0
 40
0.4950717252451636
 40
1.0
 40
1.0
 40
1.0
 40
1.0
 10
1470.511914250837
 20
727.5859771110273
 30
0.0
 10
1470.469122224161
 20
727.5868161703739
 30
0.0
 10
1470.382686209956
 20
727.588510994182
 30
0.0
 10
1469.893207113887
 20
727.5981086235165
 30
0.0
 10
1469.64605527838
 20
727.6029547379383
 30
0.0
  0
LINE
  5
22D
330
1F
100
AcDbEntity
  8
0
  6
Continuous
 62
     7
370
    15
100
AcDbLine
 10
1469.6460552784
 20
727.6029547379
 30
0.0
 11
1469.6530786156
 21
727.961144938
 31
0.0
  0
LINE
  5
22E
330
1F
100
AcDbEntity
  8
0
  6
Continuous
 62
     7
370
    15
100
AcDbLine
 10
1470.619736663
 20
733.0849201301
 30
0.0
 11
1470.5119142508
 21
727.585977111
 31
0.0
  0
LINE
  5
22F
330
1F
100
AcDbEntity
  8
0
  6
Continuous
 62
     7
370
    15
100
AcDbLine
 10
1470.0703215897
 20
749.2405366143
 30
0.0
 11
1470.0773449269
 21
749.5987268144
 31
0.0
  0
SPLINE
  5
230
330
1F
100
AcDbEntity
  8
0
  6
Continuous
 62
     7
370
    15
100
AcDbSpline
210
0.0
220
0.0
230
1.0
 70
    24
 71
     3
 72
     9
 73
     5
 74
     0
 42
0.00000001
 43
0.00000001
 12
1.0
 22
0.0
 32
0.0
 13
1.0
 23
0.0
 33
0.0
 40
0.0
 40
0.0
 40
0.0
 40
0.0
 40
0.4958362756181814
 40
1.0
 40
1.0
 40
1.0
 40
1.0
 10
1470.077344926938
 20
749.5987268143863
 30
0.0
 10
1470.320477190968
 20
749.5939595150915
 30
0.0
 10
1470.810825065834
 20
749.5843448508784
 30
0.0
 10
1470.89883332678
 20
749.582619198703
 30
0.0
 10
1470.943203899395
 20
749.5817491874752
 30
0.0
  0
LINE
  5
231
330
1F
100
AcDbEntity
  8
0
  6
Continuous
 62
     7
370
    15
100
AcDbLine
 10
1470.9432038994
 20
749.5817491875
 30
0.0
 11
1470.8353814873
 21
744.0828061684
 31
0.0
  0
LINE
  5
232
330
1F
100
AcDbEntity
  8
0
  6
Continuous
 62
     7
370
    15
100
AcDbLine
 10
1453.6857113946
 20
759.5706934326
 30
0.0
 11
1451.9658096116
 21
759.3326794344
 31
0.0
  0
LINE
  5
233
330
1F
100
AcDbEntity
  8
0
  6
Continuous
 62
     7
370
    15
100
AcDbLine
 10
1453.6857113946
 20
759.5706934326
 30
0.0
 11
1453.6559385407
 21
758.0522778852
 31
0.0
  0
LINE
  5
234
330
1F
100
AcDbEntity
  8
0
  6
Continuous
 62
     7
370
    15
100
AcDbLine
 10
1451.9360367577
 20
757.8142638869
 30
0.0
 11
1453.6559385407
 21
758.0522778852
 31
0.0
  0
LINE
  5
235
330
1F
100
AcDbEntity
  8
0
  6
Continuous
 62
     7
370
    15
100
AcDbLine
 10
1453.7551098198
 20
763.1100131213
 30
0.0
 11
1452.0352080369
 21
762.8719991231
 31
0.0
  0
LINE
  5
236
330
1F
100
AcDbEntity
  8
0
  6
Continuous
 62
     7
370
    15
100
AcDbLine
 10
1453.7551098198
 20
763.1100131213
 30
0.0
 11
1453.725336966
 21
761.5915975738
 31
0.0
  0
LINE
  5
237
330
1F
100
AcDbEntity
  8
0
  6
Continuous
 62
     7
370
    15
100
AcDbLine
 10
1452.005435183
 20
761.3535835756
 30
0.0
 11
1453.725336966
 21
761.5915975738
 31
0.0
  0
LINE
  5
238
330
1F
100
AcDbEntity
  8
0
  6
Continuous
 62
     7
370
    15
100
AcDbLine
 10
1453.8245082451
 20
766.64933281
 30
0.0
 11
1452.1046064621
 21
766.4113188117
 31
0.0
  0
LINE
  5
239
330
1F
100
AcDbEntity
  8
0
  6
Continuous
 62
     7
370
    15
100
AcDbLine
 10
1453.8245082451
 20
766.64933281
 30
0.0
 11
1453.7947353912
 21
765.1309172625
 31
0.0
  0
LINE
  5
23A
330
1F
100
AcDbEntity
  8
0
  6
Continuous
 62
     7
370
    15
100
AcDbLine
 10
1452.0748336083
 20
764.8929032643
 30
0.0
 11
1453.7947353912
 21
765.1309172625
 31
0.0
  0
SPLINE
  5
23B
330
1F
100
AcDbEntity
  8
0
  6
Continuous
 62
     7
370
    15
100
AcDbSpline
210
0.0
220
0.0
230
1.0
 70
     8
 71
     3
 72
    10
 73
     6
 74
     0
 42
0.00000001
 43
0.00000001
 12
1.0
 22
0.0
 32
0.0
 13
1.0
 23
0.0
 33
0.0
 40
0.0
 40
0.0
 40
0.0
 40
0.0
 40
0.0342100690003857
 40
0.5000000139494135
 40
1.0
 40
1.0
 40
1.0
 40
1.0
 10
1439.738449787726
 20
769.6452622361343
 30
0.0
 10
1439.894466052401
 20
769.6422446970078
 30
0.0
 10
1442.174734312402
 20
769.5981416112947
 30
0.0
 10
1446.735274283493
 20
769.5101112593392
 30
0.0
 10
1451.139745085096
 20
769.4224038632642
 30
0.0
 10
1453.419987681001
 20
769.3769967872465
 30
0.0
  0
LINE
  5
23C
330
1F
100
AcDbEntity
  8
0
  6
Continuous
 62
     7
370
    15
100
AcDbLine
 10
1462.966033415
 20
759.3406845412
 30
0.0
 11
1462.9958062689
 21
760.8591000887
 31
0.0
  0
LINE
  5
23D
330
1F
100
AcDbEntity
  8
0
  6
Continuous
 62
     7
370
    15
100
AcDbLine
 10
1462.9958062689
 20
760.8591000887
 30
0.0
 11
1453.6857113946
 21
759.5706934326
 31
0.0
  0
LINE
  5
23E
330
1F
100
AcDbEntity
  8
0
  6
Continuous
 62
     7
370
    15
100
AcDbLine
 10
1453.6559385407
 20
758.0522778852
 30
0.0
 11
1462.966033415
 21
759.3406845412
 31
0.0
  0
LINE
  5
23F
330
1F
100
AcDbEntity
  8
0
  6
Continuous
 62
     7
370
    15
100
AcDbLine
 10
1463.0354318403
 20
762.8800042298
 30
0.0
 11
1463.0652046942
 21
764.3984197773
 31
0.0
  0
LINE
  5
240
330
1F
100
AcDbEntity
  8
0
  6
Continuous
 62
     7
370
    15
100
AcDbLine
 10
1463.0652046942
 20
764.3984197773
 30
0.0
 11
1453.7551098198
 21
763.1100131213
 31
0.0
  0
LINE
  5
241
330
1F
100
AcDbEntity
  8
0
  6
Continuous
 62
     7
370
    15
100
AcDbLine
 10
1453.725336966
 20
761.5915975738
 30
0.0
 11
1463.0354318403
 21
762.8800042298
 31
0.0
  0
LINE
  5
242
330
1F
100
AcDbEntity
  8
0
  6
Continuous
 62
     7
370
    15
100
AcDbLine
 10
1463.1048302656
 20
766.4193239185
 30
0.0
 11
1463.1346031195
 21
767.937739466
 31
0.0
  0
LINE
  5
243
330
1F
100
AcDbEntity
  8
0
  6
Continuous
 62
     7
370
    15
100
AcDbLine
 10
1463.1346031195
 20
767.937739466
 30
0.0
 11
1453.8245082451
 21
766.64933281
 31
0.0
  0
LINE
  5
244
330
1F
100
AcDbEntity
  8
0
  6
Continuous
 62
     7
370
    15
100
AcDbLine
 10
1453.7947353912
 20
765.1309172625
 30
0.0
 11
1463.1048302656
 21
766.4193239185
 31
0.0
  0
LINE
  5
245
330
1F
100
AcDbEntity
  8
0
  6
Continuous
 62
     7
370
    15
100
AcDbLine
 10
1450.9786543443
 20
749.6148830309
 30
0.0
 11
1451.7362459126
 21
749.9583562068
 31
0.0
  0
LINE
  5
246
330
1F
100
AcDbEntity
  8
0
  6
Continuous
 62
     7
370
    15
100
AcDbLine
 10
1450.9556357477
 20
751.4239410006
 30
0.0
 11
1450.9187499881
 21
749.542767261
 31
0.0
  0
LINE
  5
247
330
1F
100
AcDbEntity
  8
0
  6
Continuous
 62
     7
370
    15
100
AcDbLine
 10
1441.4602509368
 20
749.7282280267
 30
0.0
 11
1441.4971366964
 21
751.6094017664
 31
0.0
  0
LINE
  5
248
330
1F
100
AcDbEntity
  8
0
  6
Continuous
 62
     7
370
    15
100
AcDbLine
 10
1440.6596747141
 20
750.1755438774
 30
0.0
 11
1441.4032196079
 21
749.8026366532
 31
0.0
  0
LINE
  5
249
330
1F
100
AcDbEntity
  8
0
  6
Continuous
 62
     7
370
    15
100
AcDbLine
 10
1427.4521141036
 20
728.4302869178
 30
0.0
 11
1469.6460552784
 21
727.6029547379
 31
0.0
  0
LINE
  5
24A
330
1F
100
AcDbEntity
  8
0
  6
Continuous
 62
     7
370
    15
100
AcDbLine
 10
1470.0773449269
 20
749.5987268144
 30
0.0
 11
1451.7362459126
 21
749.9583562068
 31
0.0
  0
LINE
  5
24B
330
1F
100
AcDbEntity
  8
0
  6
Continuous
 62
     7
370
    15
100
AcDbLine
 10
1440.6596747141
 20
750.1755438774
 30
0.0
 11
1427.4521141036
 21
750.4345156541
 31
0.0
  0
ARC
  5
24C
330
1F
100
AcDbEntity
  8
0
  6
Continuous
 62
     7
370
    15
100
AcDbCircle
 10
1487.7936940999
 20
762.8951610734
 30
0.0
 40
1.634922991874268
100
AcDbArc
 50
286.3098494026
 51
358.8766972859
  0
LINE
  5
24D
330
1F
100
AcDbEntity
  8
0
  6
Continuous
 62
     7
370
    15
100
AcDbLine
 10
1488.2528323025
 20
761.3260322385
 30
0.0
 11
1456.1363647444
 21
751.9285265271
 31
0.0
  0
LINE
  5
24E
330
1F
100
AcDbEntity
  8
0
  6
Continuous
 62
     7
370
    15
100
AcDbLine
 10
1456.1363647444
 20
751.9285265271
 30
0.0
 11
1456.1244836564
 21
751.3225910417
 31
0.0
  0
LINE
  5
24F
330
1F
100
AcDbEntity
  8
0
  6
Continuous
 62
     7
370
    15
100
AcDbLine
 10
1439.0677469026
 20
769.6579453692
 30
0.0
 11
1439.06562814
 21
769.549888474
 31
0.0
  0
LINE
  5
250
330
1F
100
AcDbEntity
  8
0
  6
Continuous
 62
     7
370
    15
100
AcDbLine
 10
1439.0677469026
 20
769.6579453692
 30
0.0
 11
1487.8026668382
 21
776.4022799944
 31
0.0
  0
ARC
  5
251
330
1F
100
AcDbEntity
  8
0
  6
Continuous
 62
     7
370
    15
100
AcDbCircle
 10
1488.0267848847
 20
774.7827910964
 30
0.0
 40
1.634922991874344
100
AcDbArc
 50
358.8766972859
 51
97.8790126181
  0
LINE
  5
252
330
1F
100
AcDbEntity
  8
0
  6
Continuous
 62
     7
370
    15
100
AcDbLine
 10
1489.6613936798
 20
774.7507399436
 30
0.0
 11
1489.428302895
 21
762.8631099205
 31
0.0
  0
LINE
  5
253
330
1F
100
AcDbEntity
  8
0
  6
Continuous
 62
     7
370
    15
100
AcDbLine
 10
1456.1244836564
 20
751.3225910417
 30
0.0
 11
1455.5787519116
 21
751.3332916641
 31
0.0
  0
ARC
  5
254
330
1F
100
AcDbEntity
  8
0
  6
Continuous
 62
     7
370
    15
100
AcDbCircle
 10
660.1369931236
 20
1025.8637488536
 30
0.0
 40
1.400000000000091
100
AcDbArc
 50
75.0
 51
90.0
  0
LINE
  5
255
330
1F
100
AcDbEntity
  8
0
  6
Continuous
 62
     7
370
    15
100
AcDbLine
 10
660.5069204211
 20
1027.2443363228
 30
0.0
 11
660.4993397867
 21
1027.2160450104
 31
0.0
  0
LINE
  5
256
330
1F
100
AcDbEntity
  8
0
  6
Continuous
 62
     7
370
    15
100
AcDbLine
 10
693.489167981
 20
1018.4067697246
 30
0.0
 11
660.5069204211
 21
1027.2443363228
 31
0.0
  0
LINE
  5
257
330
1F
100
AcDbEntity
  8
0
  6
Continuous
 62
     7
370
    15
100
AcDbLine
 10
693.4815873467
 20
1018.3784784121
 30
0.0
 11
693.489167981
 21
1018.4067697246
 31
0.0
  0
ARC
  5
258
330
1F
100
AcDbEntity
  8
0
  6
Continuous
 62
     7
370
    15
100
AcDbCircle
 10
687.0369931236
 20
994.3269253375
 30
0.0
 40
24.90000000000009
100
AcDbArc
 50
0.0
 51
75.0
  0
LINE
  5
259
330
1F
100
AcDbEntity
  8
0
  6
Continuous
 62
     7
370
    15
100
AcDbLine
 10
711.9369931236
 20
978.3185869128
 30
0.0
 11
660.1369931236
 21
978.3185869128
 31
0.0
  0
LINE
  5
25A
330
1F
100
AcDbEntity
  8
0
  6
Continuous
 62
     7
370
    15
100
AcDbLine
 10
660.1369931236
 20
978.3185869128
 30
0.0
 11
660.1369931236
 21
1027.2637488536
 31
0.0
  0
LINE
  5
25B
330
1F
100
AcDbEntity
  8
0
  6
Continuous
 62
     7
370
    15
100
AcDbLine
 10
711.9369931236
 20
994.3269253375
 30
0.0
 11
711.9369931236
 21
978.3185869128
 31
0.0
  0
SPLINE
  5
25C
330
1F
100
AcDbEntity
  8
0
  6
Continuous
 62
     7
370
    15
100
AcDbSpline
210
0.0
220
0.0
230
1.0
 70
     8
 71
     3
 72
    12
 73
     8
 74
     0
 42
0.00000001
 43
0.00000001
 12
1.0
 22
0.0
 32
0.0
 13
1.0
 23
0.0
 33
0.0
 40
0.0
 40
0.0
 40
0.0
 40
0.0
 40
0.2116477595587159
 40
0.4419539972185703
 40
0.672278256780166
 40
0.9026021736814113
 40
1.0
 40
1.0
 40
1.0
 40
1.0
 10
657.8369931235992
 20
1025.863748853584
 30
0.0
 10
657.8617772263884
 20
1025.96247533988
 30
0.0
 10
657.913530352989
 20
1026.168631858338
 30
0.0
 10
658.3340799676712
 20
1026.482655308456
 30
0.0
 10
658.9789549280848
 20
1026.805085881304
 30
0.0
 10
659.6271366981453
 20
1027.066151681268
 30
0.0
 10
660.0201814989832
 20
1027.218477978166
 30
0.0
 10
660.1369931235992
 20
1027.263748853584
 30
0.0
  0
LINE
  5
25D
330
1F
100
AcDbEntity
  8
0
  6
Continuous
 62
     7
370
    15
100
AcDbLine
 10
657.8369931236
 20
978.3185869128
 30
0.0
 11
657.8369931236
 21
1025.8637488536
 31
0.0
  0
LINE
  5
25E
330
1F
100
AcDbEntity
  8
0
  6
Continuous
 62
     7
370
    15
100
AcDbLine
 10
660.1369931236
 20
978.3185869128
 30
0.0
 11
657.8369931236
 21
978.3185869128
 31
0.0
  0
LINE
  5
25F
330
1F
100
AcDbEntity
  8
0
  6
Continuous
 62
     7
370
    15
100
AcDbLine
 10
712.8369931236
 20
994.3269253375
 30
0.0
 11
712.0369931236
 21
994.3269253375
 31
0.0
  0
LINE
  5
260
330
1F
100
AcDbEntity
  8
0
  6
Continuous
 62
     7
370
    15
100
AcDbLine
 10
712.8369931236
 20
994.3269253375
 30
0.0
 11
712.8369931236
 21
978.210100037
 31
0.0
  0
LINE
  5
261
330
1F
100
AcDbEntity
  8
0
  6
Continuous
 62
     7
370
    15
100
AcDbLine
 10
712.0369931236
 20
978.210100037
 30
0.0
 11
712.8369931236
 21
978.210100037
 31
0.0
  0
LINE
  5
262
330
1F
100
AcDbEntity
  8
0
  6
Continuous
 62
     7
370
    15
100
AcDbLine
 10
712.0369931236
 20
994.3269253375
 30
0.0
 11
712.0369931236
 21
978.210100037
 31
0.0
  0
ARC
  5
263
330
1F
100
AcDbEntity
  8
0
  6
Continuous
 62
     7
370
    15
100
AcDbCircle
 10
687.0369931236
 20
994.3269253375
 30
0.0
 40
25.80000000000007
100
AcDbArc
 50
0.0
 51
75.0
  0
ARC
  5
264
330
1F
100
AcDbEntity
  8
0
  6
Continuous
 62
     7
370
    15
100
AcDbCircle
 10
687.0369931236
 20
994.3269253375
 30
0.0
 40
25.0
100
AcDbArc
 50
0.0
 51
75.0
  0
LINE
  5
265
330
1F
100
AcDbEntity
  8
0
  6
Continuous
 62
     7
370
    15
100
AcDbLine
 10
693.5074692512
 20
1018.4750709948
 30
0.0
 11
693.7145244872
 21
1019.2478116558
 31
0.0
  0
LINE
  5
266
330
1F
100
AcDbEntity
  8
0
  6
Continuous
 62
     7
370
    15
100
AcDbLine
 10
660.7322769273
 20
1028.085378254
 30
0.0
 11
660.5252216913
 21
1027.312637593
 31
0.0
  0
LINE
  5
267
330
1F
100
AcDbEntity
  8
0
  6
Continuous
 62
     7
370
    15
100
AcDbLine
 10
693.7145244872
 20
1019.2478116558
 30
0.0
 11
660.7322769273
 21
1028.085378254
 31
0.0
  0
LINE
  5
268
330
1F
100
AcDbEntity
  8
0
  6
Continuous
 62
     7
370
    15
100
AcDbLine
 10
693.5074692512
 20
1018.4750709948
 30
0.0
 11
660.5252216913
 21
1027.312637593
 31
0.0
  0
ARC
  5
269
330
1F
100
AcDbEntity
  8
0
  6
Continuous
 62
     7
370
    15
100
AcDbCircle
 10
660.1369931236
 20
1025.8637488536
 30
0.0
 40
1.500000000000139
100
AcDbArc
 50
75.0
 51
141.1332788877
  0
ARC
  5
26A
330
1F
100
AcDbEntity
  8
0
  6
Continuous
 62
     7
370
    15
100
AcDbCircle
 10
660.1369931236
 20
1025.8637488536
 30
0.0
 40
2.299999999999955
100
AcDbArc
 50
75.0
 51
180.0
  0
LINE
  5
26B
330
1F
100
AcDbEntity
  8
0
  6
Continuous
 62
     7
370
    15
100
AcDbLine
 10
657.8369931236
 20
978.3185869128
 30
0.0
 11
657.8369931236
 21
977.048822011
 31
0.0
  0
SPLINE
  5
26C
330
1F
100
AcDbEntity
  8
0
  6
Continuous
 62
     7
370
    15
100
AcDbSpline
210
0.0
220
0.0
230
1.0
 70
     8
 71
     3
 72
    11
 73
     7
 74
     0
 42
0.00000001
 43
0.00000001
 12
1.0
 22
0.0
 32
0.0
 13
1.0
 23
0.0
 33
0.0
 40
0.0
 40
0.0
 40
0.0
 40
0.0
 40
0.2499999999999996
 40
0.4999999999999979
 40
0.7500000000000046
 40
1.0
 40
1.0
 40
1.0
 40
1.0
 10
660.1369931235995
 20
975.6185869128466
 30
0.0
 10
660.0178856801095
 20
975.8151424785559
 30
0.0
 10
659.7796707931292
 20
976.2082536099746
 30
0.0
 10
659.4223484626588
 20
976.70407101562
 30
0.0
 10
659.0650261321884
 20
977.0509448353034
 30
0.0
 10
658.8268112452082
 20
977.0960395536656
 30
0.0
 10
658.707703801718
 20
977.1185869128466
 30
0.0
  0
LINE
  5
26D
330
1F
100
AcDbEntity
  8
0
  6
Continuous
 62
     7
370
    15
100
AcDbLine
 10
658.7077038017
 20
977.1185869128
 30
0.0
 11
658.7077038017
 21
978.3185869128
 31
0.0
  0
SPLINE
  5
26E
330
1F
100
AcDbEntity
  8
0
  6
Continuous
 62
     7
370
    15
100
AcDbSpline
210
0.0
220
0.0
230
1.0
 70
     8
 71
     3
 72
    11
 73
     7
 74
     0
 42
0.00000001
 43
0.00000001
 12
1.0
 22
0.0
 32
0.0
 13
1.0
 23
0.0
 33
0.0
 40
0.0
 40
0.0
 40
0.0
 40
0.0
 40
0.2500000000000021
 40
0.5000000000000048
 40
0.7500000000000034
 40
1.0
 40
1.0
 40
1.0
 40
1.0
 10
660.1369931235995
 20
975.6185869128466
 30
0.0
 10
660.0178856801093
 20
975.9723869311233
 30
0.0
 10
659.7796707931292
 20
976.679986967677
 30
0.0
 10
659.4223484626588
 20
977.5724582978387
 30
0.0
 10
659.0650261321884
 20
978.1968311732692
 30
0.0
 10
658.8268112452082
 20
978.2780016663207
 30
0.0
 10
658.707703801718
 20
978.3185869128465
 30
0.0
  0
SPLINE
  5
26F
330
1F
100
AcDbEntity
  8
0
  6
Continuous
 62
     7
370
    15
100
AcDbSpline
210
0.0
220
0.0
230
1.0
 70
     8
 71
     3
 72
    12
 73
     8
 74
     0
 42
0.00000001
 43
0.00000001
 12
1.0
 22
0.0
 32
0.0
 13
1.0
 23
0.0
 33
0.0
 40
0.0
 40
0.0
 40
0.0
 40
0.0
 40
0.1598177898568603
 40
0.31946755191257
 40
0.4853184890848344
 40
0.7468614795315343
 40
1.0
 40
1.0
 40
1.0
 40
1.0
 10
658.6369931235992
 20
977.0478762347279
 30
0.0
 10
658.6502727979469
 20
977.0292253943283
 30
0.0
 10
658.6768181847767
 20
976.9919433224833
 30
0.0
 10
658.8745592552883
 20
976.8351710175452
 30
0.0
 10
659.1946657148927
 20
976.5545837218831
 30
0.0
 10
659.6211987597877
 20
976.1228598197591
 30
0.0
 10
659.9669436109734
 20
975.7848379773546
 30
0.0
 10
660.1369931235994
 20
975.6185869128466
 30
0.0
  0
SPLINE
  5
270
330
1F
100
AcDbEntity
  8
0
  6
Continuous
 62
     7
370
    15
100
AcDbSpline
210
0.0
220
0.0
230
1.0
 70
     8
 71
     3
 72
    12
 73
     8
 74
     0
 42
0.00000001
 43
0.00000001
 12
1.0
 22
0.0
 32
0.0
 13
1.0
 23
0.0
 33
0.0
 40
0.0
 40
0.0
 40
0.0
 40
0.0
 40
0.1926148677847961
 40
0.3852697138086787
 40
0.5799169707153679
 40
0.7838526924722783
 40
1.0
 40
1.0
 40
1.0
 40
1.0
 10
657.4369931235992
 20
977.0478762347279
 30
0.0
 10
657.4643897563476
 20
977.0272278128728
 30
0.0
 10
657.5191887081609
 20
976.9859266834733
 30
0.0
 10
657.940545412883
 20
976.8027464642718
 30
0.0
 10
658.5447783387053
 20
976.4944211944644
 30
0.0
 10
659.2945826307285
 20
976.0771332968305
 30
0.0
 10
659.8507999804377
 20
975.7743694345844
 30
0.0
 10
660.1369931235995
 20
975.6185869128466
 30
0.0
  0
LINE
  5
271
330
1F
100
AcDbEntity
  8
0
  6
Continuous
 62
     7
370
    15
100
AcDbLine
 10
657.4369931236
 20
977.0478762347
 30
0.0
 11
658.6369931236
 21
977.0478762347
 31
0.0
  0
LINE
  5
272
330
1F
100
AcDbEntity
  8
0
  6
Continuous
 62
     7
370
    15
100
AcDbLine
 10
1372.4369931236
 20
978.3185869128
 30
0.0
 11
1372.4369931236
 21
975.6185869128
 31
0.0
  0
LINE
  5
273
330
1F
100
AcDbEntity
  8
0
  6
Continuous
 62
     7
370
    15
100
AcDbLine
 10
660.1369931236
 20
975.6185869128
 30
0.0
 11
1372.4369931236
 21
975.6185869128
 31
0.0
  0
LINE
  5
274
330
1F
100
AcDbEntity
  8
0
  6
Continuous
 62
     7
370
    15
100
AcDbLine
 10
711.9369931236
 20
978.3185869128
 30
0.0
 11
712.0369931236
 21
978.3185869128
 31
0.0
  0
LINE
  5
275
330
1F
100
AcDbEntity
  8
0
  6
Continuous
 62
     7
370
    15
100
AcDbLine
 10
712.8369931236
 20
978.3185869128
 30
0.0
 11
1372.4369931236
 21
978.3185869128
 31
0.0
  0
LINE
  5
276
330
1F
100
AcDbEntity
  8
0
  6
Continuous
 62
     7
370
    15
100
AcDbLine
 10
1372.4369931236
 20
975.6185869128
 30
0.0
 11
1372.4369931236
 21
940.7185869128
 31
0.0
  0
LINE
  5
277
330
1F
100
AcDbEntity
  8
0
  6
Continuous
 62
     7
370
    15
100
AcDbLine
 10
1372.4369931236
 20
940.7185869128
 30
0.0
 11
660.1369931236
 21
940.7185869128
 31
0.0
  0
LINE
  5
278
330
1F
100
AcDbEntity
  8
0
  6
Continuous
 62
     7
370
    15
100
AcDbLine
 10
660.1369931236
 20
975.6185869128
 30
0.0
 11
660.1369931236
 21
940.7185869128
 31
0.0
  0
LINE
  5
279
330
1F
100
AcDbEntity
  8
0
  6
Continuous
 62
     7
370
    15
100
AcDbLine
 10
660.1369931236
 20
940.7185869128
 30
0.0
 11
657.4369931236
 21
940.7185869128
 31
0.0
  0
LINE
  5
27A
330
1F
100
AcDbEntity
  8
0
  6
Continuous
 62
     7
370
    15
100
AcDbLine
 10
657.4369931236
 20
977.0478762347
 30
0.0
 11
657.4369931236
 21
940.7185869128
 31
0.0
  0
LINE
  5
27B
330
1F
100
AcDbEntity
  8
0
  6
Continuous
 62
     7
370
    15
100
AcDbLine
 10
1400.9653487736
 20
977.0185685557
 30
0.0
 11
1400.9653487736
 21
975.6185869128
 31
0.0
  0
LINE
  5
27C
330
1F
100
AcDbEntity
  8
0
  6
Continuous
 62
     7
370
    15
100
AcDbLine
 10
1400.9653487736
 20
975.6185869128
 30
0.0
 11
1372.6369931236
 21
975.6185869128
 31
0.0
  0
ARC
  5
27D
330
1F
100
AcDbEntity
  8
0
  6
Continuous
 62
     7
370
    15
100
AcDbCircle
 10
1388.5369931236
 20
942.5185869128
 30
0.0
 40
2.60000000000009
100
AcDbArc
 50
278.1931111105
 51
81.8068888895
  0
ARC
  5
27E
330
1F
100
AcDbEntity
  8
0
  6
Continuous
 62
     7
370
    15
100
AcDbCircle
 10
1388.9089195413
 20
945.3440374833
 30
0.0
 40
0.2519916941389007
100
AcDbArc
 50
89.6815405099
 51
269.6815405099
  0
ARC
  5
27F
330
1F
100
AcDbEntity
  8
0
  6
Continuous
 62
     7
370
    15
100
AcDbCircle
 10
1388.5369931236
 20
942.5185869128
 30
0.0
 40
2.60000000000009
100
AcDbArc
 50
98.1931111105
 51
261.8068888895
  0
ARC
  5
280
330
1F
100
AcDbEntity
  8
0
  6
Continuous
 62
     7
370
    15
100
AcDbCircle
 10
1388.1650667059
 20
945.3440374833
 30
0.0
 40
0.2519916941389019
100
AcDbArc
 50
270.3184594901
 51
90.3184594902
  0
ARC
  5
281
330
1F
100
AcDbEntity
  8
0
  6
Continuous
 62
     7
370
    15
100
AcDbCircle
 10
1388.5369931236
 20
942.5185869128
 30
0.0
 40
3.10000000000002
100
AcDbArc
 50
96.9168084494
 51
263.0831915506
  0
ARC
  5
282
330
1F
100
AcDbEntity
  8
0
  6
Continuous
 62
     7
370
    15
100
AcDbCircle
 10
1388.1650667059
 20
939.6931363424
 30
0.0
 40
0.2519916941389007
100
AcDbArc
 50
269.6815405099
 51
89.6815405099
  0
ARC
  5
283
330
1F
100
AcDbEntity
  8
0
  6
Continuous
 62
     7
370
    15
100
AcDbCircle
 10
1400.9369931236
 20
955.1185869128
 30
0.0
 40
21.90000000000013
100
AcDbArc
 50
293.5
 51
89.9258146336
  0
ARC
  5
284
330
1F
100
AcDbEntity
  8
0
  6
Continuous
 62
     7
370
    15
100
AcDbCircle
 10
1388.9089195413
 20
939.6931363424
 30
0.0
 40
0.2519916941389007
100
AcDbArc
 50
90.3184594901
 51
270.3184594901
  0
ARC
  5
285
330
1F
100
AcDbEntity
  8
0
  6
Continuous
 62
     7
370
    15
100
AcDbCircle
 10
1388.5369931236
 20
942.5185869128
 30
0.0
 40
3.099999999999965
100
AcDbArc
 50
276.9168084494
 51
83.0831915506
  0
LINE
  5
286
330
1F
100
AcDbEntity
  8
0
  6
Continuous
 62
     7
370
    15
100
AcDbLine
 10
1372.6369931236
 20
975.6185869128
 30
0.0
 11
1372.6369931236
 21
940.6185869128
 31
0.0
  0
LINE
  5
287
330
1F
100
AcDbEntity
  8
0
  6
Continuous
 62
     7
370
    15
100
AcDbLine
 10
1365.6521141036
 20
940.6185869128
 30
0.0
 11
1365.6521141036
 21
923.3185869128
 31
0.0
  0
LINE
  5
288
330
1F
100
AcDbEntity
  8
0
  6
Continuous
 62
     7
370
    15
100
AcDbLine
 10
1382.7237584569
 20
923.3185869128
 30
0.0
 11
1409.6695977331
 21
935.0349712838
 31
0.0
  0
LINE
  5
289
330
1F
100
AcDbEntity
  8
0
  6
Continuous
 62
     7
370
    15
100
AcDbLine
 10
1372.6369931236
 20
940.6185869128
 30
0.0
 11
1365.6521141036
 21
940.6185869128
 31
0.0
  0
SPLINE
  5
28A
330
1F
100
AcDbEntity
  8
0
  6
Continuous
 62
     7
370
    15
100
AcDbSpline
210
0.0
220
0.0
230
1.0
 70
     8
 71
     3
 72
    11
 73
     7
 74
     0
 42
0.00000001
 43
0.00000001
 12
1.0
 22
0.0
 32
0.0
 13
1.0
 23
0.0
 33
0.0
 40
0.0
 40
0.0
 40
0.0
 40
0.0
 40
0.0988499283348731
 40
0.3992332855565801
 40
0.6996166427782887
 40
1.0
 40
1.0
 40
1.0
 40
1.0
 10
1400.882121792481
 20
978.1806957486973
 30
0.0
 10
1400.88486411952
 20
978.1628716105951
 30
0.0
 10
1400.895939779894
 20
978.0908838070965
 30
0.0
 10
1400.9153487736
 20
977.5599243727263
 30
0.0
 10
1400.9403487736
 20
976.6831204489534
 30
0.0
 10
1400.957015440267
 20
975.9734314248814
 30
0.0
 10
1400.9653487736
 20
975.6185869128452
 30
0.0
  0
LINE
  5
28B
330
1F
100
AcDbEntity
  8
0
  6
Continuous
 62
     7
370
    15
100
AcDbLine
 10
1372.6369931236
 20
975.6185869128
 30
0.0
 11
1372.6369931236
 21
978.3185869128
 31
0.0
  0
LINE
  5
28C
330
1F
100
AcDbEntity
  8
0
  6
Continuous
 62
     7
370
    15
100
AcDbLine
 10
1372.6369931236
 20
978.3185869128
 30
0.0
 11
1400.8653487736
 21
978.3185869128
 31
0.0
  0
LINE
  5
28D
330
1F
100
AcDbEntity
  8
0
  6
Continuous
 62
     7
370
    15
100
AcDbLine
 10
1410.1879715227
 20
933.8427931871
 30
0.0
 11
1387.0924091149
 21
923.8005568456
 31
0.0
  0
LINE
  5
28E
330
1F
100
AcDbEntity
  8
0
  6
Continuous
 62
     7
370
    15
100
AcDbLine
 10
1409.70947264
 20
934.9432652764
 30
0.0
 11
1386.6139102322
 21
924.9010289348
 31
0.0
  0
LINE
  5
28F
330
1F
100
AcDbEntity
  8
0
  6
Continuous
 62
     7
370
    15
100
AcDbLine
 10
1409.70947264
 20
934.9432652764
 30
0.0
 11
1410.1879715227
 21
933.8427931871
 31
0.0
  0
LINE
  5
290
330
1F
100
AcDbEntity
  8
0
  6
Continuous
 62
     7
370
    15
100
AcDbLine
 10
1387.0924091149
 20
923.8005568456
 30
0.0
 11
1386.6139102322
 21
924.9010289348
 31
0.0
  0
LINE
  5
291
330
1F
100
AcDbEntity
  8
0
  6
Continuous
 62
     7
370
    15
100
AcDbLine
 10
1400.8653487736
 20
978.3185869128
 30
0.0
 11
1400.9369931236
 21
978.3185869128
 31
0.0
  0
LINE
  5
292
330
1F
100
AcDbEntity
  8
0
  6
Continuous
 62
     7
370
    15
100
AcDbLine
 10
1400.9369931236
 20
978.3185869128
 30
0.0
 11
1400.9369931236
 21
977.1185869128
 31
0.0
  0
ARC
  5
293
330
1F
100
AcDbEntity
  8
0
  6
Continuous
 62
     7
370
    15
100
AcDbCircle
 10
1400.9369931236
 20
955.1185869128
 30
0.0
 40
23.20000000000016
100
AcDbArc
 50
293.5
 51
90.0
  0
ARC
  5
294
330
1F
100
AcDbEntity
  8
0
  6
Continuous
 62
     7
370
    15
100
AcDbCircle
 10
1400.9369931236
 20
955.1185869128
 30
0.0
 40
22.00000000000006
100
AcDbArc
 50
293.5
 51
90.0
  0
LWPOLYLINE
  5
295
330
1F
100
AcDbEntity
  8
0
  6
Continuous
 62
     7
370
    15
100
AcDbPolyline
 90
        3
 70
   128
 43
0.0
 10
712.0369931236
 20
992.0328004752
 10
711.9819610768
 20
992.118626542
 10
711.9369931236
 20
992.1838344971
  0
LINE
  5
296
330
1F
100
AcDbEntity
  8
0
  6
Continuous
 62
     7
370
    15
100
AcDbLine
 10
1372.6369931236
 20
975.6185869128
 30
0.0
 11
1372.4369931236
 21
975.6185869128
 31
0.0
  0
LINE
  5
297
330
1F
100
AcDbEntity
  8
0
  6
Continuous
 62
     7
370
    15
100
AcDbLine
 10
1372.6369931236
 20
976.6240548113
 30
0.0
 11
1372.4369931236
 21
975.6185869128
 31
0.0
  0
LINE
  5
298
330
1F
100
AcDbEntity
  8
0
  6
Continuous
 62
     7
370
    15
100
AcDbLine
 10
1372.6369931236
 20
954.8185869128
 30
0.0
 11
1372.4369931236
 21
954.8185869128
 31
0.0
  0
SPLINE
  5
299
330
1F
100
AcDbEntity
  8
0
  6
Continuous
 62
     7
370
    15
100
AcDbSpline
210
0.0
220
0.0
230
1.0
 70
     8
 71
     3
 72
     9
 73
     5
 74
     0
 42
0.00000001
 43
0.00000001
 12
1.0
 22
0.0
 32
0.0
 13
1.0
 23
0.0
 33
0.0
 40
0.0
 40
0.0
 40
0.0
 40
0.0
 40
0.9102507267058276
 40
1.0
 40
1.0
 40
1.0
 40
1.0
 10
1372.6369931236
 20
952.7559922506026
 30
0.0
 10
1372.582273454394
 20
952.6897726981172
 30
0.0
 10
1372.522158512871
 20
952.6170240031228
 30
0.0
 10
1372.444007151491
 20
952.5809206216468
 30
0.0
 10
1372.4369931236
 20
952.5776803693958
 30
0.0
  0
LINE
  5
29A
330
1F
100
AcDbEntity
  8
0
  6
Continuous
 62
     7
370
    15
100
AcDbLine
 10
1332.3369931236
 20
528.3185869128
 30
0.0
 11
1279.3369931236
 21
528.3185869128
 31
0.0
  0
LINE
  5
29B
330
1F
100
AcDbEntity
  8
0
  6
Continuous
 62
     7
370
    15
100
AcDbLine
 10
1334.3369931236
 20
534.3185869128
 30
0.0
 11
1277.3369931236
 21
534.3185869128
 31
0.0
  0
LINE
  5
29C
330
1F
100
AcDbEntity
  8
0
  6
Continuous
 62
     7
370
    15
100
AcDbLine
 10
741.0369931236
 20
534.3185869128
 30
0.0
 11
684.0369931236
 21
534.3185869128
 31
0.0
  0
LINE
  5
29D
330
1F
100
AcDbEntity
  8
0
  6
Continuous
 62
     7
370
    15
100
AcDbLine
 10
739.0369931236
 20
528.3185869128
 30
0.0
 11
686.0369931236
 21
528.3185869128
 31
0.0
  0
LINE
  5
29E
330
1F
100
AcDbEntity
  8
0
  6
Continuous
 62
     7
370
    15
100
AcDbLine
 10
667.5369931236
 20
676.3185869128
 30
0.0
 11
667.5369931236
 21
677.5185869128
 31
0.0
  0
LINE
  5
29F
330
1F
100
AcDbEntity
  8
0
  6
Continuous
 62
     7
370
    15
100
AcDbLine
 10
757.5369931236
 20
676.3185869128
 30
0.0
 11
757.5369931236
 21
677.5185869128
 31
0.0
  0
LINE
  5
2A0
330
1F
100
AcDbEntity
  8
0
  6
Continuous
 62
     7
370
    15
100
AcDbLine
 10
667.5369931236
 20
676.3185869128
 30
0.0
 11
757.5369931236
 21
676.3185869128
 31
0.0
  0
LINE
  5
2A1
330
1F
100
AcDbEntity
  8
0
  6
Continuous
 62
     7
370
    15
100
AcDbLine
 10
743.496643344
 20
582.3185869128
 30
0.0
 11
681.5773429033
 21
582.3185869128
 31
0.0
  0
LINE
  5
2A2
330
1F
100
AcDbEntity
  8
0
  6
Continuous
 62
     7
370
    15
100
AcDbLine
 10
1260.8369931236
 20
676.3185869128
 30
0.0
 11
1260.8369931236
 21
677.5185869128
 31
0.0
  0
LINE
  5
2A3
330
1F
100
AcDbEntity
  8
0
  6
Continuous
 62
     7
370
    15
100
AcDbLine
 10
1260.8369931236
 20
676.3185869128
 30
0.0
 11
1350.8369931236
 21
676.3185869128
 31
0.0
  0
LINE
  5
2A4
330
1F
100
AcDbEntity
  8
0
  6
Continuous
 62
     7
370
    15
100
AcDbLine
 10
1350.8369931236
 20
676.3185869128
 30
0.0
 11
1350.8369931236
 21
677.5185869128
 31
0.0
  0
LINE
  5
2A5
330
1F
100
AcDbEntity
  8
0
  6
Continuous
 62
     7
370
    15
100
AcDbLine
 10
1336.796643344
 20
582.3185869128
 30
0.0
 11
1274.8773429033
 21
582.3185869128
 31
0.0
  0
SPLINE
  5
2A6
330
1F
100
AcDbEntity
  8
0
  6
Continuous
 62
     7
370
    15
100
AcDbSpline
210
0.0
220
0.0
230
1.0
 70
     8
 71
     3
 72
    10
 73
     6
 74
     0
 42
0.00000001
 43
0.00000001
 12
1.0
 22
0.0
 32
0.0
 13
1.0
 23
0.0
 33
0.0
 40
0.0
 40
0.0
 40
0.0
 40
0.0
 40
0.1180833233212786
 40
0.592258498767949
 40
1.0
 40
1.0
 40
1.0
 40
1.0
 10
1264.770925489502
 20
674.9780783366078
 30
0.0
 10
1264.890873620753
 20
674.9367646769192
 30
0.0
 10
1265.492485246735
 20
674.7295519615445
 30
0.0
 10
1266.524575307777
 20
674.5810629570452
 30
0.0
 10
1267.399466115068
 20
674.8525569778109
 30
0.0
 10
1267.803959306559
 20
674.9780783366078
 30
0.0
  0
SPLINE
  5
2A7
330
1F
100
AcDbEntity
  8
0
  6
Continuous
 62
     7
370
    15
100
AcDbSpline
210
0.0
220
0.0
230
1.0
 70
     8
 71
     3
 72
     9
 73
     5
 74
     0
 42
0.00000001
 43
0.00000001
 12
1.0
 22
0.0
 32
0.0
 13
1.0
 23
0.0
 33
0.0
 40
0.0
 40
0.0
 40
0.0
 40
0.0
 40
0.0534557781518604
 40
1.0
 40
1.0
 40
1.0
 40
1.0
 10
1273.870026940675
 20
674.9780783366078
 30
0.0
 10
1273.869402174474
 20
674.9776230370622
 30
0.0
 10
1273.857714640919
 20
674.9691057249697
 30
0.0
 10
1273.847069356278
 20
674.9559383117446
 30
0.0
 10
1273.836993123611
 20
674.9434747728394
 30
0.0
  0
SPLINE
  5
2A8
330
1F
100
AcDbEntity
  8
0
  6
Continuous
 62
     7
370
    15
100
AcDbSpline
210
0.0
220
0.0
230
1.0
 70
     8
 71
     3
 72
     9
 73
     5
 74
     0
 42
0.00000001
 43
0.00000001
 12
1.0
 22
0.0
 32
0.0
 13
1.0
 23
0.0
 33
0.0
 40
0.0
 40
0.0
 40
0.0
 40
0.0
 40
0.0534557781720466
 40
1.0
 40
1.0
 40
1.0
 40
1.0
 10
1267.803959306559
 20
674.9780783366078
 30
0.0
 10
1267.80458407276
 20
674.9776230370622
 30
0.0
 10
1267.816271606311
 20
674.9691057249734
 30
0.0
 10
1267.826916890948
 20
674.9559383117529
 30
0.0
 10
1267.836993123611
 20
674.9434747728528
 30
0.0
  0
SPLINE
  5
2A9
330
1F
100
AcDbEntity
  8
0
  6
Continuous
 62
     7
370
    15
100
AcDbSpline
210
0.0
220
0.0
230
1.0
 70
     8
 71
     3
 72
     9
 73
     5
 74
     0
 42
0.00000001
 43
0.00000001
 12
1.0
 22
0.0
 32
0.0
 13
1.0
 23
0.0
 33
0.0
 40
0.0
 40
0.0
 40
0.0
 40
0.0
 40
0.4921482720964361
 40
0.9999999999999999
 40
0.9999999999999999
 40
0.9999999999999999
 40
0.9999999999999999
 10
1267.950241777669
 20
674.602932833936
 30
0.0
 10
1267.476766335258
 20
674.4718603095146
 30
0.0
 10
1266.514707806852
 20
674.2055330015609
 30
0.0
 10
1265.552267436705
 20
674.4690866554255
 30
0.0
 10
1265.063490431721
 20
674.602932833936
 30
0.0
  0
SPLINE
  5
2AA
330
1F
100
AcDbEntity
  8
0
  6
Continuous
 62
     7
370
    15
100
AcDbSpline
210
0.0
220
0.0
230
1.0
 70
     8
 71
     3
 72
    12
 73
     8
 74
     0
 42
0.00000001
 43
0.00000001
 12
1.0
 22
0.0
 32
0.0
 13
1.0
 23
0.0
 33
0.0
 40
0.0
 40
0.0
 40
0.0
 40
0.0
 40
0.2361835476836538
 40
0.4713974376604904
 40
0.7324646722772598
 40
0.992085974135869
 40
1.0
 40
1.0
 40
1.0
 40
1.0
 10
1265.063490431721
 20
674.602932833936
 30
0.0
 10
1265.059131442734
 20
674.6427729121071
 30
0.0
 10
1265.050431360703
 20
674.7222895039708
 30
0.0
 10
1264.986406179222
 20
674.8310297578786
 30
0.0
 10
1264.894052005463
 20
674.9199098978809
 30
0.0
 10
1264.814365519586
 20
674.96213716185
 30
0.0
 10
1264.772173579276
 20
674.9776203254792
 30
0.0
 10
1264.770925489502
 20
674.9780783366078
 30
0.0
  0
SPLINE
  5
2AB
330
1F
100
AcDbEntity
  8
0
  6
Continuous
 62
     7
370
    15
100
AcDbSpline
210
0.0
220
0.0
230
1.0
 70
     8
 71
     3
 72
     9
 73
     5
 74
     0
 42
0.00000001
 43
0.00000001
 12
1.0
 22
0.0
 32
0.0
 13
1.0
 23
0.0
 33
0.0
 40
0.0
 40
0.0
 40
0.0
 40
0.0
 40
0.8014621133360853
 40
1.0
 40
1.0
 40
1.0
 40
1.0
 10
1266.506866104695
 20
670.3185869128442
 30
0.0
 10
1266.902931134203
 20
670.3994087349153
 30
0.0
 10
1267.397109240587
 20
670.5002517076848
 30
0.0
 10
1267.858615333333
 20
670.8492896561838
 30
0.0
 10
1267.950241777669
 20
670.9185869128443
 30
0.0
  0
LINE
  5
2AC
330
1F
100
AcDbEntity
  8
0
  6
Continuous
 62
     7
370
    15
100
AcDbLine
 10
1266.5068661047
 20
670.3185869128
 30
0.0
 11
1267.8369931236
 21
670.3185869128
 31
0.0
  0
LINE
  5
2AD
330
1F
100
AcDbEntity
  8
0
  6
Continuous
 62
     7
370
    15
100
AcDbLine
 10
1273.8369931236
 20
670.3185869128
 30
0.0
 11
1273.9369931236
 21
670.3185869128
 31
0.0
  0
SPLINE
  5
2AE
330
1F
100
AcDbEntity
  8
0
  6
Continuous
 62
     7
370
    15
100
AcDbSpline
210
0.0
220
0.0
230
1.0
 70
     8
 71
     3
 72
     9
 73
     5
 74
     0
 42
0.00000001
 43
0.00000001
 12
1.0
 22
0.0
 32
0.0
 13
1.0
 23
0.0
 33
0.0
 40
0.0
 40
0.0
 40
0.0
 40
0.0
 40
0.8960371511625903
 40
1.0
 40
1.0
 40
1.0
 40
1.0
 10
1265.063490431721
 20
670.9185869128443
 30
0.0
 10
1265.488482238679
 20
670.6419117990825
 30
0.0
 10
1265.96278378567
 20
670.3331354125198
 30
0.0
 10
1266.455628558117
 20
670.3199569802102
 30
0.0
 10
1266.506866104695
 20
670.3185869128442
 30
0.0
  0
LINE
  5
2AF
330
1F
100
AcDbEntity
  8
0
  6
Continuous
 62
     7
370
    15
100
AcDbLine
 10
1265.0634904317
 20
674.6029328339
 30
0.0
 11
1265.0634904317
 21
670.9185869128
 31
0.0
  0
LINE
  5
2B0
330
1F
100
AcDbEntity
  8
0
  6
Continuous
 62
     7
370
    15
100
AcDbLine
 10
1265.8369931236
 20
670.3185869128
 30
0.0
 11
1266.5068661047
 21
670.3185869128
 31
0.0
  0
LINE
  5
2B1
330
1F
100
AcDbEntity
  8
0
  6
Continuous
 62
     7
370
    15
100
AcDbLine
 10
1337.8369931236
 20
662.2185869128
 30
0.0
 11
1343.8369931236
 21
662.2185869128
 31
0.0
  0
LINE
  5
2B2
330
1F
100
AcDbEntity
  8
0
  6
Continuous
 62
     7
370
    15
100
AcDbLine
 10
1267.8369931236
 20
662.2185869128
 30
0.0
 11
1273.8369931236
 21
662.2185869128
 31
0.0
  0
LINE
  5
2B3
330
1F
100
AcDbEntity
  8
0
  6
Continuous
 62
     7
370
    15
100
AcDbLine
 10
744.5369931236
 20
662.2185869128
 30
0.0
 11
750.5369931236
 21
662.2185869128
 31
0.0
  0
LINE
  5
2B4
330
1F
100
AcDbEntity
  8
0
  6
Continuous
 62
     7
370
    15
100
AcDbLine
 10
674.5369931236
 20
662.2185869128
 30
0.0
 11
680.5369931236
 21
662.2185869128
 31
0.0
  0
SPLINE
  5
2B5
330
1F
100
AcDbEntity
  8
0
  6
Continuous
 62
     7
370
    15
100
AcDbSpline
210
0.0
220
0.0
230
1.0
 70
     8
 71
     3
 72
    13
 73
     9
 74
     0
 42
0.00000001
 43
0.00000001
 12
1.0
 22
0.0
 32
0.0
 13
1.0
 23
0.0
 33
0.0
 40
0.0
 40
0.0
 40
0.0
 40
0.0
 40
0.0075462231153492
 40
0.2722763788512528
 40
0.4815195415732991
 40
0.6613541616921805
 40
0.830458894939803
 40
1.0
 40
1.0
 40
1.0
 40
1.0
 10
647.4369931235997
 20
709.2252660834446
 30
0.0
 10
647.4369899395571
 20
709.2253730327138
 30
0.0
 10
647.4368750556558
 20
709.2292318849271
 30
0.0
 10
647.4252893960411
 20
709.2362470379843
 30
0.0
 10
647.38257061677
 20
709.2451163048154
 30
0.0
 10
647.3268990136652
 20
709.2514005146796
 30
0.0
 10
647.2607632202848
 20
709.2556201629499
 30
0.0
 10
647.2116042708863
 20
709.2561796426945
 30
0.0
 10
647.1869931235996
 20
709.2564597430337
 30
0.0
  0
LINE
  5
2B6
330
1F
100
AcDbEntity
  8
0
  6
Continuous
 62
     7
370
    15
100
AcDbLine
 10
647.4369931236
 20
716.9929962488
 30
0.0
 11
647.4369931236
 21
709.2252660834
 31
0.0
  0
SPLINE
  5
2B7
330
1F
100
AcDbEntity
  8
0
  6
Continuous
 62
     7
370
    15
100
AcDbSpline
210
0.0
220
0.0
230
1.0
 70
     8
 71
     3
 72
    13
 73
     9
 74
     0
 42
0.00000001
 43
0.00000001
 12
1.0
 22
0.0
 32
0.0
 13
1.0
 23
0.0
 33
0.0
 40
0.0
 40
0.0
 40
0.0
 40
0.0
 40
0.1695411050602372
 40
0.3386458383075344
 40
0.5184804584263871
 40
0.7277236211482297
 40
0.9924537768849644
 40
1.0
 40
1.0
 40
1.0
 40
1.0
 10
646.4869931235997
 20
709.2564597430338
 30
0.0
 10
646.4623819763129
 20
709.2561796426946
 30
0.0
 10
646.4132230269147
 20
709.2556201629501
 30
0.0
 10
646.347087233534
 20
709.2514005146796
 30
0.0
 10
646.2914156304299
 20
709.2451163048154
 30
0.0
 10
646.2486968511573
 20
709.2362470379843
 30
0.0
 10
646.2371111915464
 20
709.2292318849272
 30
0.0
 10
646.2369963076422
 20
709.2253730327138
 30
0.0
 10
646.2369931235997
 20
709.2252660834446
 30
0.0
  0
LINE
  5
2B8
330
1F
100
AcDbEntity
  8
0
  6
Continuous
 62
     7
370
    15
100
AcDbLine
 10
646.2369931236
 20
709.2252660834
 30
0.0
 11
646.2369931236
 21
716.7153249314
 31
0.0
  0
LINE
  5
2B9
330
1F
100
AcDbEntity
  8
0
  6
Continuous
 62
     7
370
    15
100
AcDbLine
 10
646.4869931236
 20
709.256459743
 30
0.0
 11
647.1869931236
 21
709.256459743
 31
0.0
  0
SPLINE
  5
2BA
330
1F
100
AcDbEntity
  8
0
  6
Continuous
 62
     7
370
    15
100
AcDbSpline
210
0.0
220
0.0
230
1.0
 70
     8
 71
     3
 72
    12
 73
     8
 74
     0
 42
0.00000001
 43
0.00000001
 12
1.0
 22
0.0
 32
0.0
 13
1.0
 23
0.0
 33
0.0
 40
0.0
 40
0.0
 40
0.0
 40
0.0
 40
0.2028202020467056
 40
0.4049472449427083
 40
0.6098312030740689
 40
0.8226939241827077
 40
1.0
 40
1.0
 40
1.0
 40
1.0
 10
645.9869931236003
 20
703.9074835035439
 30
0.0
 10
646.1441339641358
 20
703.9197065227318
 30
0.0
 10
646.4578786000283
 20
703.9441107876676
 30
0.0
 10
646.8782748504976
 20
704.1337619939991
 30
0.0
 10
647.2053533859375
 20
704.4158921497686
 30
0.0
 10
647.4035626522032
 20
704.755537612296
 30
0.0
 10
647.4265478581253
 20
704.9962852599718
 30
0.0
 10
647.4369931236001
 20
705.1056892436012
 30
0.0
  0
LINE
  5
2BB
330
1F
100
AcDbEntity
  8
0
  6
Continuous
 62
     7
370
    15
100
AcDbLine
 10
645.9869931236
 20
703.9074835035
 30
0.0
 11
645.9869931236
 21
707.880033539
 31
0.0
  0
SPLINE
  5
2BC
330
1F
100
AcDbEntity
  8
0
  6
Continuous
 62
     7
370
    15
100
AcDbSpline
210
0.0
220
0.0
230
1.0
 70
     8
 71
     3
 72
    12
 73
     8
 74
     0
 42
0.00000001
 43
0.00000001
 12
1.0
 22
0.0
 32
0.0
 13
1.0
 23
0.0
 33
0.0
 40
0.0
 40
0.0
 40
0.0
 40
0.0
 40
0.2289440738515816
 40
0.459421430024133
 40
0.6825355698157684
 40
0.8947175231628817
 40
1.0
 40
1.0
 40
1.0
 40
1.0
 10
647.4369931235999
 20
708.9808728566654
 30
0.0
 10
647.4196586390223
 20
708.8519932803376
 30
0.0
 10
647.384873577503
 20
708.59337099647
 30
0.0
 10
647.1110037316912
 20
708.2507601429759
 30
0.0
 10
646.7139671972077
 20
708.003699836032
 30
0.0
 10
646.3130912078553
 20
707.8926154802791
 30
0.0
 10
646.0682058147682
 20
707.8831669929276
 30
0.0
 10
645.9869931236
 20
707.880033539047
 30
0.0
  0
LINE
  5
2BD
330
1F
100
AcDbEntity
  8
0
  6
Continuous
 62
     7
370
    15
100
AcDbLine
 10
647.4369931236
 20
708.9808728567
 30
0.0
 11
647.4369931236
 21
705.1056892436
 31
0.0
  0
LINE
  5
2BE
330
1F
100
AcDbEntity
  8
0
  6
Continuous
 62
     7
370
    15
100
AcDbLine
 10
640.6369931236
 20
704.1381478028
 30
0.0
 11
640.6369931236
 21
708.0133314159
 31
0.0
  0
LWPOLYLINE
  5
2BF
330
1F
100
AcDbEntity
  8
0
  6
Continuous
 62
     7
370
    15
100
AcDbPolyline
 90
        9
 70
   128
 43
0.0
 10
640.6369931236
 20
708.0133314159
 10
640.6417968035
 20
707.9873262901
 10
640.6560232405
 20
707.9623205268
 10
640.6791257205
 20
707.9392750834
 10
640.7102164283
 20
707.9190755832
 10
640.7481005653
 20
707.9024982819
 10
640.7913222655
 20
707.8901802357
 10
640.8382205431
 20
707.8825948204
 10
640.8869931236
 20
707.880033539
  0
LINE
  5
2C0
330
1F
100
AcDbEntity
  8
0
  6
Continuous
 62
     7
370
    15
100
AcDbLine
 10
640.8869931236
 20
707.880033539
 30
0.0
 11
640.8869931236
 21
703.9074835035
 31
0.0
  0
ARC
  5
2C1
330
1F
100
AcDbEntity
  8
0
  6
Continuous
 62
     7
370
    15
100
AcDbCircle
 10
640.8776991425
 20
704.1482208625
 30
0.0
 40
0.2409166953322373
100
AcDbArc
 50
182.3963142132
 51
272.2108806481
  0
LINE
  5
2C2
330
1F
100
AcDbEntity
  8
0
  6
Continuous
 62
     7
370
    15
100
AcDbLine
 10
640.8869931236
 20
703.9074835035
 30
0.0
 11
645.9869931236
 21
703.9074835035
 31
0.0
  0
LINE
  5
2C3
330
1F
100
AcDbEntity
  8
0
  6
Continuous
 62
     7
370
    15
100
AcDbLine
 10
645.9869931236
 20
707.880033539
 30
0.0
 11
640.8869931236
 21
707.880033539
 31
0.0
  0
LINE
  5
2C4
330
1F
100
AcDbEntity
  8
0
  6
Continuous
 62
     7
370
    15
100
AcDbLine
 10
645.9869931236
 20
707.880033539
 30
0.0
 11
645.9869931236
 21
708.1747973997
 31
0.0
  0
SPLINE
  5
2C5
330
1F
100
AcDbEntity
  8
0
  6
Continuous
 62
     7
370
    15
100
AcDbSpline
210
0.0
220
0.0
230
1.0
 70
     8
 71
     3
 72
    12
 73
     8
 74
     0
 42
0.00000001
 43
0.00000001
 12
1.0
 22
0.0
 32
0.0
 13
1.0
 23
0.0
 33
0.0
 40
0.0
 40
0.0
 40
0.0
 40
0.0
 40
0.1044203826439051
 40
0.3151731030979951
 40
0.5377472974586408
 40
0.7690283494734741
 40
0.9999999999999999
 40
0.9999999999999999
 40
0.9999999999999999
 40
0.9999999999999999
 10
645.9869931236
 20
708.1747973997332
 30
0.0
 10
646.0542126922365
 20
708.1775299638708
 30
0.0
 10
646.2571022000096
 20
708.1857776900026
 30
0.0
 10
646.5894595651746
 20
708.2829645886285
 30
0.0
 10
646.918104353428
 20
708.4994059687511
 30
0.0
 10
647.1441660663043
 20
708.8002686471905
 30
0.0
 10
647.1727238093916
 20
709.0283663339444
 30
0.0
 10
647.1869931235999
 20
709.1423388405436
 30
0.0
  0
LWPOLYLINE
  5
2C6
330
1F
100
AcDbEntity
  8
0
  6
Continuous
 62
     7
370
    15
100
AcDbPolyline
 90
        9
 70
   128
 43
0.0
 10
647.4369931236
 20
708.9808728567
 10
647.4321894437
 20
709.0123733075
 10
647.4179630067
 20
709.0426632136
 10
647.3948605267
 20
709.070578551
 10
647.3637698189
 20
709.0950465488
 10
647.3258856819
 20
709.1151269157
 10
647.2826639817
 20
709.1300479744
 10
647.2357657041
 20
709.1392363169
 10
647.1869931236
 20
709.1423388405
  0
LWPOLYLINE
  5
2C7
330
1F
100
AcDbEntity
  8
0
  6
Continuous
 62
     7
370
    15
100
AcDbPolyline
 90
        9
 70
   128
 43
0.0
 10
640.6369931236
 20
708.0133314159
 10
640.6417968035
 20
708.0448318666
 10
640.6560232405
 20
708.0751217728
 10
640.6791257205
 20
708.1030371101
 10
640.7102164283
 20
708.127505108
 10
640.7481005653
 20
708.1475854749
 10
640.7913222655
 20
708.1625065336
 10
640.8382205431
 20
708.1716948761
 10
640.8869931236
 20
708.1747973997
  0
LINE
  5
2C8
330
1F
100
AcDbEntity
  8
0
  6
Continuous
 62
     7
370
    15
100
AcDbLine
 10
640.8869931236
 20
707.880033539
 30
0.0
 11
640.8869931236
 21
708.1747973997
 31
0.0
  0
LINE
  5
2C9
330
1F
100
AcDbEntity
  8
0
  6
Continuous
 62
     7
370
    15
100
AcDbLine
 10
640.8869931236
 20
708.1747973997
 30
0.0
 11
645.9869931236
 21
708.1747973997
 31
0.0
  0
LINE
  5
2CA
330
1F
100
AcDbEntity
  8
0
  6
Continuous
 62
     7
370
    15
100
AcDbLine
 10
647.1869931236
 20
709.1423388405
 30
0.0
 11
647.1869931236
 21
709.256459743
 31
0.0
  0
LINE
  5
2CB
330
1F
100
AcDbEntity
  8
0
  6
Continuous
 62
     7
370
    15
100
AcDbLine
 10
640.8869931236
 20
708.7374350013
 30
0.0
 11
640.8869931236
 21
708.1747973997
 31
0.0
  0
LINE
  5
2CC
330
1F
100
AcDbEntity
  8
0
  6
Continuous
 62
     7
370
    15
100
AcDbLine
 10
645.9869931236
 20
708.7374350013
 30
0.0
 11
640.8869931236
 21
708.7374350013
 31
0.0
  0
SPLINE
  5
2CD
330
1F
100
AcDbEntity
  8
0
  6
Continuous
 62
     7
370
    15
100
AcDbSpline
210
0.0
220
0.0
230
1.0
 70
     8
 71
     3
 72
    12
 73
     8
 74
     0
 42
0.00000001
 43
0.00000001
 12
1.0
 22
0.0
 32
0.0
 13
1.0
 23
0.0
 33
0.0
 40
0.0
 40
0.0
 40
0.0
 40
0.0
 40
0.1009214352040099
 40
0.3119724040343414
 40
0.5359629038279791
 40
0.7681188099357479
 40
1.0
 40
1.0
 40
1.0
 40
1.0
 10
645.9869931236
 20
708.7374350013185
 30
0.0
 10
646.014114082272
 20
708.7385130461993
 30
0.0
 10
646.0979514817259
 20
708.7418455419413
 30
0.0
 10
646.2364226841105
 20
708.7820414236785
 30
0.0
 10
646.3741442220794
 20
708.8728120156683
 30
0.0
 10
646.4689456693906
 20
708.9989841609266
 30
0.0
 10
646.4809796802942
 20
709.0945728105825
 30
0.0
 10
646.4869931235999
 20
709.1423388405436
 30
0.0
  0
LINE
  5
2CE
330
1F
100
AcDbEntity
  8
0
  6
Continuous
 62
     7
370
    15
100
AcDbLine
 10
646.4869931236
 20
709.256459743
 30
0.0
 11
646.4869931236
 21
709.1423388405
 31
0.0
  0
LWPOLYLINE
  5
2CF
330
1F
100
AcDbEntity
  8
0
  6
Continuous
 62
     7
370
    15
100
AcDbPolyline
 90
        9
 70
   128
 43
0.0
 10
640.6369931236
 20
708.5759690174
 10
640.6417968035
 20
708.6074694682
 10
640.6560232405
 20
708.6377593744
 10
640.6791257205
 20
708.6656747117
 10
640.7102164283
 20
708.6901427096
 10
640.7481005653
 20
708.7102230765
 10
640.7913222655
 20
708.7251441351
 10
640.8382205431
 20
708.7343324777
 10
640.8869931236
 20
708.7374350013
  0
LINE
  5
2D0
330
1F
100
AcDbEntity
  8
0
  6
Continuous
 62
     7
370
    15
100
AcDbLine
 10
640.6369931236
 20
708.0133314159
 30
0.0
 11
640.6369931236
 21
708.5759690174
 31
0.0
  0
LWPOLYLINE
  5
2D1
330
1F
100
AcDbEntity
  8
0
  6
Continuous
 62
     7
370
    15
100
AcDbPolyline
 90
        9
 70
   128
 43
0.0
 10
646.2369931236
 20
708.9808728567
 10
646.2417968035
 20
709.0123733075
 10
646.2560232405
 20
709.0426632136
 10
646.2791257205
 20
709.070578551
 10
646.3102164283
 20
709.0950465488
 10
646.3481005653
 20
709.1151269157
 10
646.3913222655
 20
709.1300479744
 10
646.4382205431
 20
709.1392363169
 10
646.4869931236
 20
709.1423388405
  0
LINE
  5
2D2
330
1F
100
AcDbEntity
  8
0
  6
Continuous
 62
     7
370
    15
100
AcDbLine
 10
647.4369931236
 20
709.2252660834
 30
0.0
 11
647.4369931236
 21
708.9808728567
 31
0.0
  0
LINE
  5
2D3
330
1F
100
AcDbEntity
  8
0
  6
Continuous
 62
     7
370
    15
100
AcDbLine
 10
646.2369931236
 20
708.9808728567
 30
0.0
 11
646.2369931236
 21
709.2252660834
 31
0.0
  0
LINE
  5
2D4
330
1F
100
AcDbEntity
  8
0
  6
Continuous
 62
     7
370
    15
100
AcDbLine
 10
645.9869931236
 20
703.8881478028
 30
0.0
 11
645.9869931236
 21
703.9074835035
 31
0.0
  0
LINE
  5
2D5
330
1F
100
AcDbEntity
  8
0
  6
Continuous
 62
     7
370
    15
100
AcDbLine
 10
647.4369931236
 20
705.1056892436
 30
0.0
 11
647.4369931236
 21
704.8685869128
 31
0.0
  0
LINE
  5
2D6
330
1F
100
AcDbEntity
  8
0
  6
Continuous
 62
     7
370
    15
100
AcDbLine
 10
640.8869931236
 20
722.6604920068
 30
0.0
 11
640.8869931236
 21
722.0978544052
 31
0.0
  0
LINE
  5
2D7
330
1F
100
AcDbEntity
  8
0
  6
Continuous
 62
     7
370
    15
100
AcDbLine
 10
645.9869931236
 20
722.6604920068
 30
0.0
 11
640.8869931236
 21
722.6604920068
 31
0.0
  0
SPLINE
  5
2D8
330
1F
100
AcDbEntity
  8
0
  6
Continuous
 62
     7
370
    15
100
AcDbSpline
210
0.0
220
0.0
230
1.0
 70
     8
 71
     3
 72
    10
 73
     6
 74
     0
 42
0.00000001
 43
0.00000001
 12
1.0
 22
0.0
 32
0.0
 13
1.0
 23
0.0
 33
0.0
 40
0.0
 40
0.0
 40
0.0
 40
0.0
 40
0.3816828359346133
 40
0.7620612310504044
 40
1.0
 40
1.0
 40
1.0
 40
1.0
 10
645.9869931235995
 20
722.7296903221327
 30
0.0
 10
646.1432440962452
 20
722.7168339418134
 30
0.0
 10
646.4552120375738
 20
722.6911651191929
 30
0.0
 10
646.8331628872115
 20
722.5341900846449
 30
0.0
 10
646.9958929103936
 20
722.3789154810579
 30
0.0
 10
647.0585141404636
 20
722.3191632209335
 30
0.0
  0
LINE
  5
2D9
330
1F
100
AcDbEntity
  8
0
  6
Continuous
 62
     7
370
    15
100
AcDbLine
 10
640.8869931236
 20
722.0978544052
 30
0.0
 11
640.8869931236
 21
721.703474867
 31
0.0
  0
ARC
  5
2DA
330
1F
100
AcDbEntity
  8
0
  6
Continuous
 62
     7
370
    15
100
AcDbCircle
 10
640.8787418474
 20
721.9452450079
 30
0.0
 40
0.2419109021304588
100
AcDbArc
 50
182.0981214799
 51
271.9546660229
  0
LWPOLYLINE
  5
2DB
330
1F
100
AcDbEntity
  8
0
  6
Continuous
 62
     7
370
    15
100
AcDbPolyline
 90
        9
 70
   128
 43
0.0
 10
640.8869931236
 20
722.0978544052
 10
640.8382205431
 20
722.0947518816
 10
640.7913222655
 20
722.085563539
 10
640.7481005653
 20
722.0706424803
 10
640.7102164283
 20
722.0505621134
 10
640.6791257205
 20
722.0260941156
 10
640.6560232405
 20
721.9981787782
 10
640.6417968035
 20
721.9678888721
 10
640.6369931236
 20
721.9363884213
  0
LINE
  5
2DC
330
1F
100
AcDbEntity
  8
0
  6
Continuous
 62
     7
370
    15
100
AcDbLine
 10
640.6369931236
 20
721.9363884213
 30
0.0
 11
640.6369931236
 21
722.4990260229
 31
0.0
  0
LWPOLYLINE
  5
2DD
330
1F
100
AcDbEntity
  8
0
  6
Continuous
 62
     7
370
    15
100
AcDbPolyline
 90
        9
 70
   128
 43
0.0
 10
640.8869931236
 20
722.6604920068
 10
640.8382205431
 20
722.6573894832
 10
640.7913222655
 20
722.6482011406
 10
640.7481005653
 20
722.6332800819
 10
640.7102164283
 20
722.613199715
 10
640.6791257205
 20
722.5887317172
 10
640.6560232405
 20
722.5608163798
 10
640.6417968035
 20
722.5305264737
 10
640.6369931236
 20
722.4990260229
  0
LINE
  5
2DE
330
1F
100
AcDbEntity
  8
0
  6
Continuous
 62
     7
370
    15
100
AcDbLine
 10
640.6369931236
 20
718.6352928651
 30
0.0
 11
640.6369931236
 21
721.9363884213
 31
0.0
  0
SPLINE
  5
2DF
330
1F
100
AcDbEntity
  8
0
  6
Continuous
 62
     7
370
    15
100
AcDbSpline
210
0.0
220
0.0
230
1.0
 70
     8
 71
     3
 72
    13
 73
     9
 74
     0
 42
0.00000001
 43
0.00000001
 12
1.0
 22
0.0
 32
0.0
 13
1.0
 23
0.0
 33
0.0
 40
0.0
 40
0.0
 40
0.0
 40
0.0
 40
0.0075462231153279
 40
0.2722763788511992
 40
0.4815195415732693
 40
0.661354161692158
 40
0.830458894939795
 40
1.0
 40
1.0
 40
1.0
 40
1.0
 10
645.0369931236003
 20
716.6519025696448
 30
0.0
 10
645.0369963076428
 20
716.6516876346496
 30
0.0
 10
645.0371111915448
 20
716.6439325336823
 30
0.0
 10
645.0486968511588
 20
716.6299828782118
 30
0.0
 10
645.0914156304302
 20
716.6126291509767
 30
0.0
 10
645.1470872335346
 20
716.6004637740896
 30
0.0
 10
645.2132230269152
 20
716.5923558583208
 30
0.0
 10
645.2623819763137
 20
716.5912848661567
 30
0.0
 10
645.2869931236003
 20
716.5907486800457
 30
0.0
  0
LINE
  5
2E0
330
1F
100
AcDbEntity
  8
0
  6
Continuous
 62
     7
370
    15
100
AcDbLine
 10
645.0369931236
 20
708.8259690174
 30
0.0
 11
645.0369931236
 21
716.6519025696
 31
0.0
  0
SPLINE
  5
2E1
330
1F
100
AcDbEntity
  8
0
  6
Continuous
 62
     7
370
    15
100
AcDbSpline
210
0.0
220
0.0
230
1.0
 70
     8
 71
     3
 72
    13
 73
     9
 74
     0
 42
0.00000001
 43
0.00000001
 12
1.0
 22
0.0
 32
0.0
 13
1.0
 23
0.0
 33
0.0
 40
0.0
 40
0.0
 40
0.0
 40
0.0
 40
0.1695411050602419
 40
0.3386458383075602
 40
0.5184804584264158
 40
0.7277236211482119
 40
0.9924537768849875
 40
1.0
 40
1.0
 40
1.0
 40
1.0
 10
645.9869931236002
 20
716.5907486800456
 30
0.0
 10
646.0116042708869
 20
716.5912848661566
 30
0.0
 10
646.0607632202851
 20
716.5923558583206
 30
0.0
 10
646.1268990136659
 20
716.6004637740897
 30
0.0
 10
646.1825706167701
 20
716.6126291509767
 30
0.0
 10
646.2252893960425
 20
716.6299828782119
 30
0.0
 10
646.2368750556542
 20
716.6439325336822
 30
0.0
 10
646.2369899395577
 20
716.6516876346498
 30
0.0
 10
646.2369931236002
 20
716.6519025696448
 30
0.0
  0
LINE
  5
2E2
330
1F
100
AcDbEntity
  8
0
  6
Continuous
 62
     7
370
    15
100
AcDbLine
 10
646.2369931236
 20
716.6519025696
 30
0.0
 11
646.2369931236
 21
709.2252660834
 31
0.0
  0
LINE
  5
2E3
330
1F
100
AcDbEntity
  8
0
  6
Continuous
 62
     7
370
    15
100
AcDbLine
 10
645.9869931236
 20
716.59074868
 30
0.0
 11
645.2869931236
 21
716.59074868
 31
0.0
  0
SPLINE
  5
2E4
330
1F
100
AcDbEntity
  8
0
  6
Continuous
 62
     7
370
    15
100
AcDbSpline
210
0.0
220
0.0
230
1.0
 70
     8
 71
     3
 72
    12
 73
     8
 74
     0
 42
0.00000001
 43
0.00000001
 12
1.0
 22
0.0
 32
0.0
 13
1.0
 23
0.0
 33
0.0
 40
0.0
 40
0.0
 40
0.0
 40
0.0
 40
0.2028202020467081
 40
0.4049472449427124
 40
0.6098312030740644
 40
0.8226939241827116
 40
1.0
 40
1.0
 40
1.0
 40
1.0
 10
646.4869931235996
 20
722.2890269472673
 30
0.0
 10
646.329852283064
 20
722.2778107047347
 30
0.0
 10
646.0161076471716
 20
722.2554165523462
 30
0.0
 10
645.5957113967024
 20
722.081355884573
 30
0.0
 10
645.2686328612624
 20
721.822311421288
 30
0.0
 10
645.0704235949968
 20
721.5103006397326
 30
0.0
 10
645.0474383890747
 20
721.2889445725006
 30
0.0
 10
645.0369931235998
 20
721.1883527877436
 30
0.0
  0
LINE
  5
2E5
330
1F
100
AcDbEntity
  8
0
  6
Continuous
 62
     7
370
    15
100
AcDbLine
 10
646.4869931236
 20
722.2890269473
 30
0.0
 11
646.4869931236
 21
717.8666713283
 31
0.0
  0
SPLINE
  5
2E6
330
1F
100
AcDbEntity
  8
0
  6
Continuous
 62
     7
370
    15
100
AcDbSpline
210
0.0
220
0.0
230
1.0
 70
     8
 71
     3
 72
    12
 73
     8
 74
     0
 42
0.00000001
 43
0.00000001
 12
1.0
 22
0.0
 32
0.0
 13
1.0
 23
0.0
 33
0.0
 40
0.0
 40
0.0
 40
0.0
 40
0.0
 40
0.2289440738515803
 40
0.4594214300241302
 40
0.6825355698157685
 40
0.8947175231628809
 40
1.0
 40
1.0
 40
1.0
 40
1.0
 10
645.0369931235999
 20
716.8743882378221
 30
0.0
 10
645.0543276081776
 20
716.9904363964962
 30
0.0
 10
645.0891126696968
 20
717.223309910594
 30
0.0
 10
645.362982515509
 20
717.5321980979763
 30
0.0
 10
645.7600190499918
 20
717.7550672197276
 30
0.0
 10
646.1608950393446
 20
717.8553164947933
 30
0.0
 10
646.4057804324318
 20
717.8638434778983
 30
0.0
 10
646.4869931236
 20
717.8666713282522
 30
0.0
  0
LINE
  5
2E7
330
1F
100
AcDbEntity
  8
0
  6
Continuous
 62
     7
370
    15
100
AcDbLine
 10
645.0369931236
 20
716.8743882378
 30
0.0
 11
645.0369931236
 21
721.1883527877
 31
0.0
  0
LINE
  5
2E8
330
1F
100
AcDbEntity
  8
0
  6
Continuous
 62
     7
370
    15
100
AcDbLine
 10
651.8369931236
 20
722.0691632209
 30
0.0
 11
651.8369931236
 21
717.755198671
 31
0.0
  0
LWPOLYLINE
  5
2E9
330
1F
100
AcDbEntity
  8
0
  6
Continuous
 62
     7
370
    15
100
AcDbPolyline
 90
        9
 70
   128
 43
0.0
 10
651.8369931236
 20
717.755198671
 10
651.8321894437
 20
717.7769459076
 10
651.8179630067
 20
717.7978574101
 10
651.7948605267
 20
717.8171295612
 10
651.7637698189
 20
717.8340217429
 10
651.7258856819
 20
717.8478847981
 10
651.6826639817
 20
717.8581859775
 10
651.6357657041
 20
717.8645294124
 10
651.5869931236
 20
717.8666713283
  0
LINE
  5
2EA
330
1F
100
AcDbEntity
  8
0
  6
Continuous
 62
     7
370
    15
100
AcDbLine
 10
651.5869931236
 20
717.8666713283
 30
0.0
 11
651.5869931236
 21
722.2890269473
 31
0.0
  0
ARC
  5
2EB
330
1F
100
AcDbEntity
  8
0
  6
Continuous
 62
     7
370
    15
100
AcDbCircle
 10
651.6011530654
 20
722.0530624047
 30
0.0
 40
0.2363890211415536
100
AcDbArc
 50
3.9055265259
 51
93.4341310141
  0
LINE
  5
2EC
330
1F
100
AcDbEntity
  8
0
  6
Continuous
 62
     7
370
    15
100
AcDbLine
 10
651.5869931236
 20
722.2890269473
 30
0.0
 11
646.4869931236
 21
722.2890269473
 31
0.0
  0
LINE
  5
2ED
330
1F
100
AcDbEntity
  8
0
  6
Continuous
 62
     7
370
    15
100
AcDbLine
 10
646.4869931236
 20
717.8666713283
 30
0.0
 11
651.5869931236
 21
717.8666713283
 31
0.0
  0
LINE
  5
2EE
330
1F
100
AcDbEntity
  8
0
  6
Continuous
 62
     7
370
    15
100
AcDbLine
 10
646.4869931236
 20
717.8666713283
 30
0.0
 11
646.4869931236
 21
717.5754501481
 31
0.0
  0
SPLINE
  5
2EF
330
1F
100
AcDbEntity
  8
0
  6
Continuous
 62
     7
370
    15
100
AcDbSpline
210
0.0
220
0.0
230
1.0
 70
     8
 71
     3
 72
    12
 73
     8
 74
     0
 42
0.00000001
 43
0.00000001
 12
1.0
 22
0.0
 32
0.0
 13
1.0
 23
0.0
 33
0.0
 40
0.0
 40
0.0
 40
0.0
 40
0.0
 40
0.1044203826439055
 40
0.3151731030979901
 40
0.5377472974586379
 40
0.7690283494734782
 40
1.0
 40
1.0
 40
1.0
 40
1.0
 10
646.4869931236
 20
717.5754501480984
 30
0.0
 10
646.4197735549634
 20
717.5729625326846
 30
0.0
 10
646.2168840471903
 20
717.565454137777
 30
0.0
 10
645.8845266820252
 20
717.4769791322957
 30
0.0
 10
645.555881893772
 20
717.2799396901129
 30
0.0
 10
645.3298201808956
 20
717.0060465265241
 30
0.0
 10
645.3012624378082
 20
716.7983956561786
 30
0.0
 10
645.2869931235999
 20
716.6946397149084
 30
0.0
  0
ARC
  5
2F0
330
1F
100
AcDbEntity
  8
0
  6
Continuous
 62
     7
370
    15
100
AcDbCircle
 10
645.2568026551
 20
716.9163781079
 30
0.0
 40
0.2237842249246097
100
AcDbArc
 50
190.8148280794
 51
277.7533481469
  0
ARC
  5
2F1
330
1F
100
AcDbEntity
  8
0
  6
Continuous
 62
     7
370
    15
100
AcDbCircle
 10
651.6171835921
 20
717.7971885411
 30
0.0
 40
0.2237842249236906
100
AcDbArc
 50
262.2466518528
 51
349.1851719208
  0
LINE
  5
2F2
330
1F
100
AcDbEntity
  8
0
  6
Continuous
 62
     7
370
    15
100
AcDbLine
 10
651.5869931236
 20
717.8666713283
 30
0.0
 11
651.5869931236
 21
717.5754501481
 31
0.0
  0
LINE
  5
2F3
330
1F
100
AcDbEntity
  8
0
  6
Continuous
 62
     7
370
    15
100
AcDbLine
 10
651.5869931236
 20
717.5754501481
 30
0.0
 11
646.4869931236
 21
717.5754501481
 31
0.0
  0
LINE
  5
2F4
330
1F
100
AcDbEntity
  8
0
  6
Continuous
 62
     7
370
    15
100
AcDbLine
 10
645.2869931236
 20
716.6946397149
 30
0.0
 11
645.2869931236
 21
716.59074868
 31
0.0
  0
LINE
  5
2F5
330
1F
100
AcDbEntity
  8
0
  6
Continuous
 62
     7
370
    15
100
AcDbLine
 10
651.5869931236
 20
717.0632477259
 30
0.0
 11
651.5869931236
 21
717.5754501481
 31
0.0
  0
LINE
  5
2F6
330
1F
100
AcDbEntity
  8
0
  6
Continuous
 62
     7
370
    15
100
AcDbLine
 10
646.4869931236
 20
717.0632477259
 30
0.0
 11
651.5869931236
 21
717.0632477259
 31
0.0
  0
SPLINE
  5
2F7
330
1F
100
AcDbEntity
  8
0
  6
Continuous
 62
     7
370
    15
100
AcDbSpline
210
0.0
220
0.0
230
1.0
 70
     8
 71
     3
 72
    12
 73
     8
 74
     0
 42
0.00000001
 43
0.00000001
 12
1.0
 22
0.0
 32
0.0
 13
1.0
 23
0.0
 33
0.0
 40
0.0
 40
0.0
 40
0.0
 40
0.0
 40
0.1009214352040073
 40
0.3119724040343348
 40
0.5359629038279844
 40
0.7681188099357348
 40
1.0
 40
1.0
 40
1.0
 40
1.0
 10
646.4869931236
 20
717.0632477258783
 30
0.0
 10
646.4598721649278
 20
717.0622663176013
 30
0.0
 10
646.3760347654738
 20
717.0592325488194
 30
0.0
 10
646.2375635630895
 20
717.0226398505515
 30
0.0
 10
646.0998420251206
 20
716.9400059900479
 30
0.0
 10
646.0050405778093
 20
716.825143993203
 30
0.0
 10
645.9930065669057
 20
716.7381239686748
 30
0.0
 10
645.9869931236
 20
716.6946397149084
 30
0.0
  0
LINE
  5
2F8
330
1F
100
AcDbEntity
  8
0
  6
Continuous
 62
     7
370
    15
100
AcDbLine
 10
645.9869931236
 20
716.59074868
 30
0.0
 11
645.9869931236
 21
716.6946397149
 31
0.0
  0
ARC
  5
2F9
330
1F
100
AcDbEntity
  8
0
  6
Continuous
 62
     7
370
    15
100
AcDbCircle
 10
651.6171835921
 20
717.2849861189
 30
0.0
 40
0.2237842249232041
100
AcDbArc
 50
262.2466518527
 51
349.1851719208
  0
LINE
  5
2FA
330
1F
100
AcDbEntity
  8
0
  6
Continuous
 62
     7
370
    15
100
AcDbLine
 10
651.8369931236
 20
717.755198671
 30
0.0
 11
651.8369931236
 21
717.2429962488
 31
0.0
  0
ARC
  5
2FB
330
1F
100
AcDbEntity
  8
0
  6
Continuous
 62
     7
370
    15
100
AcDbCircle
 10
646.0171835921
 20
716.9163781079
 30
0.0
 40
0.2237842249239825
100
AcDbArc
 50
262.2466518529
 51
349.1851719207
  0
LINE
  5
2FC
330
1F
100
AcDbEntity
  8
0
  6
Continuous
 62
     7
370
    15
100
AcDbLine
 10
645.0369931236
 20
716.6519025696
 30
0.0
 11
645.0369931236
 21
716.8743882378
 31
0.0
  0
LINE
  5
2FD
330
1F
100
AcDbEntity
  8
0
  6
Continuous
 62
     7
370
    15
100
AcDbLine
 10
646.2369931236
 20
716.8743882378
 30
0.0
 11
646.2369931236
 21
716.6519025696
 31
0.0
  0
LINE
  5
2FE
330
1F
100
AcDbEntity
  8
0
  6
Continuous
 62
     7
370
    15
100
AcDbLine
 10
646.4869931236
 20
722.3191632209
 30
0.0
 11
646.4869931236
 21
722.2890269473
 31
0.0
  0
LINE
  5
2FF
330
1F
100
AcDbEntity
  8
0
  6
Continuous
 62
     7
370
    15
100
AcDbLine
 10
645.0369931236
 20
721.1883527877
 30
0.0
 11
645.0369931236
 21
721.7685869128
 31
0.0
  0
LINE
  5
300
330
1F
100
AcDbEntity
  8
0
  6
Continuous
 62
     7
370
    15
100
AcDbLine
 10
651.5869931236
 20
704.3882620818
 30
0.0
 11
651.5869931236
 21
704.900464504
 31
0.0
  0
LINE
  5
301
330
1F
100
AcDbEntity
  8
0
  6
Continuous
 62
     7
370
    15
100
AcDbLine
 10
651.5869931236
 20
704.900464504
 30
0.0
 11
651.5869931236
 21
705.3028717806
 31
0.0
  0
ARC
  5
302
330
1F
100
AcDbEntity
  8
0
  6
Continuous
 62
     7
370
    15
100
AcDbCircle
 10
651.599916203
 20
705.0657030659
 30
0.0
 40
0.2375205364720239
100
AcDbArc
 50
3.5023392347
 51
93.1189038297
  0
ARC
  5
303
330
1F
100
AcDbEntity
  8
0
  6
Continuous
 62
     7
370
    15
100
AcDbCircle
 10
651.6171835921
 20
705.1222028971
 30
0.0
 40
0.2237842249228807
100
AcDbArc
 50
262.2466518527
 51
349.1851719209
  0
LINE
  5
304
330
1F
100
AcDbEntity
  8
0
  6
Continuous
 62
     7
370
    15
100
AcDbLine
 10
651.8369931236
 20
705.080213027
 30
0.0
 11
651.8369931236
 21
704.5680106047
 31
0.0
  0
ARC
  5
305
330
1F
100
AcDbEntity
  8
0
  6
Continuous
 62
     7
370
    15
100
AcDbCircle
 10
651.6171835921
 20
704.6100004748
 30
0.0
 40
0.2237842249232553
100
AcDbArc
 50
262.2466518528
 51
349.1851719209
  0
LINE
  5
306
330
1F
100
AcDbEntity
  8
0
  6
Continuous
 62
     7
370
    15
100
AcDbLine
 10
651.8369931236
 20
707.8172686047
 30
0.0
 11
651.8369931236
 21
705.080213027
 31
0.0
  0
LINE
  5
307
330
1F
100
AcDbEntity
  8
0
  6
Continuous
 62
     7
370
    15
100
AcDbLine
 10
657.6404111362
 20
711.414754224
 30
0.0
 11
657.8369931236
 21
710.5853395606
 31
0.0
  0
LINE
  5
308
330
1F
100
AcDbEntity
  8
0
  6
Continuous
 62
     7
370
    15
100
AcDbLine
 10
657.8369931236
 20
708.4210068632
 30
0.0
 11
657.6404111362
 21
707.6463352181
 31
0.0
  0
LINE
  5
309
330
1F
100
AcDbEntity
  8
0
  6
Continuous
 62
     7
370
    15
100
AcDbLine
 10
657.6404111362
 20
707.6463352181
 30
0.0
 11
653.333575111
 21
707.6463352181
 31
0.0
  0
SPLINE
  5
30A
330
1F
100
AcDbEntity
  8
0
  6
Continuous
 62
     7
370
    15
100
AcDbSpline
210
0.0
220
0.0
230
1.0
 70
     8
 71
     3
 72
     9
 73
     5
 74
     0
 42
0.00000001
 43
0.00000001
 12
1.0
 22
0.0
 32
0.0
 13
1.0
 23
0.0
 33
0.0
 40
0.0
 40
0.0
 40
0.0
 40
0.0
 40
0.0702005767034214
 40
1.0
 40
1.0
 40
1.0
 40
1.0
 10
652.8869931235997
 20
709.5305447210201
 30
0.0
 10
652.8874392398675
 20
709.4858778070494
 30
0.0
 10
652.893794120248
 20
708.8496022083551
 30
0.0
 10
653.1216836021433
 20
708.226083009542
 30
0.0
 10
653.3335751109851
 20
707.6463352180713
 30
0.0
  0
LINE
  5
30B
330
1F
100
AcDbEntity
  8
0
  6
Continuous
 62
     7
370
    15
100
AcDbLine
 10
653.333575111
 20
711.414754224
 30
0.0
 11
652.8869931236
 21
709.530544721
 31
0.0
  0
LINE
  5
30C
330
1F
100
AcDbEntity
  8
0
  6
Continuous
 62
     7
370
    15
100
AcDbLine
 10
657.6404111362
 20
711.414754224
 30
0.0
 11
653.333575111
 21
711.414754224
 31
0.0
  0
SPLINE
  5
30D
330
1F
100
AcDbEntity
  8
0
  6
Continuous
 62
     7
370
    15
100
AcDbSpline
210
0.0
220
0.0
230
1.0
 70
     8
 71
     3
 72
     9
 73
     5
 74
     0
 42
0.00000001
 43
0.00000001
 12
1.0
 22
0.0
 32
0.0
 13
1.0
 23
0.0
 33
0.0
 40
0.0
 40
0.0
 40
0.0
 40
0.0
 40
0.9250528693520055
 40
0.9999999999999999
 40
0.9999999999999999
 40
0.9999999999999999
 40
0.9999999999999999
 10
657.6404111362147
 20
711.4147542239688
 30
0.0
 10
657.71896484898
 20
711.6507890237958
 30
0.0
 10
657.8038829281171
 20
711.9059471965307
 30
0.0
 10
657.8346846248122
 20
712.1711279384156
 30
0.0
 10
657.8369931235986
 20
712.191002474123
 30
0.0
  0
SPLINE
  5
30E
330
1F
100
AcDbEntity
  8
0
  6
Continuous
 62
     7
370
    15
100
AcDbSpline
210
0.0
220
0.0
230
1.0
 70
     8
 71
     3
 72
     9
 73
     5
 74
     0
 42
0.00000001
 43
0.00000001
 12
1.0
 22
0.0
 32
0.0
 13
1.0
 23
0.0
 33
0.0
 40
0.0
 40
0.0
 40
0.0
 40
0.0
 40
0.2575513451038197
 40
1.0
 40
1.0
 40
1.0
 40
1.0
 10
653.3335751109851
 20
711.4147542239688
 30
0.0
 10
653.2661598882103
 20
711.6528519164194
 30
0.0
 10
653.0044053912665
 20
712.5773188119609
 30
0.0
 10
652.9370219034738
 20
713.5377839910574
 30
0.0
 10
652.8869931236
 20
714.2508800713521
 30
0.0
  0
LINE
  5
30F
330
1F
100
AcDbEntity
  8
0
  6
Continuous
 62
     7
370
    15
100
AcDbLine
 10
652.8869931236
 20
714.2508800714
 30
0.0
 11
652.8869931236
 21
709.530544721
 31
0.0
  0
SPLINE
  5
310
330
1F
100
AcDbEntity
  8
0
  6
Continuous
 62
     7
370
    15
100
AcDbSpline
210
0.0
220
0.0
230
1.0
 70
     8
 71
     3
 72
     9
 73
     5
 74
     0
 42
0.00000001
 43
0.00000001
 12
1.0
 22
0.0
 32
0.0
 13
1.0
 23
0.0
 33
0.0
 40
0.0
 40
0.0
 40
0.0
 40
0.0
 40
0.2686336050555512
 40
1.0
 40
1.0
 40
1.0
 40
1.0
 10
652.8869931236
 20
714.2508800713521
 30
0.0
 10
652.8936220761844
 20
714.5087632708976
 30
0.0
 10
652.9182986336207
 20
715.4687444299643
 30
0.0
 10
653.1581533972206
 20
716.403417468263
 30
0.0
 10
653.3335751109852
 20
717.0870059187355
 30
0.0
  0
LINE
  5
311
330
1F
100
AcDbEntity
  8
0
  6
Continuous
 62
     7
370
    15
100
AcDbLine
 10
657.6404111362
 20
717.0870059187
 30
0.0
 11
653.333575111
 21
717.0870059187
 31
0.0
  0
LINE
  5
312
330
1F
100
AcDbEntity
  8
0
  6
Continuous
 62
     7
370
    15
100
AcDbLine
 10
657.8369931236
 20
716.1000475829
 30
0.0
 11
657.6404111362
 21
717.0870059187
 31
0.0
  0
SPLINE
  5
313
330
1F
100
AcDbEntity
  8
0
  6
Continuous
 62
     7
370
    15
100
AcDbSpline
210
0.0
220
0.0
230
1.0
 70
     8
 71
     3
 72
     9
 73
     5
 74
     0
 42
0.00000001
 43
0.00000001
 12
1.0
 22
0.0
 32
0.0
 13
1.0
 23
0.0
 33
0.0
 40
0.0
 40
0.0
 40
0.0
 40
0.0
 40
0.0702005767033897
 40
1.0
 40
1.0
 40
1.0
 40
1.0
 10
652.8869931236001
 20
718.0389222631701
 30
0.0
 10
652.8874392398676
 20
718.0163562133771
 30
0.0
 10
652.8937941202477
 20
717.6949051533892
 30
0.0
 10
653.1216836021433
 20
717.3798987193966
 30
0.0
 10
653.3335751109852
 20
717.0870059187355
 30
0.0
  0
LINE
  5
314
330
1F
100
AcDbEntity
  8
0
  6
Continuous
 62
     7
370
    15
100
AcDbLine
 10
652.8869931236
 20
714.2508800714
 30
0.0
 11
652.8869931236
 21
718.0389222632
 31
0.0
  0
LINE
  5
315
330
1F
100
AcDbEntity
  8
0
  6
Continuous
 62
     7
370
    15
100
AcDbLine
 10
657.8369931236
 20
717.4783756679
 30
0.0
 11
657.6404111362
 21
717.0870059187
 31
0.0
  0
LINE
  5
316
330
1F
100
AcDbEntity
  8
0
  6
Continuous
 62
     7
370
    15
100
AcDbLine
 10
657.6404111362
 20
718.9908386076
 30
0.0
 11
657.8163560537
 21
718.6158014423
 31
0.0
  0
LINE
  5
317
330
1F
100
AcDbEntity
  8
0
  6
Continuous
 62
     7
370
    15
100
AcDbLine
 10
653.333575111
 20
718.9908386076
 30
0.0
 11
652.8869931236
 21
718.0389222632
 31
0.0
  0
LINE
  5
318
330
1F
100
AcDbEntity
  8
0
  6
Continuous
 62
     7
370
    15
100
AcDbLine
 10
657.6404111362
 20
718.9908386076
 30
0.0
 11
653.333575111
 21
718.9908386076
 31
0.0
  0
LINE
  5
319
330
1F
100
AcDbEntity
  8
0
  6
Continuous
 62
     7
370
    15
100
AcDbLine
 10
657.6404111362
 20
707.6463352181
 30
0.0
 11
657.8163560537
 21
708.0213723834
 31
0.0
  0
LINE
  5
31A
330
1F
100
AcDbEntity
  8
0
  6
Continuous
 62
     7
370
    15
100
AcDbLine
 10
653.333575111
 20
707.6463352181
 30
0.0
 11
653.1576301935
 21
708.0213723834
 31
0.0
  0
LINE
  5
31B
330
1F
100
AcDbEntity
  8
0
  6
Continuous
 62
     7
370
    15
100
AcDbLine
 10
652.8869931236
 20
709.530544721
 30
0.0
 11
652.8869931236
 21
708.3185869128
 31
0.0
  0
LINE
  5
31C
330
1F
100
AcDbEntity
  8
0
  6
Continuous
 62
     7
370
    15
100
AcDbLine
 10
652.8869931236
 20
718.3185869128
 30
0.0
 11
652.8869931236
 21
718.0389222632
 31
0.0
  0
LINE
  5
31D
330
1F
100
AcDbEntity
  8
0
  6
Continuous
 62
     7
370
    15
100
AcDbLine
 10
644.5904111362
 20
717.9261649562
 30
0.0
 11
645.0369931236
 21
715.2678119801
 31
0.0
  0
SPLINE
  5
31E
330
1F
100
AcDbEntity
  8
0
  6
Continuous
 62
     7
370
    15
100
AcDbSpline
210
0.0
220
0.0
230
1.0
 70
     8
 71
     3
 72
     9
 73
     5
 74
     0
 42
0.00000001
 43
0.00000001
 12
1.0
 22
0.0
 32
0.0
 13
1.0
 23
0.0
 33
0.0
 40
0.0
 40
0.0
 40
0.0
 40
0.0
 40
0.070200576703399
 40
1.0
 40
1.0
 40
1.0
 40
1.0
 10
645.0369931235999
 20
715.26781198009
 30
0.0
 10
645.0365470073324
 20
715.204793285246
 30
0.0
 10
645.0301921269519
 20
714.307098454186
 30
0.0
 10
644.8023026450566
 20
713.4274010982131
 30
0.0
 10
644.5904111362148
 20
712.6094590039539
 30
0.0
  0
LINE
  5
31F
330
1F
100
AcDbEntity
  8
0
  6
Continuous
 62
     7
370
    15
100
AcDbLine
 10
644.5904111362
 20
712.609459004
 30
0.0
 11
640.283575111
 21
712.609459004
 31
0.0
  0
SPLINE
  5
320
330
1F
100
AcDbEntity
  8
0
  6
Continuous
 62
     7
370
    15
100
AcDbSpline
210
0.0
220
0.0
230
1.0
 70
     8
 71
     3
 72
     9
 73
     5
 74
     0
 42
0.00000001
 43
0.00000001
 12
1.0
 22
0.0
 32
0.0
 13
1.0
 23
0.0
 33
0.0
 40
0.0
 40
0.0
 40
0.0
 40
0.0
 40
0.0702005767033891
 40
1.0
 40
1.0
 40
1.0
 40
1.0
 10
639.8369931236
 20
715.26781198009
 30
0.0
 10
639.8374392398675
 20
715.204793285246
 30
0.0
 10
639.8437941202483
 20
714.307098454186
 30
0.0
 10
640.0716836021436
 20
713.4274010982131
 30
0.0
 10
640.2835751109852
 20
712.6094590039539
 30
0.0
  0
LINE
  5
321
330
1F
100
AcDbEntity
  8
0
  6
Continuous
 62
     7
370
    15
100
AcDbLine
 10
640.283575111
 20
717.9261649562
 30
0.0
 11
639.8369931236
 21
715.2678119801
 31
0.0
  0
LINE
  5
322
330
1F
100
AcDbEntity
  8
0
  6
Continuous
 62
     7
370
    15
100
AcDbLine
 10
644.5904111362
 20
717.9261649562
 30
0.0
 11
640.283575111
 21
717.9261649562
 31
0.0
  0
SPLINE
  5
323
330
1F
100
AcDbEntity
  8
0
  6
Continuous
 62
     7
370
    15
100
AcDbSpline
210
0.0
220
0.0
230
1.0
 70
     8
 71
     3
 72
     9
 73
     5
 74
     0
 42
0.00000001
 43
0.00000001
 12
1.0
 22
0.0
 32
0.0
 13
1.0
 23
0.0
 33
0.0
 40
0.0
 40
0.0
 40
0.0
 40
0.0
 40
0.2686336050555486
 40
1.0
 40
1.0
 40
1.0
 40
1.0
 10
639.8369931235999
 20
710.3056699822598
 30
0.0
 10
639.8436220761844
 20
710.5151488685864
 30
0.0
 10
639.8682986336208
 20
711.2949429166296
 30
0.0
 10
640.1081533972208
 20
712.0541791425161
 30
0.0
 10
640.2835751109852
 20
712.6094590039539
 30
0.0
  0
LINE
  5
324
330
1F
100
AcDbEntity
  8
0
  6
Continuous
 62
     7
370
    15
100
AcDbLine
 10
639.8369931236
 20
710.3056699823
 30
0.0
 11
639.8369931236
 21
715.2678119801
 31
0.0
  0
SPLINE
  5
325
330
1F
100
AcDbEntity
  8
0
  6
Continuous
 62
     7
370
    15
100
AcDbSpline
210
0.0
220
0.0
230
1.0
 70
     8
 71
     3
 72
     9
 73
     5
 74
     0
 42
0.00000001
 43
0.00000001
 12
1.0
 22
0.0
 32
0.0
 13
1.0
 23
0.0
 33
0.0
 40
0.0
 40
0.0
 40
0.0
 40
0.0
 40
0.2686336050555742
 40
1.0
 40
1.0
 40
1.0
 40
1.0
 10
645.0369931235999
 20
710.3056699822598
 30
0.0
 10
645.0303641710154
 20
710.5151488685864
 30
0.0
 10
645.0056876135792
 20
711.2949429166293
 30
0.0
 10
644.7658328499792
 20
712.054179142516
 30
0.0
 10
644.5904111362147
 20
712.6094590039537
 30
0.0
  0
LINE
  5
326
330
1F
100
AcDbEntity
  8
0
  6
Continuous
 62
     7
370
    15
100
AcDbLine
 10
644.8159101258
 20
708.8259690174
 30
0.0
 11
645.0369931236
 21
710.3056699823
 31
0.0
  0
LINE
  5
327
330
1F
100
AcDbEntity
  8
0
  6
Continuous
 62
     7
370
    15
100
AcDbLine
 10
640.6369931236
 20
708.0018809606
 30
0.0
 11
640.283575111
 21
708.0018809606
 31
0.0
  0
SPLINE
  5
328
330
1F
100
AcDbEntity
  8
0
  6
Continuous
 62
     7
370
    15
100
AcDbSpline
210
0.0
220
0.0
230
1.0
 70
     8
 71
     3
 72
     9
 73
     5
 74
     0
 42
0.00000001
 43
0.00000001
 12
1.0
 22
0.0
 32
0.0
 13
1.0
 23
0.0
 33
0.0
 40
0.0
 40
0.0
 40
0.0
 40
0.0
 40
0.2575513451038191
 40
1.0
 40
1.0
 40
1.0
 40
1.0
 10
640.283575110985
 20
708.0018809605655
 30
0.0
 10
640.2161598882102
 20
708.195288051603
 30
0.0
 10
639.9544053912662
 20
708.946233813348
 30
0.0
 10
639.8870219034737
 20
709.7264210315435
 30
0.0
 10
639.8369931235999
 20
710.3056699822598
 30
0.0
  0
SPLINE
  5
329
330
1F
100
AcDbEntity
  8
0
  6
Continuous
 62
     7
370
    15
100
AcDbSpline
210
0.0
220
0.0
230
1.0
 70
     8
 71
     3
 72
     9
 73
     5
 74
     0
 42
0.00000001
 43
0.00000001
 12
1.0
 22
0.0
 32
0.0
 13
1.0
 23
0.0
 33
0.0
 40
0.0
 40
0.0
 40
0.0
 40
0.0
 40
0.0702005767034396
 40
1.0
 40
1.0
 40
1.0
 40
1.0
 10
645.0369931235999
 20
718.2807289106682
 30
0.0
 10
645.0365470073324
 20
718.272323647015
 30
0.0
 10
645.0301921269519
 20
718.1525915301593
 30
0.0
 10
644.8023026450564
 20
718.0352598680188
 30
0.0
 10
644.5904111362147
 20
717.9261649562263
 30
0.0
  0
SPLINE
  5
32A
330
1F
100
AcDbEntity
  8
0
  6
Continuous
 62
     7
370
    15
100
AcDbSpline
210
0.0
220
0.0
230
1.0
 70
     8
 71
     3
 72
     9
 73
     5
 74
     0
 42
0.00000001
 43
0.00000001
 12
1.0
 22
0.0
 32
0.0
 13
1.0
 23
0.0
 33
0.0
 40
0.0
 40
0.0
 40
0.0
 40
0.0
 40
0.0702005767034299
 40
1.0
 40
1.0
 40
1.0
 40
1.0
 10
639.8369931236
 20
718.2807289106682
 30
0.0
 10
639.8374392398675
 20
718.2723236470151
 30
0.0
 10
639.8437941202477
 20
718.1525915301592
 30
0.0
 10
640.0716836021434
 20
718.0352598680187
 30
0.0
 10
640.283575110985
 20
717.9261649562261
 30
0.0
  0
LINE
  5
32B
330
1F
100
AcDbEntity
  8
0
  6
Continuous
 62
     7
370
    15
100
AcDbLine
 10
639.8369931236
 20
718.2807289107
 30
0.0
 11
639.8369931236
 21
715.2678119801
 31
0.0
  0
LINE
  5
32C
330
1F
100
AcDbEntity
  8
0
  6
Continuous
 62
     7
370
    15
100
AcDbLine
 10
640.283575111
 20
708.0018809606
 30
0.0
 11
639.8369931236
 21
708.356444915
 31
0.0
  0
LINE
  5
32D
330
1F
100
AcDbEntity
  8
0
  6
Continuous
 62
     7
370
    15
100
AcDbLine
 10
639.8369931236
 20
710.3056699823
 30
0.0
 11
639.8369931236
 21
708.3187376192
 31
0.0
  0
LINE
  5
32E
330
1F
100
AcDbEntity
  8
0
  6
Continuous
 62
     7
370
    15
100
AcDbLine
 10
644.5904111362
 20
718.6352928651
 30
0.0
 11
645.0369931236
 21
718.2807289107
 31
0.0
  0
LINE
  5
32F
330
1F
100
AcDbEntity
  8
0
  6
Continuous
 62
     7
370
    15
100
AcDbLine
 10
640.283575111
 20
718.6352928651
 30
0.0
 11
639.8369931236
 21
718.2807289107
 31
0.0
  0
LINE
  5
330
330
1F
100
AcDbEntity
  8
0
  6
Continuous
 62
     7
370
    15
100
AcDbLine
 10
644.5904111362
 20
718.6352928651
 30
0.0
 11
640.283575111
 21
718.6352928651
 31
0.0
  0
LINE
  5
331
330
1F
100
AcDbEntity
  8
0
  6
Continuous
 62
     7
370
    15
100
AcDbLine
 10
652.1904111362
 20
718.819905221
 30
0.0
 11
652.6369931236
 21
716.6860206601
 31
0.0
  0
SPLINE
  5
332
330
1F
100
AcDbEntity
  8
0
  6
Continuous
 62
     7
370
    15
100
AcDbSpline
210
0.0
220
0.0
230
1.0
 70
     8
 71
     3
 72
     9
 73
     5
 74
     0
 42
0.00000001
 43
0.00000001
 12
1.0
 22
0.0
 32
0.0
 13
1.0
 23
0.0
 33
0.0
 40
0.0
 40
0.0
 40
0.0
 40
0.0
 40
0.0702005767033943
 40
1.0
 40
1.0
 40
1.0
 40
1.0
 10
652.6369931236
 20
716.6860206601079
 30
0.0
 10
652.6365470073324
 20
716.635434969952
 30
0.0
 10
652.6301921269522
 20
715.9148470128243
 30
0.0
 10
652.4023026450567
 20
715.208705795677
 30
0.0
 10
652.1904111362148
 20
714.5521360992076
 30
0.0
  0
LINE
  5
333
330
1F
100
AcDbEntity
  8
0
  6
Continuous
 62
     7
370
    15
100
AcDbLine
 10
652.1904111362
 20
714.5521360992
 30
0.0
 11
647.883575111
 21
714.5521360992
 31
0.0
  0
SPLINE
  5
334
330
1F
100
AcDbEntity
  8
0
  6
Continuous
 62
     7
370
    15
100
AcDbSpline
210
0.0
220
0.0
230
1.0
 70
     8
 71
     3
 72
     9
 73
     5
 74
     0
 42
0.00000001
 43
0.00000001
 12
1.0
 22
0.0
 32
0.0
 13
1.0
 23
0.0
 33
0.0
 40
0.0
 40
0.0
 40
0.0
 40
0.0
 40
0.0702005767033971
 40
1.0
 40
1.0
 40
1.0
 40
1.0
 10
647.4369931236
 20
716.6860206601079
 30
0.0
 10
647.4374392398676
 20
716.635434969952
 30
0.0
 10
647.4437941202478
 20
715.9148470128239
 30
0.0
 10
647.6716836021434
 20
715.2087057956769
 30
0.0
 10
647.8835751109851
 20
714.5521360992076
 30
0.0
  0
LINE
  5
335
330
1F
100
AcDbEntity
  8
0
  6
Continuous
 62
     7
370
    15
100
AcDbLine
 10
647.5012373526
 20
716.9929962488
 30
0.0
 11
647.4369931236
 21
716.6860206601
 31
0.0
  0
LINE
  5
336
330
1F
100
AcDbEntity
  8
0
  6
Continuous
 62
     7
370
    15
100
AcDbLine
 10
652.1904111362
 20
718.819905221
 30
0.0
 11
651.8369931236
 21
718.819905221
 31
0.0
  0
SPLINE
  5
337
330
1F
100
AcDbEntity
  8
0
  6
Continuous
 62
     7
370
    15
100
AcDbSpline
210
0.0
220
0.0
230
1.0
 70
     8
 71
     3
 72
     9
 73
     5
 74
     0
 42
0.00000001
 43
0.00000001
 12
1.0
 22
0.0
 32
0.0
 13
1.0
 23
0.0
 33
0.0
 40
0.0
 40
0.0
 40
0.0
 40
0.0
 40
0.2686336050555663
 40
0.9999999999999999
 40
0.9999999999999999
 40
0.9999999999999999
 40
0.9999999999999999
 10
652.6369931236
 20
711.8014769451224
 30
0.0
 10
652.6303641710155
 20
712.0515888307317
 30
0.0
 10
652.6056876135794
 20
712.9826409437301
 30
0.0
 10
652.3658328499793
 20
713.8891475965451
 30
0.0
 10
652.1904111362148
 20
714.5521360992076
 30
0.0
  0
LINE
  5
338
330
1F
100
AcDbEntity
  8
0
  6
Continuous
 62
     7
370
    15
100
AcDbLine
 10
652.6369931236
 20
711.8014769451
 30
0.0
 11
652.6369931236
 21
716.6860206601
 31
0.0
  0
SPLINE
  5
339
330
1F
100
AcDbEntity
  8
0
  6
Continuous
 62
     7
370
    15
100
AcDbSpline
210
0.0
220
0.0
230
1.0
 70
     8
 71
     3
 72
     9
 73
     5
 74
     0
 42
0.00000001
 43
0.00000001
 12
1.0
 22
0.0
 32
0.0
 13
1.0
 23
0.0
 33
0.0
 40
0.0
 40
0.0
 40
0.0
 40
0.0
 40
0.2686336050555413
 40
1.0
 40
1.0
 40
1.0
 40
1.0
 10
647.4369931235999
 20
711.8014769451224
 30
0.0
 10
647.4436220761845
 20
712.0515888307317
 30
0.0
 10
647.4682986336209
 20
712.9826409437301
 30
0.0
 10
647.7081533972208
 20
713.8891475965452
 30
0.0
 10
647.8835751109851
 20
714.5521360992076
 30
0.0
  0
SPLINE
  5
33A
330
1F
100
AcDbEntity
  8
0
  6
Continuous
 62
     7
370
    15
100
AcDbSpline
210
0.0
220
0.0
230
1.0
 70
     8
 71
     3
 72
     9
 73
     5
 74
     0
 42
0.00000001
 43
0.00000001
 12
1.0
 22
0.0
 32
0.0
 13
1.0
 23
0.0
 33
0.0
 40
0.0
 40
0.0
 40
0.0
 40
0.0
 40
0.2575513451037887
 40
1.0
 40
1.0
 40
1.0
 40
1.0
 10
652.1904111362146
 20
709.0508177910372
 30
0.0
 10
652.2578263589895
 20
709.2817404060931
 30
0.0
 10
652.5195808559336
 20
710.1783484784099
 30
0.0
 10
652.586964343726
 20
711.1098700254876
 30
0.0
 10
652.6369931236
 20
711.8014769451224
 30
0.0
  0
LINE
  5
33B
330
1F
100
AcDbEntity
  8
0
  6
Continuous
 62
     7
370
    15
100
AcDbLine
 10
652.1904111362
 20
709.050817791
 30
0.0
 11
647.883575111
 21
709.050817791
 31
0.0
  0
SPLINE
  5
33C
330
1F
100
AcDbEntity
  8
0
  6
Continuous
 62
     7
370
    15
100
AcDbSpline
210
0.0
220
0.0
230
1.0
 70
     8
 71
     3
 72
     9
 73
     5
 74
     0
 42
0.00000001
 43
0.00000001
 12
1.0
 22
0.0
 32
0.0
 13
1.0
 23
0.0
 33
0.0
 40
0.0
 40
0.0
 40
0.0
 40
0.0
 40
0.2575513451038204
 40
1.0
 40
1.0
 40
1.0
 40
1.0
 10
647.8835751109851
 20
709.0508177910372
 30
0.0
 10
647.8161598882101
 20
709.2817404060931
 30
0.0
 10
647.5544053912663
 20
710.1783484784099
 30
0.0
 10
647.4870219034736
 20
711.1098700254877
 30
0.0
 10
647.4369931235999
 20
711.8014769451224
 30
0.0
  0
LINE
  5
33D
330
1F
100
AcDbEntity
  8
0
  6
Continuous
 62
     7
370
    15
100
AcDbLine
 10
647.883575111
 20
709.050817791
 30
0.0
 11
647.4369931236
 21
708.4340431979
 31
0.0
  0
LINE
  5
33E
330
1F
100
AcDbEntity
  8
0
  6
Continuous
 62
     7
370
    15
100
AcDbLine
 10
652.1904111362
 20
709.050817791
 30
0.0
 11
652.6369931236
 21
708.4340431979
 31
0.0
  0
LINE
  5
33F
330
1F
100
AcDbEntity
  8
0
  6
Continuous
 62
     7
370
    15
100
AcDbLine
 10
652.6369931236
 20
708.4340431979
 30
0.0
 11
652.6369931236
 21
711.8014769451
 31
0.0
  0
LINE
  5
340
330
1F
100
AcDbEntity
  8
0
  6
Continuous
 62
     7
370
    15
100
AcDbLine
 10
652.4878730423
 20
718.4361956953
 30
0.0
 11
652.1904111362
 21
718.819905221
 31
0.0
  0
LINE
  5
341
330
1F
100
AcDbEntity
  8
0
  6
Continuous
 62
     7
370
    15
100
AcDbLine
 10
652.6369931236
 20
716.6860206601
 30
0.0
 11
652.6369931236
 21
718.3185869128
 31
0.0
  0
SPLINE
  5
342
330
1F
100
AcDbEntity
  8
0
  6
Continuous
 62
     7
370
    15
100
AcDbSpline
210
0.0
220
0.0
230
1.0
 70
     8
 71
     3
 72
     9
 73
     5
 74
     0
 42
0.00000001
 43
0.00000001
 12
1.0
 22
0.0
 32
0.0
 13
1.0
 23
0.0
 33
0.0
 40
0.0
 40
0.0
 40
0.0
 40
0.0
 40
0.0702005767034556
 40
1.0
 40
1.0
 40
1.0
 40
1.0
 10
652.6369931235998
 20
708.4340431978524
 30
0.0
 10
652.6365470073323
 20
708.4194219905769
 30
0.0
 10
652.630192126951
 20
708.211144395689
 30
0.0
 10
652.4023026450559
 20
708.0070424635056
 30
0.0
 10
652.1904111362146
 20
707.8172686046677
 30
0.0
  0
LINE
  5
343
330
1F
100
AcDbEntity
  8
0
  6
Continuous
 62
     7
370
    15
100
AcDbLine
 10
652.1904111362
 20
707.8172686047
 30
0.0
 11
647.883575111
 21
707.8172686047
 31
0.0
  0
LINE
  5
344
330
1F
100
AcDbEntity
  8
0
  6
Continuous
 62
     7
370
    15
100
AcDbLine
 10
647.5861132049
 20
708.2009781304
 30
0.0
 11
647.883575111
 21
707.8172686047
 31
0.0
  0
LINE
  5
345
330
1F
100
AcDbEntity
  8
0
  6
Continuous
 62
     7
370
    15
100
AcDbLine
 10
652.6369931236
 20
708.3185869128
 30
0.0
 11
652.6369931236
 21
708.4340431979
 31
0.0
  0
LINE
  5
346
330
1F
100
AcDbEntity
  8
0
  6
Continuous
 62
     8
370
    15
100
AcDbLine
 10
1385.0113493948
 20
921.8235041767
 30
0.0
 11
1384.5484388096
 21
921.67309541
 31
0.0
  0
LINE
  5
347
330
1F
100
AcDbEntity
  8
0
  6
Continuous
 62
     8
370
    15
100
AcDbLine
 10
1384.0729105515
 20
922.5053199063
 30
0.0
 11
1384.0729105515
 21
922.0185869128
 31
0.0
  0
LINE
  5
348
330
1F
100
AcDbEntity
  8
0
  6
Continuous
 62
     8
370
    15
100
AcDbLine
 10
1385.4445729903
 20
923.1219663658
 30
0.0
 11
1385.0157799369
 21
922.9826430571
 31
0.0
  0
LINE
  5
349
330
1F
100
AcDbEntity
  8
0
  6
Continuous
 62
     8
370
    15
100
AcDbLine
 10
1394.2087796191
 20
928.3124162408
 30
0.0
 11
1394.2322273774
 21
928.2597517135
 31
0.0
  0
LINE
  5
34A
330
1F
100
AcDbEntity
  8
0
  6
Continuous
 62
     8
370
    15
100
AcDbLine
 10
1386.1249728318
 20
924.6501694308
 30
0.0
 11
1386.0700247262
 21
924.7735848966
 31
0.0
  0
LINE
  5
34B
330
1F
100
AcDbEntity
  8
0
  6
Continuous
 62
     8
370
    15
100
AcDbLine
 10
1439.7765852121
 20
873.7316419905
 30
0.0
 11
1438.7121211954
 21
877.0077253705
 31
0.0
  0
LINE
  5
34C
330
1F
100
AcDbEntity
  8
0
  6
Continuous
 62
     8
370
    15
100
AcDbLine
 10
1405.4310336459
 20
884.2624412822
 30
0.0
 11
1403.5312077843
 21
883.6373681048
 31
0.0
  0
LINE
  5
34D
330
1F
100
AcDbEntity
  8
0
  6
Continuous
 62
     8
370
    15
100
AcDbLine
 10
1405.9296042938
 20
882.7279986071
 30
0.0
 11
1404.0274912612
 21
882.1099646183
 31
0.0
  0
LINE
  5
34E
330
1F
100
AcDbEntity
  8
0
  6
Continuous
 62
     8
370
    15
100
AcDbLine
 10
1407.550696892
 20
877.7387886054
 30
0.0
 11
1405.641147168
 21
877.1436423993
 31
0.0
  0
LINE
  5
34F
330
1F
100
AcDbEntity
  8
0
  6
Continuous
 62
     8
370
    15
100
AcDbLine
 10
1407.3541000992
 20
878.3438513178
 30
0.0
 11
1405.4573809784
 21
877.7092165758
 31
0.0
  0
LINE
  5
350
330
1F
100
AcDbEntity
  8
0
  6
Continuous
 62
     8
370
    15
100
AcDbLine
 10
1407.8779551592
 20
876.7315912238
 30
0.0
 11
1405.9669041523
 21
876.1410654916
 31
0.0
  0
LINE
  5
351
330
1F
100
AcDbEntity
  8
0
  6
Continuous
 62
     8
370
    15
100
AcDbLine
 10
1365.3369931236
 20
894.7204373217
 30
0.0
 11
1365.6521141036
 21
893.7505946693
 31
0.0
  0
LINE
  5
352
330
1F
100
AcDbEntity
  8
0
  6
Continuous
 62
     8
370
    15
100
AcDbLine
 10
1365.6521141036
 20
898.8191254521
 30
0.0
 11
1365.3369931236
 21
898.716736439
 31
0.0
  0
LINE
  5
353
330
1F
100
AcDbEntity
  8
0
  6
Continuous
 62
     8
370
    15
100
AcDbLine
 10
1365.6521141036
 20
706.878355058
 30
0.0
 11
1365.3369931236
 21
706.878355058
 31
0.0
  0
LINE
  5
354
330
1F
100
AcDbEntity
  8
0
  6
Continuous
 62
     8
370
    15
100
AcDbLine
 10
1455.2253991401
 20
766.8431994867
 30
0.0
 11
1436.8496325647
 21
767.2035086352
 31
0.0
  0
LINE
  5
355
330
1F
100
AcDbEntity
  8
0
  6
Continuous
 62
     8
370
    15
100
AcDbLine
 10
711.9369931236
 20
990.6185869128
 30
0.0
 11
712.0369931236
 21
990.6185869128
 31
0.0
  0
LINE
  5
356
330
1F
100
AcDbEntity
  8
0
  6
Continuous
 62
     8
370
    15
100
AcDbLine
 10
1334.3369931236
 20
530.3185869128
 30
0.0
 11
1277.3369931236
 21
530.3185869128
 31
0.0
  0
LINE
  5
357
330
1F
100
AcDbEntity
  8
0
  6
Continuous
 62
     8
370
    15
100
AcDbLine
 10
741.0369931236
 20
530.3185869128
 30
0.0
 11
684.0369931236
 21
530.3185869128
 31
0.0
  0
LINE
  5
358
330
1F
100
AcDbEntity
  8
0
  6
Continuous
 62
     8
370
    15
100
AcDbLine
 10
744.4369931236
 20
674.8185869128
 30
0.0
 11
680.6369931236
 21
674.8185869128
 31
0.0
  0
LINE
  5
359
330
1F
100
AcDbEntity
  8
0
  6
Continuous
 62
     8
370
    15
100
AcDbLine
 10
744.4369931236
 20
588.3511528585
 30
0.0
 11
680.6369931236
 21
588.3511528585
 31
0.0
  0
LINE
  5
35A
330
1F
100
AcDbEntity
  8
0
  6
Continuous
 62
     8
370
    15
100
AcDbLine
 10
744.3730798966
 20
587.578689634
 30
0.0
 11
680.7009063506
 21
587.578689634
 31
0.0
  0
LINE
  5
35B
330
1F
100
AcDbEntity
  8
0
  6
Continuous
 62
     8
370
    15
100
AcDbLine
 10
1337.7369931236
 20
674.8185869128
 30
0.0
 11
1273.9369931236
 21
674.8185869128
 31
0.0
  0
LINE
  5
35C
330
1F
100
AcDbEntity
  8
0
  6
Continuous
 62
     8
370
    15
100
AcDbLine
 10
1337.6730798966
 20
587.578689634
 30
0.0
 11
1274.0009063506
 21
587.578689634
 31
0.0
  0
LINE
  5
35D
330
1F
100
AcDbEntity
  8
0
  6
Continuous
 62
     8
370
    15
100
AcDbLine
 10
1337.7369931236
 20
588.3511528585
 30
0.0
 11
1273.9369931236
 21
588.3511528585
 31
0.0
  0
LINE
  5
35E
330
1F
100
AcDbEntity
  8
0
  6
Continuous
 62
     8
370
    15
100
AcDbLine
 10
1267.8369931236
 20
675.2185869128
 30
0.0
 11
1264.1101336071
 21
675.2185869128
 31
0.0
  0
LINE
  5
35F
330
1F
100
AcDbEntity
  8
0
  6
Continuous
 62
     8
370
    15
100
AcDbLine
 10
647.1869931236
 20
709.256459743
 30
0.0
 11
647.1869931236
 21
716.9929962488
 31
0.0
  0
LINE
  5
360
330
1F
100
AcDbEntity
  8
0
  6
Continuous
 62
     8
370
    15
100
AcDbLine
 10
646.4869931236
 20
716.9929962488
 30
0.0
 11
646.4869931236
 21
709.256459743
 31
0.0
  0
LINE
  5
361
330
1F
100
AcDbEntity
  8
0
  6
Continuous
 62
     8
370
    15
100
AcDbLine
 10
645.9869931236
 20
708.8259676658
 30
0.0
 11
645.9869931236
 21
708.7374350013
 31
0.0
  0
LINE
  5
362
330
1F
100
AcDbEntity
  8
0
  6
Continuous
 62
     8
370
    15
100
AcDbLine
 10
640.8869931236
 20
708.8259690174
 30
0.0
 11
640.8869931236
 21
708.7374350013
 31
0.0
  0
LINE
  5
363
330
1F
100
AcDbEntity
  8
0
  6
Continuous
 62
     8
370
    15
100
AcDbLine
 10
640.8869931236
 20
703.8881478028
 30
0.0
 11
640.8869931236
 21
703.9074835035
 31
0.0
  0
LINE
  5
364
330
1F
100
AcDbEntity
  8
0
  6
Continuous
 62
     8
370
    15
100
AcDbLine
 10
640.8869931236
 20
722.0978544052
 30
0.0
 11
645.6868141765
 21
722.0978544052
 31
0.0
  0
SPLINE
  5
365
330
1F
100
AcDbEntity
  8
0
  6
Continuous
 62
     8
370
    15
100
AcDbSpline
210
0.0
220
0.0
230
1.0
 70
     8
 71
     3
 72
    10
 73
     6
 74
     0
 42
0.00000001
 43
0.00000001
 12
1.0
 22
0.0
 32
0.0
 13
1.0
 23
0.0
 33
0.0
 40
0.0
 40
0.0
 40
0.0
 40
0.0
 40
0.2513409248165762
 40
0.6255486812592671
 40
1.0
 40
1.0
 40
1.0
 40
1.0
 10
646.8850424222136
 20
722.3191632209335
 30
0.0
 10
646.8298509477725
 20
722.370820216164
 30
0.0
 10
646.6924879056071
 20
722.4993864863321
 30
0.0
 10
646.3751744342403
 20
722.6294058707068
 30
0.0
 10
646.1164149546736
 20
722.6501277142554
 30
0.0
 10
645.9869931235995
 20
722.660492006763
 30
0.0
  0
LINE
  5
366
330
1F
100
AcDbEntity
  8
0
  6
Continuous
 62
     8
370
    15
100
AcDbLine
 10
645.9869931236
 20
722.6604920068
 30
0.0
 11
645.9869931236
 21
722.7490260229
 31
0.0
  0
LINE
  5
367
330
1F
100
AcDbEntity
  8
0
  6
Continuous
 62
     8
370
    15
100
AcDbLine
 10
645.0369931236
 20
721.703474867
 30
0.0
 11
640.8869931236
 21
721.703474867
 31
0.0
  0
LINE
  5
368
330
1F
100
AcDbEntity
  8
0
  6
Continuous
 62
     8
370
    15
100
AcDbLine
 10
640.8869931236
 20
721.703474867
 30
0.0
 11
640.8869931236
 21
718.6352928651
 31
0.0
  0
LINE
  5
369
330
1F
100
AcDbEntity
  8
0
  6
Continuous
 62
     8
370
    15
100
AcDbLine
 10
640.8869931236
 20
722.6604920068
 30
0.0
 11
640.8869931236
 21
722.7490260229
 31
0.0
  0
LINE
  5
36A
330
1F
100
AcDbEntity
  8
0
  6
Continuous
 62
     8
370
    15
100
AcDbLine
 10
645.2869931236
 20
716.59074868
 30
0.0
 11
645.2869931236
 21
708.8259690174
 31
0.0
  0
LINE
  5
36B
330
1F
100
AcDbEntity
  8
0
  6
Continuous
 62
     8
370
    15
100
AcDbLine
 10
645.9869931236
 20
708.7342536224
 30
0.0
 11
645.9869931236
 21
716.59074868
 31
0.0
  0
LINE
  5
36C
330
1F
100
AcDbEntity
  8
0
  6
Continuous
 62
     8
370
    15
100
AcDbLine
 10
646.4869931236
 20
716.9930107895
 30
0.0
 11
646.4869931236
 21
717.0632477259
 31
0.0
  0
LINE
  5
36D
330
1F
100
AcDbEntity
  8
0
  6
Continuous
 62
     8
370
    15
100
AcDbLine
 10
651.5869931236
 20
716.9929962488
 30
0.0
 11
651.5869931236
 21
717.0632477259
 31
0.0
  0
LINE
  5
36E
330
1F
100
AcDbEntity
  8
0
  6
Continuous
 62
     8
370
    15
100
AcDbLine
 10
651.5869931236
 20
722.3191632209
 30
0.0
 11
651.5869931236
 21
722.2890269473
 31
0.0
  0
LINE
  5
36F
330
1F
100
AcDbEntity
  8
0
  6
Continuous
 62
     8
370
    15
100
AcDbLine
 10
651.5869931236
 20
704.900464504
 30
0.0
 11
647.4369931236
 21
704.900464504
 31
0.0
  0
LINE
  5
370
330
1F
100
AcDbEntity
  8
0
  6
Continuous
 62
     8
370
    15
100
AcDbLine
 10
647.1401846397
 20
704.3882620818
 30
0.0
 11
651.5869931236
 21
704.3882620818
 31
0.0
  0
LINE
  5
371
330
1F
100
AcDbEntity
  8
0
  6
Continuous
 62
     8
370
    15
100
AcDbLine
 10
647.4369931236
 20
705.3028717806
 30
0.0
 11
651.5869931236
 21
705.3028717806
 31
0.0
  0
LINE
  5
372
330
1F
100
AcDbEntity
  8
0
  6
Continuous
 62
     8
370
    15
100
AcDbLine
 10
651.5869931236
 20
705.3028717806
 30
0.0
 11
651.5869931236
 21
707.8172686047
 31
0.0
  0
LINE
  5
373
330
1F
100
AcDbEntity
  8
0
  6
Continuous
 62
     8
370
    15
100
AcDbLine
 10
651.5869931236
 20
704.3882620818
 30
0.0
 11
651.5869931236
 21
704.3180106047
 31
0.0
  0
ENDSEC
  0
SECTION
  2
OBJECTS
  0
DICTIONARY
  5
C
330
0
100
AcDbDictionary
281
     1
  3
ACAD_GROUP
350
D
  3
ACAD_LAYOUT
350
1A
  3
ACAD_MLINESTYLE
350
17
  3
ACAD_PLOTSETTINGS
350
19
  3
ACAD_PLOTSTYLENAME
350
E
  0
DICTIONARY
  5
D
102
{ACAD_REACTORS
330
C
102
}
330
C
100
AcDbDictionary
281
     1
  0
DICTIONARY
  5
1A
102
{ACAD_REACTORS
330
C
102
}
330
C
100
AcDbDictionary
281
     1
  3
Layout1
350
1E
  3
Layout2
350
26
  3
Model
350
22
  0
DICTIONARY
  5
17
102
{ACAD_REACTORS
330
C
102
}
330
C
100
AcDbDictionary
281
     1
  3
Standard
350
18
  0
DICTIONARY
  5
19
102
{ACAD_REACTORS
330
C
102
}
330
C
100
AcDbDictionary
281
     1
  0
ACDBDICTIONARYWDFLT
  5
E
102
{ACAD_REACTORS
330
C
102
}
330
C
100
AcDbDictionary
281
     1
  3
Normal
350
F
100
AcDbDictionaryWithDefault
340
F
  0
LAYOUT
  5
1E
102
{ACAD_REACTORS
330
1A
102
}
330
1A
100
AcDbPlotSettings
  1

  2
none_device
  4

  6

 40
0.0
 41
0.0
 42
0.0
 43
0.0
 44
0.0
 45
0.0
 46
0.0
 47
0.0
 48
0.0
 49
0.0
140
0.0
141
0.0
142
1.0
143
1.0
 70
   688
 72
     0
 73
     0
 74
     5
  7

 75
    16
147
1.0
148
0.0
149
0.0
100
AcDbLayout
  1
Layout1
 70
     1
 71
     1
 10
0.0
 20
0.0
 11
420.0
 21
297.0
 12
0.0
 22
0.0
 32
0.0
 14
1.0000000000E+20
 24
1.0000000000E+20
 34
1.0000000000E+20
 15
-1.0000000000E+20
 25
-1.0000000000E+20
 35
-1.0000000000E+20
146
0.0
 13
0.0
 23
0.0
 33
0.0
 16
1.0
 26
0.0
 36
0.0
 17
0.0
 27
1.0
 37
0.0
 76
     0
330
1B
  0
LAYOUT
  5
26
102
{ACAD_REACTORS
330
1A
102
}
330
1A
100
AcDbPlotSettings
  1

  2
none_device
  4

  6

 40
0.0
 41
0.0
 42
0.0
 43
0.0
 44
0.0
 45
0.0
 46
0.0
 47
0.0
 48
0.0
 49
0.0
140
0.0
141
0.0
142
1.0
143
1.0
 70
   688
 72
     0
 73
     0
 74
     5
  7

 75
    16
147
1.0
148
0.0
149
0.0
100
AcDbLayout
  1
Layout2
 70
     1
 71
     2
 10
0.0
 20
0.0
 11
0.0
 21
0.0
 12
0.0
 22
0.0
 32
0.0
 14
0.0
 24
0.0
 34
0.0
 15
0.0
 25
0.0
 35
0.0
146
0.0
 13
0.0
 23
0.0
 33
0.0
 16
1.0
 26
0.0
 36
0.0
 17
0.0
 27
1.0
 37
0.0
 76
     0
330
23
  0
LAYOUT
  5
22
102
{ACAD_REACTORS
330
1A
102
}
330
1A
100
AcDbPlotSettings
  1

  2
none_device
  4

  6

 40
0.0
 41
0.0
 42
0.0
 43
0.0
 44
0.0
 45
0.0
 46
0.0
 47
0.0
 48
0.0
 49
0.0
140
0.0
141
0.0
142
1.0
143
1.0
 70
  1712
 72
     0
 73
     0
 74
     0
  7

 75
     0
147
1.0
148
0.0
149
0.0
100
AcDbLayout
  1
Model
 70
     1
 71
     0
 10
0.0
 20
0.0
 11
2159.0
 21
1397.0
 12
0.0
 22
0.0
 32
0.0
 14
0.0
 24
0.0
 34
0.0
 15
2159.0
 25
1397.0
 35
0.0
146
0.0
 13
0.0
 23
0.0
 33
0.0
 16
1.0
 26
0.0
 36
0.0
 17
0.0
 27
1.0
 37
0.0
 76
     0
330
1F
331
29
  0
MLINESTYLE
  5
18
102
{ACAD_REACTORS
330
17
102
}
330
17
100
AcDbMlineStyle
  2
Standard
 70
     0
  3

 62
   256
 51
90.0
 52
90.0
 71
     2
 49
0.5
 62
   256
  6
BYLAYER
 49
-0.5
 62
   256
  6
BYLAYER
  0
ACDBPLACEHOLDER
  5
F
102
{ACAD_REACTORS
330
E
102
}
330
E
  0
ENDSEC
  0
EOF
