  0
SECTION
  2
HEADER
  9
$ACADVER
  1
AC1015
  9
$ACADMAINTVER
 70
     6
  9
$DWGCODEPAGE
  3
ANSI_1252
  9
$INSBASE
 10
0.0
 20
0.0
 30
0.0
  9
$EXTMIN
 10
0.0
 20
0.0
 30
0.0
  9
$EXTMAX
 10
420.0
 20
297.0
 30
0.0
  9
$LIMMIN
 10
0.0
 20
0.0
  9
$LIMMAX
 10
420.0
 20
297.0
  9
$ORTHOMODE
 70
     0
  9
$REGENMODE
 70
     1
  9
$FILLMODE
 70
     1
  9
$QTEXTMODE
 70
     0
  9
$MIRRTEXT
 70
     1
  9
$LTSCALE
 40
1.0
  9
$ATTMODE
 70
     1
  9
$TEXTSIZE
 40
3.5
  9
$TRACEWID
 40
1.0
  9
$TEXTSTYLE
  7
Standard
  9
$CLAYER
  8
0
  9
$CELTYPE
  6
ByLayer
  9
$CECOLOR
 62
   256
  9
$CELTSCALE
 40
1.0
  9
$DISPSILH
 70
     0
  9
$DIMSCALE
 40
1.0
  9
$DIMASZ
 40
3.302
  9
$DIMEXO
 40
1.0
  9
$DIMDLI
 40
3.75
  9
$DIMRND
 40
0.0
  9
$DIMDLE
 40
0.0
  9
$DIMEXE
 40
1.0
  9
$DIMTP
 40
0.0
  9
$DIMTM
 40
0.0
  9
$DIMTXT
 40
3.5
  9
$DIMCEN
 40
2.5
  9
$DIMTSZ
 40
0.0
  9
$DIMTOL
 70
     0
  9
$DIMLIM
 70
     0
  9
$DIMTIH
 70
     1
  9
$DIMTOH
 70
     1
  9
$DIMSE1
 70
     0
  9
$DIMSE2
 70
     0
  9
$DIMTAD
 70
     1
  9
$DIMZIN
 70
     0
  9
$DIMBLK
  1

  9
$DIMASO
 70
     1
  9
$DIMSHO
 70
     1
  9
$DIMPOST
  1

  9
$DIMAPOST
  1

  9
$DIMALT
 70
     0
  9
$DIMALTD
 70
     3
  9
$DIMALTF
 40
0.0393700787
  9
$DIMLFAC
 40
10.0
  9
$DIMTOFL
 70
     1
  9
$DIMTVP
 40
0.0
  9
$DIMTIX
 70
     0
  9
$DIMSOXD
 70
     0
  9
$DIMSAH
 70
     0
  9
$DIMBLK1
  1

  9
$DIMBLK2
  1

  9
$DIMSTYLE
  2
ISO-25
  9
$DIMCLRD
 70
     0
  9
$DIMCLRE
 70
     0
  9
$DIMCLRT
 70
     0
  9
$DIMTFAC
 40
1.0
  9
$DIMGAP
 40
5.0
  9
$DIMJUST
 70
     0
  9
$DIMSD1
 70
     0
  9
$DIMSD2
 70
     0
  9
$DIMTOLJ
 70
     0
  9
$DIMTZIN
 70
     0
  9
$DIMALTZ
 70
     0
  9
$DIMALTTZ
 70
     0
  9
$DIMUPT
 70
     0
  9
$DIMDEC
 70
     1
  9
$DIMTDEC
 70
     1
  9
$DIMALTU
 70
     2
  9
$DIMALTTD
 70
     3
  9
$DIMTXSTY
  7
Standard
  9
$DIMAUNIT
 70
     0
  9
$DIMADEC
 70
     1
  9
$DIMALTRND
 40
0.0
  9
$DIMAZIN
 70
     0
  9
$DIMDSEP
 70
    44
  9
$DIMATFIT
 70
     3
  9
$DIMFRAC
 70
     0
  9
$DIMLDRBLK
  1

  9
$DIMLUNIT
 70
     2
  9
$DIMLWD
 70
    -2
  9
$DIMLWE
 70
    -2
  9
$DIMTMOVE
 70
     0
  9
$LUNITS
 70
     2
  9
$LUPREC
 70
     1
  9
$SKETCHINC
 40
1.0
  9
$FILLETRAD
 40
10.0
  9
$AUNITS
 70
     0
  9
$AUPREC
 70
     1
  9
$MENU
  1
.
  9
$ELEVATION
 40
0.0
  9
$PELEVATION
 40
0.0
  9
$THICKNESS
 40
0.0
  9
$LIMCHECK
 70
     0
  9
$CHAMFERA
 40
0.0
  9
$CHAMFERB
 40
0.0
  9
$CHAMFERC
 40
0.0
  9
$CHAMFERD
 40
0.0
  9
$SKPOLY
 70
     0
  9
$TDCREATE
 40
2460188.641073044
  9
$TDUCREATE
 40
2460188.599406377
  9
$TDUPDATE
 40
2460188.641073808
  9
$TDUUPDATE
 40
2460188.599407141
  9
$TDINDWG
 40
0.0000000116
  9
$TDUSRTIMER
 40
0.0000000116
  9
$USRTIMER
 70
     1
  9
$ANGBASE
 50
0.0
  9
$ANGDIR
 70
     0
  9
$PDMODE
 70
     0
  9
$PDSIZE
 40
-1.0
  9
$PLINEWID
 40
0.0
  9
$SPLFRAME
 70
     0
  9
$SPLINETYPE
 70
     6
  9
$SPLINESEGS
 70
     8
  9
$HANDSEED
  5
410
  9
$SURFTAB1
 70
     6
  9
$SURFTAB2
 70
     6
  9
$SURFTYPE
 70
     6
  9
$SURFU
 70
     6
  9
$SURFV
 70
     6
  9
$UCSBASE
  2

  9
$UCSNAME
  2

  9
$UCSORG
 10
0.0
 20
0.0
 30
0.0
  9
$UCSXDIR
 10
1.0
 20
0.0
 30
0.0
  9
$UCSYDIR
 10
0.0
 20
1.0
 30
0.0
  9
$UCSORTHOREF
  2

  9
$UCSORTHOVIEW
 70
     0
  9
$UCSORGTOP
 10
0.0
 20
0.0
 30
0.0
  9
$UCSORGBOTTOM
 10
0.0
 20
0.0
 30
0.0
  9
$UCSORGLEFT
 10
0.0
 20
0.0
 30
0.0
  9
$UCSORGRIGHT
 10
0.0
 20
0.0
 30
0.0
  9
$UCSORGFRONT
 10
0.0
 20
0.0
 30
0.0
  9
$UCSORGBACK
 10
0.0
 20
0.0
 30
0.0
  9
$PUCSBASE
  2

  9
$PUCSNAME
  2

  9
$PUCSORG
 10
0.0
 20
0.0
 30
0.0
  9
$PUCSXDIR
 10
1.0
 20
0.0
 30
0.0
  9
$PUCSYDIR
 10
0.0
 20
1.0
 30
0.0
  9
$PUCSORTHOREF
  2

  9
$PUCSORTHOVIEW
 70
     0
  9
$PUCSORGTOP
 10
0.0
 20
0.0
 30
0.0
  9
$PUCSORGBOTTOM
 10
0.0
 20
0.0
 30
0.0
  9
$PUCSORGLEFT
 10
0.0
 20
0.0
 30
0.0
  9
$PUCSORGRIGHT
 10
0.0
 20
0.0
 30
0.0
  9
$PUCSORGFRONT
 10
0.0
 20
0.0
 30
0.0
  9
$PUCSORGBACK
 10
0.0
 20
0.0
 30
0.0
  9
$USERI1
 70
     0
  9
$USERI2
 70
     0
  9
$USERI3
 70
     0
  9
$USERI4
 70
     0
  9
$USERI5
 70
     0
  9
$USERR1
 40
0.0
  9
$USERR2
 40
0.0
  9
$USERR3
 40
0.0
  9
$USERR4
 40
0.0
  9
$USERR5
 40
0.0
  9
$WORLDVIEW
 70
     1
  9
$SHADEDGE
 70
     3
  9
$SHADEDIF
 70
    70
  9
$TILEMODE
 70
     1
  9
$MAXACTVP
 70
    64
  9
$PINSBASE
 10
0.0
 20
0.0
 30
0.0
  9
$PLIMCHECK
 70
     0
  9
$PEXTMIN
 10
1.0000000000E+20
 20
1.0000000000E+20
 30
1.0000000000E+20
  9
$PEXTMAX
 10
-1.0000000000E+20
 20
-1.0000000000E+20
 30
-1.0000000000E+20
  9
$PLIMMIN
 10
0.0
 20
0.0
  9
$PLIMMAX
 10
420.0
 20
297.0
  9
$UNITMODE
 70
     0
  9
$VISRETAIN
 70
     1
  9
$PLINEGEN
 70
     0
  9
$PSLTSCALE
 70
     1
  9
$TREEDEPTH
 70
  3020
  9
$CMLSTYLE
  2
Standard
  9
$CMLJUST
 70
     0
  9
$CMLSCALE
 40
20.0
  9
$PROXYGRAPHICS
 70
     1
  9
$MEASUREMENT
 70
     1
  9
$CELWEIGHT
370
    -1
  9
$ENDCAPS
280
     0
  9
$JOINSTYLE
280
     0
  9
$LWDISPLAY
290
     1
  9
$INSUNITS
 70
     4
  9
$HYPERLINKBASE
  1

  9
$STYLESHEET
  1

  9
$XEDIT
290
     1
  9
$CEPSNTYPE
380
     0
  9
$PSTYLEMODE
290
     1
  9
$FINGERPRINTGUID
  2
{807a3317-37c9-49d0-bfdb-cf7b45850a38}
  9
$VERSIONGUID
  2
{FAEB1C32-E019-11D5-929B-00C0DF256EC4}
  9
$EXTNAMES
290
     1
  9
$PSVPSCALE
 40
0.0
  9
$OLESTARTUP
290
     0
  0
ENDSEC
  0
SECTION
  2
CLASSES
  0
CLASS
  1
ACDBDICTIONARYWDFLT
  2
AcDbDictionaryWithDefault
  3
ObjectDBX Classes
 90
        0
280
     0
281
     0
  0
CLASS
  1
VISUALSTYLE
  2
AcDbVisualStyle
  3
ObjectDBX Classes
 90
     4095
280
     0
281
     0
  0
CLASS
  1
MATERIAL
  2
AcDbMaterial
  3
ObjectDBX Classes
 90
     1153
280
     0
281
     0
  0
CLASS
  1
SCALE
  2
AcDbScale
  3
ObjectDBX Classes
 90
     1153
280
     0
281
     0
  0
CLASS
  1
TABLESTYLE
  2
AcDbTableStyle
  3
ObjectDBX Classes
 90
     4095
280
     0
281
     0
  0
CLASS
  1
MLEADERSTYLE
  2
AcDbMLeaderStyle
  3
ACDB_MLEADERSTYLE_CLASS
 90
     4095
280
     0
281
     0
  0
CLASS
  1
SUN
  2
AcDbSun
  3
SCENEOE
 90
     1153
280
     0
281
     0
  0
CLASS
  1
ACDBPLACEHOLDER
  2
AcDbPlaceHolder
  3
ObjectDBX Classes
 90
        0
280
     0
281
     0
  0
CLASS
  1
LAYOUT
  2
AcDbLayout
  3
ObjectDBX Classes
 90
        0
280
     0
281
     0
  0
ENDSEC
  0
SECTION
  2
TABLES
  0
TABLE
  2
VPORT
  5
8
330
0
100
AcDbSymbolTable
 70
     1
  0
VPORT
  5
29
330
8
100
AcDbSymbolTableRecord
100
AcDbViewportTableRecord
  2
*Active
 70
     0
 10
0.0
 20
0.0
 11
1.0
 21
1.0
 12
210.0
 22
148.5
 13
0.0
 23
0.0
 14
10.0
 24
10.0
 15
10.0
 25
10.0
 16
0.0
 26
0.0
 36
1.0
 17
0.0
 27
0.0
 37
0.0
 40
297.0
 41
1.4141414141
 42
50.0
 43
0.0
 44
0.0
 50
0.0
 51
0.0
 71
     0
 72
  2000
 73
     1
 74
     3
 75
     0
 76
     0
 77
     0
 78
     0
281
     0
 65
     1
110
0.0
120
0.0
130
0.0
111
1.0
121
0.0
131
0.0
112
0.0
122
1.0
132
0.0
 79
     0
146
0.0
  0
ENDTAB
  0
TABLE
  2
LTYPE
  5
5
330
0
100
AcDbSymbolTable
 70
     6
  0
LTYPE
  5
14
330
5
100
AcDbSymbolTableRecord
100
AcDbLinetypeTableRecord
  2
ByBlock
 70
     0
  3

 72
    65
 73
     0
 40
0.0
  0
LTYPE
  5
15
330
5
100
AcDbSymbolTableRecord
100
AcDbLinetypeTableRecord
  2
ByLayer
 70
     0
  3

 72
    65
 73
     0
 40
0.0
  0
LTYPE
  5
16
330
5
100
AcDbSymbolTableRecord
100
AcDbLinetypeTableRecord
  2
Continuous
 70
     0
  3
Solid line
 72
    65
 73
     0
 40
0.0
  0
LTYPE
  5
6E
330
5
100
AcDbSymbolTableRecord
100
AcDbLinetypeTableRecord
  2
HIDDEN
 70
     0
  3
Hidden __ __ __ __ __ __ __ __ __ __ __ __ __ __
 72
    65
 73
     2
 40
1.905
 49
1.27
 74
     0
 49
-0.635
 74
     0
  0
LTYPE
  5
6F
330
5
100
AcDbSymbolTableRecord
100
AcDbLinetypeTableRecord
  2
PHANTOM
 70
     0
  3
Phantom ______  __  __  ______  __  __  ______
 72
    65
 73
     6
 40
12.7
 49
6.35
 74
     0
 49
-1.27
 74
     0
 49
1.27
 74
     0
 49
-1.27
 74
     0
 49
1.27
 74
     0
 49
-1.27
 74
     0
  0
LTYPE
  5
70
330
5
100
AcDbSymbolTableRecord
100
AcDbLinetypeTableRecord
  2
CENTER
 70
     0
  3
Center ____ _ ____ _ ____ _ ____ _ ____ _ ____
 72
    65
 73
     4
 40
10.16
 49
6.35
 74
     0
 49
-1.27
 74
     0
 49
1.27
 74
     0
 49
-1.27
 74
     0
  0
LTYPE
  5
71
330
5
100
AcDbSymbolTableRecord
100
AcDbLinetypeTableRecord
  2
CENTERX2
 70
     0
  3
Center (2x) ________  __  ________  __  _____
 72
    65
 73
     4
 40
20.32
 49
12.7
 74
     0
 49
-2.54
 74
     0
 49
2.54
 74
     0
 49
-2.54
 74
     0
  0
LTYPE
  5
72
330
5
100
AcDbSymbolTableRecord
100
AcDbLinetypeTableRecord
  2
DOT2
 70
     0
  3
Dot (.5x) ........................................
 72
    65
 73
     2
 40
0.635
 49
0.0
 74
     0
 49
-0.635
 74
     0
  0
ENDTAB
  0
TABLE
  2
LAYER
  5
2
330
0
100
AcDbSymbolTable
 70
     5
  0
LAYER
  5
10
330
2
100
AcDbSymbolTableRecord
100
AcDbLayerTableRecord
  2
0
 70
     0
 62
     7
  6
Continuous
370
    -3
390
F
  0
LAYER
  5
73
330
2
100
AcDbSymbolTableRecord
100
AcDbLayerTableRecord
  2
FORMAT
 70
     0
 62
     7
  6
Continuous
370
    -3
390
F
  0
LAYER
  5
74
330
2
100
AcDbSymbolTableRecord
100
AcDbLayerTableRecord
  2
SLD-0
 70
     0
 62
     1
  6
Continuous
370
    -3
390
F
  0
LAYER
  5
75
330
2
100
AcDbSymbolTableRecord
100
AcDbLayerTableRecord
  2
WATERMARK
 70
     0
 62
    20
  6
Continuous
370
    -3
390
F
  0
LAYER
  5
76
330
2
100
AcDbSymbolTableRecord
100
AcDbLayerTableRecord
  2
PRIMARY
 70
     0
 62
   179
  6
Continuous
370
    -3
390
F
  0
ENDTAB
  0
TABLE
  2
STYLE
  5
3
330
0
100
AcDbSymbolTable
 70
     1
  0
STYLE
  5
11
330
3
100
AcDbSymbolTableRecord
100
AcDbTextStyleTableRecord
  2
Standard
 70
     0
 40
0.0
 41
1.0
 50
0.0
 71
     0
 42
3.5
  3
txt
  4

  0
ENDTAB
  0
TABLE
  2
VIEW
  5
6
330
0
100
AcDbSymbolTable
 70
     0
  0
ENDTAB
  0
TABLE
  2
UCS
  5
7
330
0
100
AcDbSymbolTable
 70
     0
  0
ENDTAB
  0
TABLE
  2
APPID
  5
9
330
0
100
AcDbSymbolTable
 70
     1
  0
APPID
  5
12
330
9
100
AcDbSymbolTableRecord
100
AcDbRegAppTableRecord
  2
ACAD
 70
     0
  0
ENDTAB
  0
TABLE
  2
DIMSTYLE
  5
A
330
0
100
AcDbSymbolTable
 70
     1
100
AcDbDimStyleTable
  0
DIMSTYLE
105
27
330
A
100
AcDbSymbolTableRecord
100
AcDbDimStyleTableRecord
  2
ISO-25
 70
     0
 41
2.5
 42
0.625
 43
3.75
 44
1.25
 73
     0
 74
     0
 77
     1
 78
     8
140
2.5
141
2.5
143
0.0393700787
147
0.625
171
     3
172
     1
178
     0
271
     2
272
     2
274
     3
278
    44
283
     0
284
     8
340
11
  0
ENDTAB
  0
TABLE
  2
BLOCK_RECORD
  5
1
330
0
100
AcDbSymbolTable
 70
     2
  0
BLOCK_RECORD
  5
1F
330
1
100
AcDbSymbolTableRecord
100
AcDbBlockTableRecord
  2
*Model_Space
340
22
  0
BLOCK_RECORD
  5
1B
330
1
100
AcDbSymbolTableRecord
100
AcDbBlockTableRecord
  2
*Paper_Space
340
1E
  0
BLOCK_RECORD
  5
23
330
1
100
AcDbSymbolTableRecord
100
AcDbBlockTableRecord
  2
*Paper_Space0
340
26
  0
BLOCK_RECORD
  5
77
330
1
100
AcDbSymbolTableRecord
100
AcDbBlockTableRecord
  2
Falcon Logo 2020
340
0
  0
ENDTAB
  0
ENDSEC
  0
SECTION
  2
BLOCKS
  0
BLOCK
  5
20
330
1F
100
AcDbEntity
  8
0
100
AcDbBlockBegin
  2
*Model_Space
 70
     0
 10
0.0
 20
0.0
 30
0.0
  3
*Model_Space
  1

  0
ENDBLK
  5
21
330
1F
100
AcDbEntity
  8
0
100
AcDbBlockEnd
  0
BLOCK
  5
1C
330
1B
100
AcDbEntity
 67
     1
  8
0
100
AcDbBlockBegin
  2
*Paper_Space
 70
     0
 10
0.0
 20
0.0
 30
0.0
  3
*Paper_Space
  1

  0
ENDBLK
  5
1D
330
1B
100
AcDbEntity
 67
     1
  8
0
100
AcDbBlockEnd
  0
BLOCK
  5
24
330
23
100
AcDbEntity
  8
0
100
AcDbBlockBegin
  2
*Paper_Space0
 70
     0
 10
0.0
 20
0.0
 30
0.0
  3
*Paper_Space0
  1

  0
ENDBLK
  5
25
330
23
100
AcDbEntity
  8
0
100
AcDbBlockEnd
  0
BLOCK
  5
78
330
77
100
AcDbEntity
  8
0
100
AcDbBlockBegin
  2
Falcon Logo 2020
 70
     0
 10
0.0
 20
0.0
 30
0.0
  3
Falcon Logo 2020
  1

  0
LINE
  5
7A
330
77
100
AcDbEntity
  8
0
  6
Continuous
 62
     7
370
    18
100
AcDbLine
 10
0.2366362149
 20
-25.099120703
 30
0.0
 11
0.1890676051
 21
-25.1850754693
 31
0.0
  0
LINE
  5
7B
330
77
100
AcDbEntity
  8
0
  6
Continuous
 62
     7
370
    18
100
AcDbLine
 10
-8.9546345587
 20
-34.8305583248
 30
0.0
 11
-8.8845902523
 21
-34.8534799981
 31
0.0
  0
LINE
  5
7C
330
77
100
AcDbEntity
  8
0
  6
Continuous
 62
     7
370
    18
100
AcDbLine
 10
1.3975224119
 20
-24.3176861209
 30
0.0
 11
1.0342487254
 21
-24.0430667658
 31
0.0
  0
LINE
  5
7D
330
77
100
AcDbEntity
  8
0
  6
Continuous
 62
     7
370
    18
100
AcDbLine
 10
-1.344635895
 20
-16.4400365624
 30
0.0
 11
-1.3491582948
 21
-16.4379044226
 31
0.0
  0
LINE
  5
7E
330
77
100
AcDbEntity
  8
0
  6
Continuous
 62
     7
370
    18
100
AcDbLine
 10
7.8090812831
 20
-19.1315273814
 30
0.0
 11
7.8091802885
 21
-19.1313230883
 31
0.0
  0
LINE
  5
7F
330
77
100
AcDbEntity
  8
0
  6
Continuous
 62
     7
370
    18
100
AcDbLine
 10
0.0
 20
-1.0296983168
 30
0.0
 11
0.0
 21
1.0296983168
 31
0.0
  0
LINE
  5
80
330
77
100
AcDbEntity
  8
0
  6
Continuous
 62
     7
370
    18
100
AcDbLine
 10
10.0154752928
 20
-30.4004736372
 30
0.0
 11
9.1539977041
 21
-32.0953773775
 31
0.0
  0
LINE
  5
81
330
77
100
AcDbEntity
  8
0
  6
Continuous
 62
     7
370
    18
100
AcDbLine
 10
9.1830081219
 20
-32.1843475956
 30
0.0
 11
9.481427996
 21
-32.3361036526
 31
0.0
  0
LINE
  5
82
330
77
100
AcDbEntity
  8
0
  6
Continuous
 62
     7
370
    18
100
AcDbLine
 10
9.5704389671
 20
-32.3070676322
 30
0.0
 11
10.4992725169
 21
-30.4794480227
 31
0.0
  0
LINE
  5
83
330
77
100
AcDbEntity
  8
0
  6
Continuous
 62
     7
370
    18
100
AcDbLine
 10
12.5467888882
 20
-29.3625787572
 30
0.0
 11
12.3419088888
 21
-29.0978910313
 31
0.0
  0
LINE
  5
84
330
77
100
AcDbEntity
  8
0
  6
Continuous
 62
     7
370
    18
100
AcDbLine
 10
12.8223724068
 20
-30.9599942873
 30
0.0
 11
13.2708466106
 21
-31.0149510216
 31
0.0
  0
LINE
  5
85
330
77
100
AcDbEntity
  8
0
  6
Continuous
 62
     7
370
    18
100
AcDbLine
 10
17.1692492954
 20
-27.2721969661
 30
0.0
 11
17.0622662115
 21
-26.8332975819
 31
0.0
  0
LINE
  5
86
330
77
100
AcDbEntity
  8
0
  6
Continuous
 62
     7
370
    18
100
AcDbLine
 10
9.2674260365
 20
-23.8703966174
 30
0.0
 11
9.2820724332
 21
-23.832346426
 31
0.0
  0
LINE
  5
87
330
77
100
AcDbEntity
  8
0
  6
Continuous
 62
     7
370
    18
100
AcDbLine
 10
7.0444852887
 20
-17.62223308
 30
0.0
 11
7.0437472733
 21
-17.6218725853
 31
0.0
  0
LINE
  5
88
330
77
100
AcDbEntity
  8
0
  6
Continuous
 62
     7
370
    18
100
AcDbLine
 10
3.3695709323
 20
-18.7150893908
 30
0.0
 11
3.3652686317
 21
-18.7077888488
 31
0.0
  0
LINE
  5
89
330
77
100
AcDbEntity
  8
0
  6
Continuous
 62
     7
370
    18
100
AcDbLine
 10
3.3652686317
 20
-18.7077888488
 30
0.0
 11
3.3711671796
 21
-18.8025827031
 31
0.0
  0
LINE
  5
8A
330
77
100
AcDbEntity
  8
0
  6
Continuous
 62
     7
370
    18
100
AcDbLine
 10
3.3963759391
 20
-19.2069459167
 30
0.0
 11
3.4149125726
 21
-19.5041559716
 31
0.0
  0
SPLINE
  5
8B
330
77
100
AcDbEntity
  8
0
  6
Continuous
 62
     7
370
    18
100
AcDbSpline
210
0.0
220
0.0
230
1.0
 70
     8
 71
     3
 72
     8
 73
     4
 74
     0
 42
0.00000001
 43
0.00000001
 40
0.0
 40
0.0
 40
0.0
 40
0.0
 40
1.0
 40
1.0
 40
1.0
 40
1.0
 10
5.852229029515427
 20
-28.4276388766053
 30
0.0
 10
5.825666155886172
 20
-28.53479889167665
 30
0.0
 10
5.788722307073408
 20
-28.64641728306218
 30
0.0
 10
5.745235939283002
 20
-28.75809747055379
 30
0.0
  0
SPLINE
  5
8C
330
77
100
AcDbEntity
  8
0
  6
Continuous
 62
     7
370
    18
100
AcDbSpline
210
0.0
220
0.0
230
1.0
 70
     8
 71
     2
 72
     6
 73
     3
 74
     0
 42
0.00000001
 43
0.00000001
 40
1.0
 40
1.0
 40
1.0
 40
2.0
 40
2.0
 40
2.0
 10
5.745235939283002
 20
-28.75809747055379
 30
0.0
 10
5.531735298312616
 20
-29.30641496529977
 30
0.0
 10
5.166807901578401
 20
-29.85360333242915
 30
0.0
  0
SPLINE
  5
8D
330
77
100
AcDbEntity
  8
0
  6
Continuous
 62
     7
370
    18
100
AcDbSpline
210
0.0
220
0.0
230
1.0
 70
     8
 71
     3
 72
     8
 73
     4
 74
     0
 42
0.00000001
 43
0.00000001
 40
2.0
 40
2.0
 40
2.0
 40
2.0
 40
3.0
 40
3.0
 40
3.0
 40
3.0
 10
5.166807901578401
 20
-29.85360333242915
 30
0.0
 10
6.311772697024359
 20
-30.87441642829223
 30
0.0
 10
9.719836507960874
 20
-30.34731494120714
 30
0.0
 10
10.01547729021294
 20
-30.40048416895655
 30
0.0
  0
SPLINE
  5
8E
330
77
100
AcDbEntity
  8
0
  6
Continuous
 62
     7
370
    18
100
AcDbSpline
210
0.0
220
0.0
230
1.0
 70
     8
 71
     3
 72
     8
 73
     4
 74
     0
 42
0.00000001
 43
0.00000001
 40
3.0
 40
3.0
 40
3.0
 40
3.0
 40
3.996689690837188
 40
3.996689690837188
 40
3.996689690837188
 40
3.996689690837188
 10
10.01547729021294
 20
-30.40048416895655
 30
0.0
 10
8.977607483441508
 20
-29.99967069988004
 30
0.0
 10
7.814529315873817
 20
-28.89614101828137
 30
0.0
 10
7.081020323903868
 20
-28.0410800019856
 30
0.0
  0
SPLINE
  5
8F
330
77
100
AcDbEntity
  8
0
  6
Continuous
 62
     7
370
    18
100
AcDbSpline
210
0.0
220
0.0
230
1.0
 70
     8
 71
     3
 72
    14
 73
    10
 74
     0
 42
0.00000001
 43
0.00000001
 40
7.0
 40
7.0
 40
7.0
 40
7.0
 40
8.0
 40
9.0
 40
10.0
 40
11.0
 40
12.0
 40
13.0
 40
14.0
 40
14.0
 40
14.0
 40
14.0
 10
12.78899862649789
 20
-20.9206021766667
 30
0.0
 10
12.75298627797974
 20
-20.92674765647992
 30
0.0
 10
12.68640696953537
 20
-20.93826917416036
 30
0.0
 10
12.46146607510041
 20
-20.9609736022742
 30
0.0
 10
12.36316736583912
 20
-20.81710288078964
 30
0.0
 10
12.19029292109663
 20
-20.56395973963105
 30
0.0
 10
12.22319183016533
 20
-20.44637053703358
 30
0.0
 10
12.12701487946805
 20
-20.29328089794294
 30
0.0
 10
12.03084102575803
 20
-20.14019618848106
 30
0.0
 10
11.83537120556004
 20
-19.86366120251053
 30
0.0
  0
SPLINE
  5
90
330
77
100
AcDbEntity
  8
0
  6
Continuous
 62
     7
370
    18
100
AcDbSpline
210
0.0
220
0.0
230
1.0
 70
     8
 71
     3
 72
    14
 73
    10
 74
     0
 42
0.00000001
 43
0.00000001
 40
0.0
 40
0.0
 40
0.0
 40
0.0
 40
1.0
 40
2.0
 40
3.0
 40
4.0
 40
5.0
 40
6.0
 40
7.0
 40
7.0
 40
7.0
 40
7.0
 10
11.83537120556004
 20
-19.86366120251053
 30
0.0
 10
12.96786884091336
 20
-20.09916183373696
 30
0.0
 10
13.13102812036816
 20
-20.67672009866099
 30
0.0
 10
13.16182644407878
 20
-20.79181058502865
 30
0.0
 10
13.18921773799899
 20
-20.89522906612286
 30
0.0
 10
13.07031240695495
 20
-20.89476265907842
 30
0.0
 10
12.9537126753755
 20
-20.89486911556055
 30
0.0
 10
12.90248106064455
 20
-20.90139629528142
 30
0.0
 10
12.82501097501607
 20
-20.91445669685353
 30
0.0
 10
12.78899862649789
 20
-20.9206021766667
 30
0.0
  0
SPLINE
  5
91
330
77
100
AcDbEntity
  8
0
  6
Continuous
 62
     7
370
    18
100
AcDbSpline
210
0.0
220
0.0
230
1.0
 70
     8
 71
     3
 72
     8
 73
     4
 74
     0
 42
0.00000001
 43
0.00000001
 40
1.0
 40
1.0
 40
1.0
 40
1.0
 40
2.0
 40
2.0
 40
2.0
 40
2.0
 10
0.1890676050530227
 20
-25.18507546927273
 30
0.0
 10
-0.4758636182598079
 20
-26.36818656978759
 30
0.0
 10
-1.071372957931268
 20
-27.62135929727155
 30
0.0
 10
-1.848916090944628
 20
-28.7321574116595
 30
0.0
  0
SPLINE
  5
92
330
77
100
AcDbEntity
  8
0
  6
Continuous
 62
     7
370
    18
100
AcDbSpline
210
0.0
220
0.0
230
1.0
 70
     8
 71
     3
 72
     8
 73
     4
 74
     0
 42
0.00000001
 43
0.00000001
 40
5.0
 40
5.0
 40
5.0
 40
5.0
 40
6.0
 40
6.0
 40
6.0
 40
6.0
 10
5.741387158368082
 20
-27.62554423736086
 30
0.0
 10
5.846722846369613
 20
-27.83071469821159
 30
0.0
 10
5.917083786139072
 20
-28.10116493603904
 30
0.0
 10
5.852229029515427
 20
-28.4276388766053
 30
0.0
  0
SPLINE
  5
93
330
77
100
AcDbEntity
  8
0
  6
Continuous
 62
     7
370
    18
100
AcDbSpline
210
0.0
220
0.0
230
1.0
 70
     8
 71
     3
 72
     8
 73
     4
 74
     0
 42
0.00000001
 43
0.00000001
 40
2.0
 40
2.0
 40
2.0
 40
2.0
 40
3.0
 40
3.0
 40
3.0
 40
3.0
 10
-1.848916090944628
 20
-28.7321574116595
 30
0.0
 10
-2.58099700615287
 20
-29.77807514316875
 30
0.0
 10
-3.400555133943328
 20
-30.75794226768769
 30
0.0
 10
-4.320163121001804
 20
-31.64441810803642
 30
0.0
  0
SPLINE
  5
94
330
77
100
AcDbEntity
  8
0
  6
Continuous
 62
     7
370
    18
100
AcDbSpline
210
0.0
220
0.0
230
1.0
 70
     8
 71
     3
 72
     8
 73
     4
 74
     0
 42
0.00000001
 43
0.00000001
 40
3.0
 40
3.0
 40
3.0
 40
3.0
 40
4.0
 40
4.0
 40
4.0
 40
4.0
 10
-4.320163121001804
 20
-31.64441810803642
 30
0.0
 10
-5.502285688120724
 20
-32.78397107599655
 30
0.0
 10
-6.842602889403164
 20
-33.79629665674205
 30
0.0
 10
-8.312643520423714
 20
-34.53636241310925
 30
0.0
  0
SPLINE
  5
95
330
77
100
AcDbEntity
  8
0
  6
Continuous
 62
     7
370
    18
100
AcDbSpline
210
0.0
220
0.0
230
1.0
 70
     8
 71
     3
 72
     8
 73
     4
 74
     0
 42
0.00000001
 43
0.00000001
 40
0.0
 40
0.0
 40
0.0
 40
0.0
 40
1.0
 40
1.0
 40
1.0
 40
1.0
 10
13.16248097184179
 20
-22.77811969809535
 30
0.0
 10
13.32158274024408
 20
-22.71852038409298
 30
0.0
 10
13.49557540158558
 20
-22.54791198237409
 30
0.0
 10
13.60867884934522
 20
-22.41373778363303
 30
0.0
  0
SPLINE
  5
96
330
77
100
AcDbEntity
  8
0
  6
Continuous
 62
     7
370
    18
100
AcDbSpline
210
0.0
220
0.0
230
1.0
 70
     8
 71
     3
 72
     8
 73
     4
 74
     0
 42
0.00000001
 43
0.00000001
 40
1.0
 40
1.0
 40
1.0
 40
1.0
 40
2.0
 40
2.0
 40
2.0
 40
2.0
 10
13.60867884934522
 20
-22.41373778363303
 30
0.0
 10
14.06883090410567
 20
-21.86791668638103
 30
0.0
 10
13.93824647055738
 20
-21.10927008942834
 30
0.0
 10
13.63564806322252
 20
-20.52311487241799
 30
0.0
  0
SPLINE
  5
97
330
77
100
AcDbEntity
  8
0
  6
Continuous
 62
     7
370
    18
100
AcDbSpline
210
0.0
220
0.0
230
1.0
 70
     8
 71
     3
 72
     8
 73
     4
 74
     0
 42
0.00000001
 43
0.00000001
 40
2.0
 40
2.0
 40
2.0
 40
2.0
 40
3.0
 40
3.0
 40
3.0
 40
3.0
 10
13.63564806322252
 20
-20.52311487241799
 30
0.0
 10
13.28964627126481
 20
-19.85285410357718
 30
0.0
 10
12.67648338579735
 20
-19.35824964276486
 30
0.0
 10
12.02812778214086
 20
-18.99653111143571
 30
0.0
  0
SPLINE
  5
98
330
77
100
AcDbEntity
  8
0
  6
Continuous
 62
     7
370
    18
100
AcDbSpline
210
0.0
220
0.0
230
1.0
 70
     8
 71
     3
 72
     8
 73
     4
 74
     0
 42
0.00000001
 43
0.00000001
 40
3.0
 40
3.0
 40
3.0
 40
3.0
 40
4.0
 40
4.0
 40
4.0
 40
4.0
 10
12.02812778214086
 20
-18.99653111143571
 30
0.0
 10
11.39165828893943
 20
-18.64115679256055
 30
0.0
 10
10.65675821014571
 20
-18.52555054647402
 30
0.0
 10
9.935944716227333
 20
-18.57712058838266
 30
0.0
  0
SPLINE
  5
99
330
77
100
AcDbEntity
  8
0
  6
Continuous
 62
     7
370
    18
100
AcDbSpline
210
0.0
220
0.0
230
1.0
 70
     8
 71
     3
 72
     8
 73
     4
 74
     0
 42
0.00000001
 43
0.00000001
 40
4.0
 40
4.0
 40
4.0
 40
4.0
 40
5.0
 40
5.0
 40
5.0
 40
5.0
 10
9.935944716227333
 20
-18.57712058838266
 30
0.0
 10
9.765303020833768
 20
-18.58949090353762
 30
0.0
 10
9.595649831281627
 20
-18.61121519850877
 30
0.0
 10
9.427025317953943
 20
-18.6398242200312
 30
0.0
  0
SPLINE
  5
9A
330
77
100
AcDbEntity
  8
0
  6
Continuous
 62
     7
370
    18
100
AcDbSpline
210
0.0
220
0.0
230
1.0
 70
     8
 71
     3
 72
     8
 73
     4
 74
     0
 42
0.00000001
 43
0.00000001
 40
5.0
 40
5.0
 40
5.0
 40
5.0
 40
6.0
 40
6.0
 40
6.0
 40
6.0
 10
9.427025317953943
 20
-18.6398242200312
 30
0.0
 10
9.401841746024298
 20
-18.64325493737991
 30
0.0
 10
9.375930374221884
 20
-18.6474270753044
 30
0.0
 10
9.347977710247896
 20
-18.65350684706063
 30
0.0
  0
SPLINE
  5
9B
330
77
100
AcDbEntity
  8
0
  6
Continuous
 62
     7
370
    18
100
AcDbSpline
210
0.0
220
0.0
230
1.0
 70
     8
 71
     3
 72
     8
 73
     4
 74
     0
 42
0.00000001
 43
0.00000001
 40
6.0
 40
6.0
 40
6.0
 40
6.0
 40
7.0
 40
7.0
 40
7.0
 40
7.0
 10
9.347977710247896
 20
-18.65350684706063
 30
0.0
 10
9.3154844368747
 20
-18.66059198688143
 30
0.0
 10
9.281612371694376
 20
-18.66928222686759
 30
0.0
 10
9.248401750735159
 20
-18.67721589591814
 30
0.0
  0
SPLINE
  5
9C
330
77
100
AcDbEntity
  8
0
  6
Continuous
 62
     7
370
    18
100
AcDbSpline
210
0.0
220
0.0
230
1.0
 70
     8
 71
     3
 72
     8
 73
     4
 74
     0
 42
0.00000001
 43
0.00000001
 40
7.0
 40
7.0
 40
7.0
 40
7.0
 40
8.0
 40
8.0
 40
8.0
 40
8.0
 10
9.248401750735159
 20
-18.67721589591814
 30
0.0
 10
8.828729172017946
 20
-18.76183233709977
 30
0.0
 10
8.416325576603711
 20
-18.88669856103988
 30
0.0
 10
8.018919595305736
 20
-19.04403200074751
 30
0.0
  0
SPLINE
  5
9D
330
77
100
AcDbEntity
  8
0
  6
Continuous
 62
     7
370
    18
100
AcDbSpline
210
0.0
220
0.0
230
1.0
 70
     8
 71
     3
 72
     8
 73
     4
 74
     0
 42
0.00000001
 43
0.00000001
 40
8.0
 40
8.0
 40
8.0
 40
8.0
 40
9.0
 40
9.0
 40
9.0
 40
9.0
 10
8.018919595305736
 20
-19.04403200074751
 30
0.0
 10
7.948718757678904
 20
-19.07224882816383
 30
0.0
 10
7.878767955532004
 20
-19.10158741935046
 30
0.0
 10
7.809081283087698
 20
-19.13152738138843
 30
0.0
  0
SPLINE
  5
9E
330
77
100
AcDbEntity
  8
0
  6
Continuous
 62
     7
370
    18
100
AcDbSpline
210
0.0
220
0.0
230
1.0
 70
     8
 71
     3
 72
     8
 73
     4
 74
     0
 42
0.00000001
 43
0.00000001
 40
10.0
 40
10.0
 40
10.0
 40
10.0
 40
11.0
 40
11.0
 40
11.0
 40
11.0
 10
7.809180288493772
 20
-19.13132308829617
 30
0.0
 10
7.802761398942892
 20
-19.13413367961332
 30
0.0
 10
7.796378564323003
 20
-19.1370921325915
 30
0.0
 10
7.789959674772166
 20
-19.13990272390857
 30
0.0
  0
SPLINE
  5
9F
330
77
100
AcDbEntity
  8
0
  6
Continuous
 62
     7
370
    18
100
AcDbSpline
210
0.0
220
0.0
230
1.0
 70
     8
 71
     3
 72
     8
 73
     4
 74
     0
 42
0.00000001
 43
0.00000001
 40
11.0
 40
11.0
 40
11.0
 40
11.0
 40
12.0
 40
12.0
 40
12.0
 40
12.0
 10
7.789959674772166
 20
-19.13990272390857
 30
0.0
 10
7.727199483469478
 20
-19.16702581234913
 30
0.0
 10
7.664805832448564
 20
-19.19491328366098
 30
0.0
 10
7.602701913775588
 20
-19.22344287883286
 30
0.0
  0
SPLINE
  5
A0
330
77
100
AcDbEntity
  8
0
  6
Continuous
 62
     7
370
    18
100
AcDbSpline
210
0.0
220
0.0
230
1.0
 70
     8
 71
     3
 72
     8
 73
     4
 74
     0
 42
0.00000001
 43
0.00000001
 40
12.0
 40
12.0
 40
12.0
 40
12.0
 40
13.0
 40
13.0
 40
13.0
 40
13.0
 10
7.602701913775588
 20
-19.22344287883286
 30
0.0
 10
7.217113319687935
 20
-19.39705344743212
 30
0.0
 10
5.997001551904617
 20
-20.08735799660829
 30
0.0
 10
5.62103742160189
 20
-20.28524495509878
 30
0.0
  0
SPLINE
  5
A1
330
77
100
AcDbEntity
  8
0
  6
Continuous
 62
     7
370
    18
100
AcDbSpline
210
0.0
220
0.0
230
1.0
 70
     8
 71
     3
 72
     8
 73
     4
 74
     0
 42
0.00000001
 43
0.00000001
 40
4.0
 40
4.0
 40
4.0
 40
4.0
 40
5.0
 40
5.0
 40
5.0
 40
5.0
 10
-8.312643520423714
 20
-34.53636241310925
 30
0.0
 10
-8.411034639160002
 20
-34.58584183701119
 30
0.0
 10
-8.836966871753177
 20
-34.8700258468235
 30
0.0
 10
-8.954634558748669
 20
-34.83055832481292
 30
0.0
  0
SPLINE
  5
A2
330
77
100
AcDbEntity
  8
0
  6
Continuous
 62
     7
370
    18
100
AcDbSpline
210
0.0
220
0.0
230
1.0
 70
     8
 71
     3
 72
     8
 73
     4
 74
     0
 42
0.00000001
 43
0.00000001
 40
6.0
 40
6.0
 40
6.0
 40
6.0
 40
7.0
 40
7.0
 40
7.0
 40
7.0
 10
-8.884590252340216
 20
-34.8534799981297
 30
0.0
 10
-1.619323899915008
 20
-33.84056501948026
 30
0.0
 10
-0.8849007908736523
 20
-28.48090738365391
 30
0.0
 10
1.39752241185063
 20
-24.31768612090927
 30
0.0
  0
SPLINE
  5
A3
330
77
100
AcDbEntity
  8
0
  6
Continuous
 62
     7
370
    18
100
AcDbSpline
210
0.0
220
0.0
230
1.0
 70
     8
 71
     3
 72
     8
 73
     4
 74
     0
 42
0.00000001
 43
0.00000001
 40
15.0
 40
15.0
 40
15.0
 40
15.0
 40
16.0
 40
16.0
 40
16.0
 40
16.0
 10
7.61666402024219
 20
-16.14061015178518
 30
0.0
 10
6.37712430883088
 20
-11.21974897891878
 30
0.0
 10
0.5014966551233776
 20
-9.115775052417424
 30
0.0
 10
1.502064263494276
 20
-1.771589632457653
 30
0.0
  0
SPLINE
  5
A4
330
77
100
AcDbEntity
  8
0
  6
Continuous
 62
     7
370
    18
100
AcDbSpline
210
0.0
220
0.0
230
1.0
 70
     8
 71
     2
 72
     6
 73
     3
 74
     0
 42
0.00000001
 43
0.00000001
 40
16.0
 40
16.0
 40
16.0
 40
17.0
 40
17.0
 40
17.0
 10
1.502064263494301
 20
-1.771589632457637
 30
0.0
 10
0.8988127122367296
 20
-1.387303972091294
 30
0.0
 10
0.394445507708313
 20
-2.906964564311894
 30
0.0
  0
SPLINE
  5
A5
330
77
100
AcDbEntity
  8
0
  6
Continuous
 62
     7
370
    18
100
AcDbSpline
210
0.0
220
0.0
230
1.0
 70
     8
 71
     3
 72
     8
 73
     4
 74
     0
 42
0.00000001
 43
0.00000001
 40
17.0
 40
17.0
 40
17.0
 40
17.0
 40
18.0
 40
18.0
 40
18.0
 40
18.0
 10
0.3944455077083129
 20
-2.906964564311893
 30
0.0
 10
0.1589062916464202
 20
-2.432255303561799
 30
0.0
 10
0.0481326418671805
 20
-1.719165557923681
 30
0.0
 10
-0.0000000000000111
 20
-1.029698316824825
 30
0.0
  0
SPLINE
  5
A6
330
77
100
AcDbEntity
  8
0
  6
Continuous
 62
     7
370
    18
100
AcDbSpline
210
0.0
220
0.0
230
1.0
 70
     8
 71
     3
 72
     8
 73
     4
 74
     0
 42
0.00000001
 43
0.00000001
 40
19.0
 40
19.0
 40
19.0
 40
19.0
 40
20.0
 40
20.0
 40
20.0
 40
20.0
 10
-0.000000000000011
 20
1.029698316824825
 30
0.0
 10
-0.247605001678439
 20
0.9563586700206326
 30
0.0
 10
-0.4965992125871336
 20
0.8376424291228968
 30
0.0
 10
-0.7423932761695102
 20
0.6788199880206746
 30
0.0
  0
SPLINE
  5
A7
330
77
100
AcDbEntity
  8
0
  6
Continuous
 62
     7
370
    18
100
AcDbSpline
210
0.0
220
0.0
230
1.0
 70
     8
 71
     3
 72
     8
 73
     4
 74
     0
 42
0.00000001
 43
0.00000001
 40
20.0
 40
20.0
 40
20.0
 40
20.0
 40
21.0
 40
21.0
 40
21.0
 40
21.0
 10
-0.7423932761695041
 20
0.6788199880206758
 30
0.0
 10
-3.773706502500729
 20
-1.088364608817558
 30
0.0
 10
-5.828023551311025
 20
-6.502648922742776
 30
0.0
 10
-6.373622392678747
 20
-10.44545216301364
 30
0.0
  0
SPLINE
  5
A8
330
77
100
AcDbEntity
  8
0
  6
Continuous
 62
     7
370
    18
100
AcDbSpline
210
0.0
220
0.0
230
1.0
 70
     8
 71
     3
 72
     8
 73
     4
 74
     0
 42
0.00000001
 43
0.00000001
 40
21.0
 40
21.0
 40
21.0
 40
21.0
 40
22.0
 40
22.0
 40
22.0
 40
22.0
 10
-6.373622392678747
 20
-10.44545216301364
 30
0.0
 10
-6.534387006384851
 20
-11.6072393176462
 30
0.0
 10
-6.110986063680238
 20
-12.77235598421836
 30
0.0
 10
-5.239490498328086
 20
-13.55729186389973
 30
0.0
  0
SPLINE
  5
A9
330
77
100
AcDbEntity
  8
0
  6
Continuous
 62
     7
370
    18
100
AcDbSpline
210
0.0
220
0.0
230
1.0
 70
     8
 71
     3
 72
     8
 73
     4
 74
     0
 42
0.00000001
 43
0.00000001
 40
22.0
 40
22.0
 40
22.0
 40
22.0
 40
23.0
 40
23.0
 40
23.0
 40
23.0
 10
-5.239490498328086
 20
-13.55729186389973
 30
0.0
 10
-5.069093162935886
 20
-13.71072824031157
 30
0.0
 10
-4.812594020154235
 20
-13.94204896363468
 30
0.0
 10
-4.497635623981145
 20
-14.22616249222083
 30
0.0
  0
SPLINE
  5
AA
330
77
100
AcDbEntity
  8
0
  6
Continuous
 62
     7
370
    18
100
AcDbSpline
210
0.0
220
0.0
230
1.0
 70
     8
 71
     3
 72
     8
 73
     4
 74
     0
 42
0.00000001
 43
0.00000001
 40
23.0
 40
23.0
 40
23.0
 40
23.0
 40
24.0
 40
24.0
 40
24.0
 40
24.0
 10
-4.497635623981145
 20
-14.22616249222083
 30
0.0
 10
-7.377206548962273
 20
-14.3610427235814
 30
0.0
 10
-10.37603432623049
 20
-14.41258052682769
 30
0.0
 10
-13.47142906384564
 20
-11.50579972895087
 30
0.0
  0
SPLINE
  5
AB
330
77
100
AcDbEntity
  8
0
  6
Continuous
 62
     7
370
    18
100
AcDbSpline
210
0.0
220
0.0
230
1.0
 70
     8
 71
     2
 72
     6
 73
     3
 74
     0
 42
0.00000001
 43
0.00000001
 40
24.0
 40
24.0
 40
24.0
 40
25.0
 40
25.0
 40
25.0
 10
-13.47142906384564
 20
-11.50579972895087
 30
0.0
 10
-14.10688605414107
 20
-11.76335116991974
 30
0.0
 10
-13.20042236989913
 20
-13.00202096164688
 30
0.0
  0
SPLINE
  5
AC
330
77
100
AcDbEntity
  8
0
  6
Continuous
 62
     7
370
    18
100
AcDbSpline
210
0.0
220
0.0
230
1.0
 70
     8
 71
     3
 72
     8
 73
     4
 74
     0
 42
0.00000001
 43
0.00000001
 40
25.0
 40
25.0
 40
25.0
 40
25.0
 40
26.0
 40
26.0
 40
26.0
 40
26.0
 10
-13.20042236989913
 20
-13.00202096164688
 30
0.0
 10
-13.70207232315818
 20
-12.92204228168365
 30
0.0
 10
-14.32058558561591
 20
-12.6121679091681
 30
0.0
 10
-14.88582480126041
 20
-12.26649433731928
 30
0.0
  0
SPLINE
  5
AD
330
77
100
AcDbEntity
  8
0
  6
Continuous
 62
     7
370
    18
100
AcDbSpline
210
0.0
220
0.0
230
1.0
 70
     8
 71
     3
 72
     8
 73
     4
 74
     0
 42
0.00000001
 43
0.00000001
 40
26.0
 40
26.0
 40
26.0
 40
26.0
 40
27.0
 40
27.0
 40
27.0
 40
27.0
 10
-14.88582480126041
 20
-12.26649433731928
 30
0.0
 10
-15.11439138607148
 20
-12.10379107541082
 30
0.0
 10
-15.34298592256308
 20
-11.9411337926506
 30
0.0
 10
-15.57155250737237
 20
-11.77843053074102
 30
0.0
  0
SPLINE
  5
AE
330
77
100
AcDbEntity
  8
0
  6
Continuous
 62
     7
370
    18
100
AcDbSpline
210
0.0
220
0.0
230
1.0
 70
     8
 71
     3
 72
     8
 73
     4
 74
     0
 42
0.00000001
 43
0.00000001
 40
27.0
 40
27.0
 40
27.0
 40
27.0
 40
28.0
 40
28.0
 40
28.0
 40
28.0
 10
-15.57155250737237
 20
-11.77843053074102
 30
0.0
 10
-15.54626988054684
 20
-12.43496417244951
 30
0.0
 10
-15.44651697844639
 20
-13.43368074094347
 30
0.0
 10
-15.07122586658969
 20
-14.58147725173132
 30
0.0
  0
SPLINE
  5
AF
330
77
100
AcDbEntity
  8
0
  6
Continuous
 62
     7
370
    18
100
AcDbSpline
210
0.0
220
0.0
230
1.0
 70
     8
 71
     3
 72
     8
 73
     4
 74
     0
 42
0.00000001
 43
0.00000001
 40
28.0
 40
28.0
 40
28.0
 40
28.0
 40
29.0
 40
29.0
 40
29.0
 40
29.0
 10
-15.07122586658969
 20
-14.58147725173132
 30
0.0
 10
-14.14101186928763
 20
-17.42663227492847
 30
0.0
 10
-12.21890524301946
 20
-19.04448598632376
 30
0.0
 10
-11.57411800959374
 20
-19.5729627316439
 30
0.0
  0
SPLINE
  5
B0
330
77
100
AcDbEntity
  8
0
  6
Continuous
 62
     7
370
    18
100
AcDbSpline
210
0.0
220
0.0
230
1.0
 70
     8
 71
     3
 72
     8
 73
     4
 74
     0
 42
0.00000001
 43
0.00000001
 40
29.0
 40
29.0
 40
29.0
 40
29.0
 40
30.0
 40
30.0
 40
30.0
 40
30.0
 10
-11.57411800959374
 20
-19.5729627316439
 30
0.0
 10
-10.2278360673758
 20
-20.67639225726875
 30
0.0
 10
-8.968626575135383
 20
-21.18705865057519
 30
0.0
 10
-8.289256857954726
 20
-21.45628499958021
 30
0.0
  0
SPLINE
  5
B1
330
77
100
AcDbEntity
  8
0
  6
Continuous
 62
     7
370
    18
100
AcDbSpline
210
0.0
220
0.0
230
1.0
 70
     8
 71
     3
 72
     8
 73
     4
 74
     0
 42
0.00000001
 43
0.00000001
 40
30.0
 40
30.0
 40
30.0
 40
30.0
 40
31.0
 40
31.0
 40
31.0
 40
31.0
 10
-8.289256857954726
 20
-21.45628499958021
 30
0.0
 10
-6.483682376184763
 20
-22.17184513279697
 30
0.0
 10
-4.87477560776411
 20
-22.35351920351825
 30
0.0
 10
-3.81330444415229
 20
-22.39201571571204
 30
0.0
  0
SPLINE
  5
B2
330
77
100
AcDbEntity
  8
0
  6
Continuous
 62
     7
370
    18
100
AcDbSpline
210
0.0
220
0.0
230
1.0
 70
     8
 71
     3
 72
     8
 73
     4
 74
     0
 42
0.00000001
 43
0.00000001
 40
31.0
 40
31.0
 40
31.0
 40
31.0
 40
32.0
 40
32.0
 40
32.0
 40
32.0
 10
-3.81330444415229
 20
-22.39201571571204
 30
0.0
 10
-2.745750888684706
 20
-24.06170974884294
 30
0.0
 10
-1.264629867395483
 20
-24.91818512638145
 30
0.0
 10
0.2366295532190317
 20
-25.09914029792422
 30
0.0
  0
SPLINE
  5
B3
330
77
100
AcDbEntity
  8
0
  6
Continuous
 62
     7
370
    18
100
AcDbSpline
210
0.0
220
0.0
230
1.0
 70
     8
 71
     3
 72
     8
 73
     4
 74
     0
 42
0.00000001
 43
0.00000001
 40
32.0
 40
32.0
 40
32.0
 40
32.0
 40
33.0
 40
33.0
 40
33.0
 40
33.0
 10
0.2366295532190317
 20
-25.09914029792422
 30
0.0
 10
0.2368448266661417
 20
-25.0995734306171
 30
0.0
 10
0.2368448266661417
 20
-25.0995734306171
 30
0.0
 10
0.2370729014386109
 20
-25.10002693981265
 30
0.0
  0
SPLINE
  5
B4
330
77
100
AcDbEntity
  8
0
  6
Continuous
 62
     7
370
    18
100
AcDbSpline
210
0.0
220
0.0
230
1.0
 70
     8
 71
     3
 72
     8
 73
     4
 74
     0
 42
0.00000001
 43
0.00000001
 40
33.0
 40
33.0
 40
33.0
 40
33.0
 40
34.0
 40
34.0
 40
34.0
 40
34.0
 10
0.2370729014386109
 20
-25.10002693981265
 30
0.0
 10
-0.4473726928542233
 20
-26.30798726564406
 30
0.0
 10
-1.052723993388068
 20
-27.59471040392042
 30
0.0
 10
-1.848922752625017
 20
-28.73217700654635
 30
0.0
  0
SPLINE
  5
B5
330
77
100
AcDbEntity
  8
0
  6
Continuous
 62
     7
370
    18
100
AcDbSpline
210
0.0
220
0.0
230
1.0
 70
     8
 71
     3
 72
     8
 73
     4
 74
     0
 42
0.00000001
 43
0.00000001
 40
34.0
 40
34.0
 40
34.0
 40
34.0
 40
35.0
 40
35.0
 40
35.0
 40
35.0
 10
-1.848922752625017
 20
-28.73217700654635
 30
0.0
 10
-2.581016469155664
 20
-29.77807436155356
 30
0.0
 10
-3.400574596946121
 20
-30.75794148607251
 30
0.0
 10
-4.320169782681019
 20
-31.64443770292509
 30
0.0
  0
SPLINE
  5
B6
330
77
100
AcDbEntity
  8
0
  6
Continuous
 62
     7
370
    18
100
AcDbSpline
210
0.0
220
0.0
230
1.0
 70
     8
 71
     3
 72
     8
 73
     4
 74
     0
 42
0.00000001
 43
0.00000001
 40
35.0
 40
35.0
 40
35.0
 40
35.0
 40
36.0
 40
36.0
 40
36.0
 40
36.0
 10
-4.320169782681019
 20
-31.64443770292509
 30
0.0
 10
-5.502292349801121
 20
-32.78399067088333
 30
0.0
 10
-6.842609551083555
 20
-33.79631625162889
 30
0.0
 10
-8.312622230422718
 20
-34.53633602884937
 30
0.0
  0
SPLINE
  5
B7
330
77
100
AcDbEntity
  8
0
  6
Continuous
 62
     7
370
    18
100
AcDbSpline
210
0.0
220
0.0
230
1.0
 70
     8
 71
     3
 72
     8
 73
     4
 74
     0
 42
0.00000001
 43
0.00000001
 40
36.0
 40
36.0
 40
36.0
 40
36.0
 40
37.0
 40
37.0
 40
37.0
 40
37.0
 10
-8.312622230422718
 20
-34.53633602884937
 30
0.0
 10
-8.41100054783539
 20
-34.58583582925527
 30
0.0
 10
-8.836986334755972
 20
-34.87002506520831
 30
0.0
 10
-8.95464122042903
 20
-34.83057791969982
 30
0.0
  0
SPLINE
  5
B8
330
77
100
AcDbEntity
  8
0
  6
Continuous
 62
     7
370
    18
100
AcDbSpline
210
0.0
220
0.0
230
1.0
 70
     8
 71
     3
 72
     8
 73
     4
 74
     0
 42
0.00000001
 43
0.00000001
 40
37.0
 40
37.0
 40
37.0
 40
37.0
 40
38.0
 40
38.0
 40
38.0
 40
38.0
 10
-8.95464122042903
 20
-34.83057791969982
 30
0.0
 10
-7.855316701000916
 20
-35.19902224220693
 30
0.0
 10
-6.670985849771815
 20
-35.31257295399734
 30
0.0
 10
-5.520530485207503
 20
-35.38070666342594
 30
0.0
  0
SPLINE
  5
B9
330
77
100
AcDbEntity
  8
0
  6
Continuous
 62
     7
370
    18
100
AcDbSpline
210
0.0
220
0.0
230
1.0
 70
     8
 71
     3
 72
     8
 73
     4
 74
     0
 42
0.00000001
 43
0.00000001
 40
38.0
 40
38.0
 40
38.0
 40
38.0
 40
39.0
 40
39.0
 40
39.0
 40
39.0
 10
-5.520530485207503
 20
-35.38070666342594
 30
0.0
 10
-4.24400827120937
 20
-35.45626070172416
 30
0.0
 10
-2.850018941515092
 20
-35.37210723674404
 30
0.0
 10
-1.633497186371029
 20
-34.95381072794466
 30
0.0
  0
SPLINE
  5
BA
330
77
100
AcDbEntity
  8
0
  6
Continuous
 62
     7
370
    18
100
AcDbSpline
210
0.0
220
0.0
230
1.0
 70
     8
 71
     3
 72
     8
 73
     4
 74
     0
 42
0.00000001
 43
0.00000001
 40
39.0
 40
39.0
 40
39.0
 40
39.0
 40
40.0
 40
40.0
 40
40.0
 40
40.0
 10
-1.633497186371029
 20
-34.95381072794466
 30
0.0
 10
-1.161647758417268
 20
-34.79156986805435
 30
0.0
 10
-0.6998897419386533
 20
-34.60060003392512
 30
0.0
 10
-0.2417020015756544
 20
-34.40340438622162
 30
0.0
  0
SPLINE
  5
BB
330
77
100
AcDbEntity
  8
0
  6
Continuous
 62
     7
370
    18
100
AcDbSpline
210
0.0
220
0.0
230
1.0
 70
     8
 71
     3
 72
     8
 73
     4
 74
     0
 42
0.00000001
 43
0.00000001
 40
40.0
 40
40.0
 40
40.0
 40
40.0
 40
41.0
 40
41.0
 40
41.0
 40
41.0
 10
-0.2417020015756544
 20
-34.40340438622162
 30
0.0
 10
-0.1816605164030941
 20
-34.37756301425404
 30
0.0
 10
0.5680618153143264
 20
-34.09824266291977
 30
0.0
 10
0.5619671856328979
 20
-34.03977754396634
 30
0.0
  0
SPLINE
  5
BC
330
77
100
AcDbEntity
  8
0
  6
Continuous
 62
     7
370
    18
100
AcDbSpline
210
0.0
220
0.0
230
1.0
 70
     8
 71
     3
 72
     8
 73
     4
 74
     0
 42
0.00000001
 43
0.00000001
 40
41.0
 40
41.0
 40
41.0
 40
41.0
 40
42.0
 40
42.0
 40
42.0
 40
42.0
 10
0.5619671856328945
 20
-34.03977754396634
 30
0.0
 10
0.5009923545267035
 20
-33.45272868294924
 30
0.0
 10
0.3892408997618144
 20
-32.91033974047543
 30
0.0
 10
0.4097333630990446
 20
-32.31246460469481
 30
0.0
  0
SPLINE
  5
BD
330
77
100
AcDbEntity
  8
0
  6
Continuous
 62
     7
370
    18
100
AcDbSpline
210
0.0
220
0.0
230
1.0
 70
     8
 71
     3
 72
     8
 73
     4
 74
     0
 42
0.00000001
 43
0.00000001
 40
42.0
 40
42.0
 40
42.0
 40
42.0
 40
43.0
 40
43.0
 40
43.0
 40
43.0
 10
0.4097333630990446
 20
-32.31246460469481
 30
0.0
 10
0.4361451972772317
 20
-31.54089785432373
 30
0.0
 10
0.5999347140878322
 20
-30.80335021591472
 30
0.0
 10
0.781068330884661
 20
-30.05649778236755
 30
0.0
  0
SPLINE
  5
BE
330
77
100
AcDbEntity
  8
0
  6
Continuous
 62
     7
370
    18
100
AcDbSpline
210
0.0
220
0.0
230
1.0
 70
     8
 71
     2
 72
     6
 73
     3
 74
     0
 42
0.00000001
 43
0.00000001
 40
43.0
 40
43.0
 40
43.0
 40
44.0
 40
44.0
 40
44.0
 10
0.7810683308846645
 20
-30.05649778236755
 30
0.0
 10
2.019861532240659
 20
-29.56825285869967
 30
0.0
 10
2.258068961108365
 20
-29.47606436460191
 30
0.0
  0
SPLINE
  5
BF
330
77
100
AcDbEntity
  8
0
  6
Continuous
 62
     7
370
    18
100
AcDbSpline
210
0.0
220
0.0
230
1.0
 70
     8
 71
     3
 72
     8
 73
     4
 74
     0
 42
0.00000001
 43
0.00000001
 40
44.0
 40
44.0
 40
44.0
 40
44.0
 40
45.0
 40
45.0
 40
45.0
 40
45.0
 10
2.258068961108342
 20
-29.47606436460192
 30
0.0
 10
3.006698264126698
 20
-29.1863189469019
 30
0.0
 10
3.728021454602016
 20
-28.82750567245856
 30
0.0
 10
4.423057775498144
 20
-28.42657886572963
 30
0.0
  0
SPLINE
  5
C0
330
77
100
AcDbEntity
  8
0
  6
Continuous
 62
     7
370
    18
100
AcDbSpline
210
0.0
220
0.0
230
1.0
 70
     8
 71
     3
 72
     8
 73
     4
 74
     0
 42
0.00000001
 43
0.00000001
 40
45.0
 40
45.0
 40
45.0
 40
45.0
 40
46.0
 40
46.0
 40
46.0
 40
46.0
 10
4.423057775498167
 20
-28.42657886572961
 30
0.0
 10
4.868536225754158
 20
-28.16961728043866
 30
0.0
 10
5.301864108552885
 20
-27.8924103198887
 30
0.0
 10
5.741401688969919
 20
-27.62554000024407
 30
0.0
  0
SPLINE
  5
C1
330
77
100
AcDbEntity
  8
0
  6
Continuous
 62
     7
370
    18
100
AcDbSpline
210
0.0
220
0.0
230
1.0
 70
     8
 71
     3
 72
     8
 73
     4
 74
     0
 42
0.00000001
 43
0.00000001
 40
46.0
 40
46.0
 40
46.0
 40
46.0
 40
47.0
 40
47.0
 40
47.0
 40
47.0
 10
5.741401688969916
 20
-27.62554000024407
 30
0.0
 10
5.846716220532924
 20
-27.83071994248106
 30
0.0
 10
5.91709395351037
 20
-28.10115880837991
 30
0.0
 10
5.852221678941643
 20
-28.42763672804736
 30
0.0
  0
SPLINE
  5
C2
330
77
100
AcDbEntity
  8
0
  6
Continuous
 62
     7
370
    18
100
AcDbSpline
210
0.0
220
0.0
230
1.0
 70
     8
 71
     3
 72
     8
 73
     4
 74
     0
 42
0.00000001
 43
0.00000001
 40
47.0
 40
47.0
 40
47.0
 40
47.0
 40
48.0
 40
48.0
 40
48.0
 40
48.0
 10
5.852221678941643
 20
-28.42763672804736
 30
0.0
 10
5.825697879445541
 20
-28.53478547887384
 30
0.0
 10
5.788744133302801
 20
-28.64641216137642
 30
0.0
 10
5.745232449477395
 20
-28.75809491089348
 30
0.0
  0
SPLINE
  5
C3
330
77
100
AcDbEntity
  8
0
  6
Continuous
 62
     7
370
    18
100
AcDbSpline
210
0.0
220
0.0
230
1.0
 70
     8
 71
     2
 72
     6
 73
     3
 74
     0
 42
0.00000001
 43
0.00000001
 40
48.0
 40
48.0
 40
48.0
 40
49.0
 40
49.0
 40
49.0
 10
5.745232449477399
 20
-28.75809491089347
 30
0.0
 10
5.531726678391706
 20
-29.30640322476907
 30
0.0
 10
5.166798660391799
 20
-29.85361491693775
 30
0.0
  0
SPLINE
  5
C4
330
77
100
AcDbEntity
  8
0
  6
Continuous
 62
     7
370
    18
100
AcDbSpline
210
0.0
220
0.0
230
1.0
 70
     8
 71
     3
 72
     8
 73
     4
 74
     0
 42
0.00000001
 43
0.00000001
 40
49.0
 40
49.0
 40
49.0
 40
49.0
 40
50.0
 40
50.0
 40
50.0
 40
50.0
 10
5.166798660391799
 20
-29.85361491693775
 30
0.0
 10
6.311748821301538
 20
-30.87442349267374
 30
0.0
 10
9.719833011058038
 20
-30.34731936373517
 30
0.0
 10
10.01547529282146
 20
-30.40047363722643
 30
0.0
  0
SPLINE
  5
C5
330
77
100
AcDbEntity
  8
0
  6
Continuous
 62
     7
370
    18
100
AcDbSpline
210
0.0
220
0.0
230
1.0
 70
     8
 71
     3
 72
     8
 73
     4
 74
     0
 42
0.00000001
 43
0.00000001
 40
51.0
 40
51.0
 40
51.0
 40
51.0
 40
52.0
 40
52.0
 40
52.0
 40
52.0
 10
9.153997704124192
 20
-32.09537737749855
 30
0.0
 10
9.13746533104106
 20
-32.12795874790397
 30
0.0
 10
9.15043432665133
 20
-32.16778204466993
 30
0.0
 10
9.183008121878673
 20
-32.18434759557922
 30
0.0
  0
SPLINE
  5
C6
330
77
100
AcDbEntity
  8
0
  6
Continuous
 62
     7
370
    18
100
AcDbSpline
210
0.0
220
0.0
230
1.0
 70
     8
 71
     3
 72
     8
 73
     4
 74
     0
 42
0.00000001
 43
0.00000001
 40
53.0
 40
53.0
 40
53.0
 40
53.0
 40
54.0
 40
54.0
 40
54.0
 40
54.0
 10
9.481427995968861
 20
-32.33610365259894
 30
0.0
 10
9.51400179119618
 20
-32.35266920350812
 30
0.0
 10
9.553865840967733
 20
-32.33967460525203
 30
0.0
 10
9.570438967056274
 20
-32.30706763220036
 30
0.0
  0
SPLINE
  5
C7
330
77
100
AcDbEntity
  8
0
  6
Continuous
 62
     7
370
    18
100
AcDbSpline
210
0.0
220
0.0
230
1.0
 70
     8
 71
     3
 72
     8
 73
     4
 74
     0
 42
0.00000001
 43
0.00000001
 40
55.0
 40
55.0
 40
55.0
 40
55.0
 40
56.0
 40
56.0
 40
56.0
 40
56.0
 10
10.49927251692245
 20
-30.47944802269659
 30
0.0
 10
10.51193120516501
 20
-30.46811349836248
 30
0.0
 10
10.52226333020525
 20
-30.4588658263786
 30
0.0
 10
10.53488126544412
 20
-30.44755690468914
 30
0.0
  0
SPLINE
  5
C8
330
77
100
AcDbEntity
  8
0
  6
Continuous
 62
     7
370
    18
100
AcDbSpline
210
0.0
220
0.0
230
1.0
 70
     8
 71
     3
 72
     8
 73
     4
 74
     0
 42
0.00000001
 43
0.00000001
 40
56.0
 40
56.0
 40
56.0
 40
56.0
 40
57.0
 40
57.0
 40
57.0
 40
57.0
 10
10.53488126544413
 20
-30.44755690468914
 30
0.0
 10
10.94397733100252
 20
-30.30331240881152
 30
0.0
 10
11.82966874715053
 20
-29.98429676100319
 30
0.0
 10
12.53432218047716
 20
-29.45754287024319
 30
0.0
  0
SPLINE
  5
C9
330
77
100
AcDbEntity
  8
0
  6
Continuous
 62
     7
370
    18
100
AcDbSpline
210
0.0
220
0.0
230
1.0
 70
     8
 71
     3
 72
     8
 73
     4
 74
     0
 42
0.00000001
 43
0.00000001
 40
57.0
 40
57.0
 40
57.0
 40
57.0
 40
58.0
 40
58.0
 40
58.0
 40
58.0
 10
12.53432218047716
 20
-29.45754287024319
 30
0.0
 10
12.5642240877841
 20
-29.43520496265615
 30
0.0
 10
12.56963855743016
 20
-29.39207389927418
 30
0.0
 10
12.54678888824712
 20
-29.36257875718611
 30
0.0
  0
SPLINE
  5
CA
330
77
100
AcDbEntity
  8
0
  6
Continuous
 62
     7
370
    18
100
AcDbSpline
210
0.0
220
0.0
230
1.0
 70
     8
 71
     3
 72
     8
 73
     4
 74
     0
 42
0.00000001
 43
0.00000001
 40
59.0
 40
59.0
 40
59.0
 40
59.0
 40
60.0
 40
60.0
 40
60.0
 40
60.0
 10
12.34190888882302
 20
-29.09789103127773
 30
0.0
 10
12.31997516065779
 20
-29.06958242439806
 30
0.0
 10
12.28012241966975
 20
-29.06441030595369
 30
0.0
 10
12.25140704757306
 20
-29.08583227252173
 30
0.0
  0
SPLINE
  5
CB
330
77
100
AcDbEntity
  8
0
  6
Continuous
 62
     7
370
    18
100
AcDbSpline
210
0.0
220
0.0
230
1.0
 70
     8
 71
     3
 72
     8
 73
     4
 74
     0
 42
0.00000001
 43
0.00000001
 40
60.0
 40
60.0
 40
60.0
 40
60.0
 40
61.0
 40
61.0
 40
61.0
 40
61.0
 10
12.25140704757306
 20
-29.08583227252173
 30
0.0
 10
11.61813304861152
 20
-29.55810881407591
 30
0.0
 10
10.80862034190002
 20
-29.85498500376039
 30
0.0
 10
10.41032416844674
 20
-29.99588325594667
 30
0.0
  0
SPLINE
  5
CC
330
77
100
AcDbEntity
  8
0
  6
Continuous
 62
     7
370
    18
100
AcDbSpline
210
0.0
220
0.0
230
1.0
 70
     8
 71
     3
 72
     8
 73
     4
 74
     0
 42
0.00000001
 43
0.00000001
 40
61.0
 40
61.0
 40
61.0
 40
61.0
 40
62.0
 40
62.0
 40
62.0
 40
62.0
 10
10.41032416844674
 20
-29.99588325594667
 30
0.0
 10
10.11835353580004
 20
-29.93880243613075
 30
0.0
 10
9.785406052735285
 20
-29.78148435767264
 30
0.0
 10
9.416902124193346
 20
-29.50966772742371
 30
0.0
  0
SPLINE
  5
CD
330
77
100
AcDbEntity
  8
0
  6
Continuous
 62
     7
370
    18
100
AcDbSpline
210
0.0
220
0.0
230
1.0
 70
     8
 71
     3
 72
     8
 73
     4
 74
     0
 42
0.00000001
 43
0.00000001
 40
62.0
 40
62.0
 40
62.0
 40
62.0
 40
63.0
 40
63.0
 40
63.0
 40
63.0
 10
9.416902124193346
 20
-29.50966772742371
 30
0.0
 10
9.407944475865712
 20
-29.50119955155471
 30
0.0
 10
9.394588799105467
 20
-29.49143050250025
 30
0.0
 10
9.376572020348016
 20
-29.48021324667389
 30
0.0
  0
SPLINE
  5
CE
330
77
100
AcDbEntity
  8
0
  6
Continuous
 62
     7
370
    18
100
AcDbSpline
210
0.0
220
0.0
230
1.0
 70
     8
 71
     3
 72
     8
 73
     4
 74
     0
 42
0.00000001
 43
0.00000001
 40
63.0
 40
63.0
 40
63.0
 40
63.0
 40
64.0
 40
64.0
 40
64.0
 40
64.0
 10
9.376572020348016
 20
-29.48021324667389
 30
0.0
 10
9.145324806072944
 20
-29.30555303878837
 30
0.0
 10
8.900259957859191
 20
-29.0859189225671
 30
0.0
 10
8.642485564221985
 20
-28.81737501008692
 30
0.0
  0
SPLINE
  5
CF
330
77
100
AcDbEntity
  8
0
  6
Continuous
 62
     7
370
    18
100
AcDbSpline
210
0.0
220
0.0
230
1.0
 70
     8
 71
     2
 72
     6
 73
     3
 74
     0
 42
0.00000001
 43
0.00000001
 40
64.0
 40
64.0
 40
64.0
 40
65.0
 40
65.0
 40
65.0
 10
8.642485564221984
 20
-28.81737501008692
 30
0.0
 10
8.62781779716172
 20
-28.81266466885932
 30
0.0
 10
8.605249246441485
 20
-28.80533009248483
 30
0.0
  0
SPLINE
  5
D0
330
77
100
AcDbEntity
  8
0
  6
Continuous
 62
     7
370
    18
100
AcDbSpline
210
0.0
220
0.0
230
1.0
 70
     8
 71
     3
 72
     8
 73
     4
 74
     0
 42
0.00000001
 43
0.00000001
 40
65.0
 40
65.0
 40
65.0
 40
65.0
 40
66.0
 40
66.0
 40
66.0
 40
66.0
 10
8.605249246441483
 20
-28.80533009248483
 30
0.0
 10
8.441756705356795
 20
-28.62769111192185
 30
0.0
 10
8.288445022476992
 20
-28.44047320919115
 30
0.0
 10
8.160507965772787
 20
-28.26397079802058
 30
0.0
  0
SPLINE
  5
D1
330
77
100
AcDbEntity
  8
0
  6
Continuous
 62
     7
370
    18
100
AcDbSpline
210
0.0
220
0.0
230
1.0
 70
     8
 71
     3
 72
     8
 73
     4
 74
     0
 42
0.00000001
 43
0.00000001
 40
66.0
 40
66.0
 40
66.0
 40
66.0
 40
67.0
 40
67.0
 40
67.0
 40
67.0
 10
8.160507965772789
 20
-28.26397079802058
 30
0.0
 10
8.607151503975404
 20
-28.41906030303154
 30
0.0
 10
9.19232914263821
 20
-28.57237361567124
 30
0.0
 10
9.863974170124614
 20
-28.62737240380984
 30
0.0
  0
SPLINE
  5
D2
330
77
100
AcDbEntity
  8
0
  6
Continuous
 62
     7
370
    18
100
AcDbSpline
210
0.0
220
0.0
230
1.0
 70
     8
 71
     3
 72
     8
 73
     4
 74
     0
 42
0.00000001
 43
0.00000001
 40
67.0
 40
67.0
 40
67.0
 40
67.0
 40
68.0
 40
68.0
 40
68.0
 40
68.0
 10
9.863974170124614
 20
-28.62737240380984
 30
0.0
 10
9.929750373961975
 20
-28.63137718087538
 30
0.0
 10
9.995567330801844
 20
-28.63535635529414
 30
0.0
 10
10.05958246956674
 20
-28.63782455467626
 30
0.0
  0
SPLINE
  5
D3
330
77
100
AcDbEntity
  8
0
  6
Continuous
 62
     7
370
    18
100
AcDbSpline
210
0.0
220
0.0
230
1.0
 70
     8
 71
     3
 72
     8
 73
     4
 74
     0
 42
0.00000001
 43
0.00000001
 40
68.0
 40
68.0
 40
68.0
 40
68.0
 40
69.0
 40
69.0
 40
69.0
 40
69.0
 10
10.05958246956674
 20
-28.63782455467626
 30
0.0
 10
10.11127119041664
 20
-28.63985208217537
 30
0.0
 10
10.16294064545186
 20
-28.64456308025562
 30
0.0
 10
10.21460035848199
 20
-28.64618254964
 30
0.0
  0
SPLINE
  5
D4
330
77
100
AcDbEntity
  8
0
  6
Continuous
 62
     7
370
    18
100
AcDbSpline
210
0.0
220
0.0
230
1.0
 70
     8
 71
     3
 72
     8
 73
     4
 74
     0
 42
0.00000001
 43
0.00000001
 40
69.0
 40
69.0
 40
69.0
 40
69.0
 40
70.0
 40
70.0
 40
70.0
 40
70.0
 10
10.21460035848199
 20
-28.64618254964
 30
0.0
 10
10.21915118340657
 20
-28.64627909690886
 30
0.0
 10
10.22372526194017
 20
-28.64650312933368
 30
0.0
 10
10.22972170784432
 20
-28.64302011343959
 30
0.0
  0
SPLINE
  5
D5
330
77
100
AcDbEntity
  8
0
  6
Continuous
 62
     7
370
    18
100
AcDbSpline
210
0.0
220
0.0
230
1.0
 70
     8
 71
     3
 72
     8
 73
     4
 74
     0
 42
0.00000001
 43
0.00000001
 40
70.0
 40
70.0
 40
70.0
 40
70.0
 40
71.0
 40
71.0
 40
71.0
 40
71.0
 10
10.22972170784433
 20
-28.64302011343959
 30
0.0
 10
10.39542110854619
 20
-28.64648636439826
 30
0.0
 10
10.55222592049436
 20
-28.64556554872323
 30
0.0
 10
10.69525541603271
 20
-28.64198824855314
 30
0.0
  0
SPLINE
  5
D6
330
77
100
AcDbEntity
  8
0
  6
Continuous
 62
     7
370
    18
100
AcDbSpline
210
0.0
220
0.0
230
1.0
 70
     8
 71
     3
 72
     8
 73
     4
 74
     0
 42
0.00000001
 43
0.00000001
 40
71.0
 40
71.0
 40
71.0
 40
71.0
 40
72.0
 40
72.0
 40
72.0
 40
72.0
 10
10.6952554160327
 20
-28.64198824855314
 30
0.0
 10
10.93874918772079
 20
-28.62923420583628
 30
0.0
 10
12.86255814414376
 20
-28.44580125262167
 30
0.0
 10
13.43053046157378
 20
-28.5046888169102
 30
0.0
  0
SPLINE
  5
D7
330
77
100
AcDbEntity
  8
0
  6
Continuous
 62
     7
370
    18
100
AcDbSpline
210
0.0
220
0.0
230
1.0
 70
     8
 71
     3
 72
     8
 73
     4
 74
     0
 42
0.00000001
 43
0.00000001
 40
72.0
 40
72.0
 40
72.0
 40
72.0
 40
73.0
 40
73.0
 40
73.0
 40
73.0
 10
13.43053046157378
 20
-28.5046888169102
 30
0.0
 10
12.97694821790165
 20
-29.54354095615899
 30
0.0
 10
12.80375507038257
 20
-30.61054434437692
 30
0.0
 10
12.76467963112437
 20
-30.88580371497291
 30
0.0
  0
SPLINE
  5
D8
330
77
100
AcDbEntity
  8
0
  6
Continuous
 62
     7
370
    18
100
AcDbSpline
210
0.0
220
0.0
230
1.0
 70
     8
 71
     3
 72
     8
 73
     4
 74
     0
 42
0.00000001
 43
0.00000001
 40
73.0
 40
73.0
 40
73.0
 40
73.0
 40
74.0
 40
74.0
 40
74.0
 40
74.0
 10
12.76467963112437
 20
-30.88580371497291
 30
0.0
 10
12.75946694188426
 20
-30.92247061993447
 30
0.0
 10
12.78562558003658
 20
-30.95551385922744
 30
0.0
 10
12.8223724068011
 20
-30.95999428728276
 30
0.0
  0
SPLINE
  5
D9
330
77
100
AcDbEntity
  8
0
  6
Continuous
 62
     7
370
    18
100
AcDbSpline
210
0.0
220
0.0
230
1.0
 70
     8
 71
     3
 72
     8
 73
     4
 74
     0
 42
0.00000001
 43
0.00000001
 40
75.0
 40
75.0
 40
75.0
 40
75.0
 40
76.0
 40
76.0
 40
76.0
 40
76.0
 10
13.27084661062346
 20
-31.0149510216448
 30
0.0
 10
13.30643509061805
 20
-31.01930660488938
 30
0.0
 10
13.33913039971426
 20
-30.99490116531647
 30
0.0
 10
13.34433815412196
 20
-30.95940253133898
 30
0.0
  0
SPLINE
  5
DA
330
77
100
AcDbEntity
  8
0
  6
Continuous
 62
     7
370
    18
100
AcDbSpline
210
0.0
220
0.0
230
1.0
 70
     8
 71
     3
 72
     8
 73
     4
 74
     0
 42
0.00000001
 43
0.00000001
 40
76.0
 40
76.0
 40
76.0
 40
76.0
 40
77.0
 40
77.0
 40
77.0
 40
77.0
 10
13.34433815412196
 20
-30.95940253133898
 30
0.0
 10
13.3839863568229
 20
-30.68912606222256
 30
0.0
 10
13.56408992520232
 20
-29.60362871347513
 30
0.0
 10
14.02078503742013
 20
-28.61451474141115
 30
0.0
  0
SPLINE
  5
DB
330
77
100
AcDbEntity
  8
0
  6
Continuous
 62
     7
370
    18
100
AcDbSpline
210
0.0
220
0.0
230
1.0
 70
     8
 71
     3
 72
     8
 73
     4
 74
     0
 42
0.00000001
 43
0.00000001
 40
77.0
 40
77.0
 40
77.0
 40
77.0
 40
78.0
 40
78.0
 40
78.0
 40
78.0
 10
14.02078503742013
 20
-28.61451474141115
 30
0.0
 10
14.03051784933197
 20
-28.60422264166403
 30
0.0
 10
14.03832693001586
 20
-28.5959348321164
 30
0.0
 10
14.04805974192876
 20
-28.58564273237117
 30
0.0
  0
SPLINE
  5
DC
330
77
100
AcDbEntity
  8
0
  6
Continuous
 62
     7
370
    18
100
AcDbSpline
210
0.0
220
0.0
230
1.0
 70
     8
 71
     3
 72
     8
 73
     4
 74
     0
 42
0.00000001
 43
0.00000001
 40
78.0
 40
78.0
 40
78.0
 40
78.0
 40
79.0
 40
79.0
 40
79.0
 40
79.0
 10
14.04805974192877
 20
-28.58564273237117
 30
0.0
 10
14.36946299190545
 20
-28.42521597674384
 30
0.0
 10
15.82365074121367
 20
-27.67538698008446
 30
0.0
 10
17.12167999380672
 20
-27.35127481772455
 30
0.0
  0
SPLINE
  5
DD
330
77
100
AcDbEntity
  8
0
  6
Continuous
 62
     7
370
    18
100
AcDbSpline
210
0.0
220
0.0
230
1.0
 70
     8
 71
     3
 72
     8
 73
     4
 74
     0
 42
0.00000001
 43
0.00000001
 40
79.0
 40
79.0
 40
79.0
 40
79.0
 40
80.0
 40
80.0
 40
80.0
 40
80.0
 10
17.1216799938067
 20
-27.35127481772455
 30
0.0
 10
17.15690371849272
 20
-27.34247430066912
 30
0.0
 10
17.17784082126059
 20
-27.30749514968448
 30
0.0
 10
17.16924929537078
 20
-27.27219696609878
 30
0.0
  0
SPLINE
  5
DE
330
77
100
AcDbEntity
  8
0
  6
Continuous
 62
     7
370
    18
100
AcDbSpline
210
0.0
220
0.0
230
1.0
 70
     8
 71
     3
 72
     8
 73
     4
 74
     0
 42
0.00000001
 43
0.00000001
 40
81.0
 40
81.0
 40
81.0
 40
81.0
 40
82.0
 40
82.0
 40
82.0
 40
82.0
 10
17.06226621153357
 20
-26.8332975819211
 30
0.0
 10
17.05353856916747
 20
-26.79760179250334
 30
0.0
 10
17.01793344627307
 20
-26.77512547170584
 30
0.0
 10
16.98226613660748
 20
-26.78403415355417
 30
0.0
  0
SPLINE
  5
DF
330
77
100
AcDbEntity
  8
0
  6
Continuous
 62
     7
370
    18
100
AcDbSpline
210
0.0
220
0.0
230
1.0
 70
     8
 71
     3
 72
     8
 73
     4
 74
     0
 42
0.00000001
 43
0.00000001
 40
82.0
 40
82.0
 40
82.0
 40
82.0
 40
83.0
 40
83.0
 40
83.0
 40
83.0
 10
16.98226613660748
 20
-26.78403415355417
 30
0.0
 10
15.80703100274552
 20
-27.07715433462484
 30
0.0
 10
14.44247136659616
 20
-27.74853717091202
 30
0.0
 10
13.97401618096952
 20
-27.97182062237161
 30
0.0
  0
SPLINE
  5
E0
330
77
100
AcDbEntity
  8
0
  6
Continuous
 62
     7
370
    18
100
AcDbSpline
210
0.0
220
0.0
230
1.0
 70
     8
 71
     2
 72
     6
 73
     3
 74
     0
 42
0.00000001
 43
0.00000001
 40
83.0
 40
83.0
 40
83.0
 40
84.0
 40
84.0
 40
84.0
 10
13.97401618096952
 20
-27.97182062237161
 30
0.0
 10
13.76115166284069
 20
-28.0306975586193
 30
0.0
 10
13.62827019587519
 20
-28.06884456933804
 30
0.0
  0
SPLINE
  5
E1
330
77
100
AcDbEntity
  8
0
  6
Continuous
 62
     7
370
    18
100
AcDbSpline
210
0.0
220
0.0
230
1.0
 70
     8
 71
     2
 72
     6
 73
     3
 74
     0
 42
0.00000001
 43
0.00000001
 40
84.0
 40
84.0
 40
84.0
 40
85.0
 40
85.0
 40
85.0
 10
13.62827019587519
 20
-28.06884456933805
 30
0.0
 10
11.5526032886585
 20
-27.70008456573036
 30
0.0
 10
8.975295544280778
 20
-24.55390683673479
 30
0.0
  0
SPLINE
  5
E2
330
77
100
AcDbEntity
  8
0
  6
Continuous
 62
     7
370
    18
100
AcDbSpline
210
0.0
220
0.0
230
1.0
 70
     8
 71
     2
 72
     6
 73
     3
 74
     0
 42
0.00000001
 43
0.00000001
 40
8.0
 40
8.0
 40
8.0
 40
9.0
 40
9.0
 40
9.0
 10
1.034248725372328
 20
-24.04306676583063
 30
0.0
 10
0.5031359822839347
 20
-24.67424914238567
 30
0.0
 10
0.2366362148993398
 20
-25.09912070303729
 30
0.0
  0
SPLINE
  5
E3
330
77
100
AcDbEntity
  8
0
  6
Continuous
 62
     7
370
    18
100
AcDbSpline
210
0.0
220
0.0
230
1.0
 70
     8
 71
     3
 72
     8
 73
     4
 74
     0
 42
0.00000001
 43
0.00000001
 40
86.0
 40
86.0
 40
86.0
 40
86.0
 40
87.0
 40
87.0
 40
87.0
 40
87.0
 10
10.62007177823641
 20
-22.03794594188311
 30
0.0
 10
11.72219760878135
 20
-21.28087378904547
 30
0.0
 10
12.92971041173824
 20
-21.7396330529282
 30
0.0
 10
13.12249700197277
 20
-22.04761177879816
 30
0.0
  0
SPLINE
  5
E4
330
77
100
AcDbEntity
  8
0
  6
Continuous
 62
     7
370
    18
100
AcDbSpline
210
0.0
220
0.0
230
1.0
 70
     8
 71
     3
 72
     8
 73
     4
 74
     0
 42
0.00000001
 43
0.00000001
 40
87.0
 40
87.0
 40
87.0
 40
87.0
 40
88.0
 40
88.0
 40
88.0
 40
88.0
 10
13.12249700197277
 20
-22.04761177879816
 30
0.0
 10
13.26108412081468
 20
-22.26820779325175
 30
0.0
 10
13.22069296788121
 20
-22.53929203859532
 30
0.0
 10
13.16248097184179
 20
-22.77811969809535
 30
0.0
  0
SPLINE
  5
E5
330
77
100
AcDbEntity
  8
0
  6
Continuous
 62
     7
370
    18
100
AcDbSpline
210
0.0
220
0.0
230
1.0
 70
     8
 71
     3
 72
     8
 73
     4
 74
     0
 42
0.00000001
 43
0.00000001
 40
1.0
 40
1.0
 40
1.0
 40
1.0
 40
2.0
 40
2.0
 40
2.0
 40
2.0
 10
-12.97698727481876
 20
-11.94438967842669
 30
0.0
 10
-12.93408822057713
 20
-11.98055695107731
 30
0.0
 10
-12.89117871404966
 20
-12.0168313323847
 30
0.0
 10
-12.84833062834044
 20
-12.05192229234568
 30
0.0
  0
SPLINE
  5
E6
330
77
100
AcDbEntity
  8
0
  6
Continuous
 62
     7
370
    18
100
AcDbSpline
210
0.0
220
0.0
230
1.0
 70
     8
 71
     3
 72
     8
 73
     4
 74
     0
 42
0.00000001
 43
0.00000001
 40
0.0
 40
0.0
 40
0.0
 40
0.0
 40
1.0
 40
1.0
 40
1.0
 40
1.0
 10
-12.84833062834044
 20
-12.05192229234568
 30
0.0
 10
-12.89117977018919
 20
-12.01637729512133
 30
0.0
 10
-12.93406966504302
 20
-11.98085790053987
 30
0.0
 10
-12.97698727481876
 20
-11.94438967842669
 30
0.0
  0
SPLINE
  5
E7
330
77
100
AcDbEntity
  8
0
  6
Continuous
 62
     7
370
    18
100
AcDbSpline
210
0.0
220
0.0
230
1.0
 70
     8
 71
     3
 72
     8
 73
     4
 74
     0
 42
0.00000001
 43
0.00000001
 40
1.0
 40
1.0
 40
1.0
 40
1.0
 40
2.0
 40
2.0
 40
2.0
 40
2.0
 10
-13.12585089146288
 20
-11.81726812552848
 30
0.0
 10
-13.07617793437105
 20
-11.86068937846771
 30
0.0
 10
-13.02665471445727
 20
-11.90224380512823
 30
0.0
 10
-12.97698727481876
 20
-11.94438967842669
 30
0.0
  0
SPLINE
  5
E8
330
77
100
AcDbEntity
  8
0
  6
Continuous
 62
     7
370
    18
100
AcDbSpline
210
0.0
220
0.0
230
1.0
 70
     8
 71
     3
 72
     8
 73
     4
 74
     0
 42
0.00000001
 43
0.00000001
 40
0.0
 40
0.0
 40
0.0
 40
0.0
 40
1.0
 40
1.0
 40
1.0
 40
1.0
 10
-12.97698727481876
 20
-11.94438967842669
 30
0.0
 10
-13.02658495363045
 20
-11.90262626059936
 30
0.0
 10
-13.07617323629799
 20
-11.86051591416215
 30
0.0
 10
-13.12585089146288
 20
-11.81726812552848
 30
0.0
  0
SPLINE
  5
E9
330
77
100
AcDbEntity
  8
0
  6
Continuous
 62
     7
370
    18
100
AcDbSpline
210
0.0
220
0.0
230
1.0
 70
     8
 71
     3
 72
     8
 73
     4
 74
     0
 42
0.00000001
 43
0.00000001
 40
1.0
 40
1.0
 40
1.0
 40
1.0
 40
2.0
 40
2.0
 40
2.0
 40
2.0
 10
-13.4714083645441
 20
-11.50579973387192
 30
0.0
 10
-13.35607265135197
 20
-11.61411326446534
 30
0.0
 10
-13.24089747348539
 20
-11.71701440282046
 30
0.0
 10
-13.12585089146288
 20
-11.81726812552848
 30
0.0
  0
SPLINE
  5
EA
330
77
100
AcDbEntity
  8
0
  6
Continuous
 62
     7
370
    18
100
AcDbSpline
210
0.0
220
0.0
230
1.0
 70
     8
 71
     3
 72
     8
 73
     4
 74
     0
 42
0.00000001
 43
0.00000001
 40
0.0
 40
0.0
 40
0.0
 40
0.0
 40
1.0
 40
1.0
 40
1.0
 40
1.0
 10
-13.12585089146288
 20
-11.81726812552848
 30
0.0
 10
-13.24099048791926
 20
-11.71650446219232
 30
0.0
 10
-13.35623202143728
 20
-11.61358817347745
 30
0.0
 10
-13.4714083645441
 20
-11.50579973387192
 30
0.0
  0
SPLINE
  5
EB
330
77
100
AcDbEntity
  8
0
  6
Continuous
 62
     7
370
    18
100
AcDbSpline
210
0.0
220
0.0
230
1.0
 70
     8
 71
     3
 72
     8
 73
     4
 74
     0
 42
0.00000001
 43
0.00000001
 40
0.0
 40
0.0
 40
0.0
 40
0.0
 40
1.0
 40
1.0
 40
1.0
 40
1.0
 10
10.21461546345718
 20
-28.64617788443965
 30
0.0
 10
10.21918410196907
 20
-28.64627093080314
 30
0.0
 10
10.22372101727702
 20
-28.64652141251756
 30
0.0
 10
10.22970805870399
 20
-28.64302825278814
 30
0.0
  0
SPLINE
  5
EC
330
77
100
AcDbEntity
  8
0
  6
Continuous
 62
     7
370
    18
100
AcDbSpline
210
0.0
220
0.0
230
1.0
 70
     8
 71
     3
 72
     8
 73
     4
 74
     0
 42
0.00000001
 43
0.00000001
 40
1.0
 40
1.0
 40
1.0
 40
1.0
 40
2.0
 40
2.0
 40
2.0
 40
2.0
 10
10.22970805870399
 20
-28.64302825278814
 30
0.0
 10
10.39542645279408
 20
-28.64648116215303
 30
0.0
 10
10.55224712619552
 20
-28.64555481591909
 30
0.0
 10
10.69524471404092
 20
-28.64199596788804
 30
0.0
  0
SPLINE
  5
ED
330
77
100
AcDbEntity
  8
0
  6
Continuous
 62
     7
370
    18
100
AcDbSpline
210
0.0
220
0.0
230
1.0
 70
     8
 71
     3
 72
     8
 73
     4
 74
     0
 42
0.00000001
 43
0.00000001
 40
2.0
 40
2.0
 40
2.0
 40
2.0
 40
3.0
 40
3.0
 40
3.0
 40
3.0
 10
10.69524471404092
 20
-28.64199596788804
 30
0.0
 10
10.93878108149031
 20
-28.62922500765117
 30
0.0
 10
12.86256786793131
 20
-28.44579912729742
 30
0.0
 10
13.43053447184528
 20
-28.50468697828905
 30
0.0
  0
SPLINE
  5
EE
330
77
100
AcDbEntity
  8
0
  6
Continuous
 62
     7
370
    18
100
AcDbSpline
210
0.0
220
0.0
230
1.0
 70
     8
 71
     3
 72
     8
 73
     4
 74
     0
 42
0.00000001
 43
0.00000001
 40
3.0
 40
3.0
 40
3.0
 40
3.0
 40
4.0
 40
4.0
 40
4.0
 40
4.0
 10
13.43053447184528
 20
-28.50468697828905
 30
0.0
 10
11.96260748192116
 20
-28.37392053115179
 30
0.0
 10
10.1633950095022
 20
-27.12274869564028
 30
0.0
 10
9.151098102011504
 20
-26.42677276430952
 30
0.0
  0
SPLINE
  5
EF
330
77
100
AcDbEntity
  8
0
  6
Continuous
 62
     7
370
    18
100
AcDbSpline
210
0.0
220
0.0
230
1.0
 70
     8
 71
     3
 72
     8
 73
     4
 74
     0
 42
0.00000001
 43
0.00000001
 40
4.0
 40
4.0
 40
4.0
 40
4.0
 40
5.0
 40
5.0
 40
5.0
 40
5.0
 10
9.151098102011504
 20
-26.42677276430952
 30
0.0
 10
9.066774001144022
 20
-26.36879812840622
 30
0.0
 10
8.956675902463358
 20
-26.36572633462992
 30
0.0
 10
8.868930887547672
 20
-26.41838015454434
 30
0.0
  0
SPLINE
  5
F0
330
77
100
AcDbEntity
  8
0
  6
Continuous
 62
     7
370
    18
100
AcDbSpline
210
0.0
220
0.0
230
1.0
 70
     8
 71
     3
 72
     8
 73
     4
 74
     0
 42
0.00000001
 43
0.00000001
 40
5.0
 40
5.0
 40
5.0
 40
5.0
 40
6.0
 40
6.0
 40
6.0
 40
6.0
 10
8.868930887547672
 20
-26.41838015454434
 30
0.0
 10
8.137245193614708
 20
-26.85744836598368
 30
0.0
 10
6.503485492791613
 20
-27.54121410964402
 30
0.0
 10
5.741387155997157
 20
-27.6255445902606
 30
0.0
  0
SPLINE
  5
F1
330
77
100
AcDbEntity
  8
0
  6
Continuous
 62
     7
370
    18
100
AcDbSpline
210
0.0
220
0.0
230
1.0
 70
     8
 71
     2
 72
     6
 73
     3
 74
     0
 42
0.00000001
 43
0.00000001
 40
6.0
 40
6.0
 40
6.0
 40
7.0
 40
7.0
 40
7.0
 10
5.741387155997161
 20
-27.6255445902606
 30
0.0
 10
6.307502227055851
 20
-27.91539630107968
 30
0.0
 10
8.160512274320864
 20
-28.26397363103973
 30
0.0
  0
SPLINE
  5
F2
330
77
100
AcDbEntity
  8
0
  6
Continuous
 62
     7
370
    18
100
AcDbSpline
210
0.0
220
0.0
230
1.0
 70
     8
 71
     3
 72
     8
 73
     4
 74
     0
 42
0.00000001
 43
0.00000001
 40
7.0
 40
7.0
 40
7.0
 40
7.0
 40
8.0
 40
8.0
 40
8.0
 40
8.0
 10
8.160512274320864
 20
-28.26397363103973
 30
0.0
 10
8.607119606053496
 20
-28.41908372564989
 30
0.0
 10
9.192348948782854
 20
-28.5723594656304
 30
0.0
 10
9.863974461413067
 20
-28.62736281210606
 30
0.0
  0
SPLINE
  5
F3
330
77
100
AcDbEntity
  8
0
  6
Continuous
 62
     7
370
    18
100
AcDbSpline
210
0.0
220
0.0
230
1.0
 70
     8
 71
     3
 72
     8
 73
     4
 74
     0
 42
0.00000001
 43
0.00000001
 40
8.0
 40
8.0
 40
8.0
 40
8.0
 40
9.0
 40
9.0
 40
9.0
 40
9.0
 10
9.863974461413067
 20
-28.62736281210606
 30
0.0
 10
9.929765209251192
 20
-28.63135918423149
 30
0.0
 10
9.995575675609581
 20
-28.63534316840197
 30
0.0
 10
10.05956717050909
 20
-28.63784354557302
 30
0.0
  0
SPLINE
  5
F4
330
77
100
AcDbEntity
  8
0
  6
Continuous
 62
     7
370
    18
100
AcDbSpline
210
0.0
220
0.0
230
1.0
 70
     8
 71
     3
 72
     8
 73
     4
 74
     0
 42
0.00000001
 43
0.00000001
 40
9.0
 40
9.0
 40
9.0
 40
9.0
 40
10.0
 40
10.0
 40
10.0
 40
10.0
 10
10.05956717050909
 20
-28.63784354557302
 30
0.0
 10
10.11125739464263
 20
-28.63984923247316
 30
0.0
 10
10.16293232757963
 20
-28.6445665106095
 30
0.0
 10
10.21461546345718
 20
-28.64617788443965
 30
0.0
  0
SPLINE
  5
F5
330
77
100
AcDbEntity
  8
0
  6
Continuous
 62
     7
370
    18
100
AcDbSpline
210
0.0
220
0.0
230
1.0
 70
     8
 71
     3
 72
     8
 73
     4
 74
     0
 42
0.00000001
 43
0.00000001
 40
2.0
 40
2.0
 40
2.0
 40
2.0
 40
3.0
 40
3.0
 40
3.0
 40
3.0
 10
0.781062732010538
 20
-30.05650200510532
 30
0.0
 10
0.1140626469377116
 20
-30.75512103968738
 30
0.0
 10
-0.1792280526829951
 20
-32.7836717599449
 30
0.0
 10
0.56197195590197
 20
-34.03978273437906
 30
0.0
  0
SPLINE
  5
F6
330
77
100
AcDbEntity
  8
0
  6
Continuous
 62
     7
370
    18
100
AcDbSpline
210
0.0
220
0.0
230
1.0
 70
     8
 71
     3
 72
     8
 73
     4
 74
     0
 42
0.00000001
 43
0.00000001
 40
1.0
 40
1.0
 40
1.0
 40
1.0
 40
2.0
 40
2.0
 40
2.0
 40
2.0
 10
0.4097379340995931
 20
-32.31245563887509
 30
0.0
 10
0.4361424212053228
 20
-31.54090664650138
 30
0.0
 10
0.5999421143876079
 20
-30.80333732452794
 30
0.0
 10
0.781062732010538
 20
-30.05650200510532
 30
0.0
  0
SPLINE
  5
F7
330
77
100
AcDbEntity
  8
0
  6
Continuous
 62
     7
370
    18
100
AcDbSpline
210
0.0
220
0.0
230
1.0
 70
     8
 71
     3
 72
     8
 73
     4
 74
     0
 42
0.00000001
 43
0.00000001
 40
0.0
 40
0.0
 40
0.0
 40
0.0
 40
1.0
 40
1.0
 40
1.0
 40
1.0
 10
0.56197195590197
 20
-34.03978273437906
 30
0.0
 10
0.5009972121190077
 20
-33.45272095850807
 30
0.0
 10
0.3892431137951322
 20
-32.91035567089727
 30
0.0
 10
0.4097379340995931
 20
-32.31245563887509
 30
0.0
  0
SPLINE
  5
F8
330
77
100
AcDbEntity
  8
0
  6
Continuous
 62
     7
370
    18
100
AcDbSpline
210
0.0
220
0.0
230
1.0
 70
     8
 71
     3
 72
     8
 73
     4
 74
     0
 42
0.00000001
 43
0.00000001
 40
0.0
 40
0.0
 40
0.0
 40
0.0
 40
1.0
 40
1.0
 40
1.0
 40
1.0
 10
-13.20041683738652
 20
-13.00201936979761
 30
0.0
 10
-12.32154115485279
 20
-14.45520144446019
 30
0.0
 10
-7.761960537329054
 20
-16.44470317690969
 30
0.0
 10
-5.320322465359877
 20
-16.96155007555379
 30
0.0
  0
SPLINE
  5
F9
330
77
100
AcDbEntity
  8
0
  6
Continuous
 62
     7
370
    18
100
AcDbSpline
210
0.0
220
0.0
230
1.0
 70
     8
 71
     3
 72
     8
 73
     4
 74
     0
 42
0.00000001
 43
0.00000001
 40
1.0
 40
1.0
 40
1.0
 40
1.0
 40
2.0
 40
2.0
 40
2.0
 40
2.0
 10
-5.320322465359877
 20
-16.96155007555379
 30
0.0
 10
-5.809512907815261
 20
-18.73302606223522
 30
0.0
 10
-4.10582967731771
 20
-21.71579823494536
 30
0.0
 10
-3.813304494022616
 20
-22.3920269991983
 30
0.0
  0
SPLINE
  5
FA
330
77
100
AcDbEntity
  8
0
  6
Continuous
 62
     7
370
    18
100
AcDbSpline
210
0.0
220
0.0
230
1.0
 70
     8
 71
     2
 72
     6
 73
     3
 74
     0
 42
0.00000001
 43
0.00000001
 40
2.0
 40
2.0
 40
2.0
 40
3.0
 40
3.0
 40
3.0
 10
-3.813304494022616
 20
-22.3920269991983
 30
0.0
 10
-6.043590765584354
 20
-20.10932636703633
 30
0.0
 10
-6.677555282416556
 20
-17.81074155341886
 30
0.0
  0
SPLINE
  5
FB
330
77
100
AcDbEntity
  8
0
  6
Continuous
 62
     7
370
    18
100
AcDbSpline
210
0.0
220
0.0
230
1.0
 70
     8
 71
     2
 72
     6
 73
     3
 74
     0
 42
0.00000001
 43
0.00000001
 40
3.0
 40
3.0
 40
3.0
 40
4.0
 40
4.0
 40
4.0
 10
-6.677555282416556
 20
-17.81074155341886
 30
0.0
 10
-11.75039520923077
 20
-15.65450427384786
 30
0.0
 10
-13.20041683738652
 20
-13.00201936979761
 30
0.0
  0
SPLINE
  5
FC
330
77
100
AcDbEntity
  8
0
  6
Continuous
 62
     7
370
    18
100
AcDbSpline
210
0.0
220
0.0
230
1.0
 70
     8
 71
     2
 72
     6
 73
     3
 74
     0
 42
0.00000001
 43
0.00000001
 40
1.0
 40
1.0
 40
1.0
 40
2.0
 40
2.0
 40
2.0
 10
-1.349158294773173
 20
-16.43790442263529
 30
0.0
 10
-3.425676913677115
 20
-15.05901031383733
 30
0.0
 10
-4.497614924678368
 20
-14.22616249714356
 30
0.0
  0
SPLINE
  5
FD
330
77
100
AcDbEntity
  8
0
  6
Continuous
 62
     7
370
    18
100
AcDbSpline
210
0.0
220
0.0
230
1.0
 70
     8
 71
     3
 72
     8
 73
     4
 74
     0
 42
0.00000001
 43
0.00000001
 40
2.0
 40
2.0
 40
2.0
 40
2.0
 40
3.0
 40
3.0
 40
3.0
 40
3.0
 10
-4.497614924678368
 20
-14.22616249714356
 30
0.0
 10
-7.183559023213449
 20
-14.35196557735811
 30
0.0
 10
-9.97328197261404
 20
-14.40422605275014
 30
0.0
 10
-12.84833062834044
 20
-12.05192229234568
 30
0.0
  0
SPLINE
  5
FE
330
77
100
AcDbEntity
  8
0
  6
Continuous
 62
     7
370
    18
100
AcDbSpline
210
0.0
220
0.0
230
1.0
 70
     8
 71
     2
 72
     6
 73
     3
 74
     0
 42
0.00000001
 43
0.00000001
 40
3.0
 40
3.0
 40
3.0
 40
4.0
 40
4.0
 40
4.0
 10
-12.84833062834044
 20
-12.05192229234568
 30
0.0
 10
-8.926716496317836
 20
-15.30072905894997
 30
0.0
 10
-5.163233750484998
 20
-14.64433050232701
 30
0.0
  0
SPLINE
  5
FF
330
77
100
AcDbEntity
  8
0
  6
Continuous
 62
     7
370
    18
100
AcDbSpline
210
0.0
220
0.0
230
1.0
 70
     8
 71
     2
 72
     6
 73
     3
 74
     0
 42
0.00000001
 43
0.00000001
 40
4.0
 40
4.0
 40
4.0
 40
5.0
 40
5.0
 40
5.0
 10
-5.163233750484998
 20
-14.64433050232701
 30
0.0
 10
-3.522925431558867
 20
-15.98679375933487
 30
0.0
 10
-2.117352433414995
 20
-16.92051428596087
 30
0.0
  0
SPLINE
  5
100
330
77
100
AcDbEntity
  8
0
  6
Continuous
 62
     7
370
    18
100
AcDbSpline
210
0.0
220
0.0
230
1.0
 70
     8
 71
     3
 72
     8
 73
     4
 74
     0
 42
0.00000001
 43
0.00000001
 40
5.0
 40
5.0
 40
5.0
 40
5.0
 40
6.0
 40
6.0
 40
6.0
 40
6.0
 10
-2.117352433414995
 20
-16.92051428596087
 30
0.0
 10
-2.267881806210096
 20
-17.81976104868603
 30
0.0
 10
-2.407277268150154
 20
-19.21016616381927
 30
0.0
 10
-1.664620714277922
 20
-20.81035712110292
 30
0.0
  0
SPLINE
  5
101
330
77
100
AcDbEntity
  8
0
  6
Continuous
 62
     7
370
    18
100
AcDbSpline
210
0.0
220
0.0
230
1.0
 70
     8
 71
     3
 72
     8
 73
     4
 74
     0
 42
0.00000001
 43
0.00000001
 40
6.0
 40
6.0
 40
6.0
 40
6.0
 40
7.0
 40
7.0
 40
7.0
 40
7.0
 10
-1.664620714277922
 20
-20.81035712110292
 30
0.0
 10
-1.664312426395075
 20
-20.81130019442271
 30
0.0
 10
-1.664085644523588
 20
-20.81229447303425
 30
0.0
 10
-1.663777356640795
 20
-20.813237546354
 30
0.0
  0
SPLINE
  5
102
330
77
100
AcDbEntity
  8
0
  6
Continuous
 62
     7
370
    18
100
AcDbSpline
210
0.0
220
0.0
230
1.0
 70
     8
 71
     3
 72
     8
 73
     4
 74
     0
 42
0.00000001
 43
0.00000001
 40
7.0
 40
7.0
 40
7.0
 40
7.0
 40
8.0
 40
8.0
 40
8.0
 40
8.0
 10
-1.663777356640795
 20
-20.813237546354
 30
0.0
 10
-1.662901112489764
 20
-20.81490372147473
 30
0.0
 10
-1.661968964973327
 20
-20.81647793829811
 30
0.0
 10
-1.661092720823347
 20
-20.81814411341701
 30
0.0
  0
SPLINE
  5
103
330
77
100
AcDbEntity
  8
0
  6
Continuous
 62
     7
370
    18
100
AcDbSpline
210
0.0
220
0.0
230
1.0
 70
     8
 71
     3
 72
     8
 73
     4
 74
     0
 42
0.00000001
 43
0.00000001
 40
8.0
 40
8.0
 40
8.0
 40
8.0
 40
9.0
 40
9.0
 40
9.0
 40
9.0
 10
-1.661092720823347
 20
-20.81814411341701
 30
0.0
 10
-1.229373968722224
 20
-21.74517157116296
 30
0.0
 10
-0.5004685823514314
 20
-22.74228692212668
 30
0.0
 10
0.6942959165096505
 20
-23.75544460571742
 30
0.0
  0
SPLINE
  5
104
330
77
100
AcDbEntity
  8
0
  6
Continuous
 62
     7
370
    18
100
AcDbSpline
210
0.0
220
0.0
230
1.0
 70
     8
 71
     2
 72
     6
 73
     3
 74
     0
 42
0.00000001
 43
0.00000001
 40
9.0
 40
9.0
 40
9.0
 40
10.0
 40
10.0
 40
10.0
 10
0.6942959165096505
 20
-23.75544460571742
 30
0.0
 10
1.573046591396742
 20
-24.52641591715609
 30
0.0
 10
2.277251563960161
 20
-24.90565086721784
 30
0.0
  0
SPLINE
  5
105
330
77
100
AcDbEntity
  8
0
  6
Continuous
 62
     7
370
    18
100
AcDbSpline
210
0.0
220
0.0
230
1.0
 70
     8
 71
     3
 72
     8
 73
     4
 74
     0
 42
0.00000001
 43
0.00000001
 40
10.0
 40
10.0
 40
10.0
 40
10.0
 40
11.0
 40
11.0
 40
11.0
 40
11.0
 10
2.277251563960161
 20
-24.90565086721784
 30
0.0
 10
-0.3444737072681864
 20
-23.07744411042371
 30
0.0
 10
-1.384783611401682
 20
-21.0299715722269
 30
0.0
 10
-1.791077823248111
 20
-19.55173176913453
 30
0.0
  0
SPLINE
  5
106
330
77
100
AcDbEntity
  8
0
  6
Continuous
 62
     7
370
    18
100
AcDbSpline
210
0.0
220
0.0
230
1.0
 70
     8
 71
     3
 72
     8
 73
     4
 74
     0
 42
0.00000001
 43
0.00000001
 40
11.0
 40
11.0
 40
11.0
 40
11.0
 40
12.0
 40
12.0
 40
12.0
 40
12.0
 10
-1.791077823248111
 20
-19.55173176913453
 30
0.0
 10
-1.952004736442718
 20
-18.58763900877485
 30
0.0
 10
-1.857645689601465
 20
-17.53728176305358
 30
0.0
 10
-1.344635895048667
 20
-16.44003656241194
 30
0.0
  0
SPLINE
  5
107
330
77
100
AcDbEntity
  8
0
  6
Continuous
 62
     7
370
    18
100
AcDbSpline
210
0.0
220
0.0
230
1.0
 70
     8
 71
     3
 72
     8
 73
     4
 74
     0
 42
0.00000001
 43
0.00000001
 40
1.0
 40
1.0
 40
1.0
 40
1.0
 40
2.0
 40
2.0
 40
2.0
 40
2.0
 10
9.282072433202625
 20
-23.83234642604633
 30
0.0
 10
9.542961528798338
 20
-23.25329859518931
 30
0.0
 10
9.985495514983219
 20
-22.47632608388373
 30
0.0
 10
10.62007177823641
 20
-22.03794594188311
 30
0.0
  0
SPLINE
  5
108
330
77
100
AcDbEntity
  8
0
  6
Continuous
 62
     7
370
    18
100
AcDbSpline
210
0.0
220
0.0
230
1.0
 70
     8
 71
     3
 72
     8
 73
     4
 74
     0
 42
0.00000001
 43
0.00000001
 40
4.0
 40
4.0
 40
4.0
 40
4.0
 40
5.0
 40
5.0
 40
5.0
 40
5.0
 10
13.17134989821584
 20
-22.77125005992538
 30
0.0
 10
13.91734338198129
 20
-21.59974891081312
 30
0.0
 10
11.03631975087138
 20
-19.45853573582023
 30
0.0
 10
8.91093208540684
 20
-21.00902899615352
 30
0.0
  0
SPLINE
  5
109
330
77
100
AcDbEntity
  8
0
  6
Continuous
 62
     7
370
    18
100
AcDbSpline
210
0.0
220
0.0
230
1.0
 70
     8
 71
     3
 72
     8
 73
     4
 74
     0
 42
0.00000001
 43
0.00000001
 40
5.0
 40
5.0
 40
5.0
 40
5.0
 40
6.0
 40
6.0
 40
6.0
 40
6.0
 10
8.91093208540684
 20
-21.00902899615352
 30
0.0
 10
6.785544419941263
 20
-22.55952225648562
 30
0.0
 10
6.138264936105684
 20
-26.41214330901684
 30
0.0
 10
0.7891610119816483
 20
-30.05141434614796
 30
0.0
  0
SPLINE
  5
10A
330
77
100
AcDbEntity
  8
0
  6
Continuous
 62
     7
370
    18
100
AcDbSpline
210
0.0
220
0.0
230
1.0
 70
     8
 71
     2
 72
     6
 73
     3
 74
     0
 42
0.00000001
 43
0.00000001
 40
6.0
 40
6.0
 40
6.0
 40
7.0
 40
7.0
 40
7.0
 10
0.7891610119816483
 20
-30.05141434614796
 30
0.0
 10
2.027957268008918
 20
-29.56317356732477
 30
0.0
 10
2.266152999548186
 20
-29.47098631967676
 30
0.0
  0
SPLINE
  5
10B
330
77
100
AcDbEntity
  8
0
  6
Continuous
 62
     7
370
    18
100
AcDbSpline
210
0.0
220
0.0
230
1.0
 70
     8
 71
     3
 72
     8
 73
     4
 74
     0
 42
0.00000001
 43
0.00000001
 40
7.0
 40
7.0
 40
7.0
 40
7.0
 40
8.0
 40
8.0
 40
8.0
 40
8.0
 10
2.266152999548186
 20
-29.47098631967676
 30
0.0
 10
3.014801417132293
 20
-29.18122818076082
 30
0.0
 10
3.736118100429408
 20
-28.82241116458091
 30
0.0
 10
4.431146345693874
 20
-28.42149782758251
 30
0.0
  0
SPLINE
  5
10C
330
77
100
AcDbEntity
  8
0
  6
Continuous
 62
     7
370
    18
100
AcDbSpline
210
0.0
220
0.0
230
1.0
 70
     8
 71
     3
 72
     8
 73
     4
 74
     0
 42
0.00000001
 43
0.00000001
 40
9.0
 40
9.0
 40
9.0
 40
9.0
 40
10.0
 40
10.0
 40
10.0
 40
10.0
 10
5.741401688969916
 20
-27.62554000024407
 30
0.0
 10
7.060991710032899
 20
-26.77804674712032
 30
0.0
 10
8.443973707032603
 20
-26.09970911999108
 30
0.0
 10
9.267426036511852
 20
-23.87039661735003
 30
0.0
  0
SPLINE
  5
10D
330
77
100
AcDbEntity
  8
0
  6
Continuous
 62
     7
370
    18
100
AcDbSpline
210
0.0
220
0.0
230
1.0
 70
     8
 71
     3
 72
     8
 73
     4
 74
     0
 42
0.00000001
 43
0.00000001
 40
0.0
 40
0.0
 40
0.0
 40
0.0
 40
1.0
 40
1.0
 40
1.0
 40
1.0
 10
7.616643966539248
 20
-16.14063575935378
 30
0.0
 10
6.913790166466484
 20
-16.14488777689968
 30
0.0
 10
6.697443007890195
 20
-16.79416276836541
 30
0.0
 10
6.436018843175425
 20
-17.3230129233678
 30
0.0
  0
SPLINE
  5
10E
330
77
100
AcDbEntity
  8
0
  6
Continuous
 62
     7
370
    18
100
AcDbSpline
210
0.0
220
0.0
230
1.0
 70
     8
 71
     3
 72
     8
 73
     4
 74
     0
 42
0.00000001
 43
0.00000001
 40
1.0
 40
1.0
 40
1.0
 40
1.0
 40
2.0
 40
2.0
 40
2.0
 40
2.0
 10
6.436018843175425
 20
-17.3230129233678
 30
0.0
 10
5.948216897681968
 20
-18.30992905460965
 30
0.0
 10
5.052555161752526
 20
-19.5995436994
 30
0.0
 10
5.103926613042106
 20
-20.75366969743216
 30
0.0
  0
SPLINE
  5
10F
330
77
100
AcDbEntity
  8
0
  6
Continuous
 62
     7
370
    18
100
AcDbSpline
210
0.0
220
0.0
230
1.0
 70
     8
 71
     2
 72
     6
 73
     3
 74
     0
 42
0.00000001
 43
0.00000001
 40
2.0
 40
2.0
 40
2.0
 40
3.0
 40
3.0
 40
3.0
 10
5.103926613042106
 20
-20.75366969743216
 30
0.0
 10
5.110006812763316
 20
-21.55270934533252
 30
0.0
 10
5.893010450029737
 20
-21.89666129361517
 30
0.0
  0
SPLINE
  5
110
330
77
100
AcDbEntity
  8
0
  6
Continuous
 62
     7
370
    18
100
AcDbSpline
210
0.0
220
0.0
230
1.0
 70
     8
 71
     2
 72
     6
 73
     3
 74
     0
 42
0.00000001
 43
0.00000001
 40
3.0
 40
3.0
 40
3.0
 40
4.0
 40
4.0
 40
4.0
 10
5.893010450029737
 20
-21.89666129361517
 30
0.0
 10
5.064669634616712
 20
-21.16070169146862
 30
0.0
 10
5.897476922257513
 20
-19.59962191921445
 30
0.0
  0
SPLINE
  5
111
330
77
100
AcDbEntity
  8
0
  6
Continuous
 62
     7
370
    18
100
AcDbSpline
210
0.0
220
0.0
230
1.0
 70
     8
 71
     3
 72
     8
 73
     4
 74
     0
 42
0.00000001
 43
0.00000001
 40
4.0
 40
4.0
 40
4.0
 40
4.0
 40
5.0
 40
5.0
 40
5.0
 40
5.0
 10
5.897476922257513
 20
-19.59962191921445
 30
0.0
 10
6.365882597961094
 20
-18.72160531632978
 30
0.0
 10
6.783564254303969
 20
-18.1502556103958
 30
0.0
 10
6.961063665415703
 20
-17.79297771071811
 30
0.0
  0
SPLINE
  5
112
330
77
100
AcDbEntity
  8
0
  6
Continuous
 62
     7
370
    18
100
AcDbSpline
210
0.0
220
0.0
230
1.0
 70
     8
 71
     3
 72
     8
 73
     4
 74
     0
 42
0.00000001
 43
0.00000001
 40
5.0
 40
5.0
 40
5.0
 40
5.0
 40
6.0
 40
6.0
 40
6.0
 40
6.0
 10
6.961063665415703
 20
-17.79297771071811
 30
0.0
 10
6.969564036079641
 20
-17.77592889764838
 30
0.0
 10
6.978008503380095
 20
-17.75897204287472
 30
0.0
 10
6.986317910343667
 20
-17.74207161953264
 30
0.0
  0
SPLINE
  5
113
330
77
100
AcDbEntity
  8
0
  6
Continuous
 62
     7
370
    18
100
AcDbSpline
210
0.0
220
0.0
230
1.0
 70
     8
 71
     2
 72
     6
 73
     3
 74
     0
 42
0.00000001
 43
0.00000001
 40
6.0
 40
6.0
 40
6.0
 40
7.0
 40
7.0
 40
7.0
 10
6.986317910343667
 20
-17.74207161953264
 30
0.0
 10
7.02365081475716
 20
-17.66624177102196
 30
0.0
 10
7.044485288742809
 20
-17.62223308004855
 30
0.0
  0
SPLINE
  5
114
330
77
100
AcDbEntity
  8
0
  6
Continuous
 62
     7
370
    18
100
AcDbSpline
210
0.0
220
0.0
230
1.0
 70
     8
 71
     3
 72
     8
 73
     4
 74
     0
 42
0.00000001
 43
0.00000001
 40
8.0
 40
8.0
 40
8.0
 40
8.0
 40
9.0
 40
9.0
 40
9.0
 40
9.0
 10
7.043747273343362
 20
-17.62187258528872
 30
0.0
 10
7.259429684873595
 20
-17.1682239392887
 30
0.0
 10
7.409758570724429
 20
-16.77384940600867
 30
0.0
 10
7.501213874593598
 20
-16.5071459647044
 30
0.0
  0
SPLINE
  5
115
330
77
100
AcDbEntity
  8
0
  6
Continuous
 62
     7
370
    18
100
AcDbSpline
210
0.0
220
0.0
230
1.0
 70
     8
 71
     2
 72
     6
 73
     3
 74
     0
 42
0.00000001
 43
0.00000001
 40
9.0
 40
9.0
 40
9.0
 40
10.0
 40
10.0
 40
10.0
 10
7.501213874593598
 20
-16.5071459647044
 30
0.0
 10
7.58018144071422
 20
-16.27701921792476
 30
0.0
 10
7.616643966539248
 20
-16.14063575935378
 30
0.0
  0
SPLINE
  5
116
330
77
100
AcDbEntity
  8
0
  6
Continuous
 62
     7
370
    18
100
AcDbSpline
210
0.0
220
0.0
230
1.0
 70
     8
 71
     2
 72
     6
 73
     3
 74
     0
 42
0.00000001
 43
0.00000001
 40
0.0
 40
0.0
 40
0.0
 40
1.0
 40
1.0
 40
1.0
 10
0.3944126526828438
 20
-2.906969795378479
 30
0.0
 10
-0.9260675992531606
 20
-7.098093552135839
 30
0.0
 10
3.694246552495818
 20
-15.91394980485279
 30
0.0
  0
SPLINE
  5
117
330
77
100
AcDbEntity
  8
0
  6
Continuous
 62
     7
370
    18
100
AcDbSpline
210
0.0
220
0.0
230
1.0
 70
     8
 71
     3
 72
     8
 73
     4
 74
     0
 42
0.00000001
 43
0.00000001
 40
1.0
 40
1.0
 40
1.0
 40
1.0
 40
2.0
 40
2.0
 40
2.0
 40
2.0
 10
3.694246552495818
 20
-15.91394980485279
 30
0.0
 10
3.446899321752916
 20
-17.12012815823227
 30
0.0
 10
3.357918547908363
 20
-18.01529334045489
 30
0.0
 10
3.369570932292986
 20
-18.71508939083513
 30
0.0
  0
SPLINE
  5
118
330
77
100
AcDbEntity
  8
0
  6
Continuous
 62
     7
370
    18
100
AcDbSpline
210
0.0
220
0.0
230
1.0
 70
     8
 71
     3
 72
     8
 73
     4
 74
     0
 42
0.00000001
 43
0.00000001
 40
4.0
 40
4.0
 40
4.0
 40
4.0
 40
5.0
 40
5.0
 40
5.0
 40
5.0
 10
3.371167179561167
 20
-18.80258270306617
 30
0.0
 10
3.375320776009459
 20
-18.94553433452855
 30
0.0
 10
3.384065732186145
 20
-19.07969038264685
 30
0.0
 10
3.396375939104116
 20
-19.20694591668476
 30
0.0
  0
SPLINE
  5
119
330
77
100
AcDbEntity
  8
0
  6
Continuous
 62
     7
370
    18
100
AcDbSpline
210
0.0
220
0.0
230
1.0
 70
     8
 71
     2
 72
     6
 73
     3
 74
     0
 42
0.00000001
 43
0.00000001
 40
6.0
 40
6.0
 40
6.0
 40
7.0
 40
7.0
 40
7.0
 10
3.414912572583571
 20
-19.50415597158925
 30
0.0
 10
3.463733909636759
 20
-20.44034883554467
 30
0.0
 10
4.199514098340574
 20
-21.43655542025973
 30
0.0
  0
SPLINE
  5
11A
330
77
100
AcDbEntity
  8
0
  6
Continuous
 62
     7
370
    18
100
AcDbSpline
210
0.0
220
0.0
230
1.0
 70
     8
 71
     3
 72
     8
 73
     4
 74
     0
 42
0.00000001
 43
0.00000001
 40
7.0
 40
7.0
 40
7.0
 40
7.0
 40
8.0
 40
8.0
 40
8.0
 40
8.0
 10
4.199514098340574
 20
-21.43655542025973
 30
0.0
 10
4.209530614512485
 20
-21.44734234739126
 30
0.0
 10
4.217448187290456
 20
-21.45279791477912
 30
0.0
 10
4.226419929838382
 20
-21.46074569773323
 30
0.0
  0
SPLINE
  5
11B
330
77
100
AcDbEntity
  8
0
  6
Continuous
 62
     7
370
    18
100
AcDbSpline
210
0.0
220
0.0
230
1.0
 70
     8
 71
     2
 72
     6
 73
     3
 74
     0
 42
0.00000001
 43
0.00000001
 40
8.0
 40
8.0
 40
8.0
 40
9.0
 40
9.0
 40
9.0
 10
4.226419929838382
 20
-21.46074569773323
 30
0.0
 10
4.602113169577764
 20
-21.92169141031366
 30
0.0
 10
5.25588783635365
 20
-22.1084696061984
 30
0.0
  0
SPLINE
  5
11C
330
77
100
AcDbEntity
  8
0
  6
Continuous
 62
     7
370
    18
100
AcDbSpline
210
0.0
220
0.0
230
1.0
 70
     8
 71
     3
 72
     8
 73
     4
 74
     0
 42
0.00000001
 43
0.00000001
 40
9.0
 40
9.0
 40
9.0
 40
9.0
 40
10.0
 40
10.0
 40
10.0
 40
10.0
 10
5.25588783635365
 20
-22.1084696061984
 30
0.0
 10
4.722803653588975
 20
-21.69473771792311
 30
0.0
 10
4.555729374077984
 20
-21.23618402102321
 30
0.0
 10
4.5115397999614
 20
-20.91388289798429
 30
0.0
  0
SPLINE
  5
11D
330
77
100
AcDbEntity
  8
0
  6
Continuous
 62
     7
370
    18
100
AcDbSpline
210
0.0
220
0.0
230
1.0
 70
     8
 71
     3
 72
     8
 73
     4
 74
     0
 42
0.00000001
 43
0.00000001
 40
10.0
 40
10.0
 40
10.0
 40
10.0
 40
11.0
 40
11.0
 40
11.0
 40
11.0
 10
4.5115397999614
 20
-20.91388289798429
 30
0.0
 10
4.511444436489974
 20
-20.91345968950935
 30
0.0
 10
4.511458530710389
 20
-20.91293929659483
 30
0.0
 10
4.51136316724085
 20
-20.91251608811877
 30
0.0
  0
SPLINE
  5
11E
330
77
100
AcDbEntity
  8
0
  6
Continuous
 62
     7
370
    18
100
AcDbSpline
210
0.0
220
0.0
230
1.0
 70
     8
 71
     3
 72
     8
 73
     4
 74
     0
 42
0.00000001
 43
0.00000001
 40
11.0
 40
11.0
 40
11.0
 40
11.0
 40
12.0
 40
12.0
 40
12.0
 40
12.0
 10
4.51136316724085
 20
-20.91251608811877
 30
0.0
 10
4.492940501693147
 20
-20.77725000285986
 30
0.0
 10
4.49631721425359
 20
-20.66736453587088
 30
0.0
 10
4.503170896062897
 20
-20.59377375245777
 30
0.0
  0
SPLINE
  5
11F
330
77
100
AcDbEntity
  8
0
  6
Continuous
 62
     7
370
    18
100
AcDbSpline
210
0.0
220
0.0
230
1.0
 70
     8
 71
     3
 72
     8
 73
     4
 74
     0
 42
0.00000001
 43
0.00000001
 40
12.0
 40
12.0
 40
12.0
 40
12.0
 40
13.0
 40
13.0
 40
13.0
 40
13.0
 10
4.503170896062897
 20
-20.59377375245777
 30
0.0
 10
4.604013649449088
 20
-19.7965617294209
 30
0.0
 10
5.139276617404003
 20
-18.9096664850367
 30
0.0
 10
5.595548611273902
 20
-17.9099700673493
 30
0.0
  0
SPLINE
  5
120
330
77
100
AcDbEntity
  8
0
  6
Continuous
 62
     7
370
    18
100
AcDbSpline
210
0.0
220
0.0
230
1.0
 70
     8
 71
     2
 72
     6
 73
     3
 74
     0
 42
0.00000001
 43
0.00000001
 40
13.0
 40
13.0
 40
13.0
 40
14.0
 40
14.0
 40
14.0
 10
5.595548611273902
 20
-17.9099700673493
 30
0.0
 10
5.926118360772201
 20
-17.18568850106854
 30
0.0
 10
5.606497978493191
 20
-16.05075397327447
 30
0.0
  0
SPLINE
  5
121
330
77
100
AcDbEntity
  8
0
  6
Continuous
 62
     7
370
    18
100
AcDbSpline
210
0.0
220
0.0
230
1.0
 70
     8
 71
     3
 72
     8
 73
     4
 74
     0
 42
0.00000001
 43
0.00000001
 40
14.0
 40
14.0
 40
14.0
 40
14.0
 40
15.0
 40
15.0
 40
15.0
 40
15.0
 10
5.606497978493191
 20
-16.05075397327447
 30
0.0
 10
5.207525970226131
 20
-14.79026275050278
 30
0.0
 10
4.519773960143639
 20
-13.82671693217636
 30
0.0
 10
3.665223439147876
 20
-12.83569943160955
 30
0.0
  0
SPLINE
  5
122
330
77
100
AcDbEntity
  8
0
  6
Continuous
 62
     7
370
    18
100
AcDbSpline
210
0.0
220
0.0
230
1.0
 70
     8
 71
     3
 72
     8
 73
     4
 74
     0
 42
0.00000001
 43
0.00000001
 40
15.0
 40
15.0
 40
15.0
 40
15.0
 40
16.0
 40
16.0
 40
16.0
 40
16.0
 10
3.665223439147876
 20
-12.83569943160955
 30
0.0
 10
2.198391383191843
 20
-11.13462081873923
 30
0.0
 10
0.0517992661647096
 20
-7.209063579032926
 30
0.0
 10
0.3944126526828438
 20
-2.906969795378479
 30
0.0
  0
ENDBLK
  5
79
330
77
100
AcDbEntity
  8
0
100
AcDbBlockEnd
  0
ENDSEC
  0
SECTION
  2
ENTITIES
  0
ARC
  5
123
330
1F
100
AcDbEntity
  8
0
  6
Continuous
 62
     7
370
    25
100
AcDbCircle
 10
246.3652388666
 20
232.5470052157
 30
0.0
 40
0.0300000000000027
100
AcDbArc
 50
294.0
 51
11.4498237151
  0
ARC
  5
124
330
1F
100
AcDbEntity
  8
0
  6
Continuous
 62
     7
370
    25
100
AcDbCircle
 10
245.7622988645
 20
232.2785590312
 30
0.0
 40
0.0299999999999978
100
AcDbArc
 50
216.5501762848
 51
294.0
  0
LINE
  5
125
330
1F
100
AcDbEntity
  8
0
  6
Continuous
 62
     7
370
    25
100
AcDbLine
 10
246.4485876386
 20
232.4089726753
 30
0.0
 11
246.4282508065
 21
232.4546499482
 31
0.0
  0
LINE
  5
126
330
1F
100
AcDbEntity
  8
0
  6
Continuous
 62
     7
370
    25
100
AcDbLine
 10
245.7887689861
 20
232.169934298
 30
0.0
 11
245.8091058183
 21
232.1242570252
 31
0.0
  0
LWPOLYLINE
  5
127
330
1F
100
AcDbEntity
  8
0
  6
Continuous
 62
     7
370
    25
100
AcDbPolyline
 90
        3
 70
   128
 43
0.0
 10
246.3316727113
 20
232.6124957491
 10
246.3286201717
 20
232.6128604461
 10
246.3278812662
 20
232.6129969615
  0
LWPOLYLINE
  5
128
330
1F
100
AcDbEntity
  8
0
  6
Continuous
 62
     7
370
    25
100
AcDbPolyline
 90
        3
 70
   128
 43
0.0
 10
245.7382545539
 20
232.3504782355
 10
245.7378615803
 20
232.3498377751
 10
245.7360900553
 20
232.3473252661
  0
LINE
  5
129
330
1F
100
AcDbEntity
  8
0
  6
Continuous
 62
     7
370
    25
100
AcDbLine
 10
170.8159102244
 20
214.5174622742
 30
0.0
 11
169.8959102244
 21
214.5174622742
 31
0.0
  0
LINE
  5
12A
330
1F
100
AcDbEntity
  8
0
  6
Continuous
 62
     7
370
    25
100
AcDbLine
 10
169.8959102244
 20
211.5474622742
 30
0.0
 11
170.8159102244
 21
211.5474622742
 31
0.0
  0
ARC
  5
12B
330
1F
100
AcDbEntity
  8
0
  6
Continuous
 62
     7
370
    25
100
AcDbCircle
 10
169.8959102244
 20
214.0174622742
 30
0.0
 40
0.5
100
AcDbArc
 50
90.0
 51
180.0
  0
ARC
  5
12C
330
1F
100
AcDbEntity
  8
0
  6
Continuous
 62
     7
370
    25
100
AcDbCircle
 10
169.8959102244
 20
212.0474622742
 30
0.0
 40
0.5
100
AcDbArc
 50
180.0
 51
270.0
  0
LINE
  5
12D
330
1F
100
AcDbEntity
  8
0
  6
Continuous
 62
     7
370
    25
100
AcDbLine
 10
171.4459102244
 20
214.5174622742
 30
0.0
 11
171.2059102244
 21
214.5174622742
 31
0.0
  0
LINE
  5
12E
330
1F
100
AcDbEntity
  8
0
  6
Continuous
 62
     7
370
    25
100
AcDbLine
 10
171.2059102244
 20
211.5474622742
 30
0.0
 11
171.4459102244
 21
211.5474622742
 31
0.0
  0
LINE
  5
12F
330
1F
100
AcDbEntity
  8
0
  6
Continuous
 62
     7
370
    25
100
AcDbLine
 10
171.4459102244
 20
211.6324622742
 30
0.0
 11
171.9959102244
 21
211.6324622742
 31
0.0
  0
LINE
  5
130
330
1F
100
AcDbEntity
  8
0
  6
Continuous
 62
     7
370
    25
100
AcDbLine
 10
171.9959102244
 20
214.4324622742
 30
0.0
 11
171.4459102244
 21
214.4324622742
 31
0.0
  0
LINE
  5
131
330
1F
100
AcDbEntity
  8
0
  6
Continuous
 62
     7
370
    25
100
AcDbLine
 10
171.9959102244
 20
211.7324622742
 30
0.0
 11
172.1959102244
 21
211.7324622742
 31
0.0
  0
LINE
  5
132
330
1F
100
AcDbEntity
  8
0
  6
Continuous
 62
     7
370
    25
100
AcDbLine
 10
172.1959102244
 20
214.3324622742
 30
0.0
 11
171.9959102244
 21
214.3324622742
 31
0.0
  0
LINE
  5
133
330
1F
100
AcDbEntity
  8
0
  6
Continuous
 62
     7
370
    25
100
AcDbLine
 10
172.5159102244
 20
214.7074622742
 30
0.0
 11
172.1959102244
 21
214.7074622742
 31
0.0
  0
LINE
  5
134
330
1F
100
AcDbEntity
  8
0
  6
Continuous
 62
     7
370
    25
100
AcDbLine
 10
172.1959102244
 20
211.3574622742
 30
0.0
 11
172.5159102244
 21
211.3574622742
 31
0.0
  0
LINE
  5
135
330
1F
100
AcDbEntity
  8
0
  6
Continuous
 62
     7
370
    25
100
AcDbLine
 10
249.2559102244
 20
218.6738840359
 30
0.0
 11
249.2459102244
 21
218.6738840359
 31
0.0
  0
LINE
  5
136
330
1F
100
AcDbEntity
  8
0
  6
Continuous
 62
     7
370
    25
100
AcDbLine
 10
249.4359102244
 20
212.2574431253
 30
0.0
 11
249.4459102244
 21
212.2574431253
 31
0.0
  0
LINE
  5
137
330
1F
100
AcDbEntity
  8
0
  6
Continuous
 62
     7
370
    25
100
AcDbLine
 10
249.4459102244
 20
212.2579148276
 30
0.0
 11
249.5210026271
 21
212.2579148276
 31
0.0
  0
LINE
  5
138
330
1F
100
AcDbEntity
  8
0
  6
Continuous
 62
     7
370
    25
100
AcDbLine
 10
249.4759102244
 20
215.5768311709
 30
0.0
 11
249.4404185553
 21
215.5768311709
 31
0.0
  0
ARC
  5
139
330
1F
100
AcDbEntity
  8
0
  6
Continuous
 62
     7
370
    25
100
AcDbCircle
 10
249.4759102244
 20
215.5568311708
 30
0.0
 40
0.0200000045033536
100
AcDbArc
 50
0.0051597169
 51
90.2521831775
  0
LINE
  5
13A
330
1F
100
AcDbEntity
  8
0
  6
Continuous
 62
     7
370
    25
100
AcDbLine
 10
249.4534102244
 20
216.0193548587
 30
0.0
 11
249.4359102244
 21
216.0193548587
 31
0.0
  0
ARC
  5
13B
330
1F
100
AcDbEntity
  8
0
  6
Continuous
 62
     7
370
    25
100
AcDbCircle
 10
249.5059102244
 20
216.0010628844
 30
0.0
 40
0.0200000000633038
100
AcDbArc
 50
359.9999961771
 51
90.9512821037
  0
LINE
  5
13C
330
1F
100
AcDbEntity
  8
0
  6
Continuous
 62
     7
370
    25
100
AcDbLine
 10
249.5059102244
 20
216.0210628844
 30
0.0
 11
249.4459102244
 21
216.0210628844
 31
0.0
  0
LINE
  5
13D
330
1F
100
AcDbEntity
  8
0
  6
Continuous
 62
     7
370
    25
100
AcDbLine
 10
249.4359102244
 20
211.840654615
 30
0.0
 11
249.4959102244
 21
211.840654615
 31
0.0
  0
LINE
  5
13E
330
1F
100
AcDbEntity
  8
0
  6
Continuous
 62
     7
370
    25
100
AcDbLine
 10
249.4959102244
 20
211.9444860833
 30
0.0
 11
249.5096602244
 21
211.9444860833
 31
0.0
  0
LINE
  5
13F
330
1F
100
AcDbEntity
  8
0
  6
Continuous
 62
     7
370
    25
100
AcDbLine
 10
249.4359102244
 20
211.7306615917
 30
0.0
 11
249.4959102244
 21
211.7306615917
 31
0.0
  0
ARC
  5
140
330
1F
100
AcDbEntity
  8
0
  6
Continuous
 62
     7
370
    25
100
AcDbCircle
 10
249.5259102244
 20
215.6217526841
 30
0.0
 40
0.0200000032154573
100
AcDbArc
 50
0.0004500544
 51
90.1756449676
  0
LINE
  5
141
330
1F
100
AcDbEntity
  8
0
  6
Continuous
 62
     7
370
    25
100
AcDbLine
 10
249.5059102244
 20
216.0207465429
 30
0.0
 11
249.4459102244
 21
216.0207465429
 31
0.0
  0
LINE
  5
142
330
1F
100
AcDbEntity
  8
0
  6
Continuous
 62
     7
370
    25
100
AcDbLine
 10
246.8557766631
 20
226.8353641563
 30
0.0
 11
247.1531094894
 21
227.0528916037
 31
0.0
  0
LINE
  5
143
330
1F
100
AcDbEntity
  8
0
  6
Continuous
 62
     7
370
    25
100
AcDbLine
 10
246.7421168869
 20
228.3177967704
 30
0.0
 11
246.3737101519
 21
228.3190123218
 31
0.0
  0
LINE
  5
144
330
1F
100
AcDbEntity
  8
0
  6
Continuous
 62
     7
370
    25
100
AcDbLine
 10
246.6594383174
 20
227.1080378724
 30
0.0
 11
246.6626743127
 21
227.1295235251
 31
0.0
  0
LINE
  5
145
330
1F
100
AcDbEntity
  8
0
  6
Continuous
 62
     7
370
    25
100
AcDbLine
 10
246.3903896075
 20
227.9675296796
 30
0.0
 11
246.3751426826
 21
227.9830098674
 31
0.0
  0
LINE
  5
146
330
1F
100
AcDbEntity
  8
0
  6
Continuous
 62
     7
370
    25
100
AcDbLine
 10
246.4725955901
 20
228.0146742365
 30
0.0
 11
246.4679785239
 21
227.9876209871
 31
0.0
  0
LINE
  5
147
330
1F
100
AcDbEntity
  8
0
  6
Continuous
 62
     7
370
    25
100
AcDbLine
 10
246.7372544389
 20
227.1588749367
 30
0.0
 11
246.7568912249
 21
227.1397022415
 31
0.0
  0
LINE
  5
148
330
1F
100
AcDbEntity
  8
0
  6
Continuous
 62
     7
370
    25
100
AcDbLine
 10
246.3751426826
 20
227.9830098674
 30
0.0
 11
246.3748381465
 21
227.9809878755
 31
0.0
  0
LINE
  5
149
330
1F
100
AcDbEntity
  8
0
  6
Continuous
 62
     7
370
    25
100
AcDbLine
 10
246.6580034455
 20
227.1094946964
 30
0.0
 11
246.6594383174
 21
227.1080378724
 31
0.0
  0
LINE
  5
14A
330
1F
100
AcDbEntity
  8
0
  6
Continuous
 62
     7
370
    25
100
AcDbLine
 10
230.8209102244
 20
237.8874622742
 30
0.0
 11
230.6209102244
 21
238.0874622742
 31
0.0
  0
LINE
  5
14B
330
1F
100
AcDbEntity
  8
0
  6
Continuous
 62
     7
370
    25
100
AcDbLine
 10
212.3209102244
 20
238.0874622742
 30
0.0
 11
212.1209102244
 21
237.8874622742
 31
0.0
  0
LINE
  5
14C
330
1F
100
AcDbEntity
  8
0
  6
Continuous
 62
     7
370
    25
100
AcDbLine
 10
230.8209102244
 20
237.7374622742
 30
0.0
 11
230.8209102244
 21
237.8874622742
 31
0.0
  0
LINE
  5
14D
330
1F
100
AcDbEntity
  8
0
  6
Continuous
 62
     7
370
    25
100
AcDbLine
 10
212.1209102244
 20
237.8874622742
 30
0.0
 11
212.1209102244
 21
237.7374622742
 31
0.0
  0
LINE
  5
14E
330
1F
100
AcDbEntity
  8
0
  6
Continuous
 62
     7
370
    25
100
AcDbLine
 10
202.8198919115
 20
237.8874622742
 30
0.0
 11
202.6198919115
 21
238.0874622742
 31
0.0
  0
LINE
  5
14F
330
1F
100
AcDbEntity
  8
0
  6
Continuous
 62
     7
370
    25
100
AcDbLine
 10
184.3198919115
 20
238.0874622742
 30
0.0
 11
184.1198919115
 21
237.8874622742
 31
0.0
  0
LINE
  5
150
330
1F
100
AcDbEntity
  8
0
  6
Continuous
 62
     7
370
    25
100
AcDbLine
 10
202.8198919115
 20
237.7374622742
 30
0.0
 11
202.8198919115
 21
237.8874622742
 31
0.0
  0
LINE
  5
151
330
1F
100
AcDbEntity
  8
0
  6
Continuous
 62
     7
370
    25
100
AcDbLine
 10
184.1198919115
 20
237.8874622742
 30
0.0
 11
184.1198919115
 21
237.7374622742
 31
0.0
  0
LINE
  5
152
330
1F
100
AcDbEntity
  8
0
  6
Continuous
 62
     7
370
    25
100
AcDbLine
 10
230.7959007691
 20
237.5224622742
 30
0.0
 11
230.6306935419
 21
237.7281190195
 31
0.0
  0
LINE
  5
153
330
1F
100
AcDbEntity
  8
0
  6
Continuous
 62
     7
370
    25
100
AcDbLine
 10
212.311126907
 20
237.7281190195
 30
0.0
 11
212.1459196798
 21
237.5224622742
 31
0.0
  0
ARC
  5
154
330
1F
100
AcDbEntity
  8
0
  6
Continuous
 62
     7
370
    25
100
AcDbCircle
 10
230.6112033821
 20
237.7124622742
 30
0.0
 40
0.0250000000000057
100
AcDbArc
 50
38.7754488191
 51
89.9999999999
  0
ARC
  5
155
330
1F
100
AcDbEntity
  8
0
  6
Continuous
 62
     7
370
    25
100
AcDbCircle
 10
212.3306170668
 20
237.7124622742
 30
0.0
 40
0.0250000000000275
100
AcDbArc
 50
90.0000000001
 51
141.2245511809
  0
LINE
  5
156
330
1F
100
AcDbEntity
  8
0
  6
Continuous
 62
     7
370
    25
100
AcDbLine
 10
202.7948824561
 20
237.5224622742
 30
0.0
 11
202.6296752289
 21
237.7281190195
 31
0.0
  0
LINE
  5
157
330
1F
100
AcDbEntity
  8
0
  6
Continuous
 62
     7
370
    25
100
AcDbLine
 10
184.310108594
 20
237.7281190195
 30
0.0
 11
184.1449013668
 21
237.5224622742
 31
0.0
  0
ARC
  5
158
330
1F
100
AcDbEntity
  8
0
  6
Continuous
 62
     7
370
    25
100
AcDbCircle
 10
202.6101850691
 20
237.7124622742
 30
0.0
 40
0.0250000000000232
100
AcDbArc
 50
38.7754488192
 51
89.9999999999
  0
ARC
  5
159
330
1F
100
AcDbEntity
  8
0
  6
Continuous
 62
     7
370
    25
100
AcDbCircle
 10
184.3295987538
 20
237.7124622742
 30
0.0
 40
0.0250000000000057
100
AcDbArc
 50
90.0000000001
 51
141.2245511808
  0
LINE
  5
15A
330
1F
100
AcDbEntity
  8
0
  6
Continuous
 62
     7
370
    25
100
AcDbLine
 10
247.9097733915
 20
224.5623161703
 30
0.0
 11
248.73722311
 21
225.2517557712
 31
0.0
  0
LINE
  5
15B
330
1F
100
AcDbEntity
  8
0
  6
Continuous
 62
     7
370
    25
100
AcDbLine
 10
246.244074604
 20
230.7213988849
 30
0.0
 11
245.9011629281
 21
230.7441835262
 31
0.0
  0
LINE
  5
15C
330
1F
100
AcDbEntity
  8
0
  6
Continuous
 62
     7
370
    25
100
AcDbLine
 10
246.9758262421
 20
230.6727779141
 30
0.0
 11
246.7129253053
 21
230.690246271
 31
0.0
  0
LINE
  5
15D
330
1F
100
AcDbEntity
  8
0
  6
Continuous
 62
     7
370
    25
100
AcDbLine
 10
247.0255311696
 20
230.6673538762
 30
0.0
 11
246.9758262421
 21
230.6727779141
 31
0.0
  0
LINE
  5
15E
330
1F
100
AcDbEntity
  8
0
  6
Continuous
 62
     7
370
    25
100
AcDbLine
 10
248.73722311
 20
225.2517557712
 30
0.0
 11
250.3133425262
 21
226.6822849479
 31
0.0
  0
ARC
  5
15F
330
1F
100
AcDbEntity
  8
0
  6
Continuous
 62
     7
370
    25
100
AcDbCircle
 10
250.2461346019
 20
226.756332871
 30
0.0
 40
0.0999999999999964
100
AcDbArc
 50
312.2277453179
 51
18.0
  0
LINE
  5
160
330
1F
100
AcDbEntity
  8
0
  6
Continuous
 62
     7
370
    25
100
AcDbLine
 10
246.9860542707
 20
226.9306747071
 30
0.0
 11
247.1263139503
 21
226.9735563945
 31
0.0
  0
LINE
  5
161
330
1F
100
AcDbEntity
  8
0
  6
Continuous
 62
     7
370
    25
100
AcDbLine
 10
246.3252865557
 20
230.7170049914
 30
0.0
 11
246.2436008721
 21
230.7224325669
 31
0.0
  0
LINE
  5
162
330
1F
100
AcDbEntity
  8
0
  6
Continuous
 62
     7
370
    25
100
AcDbLine
 10
246.7135287137
 20
230.6912083828
 30
0.0
 11
246.6336910438
 21
230.6965131676
 31
0.0
  0
LINE
  5
163
330
1F
100
AcDbEntity
  8
0
  6
Continuous
 62
     7
370
    25
100
AcDbLine
 10
183.2859102244
 20
192.4824622742
 30
0.0
 11
183.2859102244
 21
192.8824622742
 31
0.0
  0
LINE
  5
164
330
1F
100
AcDbEntity
  8
0
  6
Continuous
 62
     7
370
    25
100
AcDbLine
 10
177.5859102244
 20
192.8824622742
 30
0.0
 11
177.5859102244
 21
192.4824622742
 31
0.0
  0
ARC
  5
165
330
1F
100
AcDbEntity
  8
0
  6
Continuous
 62
     7
370
    25
100
AcDbCircle
 10
183.0859102244
 20
192.4824622742
 30
0.0
 40
0.1999999999999886
100
AcDbArc
 50
270.0
 51
0.0
  0
ARC
  5
166
330
1F
100
AcDbEntity
  8
0
  6
Continuous
 62
     7
370
    25
100
AcDbCircle
 10
177.7859102244
 20
192.4824622742
 30
0.0
 40
0.2000000000000171
100
AcDbArc
 50
180.0
 51
270.0
  0
ARC
  5
167
330
1F
100
AcDbEntity
  8
0
  6
Continuous
 62
     7
370
    25
100
AcDbCircle
 10
240.4859102244
 20
192.4824622742
 30
0.0
 40
0.1999999999999886
100
AcDbArc
 50
270.0
 51
0.0
  0
ARC
  5
168
330
1F
100
AcDbEntity
  8
0
  6
Continuous
 62
     7
370
    25
100
AcDbCircle
 10
235.1859102244
 20
192.4824622742
 30
0.0
 40
0.2000000000000171
100
AcDbArc
 50
180.0
 51
270.0
  0
LINE
  5
169
330
1F
100
AcDbEntity
  8
0
  6
Continuous
 62
     7
370
    25
100
AcDbLine
 10
240.6859102244
 20
192.4824622742
 30
0.0
 11
240.6859102244
 21
192.8824622742
 31
0.0
  0
LINE
  5
16A
330
1F
100
AcDbEntity
  8
0
  6
Continuous
 62
     7
370
    25
100
AcDbLine
 10
234.9859102244
 20
192.8824622742
 30
0.0
 11
234.9859102244
 21
192.4824622742
 31
0.0
  0
LINE
  5
16B
330
1F
100
AcDbEntity
  8
0
  6
Continuous
 62
     7
370
    25
100
AcDbLine
 10
240.6659102244
 20
192.8824622742
 30
0.0
 11
240.6659102244
 21
197.6824622742
 31
0.0
  0
LINE
  5
16C
330
1F
100
AcDbEntity
  8
0
  6
Continuous
 62
     7
370
    25
100
AcDbLine
 10
235.0059102244
 20
197.6824622742
 30
0.0
 11
235.0059102244
 21
192.8824622742
 31
0.0
  0
LINE
  5
16D
330
1F
100
AcDbEntity
  8
0
  6
Continuous
 62
     7
370
    25
100
AcDbLine
 10
183.2659102244
 20
192.8824622742
 30
0.0
 11
183.2659102244
 21
197.6824622742
 31
0.0
  0
LINE
  5
16E
330
1F
100
AcDbEntity
  8
0
  6
Continuous
 62
     7
370
    25
100
AcDbLine
 10
177.6059102244
 20
197.6824622742
 30
0.0
 11
177.6059102244
 21
192.8824622742
 31
0.0
  0
ARC
  5
16F
330
1F
100
AcDbEntity
  8
0
  6
Continuous
 62
     7
370
    25
100
AcDbCircle
 10
241.1759102244
 20
206.9324622742
 30
0.0
 40
0.1500000000000341
100
AcDbArc
 50
90.0
 51
180.0
  0
ARC
  5
170
330
1F
100
AcDbEntity
  8
0
  6
Continuous
 62
     7
370
    25
100
AcDbCircle
 10
234.4959102244
 20
206.9324622742
 30
0.0
 40
0.1500000000000057
100
AcDbArc
 50
0.0
 51
90.0
  0
ARC
  5
171
330
1F
100
AcDbEntity
  8
0
  6
Continuous
 62
     7
370
    25
100
AcDbCircle
 10
240.5559102244
 20
198.2857188688
 30
0.0
 40
0.4700000000000001
100
AcDbArc
 50
350.5402980318
 51
0.0
  0
ARC
  5
172
330
1F
100
AcDbEntity
  8
0
  6
Continuous
 62
     7
370
    25
100
AcDbCircle
 10
235.1159102244
 20
198.2857188688
 30
0.0
 40
0.4700000000000001
100
AcDbArc
 50
180.0
 51
189.4597019682
  0
LINE
  5
173
330
1F
100
AcDbEntity
  8
0
  6
Continuous
 62
     7
370
    25
100
AcDbLine
 10
241.0259102244
 20
198.2857188688
 30
0.0
 11
241.0259102244
 21
206.9324622742
 31
0.0
  0
LINE
  5
174
330
1F
100
AcDbEntity
  8
0
  6
Continuous
 62
     7
370
    25
100
AcDbLine
 10
234.6459102244
 20
206.9324622742
 30
0.0
 11
234.6459102244
 21
198.2857188688
 31
0.0
  0
LINE
  5
175
330
1F
100
AcDbEntity
  8
0
  6
Continuous
 62
     7
370
    25
100
AcDbLine
 10
234.6523015471
 20
198.2084725464
 30
0.0
 11
234.7399452024
 21
197.6824622742
 31
0.0
  0
LINE
  5
176
330
1F
100
AcDbEntity
  8
0
  6
Continuous
 62
     7
370
    25
100
AcDbLine
 10
240.9318752465
 20
197.6824622742
 30
0.0
 11
241.0195189017
 21
198.2084725464
 31
0.0
  0
ARC
  5
177
330
1F
100
AcDbEntity
  8
0
  6
Continuous
 62
     7
370
    25
100
AcDbCircle
 10
183.7759102244
 20
206.9324622742
 30
0.0
 40
0.1500000000000341
100
AcDbArc
 50
90.0
 51
180.0
  0
ARC
  5
178
330
1F
100
AcDbEntity
  8
0
  6
Continuous
 62
     7
370
    25
100
AcDbCircle
 10
177.0959102244
 20
206.9324622742
 30
0.0
 40
0.1500000000000057
100
AcDbArc
 50
0.0
 51
90.0
  0
LINE
  5
179
330
1F
100
AcDbEntity
  8
0
  6
Continuous
 62
     7
370
    25
100
AcDbLine
 10
183.6259102244
 20
198.2857188688
 30
0.0
 11
183.6259102244
 21
206.9324622742
 31
0.0
  0
LINE
  5
17A
330
1F
100
AcDbEntity
  8
0
  6
Continuous
 62
     7
370
    25
100
AcDbLine
 10
177.2459102244
 20
206.9324622742
 30
0.0
 11
177.2459102244
 21
198.2857188688
 31
0.0
  0
ARC
  5
17B
330
1F
100
AcDbEntity
  8
0
  6
Continuous
 62
     7
370
    25
100
AcDbCircle
 10
183.1559102244
 20
198.2857188688
 30
0.0
 40
0.4700000000000001
100
AcDbArc
 50
350.5402980318
 51
0.0
  0
ARC
  5
17C
330
1F
100
AcDbEntity
  8
0
  6
Continuous
 62
     7
370
    25
100
AcDbCircle
 10
177.7159102244
 20
198.2857188688
 30
0.0
 40
0.4700000000000001
100
AcDbArc
 50
180.0
 51
189.4597019682
  0
LINE
  5
17D
330
1F
100
AcDbEntity
  8
0
  6
Continuous
 62
     7
370
    25
100
AcDbLine
 10
177.2523015471
 20
198.2084725464
 30
0.0
 11
177.3399452024
 21
197.6824622742
 31
0.0
  0
LINE
  5
17E
330
1F
100
AcDbEntity
  8
0
  6
Continuous
 62
     7
370
    25
100
AcDbLine
 10
183.5318752465
 20
197.6824622742
 30
0.0
 11
183.6195189017
 21
198.2084725464
 31
0.0
  0
LINE
  5
17F
330
1F
100
AcDbEntity
  8
0
  6
Continuous
 62
     7
370
    25
100
AcDbLine
 10
246.6359102244
 20
219.5524622742
 30
0.0
 11
246.6359102244
 21
219.6024622742
 31
0.0
  0
LINE
  5
180
330
1F
100
AcDbEntity
  8
0
  6
Continuous
 62
     7
370
    25
100
AcDbLine
 10
245.8359102244
 20
219.6024622742
 30
0.0
 11
245.8359102244
 21
219.5524622742
 31
0.0
  0
LINE
  5
181
330
1F
100
AcDbEntity
  8
0
  6
Continuous
 62
     7
370
    25
100
AcDbLine
 10
248.0759102244
 20
219.5524622742
 30
0.0
 11
248.0759102244
 21
219.6024622742
 31
0.0
  0
LINE
  5
182
330
1F
100
AcDbEntity
  8
0
  6
Continuous
 62
     7
370
    25
100
AcDbLine
 10
247.2759102244
 20
219.6024622742
 30
0.0
 11
247.2759102244
 21
219.5524622742
 31
0.0
  0
LINE
  5
183
330
1F
100
AcDbEntity
  8
0
  6
Continuous
 62
     7
370
    25
100
AcDbLine
 10
243.4059102244
 20
231.7324622742
 30
0.0
 11
245.0614596958
 21
231.7324622742
 31
0.0
  0
LINE
  5
184
330
1F
100
AcDbEntity
  8
0
  6
Continuous
 62
     7
370
    25
100
AcDbLine
 10
245.0614596958
 20
231.7324622742
 30
0.0
 11
245.0614596958
 21
231.6824622742
 31
0.0
  0
LINE
  5
185
330
1F
100
AcDbEntity
  8
0
  6
Continuous
 62
     7
370
    25
100
AcDbLine
 10
245.0614596958
 20
231.6824622742
 30
0.0
 11
243.4059102244
 21
231.6824622742
 31
0.0
  0
LINE
  5
186
330
1F
100
AcDbEntity
  8
0
  6
Continuous
 62
     7
370
    25
100
AcDbLine
 10
243.4059102244
 20
231.7324622742
 30
0.0
 11
243.4059102244
 21
231.6824622742
 31
0.0
  0
ARC
  5
187
330
1F
100
AcDbEntity
  8
0
  6
Continuous
 62
     7
370
    25
100
AcDbCircle
 10
243.4059102244
 20
231.6024622742
 30
0.0
 40
0.1299999999999955
100
AcDbArc
 50
90.0
 51
180.0
  0
ARC
  5
188
330
1F
100
AcDbEntity
  8
0
  6
Continuous
 62
     7
370
    25
100
AcDbCircle
 10
243.4059102244
 20
231.6024622742
 30
0.0
 40
0.0799999999999841
100
AcDbArc
 50
90.0
 51
180.0
  0
LINE
  5
189
330
1F
100
AcDbEntity
  8
0
  6
Continuous
 62
     7
370
    25
100
AcDbLine
 10
243.2759102244
 20
231.6024622742
 30
0.0
 11
243.3259102244
 21
231.6024622742
 31
0.0
  0
ARC
  5
18A
330
1F
100
AcDbEntity
  8
0
  6
Continuous
 62
     7
370
    25
100
AcDbCircle
 10
243.4059102244
 20
219.8124622742
 30
0.0
 40
0.1299999999999955
100
AcDbArc
 50
180.0
 51
270.0
  0
LINE
  5
18B
330
1F
100
AcDbEntity
  8
0
  6
Continuous
 62
     7
370
    25
100
AcDbLine
 10
243.2759102244
 20
219.8124622742
 30
0.0
 11
243.3259102244
 21
219.8124622742
 31
0.0
  0
ARC
  5
18C
330
1F
100
AcDbEntity
  8
0
  6
Continuous
 62
     7
370
    25
100
AcDbCircle
 10
243.4059102244
 20
219.8124622742
 30
0.0
 40
0.0800000000000125
100
AcDbArc
 50
180.0
 51
270.0
  0
LINE
  5
18D
330
1F
100
AcDbEntity
  8
0
  6
Continuous
 62
     7
370
    25
100
AcDbLine
 10
243.4059102244
 20
219.7324622742
 30
0.0
 11
243.4059102244
 21
219.6824622742
 31
0.0
  0
LINE
  5
18E
330
1F
100
AcDbEntity
  8
0
  6
Continuous
 62
     7
370
    25
100
AcDbLine
 10
243.2759102244
 20
219.8124622742
 30
0.0
 11
243.2759102244
 21
231.6024622742
 31
0.0
  0
LINE
  5
18F
330
1F
100
AcDbEntity
  8
0
  6
Continuous
 62
     7
370
    25
100
AcDbLine
 10
243.3259102244
 20
231.6024622742
 30
0.0
 11
243.3259102244
 21
219.8124622742
 31
0.0
  0
LINE
  5
190
330
1F
100
AcDbEntity
  8
0
  6
Continuous
 62
     7
370
    25
100
AcDbLine
 10
243.4059102244
 20
219.7324622742
 30
0.0
 11
250.6459102244
 21
219.7324622742
 31
0.0
  0
LINE
  5
191
330
1F
100
AcDbEntity
  8
0
  6
Continuous
 62
     7
370
    25
100
AcDbLine
 10
250.6459102244
 20
219.7324622742
 30
0.0
 11
250.6459102244
 21
219.6824622742
 31
0.0
  0
ARC
  5
192
330
1F
100
AcDbEntity
  8
0
  6
Continuous
 62
     7
370
    25
100
AcDbCircle
 10
250.6459102244
 20
222.4914352943
 30
0.0
 40
0.0800000000000125
100
AcDbArc
 50
0.0
 51
70.0
  0
LINE
  5
193
330
1F
100
AcDbEntity
  8
0
  6
Continuous
 62
     7
370
    25
100
AcDbLine
 10
250.7259102244
 20
219.8124622742
 30
0.0
 11
250.7259102244
 21
222.4914352943
 31
0.0
  0
ARC
  5
194
330
1F
100
AcDbEntity
  8
0
  6
Continuous
 62
     7
370
    25
100
AcDbCircle
 10
250.6459102244
 20
219.8124622742
 30
0.0
 40
0.0800000000000125
100
AcDbArc
 50
270.0
 51
0.0
  0
ARC
  5
195
330
1F
100
AcDbEntity
  8
0
  6
Continuous
 62
     7
370
    25
100
AcDbCircle
 10
245.0614596958
 20
231.6024622742
 30
0.0
 40
0.0799999999999936
100
AcDbArc
 50
18.0
 51
90.0
  0
LINE
  5
196
330
1F
100
AcDbEntity
  8
0
  6
Continuous
 62
     7
370
    25
100
AcDbLine
 10
247.7067588911
 20
223.7199539281
 30
0.0
 11
245.1375442171
 21
231.6271836338
 31
0.0
  0
ARC
  5
197
330
1F
100
AcDbEntity
  8
0
  6
Continuous
 62
     7
370
    25
100
AcDbCircle
 10
247.877949064
 20
223.7755769871
 30
0.0
 40
0.1800000000000012
100
AcDbArc
 50
198.0
 51
250.0
  0
LINE
  5
198
330
1F
100
AcDbEntity
  8
0
  6
Continuous
 62
     7
370
    25
100
AcDbLine
 10
250.6732718359
 20
222.5666107039
 30
0.0
 11
247.8163854382
 21
223.6064323154
 31
0.0
  0
LINE
  5
199
330
1F
100
AcDbEntity
  8
0
  6
Continuous
 62
     7
370
    25
100
AcDbLine
 10
245.1850970429
 20
231.6426344835
 30
0.0
 11
247.7543117169
 21
223.7354047778
 31
0.0
  0
LINE
  5
19A
330
1F
100
AcDbEntity
  8
0
  6
Continuous
 62
     7
370
    25
100
AcDbLine
 10
247.7543117169
 20
223.7354047778
 30
0.0
 11
247.7067588911
 21
223.7199539281
 31
0.0
  0
LINE
  5
19B
330
1F
100
AcDbEntity
  8
0
  6
Continuous
 62
     7
370
    25
100
AcDbLine
 10
245.1850970429
 20
231.6426344835
 30
0.0
 11
245.1375442171
 21
231.6271836338
 31
0.0
  0
ARC
  5
19C
330
1F
100
AcDbEntity
  8
0
  6
Continuous
 62
     7
370
    25
100
AcDbCircle
 10
245.0614596958
 20
231.6024622742
 30
0.0
 40
0.1300000000000062
100
AcDbArc
 50
18.0
 51
90.0
  0
ARC
  5
19D
330
1F
100
AcDbEntity
  8
0
  6
Continuous
 62
     7
370
    25
100
AcDbCircle
 10
247.877949064
 20
223.7755769871
 30
0.0
 40
0.1299999999999974
100
AcDbArc
 50
198.0
 51
250.0
  0
LINE
  5
19E
330
1F
100
AcDbEntity
  8
0
  6
Continuous
 62
     7
370
    25
100
AcDbLine
 10
247.8163854382
 20
223.6064323154
 30
0.0
 11
247.8334864454
 21
223.6534169464
 31
0.0
  0
LINE
  5
19F
330
1F
100
AcDbEntity
  8
0
  6
Continuous
 62
     7
370
    25
100
AcDbLine
 10
247.8334864454
 20
223.6534169464
 30
0.0
 11
250.6903728431
 21
222.613595335
 31
0.0
  0
LINE
  5
1A0
330
1F
100
AcDbEntity
  8
0
  6
Continuous
 62
     7
370
    25
100
AcDbLine
 10
250.6732718359
 20
222.5666107039
 30
0.0
 11
250.6903728431
 21
222.613595335
 31
0.0
  0
LINE
  5
1A1
330
1F
100
AcDbEntity
  8
0
  6
Continuous
 62
     7
370
    25
100
AcDbLine
 10
250.7259102244
 20
219.8124622742
 30
0.0
 11
250.7759102244
 21
219.8124622742
 31
0.0
  0
ARC
  5
1A2
330
1F
100
AcDbEntity
  8
0
  6
Continuous
 62
     7
370
    25
100
AcDbCircle
 10
250.6459102244
 20
219.8124622742
 30
0.0
 40
0.1300000000000239
100
AcDbArc
 50
270.0
 51
0.0
  0
ARC
  5
1A3
330
1F
100
AcDbEntity
  8
0
  6
Continuous
 62
     7
370
    25
100
AcDbCircle
 10
250.6459102244
 20
222.4914352943
 30
0.0
 40
0.1300000000000239
100
AcDbArc
 50
0.0
 51
70.0
  0
LINE
  5
1A4
330
1F
100
AcDbEntity
  8
0
  6
Continuous
 62
     7
370
    25
100
AcDbLine
 10
250.7259102244
 20
222.4914352943
 30
0.0
 11
250.7759102244
 21
222.4914352943
 31
0.0
  0
LINE
  5
1A5
330
1F
100
AcDbEntity
  8
0
  6
Continuous
 62
     7
370
    25
100
AcDbLine
 10
246.4485876386
 20
232.4089726753
 30
0.0
 11
245.8091058183
 21
232.1242570252
 31
0.0
  0
LINE
  5
1A6
330
1F
100
AcDbEntity
  8
0
  6
Continuous
 62
     7
370
    25
100
AcDbLine
 10
250.6509102244
 20
219.6824622742
 30
0.0
 11
250.6509102244
 21
219.6024622742
 31
0.0
  0
LINE
  5
1A7
330
1F
100
AcDbEntity
  8
0
  6
Continuous
 62
     7
370
    25
100
AcDbLine
 10
243.4759102244
 20
219.6024622742
 30
0.0
 11
250.6509102244
 21
219.6024622742
 31
0.0
  0
LINE
  5
1A8
330
1F
100
AcDbEntity
  8
0
  6
Continuous
 62
     7
370
    25
100
AcDbLine
 10
243.4759102244
 20
219.6824622742
 30
0.0
 11
243.4759102244
 21
219.6024622742
 31
0.0
  0
LINE
  5
1A9
330
1F
100
AcDbEntity
  8
0
  6
Continuous
 62
     7
370
    25
100
AcDbLine
 10
243.4759102244
 20
219.6824622742
 30
0.0
 11
250.6509102244
 21
219.6824622742
 31
0.0
  0
LINE
  5
1AA
330
1F
100
AcDbEntity
  8
0
  6
Continuous
 62
     7
370
    25
100
AcDbLine
 10
243.4652324665
 20
231.818175643
 30
0.0
 11
243.4652324665
 21
231.738175643
 31
0.0
  0
LINE
  5
1AB
330
1F
100
AcDbEntity
  8
0
  6
Continuous
 62
     7
370
    25
100
AcDbLine
 10
243.2652324665
 20
231.738175643
 30
0.0
 11
243.2652324665
 21
231.818175643
 31
0.0
  0
LINE
  5
1AC
330
1F
100
AcDbEntity
  8
0
  6
Continuous
 62
     7
370
    25
100
AcDbLine
 10
243.4652324665
 20
231.738175643
 30
0.0
 11
243.2652324665
 21
231.738175643
 31
0.0
  0
LINE
  5
1AD
330
1F
100
AcDbEntity
  8
0
  6
Continuous
 62
     7
370
    25
100
AcDbLine
 10
243.2652324665
 20
231.818175643
 30
0.0
 11
243.4652324665
 21
231.818175643
 31
0.0
  0
LINE
  5
1AE
330
1F
100
AcDbEntity
  8
0
  6
Continuous
 62
     7
370
    25
100
AcDbLine
 10
245.0744146505
 20
231.738175643
 30
0.0
 11
245.0744146505
 21
231.818175643
 31
0.0
  0
LINE
  5
1AF
330
1F
100
AcDbEntity
  8
0
  6
Continuous
 62
     7
370
    25
100
AcDbLine
 10
245.0744146505
 20
231.738175643
 30
0.0
 11
243.4652324665
 21
231.738175643
 31
0.0
  0
LINE
  5
1B0
330
1F
100
AcDbEntity
  8
0
  6
Continuous
 62
     7
370
    25
100
AcDbLine
 10
245.0744146505
 20
231.818175643
 30
0.0
 11
243.4652324665
 21
231.818175643
 31
0.0
  0
LINE
  5
1B1
330
1F
100
AcDbEntity
  8
0
  6
Continuous
 62
     7
370
    25
100
AcDbLine
 10
243.2759102244
 20
219.6024622742
 30
0.0
 11
243.2759102244
 21
219.6824622742
 31
0.0
  0
LINE
  5
1B2
330
1F
100
AcDbEntity
  8
0
  6
Continuous
 62
     7
370
    25
100
AcDbLine
 10
243.4759102244
 20
219.6024622742
 30
0.0
 11
243.2759102244
 21
219.6024622742
 31
0.0
  0
LINE
  5
1B3
330
1F
100
AcDbEntity
  8
0
  6
Continuous
 62
     7
370
    25
100
AcDbLine
 10
243.2759102244
 20
219.6824622742
 30
0.0
 11
243.4759102244
 21
219.6824622742
 31
0.0
  0
LINE
  5
1B4
330
1F
100
AcDbEntity
  8
0
  6
Continuous
 62
     7
370
    25
100
AcDbLine
 10
247.8244003731
 20
223.8129837925
 30
0.0
 11
245.2693812363
 21
231.6765241269
 31
0.0
  0
LINE
  5
1B5
330
1F
100
AcDbEntity
  8
0
  6
Continuous
 62
     7
370
    25
100
AcDbLine
 10
247.8244003731
 20
223.8129837925
 30
0.0
 11
247.7483158518
 21
223.7882624329
 31
0.0
  0
LINE
  5
1B6
330
1F
100
AcDbEntity
  8
0
  6
Continuous
 62
     7
370
    25
100
AcDbLine
 10
247.7483158518
 20
223.7882624329
 30
0.0
 11
245.193296715
 21
231.6518027673
 31
0.0
  0
LINE
  5
1B7
330
1F
100
AcDbEntity
  8
0
  6
Continuous
 62
     7
370
    25
100
AcDbLine
 10
245.193296715
 20
231.6518027673
 30
0.0
 11
245.2693812363
 21
231.6765241269
 31
0.0
  0
ARC
  5
1B8
330
1F
100
AcDbEntity
  8
0
  6
Continuous
 62
     7
370
    25
100
AcDbCircle
 10
245.0744146505
 20
231.613175643
 30
0.0
 40
0.2050000000000125
100
AcDbArc
 50
18.0
 51
90.0
  0
ARC
  5
1B9
330
1F
100
AcDbEntity
  8
0
  6
Continuous
 62
     7
370
    25
100
AcDbCircle
 10
245.0744146505
 20
231.613175643
 30
0.0
 40
0.125
100
AcDbArc
 50
18.0
 51
90.0
  0
LINE
  5
1BA
330
1F
100
AcDbEntity
  8
0
  6
Continuous
 62
     7
370
    25
100
AcDbLine
 10
247.9005299197
 20
223.7341493392
 30
0.0
 11
247.8731683083
 21
223.6589739295
 31
0.0
  0
ARC
  5
1BB
330
1F
100
AcDbEntity
  8
0
  6
Continuous
 62
     7
370
    25
100
AcDbCircle
 10
247.9432824376
 20
223.8516109168
 30
0.0
 40
0.2050000000000182
100
AcDbArc
 50
198.0
 51
250.0
  0
ARC
  5
1BC
330
1F
100
AcDbEntity
  8
0
  6
Continuous
 62
     7
370
    25
100
AcDbCircle
 10
247.9432824376
 20
223.8516109168
 30
0.0
 40
0.1250000000000291
100
AcDbArc
 50
198.0
 51
250.0
  0
LINE
  5
1BD
330
1F
100
AcDbEntity
  8
0
  6
Continuous
 62
     7
370
    25
100
AcDbLine
 10
250.6936627424
 20
222.6323979096
 30
0.0
 11
250.7210243538
 21
222.7075733192
 31
0.0
  0
LINE
  5
1BE
330
1F
100
AcDbEntity
  8
0
  6
Continuous
 62
     7
370
    25
100
AcDbLine
 10
250.7210243538
 20
222.7075733192
 30
0.0
 11
247.9005299197
 21
223.7341493392
 31
0.0
  0
LINE
  5
1BF
330
1F
100
AcDbEntity
  8
0
  6
Continuous
 62
     7
370
    25
100
AcDbLine
 10
250.6936627424
 20
222.6323979096
 30
0.0
 11
247.8731683083
 21
223.6589739295
 31
0.0
  0
LINE
  5
1C0
330
1F
100
AcDbEntity
  8
0
  6
Continuous
 62
     7
370
    25
100
AcDbLine
 10
250.8559102244
 20
222.514936332
 30
0.0
 11
250.8559102244
 21
219.8074622742
 31
0.0
  0
LINE
  5
1C1
330
1F
100
AcDbEntity
  8
0
  6
Continuous
 62
     7
370
    25
100
AcDbLine
 10
250.7759102244
 20
219.8074622742
 30
0.0
 11
250.8559102244
 21
219.8074622742
 31
0.0
  0
LINE
  5
1C2
330
1F
100
AcDbEntity
  8
0
  6
Continuous
 62
     7
370
    25
100
AcDbLine
 10
250.7759102244
 20
222.514936332
 30
0.0
 11
250.8559102244
 21
222.514936332
 31
0.0
  0
LINE
  5
1C3
330
1F
100
AcDbEntity
  8
0
  6
Continuous
 62
     7
370
    25
100
AcDbLine
 10
250.7759102244
 20
222.514936332
 30
0.0
 11
250.7759102244
 21
219.8074622742
 31
0.0
  0
ARC
  5
1C4
330
1F
100
AcDbEntity
  8
0
  6
Continuous
 62
     7
370
    25
100
AcDbCircle
 10
250.6509102244
 20
222.514936332
 30
0.0
 40
0.2050000000000125
100
AcDbArc
 50
0.0
 51
70.0
  0
ARC
  5
1C5
330
1F
100
AcDbEntity
  8
0
  6
Continuous
 62
     7
370
    25
100
AcDbCircle
 10
250.6509102244
 20
222.514936332
 30
0.0
 40
0.125
100
AcDbArc
 50
0.0
 51
70.0
  0
ARC
  5
1C6
330
1F
100
AcDbEntity
  8
0
  6
Continuous
 62
     7
370
    25
100
AcDbCircle
 10
250.6509102244
 20
219.8074622742
 30
0.0
 40
0.125
100
AcDbArc
 50
270.0
 51
0.0
  0
ARC
  5
1C7
330
1F
100
AcDbEntity
  8
0
  6
Continuous
 62
     7
370
    25
100
AcDbCircle
 10
250.6509102244
 20
219.8074622742
 30
0.0
 40
0.2050000000000125
100
AcDbArc
 50
270.0
 51
0.0
  0
LINE
  5
1C8
330
1F
100
AcDbEntity
  8
0
  6
Continuous
 62
     7
370
    25
100
AcDbLine
 10
246.1673255106
 20
232.426049424
 30
0.0
 11
246.199864442
 21
232.3529657874
 31
0.0
  0
LINE
  5
1C9
330
1F
100
AcDbEntity
  8
0
  6
Continuous
 62
     7
370
    25
100
AcDbLine
 10
246.6240982394
 20
232.6294177456
 30
0.0
 11
246.6566371709
 21
232.556334109
 31
0.0
  0
LINE
  5
1CA
330
1F
100
AcDbEntity
  8
0
  6
Continuous
 62
     7
370
    25
100
AcDbLine
 10
246.199864442
 20
232.3529657874
 30
0.0
 11
246.6566371709
 21
232.556334109
 31
0.0
  0
LINE
  5
1CB
330
1F
100
AcDbEntity
  8
0
  6
Continuous
 62
     7
370
    25
100
AcDbLine
 10
246.1673255106
 20
232.426049424
 30
0.0
 11
246.6240982394
 21
232.6294177456
 31
0.0
  0
LINE
  5
1CC
330
1F
100
AcDbEntity
  8
0
  6
Continuous
 62
     7
370
    25
100
AcDbLine
 10
245.2297444576
 20
231.7985135883
 30
0.0
 11
245.2693812363
 21
231.6765241269
 31
0.0
  0
LINE
  5
1CD
330
1F
100
AcDbEntity
  8
0
  6
Continuous
 62
     7
370
    25
100
AcDbLine
 10
245.2977844417
 20
231.9513338948
 30
0.0
 11
246.199864442
 21
232.3529657874
 31
0.0
  0
LINE
  5
1CE
330
1F
100
AcDbEntity
  8
0
  6
Continuous
 62
     7
370
    25
100
AcDbLine
 10
245.2977844417
 20
231.9513338948
 30
0.0
 11
245.2652455103
 21
232.0244175314
 31
0.0
  0
LINE
  5
1CF
330
1F
100
AcDbEntity
  8
0
  6
Continuous
 62
     7
370
    25
100
AcDbLine
 10
245.2652455103
 20
232.0244175314
 30
0.0
 11
246.1673255106
 21
232.426049424
 31
0.0
  0
ARC
  5
1D0
330
1F
100
AcDbEntity
  8
0
  6
Continuous
 62
     7
370
    25
100
AcDbCircle
 10
245.3486265221
 20
231.8371407126
 30
0.0
 40
0.2050000000000075
100
AcDbArc
 50
114.0
 51
188.956998446
  0
ARC
  5
1D1
330
1F
100
AcDbEntity
  8
0
  6
Continuous
 62
     7
370
    25
100
AcDbCircle
 10
245.3486265221
 20
231.8371407126
 30
0.0
 40
0.1250000000000311
100
AcDbArc
 50
114.0
 51
198.0
  0
ARC
  5
1D2
330
1F
100
AcDbEntity
  8
0
  6
Continuous
 62
     7
370
    25
100
AcDbCircle
 10
245.3761989311
 20
231.7522815634
 30
0.0
 40
0.125
100
AcDbArc
 50
153.0
 51
198.0
  0
LINE
  5
1D3
330
1F
100
AcDbEntity
  8
0
  6
Continuous
 62
     7
370
    25
100
AcDbLine
 10
245.3489339104
 20
231.9741071055
 30
0.0
 11
245.2648231156
 21
231.8090303759
 31
0.0
  0
LINE
  5
1D4
330
1F
100
AcDbEntity
  8
0
  6
Continuous
 62
     7
370
    25
100
AcDbLine
 10
245.3062336158
 20
232.0665181998
 30
0.0
 11
245.2932979153
 21
232.0411304582
 31
0.0
  0
LINE
  5
1D5
330
1F
100
AcDbEntity
  8
0
  6
Continuous
 62
     7
370
    25
100
AcDbLine
 10
245.3135502802
 20
232.0808779623
 30
0.0
 11
245.3062336158
 21
232.0665181998
 31
0.0
  0
LINE
  5
1D6
330
1F
100
AcDbEntity
  8
0
  6
Continuous
 62
     7
370
    25
100
AcDbLine
 10
245.4235850203
 20
232.1206181579
 30
0.0
 11
245.406645754
 21
232.0873729761
 31
0.0
  0
SPLINE
  5
1D7
330
1F
100
AcDbEntity
  8
0
  6
Continuous
 62
     7
370
    25
100
AcDbSpline
210
0.0
220
0.0
230
1.0
 70
     8
 71
     3
 72
    12
 73
     8
 74
     0
 42
0.00000001
 43
0.00000001
 40
0.0
 40
0.0
 40
0.0
 40
0.0
 40
0.2906366786332795
 40
0.5020043835353879
 40
0.7239716488865109
 40
0.8550908240665198
 40
1.0
 40
1.0
 40
1.0
 40
1.0
 10
172.6159102244385
 20
237.3174622742444
 30
0.0
 10
172.5869826218674
 20
237.3350716383859
 30
0.0
 10
172.5370172033108
 20
237.3654875447053
 30
0.0
 10
172.4735933281561
 20
237.4048649532473
 30
0.0
 10
172.4348023039137
 20
237.4241335295186
 30
0.0
 10
172.4143610980034
 20
237.4353694988373
 30
0.0
 10
172.4120981994049
 20
237.4395568793114
 30
0.0
 10
172.4109102244385
 20
237.4417551674632
 30
0.0
  0
LINE
  5
1D8
330
1F
100
AcDbEntity
  8
0
  6
Continuous
 62
     7
370
    25
100
AcDbLine
 10
172.4109102244
 20
237.4417551675
 30
0.0
 11
172.4909102244
 21
237.4417551675
 31
0.0
  0
SPLINE
  5
1D9
330
1F
100
AcDbEntity
  8
0
  6
Continuous
 62
     7
370
    25
100
AcDbSpline
210
0.0
220
0.0
230
1.0
 70
     8
 71
     3
 72
    13
 73
     9
 74
     0
 42
0.00000001
 43
0.00000001
 40
0.0
 40
0.0
 40
0.0
 40
0.0
 40
0.3128196703270713
 40
0.531968484896145
 40
0.6352256299934308
 40
0.7467764941728903
 40
0.8680092841100715
 40
1.0
 40
1.0
 40
1.0
 40
1.0
 10
172.6159102244385
 20
237.3174622742444
 30
0.0
 10
172.5983805250208
 20
237.3349587466153
 30
0.0
 10
172.5685702268698
 20
237.3647125401936
 30
0.0
 10
172.5360691240706
 20
237.3978097264295
 30
0.0
 10
172.5160371237433
 20
237.4156198735405
 30
0.0
 10
172.5030552171419
 20
237.4263038658815
 30
0.0
 10
172.4930385766027
 20
237.4353333893538
 30
0.0
 10
172.4916394880793
 20
237.4395547941588
 30
0.0
 10
172.4909102244385
 20
237.4417551674632
 30
0.0
  0
SPLINE
  5
1DA
330
1F
100
AcDbEntity
  8
0
  6
Continuous
 62
     7
370
    25
100
AcDbSpline
210
0.0
220
0.0
230
1.0
 70
     8
 71
     3
 72
    12
 73
     8
 74
     0
 42
0.00000001
 43
0.00000001
 40
0.0
 40
0.0
 40
0.0
 40
0.0
 40
0.2301693782020225
 40
0.460422164295807
 40
0.6906753391243099
 40
0.9209283614224882
 40
1.0
 40
1.0
 40
1.0
 40
1.0
 10
172.4916173312197
 20
237.5224622742443
 30
0.0
 10
172.501156287695
 20
237.5198545434149
 30
0.0
 10
172.5202376573361
 20
237.5146381367767
 30
0.0
 10
172.5488668315959
 20
237.4741671383058
 30
0.0
 10
172.5774783445996
 20
237.4153643527301
 30
0.0
 10
172.5998898253405
 20
237.3589618881469
 30
0.0
 10
172.6126487123975
 20
237.3259109707851
 30
0.0
 10
172.6159102244385
 20
237.3174622742444
 30
0.0
  0
SPLINE
  5
1DB
330
1F
100
AcDbEntity
  8
0
  6
Continuous
 62
     7
370
    25
100
AcDbSpline
210
0.0
220
0.0
230
1.0
 70
     8
 71
     3
 72
    11
 73
     7
 74
     0
 42
0.00000001
 43
0.00000001
 40
0.0
 40
0.0
 40
0.0
 40
0.0
 40
0.254303027968589
 40
0.5087793961835926
 40
0.7632567853906778
 40
1.0
 40
1.0
 40
1.0
 40
1.0
 10
172.4916173312197
 20
237.4424622742443
 30
0.0
 10
172.5021550140738
 20
237.4405164070853
 30
0.0
 10
172.5232375625692
 20
237.4366233464084
 30
0.0
 10
172.5548630861383
 20
237.4067262131056
 30
0.0
 10
172.5857698100789
 20
237.3651290842412
 30
0.0
 10
172.6061081732863
 20
237.3329641351105
 30
0.0
 10
172.6159102244385
 20
237.3174622742444
 30
0.0
  0
LINE
  5
1DC
330
1F
100
AcDbEntity
  8
0
  6
Continuous
 62
     7
370
    25
100
AcDbLine
 10
172.4916173312
 20
237.4424622742
 30
0.0
 11
172.4916173312
 21
237.5224622742
 31
0.0
  0
SPLINE
  5
1DD
330
1F
100
AcDbEntity
  8
0
  6
Continuous
 62
     7
370
    25
100
AcDbSpline
210
0.0
220
0.0
230
1.0
 70
     8
 71
     3
 72
    12
 73
     8
 74
     0
 42
0.00000001
 43
0.00000001
 40
0.0
 40
0.0
 40
0.0
 40
0.0
 40
0.2286697549031537
 40
0.4574134284523582
 40
0.6861574263646436
 40
0.9149012395109258
 40
1.0
 40
1.0
 40
1.0
 40
1.0
 10
172.4109102244385
 20
233.8495333420563
 30
0.0
 10
172.4134838392627
 20
233.8585250914631
 30
0.0
 10
172.418631900845
 20
233.8765114969049
 30
0.0
 10
172.4585931205081
 20
233.9034973934316
 30
0.0
 10
172.516729753908
 20
233.9304672029715
 30
0.0
 10
172.5732800477567
 20
233.9518480339245
 30
0.0
 10
172.6068167189911
 20
233.9641315777646
 30
0.0
 10
172.6159102244385
 20
233.9674622742444
 30
0.0
  0
LINE
  5
1DE
330
1F
100
AcDbEntity
  8
0
  6
Continuous
 62
     7
370
    25
100
AcDbLine
 10
172.4109102244
 20
237.4417551675
 30
0.0
 11
172.4109102244
 21
233.8495333421
 31
0.0
  0
LINE
  5
1DF
330
1F
100
AcDbEntity
  8
0
  6
Continuous
 62
     7
370
    25
100
AcDbLine
 10
172.6159102244
 20
237.3174622742
 30
0.0
 11
172.6159102244
 21
233.9674622742
 31
0.0
  0
LINE
  5
1E0
330
1F
100
AcDbEntity
  8
0
  6
Continuous
 62
     7
370
    25
100
AcDbLine
 10
172.6159102244
 20
237.3174622742
 30
0.0
 11
237.5199102244
 21
237.3174622742
 31
0.0
  0
LINE
  5
1E1
330
1F
100
AcDbEntity
  8
0
  6
Continuous
 62
     7
370
    25
100
AcDbLine
 10
237.5199102244
 20
233.9674622742
 30
0.0
 11
237.5199102244
 21
237.3174622742
 31
0.0
  0
LINE
  5
1E2
330
1F
100
AcDbEntity
  8
0
  6
Continuous
 62
     7
370
    25
100
AcDbLine
 10
172.6159102244
 20
233.9674622742
 30
0.0
 11
237.5199102244
 21
233.9674622742
 31
0.0
  0
SPLINE
  5
1E3
330
1F
100
AcDbEntity
  8
0
  6
Continuous
 62
     7
370
    25
100
AcDbSpline
210
0.0
220
0.0
230
1.0
 70
     8
 71
     3
 72
    13
 73
     9
 74
     0
 42
0.00000001
 43
0.00000001
 40
0.0
 40
0.0
 40
0.0
 40
0.0
 40
0.2919673731541619
 40
0.4989985378397952
 40
0.6171473760988202
 40
0.7393217975607352
 40
0.8666167245948695
 40
1.0
 40
1.0
 40
1.0
 40
1.0
 10
172.6159102244385
 20
233.9674622742444
 30
0.0
 10
172.5985861568182
 20
233.938282561459
 30
0.0
 10
172.5689777648991
 20
233.8884118041303
 30
0.0
 10
172.536029297031
 20
233.8344954964109
 30
0.0
 10
172.5182370964552
 20
233.8016347203243
 30
0.0
 10
172.5078157152724
 20
233.780410791378
 30
0.0
 10
172.5006584002416
 20
233.7654443796615
 30
0.0
 10
172.4988874489101
 20
233.7634716674749
 30
0.0
 10
172.4979812922504
 20
233.7624622742444
 30
0.0
  0
LINE
  5
1E4
330
1F
100
AcDbEntity
  8
0
  6
Continuous
 62
     7
370
    25
100
AcDbLine
 10
172.4979812923
 20
233.7624622742
 30
0.0
 11
172.4979812923
 21
233.8424622742
 31
0.0
  0
SPLINE
  5
1E5
330
1F
100
AcDbEntity
  8
0
  6
Continuous
 62
     7
370
    25
100
AcDbSpline
210
0.0
220
0.0
230
1.0
 70
     8
 71
     3
 72
    13
 73
     9
 74
     0
 42
0.00000001
 43
0.00000001
 40
0.0
 40
0.0
 40
0.0
 40
0.0
 40
0.3144470445574898
 40
0.5298727783953213
 40
0.6464002267881407
 40
0.7620893832452761
 40
0.8792227384027785
 40
1.0
 40
1.0
 40
1.0
 40
1.0
 10
172.6159102244385
 20
233.9674622742444
 30
0.0
 10
172.5986981843099
 20
233.9497740176645
 30
0.0
 10
172.569694281482
 20
233.9199676454274
 30
0.0
 10
172.5366671573383
 20
233.8870615079564
 30
0.0
 10
172.5184853004607
 20
233.8666462778458
 30
0.0
 10
172.5079371575067
 20
233.853563673922
 30
0.0
 10
172.5006912950588
 20
233.8443146931232
 30
0.0
 10
172.4988938034834
 20
233.8430860201054
 30
0.0
 10
172.4979812922504
 20
233.8424622742444
 30
0.0
  0
LINE
  5
1E6
330
1F
100
AcDbEntity
  8
0
  6
Continuous
 62
     7
370
    25
100
AcDbLine
 10
237.5199102244
 20
233.7624622742
 30
0.0
 11
237.5199102244
 21
233.9674622742
 31
0.0
  0
LINE
  5
1E7
330
1F
100
AcDbEntity
  8
0
  6
Continuous
 62
     7
370
    25
100
AcDbLine
 10
172.4979812923
 20
233.7624622742
 30
0.0
 11
237.5199102244
 21
233.7624622742
 31
0.0
  0
SPLINE
  5
1E8
330
1F
100
AcDbEntity
  8
0
  6
Continuous
 62
     7
370
    25
100
AcDbSpline
210
0.0
220
0.0
230
1.0
 70
     8
 71
     3
 72
    11
 73
     7
 74
     0
 42
0.00000001
 43
0.00000001
 40
0.0
 40
0.0
 40
0.0
 40
0.0
 40
0.2506719719564091
 40
0.5014887651675741
 40
0.7523060046713453
 40
0.9999999999999999
 40
0.9999999999999999
 40
0.9999999999999999
 40
0.9999999999999999
 10
172.4909102244385
 20
233.8495333420563
 30
0.0
 10
172.4927995996655
 20
233.8593874230895
 30
0.0
 10
172.4965794416722
 20
233.8791012781751
 30
0.0
 10
172.525653325815
 20
233.9086748094026
 30
0.0
 10
172.5670251927816
 20
233.9381327142133
 30
0.0
 10
172.5996834167006
 20
233.9577266738872
 30
0.0
 10
172.6159102244385
 20
233.9674622742444
 30
0.0
  0
LINE
  5
1E9
330
1F
100
AcDbEntity
  8
0
  6
Continuous
 62
     7
370
    25
100
AcDbLine
 10
172.4909102244
 20
233.8495333421
 30
0.0
 11
172.4109102244
 21
233.8495333421
 31
0.0
  0
LINE
  5
1EA
330
1F
100
AcDbEntity
  8
0
  6
Continuous
 62
     7
370
    25
100
AcDbLine
 10
177.7899102244
 20
237.5224622742
 30
0.0
 11
177.7909102244
 21
237.5224622742
 31
0.0
  0
LINE
  5
1EB
330
1F
100
AcDbEntity
  8
0
  6
Continuous
 62
     7
370
    25
100
AcDbLine
 10
177.8709102244
 20
237.5224622742
 30
0.0
 11
237.5199102244
 21
237.5224622742
 31
0.0
  0
LINE
  5
1EC
330
1F
100
AcDbEntity
  8
0
  6
Continuous
 62
     7
370
    25
100
AcDbLine
 10
237.5199102244
 20
237.3174622742
 30
0.0
 11
237.5199102244
 21
237.5224622742
 31
0.0
  0
LINE
  5
1ED
330
1F
100
AcDbEntity
  8
0
  6
Continuous
 62
     7
370
    25
100
AcDbLine
 10
243.2359102244
 20
233.9674622742
 30
0.0
 11
243.2359102244
 21
233.7624622742
 31
0.0
  0
LINE
  5
1EE
330
1F
100
AcDbEntity
  8
0
  6
Continuous
 62
     7
370
    25
100
AcDbLine
 10
243.2359102244
 20
233.7624622742
 30
0.0
 11
237.5259102244
 21
233.7624622742
 31
0.0
  0
LINE
  5
1EF
330
1F
100
AcDbEntity
  8
0
  6
Continuous
 62
     7
370
    25
100
AcDbLine
 10
237.5259102244
 20
233.7624622742
 30
0.0
 11
237.5259102244
 21
233.9674622742
 31
0.0
  0
LINE
  5
1F0
330
1F
100
AcDbEntity
  8
0
  6
Continuous
 62
     7
370
    25
100
AcDbLine
 10
237.5259102244
 20
233.9674622742
 30
0.0
 11
243.2359102244
 21
233.9674622742
 31
0.0
  0
LINE
  5
1F1
330
1F
100
AcDbEntity
  8
0
  6
Continuous
 62
     7
370
    25
100
AcDbLine
 10
237.5259102244
 20
233.9674622742
 30
0.0
 11
237.5259102244
 21
237.3174622742
 31
0.0
  0
LINE
  5
1F2
330
1F
100
AcDbEntity
  8
0
  6
Continuous
 62
     7
370
    25
100
AcDbLine
 10
237.5259102244
 20
237.3174622742
 30
0.0
 11
249.2059102244
 21
237.3174622742
 31
0.0
  0
LINE
  5
1F3
330
1F
100
AcDbEntity
  8
0
  6
Continuous
 62
     7
370
    25
100
AcDbLine
 10
249.2059102244
 20
237.3174622742
 30
0.0
 11
249.2059102244
 21
233.972306922
 31
0.0
  0
ARC
  5
1F4
330
1F
100
AcDbEntity
  8
0
  6
Continuous
 62
     7
370
    25
100
AcDbCircle
 10
249.0859102244
 20
233.972306922
 30
0.0
 40
0.1200000000000045
100
AcDbArc
 50
294.0
 51
0.0
  0
LINE
  5
1F5
330
1F
100
AcDbEntity
  8
0
  6
Continuous
 62
     7
370
    25
100
AcDbLine
 10
249.1347186216
 20
233.8626814671
 30
0.0
 11
245.1820428264
 21
232.1028368193
 31
0.0
  0
ARC
  5
1F6
330
1F
100
AcDbEntity
  8
0
  6
Continuous
 62
     7
370
    25
100
AcDbCircle
 10
245.1332344292
 20
232.2124622742
 30
0.0
 40
0.120000000000008
100
AcDbArc
 50
270.0
 51
294.0
  0
LINE
  5
1F7
330
1F
100
AcDbEntity
  8
0
  6
Continuous
 62
     7
370
    25
100
AcDbLine
 10
245.1332344292
 20
232.0924622742
 30
0.0
 11
243.3959102244
 21
232.0924622742
 31
0.0
  0
ARC
  5
1F8
330
1F
100
AcDbEntity
  8
0
  6
Continuous
 62
     7
370
    25
100
AcDbCircle
 10
243.3959102244
 20
232.2124622742
 30
0.0
 40
0.1200000000000045
100
AcDbArc
 50
180.0
 51
270.0
  0
LINE
  5
1F9
330
1F
100
AcDbEntity
  8
0
  6
Continuous
 62
     7
370
    25
100
AcDbLine
 10
243.2759102244
 20
232.2124622742
 30
0.0
 11
243.2759102244
 21
234.0074622742
 31
0.0
  0
LINE
  5
1FA
330
1F
100
AcDbEntity
  8
0
  6
Continuous
 62
     7
370
    25
100
AcDbLine
 10
243.2759102244
 20
234.0074622742
 30
0.0
 11
243.2359102244
 21
234.0074622742
 31
0.0
  0
LINE
  5
1FB
330
1F
100
AcDbEntity
  8
0
  6
Continuous
 62
     7
370
    25
100
AcDbLine
 10
243.2359102244
 20
234.0074622742
 30
0.0
 11
243.2359102244
 21
233.9674622742
 31
0.0
  0
ARC
  5
1FC
330
1F
100
AcDbEntity
  8
0
  6
Continuous
 62
     7
370
    25
100
AcDbCircle
 10
245.1159102244
 20
234.1830063679
 30
0.0
 40
0.0253970771860565
100
AcDbArc
 50
270.0
 51
90.0
  0
ARC
  5
1FD
330
1F
100
AcDbEntity
  8
0
  6
Continuous
 62
     7
370
    25
100
AcDbCircle
 10
245.1659102244
 20
233.9024622742
 30
0.0
 40
0.3100000000000068
100
AcDbArc
 50
99.2817990867
 51
260.7182009133
  0
ARC
  5
1FE
330
1F
100
AcDbEntity
  8
0
  6
Continuous
 62
     7
370
    25
100
AcDbCircle
 10
245.1159102244
 20
233.6219181806
 30
0.0
 40
0.0253970771860565
100
AcDbArc
 50
269.9999999999
 51
90.0
  0
ARC
  5
1FF
330
1F
100
AcDbEntity
  8
0
  6
Continuous
 62
     7
370
    25
100
AcDbCircle
 10
245.1659102244
 20
233.9024622742
 30
0.0
 40
0.2599999999999943
100
AcDbArc
 50
101.087489211
 51
258.912510789
  0
ARC
  5
200
330
1F
100
AcDbEntity
  8
0
  6
Continuous
 62
     7
370
    25
100
AcDbCircle
 10
245.2159102244
 20
233.6219181806
 30
0.0
 40
0.0253970771860565
100
AcDbArc
 50
90.0
 51
269.9999999999
  0
ARC
  5
201
330
1F
100
AcDbEntity
  8
0
  6
Continuous
 62
     7
370
    25
100
AcDbCircle
 10
245.1659102244
 20
233.9024622742
 30
0.0
 40
0.3100000000000068
100
AcDbArc
 50
279.2817990867
 51
80.7182009133
  0
ARC
  5
202
330
1F
100
AcDbEntity
  8
0
  6
Continuous
 62
     7
370
    25
100
AcDbCircle
 10
245.2159102244
 20
234.1830063679
 30
0.0
 40
0.0253970771860565
100
AcDbArc
 50
90.0
 51
270.0000000001
  0
ARC
  5
203
330
1F
100
AcDbEntity
  8
0
  6
Continuous
 62
     7
370
    25
100
AcDbCircle
 10
245.1659102244
 20
233.9024622742
 30
0.0
 40
0.2600000000000053
100
AcDbArc
 50
281.087489211
 51
78.912510789
  0
SPLINE
  5
204
330
1F
100
AcDbEntity
  8
0
  6
Continuous
 62
     7
370
    25
100
AcDbSpline
210
0.0
220
0.0
230
1.0
 70
     8
 71
     3
 72
    12
 73
     8
 74
     0
 42
0.00000001
 43
0.00000001
 40
0.0
 40
0.0
 40
0.0
 40
0.0
 40
0.2291501572943721
 40
0.4583772411770671
 40
0.6876046696568354
 40
0.9168319224262252
 40
1.0
 40
1.0
 40
1.0
 40
1.0
 10
249.0859102244385
 20
237.5224622742443
 30
0.0
 10
249.0950790563695
 20
237.5198777544418
 30
0.0
 10
249.1134197982437
 20
237.5147078472035
 30
0.0
 10
249.1409374610439
 20
237.4745836238676
 30
0.0
 10
249.1684385351218
 20
237.4162337809759
 30
0.0
 10
249.1901567757748
 20
237.3597302197018
 30
0.0
 10
249.2025980271667
 20
237.3263492028538
 30
0.0
 10
249.2059102244385
 20
237.3174622742443
 30
0.0
  0
LINE
  5
205
330
1F
100
AcDbEntity
  8
0
  6
Continuous
 62
     7
370
    25
100
AcDbLine
 10
237.5259102244
 20
237.5224622742
 30
0.0
 11
249.0859102244
 21
237.5224622742
 31
0.0
  0
LINE
  5
206
330
1F
100
AcDbEntity
  8
0
  6
Continuous
 62
     7
370
    25
100
AcDbLine
 10
237.5259102244
 20
237.3174622742
 30
0.0
 11
237.5259102244
 21
237.5224622742
 31
0.0
  0
LINE
  5
207
330
1F
100
AcDbEntity
  8
0
  6
Continuous
 62
     7
370
    25
100
AcDbLine
 10
249.1692912363
 20
233.788314012
 30
0.0
 11
249.1367523048
 21
233.8613976486
 31
0.0
  0
LINE
  5
208
330
1F
100
AcDbEntity
  8
0
  6
Continuous
 62
     7
370
    25
100
AcDbLine
 10
245.4996965752
 20
232.1545052055
 30
0.0
 11
249.1692912363
 21
233.788314012
 31
0.0
  0
LINE
  5
209
330
1F
100
AcDbEntity
  8
0
  6
Continuous
 62
     7
370
    25
100
AcDbLine
 10
245.4671576438
 20
232.2275888421
 30
0.0
 11
245.4996965752
 21
232.1545052055
 31
0.0
  0
LINE
  5
20A
330
1F
100
AcDbEntity
  8
0
  6
Continuous
 62
     7
370
    25
100
AcDbLine
 10
245.4671576438
 20
232.2275888421
 30
0.0
 11
249.1367523048
 21
233.8613976486
 31
0.0
  0
LINE
  5
20B
330
1F
100
AcDbEntity
  8
0
  6
Continuous
 62
     7
370
    25
100
AcDbLine
 10
245.4996965752
 20
232.1545052055
 30
0.0
 11
245.3169874837
 21
232.0731578769
 31
0.0
  0
LINE
  5
20C
330
1F
100
AcDbEntity
  8
0
  6
Continuous
 62
     7
370
    25
100
AcDbLine
 10
245.3169874837
 20
232.0731578769
 30
0.0
 11
245.2844485522
 21
232.1462415135
 31
0.0
  0
LINE
  5
20D
330
1F
100
AcDbEntity
  8
0
  6
Continuous
 62
     7
370
    25
100
AcDbLine
 10
245.2844485522
 20
232.1462415135
 30
0.0
 11
245.4671576438
 21
232.2275888421
 31
0.0
  0
ARC
  5
20E
330
1F
100
AcDbEntity
  8
0
  6
Continuous
 62
     7
370
    25
100
AcDbCircle
 10
249.0859102244
 20
233.9755908308
 30
0.0
 40
0.1249999999999935
100
AcDbArc
 50
294.0
 51
0.0
  0
LINE
  5
20F
330
1F
100
AcDbEntity
  8
0
  6
Continuous
 62
     7
370
    25
100
AcDbLine
 10
249.2109102244
 20
233.9755908308
 30
0.0
 11
249.2909102244
 21
233.9755908308
 31
0.0
  0
ARC
  5
210
330
1F
100
AcDbEntity
  8
0
  6
Continuous
 62
     7
370
    25
100
AcDbCircle
 10
249.0859102244
 20
233.9755908308
 30
0.0
 40
0.2050000000000125
100
AcDbArc
 50
294.0
 51
0.0
  0
LINE
  5
211
330
1F
100
AcDbEntity
  8
0
  6
Continuous
 62
     7
370
    25
100
AcDbLine
 10
249.2909102244
 20
237.3174622742
 30
0.0
 11
249.2109102244
 21
237.3174622742
 31
0.0
  0
ARC
  5
212
330
1F
100
AcDbEntity
  8
0
  6
Continuous
 62
     7
370
    25
100
AcDbCircle
 10
249.0859102244
 20
237.3174622742
 30
0.0
 40
0.1250000000000139
100
AcDbArc
 50
0.0
 51
47.2092897281
  0
LINE
  5
213
330
1F
100
AcDbEntity
  8
0
  6
Continuous
 62
     7
370
    25
100
AcDbLine
 10
249.1109102244
 20
237.5209321737
 30
0.0
 11
249.1109102244
 21
237.4399367614
 31
0.0
  0
ARC
  5
214
330
1F
100
AcDbEntity
  8
0
  6
Continuous
 62
     7
370
    25
100
AcDbCircle
 10
249.0859102244
 20
237.3174622742
 30
0.0
 40
0.2050000000000125
100
AcDbArc
 50
0.0
 51
82.9952735909
  0
LINE
  5
215
330
1F
100
AcDbEntity
  8
0
  6
Continuous
 62
     7
370
    25
100
AcDbLine
 10
249.2109102244
 20
233.9755908308
 30
0.0
 11
249.2109102244
 21
237.3174622742
 31
0.0
  0
LINE
  5
216
330
1F
100
AcDbEntity
  8
0
  6
Continuous
 62
     7
370
    25
100
AcDbLine
 10
249.2909102244
 20
233.9755908308
 30
0.0
 11
249.2909102244
 21
237.3174622742
 31
0.0
  0
ARC
  5
217
330
1F
100
AcDbEntity
  8
0
  6
Continuous
 62
     7
370
    25
100
AcDbCircle
 10
249.0859102244
 20
237.3174622742
 30
0.0
 40
0.2050000000000111
100
AcDbArc
 50
82.9952735909
 51
90.0
  0
LINE
  5
218
330
1F
100
AcDbEntity
  8
0
  6
Continuous
 62
     7
370
    25
100
AcDbLine
 10
237.5259102244
 20
237.5224622742
 30
0.0
 11
237.5199102244
 21
237.5223744506
 31
0.0
  0
LINE
  5
219
330
1F
100
AcDbEntity
  8
0
  6
Continuous
 62
     7
370
    25
100
AcDbLine
 10
237.5259102244
 20
237.4424622742
 30
0.0
 11
237.5199102244
 21
237.4423181912
 31
0.0
  0
ARC
  5
21A
330
1F
100
AcDbEntity
  8
0
  6
Continuous
 62
     7
370
    25
100
AcDbCircle
 10
249.0859102244
 20
233.9718455261
 30
0.0
 40
0.1200000000000045
100
AcDbArc
 50
294.0
 51
0.0
  0
LINE
  5
21B
330
1F
100
AcDbEntity
  8
0
  6
Continuous
 62
     7
370
    25
100
AcDbLine
 10
245.1830791386
 20
232.1028368193
 30
0.0
 11
245.3663045381
 21
232.184414023
 31
0.0
  0
LINE
  5
21C
330
1F
100
AcDbEntity
  8
0
  6
Continuous
 62
     7
370
    25
100
AcDbLine
 10
245.4824355862
 20
232.2361188969
 30
0.0
 11
245.7378651777
 21
232.3498434781
 31
0.0
  0
LINE
  5
21D
330
1F
100
AcDbEntity
  8
0
  6
Continuous
 62
     7
370
    25
100
AcDbLine
 10
246.3286135263
 20
232.6128615887
 30
0.0
 11
249.1347186216
 21
233.8622200711
 31
0.0
  0
ARC
  5
21E
330
1F
100
AcDbEntity
  8
0
  6
Continuous
 62
     7
370
    25
100
AcDbCircle
 10
245.1342707415
 20
232.2124622742
 30
0.0
 40
0.1200000000000111
100
AcDbArc
 50
274.6245869466
 51
294.0
  0
LINE
  5
21F
330
1F
100
AcDbEntity
  8
0
  6
Continuous
 62
     7
370
    25
100
AcDbLine
 10
177.698003786
 20
241.3463212032
 30
0.0
 11
172.5871154501
 21
242.7157796054
 31
0.0
  0
ARC
  5
220
330
1F
100
AcDbEntity
  8
0
  6
Continuous
 62
     7
370
    25
100
AcDbCircle
 10
177.6659102244
 20
241.2265464007
 30
0.0
 40
0.1240000000000236
100
AcDbArc
 50
0.0
 51
75.0
  0
LINE
  5
221
330
1F
100
AcDbEntity
  8
0
  6
Continuous
 62
     7
370
    25
100
AcDbLine
 10
177.7899102244
 20
237.5189079746
 30
0.0
 11
177.7899102244
 21
241.2265464007
 31
0.0
  0
LINE
  5
222
330
1F
100
AcDbEntity
  8
0
  6
Continuous
 62
     7
370
    25
100
AcDbLine
 10
172.5550218885
 20
237.5189079746
 30
0.0
 11
177.7899102244
 21
237.5189079746
 31
0.0
  0
LINE
  5
223
330
1F
100
AcDbEntity
  8
0
  6
Continuous
 62
     7
370
    25
100
AcDbLine
 10
172.5550218885
 20
242.596004803
 30
0.0
 11
172.5550218885
 21
237.5189079746
 31
0.0
  0
LINE
  5
224
330
1F
100
AcDbEntity
  8
0
  6
Continuous
 62
     7
370
    25
100
AcDbLine
 10
172.5871154501
 20
242.7157796054
 30
0.0
 11
172.5550218885
 21
242.596004803
 31
0.0
  0
LINE
  5
225
330
1F
100
AcDbEntity
  8
0
  6
Continuous
 62
     7
370
    25
100
AcDbLine
 10
172.5550218885
 20
237.5189079746
 30
0.0
 11
172.3500218885
 21
237.5189079746
 31
0.0
  0
LINE
  5
226
330
1F
100
AcDbEntity
  8
0
  6
Continuous
 62
     7
370
    25
100
AcDbLine
 10
172.3500218885
 20
237.5189079746
 30
0.0
 11
172.3500218885
 21
242.596004803
 31
0.0
  0
LINE
  5
227
330
1F
100
AcDbEntity
  8
0
  6
Continuous
 62
     7
370
    25
100
AcDbLine
 10
172.3500218885
 20
242.596004803
 30
0.0
 11
172.5550218885
 21
242.596004803
 31
0.0
  0
LINE
  5
228
330
1F
100
AcDbEntity
  8
0
  6
Continuous
 62
     7
370
    25
100
AcDbLine
 10
172.6080797928
 20
242.7940195973
 30
0.0
 11
177.7189681287
 21
241.4245611951
 31
0.0
  0
LINE
  5
229
330
1F
100
AcDbEntity
  8
0
  6
Continuous
 62
     7
370
    25
100
AcDbLine
 10
177.6982626051
 20
241.347287129
 30
0.0
 11
177.7189681287
 21
241.4245611951
 31
0.0
  0
LINE
  5
22A
330
1F
100
AcDbEntity
  8
0
  6
Continuous
 62
     7
370
    25
100
AcDbLine
 10
172.5873742692
 20
242.7167455312
 30
0.0
 11
177.6982626051
 21
241.347287129
 31
0.0
  0
LINE
  5
22B
330
1F
100
AcDbEntity
  8
0
  6
Continuous
 62
     7
370
    25
100
AcDbLine
 10
172.5873742692
 20
242.7167455312
 30
0.0
 11
172.6080797928
 21
242.7940195973
 31
0.0
  0
LINE
  5
22C
330
1F
100
AcDbEntity
  8
0
  6
Continuous
 62
     7
370
    25
100
AcDbLine
 10
177.7909102244
 20
241.2265464007
 30
0.0
 11
177.7909102244
 21
237.5224622742
 31
0.0
  0
LINE
  5
22D
330
1F
100
AcDbEntity
  8
0
  6
Continuous
 62
     7
370
    25
100
AcDbLine
 10
177.7909102244
 20
241.2265464007
 30
0.0
 11
177.8709102244
 21
241.2265464007
 31
0.0
  0
LINE
  5
22E
330
1F
100
AcDbEntity
  8
0
  6
Continuous
 62
     7
370
    25
100
AcDbLine
 10
177.7909102244
 20
237.5224622742
 30
0.0
 11
177.8709102244
 21
237.5224622742
 31
0.0
  0
LINE
  5
22F
330
1F
100
AcDbEntity
  8
0
  6
Continuous
 62
     7
370
    25
100
AcDbLine
 10
177.8709102244
 20
241.2265464007
 30
0.0
 11
177.8709102244
 21
237.5224622742
 31
0.0
  0
ARC
  5
230
330
1F
100
AcDbEntity
  8
0
  6
Continuous
 62
     7
370
    25
100
AcDbCircle
 10
177.6659102244
 20
241.2265464007
 30
0.0
 40
0.1249999999999727
100
AcDbArc
 50
0.0
 51
75.0
  0
ARC
  5
231
330
1F
100
AcDbEntity
  8
0
  6
Continuous
 62
     7
370
    25
100
AcDbCircle
 10
177.6659102244
 20
241.2265464007
 30
0.0
 40
0.2050000000000125
100
AcDbArc
 50
0.0
 51
75.0
  0
ARC
  5
232
330
1F
100
AcDbEntity
  8
0
  6
Continuous
 62
     7
370
    25
100
AcDbCircle
 10
172.5550218885
 20
242.596004803
 30
0.0
 40
0.2050000000000125
100
AcDbArc
 50
75.0
 51
180.0
  0
ARC
  5
233
330
1F
100
AcDbEntity
  8
0
  6
Continuous
 62
     7
370
    25
100
AcDbCircle
 10
172.5550218885
 20
242.596004803
 30
0.0
 40
0.1250000000000001
100
AcDbArc
 50
75.0
 51
180.0
  0
LINE
  5
234
330
1F
100
AcDbEntity
  8
0
  6
Continuous
 62
     7
370
    25
100
AcDbLine
 10
172.4300218885
 20
237.4437830511
 30
0.0
 11
172.4300218885
 21
237.5189079746
 31
0.0
  0
LINE
  5
235
330
1F
100
AcDbEntity
  8
0
  6
Continuous
 62
     7
370
    25
100
AcDbLine
 10
172.3500218885
 20
237.3189079746
 30
0.0
 11
172.3500218885
 21
237.5189079746
 31
0.0
  0
LINE
  5
236
330
1F
100
AcDbEntity
  8
0
  6
Continuous
 62
     7
370
    25
100
AcDbLine
 10
172.3500218885
 20
236.0189079746
 30
0.0
 11
172.4109102244
 21
236.0189079746
 31
0.0
  0
LINE
  5
237
330
1F
100
AcDbEntity
  8
0
  6
Continuous
 62
     7
370
    25
100
AcDbLine
 10
172.3500218885
 20
236.0189079746
 30
0.0
 11
172.3500218885
 21
236.2189079746
 31
0.0
  0
LINE
  5
238
330
1F
100
AcDbEntity
  8
0
  6
Continuous
 62
     7
370
    25
100
AcDbLine
 10
172.3500218885
 20
236.2189079746
 30
0.0
 11
172.3500218885
 21
237.3189079746
 31
0.0
  0
LINE
  5
239
330
1F
100
AcDbEntity
  8
0
  6
Continuous
 62
     7
370
    25
100
AcDbLine
 10
171.2059102244
 20
212.9279998409
 30
0.0
 11
170.8159102244
 21
212.9279998409
 31
0.0
  0
LINE
  5
23A
330
1F
100
AcDbEntity
  8
0
  6
Continuous
 62
     7
370
    25
100
AcDbLine
 10
170.8159102244
 20
213.1369247076
 30
0.0
 11
170.8159102244
 21
212.9279998409
 31
0.0
  0
LINE
  5
23B
330
1F
100
AcDbEntity
  8
0
  6
Continuous
 62
     7
370
    25
100
AcDbLine
 10
170.8159102244
 20
213.1369247076
 30
0.0
 11
171.2059102244
 21
213.1369247076
 31
0.0
  0
LINE
  5
23C
330
1F
100
AcDbEntity
  8
0
  6
Continuous
 62
     7
370
    25
100
AcDbLine
 10
171.2059102244
 20
213.1369247076
 30
0.0
 11
171.2059102244
 21
212.9279998409
 31
0.0
  0
LINE
  5
23D
330
1F
100
AcDbEntity
  8
0
  6
Continuous
 62
     7
370
    25
100
AcDbLine
 10
171.2059102244
 20
214.4279998409
 30
0.0
 11
170.8159102244
 21
214.4279998409
 31
0.0
  0
LINE
  5
23E
330
1F
100
AcDbEntity
  8
0
  6
Continuous
 62
     7
370
    25
100
AcDbLine
 10
170.8159102244
 20
214.4279998409
 30
0.0
 11
170.8159102244
 21
213.1369247076
 31
0.0
  0
LINE
  5
23F
330
1F
100
AcDbEntity
  8
0
  6
Continuous
 62
     7
370
    25
100
AcDbLine
 10
171.2059102244
 20
214.4279998409
 30
0.0
 11
171.2059102244
 21
213.1369247076
 31
0.0
  0
LINE
  5
240
330
1F
100
AcDbEntity
  8
0
  6
Continuous
 62
     7
370
    25
100
AcDbLine
 10
170.8159102244
 20
211.6369247076
 30
0.0
 11
171.2059102244
 21
211.6369247076
 31
0.0
  0
LINE
  5
241
330
1F
100
AcDbEntity
  8
0
  6
Continuous
 62
     7
370
    25
100
AcDbLine
 10
170.8159102244
 20
212.9279998409
 30
0.0
 11
170.8159102244
 21
211.6369247076
 31
0.0
  0
LINE
  5
242
330
1F
100
AcDbEntity
  8
0
  6
Continuous
 62
     7
370
    25
100
AcDbLine
 10
171.2059102244
 20
212.9279998409
 30
0.0
 11
171.2059102244
 21
211.6369247076
 31
0.0
  0
LINE
  5
243
330
1F
100
AcDbEntity
  8
0
  6
Continuous
 62
     7
370
    25
100
AcDbLine
 10
172.5159102244
 20
212.2870596985
 30
0.0
 11
172.1959102244
 21
212.2870596985
 31
0.0
  0
LINE
  5
244
330
1F
100
AcDbEntity
  8
0
  6
Continuous
 62
     7
370
    25
100
AcDbLine
 10
172.1959102244
 20
213.77786485
 30
0.0
 11
172.1959102244
 21
212.2870596985
 31
0.0
  0
LINE
  5
245
330
1F
100
AcDbEntity
  8
0
  6
Continuous
 62
     7
370
    25
100
AcDbLine
 10
172.1959102244
 20
213.77786485
 30
0.0
 11
172.5159102244
 21
213.77786485
 31
0.0
  0
LINE
  5
246
330
1F
100
AcDbEntity
  8
0
  6
Continuous
 62
     7
370
    25
100
AcDbLine
 10
172.1959102244
 20
213.958799092
 30
0.0
 11
172.1959102244
 21
213.77786485
 31
0.0
  0
LINE
  5
247
330
1F
100
AcDbEntity
  8
0
  6
Continuous
 62
     7
370
    25
100
AcDbLine
 10
172.5159102244
 20
213.958799092
 30
0.0
 11
172.1959102244
 21
213.958799092
 31
0.0
  0
LINE
  5
248
330
1F
100
AcDbEntity
  8
0
  6
Continuous
 62
     7
370
    25
100
AcDbLine
 10
172.1959102244
 20
212.1061254565
 30
0.0
 11
172.5159102244
 21
212.1061254565
 31
0.0
  0
LINE
  5
249
330
1F
100
AcDbEntity
  8
0
  6
Continuous
 62
     7
370
    25
100
AcDbLine
 10
172.1959102244
 20
212.2870596985
 30
0.0
 11
172.1959102244
 21
212.1061254565
 31
0.0
  0
LINE
  5
24A
330
1F
100
AcDbEntity
  8
0
  6
Continuous
 62
     7
370
    25
100
AcDbLine
 10
169.3959102244
 20
212.0474622742
 30
0.0
 11
169.3959102244
 21
214.0174622133
 31
0.0
  0
LINE
  5
24B
330
1F
100
AcDbEntity
  8
0
  6
Continuous
 62
     7
370
    25
100
AcDbLine
 10
171.4459102244
 20
214.5174622742
 30
0.0
 11
171.4459102244
 21
211.5474622742
 31
0.0
  0
LINE
  5
24C
330
1F
100
AcDbEntity
  8
0
  6
Continuous
 62
     7
370
    25
100
AcDbLine
 10
171.9959102244
 20
214.4324622742
 30
0.0
 11
171.9959102244
 21
211.6324622742
 31
0.0
  0
LINE
  5
24D
330
1F
100
AcDbEntity
  8
0
  6
Continuous
 62
     7
370
    25
100
AcDbLine
 10
172.5159102244
 20
211.3607228807
 30
0.0
 11
172.1959102244
 21
211.3607228807
 31
0.0
  0
LINE
  5
24E
330
1F
100
AcDbEntity
  8
0
  6
Continuous
 62
     7
370
    25
100
AcDbLine
 10
172.1959102244
 20
212.1061254565
 30
0.0
 11
172.1959102244
 21
211.3607228807
 31
0.0
  0
LINE
  5
24F
330
1F
100
AcDbEntity
  8
0
  6
Continuous
 62
     7
370
    25
100
AcDbLine
 10
172.1959102244
 20
214.7042016678
 30
0.0
 11
172.5159102244
 21
214.7042016678
 31
0.0
  0
LINE
  5
250
330
1F
100
AcDbEntity
  8
0
  6
Continuous
 62
     7
370
    25
100
AcDbLine
 10
172.1959102244
 20
214.7042016678
 30
0.0
 11
172.1959102244
 21
213.958799092
 31
0.0
  0
LINE
  5
251
330
1F
100
AcDbEntity
  8
0
  6
Continuous
 62
     7
370
    25
100
AcDbLine
 10
171.2059102244
 20
211.5324622742
 30
0.0
 11
170.8159102244
 21
211.5324622742
 31
0.0
  0
LINE
  5
252
330
1F
100
AcDbEntity
  8
0
  6
Continuous
 62
     7
370
    25
100
AcDbLine
 10
170.8159102244
 20
211.6369247076
 30
0.0
 11
170.8159102244
 21
211.5324622742
 31
0.0
  0
LINE
  5
253
330
1F
100
AcDbEntity
  8
0
  6
Continuous
 62
     7
370
    25
100
AcDbLine
 10
171.2059102244
 20
211.6369247076
 30
0.0
 11
171.2059102244
 21
211.5324622742
 31
0.0
  0
LINE
  5
254
330
1F
100
AcDbEntity
  8
0
  6
Continuous
 62
     7
370
    25
100
AcDbLine
 10
170.8159102244
 20
214.5324622742
 30
0.0
 11
171.2059102244
 21
214.5324622742
 31
0.0
  0
LINE
  5
255
330
1F
100
AcDbEntity
  8
0
  6
Continuous
 62
     7
370
    25
100
AcDbLine
 10
170.8159102244
 20
214.5324622742
 30
0.0
 11
170.8159102244
 21
214.4279998409
 31
0.0
  0
LINE
  5
256
330
1F
100
AcDbEntity
  8
0
  6
Continuous
 62
     7
370
    25
100
AcDbLine
 10
171.2059102244
 20
214.5324622742
 30
0.0
 11
171.2059102244
 21
214.4279998409
 31
0.0
  0
LINE
  5
257
330
1F
100
AcDbEntity
  8
0
  6
Continuous
 62
     7
370
    25
100
AcDbLine
 10
172.1959102244
 20
214.7074622742
 30
0.0
 11
172.1959102244
 21
214.7042016678
 31
0.0
  0
LINE
  5
258
330
1F
100
AcDbEntity
  8
0
  6
Continuous
 62
     7
370
    25
100
AcDbLine
 10
172.1959102244
 20
211.3607228807
 30
0.0
 11
172.1959102244
 21
211.3574622742
 31
0.0
  0
ARC
  5
259
330
1F
100
AcDbEntity
  8
0
  6
Continuous
 62
     7
370
    25
100
AcDbCircle
 10
245.193935178
 20
232.0633527766
 30
0.0
 40
0.0600000000000141
100
AcDbArc
 50
150.7325847328
 51
293.5
  0
LINE
  5
25A
330
1F
100
AcDbEntity
  8
0
  6
Continuous
 62
     7
370
    25
100
AcDbLine
 10
246.6109951928
 20
232.5661021323
 30
0.0
 11
246.5934502337
 21
232.6064527756
 31
0.0
  0
ARC
  5
25B
330
1F
100
AcDbEntity
  8
0
  6
Continuous
 62
     7
370
    25
100
AcDbCircle
 10
245.193935178
 20
232.0633527766
 30
0.0
 40
0.1040000000000036
100
AcDbArc
 50
163.7458222775
 51
264.7211920655
  0
LINE
  5
25C
330
1F
100
AcDbEntity
  8
0
  6
Continuous
 62
     7
370
    25
100
AcDbLine
 10
246.5431490324
 20
232.5366017822
 30
0.0
 11
246.6109951928
 21
232.5661021323
 31
0.0
  0
LINE
  5
25D
330
1F
100
AcDbEntity
  8
0
  6
Continuous
 62
     7
370
    25
100
AcDbLine
 10
246.5934502337
 20
232.6064527756
 30
0.0
 11
246.5252519387
 21
232.5767993129
 31
0.0
  0
LINE
  5
25E
330
1F
100
AcDbEntity
  8
0
  6
Continuous
 62
     7
370
    25
100
AcDbLine
 10
245.6987381526
 20
232.2174208907
 30
0.0
 11
245.2178601221
 21
232.0083291722
 31
0.0
  0
LINE
  5
25F
330
1F
100
AcDbEntity
  8
0
  6
Continuous
 62
     7
370
    25
100
AcDbLine
 10
249.2459102244
 20
218.8475622842
 30
0.0
 11
249.2459102244
 21
216.4574622742
 31
0.0
  0
LINE
  5
260
330
1F
100
AcDbEntity
  8
0
  6
Continuous
 62
     7
370
    25
100
AcDbLine
 10
249.2459102244
 20
218.8475622842
 30
0.0
 11
249.2359102244
 21
218.8475622842
 31
0.0
  0
LINE
  5
261
330
1F
100
AcDbEntity
  8
0
  6
Continuous
 62
     7
370
    25
100
AcDbLine
 10
249.2559102244
 20
216.6988840359
 30
0.0
 11
249.2459102244
 21
216.6988840359
 31
0.0
  0
LINE
  5
262
330
1F
100
AcDbEntity
  8
0
  6
Continuous
 62
     7
370
    25
100
AcDbLine
 10
249.2559102244
 20
216.6238840359
 30
0.0
 11
249.2459102244
 21
216.6238840359
 31
0.0
  0
LINE
  5
263
330
1F
100
AcDbEntity
  8
0
  6
Continuous
 62
     7
370
    25
100
AcDbLine
 10
249.2559102244
 20
216.6988840359
 30
0.0
 11
249.2559102244
 21
216.6238840359
 31
0.0
  0
LINE
  5
264
330
1F
100
AcDbEntity
  8
0
  6
Continuous
 62
     7
370
    25
100
AcDbLine
 10
249.2559102244
 20
218.6488840359
 30
0.0
 11
249.2459102244
 21
218.6488840359
 31
0.0
  0
LINE
  5
265
330
1F
100
AcDbEntity
  8
0
  6
Continuous
 62
     7
370
    25
100
AcDbLine
 10
249.2559102244
 20
218.6488840359
 30
0.0
 11
249.2559102244
 21
216.6988840359
 31
0.0
  0
LINE
  5
266
330
1F
100
AcDbEntity
  8
0
  6
Continuous
 62
     7
370
    25
100
AcDbLine
 10
249.2559102244
 20
218.6738840359
 30
0.0
 11
249.2559102244
 21
218.6488840359
 31
0.0
  0
LINE
  5
267
330
1F
100
AcDbEntity
  8
0
  6
Continuous
 62
     7
370
    25
100
AcDbLine
 10
249.2359102244
 20
216.4574622742
 30
0.0
 11
249.3659102244
 21
216.4574622742
 31
0.0
  0
LINE
  5
268
330
1F
100
AcDbEntity
  8
0
  6
Continuous
 62
     7
370
    25
100
AcDbLine
 10
249.3659102244
 20
216.1574622742
 30
0.0
 11
249.3659102244
 21
216.4574622742
 31
0.0
  0
LINE
  5
269
330
1F
100
AcDbEntity
  8
0
  6
Continuous
 62
     7
370
    25
100
AcDbLine
 10
249.2359102244
 20
216.1574622742
 30
0.0
 11
249.3659102244
 21
216.1574622742
 31
0.0
  0
ARC
  5
26A
330
1F
100
AcDbEntity
  8
0
  6
Continuous
 62
     7
370
    25
100
AcDbCircle
 10
249.3659102244
 20
216.3874622742
 30
0.0
 40
0.0700000000000216
100
AcDbArc
 50
0.0
 51
90.0
  0
LINE
  5
26B
330
1F
100
AcDbEntity
  8
0
  6
Continuous
 62
     7
370
    25
100
AcDbLine
 10
249.4359102244
 20
216.3874622742
 30
0.0
 11
249.4359102244
 21
216.1574622742
 31
0.0
  0
LINE
  5
26C
330
1F
100
AcDbEntity
  8
0
  6
Continuous
 62
     7
370
    25
100
AcDbLine
 10
249.3659102244
 20
216.1574622742
 30
0.0
 11
249.4359102244
 21
216.1574622742
 31
0.0
  0
LINE
  5
26D
330
1F
100
AcDbEntity
  8
0
  6
Continuous
 62
     7
370
    25
100
AcDbLine
 10
249.4359102244
 20
210.7574622742
 30
0.0
 11
249.4359102244
 21
210.5274622742
 31
0.0
  0
ARC
  5
26E
330
1F
100
AcDbEntity
  8
0
  6
Continuous
 62
     7
370
    25
100
AcDbCircle
 10
249.3659102244
 20
210.5274622742
 30
0.0
 40
0.0699999999999932
100
AcDbArc
 50
270.0
 51
0.0
  0
LINE
  5
26F
330
1F
100
AcDbEntity
  8
0
  6
Continuous
 62
     7
370
    25
100
AcDbLine
 10
249.3659102244
 20
210.4574622742
 30
0.0
 11
249.3659102244
 21
210.7574622742
 31
0.0
  0
LINE
  5
270
330
1F
100
AcDbEntity
  8
0
  6
Continuous
 62
     7
370
    25
100
AcDbLine
 10
249.3659102244
 20
210.7574622742
 30
0.0
 11
249.4359102244
 21
210.7574622742
 31
0.0
  0
LINE
  5
271
330
1F
100
AcDbEntity
  8
0
  6
Continuous
 62
     7
370
    25
100
AcDbLine
 10
249.3659102244
 20
210.7574622742
 30
0.0
 11
249.3659102244
 21
216.1574622742
 31
0.0
  0
LINE
  5
272
330
1F
100
AcDbEntity
  8
0
  6
Continuous
 62
     7
370
    25
100
AcDbLine
 10
249.4359102244
 20
216.1574622742
 30
0.0
 11
249.4359102244
 21
210.7574622742
 31
0.0
  0
LINE
  5
273
330
1F
100
AcDbEntity
  8
0
  6
Continuous
 62
     7
370
    25
100
AcDbLine
 10
249.2359102244
 20
210.7574622742
 30
0.0
 11
249.3659102244
 21
210.7574622742
 31
0.0
  0
LINE
  5
274
330
1F
100
AcDbEntity
  8
0
  6
Continuous
 62
     7
370
    25
100
AcDbLine
 10
249.2359102244
 20
210.4574622742
 30
0.0
 11
249.3659102244
 21
210.4574622742
 31
0.0
  0
SPLINE
  5
275
330
1F
100
AcDbEntity
  8
0
  6
Continuous
 62
     7
370
    25
100
AcDbSpline
210
0.0
220
0.0
230
1.0
 70
    24
 71
     3
 72
     9
 73
     5
 74
     0
 42
0.00000001
 43
0.00000001
 40
0.0
 40
0.0
 40
0.0
 40
0.0
 40
0.5669729882934409
 40
1.0
 40
1.0
 40
1.0
 40
1.0
 10
249.5259102244389
 20
213.2194281718293
 30
0.0
 10
249.5259102244389
 20
213.1368006987821
 30
0.0
 10
249.5259102244389
 20
212.9910662903477
 30
0.0
 10
249.5259102244389
 20
212.8613876940137
 30
0.0
 10
249.5259102244389
 20
212.8052333589608
 30
0.0
  0
SPLINE
  5
276
330
1F
100
AcDbEntity
  8
0
  6
Continuous
 62
     7
370
    25
100
AcDbSpline
210
0.0
220
0.0
230
1.0
 70
     8
 71
     3
 72
    13
 73
     9
 74
     0
 42
0.00000001
 43
0.00000001
 40
0.0
 40
0.0
 40
0.0
 40
0.0
 40
0.5009309979774219
 40
0.6507948024137258
 40
0.8237451349369246
 40
0.8940623268557452
 40
0.9650962829680649
 40
1.0
 40
1.0
 40
1.0
 40
1.0
 10
249.5259102244389
 20
212.767194380705
 30
0.0
 10
249.5254138408832
 20
212.7741917321769
 30
0.0
 10
249.524768953984
 20
212.7832824851687
 30
0.0
 10
249.5197014279607
 20
212.7943838654168
 30
0.0
 10
249.5160538298871
 20
212.7994299574092
 30
0.0
 10
249.5117166883904
 20
212.802597703998
 30
0.0
 10
249.5086189280959
 20
212.8038372003867
 30
0.0
 10
249.5065815031436
 20
212.8039521996975
 30
0.0
 10
249.5059102244388
 20
212.8039900889893
 30
0.0
  0
SPLINE
  5
277
330
1F
100
AcDbEntity
  8
0
  6
Continuous
 62
     7
370
    25
100
AcDbSpline
210
0.0
220
0.0
230
1.0
 70
     8
 71
     3
 72
    13
 73
     9
 74
     0
 42
0.00000001
 43
0.00000001
 40
0.0
 40
0.0
 40
0.0
 40
0.0
 40
0.1567540792092277
 40
0.3129663376266834
 40
0.5186785480130665
 40
0.7803589142286282
 40
0.9920488993351079
 40
1.0
 40
1.0
 40
1.0
 40
1.0
 10
249.5059102244388
 20
213.2290660804594
 30
0.0
 10
249.5077978835393
 20
213.2289896157123
 30
0.0
 10
249.5115666770428
 20
213.2288369505186
 30
0.0
 10
249.5170289346224
 20
213.2276039537575
 30
0.0
 10
249.5220369001674
 20
213.2254782465996
 30
0.0
 10
249.5251881160089
 20
213.2226069562507
 30
0.0
 10
249.5259024751093
 20
213.2204478336461
 30
0.0
 10
249.5259099537103
 20
213.2194637944658
 30
0.0
 10
249.5259102244389
 20
213.2194281718293
 30
0.0
  0
LINE
  5
278
330
1F
100
AcDbEntity
  8
0
  6
Continuous
 62
     7
370
    25
100
AcDbLine
 10
249.5259102244
 20
212.5293810833
 30
0.0
 11
249.4459102244
 21
212.5293810833
 31
0.0
  0
SPLINE
  5
279
330
1F
100
AcDbEntity
  8
0
  6
Continuous
 62
     7
370
    25
100
AcDbSpline
210
0.0
220
0.0
230
1.0
 70
    24
 71
     3
 72
     9
 73
     5
 74
     0
 42
0.00000001
 43
0.00000001
 40
0.0
 40
0.0
 40
0.0
 40
0.0
 40
0.4996795915948324
 40
1.0
 40
1.0
 40
1.0
 40
1.0
 10
249.4459102244388
 20
212.8039900889893
 30
0.0
 10
249.4459102244388
 20
212.7527410459421
 30
0.0
 10
249.4459102244388
 20
212.6501772352337
 30
0.0
 10
249.4459102244388
 20
212.569663665447
 30
0.0
 10
249.4459102244388
 20
212.5293810833292
 30
0.0
  0
LINE
  5
27A
330
1F
100
AcDbEntity
  8
0
  6
Continuous
 62
     7
370
    25
100
AcDbLine
 10
249.5059102244
 20
212.803990089
 30
0.0
 11
249.4459102244
 21
212.803990089
 31
0.0
  0
SPLINE
  5
27B
330
1F
100
AcDbEntity
  8
0
  6
Continuous
 62
     7
370
    25
100
AcDbSpline
210
0.0
220
0.0
230
1.0
 70
    24
 71
     3
 72
     9
 73
     5
 74
     0
 42
0.00000001
 43
0.00000001
 40
0.0
 40
0.0
 40
0.0
 40
0.0
 40
0.5602971526030615
 40
1.0
 40
1.0
 40
1.0
 40
1.0
 10
249.5259102244389
 20
212.767194380705
 30
0.0
 10
249.5259102244389
 20
212.7185761099825
 30
0.0
 10
249.5259102244389
 20
212.6318038133597
 30
0.0
 10
249.5259102244389
 20
212.5606622370159
 30
0.0
 10
249.5259102244389
 20
212.5293810833292
 30
0.0
  0
LINE
  5
27C
330
1F
100
AcDbEntity
  8
0
  6
Continuous
 62
     7
370
    25
100
AcDbLine
 10
249.4459102244
 20
212.8039900889
 30
0.0
 11
249.4359102244
 21
212.8039900889
 31
0.0
  0
LINE
  5
27D
330
1F
100
AcDbEntity
  8
0
  6
Continuous
 62
     7
370
    25
100
AcDbLine
 10
249.4459102244
 20
212.5293810833
 30
0.0
 11
249.4359102244
 21
212.5293810833
 31
0.0
  0
LINE
  5
27E
330
1F
100
AcDbEntity
  8
0
  6
Continuous
 62
     7
370
    25
100
AcDbLine
 10
249.5059102244
 20
213.2290660805
 30
0.0
 11
249.4914547368
 21
213.2290660805
 31
0.0
  0
LINE
  5
27F
330
1F
100
AcDbEntity
  8
0
  6
Continuous
 62
     7
370
    25
100
AcDbLine
 10
249.5259102244
 20
212.3052470633
 30
0.0
 11
249.4359102244
 21
212.3052470633
 31
0.0
  0
SPLINE
  5
280
330
1F
100
AcDbEntity
  8
0
  6
Continuous
 62
     7
370
    25
100
AcDbSpline
210
0.0
220
0.0
230
1.0
 70
    24
 71
     3
 72
     9
 73
     5
 74
     0
 42
0.00000001
 43
0.00000001
 40
0.0
 40
0.0
 40
0.0
 40
0.0
 40
0.5610118497912542
 40
0.9999999999999999
 40
0.9999999999999999
 40
0.9999999999999999
 40
0.9999999999999999
 10
249.5259102244389
 20
212.5293810833292
 30
0.0
 10
249.5259102244389
 20
212.4760553676259
 30
0.0
 10
249.5259102244388
 20
212.3810026236899
 30
0.0
 10
249.5259102244389
 20
212.3283576033483
 30
0.0
 10
249.5259102244389
 20
212.3052470632508
 30
0.0
  0
LINE
  5
281
330
1F
100
AcDbEntity
  8
0
  6
Continuous
 62
     7
370
    25
100
AcDbLine
 10
249.4459102244
 20
210.9074622742
 30
0.0
 11
249.4359102244
 21
210.9074622742
 31
0.0
  0
LINE
  5
282
330
1F
100
AcDbEntity
  8
0
  6
Continuous
 62
     7
370
    25
100
AcDbLine
 10
249.4459102244
 20
210.9074622742
 30
0.0
 11
249.4459102244
 21
211.6074622742
 31
0.0
  0
LINE
  5
283
330
1F
100
AcDbEntity
  8
0
  6
Continuous
 62
     7
370
    25
100
AcDbLine
 10
249.4459102244
 20
211.6074622742
 30
0.0
 11
249.4359102244
 21
211.6074622742
 31
0.0
  0
SPLINE
  5
284
330
1F
100
AcDbEntity
  8
0
  6
Continuous
 62
     7
370
    25
100
AcDbSpline
210
0.0
220
0.0
230
1.0
 70
    24
 71
     3
 72
    11
 73
     7
 74
     0
 42
0.00000001
 43
0.00000001
 40
0.0
 40
0.0
 40
0.0
 40
0.0
 40
0.3751044444072454
 40
0.6855260840481464
 40
0.8741828408241856
 40
1.0
 40
1.0
 40
1.0
 40
1.0
 10
249.4459102244388
 20
215.3565834499625
 30
0.0
 10
249.4459102244388
 20
215.2612514455072
 30
0.0
 10
249.4459102244388
 20
215.0870264351851
 30
0.0
 10
249.4459102244388
 20
214.8610486391567
 30
0.0
 10
249.4459102244388
 20
214.7036042740199
 30
0.0
 10
249.4459102244388
 20
214.626543987944
 30
0.0
 10
249.4459102244388
 20
214.595713112035
 30
0.0
  0
SPLINE
  5
285
330
1F
100
AcDbEntity
  8
0
  6
Continuous
 62
     7
370
    25
100
AcDbSpline
210
0.0
220
0.0
230
1.0
 70
    24
 71
     3
 72
     9
 73
     5
 74
     0
 42
0.00000001
 43
0.00000001
 40
0.0
 40
0.0
 40
0.0
 40
0.0
 40
0.5599330517606432
 40
1.0
 40
1.0
 40
1.0
 40
1.0
 10
249.4459102244388
 20
212.9798364026351
 30
0.0
 10
249.4459102244388
 20
212.9467800137852
 30
0.0
 10
249.4459102244388
 20
212.8877436901639
 30
0.0
 10
249.4459102244388
 20
212.8508274229493
 30
0.0
 10
249.4459102244388
 20
212.8345817938958
 30
0.0
  0
LINE
  5
286
330
1F
100
AcDbEntity
  8
0
  6
Continuous
 62
     7
370
    25
100
AcDbLine
 10
249.4459102244
 20
215.6865428918
 30
0.0
 11
249.4359102244
 21
215.6865428918
 31
0.0
  0
SPLINE
  5
287
330
1F
100
AcDbEntity
  8
0
  6
Continuous
 62
     7
370
    25
100
AcDbSpline
210
0.0
220
0.0
230
1.0
 70
    24
 71
     3
 72
     9
 73
     5
 74
     0
 42
0.00000001
 43
0.00000001
 40
0.0
 40
0.0
 40
0.0
 40
0.0
 40
0.4900919240908754
 40
1.0
 40
1.0
 40
1.0
 40
1.0
 10
249.4459102244388
 20
215.6865428917815
 30
0.0
 10
249.4459102244388
 20
215.634933921506
 30
0.0
 10
249.4459102244388
 20
215.5296292475487
 30
0.0
 10
249.4459102244388
 20
215.4150224046904
 30
0.0
 10
249.4459102244388
 20
215.3565834499625
 30
0.0
  0
SPLINE
  5
288
330
1F
100
AcDbEntity
  8
0
  6
Continuous
 62
     7
370
    25
100
AcDbSpline
210
0.0
220
0.0
230
1.0
 70
    24
 71
     3
 72
    10
 73
     6
 74
     0
 42
0.00000001
 43
0.00000001
 40
0.0
 40
0.0
 40
0.0
 40
0.0
 40
0.3569843858091936
 40
0.6573966884603918
 40
1.0
 40
1.0
 40
1.0
 40
1.0
 10
249.4459102244388
 20
214.595713112035
 30
0.0
 10
249.4459102244388
 20
214.5427164022014
 30
0.0
 10
249.4459102244388
 20
214.4451214850879
 30
0.0
 10
249.4459102244388
 20
214.3054681086682
 30
0.0
 10
249.4459102244388
 20
214.2222698056002
 30
0.0
 10
249.4459102244388
 20
214.1779411555387
 30
0.0
  0
LINE
  5
289
330
1F
100
AcDbEntity
  8
0
  6
Continuous
 62
     7
370
    25
100
AcDbLine
 10
249.5259102244
 20
212.2724159038
 30
0.0
 11
249.4459102244
 21
212.2724159038
 31
0.0
  0
SPLINE
  5
28A
330
1F
100
AcDbEntity
  8
0
  6
Continuous
 62
     7
370
    25
100
AcDbSpline
210
0.0
220
0.0
230
1.0
 70
    24
 71
     3
 72
     9
 73
     5
 74
     0
 42
0.00000001
 43
0.00000001
 40
0.0
 40
0.0
 40
0.0
 40
0.0
 40
0.5599648327524303
 40
1.0
 40
1.0
 40
1.0
 40
1.0
 10
249.5259102244389
 20
212.3052470632508
 30
0.0
 10
249.5259102244389
 20
212.2982107410623
 30
0.0
 10
249.5259102244389
 20
212.2856450909054
 30
0.0
 10
249.5259102244389
 20
212.2764583797973
 30
0.0
 10
249.5259102244389
 20
212.2724159038384
 30
0.0
  0
LINE
  5
28B
330
1F
100
AcDbEntity
  8
0
  6
Continuous
 62
     7
370
    25
100
AcDbLine
 10
249.4459102244
 20
210.8984879153
 30
0.0
 11
249.4359102244
 21
210.8984879153
 31
0.0
  0
SPLINE
  5
28C
330
1F
100
AcDbEntity
  8
0
  6
Continuous
 62
     7
370
    25
100
AcDbSpline
210
0.0
220
0.0
230
1.0
 70
    24
 71
     3
 72
    11
 73
     7
 74
     0
 42
0.00000001
 43
0.00000001
 40
0.0
 40
0.0
 40
0.0
 40
0.0
 40
0.2345443893680179
 40
0.5541492401839958
 40
0.9006184946692726
 40
1.0
 40
1.0
 40
1.0
 40
1.0
 10
249.4459102244388
 20
212.2724159038384
 30
0.0
 10
249.4459102244388
 20
212.2709933580284
 30
0.0
 10
249.4459102244388
 20
212.2676323623471
 30
0.0
 10
249.4459102244388
 20
212.2625732276788
 30
0.0
 10
249.4459102244388
 20
212.2581925178958
 30
0.0
 10
249.4459102244388
 20
212.2576666609286
 30
0.0
 10
249.4459102244388
 20
212.2575494457936
 30
0.0
  0
SPLINE
  5
28D
330
1F
100
AcDbEntity
  8
0
  6
Continuous
 62
     7
370
    25
100
AcDbSpline
210
0.0
220
0.0
230
1.0
 70
     8
 71
     3
 72
    10
 73
     6
 74
     0
 42
0.00000001
 43
0.00000001
 40
0.0
 40
0.0
 40
0.0
 40
0.0
 40
0.1551221709106703
 40
0.627191602607623
 40
1.0
 40
1.0
 40
1.0
 40
1.0
 10
249.5210026271324
 20
212.2579641974931
 30
0.0
 10
249.5215203189881
 20
212.2579489415594
 30
0.0
 10
249.5236134561763
 20
212.2578872586067
 30
0.0
 10
249.525425333252
 20
212.2581759889297
 30
0.0
 10
249.525761769523
 20
212.2585208959605
 30
0.0
 10
249.5259102244389
 20
212.2586730886598
 30
0.0
  0
SPLINE
  5
28E
330
1F
100
AcDbEntity
  8
0
  6
Continuous
 62
     7
370
    25
100
AcDbSpline
210
0.0
220
0.0
230
1.0
 70
    24
 71
     3
 72
    10
 73
     6
 74
     0
 42
0.00000001
 43
0.00000001
 40
0.0
 40
0.0
 40
0.0
 40
0.0
 40
0.2683051385037969
 40
0.6339144971233449
 40
1.0
 40
1.0
 40
1.0
 40
1.0
 10
249.5259102244389
 20
212.2724159038384
 30
0.0
 10
249.5259102244389
 20
212.27104442776
 30
0.0
 10
249.5259102244389
 20
212.2678040926201
 30
0.0
 10
249.5259102244389
 20
212.2627062729818
 30
0.0
 10
249.5259102244389
 20
212.260018066543
 30
0.0
 10
249.5259102244389
 20
212.2586730886598
 30
0.0
  0
LINE
  5
28F
330
1F
100
AcDbEntity
  8
0
  6
Continuous
 62
     7
370
    25
100
AcDbLine
 10
249.4759102244
 20
215.3993602037
 30
0.0
 11
249.4459102244
 21
215.3993602037
 31
0.0
  0
SPLINE
  5
290
330
1F
100
AcDbEntity
  8
0
  6
Continuous
 62
     7
370
    25
100
AcDbSpline
210
0.0
220
0.0
230
1.0
 70
    24
 71
     3
 72
    12
 73
     8
 74
     0
 42
0.00000001
 43
0.00000001
 40
0.0
 40
0.0
 40
0.0
 40
0.0
 40
0.0000053714270295
 40
0.114591202938795
 40
0.5392878434833075
 40
0.857677108509459
 40
1.0
 40
1.0
 40
1.0
 40
1.0
 10
249.4759102244388
 20
214.4562688723232
 30
0.0
 10
249.4759102244388
 20
214.4562702622698
 30
0.0
 10
249.4759102244535
 20
214.4859226543922
 30
0.0
 10
249.4759102244124
 20
214.6329411732478
 30
0.0
 10
249.4759102244466
 20
214.8927961559303
 30
0.0
 10
249.4759102244382
 20
215.1775324847769
 30
0.0
 10
249.4759102244387
 20
215.3470064267774
 30
0.0
 10
249.4759102244388
 20
215.3993602036783
 30
0.0
  0
LINE
  5
291
330
1F
100
AcDbEntity
  8
0
  6
Continuous
 62
     7
370
    25
100
AcDbLine
 10
249.4759102244
 20
214.4562688723
 30
0.0
 11
249.4459102244
 21
214.4562688723
 31
0.0
  0
SPLINE
  5
292
330
1F
100
AcDbEntity
  8
0
  6
Continuous
 62
     7
370
    25
100
AcDbSpline
210
0.0
220
0.0
230
1.0
 70
     8
 71
     3
 72
    13
 73
     9
 74
     0
 42
0.00000001
 43
0.00000001
 40
0.0
 40
0.0
 40
0.0
 40
0.0
 40
0.2144106032242879
 40
0.4288180648253346
 40
0.643316360851518
 40
0.8580059598692159
 40
0.969269938521977
 40
1.0
 40
1.0
 40
1.0
 40
1.0
 10
249.4759102244388
 20
215.3993602036783
 30
0.0
 10
249.4781576654181
 20
215.3993662748651
 30
0.0
 10
249.4826525144464
 20
215.3993784171498
 30
0.0
 10
249.4886344186121
 20
215.3994731056479
 30
0.0
 10
249.4931879157753
 20
215.3996124594169
 30
0.0
 10
249.4953668933633
 20
215.3997589056945
 30
0.0
 10
249.4958830466189
 20
215.3998606625959
 30
0.0
 10
249.4959053891201
 20
215.3999013625614
 30
0.0
 10
249.4959102244388
 20
215.3999101707652
 30
0.0
  0
SPLINE
  5
293
330
1F
100
AcDbEntity
  8
0
  6
Continuous
 62
     7
370
    25
100
AcDbSpline
210
0.0
220
0.0
230
1.0
 70
    24
 71
     3
 72
    12
 73
     8
 74
     0
 42
0.00000001
 43
0.00000001
 40
0.0
 40
0.0
 40
0.0
 40
0.0
 40
0.1356221674872252
 40
0.4487829797144342
 40
0.8684519763841382
 40
0.9788978397216074
 40
1.0
 40
1.0
 40
1.0
 40
1.0
 10
249.4959102244388
 20
215.3999101707652
 30
0.0
 10
249.4959102244388
 20
215.3497866798534
 30
0.0
 10
249.4959102244388
 20
215.1839246381102
 30
0.0
 10
249.4959102244388
 20
214.9034095965843
 30
0.0
 10
249.4959102244388
 20
214.6462567901524
 30
0.0
 10
249.4959102244388
 20
214.4954561125318
 30
0.0
 10
249.4959102244388
 20
214.4613344577822
 30
0.0
 10
249.4959102244388
 20
214.455860862606
 30
0.0
  0
SPLINE
  5
294
330
1F
100
AcDbEntity
  8
0
  6
Continuous
 62
     7
370
    25
100
AcDbSpline
210
0.0
220
0.0
230
1.0
 70
     8
 71
     3
 72
    13
 73
     9
 74
     0
 42
0.00000001
 43
0.00000001
 40
0.0
 40
0.0
 40
0.0
 40
0.0
 40
0.1346403205576368
 40
0.2685886899287928
 40
0.4615120346876896
 40
0.7373034193141639
 40
0.9927087075800245
 40
1.0
 40
1.0
 40
1.0
 40
1.0
 10
249.4759102244388
 20
214.4562688723232
 30
0.0
 10
249.4776614762494
 20
214.4562660633727
 30
0.0
 10
249.4811549797378
 20
214.4562604599077
 30
0.0
 10
249.4863491191552
 20
214.4562149111895
 30
0.0
 10
249.4914877151847
 20
214.4561310674001
 30
0.0
 10
249.495045926607
 20
214.4560072249757
 30
0.0
 10
249.4959025257442
 20
214.4559096845629
 30
0.0
 10
249.4959100165279
 20
214.4558621810918
 30
0.0
 10
249.4959102244388
 20
214.455860862606
 30
0.0
  0
LINE
  5
295
330
1F
100
AcDbEntity
  8
0
  6
Continuous
 62
     7
370
    25
100
AcDbLine
 10
249.4459102244
 20
213.781264296
 30
0.0
 11
249.4359102244
 21
213.781264296
 31
0.0
  0
SPLINE
  5
296
330
1F
100
AcDbEntity
  8
0
  6
Continuous
 62
     7
370
    25
100
AcDbSpline
210
0.0
220
0.0
230
1.0
 70
    24
 71
     3
 72
     9
 73
     5
 74
     0
 42
0.00000001
 43
0.00000001
 40
0.0
 40
0.0
 40
0.0
 40
0.0
 40
0.6300374952833024
 40
1.0
 40
1.0
 40
1.0
 40
1.0
 10
249.4459102244388
 20
214.1779411555387
 30
0.0
 10
249.4459102244388
 20
214.0843113495028
 30
0.0
 10
249.4459102244388
 20
213.9357014544776
 30
0.0
 10
249.4459102244388
 20
213.8229705162605
 30
0.0
 10
249.4459102244388
 20
213.7812642959986
 30
0.0
  0
SPLINE
  5
297
330
1F
100
AcDbEntity
  8
0
  6
Continuous
 62
     7
370
    25
100
AcDbSpline
210
0.0
220
0.0
230
1.0
 70
    24
 71
     3
 72
    16
 73
    12
 74
     0
 42
0.00000001
 43
0.00000001
 40
0.0
 40
0.0
 40
0.0
 40
0.0
 40
0.0000275315870729
 40
0.1677745939441215
 40
0.5619686572574267
 40
0.6469221314167365
 40
0.7484662714063393
 40
0.8164294931921444
 40
0.8932158888675232
 40
0.9704920457732793
 40
1.0
 40
1.0
 40
1.0
 40
1.0
 10
249.4759102244388
 20
215.3993602036783
 30
0.0
 10
249.4759102244388
 20
215.3993621986691
 30
0.0
 10
249.4759102244383
 20
215.411519462407
 30
0.0
 10
249.4759102244396
 20
215.452193230654
 30
0.0
 10
249.4759102244388
 20
215.500027341691
 30
0.0
 10
249.4759102244388
 20
215.5404688902634
 30
0.0
 10
249.4759102244388
 20
215.5570805370803
 30
0.0
 10
249.4759102244388
 20
215.5699279919231
 30
0.0
 10
249.4759102244388
 20
215.576622003225
 30
0.0
 10
249.4759102244388
 20
215.5772299084601
 30
0.0
 10
249.4759102244388
 20
215.5760636162724
 30
0.0
 10
249.4759102244388
 20
215.5757413314669
 30
0.0
  0
SPLINE
  5
298
330
1F
100
AcDbEntity
  8
0
  6
Continuous
 62
     7
370
    25
100
AcDbSpline
210
0.0
220
0.0
230
1.0
 70
    24
 71
     3
 72
    14
 73
    10
 74
     0
 42
0.00000001
 43
0.00000001
 40
0.0
 40
0.0
 40
0.0
 40
0.0
 40
0.0409649558240132
 40
0.0927791835206066
 40
0.1440772720696972
 40
0.2387962125586528
 40
0.3290625308996517
 40
0.7911217992071747
 40
1.0
 40
1.0
 40
1.0
 40
1.0
 10
249.4959102244388
 20
215.5564804681325
 30
0.0
 10
249.4959102244388
 20
215.5565119049728
 30
0.0
 10
249.4959102244388
 20
215.5565831044728
 30
0.0
 10
249.4959102244388
 20
215.5528492691063
 30
0.0
 10
249.4959102244388
 20
215.5445358257027
 30
0.0
 10
249.4959102244388
 20
215.532073963966
 30
0.0
 10
249.4959102244388
 20
215.4960026528759
 30
0.0
 10
249.4959102244388
 20
215.4509056830213
 30
0.0
 10
249.4959102244388
 20
215.4120170827163
 30
0.0
 10
249.4959102244388
 20
215.3999101707652
 30
0.0
  0
SPLINE
  5
299
330
1F
100
AcDbEntity
  8
0
  6
Continuous
 62
     7
370
    25
100
AcDbSpline
210
0.0
220
0.0
230
1.0
 70
    24
 71
     3
 72
     9
 73
     5
 74
     0
 42
0.00000001
 43
0.00000001
 40
0.0
 40
0.0
 40
0.0
 40
0.0
 40
0.5607659425828538
 40
1.0
 40
1.0
 40
1.0
 40
1.0
 10
249.4459102244388
 20
213.2172274552638
 30
0.0
 10
249.4459102244388
 20
213.1695716778951
 30
0.0
 10
249.4459102244388
 20
213.0845883118419
 30
0.0
 10
249.4459102244388
 20
213.0118052167873
 30
0.0
 10
249.4459102244388
 20
212.9798364026351
 30
0.0
  0
SPLINE
  5
29A
330
1F
100
AcDbEntity
  8
0
  6
Continuous
 62
     7
370
    25
100
AcDbSpline
210
0.0
220
0.0
230
1.0
 70
    24
 71
     3
 72
    11
 73
     7
 74
     0
 42
0.00000001
 43
0.00000001
 40
0.0
 40
0.0
 40
0.0
 40
0.0
 40
0.2105248554328097
 40
0.440845662182209
 40
0.7997529775743858
 40
0.9999999999999999
 40
0.9999999999999999
 40
0.9999999999999999
 40
0.9999999999999999
 10
249.4759102244388
 20
213.7827672534273
 30
0.0
 10
249.4759102244388
 20
213.8326936398726
 30
0.0
 10
249.4759102244388
 20
213.9372410618269
 30
0.0
 10
249.4759102244388
 20
214.1244059224631
 30
0.0
 10
249.4759102244388
 20
214.313332331097
 30
0.0
 10
249.4759102244388
 20
214.4185778458452
 30
0.0
 10
249.4759102244388
 20
214.4562688723232
 30
0.0
  0
LINE
  5
29B
330
1F
100
AcDbEntity
  8
0
  6
Continuous
 62
     7
370
    25
100
AcDbLine
 10
249.4459102244
 20
213.7827672534
 30
0.0
 11
249.4759102244
 21
213.7827672534
 31
0.0
  0
ARC
  5
29C
330
1F
100
AcDbEntity
  8
0
  6
Continuous
 62
     7
370
    25
100
AcDbCircle
 10
249.4808024015
 20
213.7465159101
 30
0.0
 40
0.0365799574423665
100
AcDbArc
 50
65.6060531751
 51
97.6857246836
  0
SPLINE
  5
29D
330
1F
100
AcDbEntity
  8
0
  6
Continuous
 62
     7
370
    25
100
AcDbSpline
210
0.0
220
0.0
230
1.0
 70
    24
 71
     3
 72
    12
 73
     8
 74
     0
 42
0.00000001
 43
0.00000001
 40
0.0
 40
0.0
 40
0.0
 40
0.0
 40
0.0553777771015701
 40
0.2175918163432451
 40
0.5654031607080224
 40
0.7911054112461676
 40
1.0
 40
1.0
 40
1.0
 40
1.0
 10
249.4959102244388
 20
214.455860862606
 30
0.0
 10
249.4959102244388
 20
214.446921129113
 30
0.0
 10
249.4959102244388
 20
214.4117948934604
 30
0.0
 10
249.4959102244388
 20
214.2930794841
 30
0.0
 10
249.4959102244388
 20
214.120231244827
 30
0.0
 10
249.4959102244388
 20
213.9339778827219
 30
0.0
 10
249.4959102244388
 20
213.8298707264322
 30
0.0
 10
249.4959102244388
 20
213.7798302759888
 30
0.0
  0
LINE
  5
29E
330
1F
100
AcDbEntity
  8
0
  6
Continuous
 62
     7
370
    25
100
AcDbLine
 10
249.4759102244
 20
213.7796817807
 30
0.0
 11
249.4459102244
 21
213.7796817807
 31
0.0
  0
SPLINE
  5
29F
330
1F
100
AcDbEntity
  8
0
  6
Continuous
 62
     7
370
    25
100
AcDbSpline
210
0.0
220
0.0
230
1.0
 70
    24
 71
     3
 72
    12
 73
     8
 74
     0
 42
0.00000001
 43
0.00000001
 40
0.0
 40
0.0
 40
0.0
 40
0.0
 40
0.0000095851319361
 40
0.1236293449629774
 40
0.4028328852286512
 40
0.6770687793281367
 40
1.0
 40
1.0
 40
1.0
 40
1.0
 10
249.4759102244388
 20
213.2254221776073
 30
0.0
 10
249.4759102244388
 20
213.2254234400051
 30
0.0
 10
249.4759102244161
 20
213.2417058886382
 30
0.0
 10
249.4759102244634
 20
213.2987321660935
 30
0.0
 10
249.4759102244305
 20
213.4146398998315
 30
0.0
 10
249.4759102244413
 20
213.5871211900487
 30
0.0
 10
249.4759102244397
 20
213.7120978886206
 30
0.0
 10
249.4759102244388
 20
213.7796817806787
 30
0.0
  0
LINE
  5
2A0
330
1F
100
AcDbEntity
  8
0
  6
Continuous
 62
     7
370
    25
100
AcDbLine
 10
249.4759102244
 20
213.2254221776
 30
0.0
 11
249.4459102244
 21
213.2254221776
 31
0.0
  0
ARC
  5
2A1
330
1F
100
AcDbEntity
  8
0
  6
Continuous
 62
     7
370
    25
100
AcDbCircle
 10
249.4809099488
 20
214.4532150936
 30
0.0
 40
0.673551869487205
100
AcDbArc
 50
269.5746938751
 51
271.2761059455
  0
SPLINE
  5
2A2
330
1F
100
AcDbEntity
  8
0
  6
Continuous
 62
     7
370
    25
100
AcDbSpline
210
0.0
220
0.0
230
1.0
 70
     8
 71
     3
 72
    12
 73
     8
 74
     0
 42
0.00000001
 43
0.00000001
 40
0.0
 40
0.0
 40
0.0
 40
0.0
 40
0.2502079373959543
 40
0.5010675466637555
 40
0.7321499458056908
 40
0.9367681045063354
 40
1.0
 40
1.0
 40
1.0
 40
1.0
 10
249.4959102244388
 20
213.2345443185573
 30
0.0
 10
249.49564829877
 20
213.2334463598787
 30
0.0
 10
249.4951237652412
 20
213.2312475828648
 30
0.0
 10
249.4909503140507
 20
213.2282817270878
 30
0.0
 10
249.4849801691395
 20
213.2262237185384
 30
0.0
 10
249.4795728346873
 20
213.225477979555
 30
0.0
 10
249.4766097303729
 20
213.2254328349775
 30
0.0
 10
249.4759102244388
 20
213.2254221776073
 30
0.0
  0
SPLINE
  5
2A3
330
1F
100
AcDbEntity
  8
0
  6
Continuous
 62
     7
370
    25
100
AcDbSpline
210
0.0
220
0.0
230
1.0
 70
    24
 71
     3
 72
    12
 73
     8
 74
     0
 42
0.00000001
 43
0.00000001
 40
0.0
 40
0.0
 40
0.0
 40
0.0
 40
0.0257530614908197
 40
0.3190843494102814
 40
0.5886973728798132
 40
0.8624963763895791
 40
0.9999999999999999
 40
0.9999999999999999
 40
0.9999999999999999
 40
0.9999999999999999
 10
249.4959102244388
 20
213.7798302759888
 30
0.0
 10
249.4959102244388
 20
213.7745209602596
 30
0.0
 10
249.4959102244389
 20
213.7087377307251
 30
0.0
 10
249.4959102244388
 20
213.5870286452723
 30
0.0
 10
249.4959102244388
 20
213.4246967623823
 30
0.0
 10
249.4959102244388
 20
213.3083541205746
 30
0.0
 10
249.4959102244388
 20
213.2530373937033
 30
0.0
 10
249.4959102244388
 20
213.2345443185573
 30
0.0
  0
LINE
  5
2A4
330
1F
100
AcDbEntity
  8
0
  6
Continuous
 62
     7
370
    25
100
AcDbLine
 10
249.4459102244
 20
213.2254221776
 30
0.0
 11
249.4359102244
 21
213.2254221776
 31
0.0
  0
SPLINE
  5
2A5
330
1F
100
AcDbEntity
  8
0
  6
Continuous
 62
     7
370
    25
100
AcDbSpline
210
0.0
220
0.0
230
1.0
 70
    24
 71
     3
 72
    10
 73
     6
 74
     0
 42
0.00000001
 43
0.00000001
 40
0.0
 40
0.0
 40
0.0
 40
0.0
 40
0.3117248602455043
 40
0.5932732926868292
 40
1.0
 40
1.0
 40
1.0
 40
1.0
 10
249.4459102244388
 20
213.7812642959986
 30
0.0
 10
249.4459102244388
 20
213.7161300965294
 30
0.0
 10
249.4459102244388
 20
213.5921669934418
 30
0.0
 10
249.4459102244388
 20
213.3914666116004
 30
0.0
 10
249.4459102244388
 20
213.2870976040794
 30
0.0
 10
249.4459102244388
 20
213.2254221776073
 30
0.0
  0
LINE
  5
2A6
330
1F
100
AcDbEntity
  8
0
  6
Continuous
 62
     7
370
    25
100
AcDbLine
 10
249.4759102244
 20
213.7796817807
 30
0.0
 11
249.4759102244
 21
213.7827672534
 31
0.0
  0
LINE
  5
2A7
330
1F
100
AcDbEntity
  8
0
  6
Continuous
 62
     7
370
    25
100
AcDbLine
 10
249.4459102244
 20
213.2254221776
 30
0.0
 11
249.4459102244
 21
213.2172274553
 31
0.0
  0
SPLINE
  5
2A8
330
1F
100
AcDbEntity
  8
0
  6
Continuous
 62
     7
370
    25
100
AcDbSpline
210
0.0
220
0.0
230
1.0
 70
    24
 71
     3
 72
    12
 73
     8
 74
     0
 42
0.00000001
 43
0.00000001
 40
0.0
 40
0.0
 40
0.0
 40
0.0
 40
0.0000082321050569
 40
0.0492564968434123
 40
0.5785655373581372
 40
0.9312895502352682
 40
1.0
 40
1.0
 40
1.0
 40
1.0
 10
249.5059102244388
 20
213.2290660804594
 30
0.0
 10
249.5059102244388
 20
213.2290679913445
 30
0.0
 10
249.505910224442
 20
213.2405017019842
 30
0.0
 10
249.505910224422
 20
213.3752197763321
 30
0.0
 10
249.5059102244439
 20
213.6028062096966
 30
0.0
 10
249.5059102244387
 20
213.8345094729972
 30
0.0
 10
249.5059102244388
 20
213.9323938137563
 30
0.0
 10
249.5059102244388
 20
213.9483528244085
 30
0.0
  0
LWPOLYLINE
  5
2A9
330
1F
100
AcDbEntity
  8
0
  6
Continuous
 62
     7
370
    25
100
AcDbPolyline
 90
        9
 70
   128
 43
0.0
 10
249.5259102244
 20
213.942164582
 10
249.52552593
 20
213.9433718482
 10
249.5243878151
 20
213.9445327198
 10
249.5225396167
 20
213.9456025853
 10
249.5200523601
 20
213.9465403302
 10
249.5170216291
 20
213.9473099175
 10
249.5135638931
 20
213.9478817725
 10
249.5098120309
 20
213.9482339191
 10
249.5059102244
 20
213.9483528244
  0
SPLINE
  5
2AA
330
1F
100
AcDbEntity
  8
0
  6
Continuous
 62
     7
370
    25
100
AcDbSpline
210
0.0
220
0.0
230
1.0
 70
    24
 71
     3
 72
    13
 73
     9
 74
     0
 42
0.00000001
 43
0.00000001
 40
0.0
 40
0.0
 40
0.0
 40
0.0
 40
0.06691401445749
 40
0.410974146786661
 40
0.8935630472092414
 40
0.9294721705663302
 40
0.9721331224593481
 40
1.0
 40
1.0
 40
1.0
 40
1.0
 10
249.5259102244389
 20
213.9421645819747
 30
0.0
 10
249.5259102244389
 20
213.9265319848755
 30
0.0
 10
249.5259102244389
 20
213.8305193138829
 30
0.0
 10
249.5259102244389
 20
213.6114440484209
 30
0.0
 10
249.5259102244389
 20
213.3995596262862
 30
0.0
 10
249.5259102244389
 20
213.2673355001858
 30
0.0
 10
249.5259102244389
 20
213.2423908558819
 30
0.0
 10
249.5259102244389
 20
213.2259315532019
 30
0.0
 10
249.5259102244389
 20
213.2194281718292
 30
0.0
  0
SPLINE
  5
2AB
330
1F
100
AcDbEntity
  8
0
  6
Continuous
 62
     7
370
    25
100
AcDbSpline
210
0.0
220
0.0
230
1.0
 70
    24
 71
     3
 72
    12
 73
     8
 74
     0
 42
0.00000001
 43
0.00000001
 40
0.0
 40
0.0
 40
0.0
 40
0.0
 40
0.0000139801855761
 40
0.0488544145829193
 40
0.3947059641436758
 40
0.7405859663893918
 40
1.0
 40
1.0
 40
1.0
 40
1.0
 10
249.5059102244388
 20
214.8129223488226
 30
0.0
 10
249.5059102244388
 20
214.8129242727538
 30
0.0
 10
249.5059102244325
 20
214.8196475409008
 30
0.0
 10
249.5059102244612
 20
214.8743227207976
 30
0.0
 10
249.5059102244294
 20
214.9820322353531
 30
0.0
 10
249.5059102244405
 20
215.1168378855755
 30
0.0
 10
249.5059102244394
 20
215.1874500273611
 30
0.0
 10
249.5059102244388
 20
215.2177126426148
 30
0.0
  0
LWPOLYLINE
  5
2AC
330
1F
100
AcDbEntity
  8
0
  6
Continuous
 62
     7
370
    25
100
AcDbPolyline
 90
        9
 70
   128
 43
0.0
 10
249.5059102244
 20
215.2177126426
 10
249.5098120309
 20
215.2174655045
 10
249.5135638931
 20
215.2167336552
 10
249.5170216291
 20
215.2155452191
 10
249.5200523601
 20
215.2139458672
 10
249.5225396167
 20
215.2119970618
 10
249.5243878151
 20
215.2097736943
 10
249.52552593
 20
215.2073612074
 10
249.5259102244
 20
215.2048523118
  0
ARC
  5
2AD
330
1F
100
AcDbEntity
  8
0
  6
Continuous
 62
     7
370
    25
100
AcDbCircle
 10
249.5105368564
 20
214.8353185956
 30
0.0
 40
0.0228691405961309
100
AcDbArc
 50
258.3279868271
 51
312.2395658323
  0
SPLINE
  5
2AE
330
1F
100
AcDbEntity
  8
0
  6
Continuous
 62
     7
370
    25
100
AcDbSpline
210
0.0
220
0.0
230
1.0
 70
    24
 71
     3
 72
    11
 73
     7
 74
     0
 42
0.00000001
 43
0.00000001
 40
0.0
 40
0.0
 40
0.0
 40
0.0
 40
0.2594507833922135
 40
0.6053353512628493
 40
0.9511480069338881
 40
1.0
 40
1.0
 40
1.0
 40
1.0
 10
249.5259102244389
 20
215.2048523117904
 30
0.0
 10
249.5259102244389
 20
215.1759535023093
 30
0.0
 10
249.5259102244389
 20
215.1085284949162
 30
0.0
 10
249.5259102244389
 20
214.9798717985549
 30
0.0
 10
249.5259102244388
 20
214.8769067710668
 30
0.0
 10
249.5259102244389
 20
214.8248333450257
 30
0.0
 10
249.5259102244389
 20
214.8183876431975
 30
0.0
  0
LWPOLYLINE
  5
2AF
330
1F
100
AcDbEntity
  8
0
  6
Continuous
 62
     7
370
    25
100
AcDbPolyline
 90
        9
 70
   128
 43
0.0
 10
249.5259102244
 20
213.942164582
 10
249.52552593
 20
213.9436723433
 10
249.5243878151
 20
213.9451221622
 10
249.5225396167
 20
213.9464583229
 10
249.5200523601
 20
213.9476294776
 10
249.5170216291
 20
213.9485906194
 10
249.5135638931
 20
213.9493048122
 10
249.5098120309
 20
213.94974461
 10
249.5059102244
 20
213.9498931115
  0
LINE
  5
2B0
330
1F
100
AcDbEntity
  8
0
  6
Continuous
 62
     7
370
    25
100
AcDbLine
 10
249.5059102244
 20
213.9483528244
 30
0.0
 11
249.5059102244
 21
213.9498931115
 31
0.0
  0
SPLINE
  5
2B1
330
1F
100
AcDbEntity
  8
0
  6
Continuous
 62
     7
370
    25
100
AcDbSpline
210
0.0
220
0.0
230
1.0
 70
    24
 71
     3
 72
    11
 73
     7
 74
     0
 42
0.00000001
 43
0.00000001
 40
0.0
 40
0.0
 40
0.0
 40
0.0
 40
0.3051996366096368
 40
0.5706049710724963
 40
0.9300866498153438
 40
1.0
 40
1.0
 40
1.0
 40
1.0
 10
249.5059102244388
 20
213.9498931115119
 30
0.0
 10
249.5059102244388
 20
213.9864697942056
 30
0.0
 10
249.5059102244388
 20
214.054854007248
 30
0.0
 10
249.5059102244388
 20
214.1515025492926
 30
0.0
 10
249.5059102244388
 20
214.2123130114301
 30
0.0
 10
249.5059102244388
 20
214.2436951277306
 30
0.0
 10
249.5059102244388
 20
214.2488047092084
 30
0.0
  0
SPLINE
  5
2B2
330
1F
100
AcDbEntity
  8
0
  6
Continuous
 62
     7
370
    25
100
AcDbSpline
210
0.0
220
0.0
230
1.0
 70
     8
 71
     3
 72
    12
 73
     8
 74
     0
 42
0.00000001
 43
0.00000001
 40
0.0
 40
0.0
 40
0.0
 40
0.0
 40
0.2146924559328864
 40
0.4293848948885146
 40
0.6440778262488105
 40
0.8587718150235597
 40
1.0
 40
1.0
 40
1.0
 40
1.0
 10
249.5059102244388
 20
214.2488047092084
 30
0.0
 10
249.5081586945271
 20
214.2486184917753
 30
0.0
 10
249.5126556345259
 20
214.2482460569239
 30
0.0
 10
249.5186491037716
 20
214.2453417500524
 30
0.0
 10
249.5231721771722
 20
214.2410672829517
 30
0.0
 10
249.5255687989232
 20
214.2363307763831
 30
0.0
 10
249.5258132338503
 20
214.2332010515869
 30
0.0
 10
249.5259102244389
 20
214.2319591920315
 30
0.0
  0
SPLINE
  5
2B3
330
1F
100
AcDbEntity
  8
0
  6
Continuous
 62
     7
370
    25
100
AcDbSpline
210
0.0
220
0.0
230
1.0
 70
    24
 71
     3
 72
    11
 73
     7
 74
     0
 42
0.00000001
 43
0.00000001
 40
0.0
 40
0.0
 40
0.0
 40
0.0
 40
0.0700162226520595
 40
0.4298933146259048
 40
0.694973265589307
 40
1.0
 40
1.0
 40
1.0
 40
1.0
 10
249.5259102244389
 20
214.2319591920315
 30
0.0
 10
249.5259102244389
 20
214.2269970737059
 30
0.0
 10
249.5259102244389
 20
214.1965301131398
 30
0.0
 10
249.5259102244389
 20
214.1375667208993
 30
0.0
 10
249.5259102244389
 20
214.0438635618579
 30
0.0
 10
249.5259102244389
 20
213.9776116429889
 30
0.0
 10
249.5259102244389
 20
213.9421645819747
 30
0.0
  0
SPLINE
  5
2B4
330
1F
100
AcDbEntity
  8
0
  6
Continuous
 62
     7
370
    25
100
AcDbSpline
210
0.0
220
0.0
230
1.0
 70
    24
 71
     3
 72
    11
 73
     7
 74
     0
 42
0.00000001
 43
0.00000001
 40
0.0
 40
0.0
 40
0.0
 40
0.0
 40
0.3203627576397806
 40
0.6601813626336509
 40
0.6815683741336968
 40
1.0
 40
1.0
 40
1.0
 40
1.0
 10
249.5059102244388
 20
214.6927943849499
 30
0.0
 10
249.5059102244388
 20
214.7056234065993
 30
0.0
 10
249.5059102244388
 20
214.7320605650759
 30
0.0
 10
249.5059102244388
 20
214.7593531490099
 30
0.0
 10
249.5059102244388
 20
214.786567277491
 30
0.0
 10
249.5059102244388
 20
214.8001729605083
 30
0.0
 10
249.5059102244388
 20
214.8129223488226
 30
0.0
  0
SPLINE
  5
2B5
330
1F
100
AcDbEntity
  8
0
  6
Continuous
 62
     7
370
    25
100
AcDbSpline
210
0.0
220
0.0
230
1.0
 70
     8
 71
     3
 72
    22
 73
    18
 74
     0
 42
0.00000001
 43
0.00000001
 40
0.0
 40
0.0
 40
0.0
 40
0.0
 40
0.1989689958644347
 40
0.4605293532522576
 40
0.6365175913235437
 40
0.7548571907057541
 40
0.8344285976549519
 40
0.8879703002696606
 40
0.9240589350258495
 40
0.948458922572292
 40
0.9650399728217837
 40
0.976398922906626
 40
0.9867861477809798
 40
0.9925239529413148
 40
0.9962999976569875
 40
0.9990389462419521
 40
1.0
 40
1.0
 40
1.0
 40
1.0
 10
249.5259102244389
 20
214.5083792566469
 30
0.0
 10
249.5257976181075
 20
214.5206882683487
 30
0.0
 10
249.5255369819177
 20
214.5491784417729
 30
0.0
 10
249.5235449117205
 20
214.5886776612878
 30
0.0
 10
249.5207190242606
 20
214.6232264632717
 30
0.0
 10
249.5180967414137
 20
214.6464741088097
 30
0.0
 10
249.5158493785136
 20
214.6620890958564
 30
0.0
 10
249.5139721625251
 20
214.67256226275
 30
0.0
 10
249.5124181084418
 20
214.6795785958105
 30
0.0
 10
249.5111306333604
 20
214.6842732099004
 30
0.0
 10
249.5100590535335
 20
214.6874114486927
 30
0.0
 10
249.5090923725416
 20
214.6896478254324
 30
0.0
 10
249.5082207863083
 20
214.691180371694
 30
0.0
 10
249.5073752180144
 20
214.6921621044704
 30
0.0
 10
249.5067084760239
 20
214.6926273461501
 30
0.0
 10
249.5062227742251
 20
214.6927824895278
 30
0.0
 10
249.505974668449
 20
214.6927919322568
 30
0.0
 10
249.5059102244388
 20
214.6927943849499
 30
0.0
  0
SPLINE
  5
2B6
330
1F
100
AcDbEntity
  8
0
  6
Continuous
 62
     7
370
    25
100
AcDbSpline
210
0.0
220
0.0
230
1.0
 70
    24
 71
     3
 72
    12
 73
     8
 74
     0
 42
0.00000001
 43
0.00000001
 40
0.0
 40
0.0
 40
0.0
 40
0.0
 40
0.12343312635739
 40
0.2468662461668784
 40
0.3702993652736492
 40
0.4937324842169857
 40
0.9999999999999999
 40
0.9999999999999999
 40
0.9999999999999999
 40
0.9999999999999999
 10
249.5259102244389
 20
214.8183876431975
 30
0.0
 10
249.5259102244389
 20
214.8056344488632
 30
0.0
 10
249.5259102244389
 20
214.7801280608711
 30
0.0
 10
249.5259102244389
 20
214.7418629783461
 30
0.0
 10
249.5259102244389
 20
214.703597117331
 30
0.0
 10
249.5259102244389
 20
214.6257688783885
 30
0.0
 10
249.5259102244389
 20
214.5606963503534
 30
0.0
 10
249.5259102244389
 20
214.5083792566469
 30
0.0
  0
SPLINE
  5
2B7
330
1F
100
AcDbEntity
  8
0
  6
Continuous
 62
     7
370
    25
100
AcDbSpline
210
0.0
220
0.0
230
1.0
 70
    24
 71
     3
 72
     9
 73
     5
 74
     0
 42
0.00000001
 43
0.00000001
 40
0.0
 40
0.0
 40
0.0
 40
0.0
 40
0.56000106318824
 40
1.0
 40
1.0
 40
1.0
 40
1.0
 10
249.4459102244388
 20
212.0140465654288
 30
0.0
 10
249.4459102244388
 20
212.0140457554945
 30
0.0
 10
249.4459102244388
 20
212.0140443091861
 30
0.0
 10
249.4459102244388
 20
212.0140428628892
 30
0.0
 10
249.4459102244388
 20
212.0140422265201
 30
0.0
  0
LINE
  5
2B8
330
1F
100
AcDbEntity
  8
0
  6
Continuous
 62
     7
370
    25
100
AcDbLine
 10
249.4459102244
 20
212.0140433158
 30
0.0
 11
249.4359102244
 21
212.0140433158
 31
0.0
  0
SPLINE
  5
2B9
330
1F
100
AcDbEntity
  8
0
  6
Continuous
 62
     7
370
    25
100
AcDbSpline
210
0.0
220
0.0
230
1.0
 70
    24
 71
     3
 72
    12
 73
     8
 74
     0
 42
0.00000001
 43
0.00000001
 40
0.0
 40
0.0
 40
0.0
 40
0.0
 40
0.0317022981163562
 40
0.484525917503624
 40
0.8569922657268682
 40
0.9585698679564196
 40
1.0
 40
1.0
 40
1.0
 40
1.0
 10
249.4459102244388
 20
212.2384217280115
 30
0.0
 10
249.4459102244388
 20
212.2352759310019
 30
0.0
 10
249.4459102244388
 20
212.1871967609446
 30
0.0
 10
249.4459102244388
 20
212.1260958654495
 30
0.0
 10
249.4459102244388
 20
212.0611720007285
 30
0.0
 10
249.4459102244388
 20
212.0284809539583
 30
0.0
 10
249.4459102244388
 20
212.0172889507084
 30
0.0
 10
249.4459102244388
 20
212.0140465654288
 30
0.0
  0
LINE
  5
2BA
330
1F
100
AcDbEntity
  8
0
  6
Continuous
 62
     7
370
    25
100
AcDbLine
 10
249.5259102244
 20
214.249331109
 30
0.0
 11
249.4959102244
 21
214.249331109
 31
0.0
  0
SPLINE
  5
2BB
330
1F
100
AcDbEntity
  8
0
  6
Continuous
 62
     7
370
    25
100
AcDbSpline
210
0.0
220
0.0
230
1.0
 70
    24
 71
     3
 72
     9
 73
     5
 74
     0
 42
0.00000001
 43
0.00000001
 40
0.0
 40
0.0
 40
0.0
 40
0.0
 40
0.5272561673338537
 40
1.0
 40
1.0
 40
1.0
 40
1.0
 10
249.5259102244389
 20
214.5083792566469
 30
0.0
 10
249.5259102244389
 20
214.4626576466567
 30
0.0
 10
249.5259102244389
 20
214.3759415249251
 30
0.0
 10
249.5259102244389
 20
214.2899724561134
 30
0.0
 10
249.5259102244389
 20
214.2493311090326
 30
0.0
  0
SPLINE
  5
2BC
330
1F
100
AcDbEntity
  8
0
  6
Continuous
 62
     7
370
    25
100
AcDbSpline
210
0.0
220
0.0
230
1.0
 70
    24
 71
     3
 72
    14
 73
    10
 74
     0
 42
0.00000001
 43
0.00000001
 40
0.0
 40
0.0
 40
0.0
 40
0.0
 40
0.0000038063134841
 40
0.3514897692696088
 40
0.5589565773319878
 40
0.7658804801727399
 40
0.8148940515838046
 40
0.9149013860668098
 40
1.0
 40
1.0
 40
1.0
 40
1.0
 10
249.5059102244388
 20
215.2177126426148
 30
0.0
 10
249.5059102244388
 20
215.2177141743182
 30
0.0
 10
249.5059102243575
 20
215.3591576149495
 30
0.0
 10
249.5059102244608
 20
215.5636134833158
 30
0.0
 10
249.5059102244341
 20
215.8000064058989
 30
0.0
 10
249.5059102244391
 20
215.9142514549744
 30
0.0
 10
249.5059102244388
 20
215.978680852596
 30
0.0
 10
249.5059102244389
 20
216.0131834126408
 30
0.0
 10
249.5059102244388
 20
216.0171255046867
 30
0.0
 10
249.5059102244388
 20
216.0189377996021
 30
0.0
  0
SPLINE
  5
2BD
330
1F
100
AcDbEntity
  8
0
  6
Continuous
 62
     7
370
    25
100
AcDbSpline
210
0.0
220
0.0
230
1.0
 70
    24
 71
     3
 72
    13
 73
     9
 74
     0
 42
0.00000001
 43
0.00000001
 40
0.0
 40
0.0
 40
0.0
 40
0.0
 40
0.1156414531489074
 40
0.2326492481625203
 40
0.4396973415066878
 40
0.6472936452224444
 40
0.9265959023405967
 40
1.0
 40
1.0
 40
1.0
 40
1.0
 10
249.5259102244389
 20
216.0009129645702
 30
0.0
 10
249.5259102244389
 20
215.9962440482026
 30
0.0
 10
249.5259102244389
 20
215.9868510506822
 30
0.0
 10
249.5259102244388
 20
215.9109697547111
 30
0.0
 10
249.5259102244389
 20
215.7832362489387
 30
0.0
 10
249.5259102244388
 20
215.5700950732705
 30
0.0
 10
249.5259102244389
 20
215.3724170787067
 30
0.0
 10
249.5259102244389
 20
215.2337179273712
 30
0.0
 10
249.5259102244389
 20
215.2048523117904
 30
0.0
  0
SPLINE
  5
2BE
330
1F
100
AcDbEntity
  8
0
  6
Continuous
 62
     7
370
    25
100
AcDbSpline
210
0.0
220
0.0
230
1.0
 70
    24
 71
     3
 72
    10
 73
     6
 74
     0
 42
0.00000001
 43
0.00000001
 40
0.0
 40
0.0
 40
0.0
 40
0.0
 40
0.2895109318873089
 40
0.6444284159994649
 40
1.0
 40
1.0
 40
1.0
 40
1.0
 10
249.4459102244388
 20
216.0177932323765
 30
0.0
 10
249.4459102244388
 20
216.0107536410885
 30
0.0
 10
249.4459102244388
 20
215.9950840681526
 30
0.0
 10
249.4459102244388
 20
215.8809515378118
 30
0.0
 10
249.4459102244388
 20
215.7747123762279
 30
0.0
 10
249.4459102244388
 20
215.7215438917815
 30
0.0
  0
LINE
  5
2BF
330
1F
100
AcDbEntity
  8
0
  6
Continuous
 62
     7
370
    25
100
AcDbLine
 10
249.4459102244
 20
215.32158345
 30
0.0
 11
249.4459102244
 21
215.2177126426
 31
0.0
  0
LINE
  5
2C0
330
1F
100
AcDbEntity
  8
0
  6
Continuous
 62
     7
370
    25
100
AcDbLine
 10
249.5259102244
 20
214.249331109
 30
0.0
 11
249.5259102244
 21
214.231959192
 31
0.0
  0
LINE
  5
2C1
330
1F
100
AcDbEntity
  8
0
  6
Continuous
 62
     7
370
    25
100
AcDbLine
 10
249.4959102244
 20
211.8919305886
 30
0.0
 11
249.4459102244
 21
211.8919305886
 31
0.0
  0
SPLINE
  5
2C2
330
1F
100
AcDbEntity
  8
0
  6
Continuous
 62
     7
370
    25
100
AcDbSpline
210
0.0
220
0.0
230
1.0
 70
    24
 71
     3
 72
    11
 73
     7
 74
     0
 42
0.00000001
 43
0.00000001
 40
0.0
 40
0.0
 40
0.0
 40
0.0
 40
0.2837025948834582
 40
0.5579210124183979
 40
0.7750227467052958
 40
1.0
 40
1.0
 40
1.0
 40
1.0
 10
249.4959102244388
 20
211.8919305885851
 30
0.0
 10
249.4959102244388
 20
211.8911600642179
 30
0.0
 10
249.4959102244388
 20
211.889644774112
 30
0.0
 10
249.4959102244388
 20
211.8863677836085
 30
0.0
 10
249.4959102244388
 20
211.8832142938415
 30
0.0
 10
249.4959102244388
 20
211.8814713919734
 30
0.0
 10
249.4959102244388
 20
211.8805844163739
 30
0.0
  0
LINE
  5
2C3
330
1F
100
AcDbEntity
  8
0
  6
Continuous
 62
     7
370
    25
100
AcDbLine
 10
249.4959102244
 20
211.8805844164
 30
0.0
 11
249.4959102244
 21
211.8446779324
 31
0.0
  0
LINE
  5
2C4
330
1F
100
AcDbEntity
  8
0
  6
Continuous
 62
     7
370
    25
100
AcDbLine
 10
249.4959102244
 20
212.0140422265
 30
0.0
 11
249.4459102244
 21
212.0140422265
 31
0.0
  0
LINE
  5
2C5
330
1F
100
AcDbEntity
  8
0
  6
Continuous
 62
     7
370
    25
100
AcDbLine
 10
249.4459102244
 20
212.0140430993
 30
0.0
 11
249.4459102244
 21
211.8919305886
 31
0.0
  0
LINE
  5
2C6
330
1F
100
AcDbEntity
  8
0
  6
Continuous
 62
     7
370
    25
100
AcDbLine
 10
249.4959102244
 20
212.0140422265
 30
0.0
 11
249.4959102244
 21
211.8919305886
 31
0.0
  0
SPLINE
  5
2C7
330
1F
100
AcDbEntity
  8
0
  6
Continuous
 62
     7
370
    25
100
AcDbSpline
210
0.0
220
0.0
230
1.0
 70
    24
 71
     3
 72
    10
 73
     6
 74
     0
 42
0.00000001
 43
0.00000001
 40
0.0
 40
0.0
 40
0.0
 40
0.0
 40
0.4321127952280567
 40
0.8499190843001114
 40
1.0
 40
1.0
 40
1.0
 40
1.0
 10
249.4959102244388
 20
211.844677932364
 30
0.0
 10
249.4959102244388
 20
211.8437183585996
 30
0.0
 10
249.4959102244388
 20
211.8418309808961
 30
0.0
 10
249.4959102244389
 20
211.8406563685386
 30
0.0
 10
249.4959102244388
 20
211.8407488514208
 30
0.0
 10
249.4959102244388
 20
211.8407732927457
 30
0.0
  0
SPLINE
  5
2C8
330
1F
100
AcDbEntity
  8
0
  6
Continuous
 62
     7
370
    25
100
AcDbSpline
210
0.0
220
0.0
230
1.0
 70
    24
 71
     3
 72
     9
 73
     5
 74
     0
 42
0.00000001
 43
0.00000001
 40
0.0
 40
0.0
 40
0.0
 40
0.0
 40
0.2330470554791664
 40
1.0
 40
1.0
 40
1.0
 40
1.0
 10
249.4959102244388
 20
212.2579148276239
 30
0.0
 10
249.4959102244388
 20
212.2375789910055
 30
0.0
 10
249.4959102244388
 20
212.1503183449679
 30
0.0
 10
249.4959102244388
 20
212.0731934170685
 30
0.0
 10
249.4959102244388
 20
212.0140422265202
 30
0.0
  0
LINE
  5
2C9
330
1F
100
AcDbEntity
  8
0
  6
Continuous
 62
     7
370
    25
100
AcDbLine
 10
249.5459102244
 20
213.2082090304
 30
0.0
 11
249.5259102244
 21
213.2082090304
 31
0.0
  0
LINE
  5
2CA
330
1F
100
AcDbEntity
  8
0
  6
Continuous
 62
     7
370
    25
100
AcDbLine
 10
249.5459102244
 20
213.3468862657
 30
0.0
 11
249.5402509908
 21
213.3841468917
 31
0.0
  0
SPLINE
  5
2CB
330
1F
100
AcDbEntity
  8
0
  6
Continuous
 62
     7
370
    25
100
AcDbSpline
210
0.0
220
0.0
230
1.0
 70
    24
 71
     3
 72
     9
 73
     5
 74
     0
 42
0.00000001
 43
0.00000001
 40
0.0
 40
0.0
 40
0.0
 40
0.0
 40
0.4977665372076231
 40
1.0
 40
1.0
 40
1.0
 40
1.0
 10
249.5459102244388
 20
213.3468862657073
 30
0.0
 10
249.5459102244388
 20
213.3234486464859
 30
0.0
 10
249.5459102244388
 20
213.2763630803229
 30
0.0
 10
249.5459102244388
 20
213.2309945995884
 30
0.0
 10
249.5459102244388
 20
213.2082090304074
 30
0.0
  0
SPLINE
  5
2CC
330
1F
100
AcDbEntity
  8
0
  6
Continuous
 62
     7
370
    25
100
AcDbSpline
210
0.0
220
0.0
230
1.0
 70
     8
 71
     3
 72
    10
 73
     6
 74
     0
 42
0.00000001
 43
0.00000001
 40
0.0
 40
0.0
 40
0.0
 40
0.0
 40
0.2759401981456868
 40
0.5510181873090312
 40
1.0
 40
1.0
 40
1.0
 40
1.0
 10
249.5402509907809
 20
213.3841468916578
 30
0.0
 10
249.5402464468
 20
213.3841614464829
 30
0.0
 10
249.5402373730363
 20
213.3841905106548
 30
0.0
 10
249.5402267059798
 20
213.3842417515527
 30
0.0
 10
249.5402156083924
 20
213.3842797470192
 30
0.0
 10
249.5402087268961
 20
213.3843033076055
 30
0.0
  0
ARC
  5
2CD
330
1F
100
AcDbEntity
  8
0
  6
Continuous
 62
     7
370
    25
100
AcDbCircle
 10
249.5274196686
 20
213.6114975342
 30
0.0
 40
0.0185785992787481
100
AcDbArc
 50
5.58021851
 51
94.6602118535
  0
SPLINE
  5
2CE
330
1F
100
AcDbEntity
  8
0
  6
Continuous
 62
     7
370
    25
100
AcDbSpline
210
0.0
220
0.0
230
1.0
 70
    24
 71
     3
 72
    12
 73
     8
 74
     0
 42
0.00000001
 43
0.00000001
 40
0.0
 40
0.0
 40
0.0
 40
0.0
 40
0.2407543826762546
 40
0.4814845857731561
 40
0.722700783713698
 40
0.9647389857599599
 40
1.0
 40
1.0
 40
1.0
 40
1.0
 10
249.5459102244388
 20
213.6133041040414
 30
0.0
 10
249.5459102244388
 20
213.5946546912871
 30
0.0
 10
249.5459102244388
 20
213.5573577387867
 30
0.0
 10
249.5459102244389
 20
213.5026473053279
 30
0.0
 10
249.5459102244388
 20
213.4414386197462
 30
0.0
 10
249.5459102244388
 20
213.3817807634917
 30
0.0
 10
249.5459102244388
 20
213.3508228362083
 30
0.0
 10
249.5459102244388
 20
213.3468862657073
 30
0.0
  0
LINE
  5
2CF
330
1F
100
AcDbEntity
  8
0
  6
Continuous
 62
     7
370
    25
100
AcDbLine
 10
249.5459102244
 20
213.1882616981
 30
0.0
 11
249.5259102244
 21
213.1882616981
 31
0.0
  0
LINE
  5
2D0
330
1F
100
AcDbEntity
  8
0
  6
Continuous
 62
     7
370
    25
100
AcDbLine
 10
249.5459102244
 20
213.2082090304
 30
0.0
 11
249.5459102244
 21
213.1882616981
 31
0.0
  0
SPLINE
  5
2D1
330
1F
100
AcDbEntity
  8
0
  6
Continuous
 62
     7
370
    25
100
AcDbSpline
210
0.0
220
0.0
230
1.0
 70
    24
 71
     3
 72
    11
 73
     7
 74
     0
 42
0.00000001
 43
0.00000001
 40
0.0
 40
0.0
 40
0.0
 40
0.0
 40
0.2836334925934544
 40
0.5568379161088257
 40
0.7740293154990319
 40
1.0
 40
1.0
 40
1.0
 40
1.0
 10
249.4959102244388
 20
211.7798620843136
 30
0.0
 10
249.4959102244388
 20
211.7788078950289
 30
0.0
 10
249.4959102244388
 20
211.7767382784997
 30
0.0
 10
249.4959102244388
 20
211.7732266644041
 30
0.0
 10
249.4959102244388
 20
211.7702415688545
 30
0.0
 10
249.4959102244388
 20
211.7688715699073
 30
0.0
 10
249.4959102244388
 20
211.7681730002167
 30
0.0
  0
LINE
  5
2D2
330
1F
100
AcDbEntity
  8
0
  6
Continuous
 62
     7
370
    25
100
AcDbLine
 10
249.4959102244
 20
211.822383972
 30
0.0
 11
249.4959102244
 21
211.7798620843
 31
0.0
  0
LINE
  5
2D3
330
1F
100
AcDbEntity
  8
0
  6
Continuous
 62
     7
370
    25
100
AcDbLine
 10
249.4959102244
 20
211.7681730002
 30
0.0
 11
249.4959102244
 21
211.7325342281
 31
0.0
  0
SPLINE
  5
2D4
330
1F
100
AcDbEntity
  8
0
  6
Continuous
 62
     7
370
    25
100
AcDbSpline
210
0.0
220
0.0
230
1.0
 70
    24
 71
     3
 72
     9
 73
     5
 74
     0
 42
0.00000001
 43
0.00000001
 40
0.0
 40
0.0
 40
0.0
 40
0.0
 40
0.6380368803270378
 40
1.0
 40
1.0
 40
1.0
 40
1.0
 10
249.4959102244388
 20
211.7325342281173
 30
0.0
 10
249.4959102244388
 20
211.731836424619
 30
0.0
 10
249.4959102244388
 20
211.7307427519493
 30
0.0
 10
249.4959102244388
 20
211.7308144057064
 30
0.0
 10
249.4959102244388
 20
211.7308403417238
 30
0.0
  0
SPLINE
  5
2D5
330
1F
100
AcDbEntity
  8
0
  6
Continuous
 62
     7
370
    25
100
AcDbSpline
210
0.0
220
0.0
230
1.0
 70
     8
 71
     3
 72
    13
 73
     9
 74
     0
 42
0.00000001
 43
0.00000001
 40
0.0
 40
0.0
 40
0.0
 40
0.0
 40
0.0505534090000434
 40
0.1414832367534984
 40
0.3561381692541358
 40
0.5707669301295029
 40
0.7853832500110821
 40
0.9999999999999999
 40
0.9999999999999999
 40
0.9999999999999999
 40
0.9999999999999999
 10
249.5459102244388
 20
213.8207330983191
 30
0.0
 10
249.5458976033499
 20
213.8208739695343
 30
0.0
 10
249.5458622808554
 20
213.821268224163
 30
0.0
 10
249.545287095648
 20
213.8222517068898
 30
0.0
 10
249.543195832007
 20
213.8236227262417
 30
0.0
 10
249.5386414125353
 20
213.8249778382218
 30
0.0
 10
249.5326566613501
 20
213.8258989500849
 30
0.0
 10
249.5281590382449
 20
213.8260170420469
 30
0.0
 10
249.5259102244389
 20
213.8260760880871
 30
0.0
  0
SPLINE
  5
2D6
330
1F
100
AcDbEntity
  8
0
  6
Continuous
 62
     7
370
    25
100
AcDbSpline
210
0.0
220
0.0
230
1.0
 70
    24
 71
     3
 72
    10
 73
     6
 74
     0
 42
0.00000001
 43
0.00000001
 40
0.0
 40
0.0
 40
0.0
 40
0.0
 40
0.2096449205512388
 40
0.6857745536381675
 40
1.0
 40
1.0
 40
1.0
 40
1.0
 10
249.5459102244388
 20
213.8207330983191
 30
0.0
 10
249.5459102244389
 20
213.8040917397474
 30
0.0
 10
249.5459102244389
 20
213.7496557905411
 30
0.0
 10
249.5459102244389
 20
213.6723724911519
 30
0.0
 10
249.5459102244388
 20
213.6301075781857
 30
0.0
 10
249.5459102244388
 20
213.6133041040414
 30
0.0
  0
ARC
  5
2D7
330
1F
100
AcDbEntity
  8
0
  6
Continuous
 62
     7
370
    25
100
AcDbCircle
 10
249.5307975831
 20
214.3310261313
 30
0.0
 40
0.0358980837191207
100
AcDbArc
 50
262.1751424061
 51
294.8969425381
  0
SPLINE
  5
2D8
330
1F
100
AcDbEntity
  8
0
  6
Continuous
 62
     7
370
    25
100
AcDbSpline
210
0.0
220
0.0
230
1.0
 70
     8
 71
     3
 72
    13
 73
     9
 74
     0
 42
0.00000001
 43
0.00000001
 40
0.0
 40
0.0
 40
0.0
 40
0.0
 40
0.0182758915913742
 40
0.1463941204418705
 40
0.3612390334470901
 40
0.574608036615509
 40
0.7872921551816269
 40
1.0
 40
1.0
 40
1.0
 40
1.0
 10
249.5459102244388
 20
215.5499717934021
 30
0.0
 10
249.5459084844814
 20
215.5501037638471
 30
0.0
 10
249.5458945470199
 20
215.5511608776476
 30
0.0
 10
249.5454026046856
 20
215.5537644746488
 30
0.0
 10
249.5431311062918
 20
215.5575540007554
 30
0.0
 10
249.5385779674446
 20
215.561044806807
 30
0.0
 10
249.5326204253517
 20
215.563413348668
 30
0.0
 10
249.5281470412442
 20
215.5637173104364
 30
0.0
 10
249.5259102244389
 20
215.5638692997973
 30
0.0
  0
SPLINE
  5
2D9
330
1F
100
AcDbEntity
  8
0
  6
Continuous
 62
     7
370
    25
100
AcDbSpline
210
0.0
220
0.0
230
1.0
 70
    24
 71
     3
 72
    12
 73
     8
 74
     0
 42
0.00000001
 43
0.00000001
 40
0.0
 40
0.0
 40
0.0
 40
0.0
 40
0.1899262298909482
 40
0.4281628939875464
 40
0.6742763293270304
 40
0.8359068300961742
 40
1.0
 40
1.0
 40
1.0
 40
1.0
 10
249.5459102244388
 20
215.5499717934021
 30
0.0
 10
249.5459102244388
 20
215.4803127324382
 30
0.0
 10
249.5459102244388
 20
215.3232758389461
 30
0.0
 10
249.5459102244389
 20
215.0434440830218
 30
0.0
 10
249.5459102244388
 20
214.7644813475582
 30
0.0
 10
249.5459102244389
 20
214.5129958164965
 30
0.0
 10
249.5459102244388
 20
214.3703342634071
 30
0.0
 10
249.5459102244388
 20
214.298464182791
 30
0.0
  0
SPLINE
  5
2DA
330
1F
100
AcDbEntity
  8
0
  6
Continuous
 62
     7
370
    25
100
AcDbSpline
210
0.0
220
0.0
230
1.0
 70
    24
 71
     3
 72
    11
 73
     7
 74
     0
 42
0.00000001
 43
0.00000001
 40
0.0
 40
0.0
 40
0.0
 40
0.0
 40
0.2624776957506018
 40
0.5251490441700492
 40
0.7880586058660684
 40
1.0
 40
1.0
 40
1.0
 40
1.0
 10
249.5459102244388
 20
214.298464182791
 30
0.0
 10
249.5459102244388
 20
214.2567525176616
 30
0.0
 10
249.5459102244388
 20
214.1732984130726
 30
0.0
 10
249.5459102244388
 20
214.0468507224197
 30
0.0
 10
249.5459102244388
 20
213.9283006507355
 30
0.0
 10
249.5459102244388
 20
213.8539280181867
 30
0.0
 10
249.5459102244388
 20
213.8207330983191
 30
0.0
  0
SPLINE
  5
2DB
330
1F
100
AcDbEntity
  8
0
  6
Continuous
 62
     7
370
    25
100
AcDbSpline
210
0.0
220
0.0
230
1.0
 70
    24
 71
     3
 72
     9
 73
     5
 74
     0
 42
0.00000001
 43
0.00000001
 40
0.0
 40
0.0
 40
0.0
 40
0.0
 40
0.6843896934134376
 40
1.0
 40
1.0
 40
1.0
 40
1.0
 10
249.5459102244388
 20
215.6092555423852
 30
0.0
 10
249.5459102244388
 20
215.597421603497
 30
0.0
 10
249.5459102244388
 20
215.5801303745347
 30
0.0
 10
249.5459102244388
 20
215.5572067314303
 30
0.0
 10
249.5459102244388
 20
215.5499717934021
 30
0.0
  0
LINE
  5
2DC
330
1F
100
AcDbEntity
  8
0
  6
Continuous
 62
     7
370
    25
100
AcDbLine
 10
246.2334884387
 20
228.416017544
 30
0.0
 11
246.2457898138
 21
228.4125620843
 31
0.0
  0
LINE
  5
2DD
330
1F
100
AcDbEntity
  8
0
  6
Continuous
 62
     7
370
    25
100
AcDbLine
 10
246.8046472551
 20
226.6925757376
 30
0.0
 11
246.794536091
 21
226.6892904213
 31
0.0
  0
LINE
  5
2DE
330
1F
100
AcDbEntity
  8
0
  6
Continuous
 62
     7
370
    25
100
AcDbLine
 10
246.7421168869
 20
228.3177967704
 30
0.0
 11
247.1531094894
 21
227.0528916037
 31
0.0
  0
LINE
  5
2DF
330
1F
100
AcDbEntity
  8
0
  6
Continuous
 62
     7
370
    25
100
AcDbLine
 10
246.3737101519
 20
228.3190123218
 30
0.0
 11
246.8557766631
 21
226.8353641563
 31
0.0
  0
LINE
  5
2E0
330
1F
100
AcDbEntity
  8
0
  6
Continuous
 62
     7
370
    25
100
AcDbLine
 10
246.3751426826
 20
227.9830098674
 30
0.0
 11
246.6594383174
 21
227.1080378724
 31
0.0
  0
LINE
  5
2E1
330
1F
100
AcDbEntity
  8
0
  6
Continuous
 62
     7
370
    25
100
AcDbLine
 10
237.5259102244
 20
234.9474622742
 30
0.0
 11
237.5199102244
 21
234.9474622742
 31
0.0
  0
LINE
  5
2E2
330
1F
100
AcDbEntity
  8
0
  6
Continuous
 62
     7
370
    25
100
AcDbLine
 10
172.6759102244
 20
233.6734732056
 30
0.0
 11
172.6759102244
 21
233.6522408054
 31
0.0
  0
LINE
  5
2E3
330
1F
100
AcDbEntity
  8
0
  6
Continuous
 62
     7
370
    25
100
AcDbLine
 10
189.4359102244
 20
207.2124622742
 30
0.0
 11
231.4359102244
 21
207.2124622742
 31
0.0
  0
LINE
  5
2E4
330
1F
100
AcDbEntity
  8
0
  6
Continuous
 62
     7
370
    25
100
AcDbLine
 10
188.9359102244
 20
207.2124622742
 30
0.0
 11
188.9359102244
 21
207.2524622742
 31
0.0
  0
LINE
  5
2E5
330
1F
100
AcDbEntity
  8
0
  6
Continuous
 62
     7
370
    25
100
AcDbLine
 10
188.9359102244
 20
207.2124622742
 30
0.0
 11
189.4359102244
 21
207.2124622742
 31
0.0
  0
LINE
  5
2E6
330
1F
100
AcDbEntity
  8
0
  6
Continuous
 62
     7
370
    25
100
AcDbLine
 10
231.9359102244
 20
207.2124622742
 30
0.0
 11
231.9359102244
 21
207.2524622742
 31
0.0
  0
LINE
  5
2E7
330
1F
100
AcDbEntity
  8
0
  6
Continuous
 62
     7
370
    25
100
AcDbLine
 10
231.4359102244
 20
207.2124622742
 30
0.0
 11
231.9359102244
 21
207.2124622742
 31
0.0
  0
LINE
  5
2E8
330
1F
100
AcDbEntity
  8
0
  6
Continuous
 62
     7
370
    25
100
AcDbLine
 10
184.9359102244
 20
207.2124622742
 30
0.0
 11
188.9359102244
 21
207.2124622742
 31
0.0
  0
LINE
  5
2E9
330
1F
100
AcDbEntity
  8
0
  6
Continuous
 62
     7
370
    25
100
AcDbLine
 10
231.9359102244
 20
207.2124622742
 30
0.0
 11
233.3359102244
 21
207.2124622742
 31
0.0
  0
LINE
  5
2EA
330
1F
100
AcDbEntity
  8
0
  6
Continuous
 62
     7
370
    25
100
AcDbLine
 10
242.3359102244
 20
207.2124622742
 30
0.0
 11
243.3566173312
 21
207.2124622742
 31
0.0
  0
LINE
  5
2EB
330
1F
100
AcDbEntity
  8
0
  6
Continuous
 62
     7
370
    25
100
AcDbLine
 10
172.5959102244
 20
207.283169381
 30
0.0
 11
172.5159102244
 21
207.283169381
 31
0.0
  0
LINE
  5
2EC
330
1F
100
AcDbEntity
  8
0
  6
Continuous
 62
     7
370
    25
100
AcDbLine
 10
172.5159102244
 20
207.283169381
 30
0.0
 11
172.5159102244
 21
207.3303049934
 31
0.0
  0
LINE
  5
2ED
330
1F
100
AcDbEntity
  8
0
  6
Continuous
 62
     7
370
    25
100
AcDbLine
 10
172.5959102244
 20
207.3300640393
 30
0.0
 11
172.5959102244
 21
207.283169381
 31
0.0
  0
LINE
  5
2EE
330
1F
100
AcDbEntity
  8
0
  6
Continuous
 62
     7
370
    25
100
AcDbLine
 10
243.1952031177
 20
233.7624622742
 30
0.0
 11
243.1952031177
 21
233.7294459765
 31
0.0
  0
LINE
  5
2EF
330
1F
100
AcDbEntity
  8
0
  6
Continuous
 62
     7
370
    25
100
AcDbLine
 10
243.1952031177
 20
233.6824622742
 30
0.0
 11
243.1483084151
 21
233.6824622742
 31
0.0
  0
LINE
  5
2F0
330
1F
100
AcDbEntity
  8
0
  6
Continuous
 62
     7
370
    25
100
AcDbLine
 10
184.9359102244
 20
207.2024622742
 30
0.0
 11
232.5859102244
 21
207.2024622742
 31
0.0
  0
LINE
  5
2F1
330
1F
100
AcDbEntity
  8
0
  6
Continuous
 62
     7
370
    25
100
AcDbLine
 10
233.3159102244
 20
207.2024622742
 30
0.0
 11
233.3359102244
 21
207.2024622742
 31
0.0
  0
LINE
  5
2F2
330
1F
100
AcDbEntity
  8
0
  6
Continuous
 62
     7
370
    25
100
AcDbLine
 10
242.3359102244
 20
207.2024622742
 30
0.0
 11
242.6952031177
 21
207.2024622742
 31
0.0
  0
LINE
  5
2F3
330
1F
100
AcDbEntity
  8
0
  6
Continuous
 62
     7
370
    25
100
AcDbLine
 10
233.2659102244
 20
207.2024622742
 30
0.0
 11
233.2659102244
 21
207.2124622742
 31
0.0
  0
LINE
  5
2F4
330
1F
100
AcDbEntity
  8
0
  6
Continuous
 62
     7
370
    25
100
AcDbLine
 10
233.2659102244
 20
207.2024622742
 30
0.0
 11
233.3159102244
 21
207.2024622742
 31
0.0
  0
LINE
  5
2F5
330
1F
100
AcDbEntity
  8
0
  6
Continuous
 62
     7
370
    25
100
AcDbLine
 10
232.6359102244
 20
207.2024622742
 30
0.0
 11
232.6359102244
 21
207.2124622742
 31
0.0
  0
LINE
  5
2F6
330
1F
100
AcDbEntity
  8
0
  6
Continuous
 62
     7
370
    25
100
AcDbLine
 10
232.5859102244
 20
207.2024622742
 30
0.0
 11
232.6359102244
 21
207.2024622742
 31
0.0
  0
LINE
  5
2F7
330
1F
100
AcDbEntity
  8
0
  6
Continuous
 62
     7
370
    25
100
AcDbLine
 10
243.1952031177
 20
207.2124622742
 30
0.0
 11
243.1952031177
 21
207.2024622742
 31
0.0
  0
LINE
  5
2F8
330
1F
100
AcDbEntity
  8
0
  6
Continuous
 62
     7
370
    25
100
AcDbLine
 10
243.1952031177
 20
207.2024622742
 30
0.0
 11
242.6952031177
 21
207.2024622742
 31
0.0
  0
LINE
  5
2F9
330
1F
100
AcDbEntity
  8
0
  6
Continuous
 62
     7
370
    25
100
AcDbLine
 10
232.6359102244
 20
207.2024622742
 30
0.0
 11
233.2659102244
 21
207.2024622742
 31
0.0
  0
LINE
  5
2FA
330
1F
100
AcDbEntity
  8
0
  6
Continuous
 62
     7
370
    25
100
AcDbLine
 10
172.5966173312
 20
207.2824622742
 30
0.0
 11
172.5966173312
 21
207.2024622742
 31
0.0
  0
LINE
  5
2FB
330
1F
100
AcDbEntity
  8
0
  6
Continuous
 62
     7
370
    25
100
AcDbLine
 10
172.5966173312
 20
207.2024622742
 30
0.0
 11
172.8959102244
 21
207.2024622742
 31
0.0
  0
LINE
  5
2FC
330
1F
100
AcDbEntity
  8
0
  6
Continuous
 62
     7
370
    25
100
AcDbLine
 10
172.8959102244
 20
207.2024622742
 30
0.0
 11
175.9359102244
 21
207.2024622742
 31
0.0
  0
LINE
  5
2FD
330
1F
100
AcDbEntity
  8
0
  6
Continuous
 62
     7
370
    25
100
AcDbLine
 10
243.0709102244
 20
233.6074622742
 30
0.0
 11
172.7209102244
 21
233.6074622742
 31
0.0
  0
LINE
  5
2FE
330
1F
100
AcDbEntity
  8
0
  6
Continuous
 62
     7
370
    25
100
AcDbLine
 10
243.0709102244
 20
207.4574622742
 30
0.0
 11
243.0709102244
 21
233.6074622742
 31
0.0
  0
LINE
  5
2FF
330
1F
100
AcDbEntity
  8
0
  6
Continuous
 62
     7
370
    25
100
AcDbLine
 10
172.7209102244
 20
207.4574622742
 30
0.0
 11
243.0709102244
 21
207.4574622742
 31
0.0
  0
LINE
  5
300
330
1F
100
AcDbEntity
  8
0
  6
Continuous
 62
     7
370
    25
100
AcDbLine
 10
172.7209102244
 20
233.6074622742
 30
0.0
 11
172.7209102244
 21
207.4574622742
 31
0.0
  0
SPLINE
  5
301
330
1F
100
AcDbEntity
  8
0
  6
Continuous
 62
     7
370
    25
100
AcDbSpline
210
0.0
220
0.0
230
1.0
 70
     8
 71
     3
 72
    10
 73
     6
 74
     0
 42
0.00000001
 43
0.00000001
 40
0.0
 40
0.0
 40
0.0
 40
0.0
 40
0.2541874708961584
 40
0.617725880443348
 40
1.0
 40
1.0
 40
1.0
 40
1.0
 10
243.1638759062289
 20
233.7624622742444
 30
0.0
 10
243.157920174965
 20
233.7517867196449
 30
0.0
 10
243.1434465688284
 20
233.7258430083324
 30
0.0
 10
243.1097929157576
 20
233.6718547291364
 30
0.0
 10
243.084086381259
 20
233.629282911009
 30
0.0
 10
243.0709102244383
 20
233.6074622742438
 30
0.0
  0
SPLINE
  5
302
330
1F
100
AcDbEntity
  8
0
  6
Continuous
 62
     7
370
    25
100
AcDbSpline
210
0.0
220
0.0
230
1.0
 70
     8
 71
     3
 72
    10
 73
     6
 74
     0
 42
0.00000001
 43
0.00000001
 40
0.0
 40
0.0
 40
0.0
 40
0.0
 40
0.4492361698211032
 40
0.8984723396422583
 40
1.0
 40
1.0
 40
1.0
 40
1.0
 10
172.7209102244383
 20
233.6074622742438
 30
0.0
 10
172.7105524833368
 20
233.6338854185427
 30
0.0
 10
172.6898370011337
 20
233.6867317071407
 30
0.0
 10
172.6667806628479
 20
233.7419019882529
 30
0.0
 10
172.6540820656638
 20
233.7592621133301
 30
0.0
 10
172.6517412095812
 20
233.7624622742448
 30
0.0
  0
LINE
  5
303
330
1F
100
AcDbEntity
  8
0
  6
Continuous
 62
     7
370
    25
100
AcDbLine
 10
237.5199102244
 20
233.8124622742
 30
0.0
 11
237.5259102244
 21
233.8124622742
 31
0.0
  0
SPLINE
  5
304
330
1F
100
AcDbEntity
  8
0
  6
Continuous
 62
     7
370
    25
100
AcDbSpline
210
0.0
220
0.0
230
1.0
 70
     8
 71
     3
 72
    13
 73
     9
 74
     0
 42
0.00000001
 43
0.00000001
 40
0.0
 40
0.0
 40
0.0
 40
0.0
 40
0.2855736611915033
 40
0.4687816519730935
 40
0.5799019872660077
 40
0.7049799529615907
 40
0.8448237717352598
 40
0.9999999999999999
 40
0.9999999999999999
 40
0.9999999999999999
 40
0.9999999999999999
 10
172.7209102244383
 20
207.4574622742438
 30
0.0
 10
172.6922457833759
 20
207.4405172080479
 30
0.0
 10
172.6451918499772
 20
207.4127011409396
 30
0.0
 10
172.5943983139877
 20
207.3801668426607
 30
0.0
 10
172.561983729076
 20
207.3624358106151
 30
0.0
 10
172.5383341601435
 20
207.3505454542734
 30
0.0
 10
172.519836975918
 20
207.3404175337763
 30
0.0
 10
172.5172637196078
 20
207.3356677157904
 30
0.0
 10
172.5159102244382
 20
207.333169381025
 30
0.0
  0
LINE
  5
305
330
1F
100
AcDbEntity
  8
0
  6
Continuous
 62
     7
370
    25
100
AcDbLine
 10
172.5159102244
 20
233.7317551675
 30
0.0
 11
172.5159102244
 21
207.333169381
 31
0.0
  0
SPLINE
  5
306
330
1F
100
AcDbEntity
  8
0
  6
Continuous
 62
     7
370
    25
100
AcDbSpline
210
0.0
220
0.0
230
1.0
 70
     8
 71
     3
 72
    12
 73
     8
 74
     0
 42
0.00000001
 43
0.00000001
 40
0.0
 40
0.0
 40
0.0
 40
0.0
 40
0.1873991481990154
 40
0.3754402809830405
 40
0.5704452508146038
 40
0.7798271242637828
 40
1.0
 40
1.0
 40
1.0
 40
1.0
 10
172.5159102244382
 20
233.7317551674626
 30
0.0
 10
172.5179434016782
 20
233.7294584842221
 30
0.0
 10
172.5220167213361
 20
233.7248572498547
 30
0.0
 10
172.5531406542399
 20
233.7077047368541
 30
0.0
 10
172.5989442761332
 20
233.6821941616763
 30
0.0
 10
172.6562530219839
 20
233.6465210720681
 30
0.0
 10
172.698999870537
 20
233.6206981095537
 30
0.0
 10
172.7209102244383
 20
233.6074622742438
 30
0.0
  0
SPLINE
  5
307
330
1F
100
AcDbEntity
  8
0
  6
Continuous
 62
     7
370
    25
100
AcDbSpline
210
0.0
220
0.0
230
1.0
 70
     8
 71
     3
 72
    11
 73
     7
 74
     0
 42
0.00000001
 43
0.00000001
 40
0.0
 40
0.0
 40
0.0
 40
0.0
 40
0.2500000000000221
 40
0.4999999999999892
 40
0.7500000000000254
 40
1.0
 40
1.0
 40
1.0
 40
1.0
 10
243.0709102244383
 20
233.6074622742438
 30
0.0
 10
243.087289854914
 20
233.6178200153454
 30
0.0
 10
243.1200491158656
 20
233.6385354975485
 30
0.0
 10
243.1613672330027
 20
233.6696087208532
 30
0.0
 10
243.190273384643
 20
233.7006819441579
 30
0.0
 10
243.1940312778398
 20
233.721397426361
 30
0.0
 10
243.1959102244383
 20
233.7317551674626
 30
0.0
  0
LINE
  5
308
330
1F
100
AcDbEntity
  8
0
  6
Continuous
 62
     7
370
    25
100
AcDbLine
 10
243.1959102244
 20
233.7317551675
 30
0.0
 11
243.2759102244
 21
233.7317551675
 31
0.0
  0
SPLINE
  5
309
330
1F
100
AcDbEntity
  8
0
  6
Continuous
 62
     7
370
    25
100
AcDbSpline
210
0.0
220
0.0
230
1.0
 70
     8
 71
     3
 72
    11
 73
     7
 74
     0
 42
0.00000001
 43
0.00000001
 40
0.0
 40
0.0
 40
0.0
 40
0.0
 40
0.2500000000000021
 40
0.5000000000000127
 40
0.7500000000000039
 40
1.0
 40
1.0
 40
1.0
 40
1.0
 10
243.0709102244383
 20
233.6074622742438
 30
0.0
 10
243.0977728184185
 20
233.6178200153454
 30
0.0
 10
243.1514980063791
 20
233.6385354975485
 30
0.0
 10
243.219259718484
 20
233.6696087208532
 30
0.0
 10
243.2666658071741
 20
233.7006819441579
 30
0.0
 10
243.2728287520169
 20
233.721397426361
 30
0.0
 10
243.2759102244383
 20
233.7317551674626
 30
0.0
  0
LWPOLYLINE
  5
30A
330
1F
100
AcDbEntity
  8
0
  6
Continuous
 62
     7
370
    25
100
AcDbPolyline
 90
        2
 70
   128
 43
0.0
 10
243.0709102244
 20
233.6074622742
 10
243.0709102244
 20
233.6074622742
  0
SPLINE
  5
30B
330
1F
100
AcDbEntity
  8
0
  6
Continuous
 62
     7
370
    25
100
AcDbSpline
210
0.0
220
0.0
230
1.0
 70
     8
 71
     3
 72
    11
 73
     7
 74
     0
 42
0.00000001
 43
0.00000001
 40
0.0
 40
0.0
 40
0.0
 40
0.0
 40
0.2499999999999777
 40
0.5000000000000121
 40
0.7500000000000183
 40
0.9999999999999999
 40
0.9999999999999999
 40
0.9999999999999999
 40
0.9999999999999999
 10
172.7209102244383
 20
233.6074622742438
 30
0.0
 10
172.7105524833368
 20
233.6238419047195
 30
0.0
 10
172.6898370011337
 20
233.6566011656711
 30
0.0
 10
172.6587637778289
 20
233.6979192828082
 30
0.0
 10
172.6276905545242
 20
233.7268254344485
 30
0.0
 10
172.6069750723211
 20
233.7305833276454
 30
0.0
 10
172.5966173312195
 20
233.7324622742438
 30
0.0
  0
LINE
  5
30C
330
1F
100
AcDbEntity
  8
0
  6
Continuous
 62
     7
370
    25
100
AcDbLine
 10
172.5966173312
 20
233.7624622742
 30
0.0
 11
172.5966173312
 21
233.7324622742
 31
0.0
  0
LWPOLYLINE
  5
30D
330
1F
100
AcDbEntity
  8
0
  6
Continuous
 62
     7
370
    25
100
AcDbPolyline
 90
        2
 70
   128
 43
0.0
 10
172.7209102244
 20
233.6074622742
 10
172.7209102244
 20
233.6074622742
  0
LINE
  5
30E
330
1F
100
AcDbEntity
  8
0
  6
Continuous
 62
     7
370
    25
100
AcDbLine
 10
243.1952031177
 20
233.7624622742
 30
0.0
 11
243.1952031177
 21
233.7324622742
 31
0.0
  0
SPLINE
  5
30F
330
1F
100
AcDbEntity
  8
0
  6
Continuous
 62
     7
370
    25
100
AcDbSpline
210
0.0
220
0.0
230
1.0
 70
     8
 71
     3
 72
    12
 73
     8
 74
     0
 42
0.00000001
 43
0.00000001
 40
0.0
 40
0.0
 40
0.0
 40
0.0
 40
0.1739905952421834
 40
0.3320996464844962
 40
0.5068893926396841
 40
0.7762296054371386
 40
1.0
 40
1.0
 40
1.0
 40
1.0
 10
243.1952031176571
 20
233.7324622742438
 30
0.0
 10
243.1928102229251
 20
233.7311362804544
 30
0.0
 10
243.1882428525252
 20
233.7286053271687
 30
0.0
 10
243.1721592705645
 20
233.710892678344
 30
0.0
 10
243.1468564654521
 20
233.6830626495691
 30
0.0
 10
243.1107174682038
 20
233.6476300929727
 30
0.0
 10
243.0833358329004
 20
233.6200004341638
 30
0.0
 10
243.0709102244383
 20
233.6074622742438
 30
0.0
  0
SPLINE
  5
310
330
1F
100
AcDbEntity
  8
0
  6
Continuous
 62
     7
370
    25
100
AcDbSpline
210
0.0
220
0.0
230
1.0
 70
     8
 71
     3
 72
    11
 73
     7
 74
     0
 42
0.00000001
 43
0.00000001
 40
0.0
 40
0.0
 40
0.0
 40
0.0
 40
0.2499999999999896
 40
0.5000000000000081
 40
0.7500000000000017
 40
1.0
 40
1.0
 40
1.0
 40
1.0
 10
243.2759102244383
 20
207.333169381025
 30
0.0
 10
243.2728287520168
 20
207.3435271221265
 30
0.0
 10
243.266665807174
 20
207.3642426043296
 30
0.0
 10
243.219259718484
 20
207.3953158276344
 30
0.0
 10
243.1514980063791
 20
207.4263890509391
 30
0.0
 10
243.0977728184185
 20
207.4471045331422
 30
0.0
 10
243.0709102244383
 20
207.4574622742438
 30
0.0
  0
LINE
  5
311
330
1F
100
AcDbEntity
  8
0
  6
Continuous
 62
     7
370
    25
100
AcDbLine
 10
243.2759102244
 20
219.4717551675
 30
0.0
 11
243.2759102244
 21
219.6024622742
 31
0.0
  0
LINE
  5
312
330
1F
100
AcDbEntity
  8
0
  6
Continuous
 62
     7
370
    25
100
AcDbLine
 10
243.2759102244
 20
219.6824622742
 30
0.0
 11
243.2759102244
 21
219.8124622742
 31
0.0
  0
LINE
  5
313
330
1F
100
AcDbEntity
  8
0
  6
Continuous
 62
     7
370
    25
100
AcDbLine
 10
243.2759102244
 20
231.6024622742
 30
0.0
 11
243.2759102244
 21
231.738175643
 31
0.0
  0
LINE
  5
314
330
1F
100
AcDbEntity
  8
0
  6
Continuous
 62
     7
370
    25
100
AcDbLine
 10
243.2759102244
 20
231.818175643
 30
0.0
 11
243.2759102244
 21
232.2124622742
 31
0.0
  0
SPLINE
  5
315
330
1F
100
AcDbEntity
  8
0
  6
Continuous
 62
     7
370
    25
100
AcDbSpline
210
0.0
220
0.0
230
1.0
 70
     8
 71
     3
 72
    12
 73
     8
 74
     0
 42
0.00000001
 43
0.00000001
 40
0.0
 40
0.0
 40
0.0
 40
0.0
 40
0.1739905893024131
 40
0.3320996353217387
 40
0.5068893755756314
 40
0.7762307951126202
 40
1.0
 40
1.0
 40
1.0
 40
1.0
 10
172.5959102244383
 20
233.7317551674626
 30
0.0
 10
172.5972362176408
 20
233.7293622720494
 30
0.0
 10
172.5997671698077
 20
233.7247949003469
 30
0.0
 10
172.6174798267224
 20
233.7087113276866
 30
0.0
 10
172.6453098723497
 20
233.6834084261442
 30
0.0
 10
172.6807426599092
 20
233.6472696544745
 30
0.0
 10
172.7083721900154
 20
233.6198878795666
 30
0.0
 10
172.7209102244383
 20
233.6074622742438
 30
0.0
  0
LINE
  5
316
330
1F
100
AcDbEntity
  8
0
  6
Continuous
 62
     7
370
    25
100
AcDbLine
 10
172.5159102244
 20
233.7317551675
 30
0.0
 11
172.5959102244
 21
233.7317551675
 31
0.0
  0
LINE
  5
317
330
1F
100
AcDbEntity
  8
0
  6
Continuous
 62
     7
370
    25
100
AcDbLine
 10
243.1952031177
 20
207.2524622742
 30
0.0
 11
172.5966173312
 21
207.2524622742
 31
0.0
  0
SPLINE
  5
318
330
1F
100
AcDbEntity
  8
0
  6
Continuous
 62
     7
370
    25
100
AcDbSpline
210
0.0
220
0.0
230
1.0
 70
     8
 71
     3
 72
    12
 73
     8
 74
     0
 42
0.00000001
 43
0.00000001
 40
0.0
 40
0.0
 40
0.0
 40
0.0
 40
0.2301699461467467
 40
0.4604227344550688
 40
0.6906759109412284
 40
0.9209289349060109
 40
0.9999999999999999
 40
0.9999999999999999
 40
0.9999999999999999
 40
0.9999999999999999
 10
172.5966173312194
 20
207.2524622742438
 30
0.0
 10
172.6061563114482
 20
207.255070017825
 30
0.0
 10
172.6252377051504
 20
207.2602864435597
 30
0.0
 10
172.6538669026936
 20
207.30075753532
 30
0.0
 10
172.6824784157157
 20
207.3595603621267
 30
0.0
 10
172.7048898727895
 20
207.415962783263
 30
0.0
 10
172.7176487360945
 20
207.4490136390906
 30
0.0
 10
172.7209102244382
 20
207.4574622742438
 30
0.0
  0
SPLINE
  5
319
330
1F
100
AcDbEntity
  8
0
  6
Continuous
 62
     7
370
    25
100
AcDbSpline
210
0.0
220
0.0
230
1.0
 70
     8
 71
     3
 72
    12
 73
     8
 74
     0
 42
0.00000001
 43
0.00000001
 40
0.0
 40
0.0
 40
0.0
 40
0.0
 40
0.2353743462262808
 40
0.5035736495639797
 40
0.7398139493597142
 40
0.9425302092432892
 40
1.0
 40
1.0
 40
1.0
 40
1.0
 10
243.0709102244382
 20
207.4574622742438
 30
0.0
 10
243.0850780198016
 20
207.4340919209932
 30
0.0
 10
243.1153894302497
 20
207.3840920197012
 30
0.0
 10
243.1564669204859
 20
207.3171375401696
 30
0.0
 10
243.1820253940242
 20
207.2695150690065
 30
0.0
 10
243.1921711903235
 20
207.2535701535664
 30
0.0
 10
243.194654586175
 20
207.2526627100128
 30
0.0
 10
243.195203117657
 20
207.2524622742438
 30
0.0
  0
SPLINE
  5
31A
330
1F
100
AcDbEntity
  8
0
  6
Continuous
 62
     7
370
    25
100
AcDbSpline
210
0.0
220
0.0
230
1.0
 70
     8
 71
     3
 72
    13
 73
     9
 74
     0
 42
0.00000001
 43
0.00000001
 40
0.0
 40
0.0
 40
0.0
 40
0.0
 40
0.3066612243332866
 40
0.4984645921074793
 40
0.608814714648305
 40
0.7281608253578692
 40
0.8581368182193974
 40
1.0
 40
1.0
 40
1.0
 40
1.0
 10
172.7209102244383
 20
207.4574622742438
 30
0.0
 10
172.7034905213604
 20
207.4405896681937
 30
0.0
 10
172.6751755454183
 20
207.4131639748711
 30
0.0
 10
172.6444012483416
 20
207.3807807445351
 30
0.0
 10
172.6243111584969
 20
207.3626920431472
 30
0.0
 10
172.6097497865683
 20
207.3506820507911
 30
0.0
 10
172.5983536674119
 20
207.3404882674417
 30
0.0
 10
172.5967481084613
 20
207.335679109331
 30
0.0
 10
172.5959102244383
 20
207.333169381025
 30
0.0
  0
LINE
  5
31B
330
1F
100
AcDbEntity
  8
0
  6
Continuous
 62
     7
370
    25
100
AcDbLine
 10
172.5159102244
 20
207.333169381
 30
0.0
 11
172.5959102244
 21
207.333169381
 31
0.0
  0
LINE
  5
31C
330
1F
100
AcDbEntity
  8
0
  6
Continuous
 62
     7
370
    25
100
AcDbLine
 10
243.2759102244
 20
207.333169381
 30
0.0
 11
243.1959102244
 21
207.333169381
 31
0.0
  0
SPLINE
  5
31D
330
1F
100
AcDbEntity
  8
0
  6
Continuous
 62
     7
370
    25
100
AcDbSpline
210
0.0
220
0.0
230
1.0
 70
     8
 71
     3
 72
    11
 73
     7
 74
     0
 42
0.00000001
 43
0.00000001
 40
0.0
 40
0.0
 40
0.0
 40
0.0
 40
0.2500000000000025
 40
0.5000000000000127
 40
0.7500000000000228
 40
1.0
 40
1.0
 40
1.0
 40
1.0
 10
243.1959102244383
 20
207.333169381025
 30
0.0
 10
243.1940312778398
 20
207.3435271221265
 30
0.0
 10
243.190273384643
 20
207.3642426043296
 30
0.0
 10
243.1613672330027
 20
207.3953158276344
 30
0.0
 10
243.1200491158656
 20
207.426389050939
 30
0.0
 10
243.087289854914
 20
207.4471045331422
 30
0.0
 10
243.0709102244383
 20
207.4574622742438
 30
0.0
  0
SPLINE
  5
31E
330
1F
100
AcDbEntity
  8
0
  6
Continuous
 62
     7
370
    25
100
AcDbSpline
210
0.0
220
0.0
230
1.0
 70
     8
 71
     3
 72
    12
 73
     8
 74
     0
 42
0.00000001
 43
0.00000001
 40
0.0
 40
0.0
 40
0.0
 40
0.0
 40
0.3486243090424547
 40
0.5715639950853606
 40
0.7575575393399734
 40
0.944515445525867
 40
1.0
 40
1.0
 40
1.0
 40
1.0
 10
243.0709102244382
 20
207.4574622742438
 30
0.0
 10
243.0905033575228
 20
207.437953607372
 30
0.0
 10
243.122625986759
 20
207.4059694591448
 30
0.0
 10
243.1602962897065
 20
207.367388313297
 30
0.0
 10
243.1821541622138
 20
207.3428542597393
 30
0.0
 10
243.1920193601657
 20
207.3332129514475
 30
0.0
 10
243.1946101893323
 20
207.3326020769072
 30
0.0
 10
243.195203117657
 20
207.3324622742438
 30
0.0
  0
LINE
  5
31F
330
1F
100
AcDbEntity
  8
0
  6
Continuous
 62
     7
370
    25
100
AcDbLine
 10
243.1952031177
 20
207.2524622742
 30
0.0
 11
243.1952031177
 21
207.3324622742
 31
0.0
  0
SPLINE
  5
320
330
1F
100
AcDbEntity
  8
0
  6
Continuous
 62
     7
370
    25
100
AcDbSpline
210
0.0
220
0.0
230
1.0
 70
     8
 71
     3
 72
    11
 73
     7
 74
     0
 42
0.00000001
 43
0.00000001
 40
0.0
 40
0.0
 40
0.0
 40
0.0
 40
0.2542997317784952
 40
0.5087760894400205
 40
0.763253476632021
 40
1.0
 40
1.0
 40
1.0
 40
1.0
 10
172.5966173312194
 20
207.3324622742438
 30
0.0
 10
172.607154875873
 20
207.3344080911176
 30
0.0
 10
172.6282372841149
 20
207.3383010763476
 30
0.0
 10
172.6598626724497
 20
207.3681978523351
 30
0.0
 10
172.6907695315458
 20
207.4097950245982
 30
0.0
 10
172.7111080347866
 20
207.4419601946178
 30
0.0
 10
172.7209102244382
 20
207.4574622742438
 30
0.0
  0
LINE
  5
321
330
1F
100
AcDbEntity
  8
0
  6
Continuous
 62
     7
370
    25
100
AcDbLine
 10
172.5966173312
 20
207.2524622742
 30
0.0
 11
172.5966173312
 21
207.3324622742
 31
0.0
  0
LINE
  5
322
330
1F
100
AcDbEntity
  8
0
  6
Continuous
 62
     7
370
    25
100
AcDbLine
 10
237.5199102244
 20
234.6124622742
 30
0.0
 11
237.5259102244
 21
234.6124622742
 31
0.0
  0
LINE
  5
323
330
1F
100
AcDbEntity
  8
0
  6
Continuous
 62
     7
370
    25
100
AcDbLine
 10
243.4052458712
 20
207.3324622742
 30
0.0
 11
243.4290224505
 21
207.3324622742
 31
0.0
  0
LINE
  5
324
330
1F
100
AcDbEntity
  8
0
  6
Continuous
 62
     7
370
    25
100
AcDbLine
 10
249.0309102244
 20
219.3474622742
 30
0.0
 11
243.4809102244
 21
219.3474622742
 31
0.0
  0
LINE
  5
325
330
1F
100
AcDbEntity
  8
0
  6
Continuous
 62
     7
370
    25
100
AcDbLine
 10
249.0309102244
 20
219.3474622742
 30
0.0
 11
249.0309102244
 21
207.4074622742
 31
0.0
  0
LINE
  5
326
330
1F
100
AcDbEntity
  8
0
  6
Continuous
 62
     7
370
    25
100
AcDbLine
 10
243.4809102244
 20
207.4074622742
 30
0.0
 11
249.0309102244
 21
207.4074622742
 31
0.0
  0
LINE
  5
327
330
1F
100
AcDbEntity
  8
0
  6
Continuous
 62
     7
370
    25
100
AcDbLine
 10
243.4809102244
 20
219.3474622742
 30
0.0
 11
243.4809102244
 21
207.4074622742
 31
0.0
  0
SPLINE
  5
328
330
1F
100
AcDbEntity
  8
0
  6
Continuous
 62
     7
370
    25
100
AcDbSpline
210
0.0
220
0.0
230
1.0
 70
     8
 71
     3
 72
    13
 73
     9
 74
     0
 42
0.00000001
 43
0.00000001
 40
0.0
 40
0.0
 40
0.0
 40
0.0
 40
0.1407614611609022
 40
0.2700129906312398
 40
0.3888157369299353
 40
0.4985455706533842
 40
0.706626979562055
 40
1.0
 40
1.0
 40
1.0
 40
1.0
 10
243.3559102244389
 20
219.4717551674639
 30
0.0
 10
243.3567300960638
 20
219.4691483714153
 30
0.0
 10
243.3583027991854
 20
219.4641479345683
 30
0.0
 10
243.3695060641264
 20
219.4539464050456
 30
0.0
 10
243.3839162230307
 20
219.4421431210438
 30
0.0
 10
243.4048254418404
 20
219.4239116929687
 30
0.0
 10
243.4365970677169
 20
219.3920127008788
 30
0.0
 10
243.4645541151523
 20
219.3639059605154
 30
0.0
 10
243.4809102244388
 20
219.3474622742451
 30
0.0
  0
LWPOLYLINE
  5
329
330
1F
100
AcDbEntity
  8
0
  6
Continuous
 62
     7
370
    25
100
AcDbPolyline
 90
        2
 70
   128
 43
0.0
 10
243.4809102244
 20
219.3474622742
 10
243.4809102244
 20
219.3474622742
  0
SPLINE
  5
32A
330
1F
100
AcDbEntity
  8
0
  6
Continuous
 62
     7
370
    25
100
AcDbSpline
210
0.0
220
0.0
230
1.0
 70
     8
 71
     3
 72
    12
 73
     8
 74
     0
 42
0.00000001
 43
0.00000001
 40
0.0
 40
0.0
 40
0.0
 40
0.0
 40
0.1538940712080201
 40
0.2930211668942417
 40
0.5279230560683225
 40
0.7279788383054219
 40
1.0
 40
1.0
 40
1.0
 40
1.0
 10
243.2759102244389
 20
219.4717551674639
 30
0.0
 10
243.2772455387448
 20
219.4691529581991
 30
0.0
 10
243.2797880366656
 20
219.464198235842
 30
0.0
 10
243.302621303208
 20
219.4514823154511
 30
0.0
 10
243.3439605008217
 20
219.4313122208096
 30
0.0
 10
243.4070818385783
 20
219.3927369604696
 30
0.0
 10
243.4539206606488
 20
219.36401341535
 30
0.0
 10
243.4809102244388
 20
219.3474622742451
 30
0.0
  0
LINE
  5
32B
330
1F
100
AcDbEntity
  8
0
  6
Continuous
 62
     7
370
    25
100
AcDbLine
 10
243.2759102244
 20
219.4717551675
 30
0.0
 11
243.3559102244
 21
219.4717551675
 31
0.0
  0
SPLINE
  5
32C
330
1F
100
AcDbEntity
  8
0
  6
Continuous
 62
     7
370
    25
100
AcDbSpline
210
0.0
220
0.0
230
1.0
 70
     8
 71
     3
 72
    11
 73
     7
 74
     0
 42
0.00000001
 43
0.00000001
 40
0.0
 40
0.0
 40
0.0
 40
0.0
 40
0.2500000000000238
 40
0.5000000000000314
 40
0.7499999999999981
 40
1.0
 40
1.0
 40
1.0
 40
1.0
 10
243.35661733122
 20
207.282462274245
 30
0.0
 10
243.3669750723216
 20
207.2843412208435
 30
0.0
 10
243.3876905545247
 20
207.2880991140403
 30
0.0
 10
243.4187637778294
 20
207.3170052656806
 30
0.0
 10
243.4498370011342
 20
207.3583233828177
 30
0.0
 10
243.4705524833373
 20
207.3910826437693
 30
0.0
 10
243.4809102244389
 20
207.4074622742451
 30
0.0
  0
SPLINE
  5
32D
330
1F
100
AcDbEntity
  8
0
  6
Continuous
 62
     7
370
    25
100
AcDbSpline
210
0.0
220
0.0
230
1.0
 70
     8
 71
     3
 72
    11
 73
     7
 74
     0
 42
0.00000001
 43
0.00000001
 40
0.0
 40
0.0
 40
0.0
 40
0.0
 40
0.2499999999999994
 40
0.500000000000012
 40
0.7500000000000021
 40
0.9999999999999999
 40
0.9999999999999999
 40
0.9999999999999999
 40
0.9999999999999999
 10
243.35661733122
 20
207.2024622742451
 30
0.0
 10
243.3669750723216
 20
207.2055437466665
 30
0.0
 10
243.3876905545247
 20
207.2117066915092
 30
0.0
 10
243.4187637778295
 20
207.2591127801993
 30
0.0
 10
243.4498370011341
 20
207.3268744923042
 30
0.0
 10
243.4705524833373
 20
207.3805996802648
 30
0.0
 10
243.4809102244389
 20
207.4074622742451
 30
0.0
  0
LINE
  5
32E
330
1F
100
AcDbEntity
  8
0
  6
Continuous
 62
     7
370
    25
100
AcDbLine
 10
243.3566173312
 20
207.2824622742
 30
0.0
 11
243.3566173312
 21
207.2024622742
 31
0.0
  0
SPLINE
  5
32F
330
1F
100
AcDbEntity
  8
0
  6
Continuous
 62
     7
370
    25
100
AcDbSpline
210
0.0
220
0.0
230
1.0
 70
     8
 71
     3
 72
    11
 73
     7
 74
     0
 42
0.00000001
 43
0.00000001
 40
0.0
 40
0.0
 40
0.0
 40
0.0
 40
0.2543030279684345
 40
0.5087793961833351
 40
0.7632567853904731
 40
1.0
 40
1.0
 40
1.0
 40
1.0
 10
243.4809102244388
 20
219.347462274245
 30
0.0
 10
243.4703725415848
 20
219.3641256930111
 30
0.0
 10
243.4492899930894
 20
219.3974638888079
 30
0.0
 10
243.4176644695202
 20
219.43925905987
 30
0.0
 10
243.3867577455797
 20
219.4672731481099
 30
0.0
 10
243.3664193823722
 20
219.4707747035565
 30
0.0
 10
243.35661733122
 20
219.4724622742451
 30
0.0
  0
LINE
  5
330
330
1F
100
AcDbEntity
  8
0
  6
Continuous
 62
     7
370
    25
100
AcDbLine
 10
243.3566173312
 20
219.4724622742
 30
0.0
 11
243.3566173312
 21
219.5524622742
 31
0.0
  0
SPLINE
  5
331
330
1F
100
AcDbEntity
  8
0
  6
Continuous
 62
     7
370
    25
100
AcDbSpline
210
0.0
220
0.0
230
1.0
 70
     8
 71
     3
 72
    12
 73
     8
 74
     0
 42
0.00000001
 43
0.00000001
 40
0.0
 40
0.0
 40
0.0
 40
0.0
 40
0.2301693782020233
 40
0.4604221642957049
 40
0.6906753391241932
 40
0.9209283614222887
 40
1.0
 40
1.0
 40
1.0
 40
1.0
 10
243.4809102244388
 20
219.347462274245
 30
0.0
 10
243.4713712679635
 20
219.3721701431512
 30
0.0
 10
243.4522898983224
 20
219.4215948345057
 30
0.0
 10
243.4236607240626
 20
219.4862075516159
 30
0.0
 10
243.395049211059
 20
219.5326021812347
 30
0.0
 10
243.372637730318
 20
219.5508831493105
 30
0.0
 10
243.359878843261
 20
219.5521407881849
 30
0.0
 10
243.35661733122
 20
219.552462274245
 30
0.0
  0
SPLINE
  5
332
330
1F
100
AcDbEntity
  8
0
  6
Continuous
 62
     7
370
    25
100
AcDbSpline
210
0.0
220
0.0
230
1.0
 70
     8
 71
     3
 72
    12
 73
     8
 74
     0
 42
0.00000001
 43
0.00000001
 40
0.0
 40
0.0
 40
0.0
 40
0.0
 40
0.34866726079503
 40
0.5713345519709195
 40
0.7575602087643245
 40
0.9447309204613185
 40
1.0
 40
1.0
 40
1.0
 40
1.0
 10
243.4809102244388
 20
207.4074622742451
 30
0.0
 10
243.4614033385128
 20
207.3878658834002
 30
0.0
 10
243.4294388864863
 20
207.3557547664629
 30
0.0
 10
243.390840344062
 20
207.3181126727717
 30
0.0
 10
243.3662859679824
 20
207.2962916537524
 30
0.0
 10
243.3566568852348
 20
207.2864172228269
 30
0.0
 10
243.3560488405802
 20
207.2837723366128
 30
0.0
 10
243.3559102244389
 20
207.2831693810263
 30
0.0
  0
LINE
  5
333
330
1F
100
AcDbEntity
  8
0
  6
Continuous
 62
     7
370
    25
100
AcDbLine
 10
243.2759102244
 20
207.283169381
 30
0.0
 11
243.3559102244
 21
207.283169381
 31
0.0
  0
SPLINE
  5
334
330
1F
100
AcDbEntity
  8
0
  6
Continuous
 62
     7
370
    25
100
AcDbSpline
210
0.0
220
0.0
230
1.0
 70
     8
 71
     3
 72
    12
 73
     8
 74
     0
 42
0.00000001
 43
0.00000001
 40
0.0
 40
0.0
 40
0.0
 40
0.0
 40
0.2354069832809836
 40
0.5036246821524719
 40
0.7396663457509292
 40
0.9424213086220518
 40
1.0
 40
1.0
 40
1.0
 40
1.0
 10
243.4809102244388
 20
207.4074622742451
 30
0.0
 10
243.4575386113616
 20
207.393292094753
 30
0.0
 10
243.4075378805278
 20
207.3629767147958
 30
0.0
 10
243.3405880668662
 20
207.3219258805906
 30
0.0
 10
243.292968265822
 20
207.2964402653776
 30
0.0
 10
243.2770206567502
 20
207.2862715459256
 30
0.0
 10
243.2761113403761
 20
207.2837312295917
 30
0.0
 10
243.2759102244388
 20
207.2831693810263
 30
0.0
  0
LINE
  5
335
330
1F
100
AcDbEntity
  8
0
  6
Continuous
 62
     7
370
    25
100
AcDbLine
 10
243.2759102244
 20
219.4717551675
 30
0.0
 11
243.2759102244
 21
207.283169381
 31
0.0
  0
LINE
  5
336
330
1F
100
AcDbEntity
  8
0
  6
Continuous
 62
     7
370
    25
100
AcDbLine
 10
243.3566173312
 20
207.2024622742
 30
0.0
 11
248.9859102244
 21
207.2024622742
 31
0.0
  0
SPLINE
  5
337
330
1F
100
AcDbEntity
  8
0
  6
Continuous
 62
     7
370
    25
100
AcDbSpline
210
0.0
220
0.0
230
1.0
 70
     8
 71
     3
 72
    11
 73
     7
 74
     0
 42
0.00000001
 43
0.00000001
 40
0.0
 40
0.0
 40
0.0
 40
0.0
 40
0.250000000000005
 40
0.5000000000000034
 40
0.7499999999999926
 40
1.0
 40
1.0
 40
1.0
 40
1.0
 10
249.0309102244389
 20
207.4074622742451
 30
0.0
 10
249.0271602244389
 20
207.3805996802648
 30
0.0
 10
249.0196602244389
 20
207.3268744923042
 30
0.0
 10
249.0084102244389
 20
207.2591127801993
 30
0.0
 10
248.9971602244389
 20
207.2117066915092
 30
0.0
 10
248.9896602244389
 20
207.2055437466665
 30
0.0
 10
248.9859102244389
 20
207.2024622742451
 30
0.0
  0
SPLINE
  5
338
330
1F
100
AcDbEntity
  8
0
  6
Continuous
 62
     7
370
    25
100
AcDbSpline
210
0.0
220
0.0
230
1.0
 70
     8
 71
     3
 72
    11
 73
     7
 74
     0
 42
0.00000001
 43
0.00000001
 40
0.0
 40
0.0
 40
0.0
 40
0.0
 40
0.2499999999999918
 40
0.4999999999999992
 40
0.7500000000000008
 40
1.0
 40
1.0
 40
1.0
 40
1.0
 10
249.001686882745
 20
219.552462274245
 30
0.0
 10
249.0041221612194
 20
219.5493808018236
 30
0.0
 10
249.0089927181684
 20
219.5432178569808
 30
0.0
 10
249.0162985535919
 20
219.4958117682907
 30
0.0
 10
249.0236043890154
 20
219.4280500561859
 30
0.0
 10
249.0284749459644
 20
219.3743248682253
 30
0.0
 10
249.0309102244389
 20
219.3474622742451
 30
0.0
  0
LINE
  5
339
330
1F
100
AcDbEntity
  8
0
  6
Continuous
 62
     7
370
    25
100
AcDbLine
 10
243.3566173312
 20
219.5524622742
 30
0.0
 11
249.0016868827
 21
219.5524622742
 31
0.0
  0
LINE
  5
33A
330
1F
100
AcDbEntity
  8
0
  6
Continuous
 62
     7
370
    25
100
AcDbLine
 10
249.2359102244
 20
207.4074622742
 30
0.0
 11
249.0309102244
 21
207.4074622742
 31
0.0
  0
LINE
  5
33B
330
1F
100
AcDbEntity
  8
0
  6
Continuous
 62
     7
370
    25
100
AcDbLine
 10
249.0309102244
 20
219.3474622742
 30
0.0
 11
249.2359102244
 21
219.3474622742
 31
0.0
  0
LINE
  5
33C
330
1F
100
AcDbEntity
  8
0
  6
Continuous
 62
     7
370
    25
100
AcDbLine
 10
249.2359102244
 20
219.3474622742
 30
0.0
 11
249.2359102244
 21
207.4074622742
 31
0.0
  0
SPLINE
  5
33D
330
1F
100
AcDbEntity
  8
0
  6
Continuous
 62
     7
370
    25
100
AcDbSpline
210
0.0
220
0.0
230
1.0
 70
     8
 71
     3
 72
    12
 73
     8
 74
     0
 42
0.00000001
 43
0.00000001
 40
0.0
 40
0.0
 40
0.0
 40
0.0
 40
0.2196136201280587
 40
0.4392502024697648
 40
0.6588868351486771
 40
0.8785233275786128
 40
1.0
 40
1.0
 40
1.0
 40
1.0
 10
249.2359102244389
 20
219.3474622742451
 30
0.0
 10
249.2335379735577
 20
219.3710379870685
 30
0.0
 10
249.2287932237592
 20
219.4181918777289
 30
0.0
 10
249.1918513880215
 20
219.4806651893894
 30
0.0
 10
249.1376986953852
 20
219.5271003584413
 30
0.0
 10
249.0803809614044
 20
219.5496384754082
 30
0.0
 10
249.0439013021163
 20
219.5517207411229
 30
0.0
 10
249.0309102244389
 20
219.5524622742451
 30
0.0
  0
SPLINE
  5
33E
330
1F
100
AcDbEntity
  8
0
  6
Continuous
 62
     7
370
    25
100
AcDbSpline
210
0.0
220
0.0
230
1.0
 70
     8
 71
     3
 72
    12
 73
     8
 74
     0
 42
0.00000001
 43
0.00000001
 40
0.0
 40
0.0
 40
0.0
 40
0.0
 40
0.1986312370048714
 40
0.4263119925236705
 40
0.6540152424178612
 40
0.8817181517860061
 40
1.0
 40
1.0
 40
1.0
 40
1.0
 10
249.1559102244389
 20
219.3474622742451
 30
0.0
 10
249.1547223261499
 20
219.3604500857998
 30
0.0
 10
249.1521728012407
 20
219.38832515674
 30
0.0
 10
249.1308389652464
 20
219.4267730002706
 30
0.0
 10
249.0969753943299
 20
219.4566470076292
 30
0.0
 10
249.0611870057121
 20
219.4707738368706
 30
0.0
 10
249.0386238820706
 20
219.4720321087092
 30
0.0
 10
249.0309102244389
 20
219.4724622742451
 30
0.0
  0
LINE
  5
33F
330
1F
100
AcDbEntity
  8
0
  6
Continuous
 62
     7
370
    25
100
AcDbLine
 10
249.0309102244
 20
219.4724622742
 30
0.0
 11
249.0309102244
 21
219.5524622742
 31
0.0
  0
SPLINE
  5
340
330
1F
100
AcDbEntity
  8
0
  6
Continuous
 62
     7
370
    25
100
AcDbSpline
210
0.0
220
0.0
230
1.0
 70
     8
 71
     3
 72
    11
 73
     7
 74
     0
 42
0.00000001
 43
0.00000001
 40
0.0
 40
0.0
 40
0.0
 40
0.0
 40
0.2499999999999923
 40
0.5000000000000041
 40
0.7499999999999994
 40
1.0
 40
1.0
 40
1.0
 40
1.0
 10
249.0309102244389
 20
207.2024622742451
 30
0.0
 10
249.0577728184191
 20
207.2055437466665
 30
0.0
 10
249.1114980063797
 20
207.2117066915092
 30
0.0
 10
249.1792597184845
 20
207.2591127801993
 30
0.0
 10
249.2266658071746
 20
207.3268744923042
 30
0.0
 10
249.2328287520174
 20
207.3805996802648
 30
0.0
 10
249.2359102244389
 20
207.4074622742451
 30
0.0
  0
LINE
  5
341
330
1F
100
AcDbEntity
  8
0
  6
Continuous
 62
     7
370
    25
100
AcDbLine
 10
249.0309102244
 20
207.2824622742
 30
0.0
 11
249.0309102244
 21
207.2024622742
 31
0.0
  0
SPLINE
  5
342
330
1F
100
AcDbEntity
  8
0
  6
Continuous
 62
     7
370
    25
100
AcDbSpline
210
0.0
220
0.0
230
1.0
 70
     8
 71
     3
 72
    11
 73
     7
 74
     0
 42
0.00000001
 43
0.00000001
 40
0.0
 40
0.0
 40
0.0
 40
0.0
 40
0.249999999999979
 40
0.5000000000000088
 40
0.7499999999999997
 40
1.0
 40
1.0
 40
1.0
 40
1.0
 10
249.0309102244389
 20
207.282462274245
 30
0.0
 10
249.0472898549147
 20
207.2843412208435
 30
0.0
 10
249.0800491158662
 20
207.2880991140403
 30
0.0
 10
249.1213672330033
 20
207.3170052656806
 30
0.0
 10
249.1502733846436
 20
207.3583233828177
 30
0.0
 10
249.1540312778404
 20
207.3910826437693
 30
0.0
 10
249.1559102244389
 20
207.4074622742451
 30
0.0
  0
LINE
  5
343
330
1F
100
AcDbEntity
  8
0
  6
Continuous
 62
     7
370
    25
100
AcDbLine
 10
249.0309102244
 20
207.2824622742
 30
0.0
 11
249.0117860456
 21
207.2824622742
 31
0.0
  0
LINE
  5
344
330
1F
100
AcDbEntity
  8
0
  6
Continuous
 62
     7
370
    25
100
AcDbLine
 10
249.0309102244
 20
207.2024622742
 30
0.0
 11
248.9859102244
 21
207.2024622742
 31
0.0
  0
LINE
  5
345
330
1F
100
AcDbEntity
  8
0
  6
Continuous
 62
     7
370
    25
100
AcDbLine
 10
249.0016868827
 20
219.5524622742
 30
0.0
 11
249.0309102244
 21
219.5524622742
 31
0.0
  0
LINE
  5
346
330
1F
100
AcDbEntity
  8
0
  6
Continuous
 62
     7
370
    25
100
AcDbLine
 10
212.3209102244
 20
238.0874622742
 30
0.0
 11
230.6209102244
 21
238.0874622742
 31
0.0
  0
LINE
  5
347
330
1F
100
AcDbEntity
  8
0
  6
Continuous
 62
     7
370
    25
100
AcDbLine
 10
230.8209102244
 20
237.8874622742
 30
0.0
 11
212.1209102244
 21
237.8874622742
 31
0.0
  0
LINE
  5
348
330
1F
100
AcDbEntity
  8
0
  6
Continuous
 62
     7
370
    25
100
AcDbLine
 10
212.1209102244
 20
237.7374622742
 30
0.0
 11
230.8209102244
 21
237.7374622742
 31
0.0
  0
LINE
  5
349
330
1F
100
AcDbEntity
  8
0
  6
Continuous
 62
     7
370
    25
100
AcDbLine
 10
184.3198919115
 20
238.0874622742
 30
0.0
 11
202.6198919115
 21
238.0874622742
 31
0.0
  0
LINE
  5
34A
330
1F
100
AcDbEntity
  8
0
  6
Continuous
 62
     7
370
    25
100
AcDbLine
 10
202.8198919115
 20
237.8874622742
 30
0.0
 11
184.1198919115
 21
237.8874622742
 31
0.0
  0
LINE
  5
34B
330
1F
100
AcDbEntity
  8
0
  6
Continuous
 62
     7
370
    25
100
AcDbLine
 10
184.1198919115
 20
237.7374622742
 30
0.0
 11
202.8198919115
 21
237.7374622742
 31
0.0
  0
LINE
  5
34C
330
1F
100
AcDbEntity
  8
0
  6
Continuous
 62
     7
370
    25
100
AcDbLine
 10
247.9097733915
 20
224.5623161703
 30
0.0
 11
247.1074079885
 21
227.031742962
 31
0.0
  0
LINE
  5
34D
330
1F
100
AcDbEntity
  8
0
  6
Continuous
 62
     7
370
    25
100
AcDbLine
 10
246.6894873533
 20
228.3179704206
 30
0.0
 11
245.9011629281
 21
230.7441835262
 31
0.0
  0
LINE
  5
34E
330
1F
100
AcDbEntity
  8
0
  6
Continuous
 62
     7
370
    25
100
AcDbLine
 10
247.1241612499
 20
230.2162497027
 30
0.0
 11
246.9758262421
 21
230.6727779141
 31
0.0
  0
SPLINE
  5
34F
330
1F
100
AcDbEntity
  8
0
  6
Continuous
 62
     7
370
    25
100
AcDbSpline
210
0.0
220
0.0
230
1.0
 70
     8
 71
     3
 72
     9
 73
     5
 74
     0
 42
0.00000001
 43
0.00000001
 40
0.0
 40
0.0
 40
0.0
 40
0.0
 40
0.5209744652335413
 40
1.0
 40
1.0
 40
1.0
 40
1.0
 10
247.0985144165858
 20
230.0917602890121
 30
0.0
 10
247.0936534456425
 20
230.1158115912733
 30
0.0
 10
247.0843229097569
 20
230.1619775818664
 30
0.0
 10
247.1112584420823
 20
230.1986720942909
 30
0.0
 10
247.1241612498588
 20
230.2162497027281
 30
0.0
  0
LINE
  5
350
330
1F
100
AcDbEntity
  8
0
  6
Continuous
 62
     7
370
    25
100
AcDbLine
 10
248.4949663369
 20
225.7939232035
 30
0.0
 11
247.0985144166
 21
230.091760289
 31
0.0
  0
SPLINE
  5
351
330
1F
100
AcDbEntity
  8
0
  6
Continuous
 62
     7
370
    25
100
AcDbSpline
210
0.0
220
0.0
230
1.0
 70
     8
 71
     3
 72
     9
 73
     5
 74
     0
 42
0.00000001
 43
0.00000001
 40
0.0
 40
0.0
 40
0.0
 40
0.0
 40
0.4790255347664511
 40
1.0
 40
1.0
 40
1.0
 40
1.0
 10
248.5888881022848
 20
225.7082839825583
 30
0.0
 10
248.5681176525086
 20
225.7149204863802
 30
0.0
 10
248.5247578558616
 20
225.7287746618682
 30
0.0
 10
248.5051707295316
 20
225.7716080842096
 30
0.0
 10
248.4949663368664
 20
225.7939232035081
 30
0.0
  0
LINE
  5
352
330
1F
100
AcDbEntity
  8
0
  6
Continuous
 62
     7
370
    25
100
AcDbLine
 10
248.73722311
 20
225.2517557712
 30
0.0
 11
248.5888881023
 21
225.7082839826
 31
0.0
  0
LINE
  5
353
330
1F
100
AcDbEntity
  8
0
  6
Continuous
 62
     7
370
    25
100
AcDbLine
 10
246.8381640139
 20
229.5713575425
 30
0.0
 11
246.5969736586
 21
229.6431955537
 31
0.0
  0
SPLINE
  5
354
330
1F
100
AcDbEntity
  8
0
  6
Continuous
 62
     7
370
    25
100
AcDbSpline
210
0.0
220
0.0
230
1.0
 70
     8
 71
     3
 72
     9
 73
     5
 74
     0
 42
0.00000001
 43
0.00000001
 40
0.0
 40
0.0
 40
0.0
 40
0.0
 40
0.4986163301834945
 40
1.0
 40
1.0
 40
1.0
 40
1.0
 10
246.9473179798769
 20
229.5511439564081
 30
0.0
 10
246.9289038892025
 20
229.5520324579811
 30
0.0
 10
246.8919735089488
 20
229.5538143923448
 30
0.0
 10
246.856133572655
 20
229.5654990473262
 30
0.0
 10
246.8381640138701
 20
229.5713575425214
 30
0.0
  0
SPLINE
  5
355
330
1F
100
AcDbEntity
  8
0
  6
Continuous
 62
     7
370
    25
100
AcDbSpline
210
0.0
220
0.0
230
1.0
 70
     8
 71
     3
 72
    11
 73
     7
 74
     0
 42
0.00000001
 43
0.00000001
 40
0.0
 40
0.0
 40
0.0
 40
0.0
 40
0.167187636023303
 40
0.3343907167770017
 40
0.6674481169899131
 40
1.0
 40
1.0
 40
1.0
 40
1.0
 10
247.0501032431682
 20
229.6246709135381
 30
0.0
 10
247.0482835190348
 20
229.6182326556834
 30
0.0
 10
247.0446439026627
 20
229.60535554521
 30
0.0
 10
247.0279101478295
 20
229.5831718065749
 30
0.0
 10
246.9984503492027
 20
229.5592755122165
 30
0.0
 10
246.9643534710153
 20
229.5538531022729
 30
0.0
 10
246.9473179798769
 20
229.5511439564081
 30
0.0
  0
SPLINE
  5
356
330
1F
100
AcDbEntity
  8
0
  6
Continuous
 62
     7
370
    25
100
AcDbSpline
210
0.0
220
0.0
230
1.0
 70
     8
 71
     3
 72
     9
 73
     5
 74
     0
 42
0.00000001
 43
0.00000001
 40
0.0
 40
0.0
 40
0.0
 40
0.0
 40
0.9825480036110451
 40
1.0
 40
1.0
 40
1.0
 40
1.0
 10
246.7777378236279
 20
229.6502500669401
 30
0.0
 10
246.7741775199061
 20
229.664032742589
 30
0.0
 10
246.7705539781466
 20
229.6780602258247
 30
0.0
 10
246.7754166994879
 20
229.6901810446155
 30
0.0
 10
246.7755015636832
 20
229.6903925771013
 30
0.0
  0
SPLINE
  5
357
330
1F
100
AcDbEntity
  8
0
  6
Continuous
 62
     7
370
    25
100
AcDbSpline
210
0.0
220
0.0
230
1.0
 70
     8
 71
     3
 72
    12
 73
     8
 74
     0
 42
0.00000001
 43
0.00000001
 40
0.0
 40
0.0
 40
0.0
 40
0.0
 40
0.1252269070140676
 40
0.2503906207846702
 40
0.5001383828902053
 40
0.7499079503784075
 40
0.9999999999999999
 40
0.9999999999999999
 40
0.9999999999999999
 40
0.9999999999999999
 10
246.3052361819478
 20
230.7150218991848
 30
0.0
 10
246.3005935677322
 20
230.7154552924511
 30
0.0
 10
246.291310682103
 20
230.7163218602802
 30
0.0
 10
246.2747443662377
 20
230.7179448024053
 30
0.0
 10
246.2581000308645
 20
230.7196891317601
 30
0.0
 10
246.2460431330976
 20
230.7210873835428
 30
0.0
 10
246.2447307637413
 20
230.7212905097052
 30
0.0
 10
246.2440741557302
 20
230.7213921383091
 30
0.0
  0
SPLINE
  5
358
330
1F
100
AcDbEntity
  8
0
  6
Continuous
 62
     7
370
    25
100
AcDbSpline
210
0.0
220
0.0
230
1.0
 70
     8
 71
     3
 72
     9
 73
     5
 74
     0
 42
0.00000001
 43
0.00000001
 40
0.0
 40
0.0
 40
0.0
 40
0.0
 40
0.5016072192509485
 40
1.0
 40
1.0
 40
1.0
 40
1.0
 10
246.4834952015569
 20
230.7015024715692
 30
0.0
 10
246.4523970464866
 20
230.703602720056
 30
0.0
 10
246.3904000219686
 20
230.7077897580535
 30
0.0
 10
246.333563229163
 20
230.7126163570763
 30
0.0
 10
246.3052361819478
 20
230.7150218991848
 30
0.0
  0
SPLINE
  5
359
330
1F
100
AcDbEntity
  8
0
  6
Continuous
 62
     7
370
    25
100
AcDbSpline
210
0.0
220
0.0
230
1.0
 70
     8
 71
     3
 72
    13
 73
     9
 74
     0
 42
0.00000001
 43
0.00000001
 40
0.0
 40
0.0
 40
0.0
 40
0.0
 40
0.1251384014977459
 40
0.2500464467993879
 40
0.3698388958373351
 40
0.4999369809436321
 40
0.7494292466235644
 40
0.9999999999999999
 40
0.9999999999999999
 40
0.9999999999999999
 40
0.9999999999999999
 10
246.7129252685095
 20
230.6902457167403
 30
0.0
 10
246.7123314204105
 20
230.6902286703111
 30
0.0
 10
246.711144817375
 20
230.690194608832
 30
0.0
 10
246.6970657440116
 20
230.6903734344269
 30
0.0
 10
246.6721329240732
 20
230.6910801138128
 30
0.0
 10
246.6281504700436
 20
230.6928234084729
 30
0.0
 10
246.562680720723
 20
230.6963053132947
 30
0.0
 10
246.5099282983914
 20
230.6997675964382
 30
0.0
 10
246.4834952015569
 20
230.7015024715692
 30
0.0
  0
LINE
  5
35A
330
1F
100
AcDbEntity
  8
0
  6
Continuous
 62
     7
370
    25
100
AcDbLine
 10
247.4555963148
 20
227.0294200989
 30
0.0
 11
247.392264136
 21
227.2239471617
 31
0.0
  0
SPLINE
  5
35B
330
1F
100
AcDbEntity
  8
0
  6
Continuous
 62
     7
370
    25
100
AcDbSpline
210
0.0
220
0.0
230
1.0
 70
     8
 71
     3
 72
    11
 73
     7
 74
     0
 42
0.00000001
 43
0.00000001
 40
0.0
 40
0.0
 40
0.0
 40
0.0
 40
0.3327148683312842
 40
0.4999172555207683
 40
0.6672668872821317
 40
0.9999999999999999
 40
0.9999999999999999
 40
0.9999999999999999
 40
0.9999999999999999
 10
247.76207386346
 20
227.2265589853398
 30
0.0
 10
247.7584629723204
 20
227.2348248144772
 30
0.0
 10
247.7530374654966
 20
227.2472445498431
 30
0.0
 10
247.7399125292091
 20
227.2585113941282
 30
0.0
 10
247.725187231212
 20
227.2671120523453
 30
0.0
 10
247.7125137966827
 20
227.2682163034639
 30
0.0
 10
247.7040814495036
 20
227.2689510236997
 30
0.0
  0
SPLINE
  5
35C
330
1F
100
AcDbEntity
  8
0
  6
Continuous
 62
     7
370
    25
100
AcDbSpline
210
0.0
220
0.0
230
1.0
 70
     8
 71
     3
 72
    11
 73
     7
 74
     0
 42
0.00000001
 43
0.00000001
 40
0.0
 40
0.0
 40
0.0
 40
0.0
 40
0.2502176649091596
 40
0.5001638301791534
 40
0.7500323481731334
 40
1.0
 40
1.0
 40
1.0
 40
1.0
 10
247.7444694917459
 20
227.1513046182584
 30
0.0
 10
247.7486110588073
 20
227.1565702859538
 30
0.0
 10
247.7568896991069
 20
227.1670959078117
 30
0.0
 10
247.7642252816285
 20
227.1863806426861
 30
0.0
 10
247.7667939814544
 20
227.206991686954
 30
0.0
 10
247.7636474441452
 20
227.220035690194
 30
0.0
 10
247.76207386346
 20
227.2265589853398
 30
0.0
  0
LINE
  5
35D
330
1F
100
AcDbEntity
  8
0
  6
Continuous
 62
     7
370
    25
100
AcDbLine
 10
247.7696687686
 20
227.0688290553
 30
0.0
 11
247.7444694917
 21
227.1513046183
 31
0.0
  0
SPLINE
  5
35E
330
1F
100
AcDbEntity
  8
0
  6
Continuous
 62
     7
370
    25
100
AcDbSpline
210
0.0
220
0.0
230
1.0
 70
     8
 71
     3
 72
     9
 73
     5
 74
     0
 42
0.00000001
 43
0.00000001
 40
0.0
 40
0.0
 40
0.0
 40
0.0
 40
0.8192293706411354
 40
1.0
 40
1.0
 40
1.0
 40
1.0
 10
247.6505930458476
 20
227.3393777773614
 30
0.0
 10
247.6687905696341
 20
227.3465011955701
 30
0.0
 10
247.6910035473893
 20
227.3551964626883
 30
0.0
 10
247.7127683864715
 20
227.3491361122548
 30
0.0
 10
247.7167028301303
 20
227.3480405788928
 30
0.0
  0
SPLINE
  5
35F
330
1F
100
AcDbEntity
  8
0
  6
Continuous
 62
     7
370
    25
100
AcDbSpline
210
0.0
220
0.0
230
1.0
 70
     8
 71
     3
 72
    13
 73
     9
 74
     0
 42
0.00000001
 43
0.00000001
 40
0.0
 40
0.0
 40
0.0
 40
0.0
 40
0.2493042775568676
 40
0.3736983464697134
 40
0.4997789606169603
 40
0.6250159298477584
 40
0.7502475256882076
 40
1.0
 40
1.0
 40
1.0
 40
1.0
 10
247.5672782666383
 20
227.1545398250302
 30
0.0
 10
247.563064137243
 20
227.1729935749635
 30
0.0
 10
247.556747305449
 20
227.200655097276
 30
0.0
 10
247.5626623233683
 20
227.2387388222881
 30
0.0
 10
247.5720743878503
 20
227.2657385753728
 30
0.0
 10
247.5862288099591
 20
227.2903106791558
 30
0.0
 10
247.6106423037787
 20
227.3185245094549
 30
0.0
 10
247.6346218388313
 20
227.3310412148483
 30
0.0
 10
247.6505930458476
 20
227.3393777773614
 30
0.0
  0
LINE
  5
360
330
1F
100
AcDbEntity
  8
0
  6
Continuous
 62
     7
370
    25
100
AcDbLine
 10
247.5794446982
 20
227.1292471009
 30
0.0
 11
247.5672782666
 21
227.154539825
 31
0.0
  0
LINE
  5
361
330
1F
100
AcDbEntity
  8
0
  6
Continuous
 62
     7
370
    25
100
AcDbLine
 10
247.5041417889
 20
227.116755669
 30
0.0
 11
247.5794446982
 21
227.1292471009
 31
0.0
  0
LINE
  5
362
330
1F
100
AcDbEntity
  8
0
  6
Continuous
 62
     7
370
    25
100
AcDbLine
 10
247.392264136
 20
227.2239471617
 30
0.0
 11
247.459497942
 21
227.2523068937
 31
0.0
  0
LINE
  5
363
330
1F
100
AcDbEntity
  8
0
  6
Continuous
 62
     7
370
    25
100
AcDbLine
 10
248.2786714823
 20
225.3198908056
 30
0.0
 11
248.3400614918
 21
225.3676079256
 31
0.0
  0
LINE
  5
364
330
1F
100
AcDbEntity
  8
0
  6
Continuous
 62
     7
370
    25
100
AcDbLine
 10
248.2850561221
 20
225.3022073458
 30
0.0
 11
248.2786714823
 21
225.3198908056
 31
0.0
  0
LINE
  5
365
330
1F
100
AcDbEntity
  8
0
  6
Continuous
 62
     7
370
    25
100
AcDbLine
 10
248.0602433151
 20
225.1276677174
 30
0.0
 11
248.2850561221
 21
225.3022073458
 31
0.0
  0
LINE
  5
366
330
1F
100
AcDbEntity
  8
0
  6
Continuous
 62
     7
370
    25
100
AcDbLine
 10
248.0728896721
 20
225.0911503633
 30
0.0
 11
248.0602433151
 21
225.1276677174
 31
0.0
  0
LINE
  5
367
330
1F
100
AcDbEntity
  8
0
  6
Continuous
 62
     7
370
    25
100
AcDbLine
 10
248.3464567282
 20
225.3499128849
 30
0.0
 11
248.4181732681
 21
225.4055865203
 31
0.0
  0
LINE
  5
368
330
1F
100
AcDbEntity
  8
0
  6
Continuous
 62
     7
370
    25
100
AcDbLine
 10
247.4560197699
 20
227.0293186836
 30
0.0
 11
247.3926687643
 21
227.2239036892
 31
0.0
  0
LINE
  5
369
330
1F
100
AcDbEntity
  8
0
  6
Continuous
 62
     7
370
    25
100
AcDbLine
 10
247.3926687643
 20
227.2239036892
 30
0.0
 11
247.459902479
 21
227.2522637024
 31
0.0
  0
LINE
  5
36A
330
1F
100
AcDbEntity
  8
0
  6
Continuous
 62
     7
370
    25
100
AcDbLine
 10
247.459902479
 20
227.2522637024
 30
0.0
 11
247.5045595871
 21
227.116671664
 31
0.0
  0
LINE
  5
36B
330
1F
100
AcDbEntity
  8
0
  6
Continuous
 62
     7
370
    25
100
AcDbLine
 10
247.5045595871
 20
227.116671664
 30
0.0
 11
247.5798641495
 21
227.1291578364
 31
0.0
  0
LINE
  5
36C
330
1F
100
AcDbEntity
  8
0
  6
Continuous
 62
     7
370
    25
100
AcDbLine
 10
247.5798641893
 20
227.1291578666
 30
0.0
 11
247.5676951302
 21
227.1544586962
 31
0.0
  0
SPLINE
  5
36D
330
1F
100
AcDbEntity
  8
0
  6
Continuous
 62
     7
370
    25
100
AcDbSpline
210
0.0
220
0.0
230
1.0
 70
     8
 71
     3
 72
    13
 73
     9
 74
     0
 42
0.00000001
 43
0.00000001
 40
0.0
 40
0.0
 40
0.0
 40
0.0
 40
0.2493418571092385
 40
0.3739067550394621
 40
0.4998259552339449
 40
0.6250595944123554
 40
0.7502808147444068
 40
0.9999999999999999
 40
0.9999999999999999
 40
0.9999999999999999
 40
0.9999999999999999
 10
247.5676951302458
 20
227.1544586962432
 30
0.0
 10
247.5634770363036
 20
227.1729179738895
 30
0.0
 10
247.557151689101
 20
227.2005990406991
 30
0.0
 10
247.5630846221411
 20
227.2386896734648
 30
0.0
 10
247.5724849896743
 20
227.2656975516481
 30
0.0
 10
247.5866347462744
 20
227.2902629675962
 30
0.0
 10
247.6110452043652
 20
227.3184820716861
 30
0.0
 10
247.6350253772098
 20
227.3309999661261
 30
0.0
 10
247.6509967399538
 20
227.3393371801315
 30
0.0
  0
SPLINE
  5
36E
330
1F
100
AcDbEntity
  8
0
  6
Continuous
 62
     7
370
    25
100
AcDbSpline
210
0.0
220
0.0
230
1.0
 70
     8
 71
     3
 72
    12
 73
     8
 74
     0
 42
0.00000001
 43
0.00000001
 40
0.0
 40
0.0
 40
0.0
 40
0.0
 40
0.2497804431754028
 40
0.4994012335319704
 40
0.6248383138129249
 40
0.7502856917678545
 40
1.0
 40
1.0
 40
1.0
 40
1.0
 10
247.6509967399539
 20
227.3393371801315
 30
0.0
 10
247.6690075239593
 20
227.3449198234193
 30
0.0
 10
247.7050175799702
 20
227.3560815417221
 30
0.0
 10
247.7513748266661
 20
227.343620871628
 30
0.0
 10
247.7831552558508
 20
227.3244437559797
 30
0.0
 10
247.8114322580842
 20
227.2987545966782
 30
0.0
 10
247.8230642778344
 20
227.2714871037987
 30
0.0
 10
247.8308067576031
 20
227.2533373743025
 30
0.0
  0
SPLINE
  5
36F
330
1F
100
AcDbEntity
  8
0
  6
Continuous
 62
     7
370
    25
100
AcDbSpline
210
0.0
220
0.0
230
1.0
 70
     8
 71
     3
 72
    11
 73
     7
 74
     0
 42
0.00000001
 43
0.00000001
 40
0.0
 40
0.0
 40
0.0
 40
0.0
 40
0.2502429075565883
 40
0.5000901178351979
 40
0.7498389642497216
 40
1.0
 40
1.0
 40
1.0
 40
1.0
 10
247.8308067576031
 20
227.2533373743025
 30
0.0
 10
247.8348614875216
 20
227.236438374897
 30
0.0
 10
247.8429645358059
 20
227.2026670976748
 30
0.0
 10
247.8338454809474
 20
227.1494260620636
 30
0.0
 10
247.8094304765305
 20
227.1014875331917
 30
0.0
 10
247.7832179308324
 20
227.07963590766
 30
0.0
 10
247.7701008515037
 20
227.0687010862636
 30
0.0
  0
LINE
  5
370
330
1F
100
AcDbEntity
  8
0
  6
Continuous
 62
     7
370
    25
100
AcDbLine
 10
247.7701008515
 20
227.0687010863
 30
0.0
 11
247.7448933246
 21
227.1512020405
 31
0.0
  0
SPLINE
  5
371
330
1F
100
AcDbEntity
  8
0
  6
Continuous
 62
     7
370
    25
100
AcDbSpline
210
0.0
220
0.0
230
1.0
 70
     8
 71
     3
 72
    11
 73
     7
 74
     0
 42
0.00000001
 43
0.00000001
 40
0.0
 40
0.0
 40
0.0
 40
0.0
 40
0.2501909120878721
 40
0.5001304459398374
 40
0.7500135060954641
 40
1.0
 40
1.0
 40
1.0
 40
1.0
 10
247.7448933245548
 20
227.1512020404749
 30
0.0
 10
247.7490346301105
 20
227.1564687524534
 30
0.0
 10
247.7573130802631
 20
227.1669968847042
 30
0.0
 10
247.7646469773658
 20
227.1862861569279
 30
0.0
 10
247.7672136486703
 20
227.2069019469218
 30
0.0
 10
247.7640660299393
 20
227.2199491861669
 30
0.0
 10
247.7624918949189
 20
227.2264741556665
 30
0.0
  0
SPLINE
  5
372
330
1F
100
AcDbEntity
  8
0
  6
Continuous
 62
     7
370
    25
100
AcDbSpline
210
0.0
220
0.0
230
1.0
 70
     8
 71
     3
 72
    12
 73
     8
 74
     0
 42
0.00000001
 43
0.00000001
 40
0.0
 40
0.0
 40
0.0
 40
0.0
 40
0.2495329045240028
 40
0.3749246843076637
 40
0.5004192239764367
 40
0.7499112932266435
 40
1.0
 40
1.0
 40
1.0
 40
1.0
 10
247.7624917019959
 20
227.2264748560316
 30
0.0
 10
247.7588809551564
 20
227.2347321897567
 30
0.0
 10
247.7534557863937
 20
227.2471388831586
 30
0.0
 10
247.7403229708928
 20
227.2584885557284
 30
0.0
 10
247.7256228621733
 20
227.2667704161768
 30
0.0
 10
247.7042970711382
 20
227.2710773763857
 30
0.0
 10
247.6879581471856
 20
227.2657463969587
 30
0.0
 10
247.6797789286137
 20
227.2630777239137
 30
0.0
  0
SPLINE
  5
373
330
1F
100
AcDbEntity
  8
0
  6
Continuous
 62
     7
370
    25
100
AcDbSpline
210
0.0
220
0.0
230
1.0
 70
     8
 71
     3
 72
    14
 73
    10
 74
     0
 42
0.00000001
 43
0.00000001
 40
0.0
 40
0.0
 40
0.0
 40
0.0
 40
0.2497964802608431
 40
0.4989738063783331
 40
0.6241985437534149
 40
0.7493921604417927
 40
0.8745742948499895
 40
0.937282054089254
 40
0.9999999999999999
 40
0.9999999999999999
 40
0.9999999999999999
 40
0.9999999999999999
 10
247.6797789286137
 20
227.2630777239137
 30
0.0
 10
247.6723929258781
 20
227.2592736805664
 30
0.0
 10
247.6576392276071
 20
227.2516750227045
 30
0.0
 10
247.6441161192148
 20
227.2340355787858
 30
0.0
 10
247.6374092886329
 20
227.2178644760421
 30
0.0
 10
247.6345734753608
 20
227.2048437746028
 30
0.0
 10
247.6347750942536
 20
227.193790491714
 30
0.0
 10
247.6361134223447
 20
227.1851771857853
 30
0.0
 10
247.6373305592595
 20
227.1810411942939
 30
0.0
 10
247.6379391771429
 20
227.1789730305922
 30
0.0
  0
SPLINE
  5
374
330
1F
100
AcDbEntity
  8
0
  6
Continuous
 62
     7
370
    25
100
AcDbSpline
210
0.0
220
0.0
230
1.0
 70
     8
 71
     3
 72
    10
 73
     6
 74
     0
 42
0.00000001
 43
0.00000001
 40
0.0
 40
0.0
 40
0.0
 40
0.0
 40
0.2501216062012406
 40
0.5003940587092297
 40
1.0
 40
1.0
 40
1.0
 40
1.0
 10
247.6379393983339
 20
227.1789722819073
 30
0.0
 10
247.6398818833667
 20
227.1742961585415
 30
0.0
 10
247.6437680249293
 20
227.1649410916777
 30
0.0
 10
247.6568026397222
 20
227.1499909290232
 30
0.0
 10
247.669442302402
 20
227.1433418252642
 30
0.0
 10
247.6778634685844
 20
227.1389118646602
 30
0.0
  0
LINE
  5
375
330
1F
100
AcDbEntity
  8
0
  6
Continuous
 62
     7
370
    25
100
AcDbLine
 10
247.6778635189
 20
227.1389118414
 30
0.0
 11
247.6843644154
 21
227.069228561
 31
0.0
  0
LINE
  5
376
330
1F
100
AcDbEntity
  8
0
  6
Continuous
 62
     7
370
    25
100
AcDbLine
 10
247.6843644154
 20
227.069228561
 30
0.0
 11
247.4560197699
 21
227.0293186836
 31
0.0
  0
LINE
  5
377
330
1F
100
AcDbEntity
  8
0
  6
Continuous
 62
     7
370
    25
100
AcDbLine
 10
247.459902479
 20
227.2522637024
 30
0.0
 11
247.459497942
 21
227.2523068937
 31
0.0
  0
LINE
  5
378
330
1F
100
AcDbEntity
  8
0
  6
Continuous
 62
     7
370
    25
100
AcDbLine
 10
247.3926687643
 20
227.2239036892
 30
0.0
 11
247.392264136
 21
227.2239471617
 31
0.0
  0
LINE
  5
379
330
1F
100
AcDbEntity
  8
0
  6
Continuous
 62
     7
370
    25
100
AcDbLine
 10
247.4560197699
 20
227.0293186836
 30
0.0
 11
247.4555963148
 21
227.0294200989
 31
0.0
  0
LINE
  5
37A
330
1F
100
AcDbEntity
  8
0
  6
Continuous
 62
     7
370
    25
100
AcDbLine
 10
247.65099674
 20
227.3393371801
 30
0.0
 11
247.6505930458
 21
227.3393777774
 31
0.0
  0
LINE
  5
37B
330
1F
100
AcDbEntity
  8
0
  6
Continuous
 62
     7
370
    25
100
AcDbLine
 10
247.5676951302
 20
227.1544586962
 30
0.0
 11
247.5672782666
 21
227.154539825
 31
0.0
  0
LINE
  5
37C
330
1F
100
AcDbEntity
  8
0
  6
Continuous
 62
     7
370
    25
100
AcDbLine
 10
247.5798642024
 20
227.1291578451
 30
0.0
 11
247.5794446982
 21
227.1292471009
 31
0.0
  0
LINE
  5
37D
330
1F
100
AcDbEntity
  8
0
  6
Continuous
 62
     7
370
    25
100
AcDbLine
 10
247.762491702
 20
227.226474856
 30
0.0
 11
247.7620738635
 21
227.2265589853
 31
0.0
  0
LINE
  5
37E
330
1F
100
AcDbEntity
  8
0
  6
Continuous
 62
     7
370
    25
100
AcDbLine
 10
247.7448933246
 20
227.1512020405
 30
0.0
 11
247.7444694917
 21
227.1513046183
 31
0.0
  0
LINE
  5
37F
330
1F
100
AcDbEntity
  8
0
  6
Continuous
 62
     7
370
    25
100
AcDbLine
 10
247.7701008515
 20
227.0687010863
 30
0.0
 11
247.7696687686
 21
227.0688290553
 31
0.0
  0
LINE
  5
380
330
1F
100
AcDbEntity
  8
0
  6
Continuous
 62
     7
370
    25
100
AcDbLine
 10
247.1808466803
 20
230.0417898866
 30
0.0
 11
248.5322026718
 21
225.8827437986
 31
0.0
  0
ARC
  5
381
330
1F
100
AcDbEntity
  8
0
  6
Continuous
 62
     7
370
    25
100
AcDbCircle
 10
248.4530235265
 20
225.8637225322
 30
0.0
 40
0.0814318465380238
100
AcDbArc
 50
301.001895257
 51
13.508234223
  0
ARC
  5
382
330
1F
100
AcDbEntity
  8
0
  6
Continuous
 62
     7
370
    25
100
AcDbCircle
 10
247.1056089863
 20
230.0106380805
 30
0.0
 40
0.0814318465380369
100
AcDbArc
 50
22.491765777
 51
94.998104743
  0
LINE
  5
383
330
1F
100
AcDbEntity
  8
0
  6
Continuous
 62
     7
370
    25
100
AcDbLine
 10
246.597144148
 20
229.643872687
 30
0.0
 11
246.6145709177
 21
229.6983921096
 31
0.0
  0
LINE
  5
384
330
1F
100
AcDbEntity
  8
0
  6
Continuous
 62
     7
370
    25
100
AcDbLine
 10
246.6145709177
 20
229.6983921096
 30
0.0
 11
246.7779087071
 21
229.6509258282
 31
0.0
  0
SPLINE
  5
385
330
1F
100
AcDbEntity
  8
0
  6
Continuous
 62
     7
370
    25
100
AcDbSpline
210
0.0
220
0.0
230
1.0
 70
     8
 71
     3
 72
    13
 73
     9
 74
     0
 42
0.00000001
 43
0.00000001
 40
0.0
 40
0.0
 40
0.0
 40
0.0
 40
0.2492561668016648
 40
0.371694514628551
 40
0.4998384439444356
 40
0.6263351851899012
 40
0.7503879552284595
 40
1.0
 40
1.0
 40
1.0
 40
1.0
 10
246.7779087589172
 20
229.6509258302273
 30
0.0
 10
246.7753815993172
 20
229.6644389121464
 30
0.0
 10
246.7716130612185
 20
229.684589821508
 30
0.0
 10
246.7817643671426
 20
229.7086374112393
 30
0.0
 10
246.7940622780918
 20
229.7246007668379
 30
0.0
 10
246.810715088251
 20
229.7381060461211
 30
0.0
 10
246.8380284753967
 20
229.7519467083126
 30
0.0
 10
246.863690202309
 20
229.755254318535
 30
0.0
 10
246.8808325070513
 20
229.7574638371148
 30
0.0
  0
SPLINE
  5
386
330
1F
100
AcDbEntity
  8
0
  6
Continuous
 62
     7
370
    25
100
AcDbSpline
210
0.0
220
0.0
230
1.0
 70
     8
 71
     3
 72
    12
 73
     8
 74
     0
 42
0.00000001
 43
0.00000001
 40
0.0
 40
0.0
 40
0.0
 40
0.0
 40
0.2496763881762457
 40
0.3724361226428443
 40
0.5005048710572367
 40
0.7502284668960509
 40
1.0
 40
1.0
 40
1.0
 40
1.0
 10
246.8808325070512
 20
229.7574638371148
 30
0.0
 10
246.898776477783
 20
229.7573208694986
 30
0.0
 10
246.925543057246
 20
229.7571076082247
 30
0.0
 10
246.9607381468877
 20
229.7464090000808
 30
0.0
 10
246.9929569716873
 20
229.7314386357131
 30
0.0
 10
247.028934355538
 20
229.7055315285053
 30
0.0
 10
247.0410658966024
 20
229.6789312385546
 30
0.0
 10
247.0471322492752
 20
229.6656298171453
 30
0.0
  0
SPLINE
  5
387
330
1F
100
AcDbEntity
  8
0
  6
Continuous
 62
     7
370
    25
100
AcDbSpline
210
0.0
220
0.0
230
1.0
 70
     8
 71
     3
 72
    12
 73
     8
 74
     0
 42
0.00000001
 43
0.00000001
 40
0.0
 40
0.0
 40
0.0
 40
0.0
 40
0.2497844234011057
 40
0.375228283189817
 40
0.5006758907588365
 40
0.7505383114627814
 40
1.0
 40
1.0
 40
1.0
 40
1.0
 10
247.0471324888211
 20
229.6656291503029
 30
0.0
 10
247.0498069822407
 20
229.6519854417228
 30
0.0
 10
247.0538246289802
 20
229.6314897467666
 30
0.0
 10
247.0444991267026
 20
229.6060546939012
 30
0.0
 10
247.0282750147068
 20
229.5837989429587
 30
0.0
 10
246.9985756912775
 20
229.5599273785315
 30
0.0
 10
246.9645159677076
 20
229.5544985402003
 30
0.0
 10
246.9474997732246
 20
229.5517862994897
 30
0.0
  0
SPLINE
  5
388
330
1F
100
AcDbEntity
  8
0
  6
Continuous
 62
     7
370
    25
100
AcDbSpline
210
0.0
220
0.0
230
1.0
 70
     8
 71
     3
 72
     9
 73
     5
 74
     0
 42
0.00000001
 43
0.00000001
 40
0.0
 40
0.0
 40
0.0
 40
0.0
 40
0.4986050564819428
 40
0.9999999999999999
 40
0.9999999999999999
 40
0.9999999999999999
 40
0.9999999999999999
 10
246.9474997732246
 20
229.5517862994897
 30
0.0
 10
246.9290852517139
 20
229.5526755866535
 30
0.0
 10
246.8921531723631
 20
229.554459136885
 30
0.0
 10
246.8563130598089
 20
229.5661478414837
 30
0.0
 10
246.838343008599
 20
229.5720084988658
 30
0.0
  0
LINE
  5
389
330
1F
100
AcDbEntity
  8
0
  6
Continuous
 62
     7
370
    25
100
AcDbLine
 10
246.8383426982
 20
229.5720085932
 30
0.0
 11
246.5971441941
 21
229.6438726735
 31
0.0
  0
SPLINE
  5
38A
330
1F
100
AcDbEntity
  8
0
  6
Continuous
 62
     7
370
    25
100
AcDbSpline
210
0.0
220
0.0
230
1.0
 70
     8
 71
     3
 72
    12
 73
     8
 74
     0
 42
0.00000001
 43
0.00000001
 40
0.0
 40
0.0
 40
0.0
 40
0.0
 40
0.2495342807944097
 40
0.4992411243681004
 40
0.7489190611584089
 40
0.8743786364302767
 40
1.0
 40
1.0
 40
1.0
 40
1.0
 10
246.9715141388884
 20
229.6597338619513
 30
0.0
 10
246.9688427715191
 20
229.665421917748
 30
0.0
 10
246.963498189425
 20
229.6768019628559
 30
0.0
 10
246.9447979458052
 20
229.6898635890347
 30
0.0
 10
246.9263008168255
 20
229.6964811167107
 30
0.0
 10
246.910861960157
 20
229.698405043933
 30
0.0
 10
246.9033246889162
 20
229.6981980730854
 30
0.0
 10
246.899553624911
 20
229.6980945209789
 30
0.0
  0
SPLINE
  5
38B
330
1F
100
AcDbEntity
  8
0
  6
Continuous
 62
     7
370
    25
100
AcDbSpline
210
0.0
220
0.0
230
1.0
 70
     8
 71
     3
 72
    14
 73
    10
 74
     0
 42
0.00000001
 43
0.00000001
 40
0.0
 40
0.0
 40
0.0
 40
0.0
 40
0.2492280639570829
 40
0.3753948027705082
 40
0.4993910806604709
 40
0.6261696157483452
 40
0.749663916229099
 40
0.8747305384643266
 40
1.0
 40
1.0
 40
1.0
 40
1.0
 10
246.899553624911
 20
229.6980945209789
 30
0.0
 10
246.8922561494355
 20
229.6971504420082
 30
0.0
 10
246.8812644724816
 20
229.6957284418796
 30
0.0
 10
246.8695750826639
 20
229.6897629125738
 30
0.0
 10
246.8624214843732
 20
229.6839824320336
 30
0.0
 10
246.8572353879503
 20
229.6770792651368
 30
0.0
 10
246.854240434259
 20
229.6692608907155
 30
0.0
 10
246.8537802056581
 20
229.6608398969157
 30
0.0
 10
246.8551887180279
 20
229.6551103735204
 30
0.0
 10
246.8558935448489
 20
229.6522432905981
 30
0.0
  0
SPLINE
  5
38C
330
1F
100
AcDbEntity
  8
0
  6
Continuous
 62
     7
370
    25
100
AcDbSpline
210
0.0
220
0.0
230
1.0
 70
     8
 71
     3
 72
    13
 73
     9
 74
     0
 42
0.00000001
 43
0.00000001
 40
0.0
 40
0.0
 40
0.0
 40
0.0
 40
0.2493403954110128
 40
0.3715640705199357
 40
0.4999441082167082
 40
0.7492984878484779
 40
0.8745707609944358
 40
1.0
 40
1.0
 40
1.0
 40
1.0
 10
246.8558935448489
 20
229.6522432905981
 30
0.0
 10
246.8584348778336
 20
229.6466303504692
 30
0.0
 10
246.862221941806
 20
229.6382660143236
 30
0.0
 10
246.8730074012709
 20
229.6289862558908
 30
0.0
 10
246.8854621883683
 20
229.6212446031951
 30
0.0
 10
246.9002548208357
 20
229.6159775233997
 30
0.0
 10
246.9153161389988
 20
229.6141049914372
 30
0.0
 10
246.9226892001822
 20
229.6143228628775
 30
0.0
 10
246.9263780389348
 20
229.614431866803
 30
0.0
  0
SPLINE
  5
38D
330
1F
100
AcDbEntity
  8
0
  6
Continuous
 62
     7
370
    25
100
AcDbSpline
210
0.0
220
0.0
230
1.0
 70
     8
 71
     3
 72
    11
 73
     7
 74
     0
 42
0.00000001
 43
0.00000001
 40
0.0
 40
0.0
 40
0.0
 40
0.0
 40
0.2503954495840662
 40
0.5003797045900578
 40
0.7504390965290071
 40
0.9999999999999999
 40
0.9999999999999999
 40
0.9999999999999999
 40
0.9999999999999999
 10
246.9263780389348
 20
229.614431866803
 30
0.0
 10
246.9336250782681
 20
229.6153690130475
 30
0.0
 10
246.9481072559865
 20
229.617241766573
 30
0.0
 10
246.9638556425097
 20
229.6280912812675
 30
0.0
 10
246.9742400490921
 20
229.642503477306
 30
0.0
 10
246.9724221710363
 20
229.6539942219742
 30
0.0
 10
246.9715141388884
 20
229.6597338619513
 30
0.0
  0
LINE
  5
38E
330
1F
100
AcDbEntity
  8
0
  6
Continuous
 62
     7
370
    25
100
AcDbLine
 10
246.597144148
 20
229.643872687
 30
0.0
 11
246.5969736586
 21
229.6431955537
 31
0.0
  0
LINE
  5
38F
330
1F
100
AcDbEntity
  8
0
  6
Continuous
 62
     7
370
    25
100
AcDbLine
 10
246.8383430086
 20
229.5720084989
 30
0.0
 11
246.8381640139
 21
229.5713575425
 31
0.0
  0
LINE
  5
390
330
1F
100
AcDbEntity
  8
0
  6
Continuous
 62
     7
370
    25
100
AcDbLine
 10
246.9474997732
 20
229.5517862995
 30
0.0
 11
246.9473179799
 21
229.5511439564
 31
0.0
  0
SPLINE
  5
391
330
1F
100
AcDbEntity
  8
0
  6
Continuous
 62
     7
370
    25
100
AcDbSpline
210
0.0
220
0.0
230
1.0
 70
     8
 71
     3
 72
    11
 73
     7
 74
     0
 42
0.00000001
 43
0.00000001
 40
0.0
 40
0.0
 40
0.0
 40
0.0
 40
0.3980462792834271
 40
0.5995387975352002
 40
0.7975539969974856
 40
1.0
 40
1.0
 40
1.0
 40
1.0
 10
246.8993865447256
 20
229.6974068954401
 30
0.0
 10
246.8920833923152
 20
229.6964653291164
 30
0.0
 10
246.881083356786
 20
229.6950471383911
 30
0.0
 10
246.8694335383842
 20
229.6890668701754
 30
0.0
 10
246.8621550107119
 20
229.6833385482632
 30
0.0
 10
246.8589955975259
 20
229.6785860355679
 30
0.0
 10
246.8573984126616
 20
229.6761834877219
 30
0.0
  0
SPLINE
  5
392
330
1F
100
AcDbEntity
  8
0
  6
Continuous
 62
     7
370
    25
100
AcDbSpline
210
0.0
220
0.0
230
1.0
 70
     8
 71
     3
 72
    12
 73
     8
 74
     0
 42
0.00000001
 43
0.00000001
 40
0.0
 40
0.0
 40
0.0
 40
0.0
 40
0.2494968407337412
 40
0.4991901205401493
 40
0.7488841219042389
 40
0.8743600791987565
 40
1.0
 40
1.0
 40
1.0
 40
1.0
 10
246.9713428158977
 20
229.6590592944245
 30
0.0
 10
246.9686719159197
 20
229.6647456485664
 30
0.0
 10
246.9633280130547
 20
229.6761228339494
 30
0.0
 10
246.9446284512522
 20
229.6891799461542
 30
0.0
 10
246.9261328113614
 20
229.6957945715994
 30
0.0
 10
246.9106947486345
 20
229.6977175308242
 30
0.0
 10
246.9031575864658
 20
229.6975104856308
 30
0.0
 10
246.8993865447256
 20
229.6974068954401
 30
0.0
  0
LINE
  5
393
330
1F
100
AcDbEntity
  8
0
  6
Continuous
 62
     7
370
    25
100
AcDbLine
 10
246.9718848043
 20
229.6423157663
 30
0.0
 11
246.9713428159
 21
229.6590592944
 31
0.0
  0
LINE
  5
394
330
1F
100
AcDbEntity
  8
0
  6
Continuous
 62
     7
370
    25
100
AcDbLine
 10
246.9713428159
 20
229.6590592944
 30
0.0
 11
246.9715141389
 21
229.659733862
 31
0.0
  0
LINE
  5
395
330
1F
100
AcDbEntity
  8
0
  6
Continuous
 62
     7
370
    25
100
AcDbLine
 10
246.8993865447
 20
229.6974068954
 30
0.0
 11
246.8995536249
 21
229.698094521
 31
0.0
  0
SPLINE
  5
396
330
1F
100
AcDbEntity
  8
0
  6
Continuous
 62
     7
370
    25
100
AcDbSpline
210
0.0
220
0.0
230
1.0
 70
     8
 71
     3
 72
    12
 73
     8
 74
     0
 42
0.00000001
 43
0.00000001
 40
0.0
 40
0.0
 40
0.0
 40
0.0
 40
0.0304717459515818
 40
0.0888135668586252
 40
0.3925556175487596
 40
0.6962774394174437
 40
1.0
 40
1.0
 40
1.0
 40
1.0
 10
247.1979932099466
 20
230.1368128432077
 30
0.0
 10
247.1976888316183
 20
230.1378287888154
 30
0.0
 10
247.1968016843886
 20
230.140789884425
 30
0.0
 10
247.1921676725956
 20
230.1537987600182
 30
0.0
 10
247.1801014749639
 20
230.1751092893427
 30
0.0
 10
247.1559340580699
 20
230.1997706251508
 30
0.0
 10
247.136151968555
 20
230.2092657555476
 30
0.0
 10
247.1262609117691
 20
230.2140133265195
 30
0.0
  0
SPLINE
  5
397
330
1F
100
AcDbEntity
  8
0
  6
Continuous
 62
     7
370
    25
100
AcDbSpline
210
0.0
220
0.0
230
1.0
 70
     8
 71
     3
 72
     9
 73
     5
 74
     0
 42
0.00000001
 43
0.00000001
 40
0.0
 40
0.0
 40
0.0
 40
0.0
 40
0.468441057325184
 40
1.0
 40
1.0
 40
1.0
 40
1.0
 10
247.1979932099466
 20
230.1368128432077
 30
0.0
 10
247.1886952898233
 20
230.1244323053542
 30
0.0
 10
247.1688466450943
 20
230.0980030723487
 30
0.0
 10
247.176681821971
 20
230.0612998256481
 30
0.0
 10
247.1808466803072
 20
230.0417898866392
 30
0.0
  0
SPLINE
  5
398
330
1F
100
AcDbEntity
  8
0
  6
Continuous
 62
     7
370
    25
100
AcDbSpline
210
0.0
220
0.0
230
1.0
 70
     8
 71
     3
 72
    11
 73
     7
 74
     0
 42
0.00000001
 43
0.00000001
 40
0.0
 40
0.0
 40
0.0
 40
0.0
 40
0.3704320937885579
 40
0.7442498469297287
 40
0.944248053768424
 40
0.9999999999999999
 40
0.9999999999999999
 40
0.9999999999999999
 40
0.9999999999999999
 10
247.1241612498588
 20
230.2162497027281
 30
0.0
 10
247.1242751304142
 20
230.2159549205623
 30
0.0
 10
247.1245039323655
 20
230.2153626619933
 30
0.0
 10
247.1251435580394
 20
230.2146089036776
 30
0.0
 10
247.1258486408395
 20
230.2141782763736
 30
0.0
 10
247.1261871244439
 20
230.214042848874
 30
0.0
 10
247.1262609117691
 20
230.2140133265195
 30
0.0
  0
SPLINE
  5
399
330
1F
100
AcDbEntity
  8
0
  6
Continuous
 62
     7
370
    25
100
AcDbSpline
210
0.0
220
0.0
230
1.0
 70
     8
 71
     3
 72
     9
 73
     5
 74
     0
 42
0.00000001
 43
0.00000001
 40
0.0
 40
0.0
 40
0.0
 40
0.0
 40
0.5315589426747523
 40
1.0
 40
1.0
 40
1.0
 40
1.0
 10
248.5322026718364
 20
225.8827437986469
 30
0.0
 10
248.5403008850858
 20
225.8645118841216
 30
0.0
 10
248.5555357209604
 20
225.8302129323749
 30
0.0
 10
248.5871283252515
 20
225.8204979743749
 30
0.0
 10
248.6019275982093
 20
225.8159470891775
 30
0.0
  0
SPLINE
  5
39A
330
1F
100
AcDbEntity
  8
0
  6
Continuous
 62
     7
370
    25
100
AcDbSpline
210
0.0
220
0.0
230
1.0
 70
     8
 71
     3
 72
    12
 73
     8
 74
     0
 42
0.00000001
 43
0.00000001
 40
0.0
 40
0.0
 40
0.0
 40
0.0
 40
0.030471745945947
 40
0.0888135668586308
 40
0.3925556175487632
 40
0.69627743941742
 40
1.0
 40
1.0
 40
1.0
 40
1.0
 10
248.6019275982093
 20
225.8159470891775
 30
0.0
 10
248.6022785088144
 20
225.8149462628232
 30
0.0
 10
248.6033012799593
 20
225.8120292340948
 30
0.0
 10
248.607198710888
 20
225.7987810288715
 30
0.0
 10
248.6099629668032
 20
225.7744481154693
 30
0.0
 10
248.6049066853152
 20
225.7402914244603
 30
0.0
 10
248.5944837363293
 20
225.7209820821291
 30
0.0
 10
248.5892722554987
 20
225.7113273992225
 30
0.0
  0
SPLINE
  5
39B
330
1F
100
AcDbEntity
  8
0
  6
Continuous
 62
     7
370
    25
100
AcDbSpline
210
0.0
220
0.0
230
1.0
 70
     8
 71
     3
 72
    10
 73
     6
 74
     0
 42
0.00000001
 43
0.00000001
 40
0.0
 40
0.0
 40
0.0
 40
0.0
 40
0.211795899711869
 40
0.4880069094686907
 40
1.0
 40
1.0
 40
1.0
 40
1.0
 10
248.5892722554987
 20
225.7113273992225
 30
0.0
 10
248.5891281913524
 20
225.7110690083444
 30
0.0
 10
248.5887962477271
 20
225.7104736401903
 30
0.0
 10
248.5886200648007
 20
225.7093702310273
 30
0.0
 10
248.5887825541873
 20
225.708711726684
 30
0.0
 10
248.5888881022848
 20
225.7082839825583
 30
0.0
  0
SPLINE
  5
39C
330
1F
100
AcDbEntity
  8
0
  6
Continuous
 62
     7
370
    25
100
AcDbSpline
210
0.0
220
0.0
230
1.0
 70
     8
 71
     3
 72
    11
 73
     7
 74
     0
 42
0.00000001
 43
0.00000001
 40
0.0
 40
0.0
 40
0.0
 40
0.0
 40
0.3658281109894407
 40
0.7252591430831171
 40
0.9820690181776763
 40
0.9999999999999999
 40
0.9999999999999999
 40
0.9999999999999999
 40
0.9999999999999999
 10
247.4521265252526
 20
230.1607536150527
 30
0.0
 10
247.4144859200649
 20
230.166227583251
 30
0.0
 10
247.3398629147697
 20
230.1770797987192
 30
0.0
 10
247.2524320979673
 20
230.1678514187219
 30
0.0
 10
247.2116816825692
 20
230.1487773103796
 30
0.0
 10
247.1988318548768
 20
230.1375458643425
 30
0.0
 10
247.1979932099466
 20
230.1368128432077
 30
0.0
  0
LINE
  5
39D
330
1F
100
AcDbEntity
  8
0
  6
Continuous
 62
     7
370
    25
100
AcDbLine
 10
247.4521265253
 20
230.1607536151
 30
0.0
 11
248.8215978017
 21
225.9459544127
 31
0.0
  0
SPLINE
  5
39E
330
1F
100
AcDbEntity
  8
0
  6
Continuous
 62
     7
370
    25
100
AcDbSpline
210
0.0
220
0.0
230
1.0
 70
     8
 71
     3
 72
    11
 73
     7
 74
     0
 42
0.00000001
 43
0.00000001
 40
0.0
 40
0.0
 40
0.0
 40
0.0
 40
0.2357948537758657
 40
0.2749019968044707
 40
0.6342531696138295
 40
1.0
 40
1.0
 40
1.0
 40
1.0
 10
248.6019275982093
 20
225.8159470891775
 30
0.0
 10
248.6173244663985
 20
225.8163922623534
 30
0.0
 10
248.6352749421699
 20
225.8169112685702
 30
0.0
 10
248.6809457216821
 20
225.8327025954781
 30
0.0
 10
248.7404315783146
 20
225.8667061773442
 30
0.0
 10
248.7943837672294
 20
225.9193834559822
 30
0.0
 10
248.8215978017476
 20
225.9459544127499
 30
0.0
  0
SPLINE
  5
39F
330
1F
100
AcDbEntity
  8
0
  6
Continuous
 62
     7
370
    25
100
AcDbSpline
210
0.0
220
0.0
230
1.0
 70
     8
 71
     3
 72
    12
 73
     8
 74
     0
 42
0.00000001
 43
0.00000001
 40
0.0
 40
0.0
 40
0.0
 40
0.0
 40
0.223892557185153
 40
0.4477848984198487
 40
0.671682486203198
 40
0.8955821585469914
 40
1.0
 40
1.0
 40
1.0
 40
1.0
 10
247.0487675167553
 20
230.6647038831267
 30
0.0
 10
247.0459974242084
 20
230.6650102063985
 30
0.0
 10
247.0404572417865
 20
230.6656228526466
 30
0.0
 10
247.0333073804221
 20
230.6664399508436
 30
0.0
 10
247.0281031804768
 20
230.6670458303272
 30
0.0
 10
247.0257858919953
 20
230.6673208679939
 30
0.0
 10
247.0255926009112
 20
230.6673456139337
 30
0.0
 10
247.0255311267682
 20
230.6673534841127
 30
0.0
  0
LINE
  5
3A0
330
1F
100
AcDbEntity
  8
0
  6
Continuous
 62
     7
370
    25
100
AcDbLine
 10
247.0487675168
 20
230.6647038831
 30
0.0
 11
248.9465535214
 21
230.4526500861
 31
0.0
  0
LINE
  5
3A1
330
1F
100
AcDbEntity
  8
0
  6
Continuous
 62
     7
370
    25
100
AcDbLine
 10
248.9465535214
 20
230.4526500861
 30
0.0
 11
249.0935389854
 21
230.436454224
 31
0.0
  0
LINE
  5
3A2
330
1F
100
AcDbEntity
  8
0
  6
Continuous
 62
     7
370
    25
100
AcDbLine
 10
249.1982239896
 20
230.1142669099
 30
0.0
 11
249.0935389854
 21
230.436454224
 31
0.0
  0
LINE
  5
3A3
330
1F
100
AcDbEntity
  8
0
  6
Continuous
 62
     7
370
    25
100
AcDbLine
 10
247.4539883031
 20
230.2821727339
 30
0.0
 11
249.1982239896
 21
230.1142669099
 31
0.0
  0
SPLINE
  5
3A4
330
1F
100
AcDbEntity
  8
0
  6
Continuous
 62
     7
370
    25
100
AcDbSpline
210
0.0
220
0.0
230
1.0
 70
     8
 71
     3
 72
    10
 73
     6
 74
     0
 42
0.00000001
 43
0.00000001
 40
0.0
 40
0.0
 40
0.0
 40
0.0
 40
0.285766977933649
 40
0.6445560549562842
 40
1.0
 40
1.0
 40
1.0
 40
1.0
 10
247.1262609117691
 20
230.2140133265195
 30
0.0
 10
247.1461737534966
 20
230.2289003968343
 30
0.0
 10
247.1910877698034
 20
230.2624786338349
 30
0.0
 10
247.308258557602
 20
230.2871046479497
 30
0.0
 10
247.4055636316675
 20
230.2838115641594
 30
0.0
 10
247.4539883030703
 20
230.2821727338931
 30
0.0
  0
ARC
  5
3A5
330
1F
100
AcDbEntity
  8
0
  6
Continuous
 62
     7
370
    25
100
AcDbCircle
 10
247.0382970306
 20
230.2278228952
 30
0.0
 40
0.4192292200791237
100
AcDbArc
 50
350.7941276521
 51
7.4489224795
  0
LINE
  5
3A6
330
1F
100
AcDbEntity
  8
0
  6
Continuous
 62
     7
370
    25
100
AcDbLine
 10
250.2068961245
 20
227.0098932859
 30
0.0
 11
248.894472379
 21
225.8488186077
 31
0.0
  0
SPLINE
  5
3A7
330
1F
100
AcDbEntity
  8
0
  6
Continuous
 62
     7
370
    25
100
AcDbSpline
210
0.0
220
0.0
230
1.0
 70
     8
 71
     3
 72
    10
 73
     6
 74
     0
 42
0.00000001
 43
0.00000001
 40
0.0
 40
0.0
 40
0.0
 40
0.0
 40
0.3554439450437125
 40
0.7142330220663412
 40
1.0
 40
1.0
 40
1.0
 40
1.0
 10
248.8944723790426
 20
225.8488186077103
 30
0.0
 10
248.8562592771923
 20
225.8190294584763
 30
0.0
 10
248.7794734447209
 20
225.759170810217
 30
0.0
 10
248.6702054782282
 20
225.7102224130719
 30
0.0
 10
248.6141324832434
 20
225.7109879810401
 30
0.0
 10
248.5892722554987
 20
225.7113273992225
 30
0.0
  0
ARC
  5
3A8
330
1F
100
AcDbEntity
  8
0
  6
Continuous
 62
     7
370
    25
100
AcDbCircle
 10
248.5262250415
 20
225.6484513514
 30
0.0
 40
0.4192292200793211
100
AcDbArc
 50
28.5510775205
 51
45.205872348
  0
LINE
  5
3A9
330
1F
100
AcDbEntity
  8
0
  6
Continuous
 62
     7
370
    25
100
AcDbLine
 10
248.3595155031
 20
225.3134305198
 30
0.0
 11
248.3834658146
 21
225.23518041
 31
0.0
  0
LINE
  5
3AA
330
1F
100
AcDbEntity
  8
0
  6
Continuous
 62
     7
370
    25
100
AcDbLine
 10
248.3834658146
 20
225.23518041
 30
0.0
 11
248.3220727137
 21
225.187466172
 31
0.0
  0
LINE
  5
3AB
330
1F
100
AcDbEntity
  8
0
  6
Continuous
 62
     7
370
    25
100
AcDbLine
 10
248.3220727137
 20
225.187466172
 30
0.0
 11
248.0734999269
 21
225.0904740376
 31
0.0
  0
LINE
  5
3AC
330
1F
100
AcDbEntity
  8
0
  6
Continuous
 62
     7
370
    25
100
AcDbLine
 10
248.0734999218
 20
225.0904740527
 30
0.0
 11
248.0608499956
 21
225.1270023923
 31
0.0
  0
LINE
  5
3AD
330
1F
100
AcDbEntity
  8
0
  6
Continuous
 62
     7
370
    25
100
AcDbLine
 10
248.0608499956
 20
225.1270023923
 30
0.0
 11
248.2856626205
 21
225.3015425809
 31
0.0
  0
LINE
  5
3AE
330
1F
100
AcDbEntity
  8
0
  6
Continuous
 62
     7
370
    25
100
AcDbLine
 10
248.2856626205
 20
225.3015425809
 30
0.0
 11
248.2792761728
 21
225.3192316052
 31
0.0
  0
LINE
  5
3AF
330
1F
100
AcDbEntity
  8
0
  6
Continuous
 62
     7
370
    25
100
AcDbLine
 10
248.2792761728
 20
225.3192316052
 30
0.0
 11
248.3406661081
 21
225.3669489534
 31
0.0
  0
LINE
  5
3B0
330
1F
100
AcDbEntity
  8
0
  6
Continuous
 62
     7
370
    25
100
AcDbLine
 10
248.3406661081
 20
225.3669489534
 30
0.0
 11
248.3470631718
 21
225.3492482889
 31
0.0
  0
LINE
  5
3B1
330
1F
100
AcDbEntity
  8
0
  6
Continuous
 62
     7
370
    25
100
AcDbLine
 10
248.3470631718
 20
225.3492482889
 30
0.0
 11
248.4187804324
 21
225.404922721
 31
0.0
  0
LINE
  5
3B2
330
1F
100
AcDbEntity
  8
0
  6
Continuous
 62
     7
370
    25
100
AcDbLine
 10
248.4187804324
 20
225.4049227211
 30
0.0
 11
248.4312466935
 21
225.3690895306
 31
0.0
  0
LINE
  5
3B3
330
1F
100
AcDbEntity
  8
0
  6
Continuous
 62
     7
370
    25
100
AcDbLine
 10
248.4312466935
 20
225.3690895306
 30
0.0
 11
248.3595162855
 21
225.313431127
 31
0.0
  0
LINE
  5
3B4
330
1F
100
AcDbEntity
  8
0
  6
Continuous
 62
     7
370
    25
100
AcDbLine
 10
248.311566347
 20
225.2238223046
 30
0.0
 11
248.2981021379
 21
225.2657389941
 31
0.0
  0
LINE
  5
3B5
330
1F
100
AcDbEntity
  8
0
  6
Continuous
 62
     7
370
    25
100
AcDbLine
 10
248.2981021379
 20
225.2657389941
 30
0.0
 11
248.1810242556
 21
225.174896514
 31
0.0
  0
LINE
  5
3B6
330
1F
100
AcDbEntity
  8
0
  6
Continuous
 62
     7
370
    25
100
AcDbLine
 10
248.1810242556
 20
225.174896514
 30
0.0
 11
248.311566347
 21
225.2238223046
 31
0.0
  0
LINE
  5
3B7
330
1F
100
AcDbEntity
  8
0
  6
Continuous
 62
     7
370
    25
100
AcDbLine
 10
248.0602433151
 20
225.1276677174
 30
0.0
 11
248.0608499956
 21
225.1270023923
 31
0.0
  0
LINE
  5
3B8
330
1F
100
AcDbEntity
  8
0
  6
Continuous
 62
     7
370
    25
100
AcDbLine
 10
248.2850561221
 20
225.3022073458
 30
0.0
 11
248.2856626205
 21
225.3015425809
 31
0.0
  0
LINE
  5
3B9
330
1F
100
AcDbEntity
  8
0
  6
Continuous
 62
     7
370
    25
100
AcDbLine
 10
248.0728896721
 20
225.0911503633
 30
0.0
 11
248.0734999269
 21
225.0904740376
 31
0.0
  0
LINE
  5
3BA
330
1F
100
AcDbEntity
  8
0
  6
Continuous
 62
     7
370
    25
100
AcDbLine
 10
248.2786714823
 20
225.3198908056
 30
0.0
 11
248.2792761728
 21
225.3192316052
 31
0.0
  0
LINE
  5
3BB
330
1F
100
AcDbEntity
  8
0
  6
Continuous
 62
     7
370
    25
100
AcDbLine
 10
248.3400614918
 20
225.3676079256
 30
0.0
 11
248.3406661081
 21
225.3669489534
 31
0.0
  0
LINE
  5
3BC
330
1F
100
AcDbEntity
  8
0
  6
Continuous
 62
     7
370
    25
100
AcDbLine
 10
249.1918165656
 20
230.0068378515
 30
0.0
 11
247.4521265253
 21
230.1607536151
 31
0.0
  0
ARC
  5
3BD
330
1F
100
AcDbEntity
  8
0
  6
Continuous
 62
     7
370
    25
100
AcDbCircle
 10
248.6334377728
 20
230.094047017
 30
0.0
 40
0.56514804675656
100
AcDbArc
 50
351.1230991873
 51
2.0503686318
  0
LINE
  5
3BE
330
1F
100
AcDbEntity
  8
0
  6
Continuous
 62
     7
370
    25
100
AcDbLine
 10
248.8215978017
 20
225.9459544127
 30
0.0
 11
250.1385671934
 21
227.0930390304
 31
0.0
  0
ARC
  5
3BF
330
1F
100
AcDbEntity
  8
0
  6
Continuous
 62
     7
370
    25
100
AcDbCircle
 10
249.7380895221
 20
226.6942785139
 30
0.0
 40
0.5651480467606808
100
AcDbArc
 50
33.9496313683
 51
44.8769008127
  0
LINE
  5
3C0
330
1F
100
AcDbEntity
  8
0
  6
Continuous
 62
     7
370
    25
100
AcDbLine
 10
250.1385671934
 20
227.0930390304
 30
0.0
 11
249.1918165656
 21
230.0068378515
 31
0.0
  0
LINE
  5
3C1
330
1F
100
AcDbEntity
  8
0
  6
Continuous
 62
     7
370
    25
100
AcDbLine
 10
248.4181740504
 20
225.4055871276
 30
0.0
 11
248.4187804324
 21
225.4049227211
 31
0.0
  0
LINE
  5
3C2
330
1F
100
AcDbEntity
  8
0
  6
Continuous
 62
     7
370
    25
100
AcDbLine
 10
248.1804141007
 20
225.1755725324
 30
0.0
 11
248.3109520357
 21
225.2245111149
 31
0.0
  0
LINE
  5
3C3
330
1F
100
AcDbEntity
  8
0
  6
Continuous
 62
     7
370
    25
100
AcDbLine
 10
248.3109520357
 20
225.2245111149
 30
0.0
 11
248.311566347
 21
225.2238223046
 31
0.0
  0
LINE
  5
3C4
330
1F
100
AcDbEntity
  8
0
  6
Continuous
 62
     7
370
    25
100
AcDbLine
 10
248.3109520357
 20
225.2245111149
 30
0.0
 11
248.2974920092
 21
225.2664149318
 31
0.0
  0
ARC
  5
3C5
330
1F
100
AcDbEntity
  8
0
  6
Continuous
 62
     7
370
    25
100
AcDbCircle
 10
249.177257662
 20
230.1250052399
 30
0.0
 40
0.119060880790442
100
AcDbArc
 50
277.0237736414
 51
327.4085911736
  0
ARC
  5
3C6
330
1F
100
AcDbEntity
  8
0
  6
Continuous
 62
     7
370
    25
100
AcDbCircle
 10
249.1996307335
 20
230.0307033675
 30
0.0
 40
0.0835753823839508
100
AcDbArc
 50
21.1613837536
 51
90.9644501976
  0
ARC
  5
3C7
330
1F
100
AcDbEntity
  8
0
  6
Continuous
 62
     7
370
    25
100
AcDbCircle
 10
250.1962458412
 20
226.9888820962
 30
0.0
 40
0.1190608807908156
100
AcDbArc
 50
68.5914088266
 51
118.9762263587
  0
ARC
  5
3C8
330
1F
100
AcDbEntity
  8
0
  6
Continuous
 62
     7
370
    25
100
AcDbCircle
 10
250.1589167864
 20
227.0783244751
 30
0.0
 40
0.083575382383846
100
AcDbArc
 50
305.0355498024
 51
14.8386162465
  0
LINE
  5
3C9
330
1F
100
AcDbEntity
  8
0
  6
Continuous
 62
     7
370
    25
100
AcDbLine
 10
249.2775704037
 20
230.0608737562
 30
0.0
 11
250.2397050137
 21
227.0997279065
 31
0.0
  0
LINE
  5
3CA
330
1F
100
AcDbEntity
  8
0
  6
Continuous
 62
     7
370
    25
100
AcDbLine
 10
249.177882023
 20
230.3676830443
 30
0.0
 11
249.2775704037
 21
230.0608737562
 31
0.0
  0
SPLINE
  5
3CB
330
1F
100
AcDbEntity
  8
0
  6
Continuous
 62
     7
370
    25
100
AcDbSpline
210
0.0
220
0.0
230
1.0
 70
     8
 71
     3
 72
    11
 73
     7
 74
     0
 42
0.00000001
 43
0.00000001
 40
0.0
 40
0.0
 40
0.0
 40
0.0
 40
0.2933118760927629
 40
0.586599120141973
 40
0.8805021461502801
 40
1.0
 40
1.0
 40
1.0
 40
1.0
 10
249.0935389853834
 20
230.436454224014
 30
0.0
 10
249.1046072139067
 20
230.4341209116787
 30
0.0
 10
249.1267427414543
 20
230.4294544829573
 30
0.0
 10
249.154532127524
 20
230.4089948685782
 30
0.0
 10
249.1707917623146
 20
230.3867877412934
 30
0.0
 10
249.1762920943876
 20
230.3719671045966
 30
0.0
 10
249.1778820229781
 20
230.3676830443437
 30
0.0
  0
LINE
  5
3CC
330
1F
100
AcDbEntity
  8
0
  6
Continuous
 62
     7
370
    25
100
AcDbLine
 10
250.2397050137
 20
227.0997279065
 30
0.0
 11
250.3412402535
 21
226.7872345704
 31
0.0
  0
SPLINE
  5
3CD
330
1F
100
AcDbEntity
  8
0
  6
Continuous
 62
     7
370
    25
100
AcDbSpline
210
0.0
220
0.0
230
1.0
 70
     8
 71
     3
 72
    13
 73
     9
 74
     0
 42
0.00000001
 43
0.00000001
 40
0.0
 40
0.0
 40
0.0
 40
0.0
 40
0.1251629603677316
 40
0.2500907721261134
 40
0.3698874089591548
 40
0.4999883441946217
 40
0.7494579930249609
 40
1.0
 40
1.0
 40
1.0
 40
1.0
 10
246.7129915670142
 20
230.6912435163987
 30
0.0
 10
246.7123977411815
 20
230.6912264519159
 30
0.0
 10
246.7112112051602
 20
230.6911923550099
 30
0.0
 10
246.6971331194424
 20
230.6913709193066
 30
0.0
 10
246.6722012382575
 20
230.6920772481451
 30
0.0
 10
246.6282196867152
 20
230.6938201114174
 30
0.0
 10
246.5627482096733
 20
230.6973018192608
 30
0.0
 10
246.5099950527619
 20
230.7007641471651
 30
0.0
 10
246.4835619053474
 20
230.7024990238862
 30
0.0
  0
SPLINE
  5
3CE
330
1F
100
AcDbEntity
  8
0
  6
Continuous
 62
     7
370
    25
100
AcDbSpline
210
0.0
220
0.0
230
1.0
 70
     8
 71
     3
 72
     9
 73
     5
 74
     0
 42
0.00000001
 43
0.00000001
 40
0.0
 40
0.0
 40
0.0
 40
0.0
 40
0.5015985442839247
 40
1.0
 40
1.0
 40
1.0
 40
1.0
 10
246.4835619053474
 20
230.7024990238862
 30
0.0
 10
246.4524635008154
 20
230.7045993095848
 30
0.0
 10
246.3904649067476
 20
230.708786494182
 30
0.0
 10
246.3336295399985
 20
230.7136133025773
 30
0.0
 10
246.3053027104746
 20
230.7160189909079
 30
0.0
  0
SPLINE
  5
3CF
330
1F
100
AcDbEntity
  8
0
  6
Continuous
 62
     7
370
    25
100
AcDbSpline
210
0.0
220
0.0
230
1.0
 70
     8
 71
     3
 72
    12
 73
     8
 74
     0
 42
0.00000001
 43
0.00000001
 40
0.0
 40
0.0
 40
0.0
 40
0.0
 40
0.2499906747783532
 40
0.4997539304172481
 40
0.7495544131941498
 40
0.8747471463384503
 40
1.0
 40
1.0
 40
1.0
 40
1.0
 10
246.3053023918324
 20
230.7160190208598
 30
0.0
 10
246.296185967202
 20
230.7168792325441
 30
0.0
 10
246.2779614112483
 20
230.7185988733693
 30
0.0
 10
246.258150243977
 20
230.7206942830823
 30
0.0
 10
246.2483138267065
 20
230.7218238634971
 30
0.0
 10
246.244773929993
 20
230.7222872068939
 30
0.0
 10
246.2443516470185
 20
230.7223556875431
 30
0.0
 10
246.2441404548459
 20
230.7223899360873
 30
0.0
  0
SPLINE
  5
3D0
330
1F
100
AcDbEntity
  8
0
  6
Continuous
 62
     7
370
    25
100
AcDbSpline
210
0.0
220
0.0
230
1.0
 70
     8
 71
     3
 72
    11
 73
     7
 74
     0
 42
0.00000001
 43
0.00000001
 40
0.0
 40
0.0
 40
0.0
 40
0.0
 40
0.2526820747762148
 40
0.498347073668494
 40
0.749226848322524
 40
1.0
 40
1.0
 40
1.0
 40
1.0
 10
246.6340555962406
 20
230.6964878892327
 30
0.0
 10
246.6336682501158
 20
230.6965104061075
 30
0.0
 10
246.6329043146131
 20
230.696554814555
 30
0.0
 10
246.6260467750081
 20
230.6969177785276
 30
0.0
 10
246.6159874842665
 20
230.6974675695409
 30
0.0
 10
246.6073994601871
 20
230.6979615973649
 30
0.0
 10
246.603106360811
 20
230.6982085587757
 30
0.0
  0
SPLINE
  5
3D1
330
1F
100
AcDbEntity
  8
0
  6
Continuous
 62
     7
370
    25
100
AcDbSpline
210
0.0
220
0.0
230
1.0
 70
     8
 71
     3
 72
     9
 73
     5
 74
     0
 42
0.00000001
 43
0.00000001
 40
0.0
 40
0.0
 40
0.0
 40
0.0
 40
0.4986356485528229
 40
1.0
 40
1.0
 40
1.0
 40
1.0
 10
246.603106360811
 20
230.6982085587757
 30
0.0
 10
246.5831433268845
 20
230.6994120532354
 30
0.0
 10
246.5431080145589
 20
230.7018256280837
 30
0.0
 10
246.500537157633
 20
230.7046518121417
 30
0.0
 10
246.4791936475598
 20
230.706068760079
 30
0.0
  0
SPLINE
  5
3D2
330
1F
100
AcDbEntity
  8
0
  6
Continuous
 62
     7
370
    25
100
AcDbSpline
210
0.0
220
0.0
230
1.0
 70
     8
 71
     3
 72
    13
 73
     9
 74
     0
 42
0.00000001
 43
0.00000001
 40
0.0
 40
0.0
 40
0.0
 40
0.0
 40
0.500217021356618
 40
0.6253792974877472
 40
0.7503585285915434
 40
0.8754848676971309
 40
0.9379713007533376
 40
1.0
 40
1.0
 40
1.0
 40
1.0
 10
246.4791936475598
 20
230.706068760079
 30
0.0
 10
246.4475309075896
 20
230.7081940184312
 30
0.0
 10
246.4079456451261
 20
230.7108510503164
 30
0.0
 10
246.3630783495852
 20
230.7140992597998
 30
0.0
 10
246.343257086923
 20
230.7156036342384
 30
0.0
 10
246.3306930299438
 20
230.7165821550118
 30
0.0
 10
246.3254592422902
 20
230.7169935954723
 30
0.0
 10
246.325069101614
 20
230.7170176764286
 30
0.0
 10
246.3248747483799
 20
230.7170296726443
 30
0.0
  0
SPLINE
  5
3D3
330
1F
100
AcDbEntity
  8
0
  6
Continuous
 62
     7
370
    25
100
AcDbSpline
210
0.0
220
0.0
230
1.0
 70
     8
 71
     3
 72
    13
 73
     9
 74
     0
 42
0.00000001
 43
0.00000001
 40
0.0
 40
0.0
 40
0.0
 40
0.0
 40
0.1244911865956734
 40
0.1870808638824605
 40
0.2496426463859025
 40
0.374464030011151
 40
0.4996591139939358
 40
1.0
 40
1.0
 40
1.0
 40
1.0
 10
246.3248747483799
 20
230.7170296726443
 30
0.0
 10
246.3257784016709
 20
230.7169413737822
 30
0.0
 10
246.3271363792352
 20
230.7168086814378
 30
0.0
 10
246.3355680168815
 20
230.716098630151
 30
0.0
 10
246.3463095620828
 20
230.7152211926649
 30
0.0
 10
246.3645256756957
 20
230.7138353959402
 30
0.0
 10
246.4110951801297
 20
230.7104401157292
 30
0.0
 10
246.4522207817017
 20
230.7076931724758
 30
0.0
 10
246.4851154846689
 20
230.7054960038282
 30
0.0
  0
SPLINE
  5
3D4
330
1F
100
AcDbEntity
  8
0
  6
Continuous
 62
     7
370
    25
100
AcDbSpline
210
0.0
220
0.0
230
1.0
 70
     8
 71
     3
 72
    12
 73
     8
 74
     0
 42
0.00000001
 43
0.00000001
 40
0.0
 40
0.0
 40
0.0
 40
0.0
 40
0.5003340921809641
 40
0.6307995410852523
 40
0.7506542103488862
 40
0.875367654605996
 40
1.0
 40
1.0
 40
1.0
 40
1.0
 10
246.4851154846689
 20
230.7054960038282
 30
0.0
 10
246.5161289735874
 20
230.7034516228766
 30
0.0
 10
246.555229436424
 20
230.7008741559676
 30
0.0
 10
246.5987056538271
 20
230.6983157385591
 30
0.0
 10
246.6173493509135
 20
230.6972998347191
 30
0.0
 10
246.6316611946704
 20
230.6965759004431
 30
0.0
 10
246.6332576354629
 20
230.696517219941
 30
0.0
 10
246.6340555962406
 20
230.6964878892327
 30
0.0
  0
LINE
  5
3D5
330
1F
100
AcDbEntity
  8
0
  6
Continuous
 62
     7
370
    25
100
AcDbLine
 10
246.3053027105
 20
230.7160189909
 30
0.0
 11
246.3052361819
 21
230.7150218992
 31
0.0
  0
LINE
  5
3D6
330
1F
100
AcDbEntity
  8
0
  6
Continuous
 62
     7
370
    25
100
AcDbLine
 10
246.4835619053
 20
230.7024990239
 30
0.0
 11
246.4834952016
 21
230.7015024716
 31
0.0
  0
LINE
  5
3D7
330
1F
100
AcDbEntity
  8
0
  6
Continuous
 62
     7
370
    25
100
AcDbLine
 10
246.712991567
 20
230.6912435164
 30
0.0
 11
246.7129252685
 21
230.6902457167
 31
0.0
  0
LINE
  5
3D8
330
1F
100
AcDbEntity
  8
0
  6
Continuous
 62
     7
370
    25
100
AcDbLine
 10
246.2441404548
 20
230.7223899361
 30
0.0
 11
246.2440741557
 21
230.7213921383
 31
0.0
  0
LINE
  5
3D9
330
1F
100
AcDbEntity
  8
0
  6
Continuous
 62
     7
370
    25
100
AcDbLine
 10
183.2859102244
 20
192.8824622742
 30
0.0
 11
177.5859102244
 21
192.8824622742
 31
0.0
  0
LINE
  5
3DA
330
1F
100
AcDbEntity
  8
0
  6
Continuous
 62
     7
370
    25
100
AcDbLine
 10
183.0859102244
 20
192.2824622742
 30
0.0
 11
177.7859102244
 21
192.2824622742
 31
0.0
  0
LINE
  5
3DB
330
1F
100
AcDbEntity
  8
0
  6
Continuous
 62
     7
370
    25
100
AcDbLine
 10
240.4859102244
 20
192.2824622742
 30
0.0
 11
235.1859102244
 21
192.2824622742
 31
0.0
  0
LINE
  5
3DC
330
1F
100
AcDbEntity
  8
0
  6
Continuous
 62
     7
370
    25
100
AcDbLine
 10
240.6859102244
 20
192.8824622742
 30
0.0
 11
234.9859102244
 21
192.8824622742
 31
0.0
  0
LINE
  5
3DD
330
1F
100
AcDbEntity
  8
0
  6
Continuous
 62
     7
370
    25
100
AcDbLine
 10
242.3359102244
 20
207.0824622742
 30
0.0
 11
242.3359102244
 21
207.2524622742
 31
0.0
  0
LINE
  5
3DE
330
1F
100
AcDbEntity
  8
0
  6
Continuous
 62
     7
370
    25
100
AcDbLine
 10
233.3359102244
 20
207.0824622742
 30
0.0
 11
242.3359102244
 21
207.0824622742
 31
0.0
  0
LINE
  5
3DF
330
1F
100
AcDbEntity
  8
0
  6
Continuous
 62
     7
370
    25
100
AcDbLine
 10
233.3359102244
 20
207.0824622742
 30
0.0
 11
233.3359102244
 21
207.2524622742
 31
0.0
  0
LINE
  5
3E0
330
1F
100
AcDbEntity
  8
0
  6
Continuous
 62
     7
370
    25
100
AcDbLine
 10
240.9318752465
 20
197.6824622742
 30
0.0
 11
234.7399452024
 21
197.6824622742
 31
0.0
  0
LINE
  5
3E1
330
1F
100
AcDbEntity
  8
0
  6
Continuous
 62
     7
370
    25
100
AcDbLine
 10
184.9359102244
 20
207.0824622742
 30
0.0
 11
184.9359102244
 21
207.2524622742
 31
0.0
  0
LINE
  5
3E2
330
1F
100
AcDbEntity
  8
0
  6
Continuous
 62
     7
370
    25
100
AcDbLine
 10
175.9359102244
 20
207.0824622742
 30
0.0
 11
175.9359102244
 21
207.2524622742
 31
0.0
  0
LINE
  5
3E3
330
1F
100
AcDbEntity
  8
0
  6
Continuous
 62
     7
370
    25
100
AcDbLine
 10
175.9359102244
 20
207.0824622742
 30
0.0
 11
184.9359102244
 21
207.0824622742
 31
0.0
  0
LINE
  5
3E4
330
1F
100
AcDbEntity
  8
0
  6
Continuous
 62
     7
370
    25
100
AcDbLine
 10
183.5318752465
 20
197.6824622742
 30
0.0
 11
177.3399452024
 21
197.6824622742
 31
0.0
  0
LINE
  5
3E5
330
1F
100
AcDbEntity
  8
0
  6
Continuous
 62
     8
370
    25
100
AcDbLine
 10
245.2297444576
 20
231.7985135883
 30
0.0
 11
245.1868651522
 21
231.7845812575
 31
0.0
  0
LINE
  5
3E6
330
1F
100
AcDbEntity
  8
0
  6
Continuous
 62
     8
370
    25
100
AcDbLine
 10
245.2648231156
 20
231.8090303759
 30
0.0
 11
245.2238355651
 21
231.829914576
 31
0.0
  0
LINE
  5
3E7
330
1F
100
AcDbEntity
  8
0
  6
Continuous
 62
     8
370
    25
100
AcDbLine
 10
245.3062336158
 20
232.0665181998
 30
0.0
 11
245.327161655
 21
232.0558548313
 31
0.0
  0
LINE
  5
3E8
330
1F
100
AcDbEntity
  8
0
  6
Continuous
 62
     8
370
    25
100
AcDbLine
 10
172.3500218885
 20
237.3189079746
 30
0.0
 11
172.4109102244
 21
237.3189079746
 31
0.0
  0
LINE
  5
3E9
330
1F
100
AcDbEntity
  8
0
  6
Continuous
 62
     8
370
    25
100
AcDbLine
 10
172.3500218885
 20
236.2189079746
 30
0.0
 11
172.4109102244
 21
236.2189079746
 31
0.0
  0
LINE
  5
3EA
330
1F
100
AcDbEntity
  8
0
  6
Continuous
 62
     8
370
    25
100
AcDbLine
 10
169.8959102244
 20
214.5174622742
 30
0.0
 11
169.8959102244
 21
211.5474622742
 31
0.0
  0
SPLINE
  5
3EB
330
1F
100
AcDbEntity
  8
0
  6
Continuous
 62
     8
370
    25
100
AcDbSpline
210
0.0
220
0.0
230
1.0
 70
    24
 71
     3
 72
    10
 73
     6
 74
     0
 42
0.00000001
 43
0.00000001
 40
0.0
 40
0.0
 40
0.0
 40
0.0
 40
0.0054609418616757
 40
0.4147935885486148
 40
1.0
 40
1.0
 40
1.0
 40
1.0
 10
249.5059102244388
 20
212.8039900889893
 30
0.0
 10
249.5059102244388
 20
212.8046124702923
 30
0.0
 10
249.5059102244387
 20
212.8518863253637
 30
0.0
 10
249.5059102244389
 20
213.0010918189452
 30
0.0
 10
249.5059102244389
 20
213.1446145013587
 30
0.0
 10
249.5059102244388
 20
213.2290660804594
 30
0.0
  0
LINE
  5
3EC
330
1F
100
AcDbEntity
  8
0
  6
Continuous
 62
     8
370
    25
100
AcDbLine
 10
249.4459102244
 20
212.8345817939
 30
0.0
 11
249.4359102244
 21
212.8345817939
 31
0.0
  0
LINE
  5
3ED
330
1F
100
AcDbEntity
  8
0
  6
Continuous
 62
     8
370
    25
100
AcDbLine
 10
249.4459102244
 20
215.35658345
 30
0.0
 11
249.4359102244
 21
215.35658345
 31
0.0
  0
LINE
  5
3EE
330
1F
100
AcDbEntity
  8
0
  6
Continuous
 62
     8
370
    25
100
AcDbLine
 10
249.4459102244
 20
214.595713112
 30
0.0
 11
249.4359102244
 21
214.595713112
 31
0.0
  0
LINE
  5
3EF
330
1F
100
AcDbEntity
  8
0
  6
Continuous
 62
     8
370
    25
100
AcDbLine
 10
249.4459102244
 20
212.9798364026
 30
0.0
 11
249.4359102244
 21
212.9798364026
 31
0.0
  0
LINE
  5
3F0
330
1F
100
AcDbEntity
  8
0
  6
Continuous
 62
     8
370
    25
100
AcDbLine
 10
249.4459102244
 20
214.1779411555
 30
0.0
 11
249.4359102244
 21
214.1779411555
 31
0.0
  0
LINE
  5
3F1
330
1F
100
AcDbEntity
  8
0
  6
Continuous
 62
     8
370
    25
100
AcDbLine
 10
249.4459102244
 20
212.2724159038
 30
0.0
 11
249.4359102244
 21
212.2724159038
 31
0.0
  0
LINE
  5
3F2
330
1F
100
AcDbEntity
  8
0
  6
Continuous
 62
     8
370
    25
100
AcDbLine
 10
249.4459102244
 20
213.2172274553
 30
0.0
 11
249.4359102244
 21
213.2172274553
 31
0.0
  0
LINE
  5
3F3
330
1F
100
AcDbEntity
  8
0
  6
Continuous
 62
     8
370
    25
100
AcDbLine
 10
249.4459102244
 20
211.8919305886
 30
0.0
 11
249.4359102244
 21
211.8919305886
 31
0.0
  0
LINE
  5
3F4
330
1F
100
AcDbEntity
  8
0
  6
Continuous
 62
     8
370
    25
100
AcDbLine
 10
249.4959102244
 20
211.8805844164
 30
0.0
 11
249.4359102244
 21
211.8805844164
 31
0.0
  0
LINE
  5
3F5
330
1F
100
AcDbEntity
  8
0
  6
Continuous
 62
     8
370
    25
100
AcDbLine
 10
249.4959102244
 20
211.8446779324
 30
0.0
 11
249.4359102244
 21
211.8446779324
 31
0.0
  0
LINE
  5
3F6
330
1F
100
AcDbEntity
  8
0
  6
Continuous
 62
     8
370
    25
100
AcDbLine
 10
249.4959102244
 20
211.7798620843
 30
0.0
 11
249.4359102244
 21
211.7798620843
 31
0.0
  0
LINE
  5
3F7
330
1F
100
AcDbEntity
  8
0
  6
Continuous
 62
     8
370
    25
100
AcDbLine
 10
249.4959102244
 20
211.7681730002
 30
0.0
 11
249.4359102244
 21
211.7681730002
 31
0.0
  0
LINE
  5
3F8
330
1F
100
AcDbEntity
  8
0
  6
Continuous
 62
     8
370
    25
100
AcDbLine
 10
249.4959102244
 20
211.7325342281
 30
0.0
 11
249.4359102244
 21
211.7325342281
 31
0.0
  0
LINE
  5
3F9
330
1F
100
AcDbEntity
  8
0
  6
Continuous
 62
     8
370
    25
100
AcDbLine
 10
231.4359102244
 20
207.2124622742
 30
0.0
 11
231.4359102244
 21
207.2524622742
 31
0.0
  0
LINE
  5
3FA
330
1F
100
AcDbEntity
  8
0
  6
Continuous
 62
     8
370
    25
100
AcDbLine
 10
189.4359102244
 20
207.2124622742
 30
0.0
 11
189.4359102244
 21
207.2524622742
 31
0.0
  0
LINE
  5
3FB
330
1F
100
AcDbEntity
  8
0
  6
Continuous
 62
     8
370
    25
100
AcDbLine
 10
232.5859102244
 20
207.2024622742
 30
0.0
 11
232.5859102244
 21
207.2124622742
 31
0.0
  0
LINE
  5
3FC
330
1F
100
AcDbEntity
  8
0
  6
Continuous
 62
     8
370
    25
100
AcDbLine
 10
233.3159102244
 20
207.2024622742
 30
0.0
 11
233.3159102244
 21
207.2124622742
 31
0.0
  0
LINE
  5
3FD
330
1F
100
AcDbEntity
  8
0
  6
Continuous
 62
     8
370
    25
100
AcDbLine
 10
242.6952031177
 20
207.2024622742
 30
0.0
 11
242.6952031177
 21
207.2124622742
 31
0.0
  0
LINE
  5
3FE
330
1F
100
AcDbEntity
  8
0
  6
Continuous
 62
     8
370
    25
100
AcDbLine
 10
172.8959102244
 20
207.2024622742
 30
0.0
 11
172.8959102244
 21
207.2524622742
 31
0.0
  0
LINE
  5
3FF
330
1F
100
AcDbEntity
  8
0
  6
Continuous
 62
     8
370
    25
100
AcDbLine
 10
237.5259102244
 20
233.9374622742
 30
0.0
 11
237.5199102244
 21
233.9374622742
 31
0.0
  0
LINE
  5
400
330
1F
100
AcDbEntity
  8
0
  6
Continuous
 62
     8
370
    25
100
AcDbLine
 10
230.6306935419
 20
237.7281190195
 30
0.0
 11
212.311126907
 21
237.7281190195
 31
0.0
  0
LINE
  5
401
330
1F
100
AcDbEntity
  8
0
  6
Continuous
 62
     8
370
    25
100
AcDbLine
 10
202.6296752289
 20
237.7281190195
 30
0.0
 11
184.310108594
 21
237.7281190195
 31
0.0
  0
LINE
  5
402
330
1F
100
AcDbEntity
  8
0
  6
Continuous
 62
     8
370
    25
100
AcDbLine
 10
250.3133425262
 20
226.6822849479
 30
0.0
 11
250.2068961245
 21
227.0098932859
 31
0.0
  0
LINE
  5
403
330
1F
100
AcDbEntity
  8
0
  6
Continuous
 62
     8
370
    25
100
AcDbLine
 10
247.1234795209
 20
226.9822798712
 30
0.0
 11
247.0076827322
 21
226.9464979988
 31
0.0
  0
LINE
  5
404
330
1F
100
AcDbEntity
  8
0
  6
Continuous
 62
     8
370
    25
100
AcDbLine
 10
183.2859102244
 20
192.4824622742
 30
0.0
 11
177.5859102244
 21
192.4824622742
 31
0.0
  0
LINE
  5
405
330
1F
100
AcDbEntity
  8
0
  6
Continuous
 62
     8
370
    25
100
AcDbLine
 10
240.6859102244
 20
192.4824622742
 30
0.0
 11
234.9859102244
 21
192.4824622742
 31
0.0
  0
LINE
  5
406
330
1F
100
AcDbEntity
  8
0
  6
Continuous
 62
     8
370
    25
100
AcDbLine
 10
241.0259102244
 20
206.9324622742
 30
0.0
 11
234.6459102244
 21
206.9324622742
 31
0.0
  0
LINE
  5
407
330
1F
100
AcDbEntity
  8
0
  6
Continuous
 62
     8
370
    25
100
AcDbLine
 10
241.0195189017
 20
198.2084725464
 30
0.0
 11
234.6523015471
 21
198.2084725464
 31
0.0
  0
LINE
  5
408
330
1F
100
AcDbEntity
  8
0
  6
Continuous
 62
     8
370
    25
100
AcDbLine
 10
241.0259102244
 20
198.2857188688
 30
0.0
 11
234.6459102244
 21
198.2857188688
 31
0.0
  0
LINE
  5
409
330
1F
100
AcDbEntity
  8
0
  6
Continuous
 62
     8
370
    25
100
AcDbLine
 10
183.6259102244
 20
206.9324622742
 30
0.0
 11
177.2459102244
 21
206.9324622742
 31
0.0
  0
LINE
  5
40A
330
1F
100
AcDbEntity
  8
0
  6
Continuous
 62
     8
370
    25
100
AcDbLine
 10
183.6259102244
 20
198.2857188688
 30
0.0
 11
177.2459102244
 21
198.2857188688
 31
0.0
  0
LINE
  5
40B
330
1F
100
AcDbEntity
  8
0
  6
Continuous
 62
     8
370
    25
100
AcDbLine
 10
183.6195189017
 20
198.2084725464
 30
0.0
 11
177.2523015471
 21
198.2084725464
 31
0.0
  0
LINE
  5
40C
330
1F
100
AcDbEntity
  8
0
  6
CENTERX2
 62
     7
370
    18
100
AcDbLine
 10
180.4359102244
 20
190.8824622742
 30
0.0
 11
180.4359102244
 21
202.7976094605
 31
0.0
  0
LINE
  5
40D
330
1F
100
AcDbEntity
  8
0
  6
CENTERX2
 62
     7
370
    18
100
AcDbLine
 10
237.8359102244
 20
190.8824622742
 30
0.0
 11
237.8359102244
 21
202.7976094605
 31
0.0
  0
LINE
  5
40E
330
1F
100
AcDbEntity
  8
0
  6
CENTERX2
 62
     7
370
    18
100
AcDbLine
 10
167.8959102244
 20
213.0324622742
 30
0.0
 11
172.8159102244
 21
213.0324622742
 31
0.0
  0
ENDSEC
  0
SECTION
  2
OBJECTS
  0
DICTIONARY
  5
C
330
0
100
AcDbDictionary
281
     1
  3
ACAD_GROUP
350
D
  3
ACAD_LAYOUT
350
1A
  3
ACAD_MLINESTYLE
350
17
  3
ACAD_PLOTSETTINGS
350
19
  3
ACAD_PLOTSTYLENAME
350
E
  3
ACAD_SCALELIST
350
47
  3
DWGPROPS
350
40F
  0
DICTIONARY
  5
D
102
{ACAD_REACTORS
330
C
102
}
330
C
100
AcDbDictionary
281
     1
  0
DICTIONARY
  5
1A
102
{ACAD_REACTORS
330
C
102
}
330
C
100
AcDbDictionary
281
     1
  3
Layout1
350
1E
  3
Layout2
350
26
  3
Model
350
22
  0
DICTIONARY
  5
17
102
{ACAD_REACTORS
330
C
102
}
330
C
100
AcDbDictionary
281
     1
  3
Standard
350
18
  0
DICTIONARY
  5
19
102
{ACAD_REACTORS
330
C
102
}
330
C
100
AcDbDictionary
281
     1
  0
ACDBDICTIONARYWDFLT
  5
E
102
{ACAD_REACTORS
330
C
102
}
330
C
100
AcDbDictionary
281
     1
  3
Normal
350
F
100
AcDbDictionaryWithDefault
340
F
  0
DICTIONARY
  5
47
102
{ACAD_REACTORS
330
C
102
}
330
C
100
AcDbDictionary
281
     1
  3
A0
350
48
  3
A1
350
49
  3
A2
350
4A
  3
A3
350
4B
  3
A4
350
4C
  3
A5
350
4D
  3
A6
350
4E
  3
A7
350
4F
  3
A8
350
50
  3
A9
350
51
  3
B0
350
52
  3
B1
350
53
  3
B2
350
54
  3
B3
350
55
  3
B4
350
56
  3
B5
350
57
  3
B6
350
58
  3
B7
350
59
  3
B8
350
5A
  3
B9
350
5B
  3
C0
350
5C
  3
C1
350
5D
  3
C2
350
5E
  3
C3
350
5F
  3
C4
350
60
  3
C5
350
61
  3
C6
350
62
  3
C7
350
63
  3
C8
350
64
  3
C9
350
65
  3
D0
350
66
  3
D1
350
67
  3
D2
350
68
  0
XRECORD
  5
40F
102
{ACAD_REACTORS
330
C
102
}
330
C
100
AcDbXrecord
280
     1
  1
DWGPROPS COOKIE
  2

  3

  4

  6

  7

  8
rnd12
  9

300
=
301
=
302
=
303
=
304
=
305
=
306
=
307
=
308
=
309
=
 40
0.0
 41
2460188.599406377
 42
2460188.599407141
  1

 90
        0
  0
LAYOUT
  5
1E
102
{ACAD_REACTORS
330
1A
102
}
330
1A
100
AcDbPlotSettings
  1

  2
none_device
  4

  6

 40
0.0
 41
0.0
 42
0.0
 43
0.0
 44
0.0
 45
0.0
 46
0.0
 47
0.0
 48
0.0
 49
0.0
140
0.0
141
0.0
142
1.0
143
1.0
 70
   688
 72
     1
 73
     0
 74
     5
  7

 75
    16
147
1.0
148
0.0
149
0.0
100
AcDbLayout
  1
Layout1
 70
     1
 71
     1
 10
0.0
 20
0.0
 11
420.0
 21
297.0
 12
0.0
 22
0.0
 32
0.0
 14
1.0000000000E+20
 24
1.0000000000E+20
 34
1.0000000000E+20
 15
-1.0000000000E+20
 25
-1.0000000000E+20
 35
-1.0000000000E+20
146
0.0
 13
0.0
 23
0.0
 33
0.0
 16
1.0
 26
0.0
 36
0.0
 17
0.0
 27
1.0
 37
0.0
 76
     0
330
1B
  0
LAYOUT
  5
26
102
{ACAD_REACTORS
330
1A
102
}
330
1A
100
AcDbPlotSettings
  1

  2
none_device
  4

  6

 40
0.0
 41
0.0
 42
0.0
 43
0.0
 44
0.0
 45
0.0
 46
0.0
 47
0.0
 48
0.0
 49
0.0
140
0.0
141
0.0
142
1.0
143
1.0
 70
   688
 72
     1
 73
     0
 74
     5
  7

 75
    16
147
1.0
148
0.0
149
0.0
100
AcDbLayout
  1
Layout2
 70
     1
 71
     2
 10
0.0
 20
0.0
 11
0.0
 21
0.0
 12
0.0
 22
0.0
 32
0.0
 14
0.0
 24
0.0
 34
0.0
 15
0.0
 25
0.0
 35
0.0
146
0.0
 13
0.0
 23
0.0
 33
0.0
 16
1.0
 26
0.0
 36
0.0
 17
0.0
 27
1.0
 37
0.0
 76
     0
330
23
  0
LAYOUT
  5
22
102
{ACAD_REACTORS
330
1A
102
}
330
1A
100
AcDbPlotSettings
  1

  2
none_device
  4
Letter_(8.50_x_11.00_Inches)
  6

 40
6.35
 41
6.35
 42
6.35000508
 43
6.35000508
 44
215.9
 45
279.4
 46
0.0
 47
0.0
 48
0.0
 49
0.0
140
0.0
141
0.0
142
1.0
143
1.0
 70
  1712
 72
     1
 73
     0
 74
     0
  7

 75
     0
147
1.0
148
0.0
149
0.0
100
AcDbLayout
  1
Model
 70
     1
 71
     0
 10
0.0
 20
0.0
 11
420.0
 21
297.0
 12
0.0
 22
0.0
 32
0.0
 14
0.0
 24
0.0
 34
0.0
 15
420.0
 25
297.0
 35
0.0
146
0.0
 13
0.0
 23
0.0
 33
0.0
 16
1.0
 26
0.0
 36
0.0
 17
0.0
 27
1.0
 37
0.0
 76
     0
330
1F
331
29
  0
MLINESTYLE
  5
18
102
{ACAD_REACTORS
330
17
102
}
330
17
100
AcDbMlineStyle
  2
Standard
 70
     0
  3

 62
   256
 51
90.0
 52
90.0
 71
     2
 49
0.5
 62
   256
  6
BYLAYER
 49
-0.5
 62
   256
  6
BYLAYER
  0
ACDBPLACEHOLDER
  5
F
102
{ACAD_REACTORS
330
E
102
}
330
E
  0
SCALE
  5
48
102
{ACAD_REACTORS
330
47
102
}
330
47
100
AcDbScale
 70
     0
300
1:1
140
1.0
141
1.0
290
     1
  0
SCALE
  5
49
102
{ACAD_REACTORS
330
47
102
}
330
47
100
AcDbScale
 70
     0
300
1:2
140
1.0
141
2.0
290
     0
  0
SCALE
  5
4A
102
{ACAD_REACTORS
330
47
102
}
330
47
100
AcDbScale
 70
     0
300
1:4
140
1.0
141
4.0
290
     0
  0
SCALE
  5
4B
102
{ACAD_REACTORS
330
47
102
}
330
47
100
AcDbScale
 70
     0
300
1:5
140
1.0
141
5.0
290
     0
  0
SCALE
  5
4C
102
{ACAD_REACTORS
330
47
102
}
330
47
100
AcDbScale
 70
     0
300
1:8
140
1.0
141
8.0
290
     0
  0
SCALE
  5
4D
102
{ACAD_REACTORS
330
47
102
}
330
47
100
AcDbScale
 70
     0
300
1:10
140
1.0
141
10.0
290
     0
  0
SCALE
  5
4E
102
{ACAD_REACTORS
330
47
102
}
330
47
100
AcDbScale
 70
     0
300
1:16
140
1.0
141
16.0
290
     0
  0
SCALE
  5
4F
102
{ACAD_REACTORS
330
47
102
}
330
47
100
AcDbScale
 70
     0
300
1:20
140
1.0
141
20.0
290
     0
  0
SCALE
  5
50
102
{ACAD_REACTORS
330
47
102
}
330
47
100
AcDbScale
 70
     0
300
1:30
140
1.0
141
30.0
290
     0
  0
SCALE
  5
51
102
{ACAD_REACTORS
330
47
102
}
330
47
100
AcDbScale
 70
     0
300
1:40
140
1.0
141
40.0
290
     0
  0
SCALE
  5
52
102
{ACAD_REACTORS
330
47
102
}
330
47
100
AcDbScale
 70
     0
300
1:50
140
1.0
141
50.0
290
     0
  0
SCALE
  5
53
102
{ACAD_REACTORS
330
47
102
}
330
47
100
AcDbScale
 70
     0
300
1:100
140
1.0
141
100.0
290
     0
  0
SCALE
  5
54
102
{ACAD_REACTORS
330
47
102
}
330
47
100
AcDbScale
 70
     0
300
2:1
140
2.0
141
1.0
290
     0
  0
SCALE
  5
55
102
{ACAD_REACTORS
330
47
102
}
330
47
100
AcDbScale
 70
     0
300
4:1
140
4.0
141
1.0
290
     0
  0
SCALE
  5
56
102
{ACAD_REACTORS
330
47
102
}
330
47
100
AcDbScale
 70
     0
300
8:1
140
8.0
141
1.0
290
     0
  0
SCALE
  5
57
102
{ACAD_REACTORS
330
47
102
}
330
47
100
AcDbScale
 70
     0
300
10:1
140
10.0
141
1.0
290
     0
  0
SCALE
  5
58
102
{ACAD_REACTORS
330
47
102
}
330
47
100
AcDbScale
 70
     0
300
100:1
140
100.0
141
1.0
290
     0
  0
SCALE
  5
59
102
{ACAD_REACTORS
330
47
102
}
330
47
100
AcDbScale
 70
     0
300
1/128" = 1'-0"
140
0.0078125
141
12.0
290
     0
  0
SCALE
  5
5A
102
{ACAD_REACTORS
330
47
102
}
330
47
100
AcDbScale
 70
     0
300
1/64" = 1'-0"
140
0.015625
141
12.0
290
     0
  0
SCALE
  5
5B
102
{ACAD_REACTORS
330
47
102
}
330
47
100
AcDbScale
 70
     0
300
1/32" = 1'-0"
140
0.03125
141
12.0
290
     0
  0
SCALE
  5
5C
102
{ACAD_REACTORS
330
47
102
}
330
47
100
AcDbScale
 70
     0
300
1/16" = 1'-0"
140
0.0625
141
12.0
290
     0
  0
SCALE
  5
5D
102
{ACAD_REACTORS
330
47
102
}
330
47
100
AcDbScale
 70
     0
300
3/32" = 1'-0"
140
0.09375
141
12.0
290
     0
  0
SCALE
  5
5E
102
{ACAD_REACTORS
330
47
102
}
330
47
100
AcDbScale
 70
     0
300
1/8" = 1'-0"
140
0.125
141
12.0
290
     0
  0
SCALE
  5
5F
102
{ACAD_REACTORS
330
47
102
}
330
47
100
AcDbScale
 70
     0
300
3/16" = 1'-0"
140
0.1875
141
12.0
290
     0
  0
SCALE
  5
60
102
{ACAD_REACTORS
330
47
102
}
330
47
100
AcDbScale
 70
     0
300
1/4" = 1'-0"
140
0.25
141
12.0
290
     0
  0
SCALE
  5
61
102
{ACAD_REACTORS
330
47
102
}
330
47
100
AcDbScale
 70
     0
300
3/8" = 1'-0"
140
0.375
141
12.0
290
     0
  0
SCALE
  5
62
102
{ACAD_REACTORS
330
47
102
}
330
47
100
AcDbScale
 70
     0
300
1/2" = 1'-0"
140
0.5
141
12.0
290
     0
  0
SCALE
  5
63
102
{ACAD_REACTORS
330
47
102
}
330
47
100
AcDbScale
 70
     0
300
3/4" = 1'-0"
140
0.75
141
12.0
290
     0
  0
SCALE
  5
64
102
{ACAD_REACTORS
330
47
102
}
330
47
100
AcDbScale
 70
     0
300
1" = 1'-0"
140
1.0
141
12.0
290
     0
  0
SCALE
  5
65
102
{ACAD_REACTORS
330
47
102
}
330
47
100
AcDbScale
 70
     0
300
1-1/2" = 1'-0"
140
1.5
141
12.0
290
     0
  0
SCALE
  5
66
102
{ACAD_REACTORS
330
47
102
}
330
47
100
AcDbScale
 70
     0
300
3" = 1'-0"
140
3.0
141
12.0
290
     0
  0
SCALE
  5
67
102
{ACAD_REACTORS
330
47
102
}
330
47
100
AcDbScale
 70
     0
300
6" = 1'-0"
140
6.0
141
12.0
290
     0
  0
SCALE
  5
68
102
{ACAD_REACTORS
330
47
102
}
330
47
100
AcDbScale
 70
     0
300
1'-0" = 1'-0"
140
12.0
141
12.0
290
     0
  0
ENDSEC
  0
EOF
