  0
SECTION
  2
HEADER
  9
$ACADVER
  1
AC1015
  9
$ACADMAINTVER
 70
     6
  9
$DWGCODEPAGE
  3
ANSI_1252
  9
$INSBASE
 10
0.0
 20
0.0
 30
0.0
  9
$EXTMIN
 10
0.0
 20
0.0
 30
0.0
  9
$EXTMAX
 10
1000.0
 20
1000.0
 30
0.0
  9
$LIMMIN
 10
0.0
 20
0.0
  9
$LIMMAX
 10
1000.0
 20
1000.0
  9
$ORTHOMODE
 70
     0
  9
$REGENMODE
 70
     1
  9
$FILLMODE
 70
     1
  9
$QTEXTMODE
 70
     0
  9
$MIRRTEXT
 70
     1
  9
$LTSCALE
 40
1.0
  9
$ATTMODE
 70
     1
  9
$TEXTSIZE
 40
3.5
  9
$TRACEWID
 40
1.0
  9
$TEXTSTYLE
  7
Standard
  9
$CLAYER
  8
0
  9
$CELTYPE
  6
ByLayer
  9
$CECOLOR
 62
   256
  9
$CELTSCALE
 40
1.0
  9
$DISPSILH
 70
     0
  9
$DIMSCALE
 40
1.0
  9
$DIMASZ
 40
3.302
  9
$DIMEXO
 40
1.0
  9
$DIMDLI
 40
3.75
  9
$DIMRND
 40
0.0
  9
$DIMDLE
 40
0.0
  9
$DIMEXE
 40
1.0
  9
$DIMTP
 40
0.0
  9
$DIMTM
 40
0.0
  9
$DIMTXT
 40
3.5
  9
$DIMCEN
 40
2.5
  9
$DIMTSZ
 40
0.0
  9
$DIMTOL
 70
     0
  9
$DIMLIM
 70
     0
  9
$DIMTIH
 70
     1
  9
$DIMTOH
 70
     1
  9
$DIMSE1
 70
     0
  9
$DIMSE2
 70
     0
  9
$DIMTAD
 70
     1
  9
$DIMZIN
 70
     0
  9
$DIMBLK
  1

  9
$DIMASO
 70
     1
  9
$DIMSHO
 70
     1
  9
$DIMPOST
  1

  9
$DIMAPOST
  1

  9
$DIMALT
 70
     0
  9
$DIMALTD
 70
     3
  9
$DIMALTF
 40
0.0393700787
  9
$DIMLFAC
 40
1.0
  9
$DIMTOFL
 70
     1
  9
$DIMTVP
 40
0.0
  9
$DIMTIX
 70
     0
  9
$DIMSOXD
 70
     0
  9
$DIMSAH
 70
     0
  9
$DIMBLK1
  1

  9
$DIMBLK2
  1

  9
$DIMSTYLE
  2
ISO-25
  9
$DIMCLRD
 70
     0
  9
$DIMCLRE
 70
     0
  9
$DIMCLRT
 70
     0
  9
$DIMTFAC
 40
1.0
  9
$DIMGAP
 40
5.0
  9
$DIMJUST
 70
     0
  9
$DIMSD1
 70
     0
  9
$DIMSD2
 70
     0
  9
$DIMTOLJ
 70
     0
  9
$DIMTZIN
 70
     0
  9
$DIMALTZ
 70
     0
  9
$DIMALTTZ
 70
     0
  9
$DIMUPT
 70
     0
  9
$DIMDEC
 70
     1
  9
$DIMTDEC
 70
     1
  9
$DIMALTU
 70
     2
  9
$DIMALTTD
 70
     3
  9
$DIMTXSTY
  7
Standard
  9
$DIMAUNIT
 70
     0
  9
$DIMADEC
 70
     1
  9
$DIMALTRND
 40
0.0
  9
$DIMAZIN
 70
     0
  9
$DIMDSEP
 70
    44
  9
$DIMATFIT
 70
     3
  9
$DIMFRAC
 70
     0
  9
$DIMLDRBLK
  1

  9
$DIMLUNIT
 70
     2
  9
$DIMLWD
 70
    -2
  9
$DIMLWE
 70
    -2
  9
$DIMTMOVE
 70
     0
  9
$LUNITS
 70
     2
  9
$LUPREC
 70
     1
  9
$SKETCHINC
 40
1.0
  9
$FILLETRAD
 40
10.0
  9
$AUNITS
 70
     0
  9
$AUPREC
 70
     1
  9
$MENU
  1
.
  9
$ELEVATION
 40
0.0
  9
$PELEVATION
 40
0.0
  9
$THICKNESS
 40
0.0
  9
$LIMCHECK
 70
     0
  9
$CHAMFERA
 40
0.0
  9
$CHAMFERB
 40
0.0
  9
$CHAMFERC
 40
0.0
  9
$CHAMFERD
 40
0.0
  9
$SKPOLY
 70
     0
  9
$TDCREATE
 40
2459954.631243275
  9
$TDUCREATE
 40
2459954.631243275
  9
$TDUPDATE
 40
2459954.631243646
  9
$TDUUPDATE
 40
2459954.631243646
  9
$TDINDWG
 40
0.0000000116
  9
$TDUSRTIMER
 40
0.0000000116
  9
$USRTIMER
 70
     1
  9
$ANGBASE
 50
0.0
  9
$ANGDIR
 70
     0
  9
$PDMODE
 70
     0
  9
$PDSIZE
 40
-1.0
  9
$PLINEWID
 40
0.0
  9
$SPLFRAME
 70
     0
  9
$SPLINETYPE
 70
     6
  9
$SPLINESEGS
 70
     8
  9
$HANDSEED
  5
5E7
  9
$SURFTAB1
 70
     6
  9
$SURFTAB2
 70
     6
  9
$SURFTYPE
 70
     6
  9
$SURFU
 70
     6
  9
$SURFV
 70
     6
  9
$UCSBASE
  2

  9
$UCSNAME
  2

  9
$UCSORG
 10
0.0
 20
0.0
 30
0.0
  9
$UCSXDIR
 10
1.0
 20
0.0
 30
0.0
  9
$UCSYDIR
 10
0.0
 20
1.0
 30
0.0
  9
$UCSORTHOREF
  2

  9
$UCSORTHOVIEW
 70
     0
  9
$UCSORGTOP
 10
0.0
 20
0.0
 30
0.0
  9
$UCSORGBOTTOM
 10
0.0
 20
0.0
 30
0.0
  9
$UCSORGLEFT
 10
0.0
 20
0.0
 30
0.0
  9
$UCSORGRIGHT
 10
0.0
 20
0.0
 30
0.0
  9
$UCSORGFRONT
 10
0.0
 20
0.0
 30
0.0
  9
$UCSORGBACK
 10
0.0
 20
0.0
 30
0.0
  9
$PUCSBASE
  2

  9
$PUCSNAME
  2

  9
$PUCSORG
 10
0.0
 20
0.0
 30
0.0
  9
$PUCSXDIR
 10
1.0
 20
0.0
 30
0.0
  9
$PUCSYDIR
 10
0.0
 20
1.0
 30
0.0
  9
$PUCSORTHOREF
  2

  9
$PUCSORTHOVIEW
 70
     0
  9
$PUCSORGTOP
 10
0.0
 20
0.0
 30
0.0
  9
$PUCSORGBOTTOM
 10
0.0
 20
0.0
 30
0.0
  9
$PUCSORGLEFT
 10
0.0
 20
0.0
 30
0.0
  9
$PUCSORGRIGHT
 10
0.0
 20
0.0
 30
0.0
  9
$PUCSORGFRONT
 10
0.0
 20
0.0
 30
0.0
  9
$PUCSORGBACK
 10
0.0
 20
0.0
 30
0.0
  9
$USERI1
 70
     0
  9
$USERI2
 70
     0
  9
$USERI3
 70
     0
  9
$USERI4
 70
     0
  9
$USERI5
 70
     0
  9
$USERR1
 40
0.0
  9
$USERR2
 40
0.0
  9
$USERR3
 40
0.0
  9
$USERR4
 40
0.0
  9
$USERR5
 40
0.0
  9
$WORLDVIEW
 70
     1
  9
$SHADEDGE
 70
     3
  9
$SHADEDIF
 70
    70
  9
$TILEMODE
 70
     1
  9
$MAXACTVP
 70
    64
  9
$PINSBASE
 10
0.0
 20
0.0
 30
0.0
  9
$PLIMCHECK
 70
     0
  9
$PEXTMIN
 10
1.0000000000E+20
 20
1.0000000000E+20
 30
1.0000000000E+20
  9
$PEXTMAX
 10
-1.0000000000E+20
 20
-1.0000000000E+20
 30
-1.0000000000E+20
  9
$PLIMMIN
 10
0.0
 20
0.0
  9
$PLIMMAX
 10
420.0
 20
297.0
  9
$UNITMODE
 70
     0
  9
$VISRETAIN
 70
     1
  9
$PLINEGEN
 70
     0
  9
$PSLTSCALE
 70
     1
  9
$TREEDEPTH
 70
  3020
  9
$CMLSTYLE
  2
Standard
  9
$CMLJUST
 70
     0
  9
$CMLSCALE
 40
20.0
  9
$PROXYGRAPHICS
 70
     1
  9
$MEASUREMENT
 70
     1
  9
$CELWEIGHT
370
    -1
  9
$ENDCAPS
280
     0
  9
$JOINSTYLE
280
     0
  9
$LWDISPLAY
290
     1
  9
$INSUNITS
 70
     4
  9
$HYPERLINKBASE
  1

  9
$STYLESHEET
  1

  9
$XEDIT
290
     1
  9
$CEPSNTYPE
380
     0
  9
$PSTYLEMODE
290
     1
  9
$FINGERPRINTGUID
  2
{ae58f2dc-83a1-43e3-a81d-c2ce4da2def9}
  9
$VERSIONGUID
  2
{FAEB1C32-E019-11D5-929B-00C0DF256EC4}
  9
$EXTNAMES
290
     1
  9
$PSVPSCALE
 40
0.0
  9
$OLESTARTUP
290
     0
  0
ENDSEC
  0
SECTION
  2
CLASSES
  0
CLASS
  1
ACDBDICTIONARYWDFLT
  2
AcDbDictionaryWithDefault
  3
ObjectDBX Classes
 90
        0
280
     0
281
     0
  0
CLASS
  1
VISUALSTYLE
  2
AcDbVisualStyle
  3
ObjectDBX Classes
 90
     4095
280
     0
281
     0
  0
CLASS
  1
MATERIAL
  2
AcDbMaterial
  3
ObjectDBX Classes
 90
     1153
280
     0
281
     0
  0
CLASS
  1
SCALE
  2
AcDbScale
  3
ObjectDBX Classes
 90
     1153
280
     0
281
     0
  0
CLASS
  1
TABLESTYLE
  2
AcDbTableStyle
  3
ObjectDBX Classes
 90
     4095
280
     0
281
     0
  0
CLASS
  1
MLEADERSTYLE
  2
AcDbMLeaderStyle
  3
ACDB_MLEADERSTYLE_CLASS
 90
     4095
280
     0
281
     0
  0
CLASS
  1
SUN
  2
AcDbSun
  3
SCENEOE
 90
     1153
280
     0
281
     0
  0
CLASS
  1
ACDBPLACEHOLDER
  2
AcDbPlaceHolder
  3
ObjectDBX Classes
 90
        0
280
     0
281
     0
  0
CLASS
  1
LAYOUT
  2
AcDbLayout
  3
ObjectDBX Classes
 90
        0
280
     0
281
     0
  0
ENDSEC
  0
SECTION
  2
TABLES
  0
TABLE
  2
VPORT
  5
8
330
0
100
AcDbSymbolTable
 70
     1
  0
VPORT
  5
29
330
8
100
AcDbSymbolTableRecord
100
AcDbViewportTableRecord
  2
*Active
 70
     0
 10
0.0
 20
0.0
 11
1.0
 21
1.0
 12
500.0
 22
500.0
 13
0.0
 23
0.0
 14
10.0
 24
10.0
 15
10.0
 25
10.0
 16
0.0
 26
0.0
 36
1.0
 17
0.0
 27
0.0
 37
0.0
 40
1000.0
 41
1.0
 42
50.0
 43
0.0
 44
0.0
 50
0.0
 51
0.0
 71
     0
 72
  2000
 73
     1
 74
     3
 75
     0
 76
     0
 77
     0
 78
     0
281
     0
 65
     1
110
0.0
120
0.0
130
0.0
111
1.0
121
0.0
131
0.0
112
0.0
122
1.0
132
0.0
 79
     0
146
0.0
  0
ENDTAB
  0
TABLE
  2
LTYPE
  5
5
330
0
100
AcDbSymbolTable
 70
     6
  0
LTYPE
  5
14
330
5
100
AcDbSymbolTableRecord
100
AcDbLinetypeTableRecord
  2
ByBlock
 70
     0
  3

 72
    65
 73
     0
 40
0.0
  0
LTYPE
  5
15
330
5
100
AcDbSymbolTableRecord
100
AcDbLinetypeTableRecord
  2
ByLayer
 70
     0
  3

 72
    65
 73
     0
 40
0.0
  0
LTYPE
  5
16
330
5
100
AcDbSymbolTableRecord
100
AcDbLinetypeTableRecord
  2
Continuous
 70
     0
  3
Solid line
 72
    65
 73
     0
 40
0.0
  0
LTYPE
  5
6E
330
5
100
AcDbSymbolTableRecord
100
AcDbLinetypeTableRecord
  2
HIDDEN
 70
     0
  3
Hidden __ __ __ __ __ __ __ __ __ __ __ __ __ __
 72
    65
 73
     2
 40
1.905
 49
1.27
 74
     0
 49
-0.635
 74
     0
  0
LTYPE
  5
6F
330
5
100
AcDbSymbolTableRecord
100
AcDbLinetypeTableRecord
  2
PHANTOM
 70
     0
  3
Phantom ______  __  __  ______  __  __  ______
 72
    65
 73
     6
 40
12.7
 49
6.35
 74
     0
 49
-1.27
 74
     0
 49
1.27
 74
     0
 49
-1.27
 74
     0
 49
1.27
 74
     0
 49
-1.27
 74
     0
  0
LTYPE
  5
70
330
5
100
AcDbSymbolTableRecord
100
AcDbLinetypeTableRecord
  2
CENTER
 70
     0
  3
Center ____ _ ____ _ ____ _ ____ _ ____ _ ____
 72
    65
 73
     4
 40
10.16
 49
6.35
 74
     0
 49
-1.27
 74
     0
 49
1.27
 74
     0
 49
-1.27
 74
     0
  0
LTYPE
  5
71
330
5
100
AcDbSymbolTableRecord
100
AcDbLinetypeTableRecord
  2
CENTERX2
 70
     0
  3
Center (2x) ________  __  ________  __  _____
 72
    65
 73
     4
 40
20.32
 49
12.7
 74
     0
 49
-2.54
 74
     0
 49
2.54
 74
     0
 49
-2.54
 74
     0
  0
LTYPE
  5
72
330
5
100
AcDbSymbolTableRecord
100
AcDbLinetypeTableRecord
  2
DOT2
 70
     0
  3
Dot (.5x) ........................................
 72
    65
 73
     2
 40
0.635
 49
0.0
 74
     0
 49
-0.635
 74
     0
  0
ENDTAB
  0
TABLE
  2
LAYER
  5
2
330
0
100
AcDbSymbolTable
 70
     5
  0
LAYER
  5
10
330
2
100
AcDbSymbolTableRecord
100
AcDbLayerTableRecord
  2
0
 70
     0
 62
     7
  6
Continuous
370
    -3
390
F
  0
LAYER
  5
73
330
2
100
AcDbSymbolTableRecord
100
AcDbLayerTableRecord
  2
FORMAT
 70
     0
 62
     7
  6
Continuous
370
    -3
390
F
  0
LAYER
  5
74
330
2
100
AcDbSymbolTableRecord
100
AcDbLayerTableRecord
  2
SLD-0
 70
     0
 62
     1
  6
Continuous
370
    -3
390
F
  0
LAYER
  5
75
330
2
100
AcDbSymbolTableRecord
100
AcDbLayerTableRecord
  2
WATERMARK
 70
     0
 62
     1
  6
Continuous
370
    -3
390
F
  0
LAYER
  5
76
330
2
100
AcDbSymbolTableRecord
100
AcDbLayerTableRecord
  2
PRIMARY
 70
     0
 62
   179
  6
Continuous
370
    -3
390
F
  0
ENDTAB
  0
TABLE
  2
STYLE
  5
3
330
0
100
AcDbSymbolTable
 70
     1
  0
STYLE
  5
11
330
3
100
AcDbSymbolTableRecord
100
AcDbTextStyleTableRecord
  2
Standard
 70
     0
 40
0.0
 41
1.0
 50
0.0
 71
     0
 42
3.5
  3
txt
  4

  0
ENDTAB
  0
TABLE
  2
VIEW
  5
6
330
0
100
AcDbSymbolTable
 70
     0
  0
ENDTAB
  0
TABLE
  2
UCS
  5
7
330
0
100
AcDbSymbolTable
 70
     0
  0
ENDTAB
  0
TABLE
  2
APPID
  5
9
330
0
100
AcDbSymbolTable
 70
     1
  0
APPID
  5
12
330
9
100
AcDbSymbolTableRecord
100
AcDbRegAppTableRecord
  2
ACAD
 70
     0
  0
ENDTAB
  0
TABLE
  2
DIMSTYLE
  5
A
330
0
100
AcDbSymbolTable
 70
     1
100
AcDbDimStyleTable
  0
DIMSTYLE
105
27
330
A
100
AcDbSymbolTableRecord
100
AcDbDimStyleTableRecord
  2
ISO-25
 70
     0
 41
2.5
 42
0.625
 43
3.75
 44
1.25
 73
     0
 74
     0
 77
     1
 78
     8
140
2.5
141
2.5
143
0.0393700787
147
0.625
171
     3
172
     1
178
     0
271
     2
272
     2
274
     3
278
    44
283
     0
284
     8
340
11
  0
ENDTAB
  0
TABLE
  2
BLOCK_RECORD
  5
1
330
0
100
AcDbSymbolTable
 70
     2
  0
BLOCK_RECORD
  5
1F
330
1
100
AcDbSymbolTableRecord
100
AcDbBlockTableRecord
  2
*Model_Space
340
22
  0
BLOCK_RECORD
  5
1B
330
1
100
AcDbSymbolTableRecord
100
AcDbBlockTableRecord
  2
*Paper_Space
340
1E
  0
BLOCK_RECORD
  5
23
330
1
100
AcDbSymbolTableRecord
100
AcDbBlockTableRecord
  2
*Paper_Space0
340
26
  0
BLOCK_RECORD
  5
77
330
1
100
AcDbSymbolTableRecord
100
AcDbBlockTableRecord
  2
Falcon Logo 2020
340
0
  0
ENDTAB
  0
ENDSEC
  0
SECTION
  2
BLOCKS
  0
BLOCK
  5
20
330
1F
100
AcDbEntity
  8
0
100
AcDbBlockBegin
  2
*Model_Space
 70
     0
 10
0.0
 20
0.0
 30
0.0
  3
*Model_Space
  1

  0
ENDBLK
  5
21
330
1F
100
AcDbEntity
  8
0
100
AcDbBlockEnd
  0
BLOCK
  5
1C
330
1B
100
AcDbEntity
 67
     1
  8
0
100
AcDbBlockBegin
  2
*Paper_Space
 70
     0
 10
0.0
 20
0.0
 30
0.0
  3
*Paper_Space
  1

  0
ENDBLK
  5
1D
330
1B
100
AcDbEntity
 67
     1
  8
0
100
AcDbBlockEnd
  0
BLOCK
  5
24
330
23
100
AcDbEntity
  8
0
100
AcDbBlockBegin
  2
*Paper_Space0
 70
     0
 10
0.0
 20
0.0
 30
0.0
  3
*Paper_Space0
  1

  0
ENDBLK
  5
25
330
23
100
AcDbEntity
  8
0
100
AcDbBlockEnd
  0
BLOCK
  5
78
330
77
100
AcDbEntity
  8
0
100
AcDbBlockBegin
  2
Falcon Logo 2020
 70
     0
 10
0.0
 20
0.0
 30
0.0
  3
Falcon Logo 2020
  1

  0
LINE
  5
7A
330
77
100
AcDbEntity
  8
0
  6
Continuous
 62
     7
370
    18
100
AcDbLine
 10
0.2366362149
 20
-25.099120703
 30
0.0
 11
0.1890676051
 21
-25.1850754693
 31
0.0
  0
LINE
  5
7B
330
77
100
AcDbEntity
  8
0
  6
Continuous
 62
     7
370
    18
100
AcDbLine
 10
-8.9546345587
 20
-34.8305583248
 30
0.0
 11
-8.8845902523
 21
-34.8534799981
 31
0.0
  0
LINE
  5
7C
330
77
100
AcDbEntity
  8
0
  6
Continuous
 62
     7
370
    18
100
AcDbLine
 10
1.3975224119
 20
-24.3176861209
 30
0.0
 11
1.0342487254
 21
-24.0430667658
 31
0.0
  0
LINE
  5
7D
330
77
100
AcDbEntity
  8
0
  6
Continuous
 62
     7
370
    18
100
AcDbLine
 10
-1.344635895
 20
-16.4400365624
 30
0.0
 11
-1.3491582948
 21
-16.4379044226
 31
0.0
  0
LINE
  5
7E
330
77
100
AcDbEntity
  8
0
  6
Continuous
 62
     7
370
    18
100
AcDbLine
 10
7.8090812831
 20
-19.1315273814
 30
0.0
 11
7.8091802885
 21
-19.1313230883
 31
0.0
  0
LINE
  5
7F
330
77
100
AcDbEntity
  8
0
  6
Continuous
 62
     7
370
    18
100
AcDbLine
 10
0.0
 20
-1.0296983168
 30
0.0
 11
0.0
 21
1.0296983168
 31
0.0
  0
LINE
  5
80
330
77
100
AcDbEntity
  8
0
  6
Continuous
 62
     7
370
    18
100
AcDbLine
 10
10.0154752928
 20
-30.4004736372
 30
0.0
 11
9.1539977041
 21
-32.0953773775
 31
0.0
  0
LINE
  5
81
330
77
100
AcDbEntity
  8
0
  6
Continuous
 62
     7
370
    18
100
AcDbLine
 10
9.1830081219
 20
-32.1843475956
 30
0.0
 11
9.481427996
 21
-32.3361036526
 31
0.0
  0
LINE
  5
82
330
77
100
AcDbEntity
  8
0
  6
Continuous
 62
     7
370
    18
100
AcDbLine
 10
9.5704389671
 20
-32.3070676322
 30
0.0
 11
10.4992725169
 21
-30.4794480227
 31
0.0
  0
LINE
  5
83
330
77
100
AcDbEntity
  8
0
  6
Continuous
 62
     7
370
    18
100
AcDbLine
 10
12.5467888882
 20
-29.3625787572
 30
0.0
 11
12.3419088888
 21
-29.0978910313
 31
0.0
  0
LINE
  5
84
330
77
100
AcDbEntity
  8
0
  6
Continuous
 62
     7
370
    18
100
AcDbLine
 10
12.8223724068
 20
-30.9599942873
 30
0.0
 11
13.2708466106
 21
-31.0149510216
 31
0.0
  0
LINE
  5
85
330
77
100
AcDbEntity
  8
0
  6
Continuous
 62
     7
370
    18
100
AcDbLine
 10
17.1692492954
 20
-27.2721969661
 30
0.0
 11
17.0622662115
 21
-26.8332975819
 31
0.0
  0
LINE
  5
86
330
77
100
AcDbEntity
  8
0
  6
Continuous
 62
     7
370
    18
100
AcDbLine
 10
9.2674260365
 20
-23.8703966174
 30
0.0
 11
9.2820724332
 21
-23.832346426
 31
0.0
  0
LINE
  5
87
330
77
100
AcDbEntity
  8
0
  6
Continuous
 62
     7
370
    18
100
AcDbLine
 10
7.0444852887
 20
-17.62223308
 30
0.0
 11
7.0437472733
 21
-17.6218725853
 31
0.0
  0
LINE
  5
88
330
77
100
AcDbEntity
  8
0
  6
Continuous
 62
     7
370
    18
100
AcDbLine
 10
3.3695709323
 20
-18.7150893908
 30
0.0
 11
3.3652686317
 21
-18.7077888488
 31
0.0
  0
LINE
  5
89
330
77
100
AcDbEntity
  8
0
  6
Continuous
 62
     7
370
    18
100
AcDbLine
 10
3.3652686317
 20
-18.7077888488
 30
0.0
 11
3.3711671796
 21
-18.8025827031
 31
0.0
  0
LINE
  5
8A
330
77
100
AcDbEntity
  8
0
  6
Continuous
 62
     7
370
    18
100
AcDbLine
 10
3.3963759391
 20
-19.2069459167
 30
0.0
 11
3.4149125726
 21
-19.5041559716
 31
0.0
  0
SPLINE
  5
8B
330
77
100
AcDbEntity
  8
0
  6
Continuous
 62
     7
370
    18
100
AcDbSpline
210
0.0
220
0.0
230
1.0
 70
     8
 71
     3
 72
     8
 73
     4
 74
     0
 42
0.00000001
 43
0.00000001
 40
0.0
 40
0.0
 40
0.0
 40
0.0
 40
1.0
 40
1.0
 40
1.0
 40
1.0
 10
5.852229029515427
 20
-28.4276388766053
 30
0.0
 10
5.825666155886172
 20
-28.53479889167665
 30
0.0
 10
5.788722307073408
 20
-28.64641728306218
 30
0.0
 10
5.745235939283002
 20
-28.75809747055379
 30
0.0
  0
SPLINE
  5
8C
330
77
100
AcDbEntity
  8
0
  6
Continuous
 62
     7
370
    18
100
AcDbSpline
210
0.0
220
0.0
230
1.0
 70
     8
 71
     2
 72
     6
 73
     3
 74
     0
 42
0.00000001
 43
0.00000001
 40
1.0
 40
1.0
 40
1.0
 40
2.0
 40
2.0
 40
2.0
 10
5.745235939283002
 20
-28.75809747055379
 30
0.0
 10
5.531735298312616
 20
-29.30641496529977
 30
0.0
 10
5.166807901578401
 20
-29.85360333242915
 30
0.0
  0
SPLINE
  5
8D
330
77
100
AcDbEntity
  8
0
  6
Continuous
 62
     7
370
    18
100
AcDbSpline
210
0.0
220
0.0
230
1.0
 70
     8
 71
     3
 72
     8
 73
     4
 74
     0
 42
0.00000001
 43
0.00000001
 40
2.0
 40
2.0
 40
2.0
 40
2.0
 40
3.0
 40
3.0
 40
3.0
 40
3.0
 10
5.166807901578401
 20
-29.85360333242915
 30
0.0
 10
6.311772697024359
 20
-30.87441642829223
 30
0.0
 10
9.719836507960874
 20
-30.34731494120714
 30
0.0
 10
10.01547729021294
 20
-30.40048416895655
 30
0.0
  0
SPLINE
  5
8E
330
77
100
AcDbEntity
  8
0
  6
Continuous
 62
     7
370
    18
100
AcDbSpline
210
0.0
220
0.0
230
1.0
 70
     8
 71
     3
 72
     8
 73
     4
 74
     0
 42
0.00000001
 43
0.00000001
 40
3.0
 40
3.0
 40
3.0
 40
3.0
 40
3.996689690837188
 40
3.996689690837188
 40
3.996689690837188
 40
3.996689690837188
 10
10.01547729021294
 20
-30.40048416895655
 30
0.0
 10
8.977607483441508
 20
-29.99967069988004
 30
0.0
 10
7.814529315873817
 20
-28.89614101828137
 30
0.0
 10
7.081020323903868
 20
-28.0410800019856
 30
0.0
  0
SPLINE
  5
8F
330
77
100
AcDbEntity
  8
0
  6
Continuous
 62
     7
370
    18
100
AcDbSpline
210
0.0
220
0.0
230
1.0
 70
     8
 71
     3
 72
    14
 73
    10
 74
     0
 42
0.00000001
 43
0.00000001
 40
7.0
 40
7.0
 40
7.0
 40
7.0
 40
8.0
 40
9.0
 40
10.0
 40
11.0
 40
12.0
 40
13.0
 40
14.0
 40
14.0
 40
14.0
 40
14.0
 10
12.78899862649789
 20
-20.9206021766667
 30
0.0
 10
12.75298627797974
 20
-20.92674765647992
 30
0.0
 10
12.68640696953537
 20
-20.93826917416036
 30
0.0
 10
12.46146607510041
 20
-20.9609736022742
 30
0.0
 10
12.36316736583912
 20
-20.81710288078964
 30
0.0
 10
12.19029292109663
 20
-20.56395973963105
 30
0.0
 10
12.22319183016533
 20
-20.44637053703358
 30
0.0
 10
12.12701487946805
 20
-20.29328089794294
 30
0.0
 10
12.03084102575803
 20
-20.14019618848106
 30
0.0
 10
11.83537120556004
 20
-19.86366120251053
 30
0.0
  0
SPLINE
  5
90
330
77
100
AcDbEntity
  8
0
  6
Continuous
 62
     7
370
    18
100
AcDbSpline
210
0.0
220
0.0
230
1.0
 70
     8
 71
     3
 72
    14
 73
    10
 74
     0
 42
0.00000001
 43
0.00000001
 40
0.0
 40
0.0
 40
0.0
 40
0.0
 40
1.0
 40
2.0
 40
3.0
 40
4.0
 40
5.0
 40
6.0
 40
7.0
 40
7.0
 40
7.0
 40
7.0
 10
11.83537120556004
 20
-19.86366120251053
 30
0.0
 10
12.96786884091336
 20
-20.09916183373696
 30
0.0
 10
13.13102812036816
 20
-20.67672009866099
 30
0.0
 10
13.16182644407878
 20
-20.79181058502865
 30
0.0
 10
13.18921773799899
 20
-20.89522906612286
 30
0.0
 10
13.07031240695495
 20
-20.89476265907842
 30
0.0
 10
12.9537126753755
 20
-20.89486911556055
 30
0.0
 10
12.90248106064455
 20
-20.90139629528142
 30
0.0
 10
12.82501097501607
 20
-20.91445669685353
 30
0.0
 10
12.78899862649789
 20
-20.9206021766667
 30
0.0
  0
SPLINE
  5
91
330
77
100
AcDbEntity
  8
0
  6
Continuous
 62
     7
370
    18
100
AcDbSpline
210
0.0
220
0.0
230
1.0
 70
     8
 71
     3
 72
     8
 73
     4
 74
     0
 42
0.00000001
 43
0.00000001
 40
1.0
 40
1.0
 40
1.0
 40
1.0
 40
2.0
 40
2.0
 40
2.0
 40
2.0
 10
0.1890676050530227
 20
-25.18507546927273
 30
0.0
 10
-0.4758636182598079
 20
-26.36818656978759
 30
0.0
 10
-1.071372957931268
 20
-27.62135929727155
 30
0.0
 10
-1.848916090944628
 20
-28.7321574116595
 30
0.0
  0
SPLINE
  5
92
330
77
100
AcDbEntity
  8
0
  6
Continuous
 62
     7
370
    18
100
AcDbSpline
210
0.0
220
0.0
230
1.0
 70
     8
 71
     3
 72
     8
 73
     4
 74
     0
 42
0.00000001
 43
0.00000001
 40
5.0
 40
5.0
 40
5.0
 40
5.0
 40
6.0
 40
6.0
 40
6.0
 40
6.0
 10
5.741387158368082
 20
-27.62554423736086
 30
0.0
 10
5.846722846369613
 20
-27.83071469821159
 30
0.0
 10
5.917083786139072
 20
-28.10116493603904
 30
0.0
 10
5.852229029515427
 20
-28.4276388766053
 30
0.0
  0
SPLINE
  5
93
330
77
100
AcDbEntity
  8
0
  6
Continuous
 62
     7
370
    18
100
AcDbSpline
210
0.0
220
0.0
230
1.0
 70
     8
 71
     3
 72
     8
 73
     4
 74
     0
 42
0.00000001
 43
0.00000001
 40
2.0
 40
2.0
 40
2.0
 40
2.0
 40
3.0
 40
3.0
 40
3.0
 40
3.0
 10
-1.848916090944628
 20
-28.7321574116595
 30
0.0
 10
-2.58099700615287
 20
-29.77807514316875
 30
0.0
 10
-3.400555133943328
 20
-30.75794226768769
 30
0.0
 10
-4.320163121001804
 20
-31.64441810803642
 30
0.0
  0
SPLINE
  5
94
330
77
100
AcDbEntity
  8
0
  6
Continuous
 62
     7
370
    18
100
AcDbSpline
210
0.0
220
0.0
230
1.0
 70
     8
 71
     3
 72
     8
 73
     4
 74
     0
 42
0.00000001
 43
0.00000001
 40
3.0
 40
3.0
 40
3.0
 40
3.0
 40
4.0
 40
4.0
 40
4.0
 40
4.0
 10
-4.320163121001804
 20
-31.64441810803642
 30
0.0
 10
-5.502285688120724
 20
-32.78397107599655
 30
0.0
 10
-6.842602889403164
 20
-33.79629665674205
 30
0.0
 10
-8.312643520423714
 20
-34.53636241310925
 30
0.0
  0
SPLINE
  5
95
330
77
100
AcDbEntity
  8
0
  6
Continuous
 62
     7
370
    18
100
AcDbSpline
210
0.0
220
0.0
230
1.0
 70
     8
 71
     3
 72
     8
 73
     4
 74
     0
 42
0.00000001
 43
0.00000001
 40
0.0
 40
0.0
 40
0.0
 40
0.0
 40
1.0
 40
1.0
 40
1.0
 40
1.0
 10
13.16248097184179
 20
-22.77811969809535
 30
0.0
 10
13.32158274024408
 20
-22.71852038409298
 30
0.0
 10
13.49557540158558
 20
-22.54791198237409
 30
0.0
 10
13.60867884934522
 20
-22.41373778363303
 30
0.0
  0
SPLINE
  5
96
330
77
100
AcDbEntity
  8
0
  6
Continuous
 62
     7
370
    18
100
AcDbSpline
210
0.0
220
0.0
230
1.0
 70
     8
 71
     3
 72
     8
 73
     4
 74
     0
 42
0.00000001
 43
0.00000001
 40
1.0
 40
1.0
 40
1.0
 40
1.0
 40
2.0
 40
2.0
 40
2.0
 40
2.0
 10
13.60867884934522
 20
-22.41373778363303
 30
0.0
 10
14.06883090410567
 20
-21.86791668638103
 30
0.0
 10
13.93824647055738
 20
-21.10927008942834
 30
0.0
 10
13.63564806322252
 20
-20.52311487241799
 30
0.0
  0
SPLINE
  5
97
330
77
100
AcDbEntity
  8
0
  6
Continuous
 62
     7
370
    18
100
AcDbSpline
210
0.0
220
0.0
230
1.0
 70
     8
 71
     3
 72
     8
 73
     4
 74
     0
 42
0.00000001
 43
0.00000001
 40
2.0
 40
2.0
 40
2.0
 40
2.0
 40
3.0
 40
3.0
 40
3.0
 40
3.0
 10
13.63564806322252
 20
-20.52311487241799
 30
0.0
 10
13.28964627126481
 20
-19.85285410357718
 30
0.0
 10
12.67648338579735
 20
-19.35824964276486
 30
0.0
 10
12.02812778214086
 20
-18.99653111143571
 30
0.0
  0
SPLINE
  5
98
330
77
100
AcDbEntity
  8
0
  6
Continuous
 62
     7
370
    18
100
AcDbSpline
210
0.0
220
0.0
230
1.0
 70
     8
 71
     3
 72
     8
 73
     4
 74
     0
 42
0.00000001
 43
0.00000001
 40
3.0
 40
3.0
 40
3.0
 40
3.0
 40
4.0
 40
4.0
 40
4.0
 40
4.0
 10
12.02812778214086
 20
-18.99653111143571
 30
0.0
 10
11.39165828893943
 20
-18.64115679256055
 30
0.0
 10
10.65675821014571
 20
-18.52555054647402
 30
0.0
 10
9.935944716227333
 20
-18.57712058838266
 30
0.0
  0
SPLINE
  5
99
330
77
100
AcDbEntity
  8
0
  6
Continuous
 62
     7
370
    18
100
AcDbSpline
210
0.0
220
0.0
230
1.0
 70
     8
 71
     3
 72
     8
 73
     4
 74
     0
 42
0.00000001
 43
0.00000001
 40
4.0
 40
4.0
 40
4.0
 40
4.0
 40
5.0
 40
5.0
 40
5.0
 40
5.0
 10
9.935944716227333
 20
-18.57712058838266
 30
0.0
 10
9.765303020833768
 20
-18.58949090353762
 30
0.0
 10
9.595649831281627
 20
-18.61121519850877
 30
0.0
 10
9.427025317953943
 20
-18.6398242200312
 30
0.0
  0
SPLINE
  5
9A
330
77
100
AcDbEntity
  8
0
  6
Continuous
 62
     7
370
    18
100
AcDbSpline
210
0.0
220
0.0
230
1.0
 70
     8
 71
     3
 72
     8
 73
     4
 74
     0
 42
0.00000001
 43
0.00000001
 40
5.0
 40
5.0
 40
5.0
 40
5.0
 40
6.0
 40
6.0
 40
6.0
 40
6.0
 10
9.427025317953943
 20
-18.6398242200312
 30
0.0
 10
9.401841746024298
 20
-18.64325493737991
 30
0.0
 10
9.375930374221884
 20
-18.6474270753044
 30
0.0
 10
9.347977710247896
 20
-18.65350684706063
 30
0.0
  0
SPLINE
  5
9B
330
77
100
AcDbEntity
  8
0
  6
Continuous
 62
     7
370
    18
100
AcDbSpline
210
0.0
220
0.0
230
1.0
 70
     8
 71
     3
 72
     8
 73
     4
 74
     0
 42
0.00000001
 43
0.00000001
 40
6.0
 40
6.0
 40
6.0
 40
6.0
 40
7.0
 40
7.0
 40
7.0
 40
7.0
 10
9.347977710247896
 20
-18.65350684706063
 30
0.0
 10
9.3154844368747
 20
-18.66059198688143
 30
0.0
 10
9.281612371694376
 20
-18.66928222686759
 30
0.0
 10
9.248401750735159
 20
-18.67721589591814
 30
0.0
  0
SPLINE
  5
9C
330
77
100
AcDbEntity
  8
0
  6
Continuous
 62
     7
370
    18
100
AcDbSpline
210
0.0
220
0.0
230
1.0
 70
     8
 71
     3
 72
     8
 73
     4
 74
     0
 42
0.00000001
 43
0.00000001
 40
7.0
 40
7.0
 40
7.0
 40
7.0
 40
8.0
 40
8.0
 40
8.0
 40
8.0
 10
9.248401750735159
 20
-18.67721589591814
 30
0.0
 10
8.828729172017946
 20
-18.76183233709977
 30
0.0
 10
8.416325576603711
 20
-18.88669856103988
 30
0.0
 10
8.018919595305736
 20
-19.04403200074751
 30
0.0
  0
SPLINE
  5
9D
330
77
100
AcDbEntity
  8
0
  6
Continuous
 62
     7
370
    18
100
AcDbSpline
210
0.0
220
0.0
230
1.0
 70
     8
 71
     3
 72
     8
 73
     4
 74
     0
 42
0.00000001
 43
0.00000001
 40
8.0
 40
8.0
 40
8.0
 40
8.0
 40
9.0
 40
9.0
 40
9.0
 40
9.0
 10
8.018919595305736
 20
-19.04403200074751
 30
0.0
 10
7.948718757678904
 20
-19.07224882816383
 30
0.0
 10
7.878767955532004
 20
-19.10158741935046
 30
0.0
 10
7.809081283087698
 20
-19.13152738138843
 30
0.0
  0
SPLINE
  5
9E
330
77
100
AcDbEntity
  8
0
  6
Continuous
 62
     7
370
    18
100
AcDbSpline
210
0.0
220
0.0
230
1.0
 70
     8
 71
     3
 72
     8
 73
     4
 74
     0
 42
0.00000001
 43
0.00000001
 40
10.0
 40
10.0
 40
10.0
 40
10.0
 40
11.0
 40
11.0
 40
11.0
 40
11.0
 10
7.809180288493772
 20
-19.13132308829617
 30
0.0
 10
7.802761398942892
 20
-19.13413367961332
 30
0.0
 10
7.796378564323003
 20
-19.1370921325915
 30
0.0
 10
7.789959674772166
 20
-19.13990272390857
 30
0.0
  0
SPLINE
  5
9F
330
77
100
AcDbEntity
  8
0
  6
Continuous
 62
     7
370
    18
100
AcDbSpline
210
0.0
220
0.0
230
1.0
 70
     8
 71
     3
 72
     8
 73
     4
 74
     0
 42
0.00000001
 43
0.00000001
 40
11.0
 40
11.0
 40
11.0
 40
11.0
 40
12.0
 40
12.0
 40
12.0
 40
12.0
 10
7.789959674772166
 20
-19.13990272390857
 30
0.0
 10
7.727199483469478
 20
-19.16702581234913
 30
0.0
 10
7.664805832448564
 20
-19.19491328366098
 30
0.0
 10
7.602701913775588
 20
-19.22344287883286
 30
0.0
  0
SPLINE
  5
A0
330
77
100
AcDbEntity
  8
0
  6
Continuous
 62
     7
370
    18
100
AcDbSpline
210
0.0
220
0.0
230
1.0
 70
     8
 71
     3
 72
     8
 73
     4
 74
     0
 42
0.00000001
 43
0.00000001
 40
12.0
 40
12.0
 40
12.0
 40
12.0
 40
13.0
 40
13.0
 40
13.0
 40
13.0
 10
7.602701913775588
 20
-19.22344287883286
 30
0.0
 10
7.217113319687935
 20
-19.39705344743212
 30
0.0
 10
5.997001551904617
 20
-20.08735799660829
 30
0.0
 10
5.62103742160189
 20
-20.28524495509878
 30
0.0
  0
SPLINE
  5
A1
330
77
100
AcDbEntity
  8
0
  6
Continuous
 62
     7
370
    18
100
AcDbSpline
210
0.0
220
0.0
230
1.0
 70
     8
 71
     3
 72
     8
 73
     4
 74
     0
 42
0.00000001
 43
0.00000001
 40
4.0
 40
4.0
 40
4.0
 40
4.0
 40
5.0
 40
5.0
 40
5.0
 40
5.0
 10
-8.312643520423714
 20
-34.53636241310925
 30
0.0
 10
-8.411034639160002
 20
-34.58584183701119
 30
0.0
 10
-8.836966871753177
 20
-34.8700258468235
 30
0.0
 10
-8.954634558748669
 20
-34.83055832481292
 30
0.0
  0
SPLINE
  5
A2
330
77
100
AcDbEntity
  8
0
  6
Continuous
 62
     7
370
    18
100
AcDbSpline
210
0.0
220
0.0
230
1.0
 70
     8
 71
     3
 72
     8
 73
     4
 74
     0
 42
0.00000001
 43
0.00000001
 40
6.0
 40
6.0
 40
6.0
 40
6.0
 40
7.0
 40
7.0
 40
7.0
 40
7.0
 10
-8.884590252340216
 20
-34.8534799981297
 30
0.0
 10
-1.619323899915008
 20
-33.84056501948026
 30
0.0
 10
-0.8849007908736523
 20
-28.48090738365391
 30
0.0
 10
1.39752241185063
 20
-24.31768612090927
 30
0.0
  0
SPLINE
  5
A3
330
77
100
AcDbEntity
  8
0
  6
Continuous
 62
     7
370
    18
100
AcDbSpline
210
0.0
220
0.0
230
1.0
 70
     8
 71
     3
 72
     8
 73
     4
 74
     0
 42
0.00000001
 43
0.00000001
 40
15.0
 40
15.0
 40
15.0
 40
15.0
 40
16.0
 40
16.0
 40
16.0
 40
16.0
 10
7.61666402024219
 20
-16.14061015178518
 30
0.0
 10
6.37712430883088
 20
-11.21974897891878
 30
0.0
 10
0.5014966551233776
 20
-9.115775052417424
 30
0.0
 10
1.502064263494276
 20
-1.771589632457653
 30
0.0
  0
SPLINE
  5
A4
330
77
100
AcDbEntity
  8
0
  6
Continuous
 62
     7
370
    18
100
AcDbSpline
210
0.0
220
0.0
230
1.0
 70
     8
 71
     2
 72
     6
 73
     3
 74
     0
 42
0.00000001
 43
0.00000001
 40
16.0
 40
16.0
 40
16.0
 40
17.0
 40
17.0
 40
17.0
 10
1.502064263494301
 20
-1.771589632457637
 30
0.0
 10
0.8988127122367296
 20
-1.387303972091294
 30
0.0
 10
0.394445507708313
 20
-2.906964564311894
 30
0.0
  0
SPLINE
  5
A5
330
77
100
AcDbEntity
  8
0
  6
Continuous
 62
     7
370
    18
100
AcDbSpline
210
0.0
220
0.0
230
1.0
 70
     8
 71
     3
 72
     8
 73
     4
 74
     0
 42
0.00000001
 43
0.00000001
 40
17.0
 40
17.0
 40
17.0
 40
17.0
 40
18.0
 40
18.0
 40
18.0
 40
18.0
 10
0.3944455077083129
 20
-2.906964564311893
 30
0.0
 10
0.1589062916464202
 20
-2.432255303561799
 30
0.0
 10
0.0481326418671805
 20
-1.719165557923681
 30
0.0
 10
-0.0000000000000111
 20
-1.029698316824825
 30
0.0
  0
SPLINE
  5
A6
330
77
100
AcDbEntity
  8
0
  6
Continuous
 62
     7
370
    18
100
AcDbSpline
210
0.0
220
0.0
230
1.0
 70
     8
 71
     3
 72
     8
 73
     4
 74
     0
 42
0.00000001
 43
0.00000001
 40
19.0
 40
19.0
 40
19.0
 40
19.0
 40
20.0
 40
20.0
 40
20.0
 40
20.0
 10
-0.000000000000011
 20
1.029698316824825
 30
0.0
 10
-0.247605001678439
 20
0.9563586700206326
 30
0.0
 10
-0.4965992125871336
 20
0.8376424291228968
 30
0.0
 10
-0.7423932761695102
 20
0.6788199880206746
 30
0.0
  0
SPLINE
  5
A7
330
77
100
AcDbEntity
  8
0
  6
Continuous
 62
     7
370
    18
100
AcDbSpline
210
0.0
220
0.0
230
1.0
 70
     8
 71
     3
 72
     8
 73
     4
 74
     0
 42
0.00000001
 43
0.00000001
 40
20.0
 40
20.0
 40
20.0
 40
20.0
 40
21.0
 40
21.0
 40
21.0
 40
21.0
 10
-0.7423932761695041
 20
0.6788199880206758
 30
0.0
 10
-3.773706502500729
 20
-1.088364608817558
 30
0.0
 10
-5.828023551311025
 20
-6.502648922742776
 30
0.0
 10
-6.373622392678747
 20
-10.44545216301364
 30
0.0
  0
SPLINE
  5
A8
330
77
100
AcDbEntity
  8
0
  6
Continuous
 62
     7
370
    18
100
AcDbSpline
210
0.0
220
0.0
230
1.0
 70
     8
 71
     3
 72
     8
 73
     4
 74
     0
 42
0.00000001
 43
0.00000001
 40
21.0
 40
21.0
 40
21.0
 40
21.0
 40
22.0
 40
22.0
 40
22.0
 40
22.0
 10
-6.373622392678747
 20
-10.44545216301364
 30
0.0
 10
-6.534387006384851
 20
-11.6072393176462
 30
0.0
 10
-6.110986063680238
 20
-12.77235598421836
 30
0.0
 10
-5.239490498328086
 20
-13.55729186389973
 30
0.0
  0
SPLINE
  5
A9
330
77
100
AcDbEntity
  8
0
  6
Continuous
 62
     7
370
    18
100
AcDbSpline
210
0.0
220
0.0
230
1.0
 70
     8
 71
     3
 72
     8
 73
     4
 74
     0
 42
0.00000001
 43
0.00000001
 40
22.0
 40
22.0
 40
22.0
 40
22.0
 40
23.0
 40
23.0
 40
23.0
 40
23.0
 10
-5.239490498328086
 20
-13.55729186389973
 30
0.0
 10
-5.069093162935886
 20
-13.71072824031157
 30
0.0
 10
-4.812594020154235
 20
-13.94204896363468
 30
0.0
 10
-4.497635623981145
 20
-14.22616249222083
 30
0.0
  0
SPLINE
  5
AA
330
77
100
AcDbEntity
  8
0
  6
Continuous
 62
     7
370
    18
100
AcDbSpline
210
0.0
220
0.0
230
1.0
 70
     8
 71
     3
 72
     8
 73
     4
 74
     0
 42
0.00000001
 43
0.00000001
 40
23.0
 40
23.0
 40
23.0
 40
23.0
 40
24.0
 40
24.0
 40
24.0
 40
24.0
 10
-4.497635623981145
 20
-14.22616249222083
 30
0.0
 10
-7.377206548962273
 20
-14.3610427235814
 30
0.0
 10
-10.37603432623049
 20
-14.41258052682769
 30
0.0
 10
-13.47142906384564
 20
-11.50579972895087
 30
0.0
  0
SPLINE
  5
AB
330
77
100
AcDbEntity
  8
0
  6
Continuous
 62
     7
370
    18
100
AcDbSpline
210
0.0
220
0.0
230
1.0
 70
     8
 71
     2
 72
     6
 73
     3
 74
     0
 42
0.00000001
 43
0.00000001
 40
24.0
 40
24.0
 40
24.0
 40
25.0
 40
25.0
 40
25.0
 10
-13.47142906384564
 20
-11.50579972895087
 30
0.0
 10
-14.10688605414107
 20
-11.76335116991974
 30
0.0
 10
-13.20042236989913
 20
-13.00202096164688
 30
0.0
  0
SPLINE
  5
AC
330
77
100
AcDbEntity
  8
0
  6
Continuous
 62
     7
370
    18
100
AcDbSpline
210
0.0
220
0.0
230
1.0
 70
     8
 71
     3
 72
     8
 73
     4
 74
     0
 42
0.00000001
 43
0.00000001
 40
25.0
 40
25.0
 40
25.0
 40
25.0
 40
26.0
 40
26.0
 40
26.0
 40
26.0
 10
-13.20042236989913
 20
-13.00202096164688
 30
0.0
 10
-13.70207232315818
 20
-12.92204228168365
 30
0.0
 10
-14.32058558561591
 20
-12.6121679091681
 30
0.0
 10
-14.88582480126041
 20
-12.26649433731928
 30
0.0
  0
SPLINE
  5
AD
330
77
100
AcDbEntity
  8
0
  6
Continuous
 62
     7
370
    18
100
AcDbSpline
210
0.0
220
0.0
230
1.0
 70
     8
 71
     3
 72
     8
 73
     4
 74
     0
 42
0.00000001
 43
0.00000001
 40
26.0
 40
26.0
 40
26.0
 40
26.0
 40
27.0
 40
27.0
 40
27.0
 40
27.0
 10
-14.88582480126041
 20
-12.26649433731928
 30
0.0
 10
-15.11439138607148
 20
-12.10379107541082
 30
0.0
 10
-15.34298592256308
 20
-11.9411337926506
 30
0.0
 10
-15.57155250737237
 20
-11.77843053074102
 30
0.0
  0
SPLINE
  5
AE
330
77
100
AcDbEntity
  8
0
  6
Continuous
 62
     7
370
    18
100
AcDbSpline
210
0.0
220
0.0
230
1.0
 70
     8
 71
     3
 72
     8
 73
     4
 74
     0
 42
0.00000001
 43
0.00000001
 40
27.0
 40
27.0
 40
27.0
 40
27.0
 40
28.0
 40
28.0
 40
28.0
 40
28.0
 10
-15.57155250737237
 20
-11.77843053074102
 30
0.0
 10
-15.54626988054684
 20
-12.43496417244951
 30
0.0
 10
-15.44651697844639
 20
-13.43368074094347
 30
0.0
 10
-15.07122586658969
 20
-14.58147725173132
 30
0.0
  0
SPLINE
  5
AF
330
77
100
AcDbEntity
  8
0
  6
Continuous
 62
     7
370
    18
100
AcDbSpline
210
0.0
220
0.0
230
1.0
 70
     8
 71
     3
 72
     8
 73
     4
 74
     0
 42
0.00000001
 43
0.00000001
 40
28.0
 40
28.0
 40
28.0
 40
28.0
 40
29.0
 40
29.0
 40
29.0
 40
29.0
 10
-15.07122586658969
 20
-14.58147725173132
 30
0.0
 10
-14.14101186928763
 20
-17.42663227492847
 30
0.0
 10
-12.21890524301946
 20
-19.04448598632376
 30
0.0
 10
-11.57411800959374
 20
-19.5729627316439
 30
0.0
  0
SPLINE
  5
B0
330
77
100
AcDbEntity
  8
0
  6
Continuous
 62
     7
370
    18
100
AcDbSpline
210
0.0
220
0.0
230
1.0
 70
     8
 71
     3
 72
     8
 73
     4
 74
     0
 42
0.00000001
 43
0.00000001
 40
29.0
 40
29.0
 40
29.0
 40
29.0
 40
30.0
 40
30.0
 40
30.0
 40
30.0
 10
-11.57411800959374
 20
-19.5729627316439
 30
0.0
 10
-10.2278360673758
 20
-20.67639225726875
 30
0.0
 10
-8.968626575135383
 20
-21.18705865057519
 30
0.0
 10
-8.289256857954726
 20
-21.45628499958021
 30
0.0
  0
SPLINE
  5
B1
330
77
100
AcDbEntity
  8
0
  6
Continuous
 62
     7
370
    18
100
AcDbSpline
210
0.0
220
0.0
230
1.0
 70
     8
 71
     3
 72
     8
 73
     4
 74
     0
 42
0.00000001
 43
0.00000001
 40
30.0
 40
30.0
 40
30.0
 40
30.0
 40
31.0
 40
31.0
 40
31.0
 40
31.0
 10
-8.289256857954726
 20
-21.45628499958021
 30
0.0
 10
-6.483682376184763
 20
-22.17184513279697
 30
0.0
 10
-4.87477560776411
 20
-22.35351920351825
 30
0.0
 10
-3.81330444415229
 20
-22.39201571571204
 30
0.0
  0
SPLINE
  5
B2
330
77
100
AcDbEntity
  8
0
  6
Continuous
 62
     7
370
    18
100
AcDbSpline
210
0.0
220
0.0
230
1.0
 70
     8
 71
     3
 72
     8
 73
     4
 74
     0
 42
0.00000001
 43
0.00000001
 40
31.0
 40
31.0
 40
31.0
 40
31.0
 40
32.0
 40
32.0
 40
32.0
 40
32.0
 10
-3.81330444415229
 20
-22.39201571571204
 30
0.0
 10
-2.745750888684706
 20
-24.06170974884294
 30
0.0
 10
-1.264629867395483
 20
-24.91818512638145
 30
0.0
 10
0.2366295532190317
 20
-25.09914029792422
 30
0.0
  0
SPLINE
  5
B3
330
77
100
AcDbEntity
  8
0
  6
Continuous
 62
     7
370
    18
100
AcDbSpline
210
0.0
220
0.0
230
1.0
 70
     8
 71
     3
 72
     8
 73
     4
 74
     0
 42
0.00000001
 43
0.00000001
 40
32.0
 40
32.0
 40
32.0
 40
32.0
 40
33.0
 40
33.0
 40
33.0
 40
33.0
 10
0.2366295532190317
 20
-25.09914029792422
 30
0.0
 10
0.2368448266661417
 20
-25.0995734306171
 30
0.0
 10
0.2368448266661417
 20
-25.0995734306171
 30
0.0
 10
0.2370729014386109
 20
-25.10002693981265
 30
0.0
  0
SPLINE
  5
B4
330
77
100
AcDbEntity
  8
0
  6
Continuous
 62
     7
370
    18
100
AcDbSpline
210
0.0
220
0.0
230
1.0
 70
     8
 71
     3
 72
     8
 73
     4
 74
     0
 42
0.00000001
 43
0.00000001
 40
33.0
 40
33.0
 40
33.0
 40
33.0
 40
34.0
 40
34.0
 40
34.0
 40
34.0
 10
0.2370729014386109
 20
-25.10002693981265
 30
0.0
 10
-0.4473726928542233
 20
-26.30798726564406
 30
0.0
 10
-1.052723993388068
 20
-27.59471040392042
 30
0.0
 10
-1.848922752625017
 20
-28.73217700654635
 30
0.0
  0
SPLINE
  5
B5
330
77
100
AcDbEntity
  8
0
  6
Continuous
 62
     7
370
    18
100
AcDbSpline
210
0.0
220
0.0
230
1.0
 70
     8
 71
     3
 72
     8
 73
     4
 74
     0
 42
0.00000001
 43
0.00000001
 40
34.0
 40
34.0
 40
34.0
 40
34.0
 40
35.0
 40
35.0
 40
35.0
 40
35.0
 10
-1.848922752625017
 20
-28.73217700654635
 30
0.0
 10
-2.581016469155664
 20
-29.77807436155356
 30
0.0
 10
-3.400574596946121
 20
-30.75794148607251
 30
0.0
 10
-4.320169782681019
 20
-31.64443770292509
 30
0.0
  0
SPLINE
  5
B6
330
77
100
AcDbEntity
  8
0
  6
Continuous
 62
     7
370
    18
100
AcDbSpline
210
0.0
220
0.0
230
1.0
 70
     8
 71
     3
 72
     8
 73
     4
 74
     0
 42
0.00000001
 43
0.00000001
 40
35.0
 40
35.0
 40
35.0
 40
35.0
 40
36.0
 40
36.0
 40
36.0
 40
36.0
 10
-4.320169782681019
 20
-31.64443770292509
 30
0.0
 10
-5.502292349801121
 20
-32.78399067088333
 30
0.0
 10
-6.842609551083555
 20
-33.79631625162889
 30
0.0
 10
-8.312622230422718
 20
-34.53633602884937
 30
0.0
  0
SPLINE
  5
B7
330
77
100
AcDbEntity
  8
0
  6
Continuous
 62
     7
370
    18
100
AcDbSpline
210
0.0
220
0.0
230
1.0
 70
     8
 71
     3
 72
     8
 73
     4
 74
     0
 42
0.00000001
 43
0.00000001
 40
36.0
 40
36.0
 40
36.0
 40
36.0
 40
37.0
 40
37.0
 40
37.0
 40
37.0
 10
-8.312622230422718
 20
-34.53633602884937
 30
0.0
 10
-8.41100054783539
 20
-34.58583582925527
 30
0.0
 10
-8.836986334755972
 20
-34.87002506520831
 30
0.0
 10
-8.95464122042903
 20
-34.83057791969982
 30
0.0
  0
SPLINE
  5
B8
330
77
100
AcDbEntity
  8
0
  6
Continuous
 62
     7
370
    18
100
AcDbSpline
210
0.0
220
0.0
230
1.0
 70
     8
 71
     3
 72
     8
 73
     4
 74
     0
 42
0.00000001
 43
0.00000001
 40
37.0
 40
37.0
 40
37.0
 40
37.0
 40
38.0
 40
38.0
 40
38.0
 40
38.0
 10
-8.95464122042903
 20
-34.83057791969982
 30
0.0
 10
-7.855316701000916
 20
-35.19902224220693
 30
0.0
 10
-6.670985849771815
 20
-35.31257295399734
 30
0.0
 10
-5.520530485207503
 20
-35.38070666342594
 30
0.0
  0
SPLINE
  5
B9
330
77
100
AcDbEntity
  8
0
  6
Continuous
 62
     7
370
    18
100
AcDbSpline
210
0.0
220
0.0
230
1.0
 70
     8
 71
     3
 72
     8
 73
     4
 74
     0
 42
0.00000001
 43
0.00000001
 40
38.0
 40
38.0
 40
38.0
 40
38.0
 40
39.0
 40
39.0
 40
39.0
 40
39.0
 10
-5.520530485207503
 20
-35.38070666342594
 30
0.0
 10
-4.24400827120937
 20
-35.45626070172416
 30
0.0
 10
-2.850018941515092
 20
-35.37210723674404
 30
0.0
 10
-1.633497186371029
 20
-34.95381072794466
 30
0.0
  0
SPLINE
  5
BA
330
77
100
AcDbEntity
  8
0
  6
Continuous
 62
     7
370
    18
100
AcDbSpline
210
0.0
220
0.0
230
1.0
 70
     8
 71
     3
 72
     8
 73
     4
 74
     0
 42
0.00000001
 43
0.00000001
 40
39.0
 40
39.0
 40
39.0
 40
39.0
 40
40.0
 40
40.0
 40
40.0
 40
40.0
 10
-1.633497186371029
 20
-34.95381072794466
 30
0.0
 10
-1.161647758417268
 20
-34.79156986805435
 30
0.0
 10
-0.6998897419386533
 20
-34.60060003392512
 30
0.0
 10
-0.2417020015756544
 20
-34.40340438622162
 30
0.0
  0
SPLINE
  5
BB
330
77
100
AcDbEntity
  8
0
  6
Continuous
 62
     7
370
    18
100
AcDbSpline
210
0.0
220
0.0
230
1.0
 70
     8
 71
     3
 72
     8
 73
     4
 74
     0
 42
0.00000001
 43
0.00000001
 40
40.0
 40
40.0
 40
40.0
 40
40.0
 40
41.0
 40
41.0
 40
41.0
 40
41.0
 10
-0.2417020015756544
 20
-34.40340438622162
 30
0.0
 10
-0.1816605164030941
 20
-34.37756301425404
 30
0.0
 10
0.5680618153143264
 20
-34.09824266291977
 30
0.0
 10
0.5619671856328979
 20
-34.03977754396634
 30
0.0
  0
SPLINE
  5
BC
330
77
100
AcDbEntity
  8
0
  6
Continuous
 62
     7
370
    18
100
AcDbSpline
210
0.0
220
0.0
230
1.0
 70
     8
 71
     3
 72
     8
 73
     4
 74
     0
 42
0.00000001
 43
0.00000001
 40
41.0
 40
41.0
 40
41.0
 40
41.0
 40
42.0
 40
42.0
 40
42.0
 40
42.0
 10
0.5619671856328945
 20
-34.03977754396634
 30
0.0
 10
0.5009923545267035
 20
-33.45272868294924
 30
0.0
 10
0.3892408997618144
 20
-32.91033974047543
 30
0.0
 10
0.4097333630990446
 20
-32.31246460469481
 30
0.0
  0
SPLINE
  5
BD
330
77
100
AcDbEntity
  8
0
  6
Continuous
 62
     7
370
    18
100
AcDbSpline
210
0.0
220
0.0
230
1.0
 70
     8
 71
     3
 72
     8
 73
     4
 74
     0
 42
0.00000001
 43
0.00000001
 40
42.0
 40
42.0
 40
42.0
 40
42.0
 40
43.0
 40
43.0
 40
43.0
 40
43.0
 10
0.4097333630990446
 20
-32.31246460469481
 30
0.0
 10
0.4361451972772317
 20
-31.54089785432373
 30
0.0
 10
0.5999347140878322
 20
-30.80335021591472
 30
0.0
 10
0.781068330884661
 20
-30.05649778236755
 30
0.0
  0
SPLINE
  5
BE
330
77
100
AcDbEntity
  8
0
  6
Continuous
 62
     7
370
    18
100
AcDbSpline
210
0.0
220
0.0
230
1.0
 70
     8
 71
     2
 72
     6
 73
     3
 74
     0
 42
0.00000001
 43
0.00000001
 40
43.0
 40
43.0
 40
43.0
 40
44.0
 40
44.0
 40
44.0
 10
0.7810683308846645
 20
-30.05649778236755
 30
0.0
 10
2.019861532240659
 20
-29.56825285869967
 30
0.0
 10
2.258068961108365
 20
-29.47606436460191
 30
0.0
  0
SPLINE
  5
BF
330
77
100
AcDbEntity
  8
0
  6
Continuous
 62
     7
370
    18
100
AcDbSpline
210
0.0
220
0.0
230
1.0
 70
     8
 71
     3
 72
     8
 73
     4
 74
     0
 42
0.00000001
 43
0.00000001
 40
44.0
 40
44.0
 40
44.0
 40
44.0
 40
45.0
 40
45.0
 40
45.0
 40
45.0
 10
2.258068961108342
 20
-29.47606436460192
 30
0.0
 10
3.006698264126698
 20
-29.1863189469019
 30
0.0
 10
3.728021454602016
 20
-28.82750567245856
 30
0.0
 10
4.423057775498144
 20
-28.42657886572963
 30
0.0
  0
SPLINE
  5
C0
330
77
100
AcDbEntity
  8
0
  6
Continuous
 62
     7
370
    18
100
AcDbSpline
210
0.0
220
0.0
230
1.0
 70
     8
 71
     3
 72
     8
 73
     4
 74
     0
 42
0.00000001
 43
0.00000001
 40
45.0
 40
45.0
 40
45.0
 40
45.0
 40
46.0
 40
46.0
 40
46.0
 40
46.0
 10
4.423057775498167
 20
-28.42657886572961
 30
0.0
 10
4.868536225754158
 20
-28.16961728043866
 30
0.0
 10
5.301864108552885
 20
-27.8924103198887
 30
0.0
 10
5.741401688969919
 20
-27.62554000024407
 30
0.0
  0
SPLINE
  5
C1
330
77
100
AcDbEntity
  8
0
  6
Continuous
 62
     7
370
    18
100
AcDbSpline
210
0.0
220
0.0
230
1.0
 70
     8
 71
     3
 72
     8
 73
     4
 74
     0
 42
0.00000001
 43
0.00000001
 40
46.0
 40
46.0
 40
46.0
 40
46.0
 40
47.0
 40
47.0
 40
47.0
 40
47.0
 10
5.741401688969916
 20
-27.62554000024407
 30
0.0
 10
5.846716220532924
 20
-27.83071994248106
 30
0.0
 10
5.91709395351037
 20
-28.10115880837991
 30
0.0
 10
5.852221678941643
 20
-28.42763672804736
 30
0.0
  0
SPLINE
  5
C2
330
77
100
AcDbEntity
  8
0
  6
Continuous
 62
     7
370
    18
100
AcDbSpline
210
0.0
220
0.0
230
1.0
 70
     8
 71
     3
 72
     8
 73
     4
 74
     0
 42
0.00000001
 43
0.00000001
 40
47.0
 40
47.0
 40
47.0
 40
47.0
 40
48.0
 40
48.0
 40
48.0
 40
48.0
 10
5.852221678941643
 20
-28.42763672804736
 30
0.0
 10
5.825697879445541
 20
-28.53478547887384
 30
0.0
 10
5.788744133302801
 20
-28.64641216137642
 30
0.0
 10
5.745232449477395
 20
-28.75809491089348
 30
0.0
  0
SPLINE
  5
C3
330
77
100
AcDbEntity
  8
0
  6
Continuous
 62
     7
370
    18
100
AcDbSpline
210
0.0
220
0.0
230
1.0
 70
     8
 71
     2
 72
     6
 73
     3
 74
     0
 42
0.00000001
 43
0.00000001
 40
48.0
 40
48.0
 40
48.0
 40
49.0
 40
49.0
 40
49.0
 10
5.745232449477399
 20
-28.75809491089347
 30
0.0
 10
5.531726678391706
 20
-29.30640322476907
 30
0.0
 10
5.166798660391799
 20
-29.85361491693775
 30
0.0
  0
SPLINE
  5
C4
330
77
100
AcDbEntity
  8
0
  6
Continuous
 62
     7
370
    18
100
AcDbSpline
210
0.0
220
0.0
230
1.0
 70
     8
 71
     3
 72
     8
 73
     4
 74
     0
 42
0.00000001
 43
0.00000001
 40
49.0
 40
49.0
 40
49.0
 40
49.0
 40
50.0
 40
50.0
 40
50.0
 40
50.0
 10
5.166798660391799
 20
-29.85361491693775
 30
0.0
 10
6.311748821301538
 20
-30.87442349267374
 30
0.0
 10
9.719833011058038
 20
-30.34731936373517
 30
0.0
 10
10.01547529282146
 20
-30.40047363722643
 30
0.0
  0
SPLINE
  5
C5
330
77
100
AcDbEntity
  8
0
  6
Continuous
 62
     7
370
    18
100
AcDbSpline
210
0.0
220
0.0
230
1.0
 70
     8
 71
     3
 72
     8
 73
     4
 74
     0
 42
0.00000001
 43
0.00000001
 40
51.0
 40
51.0
 40
51.0
 40
51.0
 40
52.0
 40
52.0
 40
52.0
 40
52.0
 10
9.153997704124192
 20
-32.09537737749855
 30
0.0
 10
9.13746533104106
 20
-32.12795874790397
 30
0.0
 10
9.15043432665133
 20
-32.16778204466993
 30
0.0
 10
9.183008121878673
 20
-32.18434759557922
 30
0.0
  0
SPLINE
  5
C6
330
77
100
AcDbEntity
  8
0
  6
Continuous
 62
     7
370
    18
100
AcDbSpline
210
0.0
220
0.0
230
1.0
 70
     8
 71
     3
 72
     8
 73
     4
 74
     0
 42
0.00000001
 43
0.00000001
 40
53.0
 40
53.0
 40
53.0
 40
53.0
 40
54.0
 40
54.0
 40
54.0
 40
54.0
 10
9.481427995968861
 20
-32.33610365259894
 30
0.0
 10
9.51400179119618
 20
-32.35266920350812
 30
0.0
 10
9.553865840967733
 20
-32.33967460525203
 30
0.0
 10
9.570438967056274
 20
-32.30706763220036
 30
0.0
  0
SPLINE
  5
C7
330
77
100
AcDbEntity
  8
0
  6
Continuous
 62
     7
370
    18
100
AcDbSpline
210
0.0
220
0.0
230
1.0
 70
     8
 71
     3
 72
     8
 73
     4
 74
     0
 42
0.00000001
 43
0.00000001
 40
55.0
 40
55.0
 40
55.0
 40
55.0
 40
56.0
 40
56.0
 40
56.0
 40
56.0
 10
10.49927251692245
 20
-30.47944802269659
 30
0.0
 10
10.51193120516501
 20
-30.46811349836248
 30
0.0
 10
10.52226333020525
 20
-30.4588658263786
 30
0.0
 10
10.53488126544412
 20
-30.44755690468914
 30
0.0
  0
SPLINE
  5
C8
330
77
100
AcDbEntity
  8
0
  6
Continuous
 62
     7
370
    18
100
AcDbSpline
210
0.0
220
0.0
230
1.0
 70
     8
 71
     3
 72
     8
 73
     4
 74
     0
 42
0.00000001
 43
0.00000001
 40
56.0
 40
56.0
 40
56.0
 40
56.0
 40
57.0
 40
57.0
 40
57.0
 40
57.0
 10
10.53488126544413
 20
-30.44755690468914
 30
0.0
 10
10.94397733100252
 20
-30.30331240881152
 30
0.0
 10
11.82966874715053
 20
-29.98429676100319
 30
0.0
 10
12.53432218047716
 20
-29.45754287024319
 30
0.0
  0
SPLINE
  5
C9
330
77
100
AcDbEntity
  8
0
  6
Continuous
 62
     7
370
    18
100
AcDbSpline
210
0.0
220
0.0
230
1.0
 70
     8
 71
     3
 72
     8
 73
     4
 74
     0
 42
0.00000001
 43
0.00000001
 40
57.0
 40
57.0
 40
57.0
 40
57.0
 40
58.0
 40
58.0
 40
58.0
 40
58.0
 10
12.53432218047716
 20
-29.45754287024319
 30
0.0
 10
12.5642240877841
 20
-29.43520496265615
 30
0.0
 10
12.56963855743016
 20
-29.39207389927418
 30
0.0
 10
12.54678888824712
 20
-29.36257875718611
 30
0.0
  0
SPLINE
  5
CA
330
77
100
AcDbEntity
  8
0
  6
Continuous
 62
     7
370
    18
100
AcDbSpline
210
0.0
220
0.0
230
1.0
 70
     8
 71
     3
 72
     8
 73
     4
 74
     0
 42
0.00000001
 43
0.00000001
 40
59.0
 40
59.0
 40
59.0
 40
59.0
 40
60.0
 40
60.0
 40
60.0
 40
60.0
 10
12.34190888882302
 20
-29.09789103127773
 30
0.0
 10
12.31997516065779
 20
-29.06958242439806
 30
0.0
 10
12.28012241966975
 20
-29.06441030595369
 30
0.0
 10
12.25140704757306
 20
-29.08583227252173
 30
0.0
  0
SPLINE
  5
CB
330
77
100
AcDbEntity
  8
0
  6
Continuous
 62
     7
370
    18
100
AcDbSpline
210
0.0
220
0.0
230
1.0
 70
     8
 71
     3
 72
     8
 73
     4
 74
     0
 42
0.00000001
 43
0.00000001
 40
60.0
 40
60.0
 40
60.0
 40
60.0
 40
61.0
 40
61.0
 40
61.0
 40
61.0
 10
12.25140704757306
 20
-29.08583227252173
 30
0.0
 10
11.61813304861152
 20
-29.55810881407591
 30
0.0
 10
10.80862034190002
 20
-29.85498500376039
 30
0.0
 10
10.41032416844674
 20
-29.99588325594667
 30
0.0
  0
SPLINE
  5
CC
330
77
100
AcDbEntity
  8
0
  6
Continuous
 62
     7
370
    18
100
AcDbSpline
210
0.0
220
0.0
230
1.0
 70
     8
 71
     3
 72
     8
 73
     4
 74
     0
 42
0.00000001
 43
0.00000001
 40
61.0
 40
61.0
 40
61.0
 40
61.0
 40
62.0
 40
62.0
 40
62.0
 40
62.0
 10
10.41032416844674
 20
-29.99588325594667
 30
0.0
 10
10.11835353580004
 20
-29.93880243613075
 30
0.0
 10
9.785406052735285
 20
-29.78148435767264
 30
0.0
 10
9.416902124193346
 20
-29.50966772742371
 30
0.0
  0
SPLINE
  5
CD
330
77
100
AcDbEntity
  8
0
  6
Continuous
 62
     7
370
    18
100
AcDbSpline
210
0.0
220
0.0
230
1.0
 70
     8
 71
     3
 72
     8
 73
     4
 74
     0
 42
0.00000001
 43
0.00000001
 40
62.0
 40
62.0
 40
62.0
 40
62.0
 40
63.0
 40
63.0
 40
63.0
 40
63.0
 10
9.416902124193346
 20
-29.50966772742371
 30
0.0
 10
9.407944475865712
 20
-29.50119955155471
 30
0.0
 10
9.394588799105467
 20
-29.49143050250025
 30
0.0
 10
9.376572020348016
 20
-29.48021324667389
 30
0.0
  0
SPLINE
  5
CE
330
77
100
AcDbEntity
  8
0
  6
Continuous
 62
     7
370
    18
100
AcDbSpline
210
0.0
220
0.0
230
1.0
 70
     8
 71
     3
 72
     8
 73
     4
 74
     0
 42
0.00000001
 43
0.00000001
 40
63.0
 40
63.0
 40
63.0
 40
63.0
 40
64.0
 40
64.0
 40
64.0
 40
64.0
 10
9.376572020348016
 20
-29.48021324667389
 30
0.0
 10
9.145324806072944
 20
-29.30555303878837
 30
0.0
 10
8.900259957859191
 20
-29.0859189225671
 30
0.0
 10
8.642485564221985
 20
-28.81737501008692
 30
0.0
  0
SPLINE
  5
CF
330
77
100
AcDbEntity
  8
0
  6
Continuous
 62
     7
370
    18
100
AcDbSpline
210
0.0
220
0.0
230
1.0
 70
     8
 71
     2
 72
     6
 73
     3
 74
     0
 42
0.00000001
 43
0.00000001
 40
64.0
 40
64.0
 40
64.0
 40
65.0
 40
65.0
 40
65.0
 10
8.642485564221984
 20
-28.81737501008692
 30
0.0
 10
8.62781779716172
 20
-28.81266466885932
 30
0.0
 10
8.605249246441485
 20
-28.80533009248483
 30
0.0
  0
SPLINE
  5
D0
330
77
100
AcDbEntity
  8
0
  6
Continuous
 62
     7
370
    18
100
AcDbSpline
210
0.0
220
0.0
230
1.0
 70
     8
 71
     3
 72
     8
 73
     4
 74
     0
 42
0.00000001
 43
0.00000001
 40
65.0
 40
65.0
 40
65.0
 40
65.0
 40
66.0
 40
66.0
 40
66.0
 40
66.0
 10
8.605249246441483
 20
-28.80533009248483
 30
0.0
 10
8.441756705356795
 20
-28.62769111192185
 30
0.0
 10
8.288445022476992
 20
-28.44047320919115
 30
0.0
 10
8.160507965772787
 20
-28.26397079802058
 30
0.0
  0
SPLINE
  5
D1
330
77
100
AcDbEntity
  8
0
  6
Continuous
 62
     7
370
    18
100
AcDbSpline
210
0.0
220
0.0
230
1.0
 70
     8
 71
     3
 72
     8
 73
     4
 74
     0
 42
0.00000001
 43
0.00000001
 40
66.0
 40
66.0
 40
66.0
 40
66.0
 40
67.0
 40
67.0
 40
67.0
 40
67.0
 10
8.160507965772789
 20
-28.26397079802058
 30
0.0
 10
8.607151503975404
 20
-28.41906030303154
 30
0.0
 10
9.19232914263821
 20
-28.57237361567124
 30
0.0
 10
9.863974170124614
 20
-28.62737240380984
 30
0.0
  0
SPLINE
  5
D2
330
77
100
AcDbEntity
  8
0
  6
Continuous
 62
     7
370
    18
100
AcDbSpline
210
0.0
220
0.0
230
1.0
 70
     8
 71
     3
 72
     8
 73
     4
 74
     0
 42
0.00000001
 43
0.00000001
 40
67.0
 40
67.0
 40
67.0
 40
67.0
 40
68.0
 40
68.0
 40
68.0
 40
68.0
 10
9.863974170124614
 20
-28.62737240380984
 30
0.0
 10
9.929750373961975
 20
-28.63137718087538
 30
0.0
 10
9.995567330801844
 20
-28.63535635529414
 30
0.0
 10
10.05958246956674
 20
-28.63782455467626
 30
0.0
  0
SPLINE
  5
D3
330
77
100
AcDbEntity
  8
0
  6
Continuous
 62
     7
370
    18
100
AcDbSpline
210
0.0
220
0.0
230
1.0
 70
     8
 71
     3
 72
     8
 73
     4
 74
     0
 42
0.00000001
 43
0.00000001
 40
68.0
 40
68.0
 40
68.0
 40
68.0
 40
69.0
 40
69.0
 40
69.0
 40
69.0
 10
10.05958246956674
 20
-28.63782455467626
 30
0.0
 10
10.11127119041664
 20
-28.63985208217537
 30
0.0
 10
10.16294064545186
 20
-28.64456308025562
 30
0.0
 10
10.21460035848199
 20
-28.64618254964
 30
0.0
  0
SPLINE
  5
D4
330
77
100
AcDbEntity
  8
0
  6
Continuous
 62
     7
370
    18
100
AcDbSpline
210
0.0
220
0.0
230
1.0
 70
     8
 71
     3
 72
     8
 73
     4
 74
     0
 42
0.00000001
 43
0.00000001
 40
69.0
 40
69.0
 40
69.0
 40
69.0
 40
70.0
 40
70.0
 40
70.0
 40
70.0
 10
10.21460035848199
 20
-28.64618254964
 30
0.0
 10
10.21915118340657
 20
-28.64627909690886
 30
0.0
 10
10.22372526194017
 20
-28.64650312933368
 30
0.0
 10
10.22972170784432
 20
-28.64302011343959
 30
0.0
  0
SPLINE
  5
D5
330
77
100
AcDbEntity
  8
0
  6
Continuous
 62
     7
370
    18
100
AcDbSpline
210
0.0
220
0.0
230
1.0
 70
     8
 71
     3
 72
     8
 73
     4
 74
     0
 42
0.00000001
 43
0.00000001
 40
70.0
 40
70.0
 40
70.0
 40
70.0
 40
71.0
 40
71.0
 40
71.0
 40
71.0
 10
10.22972170784433
 20
-28.64302011343959
 30
0.0
 10
10.39542110854619
 20
-28.64648636439826
 30
0.0
 10
10.55222592049436
 20
-28.64556554872323
 30
0.0
 10
10.69525541603271
 20
-28.64198824855314
 30
0.0
  0
SPLINE
  5
D6
330
77
100
AcDbEntity
  8
0
  6
Continuous
 62
     7
370
    18
100
AcDbSpline
210
0.0
220
0.0
230
1.0
 70
     8
 71
     3
 72
     8
 73
     4
 74
     0
 42
0.00000001
 43
0.00000001
 40
71.0
 40
71.0
 40
71.0
 40
71.0
 40
72.0
 40
72.0
 40
72.0
 40
72.0
 10
10.6952554160327
 20
-28.64198824855314
 30
0.0
 10
10.93874918772079
 20
-28.62923420583628
 30
0.0
 10
12.86255814414376
 20
-28.44580125262167
 30
0.0
 10
13.43053046157378
 20
-28.5046888169102
 30
0.0
  0
SPLINE
  5
D7
330
77
100
AcDbEntity
  8
0
  6
Continuous
 62
     7
370
    18
100
AcDbSpline
210
0.0
220
0.0
230
1.0
 70
     8
 71
     3
 72
     8
 73
     4
 74
     0
 42
0.00000001
 43
0.00000001
 40
72.0
 40
72.0
 40
72.0
 40
72.0
 40
73.0
 40
73.0
 40
73.0
 40
73.0
 10
13.43053046157378
 20
-28.5046888169102
 30
0.0
 10
12.97694821790165
 20
-29.54354095615899
 30
0.0
 10
12.80375507038257
 20
-30.61054434437692
 30
0.0
 10
12.76467963112437
 20
-30.88580371497291
 30
0.0
  0
SPLINE
  5
D8
330
77
100
AcDbEntity
  8
0
  6
Continuous
 62
     7
370
    18
100
AcDbSpline
210
0.0
220
0.0
230
1.0
 70
     8
 71
     3
 72
     8
 73
     4
 74
     0
 42
0.00000001
 43
0.00000001
 40
73.0
 40
73.0
 40
73.0
 40
73.0
 40
74.0
 40
74.0
 40
74.0
 40
74.0
 10
12.76467963112437
 20
-30.88580371497291
 30
0.0
 10
12.75946694188426
 20
-30.92247061993447
 30
0.0
 10
12.78562558003658
 20
-30.95551385922744
 30
0.0
 10
12.8223724068011
 20
-30.95999428728276
 30
0.0
  0
SPLINE
  5
D9
330
77
100
AcDbEntity
  8
0
  6
Continuous
 62
     7
370
    18
100
AcDbSpline
210
0.0
220
0.0
230
1.0
 70
     8
 71
     3
 72
     8
 73
     4
 74
     0
 42
0.00000001
 43
0.00000001
 40
75.0
 40
75.0
 40
75.0
 40
75.0
 40
76.0
 40
76.0
 40
76.0
 40
76.0
 10
13.27084661062346
 20
-31.0149510216448
 30
0.0
 10
13.30643509061805
 20
-31.01930660488938
 30
0.0
 10
13.33913039971426
 20
-30.99490116531647
 30
0.0
 10
13.34433815412196
 20
-30.95940253133898
 30
0.0
  0
SPLINE
  5
DA
330
77
100
AcDbEntity
  8
0
  6
Continuous
 62
     7
370
    18
100
AcDbSpline
210
0.0
220
0.0
230
1.0
 70
     8
 71
     3
 72
     8
 73
     4
 74
     0
 42
0.00000001
 43
0.00000001
 40
76.0
 40
76.0
 40
76.0
 40
76.0
 40
77.0
 40
77.0
 40
77.0
 40
77.0
 10
13.34433815412196
 20
-30.95940253133898
 30
0.0
 10
13.3839863568229
 20
-30.68912606222256
 30
0.0
 10
13.56408992520232
 20
-29.60362871347513
 30
0.0
 10
14.02078503742013
 20
-28.61451474141115
 30
0.0
  0
SPLINE
  5
DB
330
77
100
AcDbEntity
  8
0
  6
Continuous
 62
     7
370
    18
100
AcDbSpline
210
0.0
220
0.0
230
1.0
 70
     8
 71
     3
 72
     8
 73
     4
 74
     0
 42
0.00000001
 43
0.00000001
 40
77.0
 40
77.0
 40
77.0
 40
77.0
 40
78.0
 40
78.0
 40
78.0
 40
78.0
 10
14.02078503742013
 20
-28.61451474141115
 30
0.0
 10
14.03051784933197
 20
-28.60422264166403
 30
0.0
 10
14.03832693001586
 20
-28.5959348321164
 30
0.0
 10
14.04805974192876
 20
-28.58564273237117
 30
0.0
  0
SPLINE
  5
DC
330
77
100
AcDbEntity
  8
0
  6
Continuous
 62
     7
370
    18
100
AcDbSpline
210
0.0
220
0.0
230
1.0
 70
     8
 71
     3
 72
     8
 73
     4
 74
     0
 42
0.00000001
 43
0.00000001
 40
78.0
 40
78.0
 40
78.0
 40
78.0
 40
79.0
 40
79.0
 40
79.0
 40
79.0
 10
14.04805974192877
 20
-28.58564273237117
 30
0.0
 10
14.36946299190545
 20
-28.42521597674384
 30
0.0
 10
15.82365074121367
 20
-27.67538698008446
 30
0.0
 10
17.12167999380672
 20
-27.35127481772455
 30
0.0
  0
SPLINE
  5
DD
330
77
100
AcDbEntity
  8
0
  6
Continuous
 62
     7
370
    18
100
AcDbSpline
210
0.0
220
0.0
230
1.0
 70
     8
 71
     3
 72
     8
 73
     4
 74
     0
 42
0.00000001
 43
0.00000001
 40
79.0
 40
79.0
 40
79.0
 40
79.0
 40
80.0
 40
80.0
 40
80.0
 40
80.0
 10
17.1216799938067
 20
-27.35127481772455
 30
0.0
 10
17.15690371849272
 20
-27.34247430066912
 30
0.0
 10
17.17784082126059
 20
-27.30749514968448
 30
0.0
 10
17.16924929537078
 20
-27.27219696609878
 30
0.0
  0
SPLINE
  5
DE
330
77
100
AcDbEntity
  8
0
  6
Continuous
 62
     7
370
    18
100
AcDbSpline
210
0.0
220
0.0
230
1.0
 70
     8
 71
     3
 72
     8
 73
     4
 74
     0
 42
0.00000001
 43
0.00000001
 40
81.0
 40
81.0
 40
81.0
 40
81.0
 40
82.0
 40
82.0
 40
82.0
 40
82.0
 10
17.06226621153357
 20
-26.8332975819211
 30
0.0
 10
17.05353856916747
 20
-26.79760179250334
 30
0.0
 10
17.01793344627307
 20
-26.77512547170584
 30
0.0
 10
16.98226613660748
 20
-26.78403415355417
 30
0.0
  0
SPLINE
  5
DF
330
77
100
AcDbEntity
  8
0
  6
Continuous
 62
     7
370
    18
100
AcDbSpline
210
0.0
220
0.0
230
1.0
 70
     8
 71
     3
 72
     8
 73
     4
 74
     0
 42
0.00000001
 43
0.00000001
 40
82.0
 40
82.0
 40
82.0
 40
82.0
 40
83.0
 40
83.0
 40
83.0
 40
83.0
 10
16.98226613660748
 20
-26.78403415355417
 30
0.0
 10
15.80703100274552
 20
-27.07715433462484
 30
0.0
 10
14.44247136659616
 20
-27.74853717091202
 30
0.0
 10
13.97401618096952
 20
-27.97182062237161
 30
0.0
  0
SPLINE
  5
E0
330
77
100
AcDbEntity
  8
0
  6
Continuous
 62
     7
370
    18
100
AcDbSpline
210
0.0
220
0.0
230
1.0
 70
     8
 71
     2
 72
     6
 73
     3
 74
     0
 42
0.00000001
 43
0.00000001
 40
83.0
 40
83.0
 40
83.0
 40
84.0
 40
84.0
 40
84.0
 10
13.97401618096952
 20
-27.97182062237161
 30
0.0
 10
13.76115166284069
 20
-28.0306975586193
 30
0.0
 10
13.62827019587519
 20
-28.06884456933804
 30
0.0
  0
SPLINE
  5
E1
330
77
100
AcDbEntity
  8
0
  6
Continuous
 62
     7
370
    18
100
AcDbSpline
210
0.0
220
0.0
230
1.0
 70
     8
 71
     2
 72
     6
 73
     3
 74
     0
 42
0.00000001
 43
0.00000001
 40
84.0
 40
84.0
 40
84.0
 40
85.0
 40
85.0
 40
85.0
 10
13.62827019587519
 20
-28.06884456933805
 30
0.0
 10
11.5526032886585
 20
-27.70008456573036
 30
0.0
 10
8.975295544280778
 20
-24.55390683673479
 30
0.0
  0
SPLINE
  5
E2
330
77
100
AcDbEntity
  8
0
  6
Continuous
 62
     7
370
    18
100
AcDbSpline
210
0.0
220
0.0
230
1.0
 70
     8
 71
     2
 72
     6
 73
     3
 74
     0
 42
0.00000001
 43
0.00000001
 40
8.0
 40
8.0
 40
8.0
 40
9.0
 40
9.0
 40
9.0
 10
1.034248725372328
 20
-24.04306676583063
 30
0.0
 10
0.5031359822839347
 20
-24.67424914238567
 30
0.0
 10
0.2366362148993398
 20
-25.09912070303729
 30
0.0
  0
SPLINE
  5
E3
330
77
100
AcDbEntity
  8
0
  6
Continuous
 62
     7
370
    18
100
AcDbSpline
210
0.0
220
0.0
230
1.0
 70
     8
 71
     3
 72
     8
 73
     4
 74
     0
 42
0.00000001
 43
0.00000001
 40
86.0
 40
86.0
 40
86.0
 40
86.0
 40
87.0
 40
87.0
 40
87.0
 40
87.0
 10
10.62007177823641
 20
-22.03794594188311
 30
0.0
 10
11.72219760878135
 20
-21.28087378904547
 30
0.0
 10
12.92971041173824
 20
-21.7396330529282
 30
0.0
 10
13.12249700197277
 20
-22.04761177879816
 30
0.0
  0
SPLINE
  5
E4
330
77
100
AcDbEntity
  8
0
  6
Continuous
 62
     7
370
    18
100
AcDbSpline
210
0.0
220
0.0
230
1.0
 70
     8
 71
     3
 72
     8
 73
     4
 74
     0
 42
0.00000001
 43
0.00000001
 40
87.0
 40
87.0
 40
87.0
 40
87.0
 40
88.0
 40
88.0
 40
88.0
 40
88.0
 10
13.12249700197277
 20
-22.04761177879816
 30
0.0
 10
13.26108412081468
 20
-22.26820779325175
 30
0.0
 10
13.22069296788121
 20
-22.53929203859532
 30
0.0
 10
13.16248097184179
 20
-22.77811969809535
 30
0.0
  0
SPLINE
  5
E5
330
77
100
AcDbEntity
  8
0
  6
Continuous
 62
     7
370
    18
100
AcDbSpline
210
0.0
220
0.0
230
1.0
 70
     8
 71
     3
 72
     8
 73
     4
 74
     0
 42
0.00000001
 43
0.00000001
 40
1.0
 40
1.0
 40
1.0
 40
1.0
 40
2.0
 40
2.0
 40
2.0
 40
2.0
 10
-12.97698727481876
 20
-11.94438967842669
 30
0.0
 10
-12.93408822057713
 20
-11.98055695107731
 30
0.0
 10
-12.89117871404966
 20
-12.0168313323847
 30
0.0
 10
-12.84833062834044
 20
-12.05192229234568
 30
0.0
  0
SPLINE
  5
E6
330
77
100
AcDbEntity
  8
0
  6
Continuous
 62
     7
370
    18
100
AcDbSpline
210
0.0
220
0.0
230
1.0
 70
     8
 71
     3
 72
     8
 73
     4
 74
     0
 42
0.00000001
 43
0.00000001
 40
0.0
 40
0.0
 40
0.0
 40
0.0
 40
1.0
 40
1.0
 40
1.0
 40
1.0
 10
-12.84833062834044
 20
-12.05192229234568
 30
0.0
 10
-12.89117977018919
 20
-12.01637729512133
 30
0.0
 10
-12.93406966504302
 20
-11.98085790053987
 30
0.0
 10
-12.97698727481876
 20
-11.94438967842669
 30
0.0
  0
SPLINE
  5
E7
330
77
100
AcDbEntity
  8
0
  6
Continuous
 62
     7
370
    18
100
AcDbSpline
210
0.0
220
0.0
230
1.0
 70
     8
 71
     3
 72
     8
 73
     4
 74
     0
 42
0.00000001
 43
0.00000001
 40
1.0
 40
1.0
 40
1.0
 40
1.0
 40
2.0
 40
2.0
 40
2.0
 40
2.0
 10
-13.12585089146288
 20
-11.81726812552848
 30
0.0
 10
-13.07617793437105
 20
-11.86068937846771
 30
0.0
 10
-13.02665471445727
 20
-11.90224380512823
 30
0.0
 10
-12.97698727481876
 20
-11.94438967842669
 30
0.0
  0
SPLINE
  5
E8
330
77
100
AcDbEntity
  8
0
  6
Continuous
 62
     7
370
    18
100
AcDbSpline
210
0.0
220
0.0
230
1.0
 70
     8
 71
     3
 72
     8
 73
     4
 74
     0
 42
0.00000001
 43
0.00000001
 40
0.0
 40
0.0
 40
0.0
 40
0.0
 40
1.0
 40
1.0
 40
1.0
 40
1.0
 10
-12.97698727481876
 20
-11.94438967842669
 30
0.0
 10
-13.02658495363045
 20
-11.90262626059936
 30
0.0
 10
-13.07617323629799
 20
-11.86051591416215
 30
0.0
 10
-13.12585089146288
 20
-11.81726812552848
 30
0.0
  0
SPLINE
  5
E9
330
77
100
AcDbEntity
  8
0
  6
Continuous
 62
     7
370
    18
100
AcDbSpline
210
0.0
220
0.0
230
1.0
 70
     8
 71
     3
 72
     8
 73
     4
 74
     0
 42
0.00000001
 43
0.00000001
 40
1.0
 40
1.0
 40
1.0
 40
1.0
 40
2.0
 40
2.0
 40
2.0
 40
2.0
 10
-13.4714083645441
 20
-11.50579973387192
 30
0.0
 10
-13.35607265135197
 20
-11.61411326446534
 30
0.0
 10
-13.24089747348539
 20
-11.71701440282046
 30
0.0
 10
-13.12585089146288
 20
-11.81726812552848
 30
0.0
  0
SPLINE
  5
EA
330
77
100
AcDbEntity
  8
0
  6
Continuous
 62
     7
370
    18
100
AcDbSpline
210
0.0
220
0.0
230
1.0
 70
     8
 71
     3
 72
     8
 73
     4
 74
     0
 42
0.00000001
 43
0.00000001
 40
0.0
 40
0.0
 40
0.0
 40
0.0
 40
1.0
 40
1.0
 40
1.0
 40
1.0
 10
-13.12585089146288
 20
-11.81726812552848
 30
0.0
 10
-13.24099048791926
 20
-11.71650446219232
 30
0.0
 10
-13.35623202143728
 20
-11.61358817347745
 30
0.0
 10
-13.4714083645441
 20
-11.50579973387192
 30
0.0
  0
SPLINE
  5
EB
330
77
100
AcDbEntity
  8
0
  6
Continuous
 62
     7
370
    18
100
AcDbSpline
210
0.0
220
0.0
230
1.0
 70
     8
 71
     3
 72
     8
 73
     4
 74
     0
 42
0.00000001
 43
0.00000001
 40
0.0
 40
0.0
 40
0.0
 40
0.0
 40
1.0
 40
1.0
 40
1.0
 40
1.0
 10
10.21461546345718
 20
-28.64617788443965
 30
0.0
 10
10.21918410196907
 20
-28.64627093080314
 30
0.0
 10
10.22372101727702
 20
-28.64652141251756
 30
0.0
 10
10.22970805870399
 20
-28.64302825278814
 30
0.0
  0
SPLINE
  5
EC
330
77
100
AcDbEntity
  8
0
  6
Continuous
 62
     7
370
    18
100
AcDbSpline
210
0.0
220
0.0
230
1.0
 70
     8
 71
     3
 72
     8
 73
     4
 74
     0
 42
0.00000001
 43
0.00000001
 40
1.0
 40
1.0
 40
1.0
 40
1.0
 40
2.0
 40
2.0
 40
2.0
 40
2.0
 10
10.22970805870399
 20
-28.64302825278814
 30
0.0
 10
10.39542645279408
 20
-28.64648116215303
 30
0.0
 10
10.55224712619552
 20
-28.64555481591909
 30
0.0
 10
10.69524471404092
 20
-28.64199596788804
 30
0.0
  0
SPLINE
  5
ED
330
77
100
AcDbEntity
  8
0
  6
Continuous
 62
     7
370
    18
100
AcDbSpline
210
0.0
220
0.0
230
1.0
 70
     8
 71
     3
 72
     8
 73
     4
 74
     0
 42
0.00000001
 43
0.00000001
 40
2.0
 40
2.0
 40
2.0
 40
2.0
 40
3.0
 40
3.0
 40
3.0
 40
3.0
 10
10.69524471404092
 20
-28.64199596788804
 30
0.0
 10
10.93878108149031
 20
-28.62922500765117
 30
0.0
 10
12.86256786793131
 20
-28.44579912729742
 30
0.0
 10
13.43053447184528
 20
-28.50468697828905
 30
0.0
  0
SPLINE
  5
EE
330
77
100
AcDbEntity
  8
0
  6
Continuous
 62
     7
370
    18
100
AcDbSpline
210
0.0
220
0.0
230
1.0
 70
     8
 71
     3
 72
     8
 73
     4
 74
     0
 42
0.00000001
 43
0.00000001
 40
3.0
 40
3.0
 40
3.0
 40
3.0
 40
4.0
 40
4.0
 40
4.0
 40
4.0
 10
13.43053447184528
 20
-28.50468697828905
 30
0.0
 10
11.96260748192116
 20
-28.37392053115179
 30
0.0
 10
10.1633950095022
 20
-27.12274869564028
 30
0.0
 10
9.151098102011504
 20
-26.42677276430952
 30
0.0
  0
SPLINE
  5
EF
330
77
100
AcDbEntity
  8
0
  6
Continuous
 62
     7
370
    18
100
AcDbSpline
210
0.0
220
0.0
230
1.0
 70
     8
 71
     3
 72
     8
 73
     4
 74
     0
 42
0.00000001
 43
0.00000001
 40
4.0
 40
4.0
 40
4.0
 40
4.0
 40
5.0
 40
5.0
 40
5.0
 40
5.0
 10
9.151098102011504
 20
-26.42677276430952
 30
0.0
 10
9.066774001144022
 20
-26.36879812840622
 30
0.0
 10
8.956675902463358
 20
-26.36572633462992
 30
0.0
 10
8.868930887547672
 20
-26.41838015454434
 30
0.0
  0
SPLINE
  5
F0
330
77
100
AcDbEntity
  8
0
  6
Continuous
 62
     7
370
    18
100
AcDbSpline
210
0.0
220
0.0
230
1.0
 70
     8
 71
     3
 72
     8
 73
     4
 74
     0
 42
0.00000001
 43
0.00000001
 40
5.0
 40
5.0
 40
5.0
 40
5.0
 40
6.0
 40
6.0
 40
6.0
 40
6.0
 10
8.868930887547672
 20
-26.41838015454434
 30
0.0
 10
8.137245193614708
 20
-26.85744836598368
 30
0.0
 10
6.503485492791613
 20
-27.54121410964402
 30
0.0
 10
5.741387155997157
 20
-27.6255445902606
 30
0.0
  0
SPLINE
  5
F1
330
77
100
AcDbEntity
  8
0
  6
Continuous
 62
     7
370
    18
100
AcDbSpline
210
0.0
220
0.0
230
1.0
 70
     8
 71
     2
 72
     6
 73
     3
 74
     0
 42
0.00000001
 43
0.00000001
 40
6.0
 40
6.0
 40
6.0
 40
7.0
 40
7.0
 40
7.0
 10
5.741387155997161
 20
-27.6255445902606
 30
0.0
 10
6.307502227055851
 20
-27.91539630107968
 30
0.0
 10
8.160512274320864
 20
-28.26397363103973
 30
0.0
  0
SPLINE
  5
F2
330
77
100
AcDbEntity
  8
0
  6
Continuous
 62
     7
370
    18
100
AcDbSpline
210
0.0
220
0.0
230
1.0
 70
     8
 71
     3
 72
     8
 73
     4
 74
     0
 42
0.00000001
 43
0.00000001
 40
7.0
 40
7.0
 40
7.0
 40
7.0
 40
8.0
 40
8.0
 40
8.0
 40
8.0
 10
8.160512274320864
 20
-28.26397363103973
 30
0.0
 10
8.607119606053496
 20
-28.41908372564989
 30
0.0
 10
9.192348948782854
 20
-28.5723594656304
 30
0.0
 10
9.863974461413067
 20
-28.62736281210606
 30
0.0
  0
SPLINE
  5
F3
330
77
100
AcDbEntity
  8
0
  6
Continuous
 62
     7
370
    18
100
AcDbSpline
210
0.0
220
0.0
230
1.0
 70
     8
 71
     3
 72
     8
 73
     4
 74
     0
 42
0.00000001
 43
0.00000001
 40
8.0
 40
8.0
 40
8.0
 40
8.0
 40
9.0
 40
9.0
 40
9.0
 40
9.0
 10
9.863974461413067
 20
-28.62736281210606
 30
0.0
 10
9.929765209251192
 20
-28.63135918423149
 30
0.0
 10
9.995575675609581
 20
-28.63534316840197
 30
0.0
 10
10.05956717050909
 20
-28.63784354557302
 30
0.0
  0
SPLINE
  5
F4
330
77
100
AcDbEntity
  8
0
  6
Continuous
 62
     7
370
    18
100
AcDbSpline
210
0.0
220
0.0
230
1.0
 70
     8
 71
     3
 72
     8
 73
     4
 74
     0
 42
0.00000001
 43
0.00000001
 40
9.0
 40
9.0
 40
9.0
 40
9.0
 40
10.0
 40
10.0
 40
10.0
 40
10.0
 10
10.05956717050909
 20
-28.63784354557302
 30
0.0
 10
10.11125739464263
 20
-28.63984923247316
 30
0.0
 10
10.16293232757963
 20
-28.6445665106095
 30
0.0
 10
10.21461546345718
 20
-28.64617788443965
 30
0.0
  0
SPLINE
  5
F5
330
77
100
AcDbEntity
  8
0
  6
Continuous
 62
     7
370
    18
100
AcDbSpline
210
0.0
220
0.0
230
1.0
 70
     8
 71
     3
 72
     8
 73
     4
 74
     0
 42
0.00000001
 43
0.00000001
 40
2.0
 40
2.0
 40
2.0
 40
2.0
 40
3.0
 40
3.0
 40
3.0
 40
3.0
 10
0.781062732010538
 20
-30.05650200510532
 30
0.0
 10
0.1140626469377116
 20
-30.75512103968738
 30
0.0
 10
-0.1792280526829951
 20
-32.7836717599449
 30
0.0
 10
0.56197195590197
 20
-34.03978273437906
 30
0.0
  0
SPLINE
  5
F6
330
77
100
AcDbEntity
  8
0
  6
Continuous
 62
     7
370
    18
100
AcDbSpline
210
0.0
220
0.0
230
1.0
 70
     8
 71
     3
 72
     8
 73
     4
 74
     0
 42
0.00000001
 43
0.00000001
 40
1.0
 40
1.0
 40
1.0
 40
1.0
 40
2.0
 40
2.0
 40
2.0
 40
2.0
 10
0.4097379340995931
 20
-32.31245563887509
 30
0.0
 10
0.4361424212053228
 20
-31.54090664650138
 30
0.0
 10
0.5999421143876079
 20
-30.80333732452794
 30
0.0
 10
0.781062732010538
 20
-30.05650200510532
 30
0.0
  0
SPLINE
  5
F7
330
77
100
AcDbEntity
  8
0
  6
Continuous
 62
     7
370
    18
100
AcDbSpline
210
0.0
220
0.0
230
1.0
 70
     8
 71
     3
 72
     8
 73
     4
 74
     0
 42
0.00000001
 43
0.00000001
 40
0.0
 40
0.0
 40
0.0
 40
0.0
 40
1.0
 40
1.0
 40
1.0
 40
1.0
 10
0.56197195590197
 20
-34.03978273437906
 30
0.0
 10
0.5009972121190077
 20
-33.45272095850807
 30
0.0
 10
0.3892431137951322
 20
-32.91035567089727
 30
0.0
 10
0.4097379340995931
 20
-32.31245563887509
 30
0.0
  0
SPLINE
  5
F8
330
77
100
AcDbEntity
  8
0
  6
Continuous
 62
     7
370
    18
100
AcDbSpline
210
0.0
220
0.0
230
1.0
 70
     8
 71
     3
 72
     8
 73
     4
 74
     0
 42
0.00000001
 43
0.00000001
 40
0.0
 40
0.0
 40
0.0
 40
0.0
 40
1.0
 40
1.0
 40
1.0
 40
1.0
 10
-13.20041683738652
 20
-13.00201936979761
 30
0.0
 10
-12.32154115485279
 20
-14.45520144446019
 30
0.0
 10
-7.761960537329054
 20
-16.44470317690969
 30
0.0
 10
-5.320322465359877
 20
-16.96155007555379
 30
0.0
  0
SPLINE
  5
F9
330
77
100
AcDbEntity
  8
0
  6
Continuous
 62
     7
370
    18
100
AcDbSpline
210
0.0
220
0.0
230
1.0
 70
     8
 71
     3
 72
     8
 73
     4
 74
     0
 42
0.00000001
 43
0.00000001
 40
1.0
 40
1.0
 40
1.0
 40
1.0
 40
2.0
 40
2.0
 40
2.0
 40
2.0
 10
-5.320322465359877
 20
-16.96155007555379
 30
0.0
 10
-5.809512907815261
 20
-18.73302606223522
 30
0.0
 10
-4.10582967731771
 20
-21.71579823494536
 30
0.0
 10
-3.813304494022616
 20
-22.3920269991983
 30
0.0
  0
SPLINE
  5
FA
330
77
100
AcDbEntity
  8
0
  6
Continuous
 62
     7
370
    18
100
AcDbSpline
210
0.0
220
0.0
230
1.0
 70
     8
 71
     2
 72
     6
 73
     3
 74
     0
 42
0.00000001
 43
0.00000001
 40
2.0
 40
2.0
 40
2.0
 40
3.0
 40
3.0
 40
3.0
 10
-3.813304494022616
 20
-22.3920269991983
 30
0.0
 10
-6.043590765584354
 20
-20.10932636703633
 30
0.0
 10
-6.677555282416556
 20
-17.81074155341886
 30
0.0
  0
SPLINE
  5
FB
330
77
100
AcDbEntity
  8
0
  6
Continuous
 62
     7
370
    18
100
AcDbSpline
210
0.0
220
0.0
230
1.0
 70
     8
 71
     2
 72
     6
 73
     3
 74
     0
 42
0.00000001
 43
0.00000001
 40
3.0
 40
3.0
 40
3.0
 40
4.0
 40
4.0
 40
4.0
 10
-6.677555282416556
 20
-17.81074155341886
 30
0.0
 10
-11.75039520923077
 20
-15.65450427384786
 30
0.0
 10
-13.20041683738652
 20
-13.00201936979761
 30
0.0
  0
SPLINE
  5
FC
330
77
100
AcDbEntity
  8
0
  6
Continuous
 62
     7
370
    18
100
AcDbSpline
210
0.0
220
0.0
230
1.0
 70
     8
 71
     2
 72
     6
 73
     3
 74
     0
 42
0.00000001
 43
0.00000001
 40
1.0
 40
1.0
 40
1.0
 40
2.0
 40
2.0
 40
2.0
 10
-1.349158294773173
 20
-16.43790442263529
 30
0.0
 10
-3.425676913677115
 20
-15.05901031383733
 30
0.0
 10
-4.497614924678368
 20
-14.22616249714356
 30
0.0
  0
SPLINE
  5
FD
330
77
100
AcDbEntity
  8
0
  6
Continuous
 62
     7
370
    18
100
AcDbSpline
210
0.0
220
0.0
230
1.0
 70
     8
 71
     3
 72
     8
 73
     4
 74
     0
 42
0.00000001
 43
0.00000001
 40
2.0
 40
2.0
 40
2.0
 40
2.0
 40
3.0
 40
3.0
 40
3.0
 40
3.0
 10
-4.497614924678368
 20
-14.22616249714356
 30
0.0
 10
-7.183559023213449
 20
-14.35196557735811
 30
0.0
 10
-9.97328197261404
 20
-14.40422605275014
 30
0.0
 10
-12.84833062834044
 20
-12.05192229234568
 30
0.0
  0
SPLINE
  5
FE
330
77
100
AcDbEntity
  8
0
  6
Continuous
 62
     7
370
    18
100
AcDbSpline
210
0.0
220
0.0
230
1.0
 70
     8
 71
     2
 72
     6
 73
     3
 74
     0
 42
0.00000001
 43
0.00000001
 40
3.0
 40
3.0
 40
3.0
 40
4.0
 40
4.0
 40
4.0
 10
-12.84833062834044
 20
-12.05192229234568
 30
0.0
 10
-8.926716496317836
 20
-15.30072905894997
 30
0.0
 10
-5.163233750484998
 20
-14.64433050232701
 30
0.0
  0
SPLINE
  5
FF
330
77
100
AcDbEntity
  8
0
  6
Continuous
 62
     7
370
    18
100
AcDbSpline
210
0.0
220
0.0
230
1.0
 70
     8
 71
     2
 72
     6
 73
     3
 74
     0
 42
0.00000001
 43
0.00000001
 40
4.0
 40
4.0
 40
4.0
 40
5.0
 40
5.0
 40
5.0
 10
-5.163233750484998
 20
-14.64433050232701
 30
0.0
 10
-3.522925431558867
 20
-15.98679375933487
 30
0.0
 10
-2.117352433414995
 20
-16.92051428596087
 30
0.0
  0
SPLINE
  5
100
330
77
100
AcDbEntity
  8
0
  6
Continuous
 62
     7
370
    18
100
AcDbSpline
210
0.0
220
0.0
230
1.0
 70
     8
 71
     3
 72
     8
 73
     4
 74
     0
 42
0.00000001
 43
0.00000001
 40
5.0
 40
5.0
 40
5.0
 40
5.0
 40
6.0
 40
6.0
 40
6.0
 40
6.0
 10
-2.117352433414995
 20
-16.92051428596087
 30
0.0
 10
-2.267881806210096
 20
-17.81976104868603
 30
0.0
 10
-2.407277268150154
 20
-19.21016616381927
 30
0.0
 10
-1.664620714277922
 20
-20.81035712110292
 30
0.0
  0
SPLINE
  5
101
330
77
100
AcDbEntity
  8
0
  6
Continuous
 62
     7
370
    18
100
AcDbSpline
210
0.0
220
0.0
230
1.0
 70
     8
 71
     3
 72
     8
 73
     4
 74
     0
 42
0.00000001
 43
0.00000001
 40
6.0
 40
6.0
 40
6.0
 40
6.0
 40
7.0
 40
7.0
 40
7.0
 40
7.0
 10
-1.664620714277922
 20
-20.81035712110292
 30
0.0
 10
-1.664312426395075
 20
-20.81130019442271
 30
0.0
 10
-1.664085644523588
 20
-20.81229447303425
 30
0.0
 10
-1.663777356640795
 20
-20.813237546354
 30
0.0
  0
SPLINE
  5
102
330
77
100
AcDbEntity
  8
0
  6
Continuous
 62
     7
370
    18
100
AcDbSpline
210
0.0
220
0.0
230
1.0
 70
     8
 71
     3
 72
     8
 73
     4
 74
     0
 42
0.00000001
 43
0.00000001
 40
7.0
 40
7.0
 40
7.0
 40
7.0
 40
8.0
 40
8.0
 40
8.0
 40
8.0
 10
-1.663777356640795
 20
-20.813237546354
 30
0.0
 10
-1.662901112489764
 20
-20.81490372147473
 30
0.0
 10
-1.661968964973327
 20
-20.81647793829811
 30
0.0
 10
-1.661092720823347
 20
-20.81814411341701
 30
0.0
  0
SPLINE
  5
103
330
77
100
AcDbEntity
  8
0
  6
Continuous
 62
     7
370
    18
100
AcDbSpline
210
0.0
220
0.0
230
1.0
 70
     8
 71
     3
 72
     8
 73
     4
 74
     0
 42
0.00000001
 43
0.00000001
 40
8.0
 40
8.0
 40
8.0
 40
8.0
 40
9.0
 40
9.0
 40
9.0
 40
9.0
 10
-1.661092720823347
 20
-20.81814411341701
 30
0.0
 10
-1.229373968722224
 20
-21.74517157116296
 30
0.0
 10
-0.5004685823514314
 20
-22.74228692212668
 30
0.0
 10
0.6942959165096505
 20
-23.75544460571742
 30
0.0
  0
SPLINE
  5
104
330
77
100
AcDbEntity
  8
0
  6
Continuous
 62
     7
370
    18
100
AcDbSpline
210
0.0
220
0.0
230
1.0
 70
     8
 71
     2
 72
     6
 73
     3
 74
     0
 42
0.00000001
 43
0.00000001
 40
9.0
 40
9.0
 40
9.0
 40
10.0
 40
10.0
 40
10.0
 10
0.6942959165096505
 20
-23.75544460571742
 30
0.0
 10
1.573046591396742
 20
-24.52641591715609
 30
0.0
 10
2.277251563960161
 20
-24.90565086721784
 30
0.0
  0
SPLINE
  5
105
330
77
100
AcDbEntity
  8
0
  6
Continuous
 62
     7
370
    18
100
AcDbSpline
210
0.0
220
0.0
230
1.0
 70
     8
 71
     3
 72
     8
 73
     4
 74
     0
 42
0.00000001
 43
0.00000001
 40
10.0
 40
10.0
 40
10.0
 40
10.0
 40
11.0
 40
11.0
 40
11.0
 40
11.0
 10
2.277251563960161
 20
-24.90565086721784
 30
0.0
 10
-0.3444737072681864
 20
-23.07744411042371
 30
0.0
 10
-1.384783611401682
 20
-21.0299715722269
 30
0.0
 10
-1.791077823248111
 20
-19.55173176913453
 30
0.0
  0
SPLINE
  5
106
330
77
100
AcDbEntity
  8
0
  6
Continuous
 62
     7
370
    18
100
AcDbSpline
210
0.0
220
0.0
230
1.0
 70
     8
 71
     3
 72
     8
 73
     4
 74
     0
 42
0.00000001
 43
0.00000001
 40
11.0
 40
11.0
 40
11.0
 40
11.0
 40
12.0
 40
12.0
 40
12.0
 40
12.0
 10
-1.791077823248111
 20
-19.55173176913453
 30
0.0
 10
-1.952004736442718
 20
-18.58763900877485
 30
0.0
 10
-1.857645689601465
 20
-17.53728176305358
 30
0.0
 10
-1.344635895048667
 20
-16.44003656241194
 30
0.0
  0
SPLINE
  5
107
330
77
100
AcDbEntity
  8
0
  6
Continuous
 62
     7
370
    18
100
AcDbSpline
210
0.0
220
0.0
230
1.0
 70
     8
 71
     3
 72
     8
 73
     4
 74
     0
 42
0.00000001
 43
0.00000001
 40
1.0
 40
1.0
 40
1.0
 40
1.0
 40
2.0
 40
2.0
 40
2.0
 40
2.0
 10
9.282072433202625
 20
-23.83234642604633
 30
0.0
 10
9.542961528798338
 20
-23.25329859518931
 30
0.0
 10
9.985495514983219
 20
-22.47632608388373
 30
0.0
 10
10.62007177823641
 20
-22.03794594188311
 30
0.0
  0
SPLINE
  5
108
330
77
100
AcDbEntity
  8
0
  6
Continuous
 62
     7
370
    18
100
AcDbSpline
210
0.0
220
0.0
230
1.0
 70
     8
 71
     3
 72
     8
 73
     4
 74
     0
 42
0.00000001
 43
0.00000001
 40
4.0
 40
4.0
 40
4.0
 40
4.0
 40
5.0
 40
5.0
 40
5.0
 40
5.0
 10
13.17134989821584
 20
-22.77125005992538
 30
0.0
 10
13.91734338198129
 20
-21.59974891081312
 30
0.0
 10
11.03631975087138
 20
-19.45853573582023
 30
0.0
 10
8.91093208540684
 20
-21.00902899615352
 30
0.0
  0
SPLINE
  5
109
330
77
100
AcDbEntity
  8
0
  6
Continuous
 62
     7
370
    18
100
AcDbSpline
210
0.0
220
0.0
230
1.0
 70
     8
 71
     3
 72
     8
 73
     4
 74
     0
 42
0.00000001
 43
0.00000001
 40
5.0
 40
5.0
 40
5.0
 40
5.0
 40
6.0
 40
6.0
 40
6.0
 40
6.0
 10
8.91093208540684
 20
-21.00902899615352
 30
0.0
 10
6.785544419941263
 20
-22.55952225648562
 30
0.0
 10
6.138264936105684
 20
-26.41214330901684
 30
0.0
 10
0.7891610119816483
 20
-30.05141434614796
 30
0.0
  0
SPLINE
  5
10A
330
77
100
AcDbEntity
  8
0
  6
Continuous
 62
     7
370
    18
100
AcDbSpline
210
0.0
220
0.0
230
1.0
 70
     8
 71
     2
 72
     6
 73
     3
 74
     0
 42
0.00000001
 43
0.00000001
 40
6.0
 40
6.0
 40
6.0
 40
7.0
 40
7.0
 40
7.0
 10
0.7891610119816483
 20
-30.05141434614796
 30
0.0
 10
2.027957268008918
 20
-29.56317356732477
 30
0.0
 10
2.266152999548186
 20
-29.47098631967676
 30
0.0
  0
SPLINE
  5
10B
330
77
100
AcDbEntity
  8
0
  6
Continuous
 62
     7
370
    18
100
AcDbSpline
210
0.0
220
0.0
230
1.0
 70
     8
 71
     3
 72
     8
 73
     4
 74
     0
 42
0.00000001
 43
0.00000001
 40
7.0
 40
7.0
 40
7.0
 40
7.0
 40
8.0
 40
8.0
 40
8.0
 40
8.0
 10
2.266152999548186
 20
-29.47098631967676
 30
0.0
 10
3.014801417132293
 20
-29.18122818076082
 30
0.0
 10
3.736118100429408
 20
-28.82241116458091
 30
0.0
 10
4.431146345693874
 20
-28.42149782758251
 30
0.0
  0
SPLINE
  5
10C
330
77
100
AcDbEntity
  8
0
  6
Continuous
 62
     7
370
    18
100
AcDbSpline
210
0.0
220
0.0
230
1.0
 70
     8
 71
     3
 72
     8
 73
     4
 74
     0
 42
0.00000001
 43
0.00000001
 40
9.0
 40
9.0
 40
9.0
 40
9.0
 40
10.0
 40
10.0
 40
10.0
 40
10.0
 10
5.741401688969916
 20
-27.62554000024407
 30
0.0
 10
7.060991710032899
 20
-26.77804674712032
 30
0.0
 10
8.443973707032603
 20
-26.09970911999108
 30
0.0
 10
9.267426036511852
 20
-23.87039661735003
 30
0.0
  0
SPLINE
  5
10D
330
77
100
AcDbEntity
  8
0
  6
Continuous
 62
     7
370
    18
100
AcDbSpline
210
0.0
220
0.0
230
1.0
 70
     8
 71
     3
 72
     8
 73
     4
 74
     0
 42
0.00000001
 43
0.00000001
 40
0.0
 40
0.0
 40
0.0
 40
0.0
 40
1.0
 40
1.0
 40
1.0
 40
1.0
 10
7.616643966539248
 20
-16.14063575935378
 30
0.0
 10
6.913790166466484
 20
-16.14488777689968
 30
0.0
 10
6.697443007890195
 20
-16.79416276836541
 30
0.0
 10
6.436018843175425
 20
-17.3230129233678
 30
0.0
  0
SPLINE
  5
10E
330
77
100
AcDbEntity
  8
0
  6
Continuous
 62
     7
370
    18
100
AcDbSpline
210
0.0
220
0.0
230
1.0
 70
     8
 71
     3
 72
     8
 73
     4
 74
     0
 42
0.00000001
 43
0.00000001
 40
1.0
 40
1.0
 40
1.0
 40
1.0
 40
2.0
 40
2.0
 40
2.0
 40
2.0
 10
6.436018843175425
 20
-17.3230129233678
 30
0.0
 10
5.948216897681968
 20
-18.30992905460965
 30
0.0
 10
5.052555161752526
 20
-19.5995436994
 30
0.0
 10
5.103926613042106
 20
-20.75366969743216
 30
0.0
  0
SPLINE
  5
10F
330
77
100
AcDbEntity
  8
0
  6
Continuous
 62
     7
370
    18
100
AcDbSpline
210
0.0
220
0.0
230
1.0
 70
     8
 71
     2
 72
     6
 73
     3
 74
     0
 42
0.00000001
 43
0.00000001
 40
2.0
 40
2.0
 40
2.0
 40
3.0
 40
3.0
 40
3.0
 10
5.103926613042106
 20
-20.75366969743216
 30
0.0
 10
5.110006812763316
 20
-21.55270934533252
 30
0.0
 10
5.893010450029737
 20
-21.89666129361517
 30
0.0
  0
SPLINE
  5
110
330
77
100
AcDbEntity
  8
0
  6
Continuous
 62
     7
370
    18
100
AcDbSpline
210
0.0
220
0.0
230
1.0
 70
     8
 71
     2
 72
     6
 73
     3
 74
     0
 42
0.00000001
 43
0.00000001
 40
3.0
 40
3.0
 40
3.0
 40
4.0
 40
4.0
 40
4.0
 10
5.893010450029737
 20
-21.89666129361517
 30
0.0
 10
5.064669634616712
 20
-21.16070169146862
 30
0.0
 10
5.897476922257513
 20
-19.59962191921445
 30
0.0
  0
SPLINE
  5
111
330
77
100
AcDbEntity
  8
0
  6
Continuous
 62
     7
370
    18
100
AcDbSpline
210
0.0
220
0.0
230
1.0
 70
     8
 71
     3
 72
     8
 73
     4
 74
     0
 42
0.00000001
 43
0.00000001
 40
4.0
 40
4.0
 40
4.0
 40
4.0
 40
5.0
 40
5.0
 40
5.0
 40
5.0
 10
5.897476922257513
 20
-19.59962191921445
 30
0.0
 10
6.365882597961094
 20
-18.72160531632978
 30
0.0
 10
6.783564254303969
 20
-18.1502556103958
 30
0.0
 10
6.961063665415703
 20
-17.79297771071811
 30
0.0
  0
SPLINE
  5
112
330
77
100
AcDbEntity
  8
0
  6
Continuous
 62
     7
370
    18
100
AcDbSpline
210
0.0
220
0.0
230
1.0
 70
     8
 71
     3
 72
     8
 73
     4
 74
     0
 42
0.00000001
 43
0.00000001
 40
5.0
 40
5.0
 40
5.0
 40
5.0
 40
6.0
 40
6.0
 40
6.0
 40
6.0
 10
6.961063665415703
 20
-17.79297771071811
 30
0.0
 10
6.969564036079641
 20
-17.77592889764838
 30
0.0
 10
6.978008503380095
 20
-17.75897204287472
 30
0.0
 10
6.986317910343667
 20
-17.74207161953264
 30
0.0
  0
SPLINE
  5
113
330
77
100
AcDbEntity
  8
0
  6
Continuous
 62
     7
370
    18
100
AcDbSpline
210
0.0
220
0.0
230
1.0
 70
     8
 71
     2
 72
     6
 73
     3
 74
     0
 42
0.00000001
 43
0.00000001
 40
6.0
 40
6.0
 40
6.0
 40
7.0
 40
7.0
 40
7.0
 10
6.986317910343667
 20
-17.74207161953264
 30
0.0
 10
7.02365081475716
 20
-17.66624177102196
 30
0.0
 10
7.044485288742809
 20
-17.62223308004855
 30
0.0
  0
SPLINE
  5
114
330
77
100
AcDbEntity
  8
0
  6
Continuous
 62
     7
370
    18
100
AcDbSpline
210
0.0
220
0.0
230
1.0
 70
     8
 71
     3
 72
     8
 73
     4
 74
     0
 42
0.00000001
 43
0.00000001
 40
8.0
 40
8.0
 40
8.0
 40
8.0
 40
9.0
 40
9.0
 40
9.0
 40
9.0
 10
7.043747273343362
 20
-17.62187258528872
 30
0.0
 10
7.259429684873595
 20
-17.1682239392887
 30
0.0
 10
7.409758570724429
 20
-16.77384940600867
 30
0.0
 10
7.501213874593598
 20
-16.5071459647044
 30
0.0
  0
SPLINE
  5
115
330
77
100
AcDbEntity
  8
0
  6
Continuous
 62
     7
370
    18
100
AcDbSpline
210
0.0
220
0.0
230
1.0
 70
     8
 71
     2
 72
     6
 73
     3
 74
     0
 42
0.00000001
 43
0.00000001
 40
9.0
 40
9.0
 40
9.0
 40
10.0
 40
10.0
 40
10.0
 10
7.501213874593598
 20
-16.5071459647044
 30
0.0
 10
7.58018144071422
 20
-16.27701921792476
 30
0.0
 10
7.616643966539248
 20
-16.14063575935378
 30
0.0
  0
SPLINE
  5
116
330
77
100
AcDbEntity
  8
0
  6
Continuous
 62
     7
370
    18
100
AcDbSpline
210
0.0
220
0.0
230
1.0
 70
     8
 71
     2
 72
     6
 73
     3
 74
     0
 42
0.00000001
 43
0.00000001
 40
0.0
 40
0.0
 40
0.0
 40
1.0
 40
1.0
 40
1.0
 10
0.3944126526828438
 20
-2.906969795378479
 30
0.0
 10
-0.9260675992531606
 20
-7.098093552135839
 30
0.0
 10
3.694246552495818
 20
-15.91394980485279
 30
0.0
  0
SPLINE
  5
117
330
77
100
AcDbEntity
  8
0
  6
Continuous
 62
     7
370
    18
100
AcDbSpline
210
0.0
220
0.0
230
1.0
 70
     8
 71
     3
 72
     8
 73
     4
 74
     0
 42
0.00000001
 43
0.00000001
 40
1.0
 40
1.0
 40
1.0
 40
1.0
 40
2.0
 40
2.0
 40
2.0
 40
2.0
 10
3.694246552495818
 20
-15.91394980485279
 30
0.0
 10
3.446899321752916
 20
-17.12012815823227
 30
0.0
 10
3.357918547908363
 20
-18.01529334045489
 30
0.0
 10
3.369570932292986
 20
-18.71508939083513
 30
0.0
  0
SPLINE
  5
118
330
77
100
AcDbEntity
  8
0
  6
Continuous
 62
     7
370
    18
100
AcDbSpline
210
0.0
220
0.0
230
1.0
 70
     8
 71
     3
 72
     8
 73
     4
 74
     0
 42
0.00000001
 43
0.00000001
 40
4.0
 40
4.0
 40
4.0
 40
4.0
 40
5.0
 40
5.0
 40
5.0
 40
5.0
 10
3.371167179561167
 20
-18.80258270306617
 30
0.0
 10
3.375320776009459
 20
-18.94553433452855
 30
0.0
 10
3.384065732186145
 20
-19.07969038264685
 30
0.0
 10
3.396375939104116
 20
-19.20694591668476
 30
0.0
  0
SPLINE
  5
119
330
77
100
AcDbEntity
  8
0
  6
Continuous
 62
     7
370
    18
100
AcDbSpline
210
0.0
220
0.0
230
1.0
 70
     8
 71
     2
 72
     6
 73
     3
 74
     0
 42
0.00000001
 43
0.00000001
 40
6.0
 40
6.0
 40
6.0
 40
7.0
 40
7.0
 40
7.0
 10
3.414912572583571
 20
-19.50415597158925
 30
0.0
 10
3.463733909636759
 20
-20.44034883554467
 30
0.0
 10
4.199514098340574
 20
-21.43655542025973
 30
0.0
  0
SPLINE
  5
11A
330
77
100
AcDbEntity
  8
0
  6
Continuous
 62
     7
370
    18
100
AcDbSpline
210
0.0
220
0.0
230
1.0
 70
     8
 71
     3
 72
     8
 73
     4
 74
     0
 42
0.00000001
 43
0.00000001
 40
7.0
 40
7.0
 40
7.0
 40
7.0
 40
8.0
 40
8.0
 40
8.0
 40
8.0
 10
4.199514098340574
 20
-21.43655542025973
 30
0.0
 10
4.209530614512485
 20
-21.44734234739126
 30
0.0
 10
4.217448187290456
 20
-21.45279791477912
 30
0.0
 10
4.226419929838382
 20
-21.46074569773323
 30
0.0
  0
SPLINE
  5
11B
330
77
100
AcDbEntity
  8
0
  6
Continuous
 62
     7
370
    18
100
AcDbSpline
210
0.0
220
0.0
230
1.0
 70
     8
 71
     2
 72
     6
 73
     3
 74
     0
 42
0.00000001
 43
0.00000001
 40
8.0
 40
8.0
 40
8.0
 40
9.0
 40
9.0
 40
9.0
 10
4.226419929838382
 20
-21.46074569773323
 30
0.0
 10
4.602113169577764
 20
-21.92169141031366
 30
0.0
 10
5.25588783635365
 20
-22.1084696061984
 30
0.0
  0
SPLINE
  5
11C
330
77
100
AcDbEntity
  8
0
  6
Continuous
 62
     7
370
    18
100
AcDbSpline
210
0.0
220
0.0
230
1.0
 70
     8
 71
     3
 72
     8
 73
     4
 74
     0
 42
0.00000001
 43
0.00000001
 40
9.0
 40
9.0
 40
9.0
 40
9.0
 40
10.0
 40
10.0
 40
10.0
 40
10.0
 10
5.25588783635365
 20
-22.1084696061984
 30
0.0
 10
4.722803653588975
 20
-21.69473771792311
 30
0.0
 10
4.555729374077984
 20
-21.23618402102321
 30
0.0
 10
4.5115397999614
 20
-20.91388289798429
 30
0.0
  0
SPLINE
  5
11D
330
77
100
AcDbEntity
  8
0
  6
Continuous
 62
     7
370
    18
100
AcDbSpline
210
0.0
220
0.0
230
1.0
 70
     8
 71
     3
 72
     8
 73
     4
 74
     0
 42
0.00000001
 43
0.00000001
 40
10.0
 40
10.0
 40
10.0
 40
10.0
 40
11.0
 40
11.0
 40
11.0
 40
11.0
 10
4.5115397999614
 20
-20.91388289798429
 30
0.0
 10
4.511444436489974
 20
-20.91345968950935
 30
0.0
 10
4.511458530710389
 20
-20.91293929659483
 30
0.0
 10
4.51136316724085
 20
-20.91251608811877
 30
0.0
  0
SPLINE
  5
11E
330
77
100
AcDbEntity
  8
0
  6
Continuous
 62
     7
370
    18
100
AcDbSpline
210
0.0
220
0.0
230
1.0
 70
     8
 71
     3
 72
     8
 73
     4
 74
     0
 42
0.00000001
 43
0.00000001
 40
11.0
 40
11.0
 40
11.0
 40
11.0
 40
12.0
 40
12.0
 40
12.0
 40
12.0
 10
4.51136316724085
 20
-20.91251608811877
 30
0.0
 10
4.492940501693147
 20
-20.77725000285986
 30
0.0
 10
4.49631721425359
 20
-20.66736453587088
 30
0.0
 10
4.503170896062897
 20
-20.59377375245777
 30
0.0
  0
SPLINE
  5
11F
330
77
100
AcDbEntity
  8
0
  6
Continuous
 62
     7
370
    18
100
AcDbSpline
210
0.0
220
0.0
230
1.0
 70
     8
 71
     3
 72
     8
 73
     4
 74
     0
 42
0.00000001
 43
0.00000001
 40
12.0
 40
12.0
 40
12.0
 40
12.0
 40
13.0
 40
13.0
 40
13.0
 40
13.0
 10
4.503170896062897
 20
-20.59377375245777
 30
0.0
 10
4.604013649449088
 20
-19.7965617294209
 30
0.0
 10
5.139276617404003
 20
-18.9096664850367
 30
0.0
 10
5.595548611273902
 20
-17.9099700673493
 30
0.0
  0
SPLINE
  5
120
330
77
100
AcDbEntity
  8
0
  6
Continuous
 62
     7
370
    18
100
AcDbSpline
210
0.0
220
0.0
230
1.0
 70
     8
 71
     2
 72
     6
 73
     3
 74
     0
 42
0.00000001
 43
0.00000001
 40
13.0
 40
13.0
 40
13.0
 40
14.0
 40
14.0
 40
14.0
 10
5.595548611273902
 20
-17.9099700673493
 30
0.0
 10
5.926118360772201
 20
-17.18568850106854
 30
0.0
 10
5.606497978493191
 20
-16.05075397327447
 30
0.0
  0
SPLINE
  5
121
330
77
100
AcDbEntity
  8
0
  6
Continuous
 62
     7
370
    18
100
AcDbSpline
210
0.0
220
0.0
230
1.0
 70
     8
 71
     3
 72
     8
 73
     4
 74
     0
 42
0.00000001
 43
0.00000001
 40
14.0
 40
14.0
 40
14.0
 40
14.0
 40
15.0
 40
15.0
 40
15.0
 40
15.0
 10
5.606497978493191
 20
-16.05075397327447
 30
0.0
 10
5.207525970226131
 20
-14.79026275050278
 30
0.0
 10
4.519773960143639
 20
-13.82671693217636
 30
0.0
 10
3.665223439147876
 20
-12.83569943160955
 30
0.0
  0
SPLINE
  5
122
330
77
100
AcDbEntity
  8
0
  6
Continuous
 62
     7
370
    18
100
AcDbSpline
210
0.0
220
0.0
230
1.0
 70
     8
 71
     3
 72
     8
 73
     4
 74
     0
 42
0.00000001
 43
0.00000001
 40
15.0
 40
15.0
 40
15.0
 40
15.0
 40
16.0
 40
16.0
 40
16.0
 40
16.0
 10
3.665223439147876
 20
-12.83569943160955
 30
0.0
 10
2.198391383191843
 20
-11.13462081873923
 30
0.0
 10
0.0517992661647096
 20
-7.209063579032926
 30
0.0
 10
0.3944126526828438
 20
-2.906969795378479
 30
0.0
  0
ENDBLK
  5
79
330
77
100
AcDbEntity
  8
0
100
AcDbBlockEnd
  0
ENDSEC
  0
SECTION
  2
ENTITIES
  0
LINE
  5
123
330
1F
100
AcDbEntity
  8
0
  6
Continuous
 62
     7
370
    25
100
AcDbLine
 10
55.9241873466
 20
46.2386689012
 30
0.0
 11
955.9241873466
 21
46.2386689012
 31
0.0
  0
SPLINE
  5
124
330
1F
100
AcDbEntity
  8
0
  6
Continuous
 62
     7
370
    25
100
AcDbSpline
210
0.0
220
0.0
230
1.0
 70
     8
 71
     3
 72
     9
 73
     5
 74
     0
 42
0.00000001
 43
0.00000001
 40
0.0
 40
0.0
 40
0.0
 40
0.0
 40
0.0418476696971436
 40
0.9999999999999999
 40
0.9999999999999999
 40
0.9999999999999999
 40
0.9999999999999999
 10
516.2434973621445
 20
44.97981254785116
 30
0.0
 10
516.2482633251186
 20
44.99738448303847
 30
0.0
 10
516.362151697127
 20
45.41728684115071
 30
0.0
 10
516.5886280982048
 20
45.8367547483679
 30
0.0
 10
516.805626989656
 20
46.23866890115508
 30
0.0
  0
LINE
  5
125
330
1F
100
AcDbEntity
  8
0
  6
Continuous
 62
     7
370
    25
100
AcDbLine
 10
495.0570206618
 20
46.2386689012
 30
0.0
 11
495.383074443
 21
45.4738045964
 31
0.0
  0
ARC
  5
126
330
1F
100
AcDbEntity
  8
0
  6
Continuous
 62
     7
370
    25
100
AcDbCircle
 10
495.2893840862
 20
34.7742042455
 30
0.0
 40
1.00000000000002
100
AcDbArc
 50
190.6555437002
 51
253.8963089622
  0
ARC
  5
127
330
1F
100
AcDbEntity
  8
0
  6
Continuous
 62
     7
370
    25
100
AcDbCircle
 10
516.5589906071
 20
34.7742042455
 30
0.0
 40
1.000000000000076
100
AcDbArc
 50
286.1036910378
 51
349.3444562998
  0
SPLINE
  5
128
330
1F
100
AcDbEntity
  8
0
  6
Continuous
 62
     7
370
    25
100
AcDbSpline
210
0.0
220
0.0
230
1.0
 70
     8
 71
     3
 72
    17
 73
    13
 74
     0
 42
0.00000001
 43
0.00000001
 40
0.0
 40
0.0
 40
0.0
 40
0.0
 40
0.0568462585242052
 40
0.1651287268936509
 40
0.2731860223960734
 40
0.3810465461657297
 40
0.4887964340201443
 40
0.596512020707358
 40
0.7042562858008256
 40
0.812088867465524
 40
0.9200909108884666
 40
1.0
 40
1.0
 40
1.0
 40
1.0
 10
495.0120075393647
 20
33.81344295817756
 30
0.0
 10
495.3817806651873
 20
33.71132439763291
 30
0.0
 10
496.4559087976579
 20
33.41468732190034
 30
0.0
 10
498.35612845988
 20
33.01547046188868
 30
0.0
 10
500.7235368859455
 20
32.66355674732502
 30
0.0
 10
503.1732355438969
 20
32.44605167479353
 30
0.0
 10
505.6640338643115
 20
32.36356031527271
 30
0.0
 10
508.1580900566576
 20
32.41768899635389
 30
0.0
 10
510.6175574928753
 20
32.60684661883173
 30
0.0
 10
513.0008136866327
 20
32.93096430506937
 30
0.0
 10
515.0853966595723
 20
33.33795887031399
 30
0.0
 10
516.3139329015512
 20
33.67157353504485
 30
0.0
 10
516.836367153918
 20
33.81344295817756
 30
0.0
  0
SPLINE
  5
129
330
1F
100
AcDbEntity
  8
0
  6
Continuous
 62
     7
370
    25
100
AcDbSpline
210
0.0
220
0.0
230
1.0
 70
     8
 71
     3
 72
    10
 73
     6
 74
     0
 42
0.00000001
 43
0.00000001
 40
0.0
 40
0.0
 40
0.0
 40
0.0
 40
0.1102503612154871
 40
0.7179885112989709
 40
1.0
 40
1.0
 40
1.0
 40
1.0
 10
491.7819310564125
 20
46.16314070726507
 30
0.0
 10
491.8901138689781
 20
45.73195687176273
 30
0.0
 10
492.5946377878639
 20
42.92393849671755
 30
0.0
 10
493.4627642798893
 20
39.03951518400084
 30
0.0
 10
494.0795833144693
 20
35.67245014019604
 30
0.0
 10
494.2750878099122
 20
34.6052386638826
 30
0.0
  0
SPLINE
  5
12A
330
1F
100
AcDbEntity
  8
0
  6
Continuous
 62
     7
370
    25
100
AcDbSpline
210
0.0
220
0.0
230
1.0
 70
     8
 71
     3
 72
     9
 73
     5
 74
     0
 42
0.00000001
 43
0.00000001
 40
0.0
 40
0.0
 40
0.0
 40
0.0
 40
0.5245004331693323
 40
1.0
 40
1.0
 40
1.0
 40
1.0
 10
517.5426218714866
 20
34.58965552717363
 30
0.0
 10
517.9323494566485
 20
36.59019740433666
 30
0.0
 10
518.6753947632214
 20
40.40438277130526
 30
0.0
 10
519.6230578499008
 20
44.30915419232961
 30
0.0
 10
520.0736712371182
 20
46.1658713115995
 30
0.0
  0
SPLINE
  5
12B
330
1F
100
AcDbEntity
  8
0
  6
Continuous
 62
     7
370
    25
100
AcDbSpline
210
0.0
220
0.0
230
1.0
 70
     8
 71
     3
 72
     9
 73
     5
 74
     0
 42
0.00000001
 43
0.00000001
 40
0.0
 40
0.0
 40
0.0
 40
0.0
 40
0.0418476696374902
 40
1.0
 40
1.0
 40
1.0
 40
1.0
 10
666.2434973621436
 20
44.97981254784361
 30
0.0
 10
666.2482633251179
 20
44.99738448303086
 30
0.0
 10
666.3621516972909
 20
45.41728684174134
 30
0.0
 10
666.5886280986937
 20
45.83675474955678
 30
0.0
 10
666.80562699047
 20
46.23866890294226
 30
0.0
  0
LINE
  5
12C
330
1F
100
AcDbEntity
  8
0
  6
Continuous
 62
     7
370
    25
100
AcDbLine
 10
645.057020661
 20
46.2386689029
 30
0.0
 11
645.383074443
 21
45.4738045964
 31
0.0
  0
ARC
  5
12D
330
1F
100
AcDbEntity
  8
0
  6
Continuous
 62
     7
370
    25
100
AcDbCircle
 10
645.2893840862
 20
34.7742042455
 30
0.0
 40
1.000000000000076
100
AcDbArc
 50
190.6555437002
 51
253.8963089622
  0
ARC
  5
12E
330
1F
100
AcDbEntity
  8
0
  6
Continuous
 62
     7
370
    25
100
AcDbCircle
 10
666.5589906071
 20
34.7742042455
 30
0.0
 40
1.000000000000004
100
AcDbArc
 50
286.1036910378
 51
349.3444562998
  0
SPLINE
  5
12F
330
1F
100
AcDbEntity
  8
0
  6
Continuous
 62
     7
370
    25
100
AcDbSpline
210
0.0
220
0.0
230
1.0
 70
     8
 71
     3
 72
    17
 73
    13
 74
     0
 42
0.00000001
 43
0.00000001
 40
0.0
 40
0.0
 40
0.0
 40
0.0
 40
0.0568462585242051
 40
0.165128726893653
 40
0.2731860223960751
 40
0.3810465461657306
 40
0.4887964340201462
 40
0.5965120207073592
 40
0.7042562858008273
 40
0.8120888674655279
 40
0.9200909108884681
 40
1.0
 40
1.0
 40
1.0
 40
1.0
 10
645.0120075393638
 20
33.81344295817013
 30
0.0
 10
645.3817806651863
 20
33.71132439762542
 30
0.0
 10
646.4559087976569
 20
33.41468732189279
 30
0.0
 10
648.3561284598791
 20
33.01547046188141
 30
0.0
 10
650.7235368859446
 20
32.66355674731736
 30
0.0
 10
653.1732355438961
 20
32.44605167478603
 30
0.0
 10
655.6640338643105
 20
32.36356031526527
 30
0.0
 10
658.1580900566568
 20
32.41768899634629
 30
0.0
 10
660.6175574928744
 20
32.60684661882429
 30
0.0
 10
663.0008136866318
 20
32.93096430506176
 30
0.0
 10
665.0853966595714
 20
33.33795887030655
 30
0.0
 10
666.3139329015504
 20
33.67157353503719
 30
0.0
 10
666.8363671539172
 20
33.81344295817001
 30
0.0
  0
SPLINE
  5
130
330
1F
100
AcDbEntity
  8
0
  6
Continuous
 62
     7
370
    25
100
AcDbSpline
210
0.0
220
0.0
230
1.0
 70
     8
 71
     3
 72
     9
 73
     5
 74
     0
 42
0.00000001
 43
0.00000001
 40
0.0
 40
0.0
 40
0.0
 40
0.0
 40
0.524500433169323
 40
1.0
 40
1.0
 40
1.0
 40
1.0
 10
667.5426218714856
 20
34.58965552716603
 30
0.0
 10
667.9323494566476
 20
36.59019740432906
 30
0.0
 10
668.6753947632204
 20
40.4043827712976
 30
0.0
 10
669.6230578498999
 20
44.30915419232201
 30
0.0
 10
670.0736712371173
 20
46.16587131159178
 30
0.0
  0
SPLINE
  5
131
330
1F
100
AcDbEntity
  8
0
  6
Continuous
 62
     7
370
    25
100
AcDbSpline
210
0.0
220
0.0
230
1.0
 70
     8
 71
     3
 72
    10
 73
     6
 74
     0
 42
0.00000001
 43
0.00000001
 40
0.0
 40
0.0
 40
0.0
 40
0.0
 40
0.1102503612154894
 40
0.7179885112989609
 40
1.0
 40
1.0
 40
1.0
 40
1.0
 10
641.7819310564117
 20
46.16314070725763
 30
0.0
 10
641.8901138689772
 20
45.73195687175541
 30
0.0
 10
642.5946377878629
 20
42.92393849671
 30
0.0
 10
643.4627642798885
 20
39.0395151839934
 30
0.0
 10
644.0795833144684
 20
35.67245014018855
 30
0.0
 10
644.2750878099113
 20
34.60523866387516
 30
0.0
  0
LINE
  5
132
330
1F
100
AcDbEntity
  8
0
  6
Continuous
 62
     7
370
    25
100
AcDbLine
 10
345.057020661
 20
46.2386689029
 30
0.0
 11
345.383074443
 21
45.4738045964
 31
0.0
  0
SPLINE
  5
133
330
1F
100
AcDbEntity
  8
0
  6
Continuous
 62
     7
370
    25
100
AcDbSpline
210
0.0
220
0.0
230
1.0
 70
     8
 71
     3
 72
     9
 73
     5
 74
     0
 42
0.00000001
 43
0.00000001
 40
0.0
 40
0.0
 40
0.0
 40
0.0
 40
0.0418476696378131
 40
1.0
 40
1.0
 40
1.0
 40
1.0
 10
366.2434973621418
 20
44.97981254785316
 30
0.0
 10
366.2482633251161
 20
44.99738448304041
 30
0.0
 10
366.3621516972885
 20
45.41728684174772
 30
0.0
 10
366.5886280986895
 20
45.83675474955984
 30
0.0
 10
366.805626990464
 20
46.23866890294226
 30
0.0
  0
ARC
  5
134
330
1F
100
AcDbEntity
  8
0
  6
Continuous
 62
     7
370
    25
100
AcDbCircle
 10
345.2893840862
 20
34.7742042455
 30
0.0
 40
0.9999999999999817
100
AcDbArc
 50
190.6555437002
 51
253.8963089622
  0
ARC
  5
135
330
1F
100
AcDbEntity
  8
0
  6
Continuous
 62
     7
370
    25
100
AcDbCircle
 10
366.5589906071
 20
34.7742042455
 30
0.0
 40
0.9999999999999886
100
AcDbArc
 50
286.1036910378
 51
349.3444562998
  0
SPLINE
  5
136
330
1F
100
AcDbEntity
  8
0
  6
Continuous
 62
     7
370
    25
100
AcDbSpline
210
0.0
220
0.0
230
1.0
 70
     8
 71
     3
 72
    17
 73
    13
 74
     0
 42
0.00000001
 43
0.00000001
 40
0.0
 40
0.0
 40
0.0
 40
0.0
 40
0.0568462585242052
 40
0.1651287268936518
 40
0.2731860223960749
 40
0.3810465461657293
 40
0.4887964340201451
 40
0.5965120207073581
 40
0.7042562858008251
 40
0.8120888674655257
 40
0.9200909108884658
 40
1.0
 40
1.0
 40
1.0
 40
1.0
 10
345.0120075393621
 20
33.81344295817962
 30
0.0
 10
345.3817806651845
 20
33.71132439763502
 30
0.0
 10
346.4559087976552
 20
33.41468732190239
 30
0.0
 10
348.3561284598775
 20
33.01547046189107
 30
0.0
 10
350.7235368859428
 20
32.66355674732685
 30
0.0
 10
353.1732355438943
 20
32.44605167479558
 30
0.0
 10
355.6640338643088
 20
32.3635603152746
 30
0.0
 10
358.1580900566549
 20
32.41768899635578
 30
0.0
 10
360.6175574928726
 20
32.60684661883361
 30
0.0
 10
363.00081368663
 20
32.93096430507114
 30
0.0
 10
365.0853966595697
 20
33.3379588703161
 30
0.0
 10
366.3139329015486
 20
33.6715735350468
 30
0.0
 10
366.8363671539154
 20
33.81344295817951
 30
0.0
  0
SPLINE
  5
137
330
1F
100
AcDbEntity
  8
0
  6
Continuous
 62
     7
370
    25
100
AcDbSpline
210
0.0
220
0.0
230
1.0
 70
     8
 71
     3
 72
     9
 73
     5
 74
     0
 42
0.00000001
 43
0.00000001
 40
0.0
 40
0.0
 40
0.0
 40
0.0
 40
0.52450043316933
 40
1.0
 40
1.0
 40
1.0
 40
1.0
 10
367.5426218714839
 20
34.58965552717552
 30
0.0
 10
367.9323494566459
 20
36.59019740433872
 30
0.0
 10
368.6753947632188
 20
40.40438277130725
 30
0.0
 10
369.6230578498981
 20
44.3091541923315
 30
0.0
 10
370.0736712371155
 20
46.16587131160132
 30
0.0
  0
SPLINE
  5
138
330
1F
100
AcDbEntity
  8
0
  6
Continuous
 62
     7
370
    25
100
AcDbSpline
210
0.0
220
0.0
230
1.0
 70
     8
 71
     3
 72
    10
 73
     6
 74
     0
 42
0.00000001
 43
0.00000001
 40
0.0
 40
0.0
 40
0.0
 40
0.0
 40
0.1102503612154874
 40
0.7179885112989598
 40
1.0
 40
1.0
 40
1.0
 40
1.0
 10
341.78193105641
 20
46.16314070726707
 30
0.0
 10
341.8901138689755
 20
45.73195687176479
 30
0.0
 10
342.5946377878612
 20
42.92393849671988
 30
0.0
 10
343.4627642798866
 20
39.03951518400272
 30
0.0
 10
344.0795833144666
 20
35.67245014019809
 30
0.0
 10
344.2750878099096
 20
34.60523866388465
 30
0.0
  0
CIRCLE
  5
139
330
1F
100
AcDbEntity
  8
0
  6
Continuous
 62
     7
370
    25
100
AcDbCircle
 10
945.9241873466
 20
908.7386689011
 30
0.0
 40
7.500000000000123
  0
CIRCLE
  5
13A
330
1F
100
AcDbEntity
  8
0
  6
Continuous
 62
     7
370
    25
100
AcDbCircle
 10
945.9241873466
 20
908.7386689011
 30
0.0
 40
9.50000000000013
  0
CIRCLE
  5
13B
330
1F
100
AcDbEntity
  8
0
  6
Continuous
 62
     7
370
    25
100
AcDbCircle
 10
65.9241873466
 20
908.7386689011
 30
0.0
 40
7.50000000000003
  0
CIRCLE
  5
13C
330
1F
100
AcDbEntity
  8
0
  6
Continuous
 62
     7
370
    25
100
AcDbCircle
 10
65.9241873466
 20
908.7386689011
 30
0.0
 40
9.500000000000119
  0
LINE
  5
13D
330
1F
100
AcDbEntity
  8
0
  6
Continuous
 62
     7
370
    25
100
AcDbLine
 10
864.7774997099
 20
744.0870158078
 30
0.0
 11
864.7209854987
 21
744.0870158078
 31
0.0
  0
LINE
  5
13E
330
1F
100
AcDbEntity
  8
0
  6
Continuous
 62
     7
370
    25
100
AcDbLine
 10
864.8651489022
 20
743.969363182
 30
0.0
 11
864.7774997099
 21
744.0870158078
 31
0.0
  0
LINE
  5
13F
330
1F
100
AcDbEntity
  8
0
  6
Continuous
 62
     7
370
    25
100
AcDbLine
 10
865.0045474797
 20
743.8186410479
 30
0.0
 11
864.8651489022
 21
743.969363182
 31
0.0
  0
LINE
  5
140
330
1F
100
AcDbEntity
  8
0
  6
Continuous
 62
     7
370
    25
100
AcDbLine
 10
864.9100268194
 20
742.3931673059
 30
0.0
 11
865.158005411
 21
742.247863611
 31
0.0
  0
LINE
  5
141
330
1F
100
AcDbEntity
  8
0
  6
Continuous
 62
     7
370
    25
100
AcDbLine
 10
864.7146017801
 20
742.5340669101
 30
0.0
 11
864.9100268194
 21
742.3931673059
 31
0.0
  0
LINE
  5
142
330
1F
100
AcDbEntity
  8
0
  6
Continuous
 62
     7
370
    25
100
AcDbLine
 10
864.662210919
 20
742.7022754113
 30
0.0
 11
864.7146017801
 21
742.5340669101
 31
0.0
  0
LINE
  5
143
330
1F
100
AcDbEntity
  8
0
  6
Continuous
 62
     7
370
    25
100
AcDbLine
 10
864.662210919
 20
743.019047354
 30
0.0
 11
864.662210919
 21
742.7022754113
 31
0.0
  0
LINE
  5
144
330
1F
100
AcDbEntity
  8
0
  6
Continuous
 62
     7
370
    25
100
AcDbLine
 10
864.7146017801
 20
743.1084587894
 30
0.0
 11
864.662210919
 21
743.019047354
 31
0.0
  0
LINE
  5
145
330
1F
100
AcDbEntity
  8
0
  6
Continuous
 62
     7
370
    25
100
AcDbLine
 10
864.7774997099
 20
743.3979499242
 30
0.0
 11
864.7146017801
 21
743.1084587894
 31
0.0
  0
LINE
  5
146
330
1F
100
AcDbEntity
  8
0
  6
Continuous
 62
     7
370
    25
100
AcDbLine
 10
864.7774997099
 20
743.6653643015
 30
0.0
 11
864.7774997099
 21
743.3979499242
 31
0.0
  0
LINE
  5
147
330
1F
100
AcDbEntity
  8
0
  6
Continuous
 62
     7
370
    25
100
AcDbLine
 10
864.7209854987
 20
744.0870158078
 30
0.0
 11
864.7774997099
 21
743.6653643015
 31
0.0
  0
LINE
  5
148
330
1F
100
AcDbEntity
  8
0
  6
Continuous
 62
     7
370
    25
100
AcDbLine
 10
865.2012526376
 20
743.5546012121
 30
0.0
 11
865.0045474797
 21
743.8186410479
 31
0.0
  0
LINE
  5
149
330
1F
100
AcDbEntity
  8
0
  6
Continuous
 62
     7
370
    25
100
AcDbLine
 10
865.4084472272
 20
743.2412986363
 30
0.0
 11
865.2012526376
 21
743.5546012121
 31
0.0
  0
LINE
  5
14A
330
1F
100
AcDbEntity
  8
0
  6
Continuous
 62
     7
370
    25
100
AcDbLine
 10
865.541571331
 20
742.9756189425
 30
0.0
 11
865.4084472272
 21
743.2412986363
 31
0.0
  0
LINE
  5
14B
330
1F
100
AcDbEntity
  8
0
  6
Continuous
 62
     7
370
    25
100
AcDbLine
 10
865.6176544655
 20
742.7022754113
 30
0.0
 11
865.541571331
 21
742.9756189425
 31
0.0
  0
LINE
  5
14C
330
1F
100
AcDbEntity
  8
0
  6
Continuous
 62
     7
370
    25
100
AcDbLine
 10
865.6176544655
 20
742.5004610285
 30
0.0
 11
865.6176544655
 21
742.7022754113
 31
0.0
  0
LINE
  5
14D
330
1F
100
AcDbEntity
  8
0
  6
Continuous
 62
     7
370
    25
100
AcDbLine
 10
865.5793352789
 20
742.3240948929
 30
0.0
 11
865.6176544655
 21
742.5004610285
 31
0.0
  0
LINE
  5
14E
330
1F
100
AcDbEntity
  8
0
  6
Continuous
 62
     7
370
    25
100
AcDbLine
 10
865.5038073832
 20
742.1294426625
 30
0.0
 11
865.5793352789
 21
742.3240948929
 31
0.0
  0
LINE
  5
14F
330
1F
100
AcDbEntity
  8
0
  6
Continuous
 62
     7
370
    25
100
AcDbLine
 10
865.3494201592
 20
742.1294426625
 30
0.0
 11
865.5038073832
 21
742.1294426625
 31
0.0
  0
LINE
  5
150
330
1F
100
AcDbEntity
  8
0
  6
Continuous
 62
     7
370
    25
100
AcDbLine
 10
865.158005411
 20
742.247863611
 30
0.0
 11
865.3494201592
 21
742.1294426625
 31
0.0
  0
LINE
  5
151
330
1F
100
AcDbEntity
  8
0
  6
Continuous
 62
     7
370
    25
100
AcDbLine
 10
855.456749266
 20
726.0628156014
 30
0.0
 11
855.3770534226
 21
725.8330418967
 31
0.0
  0
LINE
  5
152
330
1F
100
AcDbEntity
  8
0
  6
Continuous
 62
     7
370
    25
100
AcDbLine
 10
855.5528244088
 20
726.2286752516
 30
0.0
 11
855.456749266
 21
726.0628156014
 31
0.0
  0
LINE
  5
153
330
1F
100
AcDbEntity
  8
0
  6
Continuous
 62
     7
370
    25
100
AcDbLine
 10
855.6745140171
 20
726.3672887266
 30
0.0
 11
855.5528244088
 21
726.2286752516
 31
0.0
  0
LINE
  5
154
330
1F
100
AcDbEntity
  8
0
  6
Continuous
 62
     7
370
    25
100
AcDbLine
 10
855.812459141
 20
726.4839898301
 30
0.0
 11
855.6745140171
 21
726.3672887266
 31
0.0
  0
LINE
  5
155
330
1F
100
AcDbEntity
  8
0
  6
Continuous
 62
     7
370
    25
100
AcDbLine
 10
855.9339052231
 20
726.5631880305
 30
0.0
 11
855.812459141
 21
726.4839898301
 31
0.0
  0
LINE
  5
156
330
1F
100
AcDbEntity
  8
0
  6
Continuous
 62
     7
370
    25
100
AcDbLine
 10
856.171784767
 20
726.6495999796
 30
0.0
 11
855.9339052231
 21
726.5631880305
 31
0.0
  0
LINE
  5
157
330
1F
100
AcDbEntity
  8
0
  6
Continuous
 62
     7
370
    25
100
AcDbLine
 10
856.6236603242
 20
726.6418327201
 30
0.0
 11
856.171784767
 21
726.6495999796
 31
0.0
  0
LINE
  5
158
330
1F
100
AcDbEntity
  8
0
  6
Continuous
 62
     7
370
    25
100
AcDbLine
 10
856.8230921692
 20
726.5726607967
 30
0.0
 11
856.6236603242
 21
726.6418327201
 31
0.0
  0
LINE
  5
159
330
1F
100
AcDbEntity
  8
0
  6
Continuous
 62
     7
370
    25
100
AcDbLine
 10
856.9613538035
 20
726.4807121174
 30
0.0
 11
856.8230921692
 21
726.5726607967
 31
0.0
  0
LINE
  5
15A
330
1F
100
AcDbEntity
  8
0
  6
Continuous
 62
     7
370
    25
100
AcDbLine
 10
857.1355178992
 20
726.3034047846
 30
0.0
 11
856.9613538035
 21
726.4807121174
 31
0.0
  0
LINE
  5
15B
330
1F
100
AcDbEntity
  8
0
  6
Continuous
 62
     7
370
    25
100
AcDbLine
 10
857.2595917808
 20
726.1264726442
 30
0.0
 11
857.1355178992
 21
726.3034047846
 31
0.0
  0
LINE
  5
15C
330
1F
100
AcDbEntity
  8
0
  6
Continuous
 62
     7
370
    25
100
AcDbLine
 10
857.3649947757
 20
725.9009102351
 30
0.0
 11
857.2595917808
 21
726.1264726442
 31
0.0
  0
LINE
  5
15D
330
1F
100
AcDbEntity
  8
0
  6
Continuous
 62
     7
370
    25
100
AcDbLine
 10
857.4435545561
 20
725.5635714066
 30
0.0
 11
857.3649947757
 21
725.9009102351
 31
0.0
  0
LINE
  5
15E
330
1F
100
AcDbEntity
  8
0
  6
Continuous
 62
     7
370
    25
100
AcDbLine
 10
857.4435545561
 20
725.016756019
 30
0.0
 11
857.4435545561
 21
725.5635714066
 31
0.0
  0
LINE
  5
15F
330
1F
100
AcDbEntity
  8
0
  6
Continuous
 62
     7
370
    25
100
AcDbLine
 10
857.3649947757
 20
724.7390225798
 30
0.0
 11
857.4435545561
 21
725.016756019
 31
0.0
  0
LINE
  5
160
330
1F
100
AcDbEntity
  8
0
  6
Continuous
 62
     7
370
    25
100
AcDbLine
 10
857.298222437
 20
724.5465090562
 30
0.0
 11
857.3649947757
 21
724.7390225798
 31
0.0
  0
LINE
  5
161
330
1F
100
AcDbEntity
  8
0
  6
Continuous
 62
     7
370
    25
100
AcDbLine
 10
857.1713482949
 20
724.3557306092
 30
0.0
 11
857.298222437
 21
724.5465090562
 31
0.0
  0
LINE
  5
162
330
1F
100
AcDbEntity
  8
0
  6
Continuous
 62
     7
370
    25
100
AcDbLine
 10
857.0398451348
 20
724.2265586872
 30
0.0
 11
857.1713482949
 21
724.3557306092
 31
0.0
  0
LINE
  5
163
330
1F
100
AcDbEntity
  8
0
  6
Continuous
 62
     7
370
    25
100
AcDbLine
 10
856.8306720775
 20
724.0798758228
 30
0.0
 11
857.0398451348
 21
724.2265586872
 31
0.0
  0
LINE
  5
164
330
1F
100
AcDbEntity
  8
0
  6
Continuous
 62
     7
370
    25
100
AcDbLine
 10
856.5812854864
 20
723.9958034185
 30
0.0
 11
856.8306720775
 21
724.0798758228
 31
0.0
  0
LINE
  5
165
330
1F
100
AcDbEntity
  8
0
  6
Continuous
 62
     7
370
    25
100
AcDbLine
 10
856.192035068
 20
723.9958034185
 30
0.0
 11
856.5812854864
 21
723.9958034185
 31
0.0
  0
LINE
  5
166
330
1F
100
AcDbEntity
  8
0
  6
Continuous
 62
     7
370
    25
100
AcDbLine
 10
856.039143941
 20
724.0390502576
 30
0.0
 11
856.192035068
 21
723.9958034185
 31
0.0
  0
LINE
  5
167
330
1F
100
AcDbEntity
  8
0
  6
Continuous
 62
     7
370
    25
100
AcDbLine
 10
855.8286665052
 20
724.1337886701
 30
0.0
 11
856.039143941
 21
724.0390502576
 31
0.0
  0
LINE
  5
168
330
1F
100
AcDbEntity
  8
0
  6
Continuous
 62
     7
370
    25
100
AcDbLine
 10
855.6745140171
 20
724.2431013981
 30
0.0
 11
855.8286665052
 21
724.1337886701
 31
0.0
  0
LINE
  5
169
330
1F
100
AcDbEntity
  8
0
  6
Continuous
 62
     7
370
    25
100
AcDbLine
 10
855.5614091383
 20
724.4165415057
 30
0.0
 11
855.6745140171
 21
724.2431013981
 31
0.0
  0
LINE
  5
16A
330
1F
100
AcDbEntity
  8
0
  6
Continuous
 62
     7
370
    25
100
AcDbLine
 10
855.4399441379
 20
724.6764766066
 30
0.0
 11
855.5614091383
 21
724.4165415057
 31
0.0
  0
LINE
  5
16B
330
1F
100
AcDbEntity
  8
0
  6
Continuous
 62
     7
370
    25
100
AcDbLine
 10
855.3609918876
 20
724.9424849576
 30
0.0
 11
855.4399441379
 21
724.6764766066
 31
0.0
  0
LINE
  5
16C
330
1F
100
AcDbEntity
  8
0
  6
Continuous
 62
     7
370
    25
100
AcDbLine
 10
855.3347083547
 20
725.1174459918
 30
0.0
 11
855.3609918876
 21
724.9424849576
 31
0.0
  0
LINE
  5
16D
330
1F
100
AcDbEntity
  8
0
  6
Continuous
 62
     7
370
    25
100
AcDbLine
 10
855.3347083547
 20
725.5635714066
 30
0.0
 11
855.3347083547
 21
725.1174459918
 31
0.0
  0
LINE
  5
16E
330
1F
100
AcDbEntity
  8
0
  6
Continuous
 62
     7
370
    25
100
AcDbLine
 10
855.3770534226
 20
725.8330418967
 30
0.0
 11
855.3347083547
 21
725.5635714066
 31
0.0
  0
LINE
  5
16F
330
1F
100
AcDbEntity
  8
0
  6
Continuous
 62
     7
370
    25
100
AcDbLine
 10
844.3017416911
 20
724.1686047347
 30
0.0
 11
844.4238268256
 21
724.2839319228
 31
0.0
  0
LINE
  5
170
330
1F
100
AcDbEntity
  8
0
  6
Continuous
 62
     7
370
    25
100
AcDbLine
 10
844.0514159601
 20
724.0196919662
 30
0.0
 11
844.3017416911
 21
724.1686047347
 31
0.0
  0
LINE
  5
171
330
1F
100
AcDbEntity
  8
0
  6
Continuous
 62
     7
370
    25
100
AcDbLine
 10
843.8435766497
 20
723.9345963031
 30
0.0
 11
844.0514159601
 21
724.0196919662
 31
0.0
  0
LINE
  5
172
330
1F
100
AcDbEntity
  8
0
  6
Continuous
 62
     7
370
    25
100
AcDbLine
 10
843.5696928323
 20
723.9345963031
 30
0.0
 11
843.8435766497
 21
723.9345963031
 31
0.0
  0
LINE
  5
173
330
1F
100
AcDbEntity
  8
0
  6
Continuous
 62
     7
370
    25
100
AcDbLine
 10
843.4122561757
 20
723.9633666104
 30
0.0
 11
843.5696928323
 21
723.9345963031
 31
0.0
  0
LINE
  5
174
330
1F
100
AcDbEntity
  8
0
  6
Continuous
 62
     7
370
    25
100
AcDbLine
 10
843.1889598984
 20
724.0479245632
 30
0.0
 11
843.4122561757
 21
723.9633666104
 31
0.0
  0
LINE
  5
175
330
1F
100
AcDbEntity
  8
0
  6
Continuous
 62
     7
370
    25
100
AcDbLine
 10
843.059624306
 20
724.1538885887
 30
0.0
 11
843.1889598984
 21
724.0479245632
 31
0.0
  0
LINE
  5
176
330
1F
100
AcDbEntity
  8
0
  6
Continuous
 62
     7
370
    25
100
AcDbLine
 10
842.9822646481
 20
724.2839319228
 30
0.0
 11
843.059624306
 21
724.1538885887
 31
0.0
  0
LINE
  5
177
330
1F
100
AcDbEntity
  8
0
  6
Continuous
 62
     7
370
    25
100
AcDbLine
 10
842.9822646481
 20
724.5047805912
 30
0.0
 11
842.9822646481
 21
724.2839319228
 31
0.0
  0
LINE
  5
178
330
1F
100
AcDbEntity
  8
0
  6
Continuous
 62
     7
370
    25
100
AcDbLine
 10
843.0202271603
 20
724.5869730982
 30
0.0
 11
842.9822646481
 21
724.5047805912
 31
0.0
  0
LINE
  5
179
330
1F
100
AcDbEntity
  8
0
  6
Continuous
 62
     7
370
    25
100
AcDbLine
 10
843.121556699
 20
724.7106520152
 30
0.0
 11
843.0202271603
 21
724.5869730982
 31
0.0
  0
LINE
  5
17A
330
1F
100
AcDbEntity
  8
0
  6
Continuous
 62
     7
370
    25
100
AcDbLine
 10
843.2819436488
 20
724.8060623617
 30
0.0
 11
843.121556699
 21
724.7106520152
 31
0.0
  0
LINE
  5
17B
330
1F
100
AcDbEntity
  8
0
  6
Continuous
 62
     7
370
    25
100
AcDbLine
 10
843.4366398582
 20
724.8693996413
 30
0.0
 11
843.2819436488
 21
724.8060623617
 31
0.0
  0
LINE
  5
17C
330
1F
100
AcDbEntity
  8
0
  6
Continuous
 62
     7
370
    25
100
AcDbLine
 10
844.2242886047
 20
725.0512531903
 30
0.0
 11
843.4366398582
 21
724.8693996413
 31
0.0
  0
LINE
  5
17D
330
1F
100
AcDbEntity
  8
0
  6
Continuous
 62
     7
370
    25
100
AcDbLine
 10
844.526429729
 20
725.1749588515
 30
0.0
 11
844.2242886047
 21
725.0512531903
 31
0.0
  0
LINE
  5
17E
330
1F
100
AcDbEntity
  8
0
  6
Continuous
 62
     7
370
    25
100
AcDbLine
 10
844.5896506957
 20
725.1749588515
 30
0.0
 11
844.526429729
 21
725.1749588515
 31
0.0
  0
LINE
  5
17F
330
1F
100
AcDbEntity
  8
0
  6
Continuous
 62
     7
370
    25
100
AcDbLine
 10
844.5896506957
 20
724.5047805912
 30
0.0
 11
844.5896506957
 21
725.1749588515
 31
0.0
  0
LINE
  5
180
330
1F
100
AcDbEntity
  8
0
  6
Continuous
 62
     7
370
    25
100
AcDbLine
 10
844.4238268256
 20
724.2839319228
 30
0.0
 11
844.5896506957
 21
724.5047805912
 31
0.0
  0
LINE
  5
181
330
1F
100
AcDbEntity
  8
0
  6
Continuous
 62
     7
370
    25
100
AcDbLine
 10
852.0743573994
 20
724.3912689355
 30
0.0
 11
852.1338361155
 21
724.5869730982
 31
0.0
  0
LINE
  5
182
330
1F
100
AcDbEntity
  8
0
  6
Continuous
 62
     7
370
    25
100
AcDbLine
 10
851.9688928223
 20
724.2431013981
 30
0.0
 11
852.0743573994
 21
724.3912689355
 31
0.0
  0
LINE
  5
183
330
1F
100
AcDbEntity
  8
0
  6
Continuous
 62
     7
370
    25
100
AcDbLine
 10
851.8323117926
 20
724.1337886701
 30
0.0
 11
851.9688928223
 21
724.2431013981
 31
0.0
  0
LINE
  5
184
330
1F
100
AcDbEntity
  8
0
  6
Continuous
 62
     7
370
    25
100
AcDbLine
 10
851.6804095733
 20
724.0555393378
 30
0.0
 11
851.8323117926
 21
724.1337886701
 31
0.0
  0
LINE
  5
185
330
1F
100
AcDbEntity
  8
0
  6
Continuous
 62
     7
370
    25
100
AcDbLine
 10
851.5140257511
 20
724.0090133083
 30
0.0
 11
851.6804095733
 21
724.0555393378
 31
0.0
  0
LINE
  5
186
330
1F
100
AcDbEntity
  8
0
  6
Continuous
 62
     7
370
    25
100
AcDbLine
 10
851.1730651604
 20
724.0090133083
 30
0.0
 11
851.5140257511
 21
724.0090133083
 31
0.0
  0
LINE
  5
187
330
1F
100
AcDbEntity
  8
0
  6
Continuous
 62
     7
370
    25
100
AcDbLine
 10
851.0450345797
 20
724.0479245632
 30
0.0
 11
851.1730651604
 21
724.0090133083
 31
0.0
  0
LINE
  5
188
330
1F
100
AcDbEntity
  8
0
  6
Continuous
 62
     7
370
    25
100
AcDbLine
 10
850.8859469021
 20
724.1240099742
 30
0.0
 11
851.0450345797
 21
724.0479245632
 31
0.0
  0
LINE
  5
189
330
1F
100
AcDbEntity
  8
0
  6
Continuous
 62
     7
370
    25
100
AcDbLine
 10
850.7772581097
 20
724.2013738673
 30
0.0
 11
850.8859469021
 21
724.1240099742
 31
0.0
  0
LINE
  5
18A
330
1F
100
AcDbEntity
  8
0
  6
Continuous
 62
     7
370
    25
100
AcDbLine
 10
850.6442272845
 20
724.3557306092
 30
0.0
 11
850.7772581097
 21
724.2013738673
 31
0.0
  0
LINE
  5
18B
330
1F
100
AcDbEntity
  8
0
  6
Continuous
 62
     7
370
    25
100
AcDbLine
 10
850.5406163603
 20
724.5568662467
 30
0.0
 11
850.6442272845
 21
724.3557306092
 31
0.0
  0
LINE
  5
18C
330
1F
100
AcDbEntity
  8
0
  6
Continuous
 62
     7
370
    25
100
AcDbLine
 10
850.4664875568
 20
724.7768658401
 30
0.0
 11
850.5406163603
 21
724.5568662467
 31
0.0
  0
LINE
  5
18D
330
1F
100
AcDbEntity
  8
0
  6
Continuous
 62
     7
370
    25
100
AcDbLine
 10
850.4359212171
 20
724.9649723237
 30
0.0
 11
850.4664875568
 21
724.7768658401
 31
0.0
  0
LINE
  5
18E
330
1F
100
AcDbEntity
  8
0
  6
Continuous
 62
     7
370
    25
100
AcDbLine
 10
850.4664875568
 20
725.8477634653
 30
0.0
 11
850.5236029384
 21
726.0356914951
 31
0.0
  0
LINE
  5
18F
330
1F
100
AcDbEntity
  8
0
  6
Continuous
 62
     7
370
    25
100
AcDbLine
 10
850.5236029384
 20
726.0356914951
 30
0.0
 11
850.6046699317
 21
726.2051952082
 31
0.0
  0
LINE
  5
190
330
1F
100
AcDbEntity
  8
0
  6
Continuous
 62
     7
370
    25
100
AcDbLine
 10
850.6046699317
 20
726.2051952082
 30
0.0
 11
850.7327189324
 21
726.3968081013
 31
0.0
  0
LINE
  5
191
330
1F
100
AcDbEntity
  8
0
  6
Continuous
 62
     7
370
    25
100
AcDbLine
 10
850.7327189324
 20
726.3968081013
 30
0.0
 11
850.8344794178
 21
726.4899633019
 31
0.0
  0
LINE
  5
192
330
1F
100
AcDbEntity
  8
0
  6
Continuous
 62
     7
370
    25
100
AcDbLine
 10
851.5875511391
 20
726.6028305921
 30
0.0
 11
851.7625099569
 21
726.544401503
 31
0.0
  0
LINE
  5
193
330
1F
100
AcDbEntity
  8
0
  6
Continuous
 62
     7
370
    25
100
AcDbLine
 10
851.7625099569
 20
726.544401503
 30
0.0
 11
851.8769104911
 21
726.47575624
 31
0.0
  0
LINE
  5
194
330
1F
100
AcDbEntity
  8
0
  6
Continuous
 62
     7
370
    25
100
AcDbLine
 10
851.8769104911
 20
726.47575624
 30
0.0
 11
852.017895064
 21
726.3217481063
 31
0.0
  0
LINE
  5
195
330
1F
100
AcDbEntity
  8
0
  6
Continuous
 62
     7
370
    25
100
AcDbLine
 10
852.017895064
 20
726.3217481063
 30
0.0
 11
852.0895016798
 21
726.1827411199
 31
0.0
  0
LINE
  5
196
330
1F
100
AcDbEntity
  8
0
  6
Continuous
 62
     7
370
    25
100
AcDbLine
 10
852.0895016798
 20
726.1827411199
 30
0.0
 11
852.1370555558
 21
726.0416106432
 31
0.0
  0
LINE
  5
197
330
1F
100
AcDbEntity
  8
0
  6
Continuous
 62
     7
370
    25
100
AcDbLine
 10
852.1370555558
 20
726.0416106432
 30
0.0
 11
852.1503325486
 21
725.9322796952
 31
0.0
  0
LINE
  5
198
330
1F
100
AcDbEntity
  8
0
  6
Continuous
 62
     7
370
    25
100
AcDbLine
 10
852.1503325486
 20
725.9322796952
 30
0.0
 11
853.4770805386
 21
725.9322796952
 31
0.0
  0
LINE
  5
199
330
1F
100
AcDbEntity
  8
0
  6
Continuous
 62
     7
370
    25
100
AcDbLine
 10
853.4770805386
 20
725.9322796952
 30
0.0
 11
853.4545730971
 21
726.1947751224
 31
0.0
  0
LINE
  5
19A
330
1F
100
AcDbEntity
  8
0
  6
Continuous
 62
     7
370
    25
100
AcDbLine
 10
853.4545730971
 20
726.1947751224
 30
0.0
 11
853.3950783897
 21
726.4600223595
 31
0.0
  0
LINE
  5
19B
330
1F
100
AcDbEntity
  8
0
  6
Continuous
 62
     7
370
    25
100
AcDbLine
 10
853.3950783897
 20
726.4600223595
 30
0.0
 11
853.258736352
 21
726.7484468319
 31
0.0
  0
LINE
  5
19C
330
1F
100
AcDbEntity
  8
0
  6
Continuous
 62
     7
370
    25
100
AcDbLine
 10
853.258736352
 20
726.7484468319
 30
0.0
 11
853.1124785296
 21
726.9979536723
 31
0.0
  0
LINE
  5
19D
330
1F
100
AcDbEntity
  8
0
  6
Continuous
 62
     7
370
    25
100
AcDbLine
 10
853.1124785296
 20
726.9979536723
 30
0.0
 11
852.9320699306
 21
727.2048031236
 31
0.0
  0
LINE
  5
19E
330
1F
100
AcDbEntity
  8
0
  6
Continuous
 62
     7
370
    25
100
AcDbLine
 10
852.9320699306
 20
727.2048031236
 30
0.0
 11
852.7769164364
 21
727.3394646468
 31
0.0
  0
LINE
  5
19F
330
1F
100
AcDbEntity
  8
0
  6
Continuous
 62
     7
370
    25
100
AcDbLine
 10
852.7769164364
 20
727.3394646468
 30
0.0
 11
852.5690693028
 21
727.4711987456
 31
0.0
  0
LINE
  5
1A0
330
1F
100
AcDbEntity
  8
0
  6
Continuous
 62
     7
370
    25
100
AcDbLine
 10
852.5690693028
 20
727.4711987456
 30
0.0
 11
852.3319479249
 21
727.5853682979
 31
0.0
  0
LINE
  5
1A1
330
1F
100
AcDbEntity
  8
0
  6
Continuous
 62
     7
370
    25
100
AcDbLine
 10
852.3319479249
 20
727.5853682979
 30
0.0
 11
852.0831168494
 21
727.6819733037
 31
0.0
  0
LINE
  5
1A2
330
1F
100
AcDbEntity
  8
0
  6
Continuous
 62
     7
370
    25
100
AcDbLine
 10
852.0831168494
 20
727.6819733037
 30
0.0
 11
851.9221085064
 21
727.7200298211
 31
0.0
  0
LINE
  5
1A3
330
1F
100
AcDbEntity
  8
0
  6
Continuous
 62
     7
370
    25
100
AcDbLine
 10
851.9221085064
 20
727.7200298211
 30
0.0
 11
850.7661378722
 21
727.7200298211
 31
0.0
  0
LINE
  5
1A4
330
1F
100
AcDbEntity
  8
0
  6
Continuous
 62
     7
370
    25
100
AcDbLine
 10
850.7661378722
 20
727.7200298211
 30
0.0
 11
850.5295743089
 21
727.666968835
 31
0.0
  0
LINE
  5
1A5
330
1F
100
AcDbEntity
  8
0
  6
Continuous
 62
     7
370
    25
100
AcDbLine
 10
850.5295743089
 20
727.666968835
 30
0.0
 11
850.3215822127
 21
727.5853682979
 31
0.0
  0
LINE
  5
1A6
330
1F
100
AcDbEntity
  8
0
  6
Continuous
 62
     7
370
    25
100
AcDbLine
 10
850.3215822127
 20
727.5853682979
 30
0.0
 11
850.0932347996
 21
727.45151387
 31
0.0
  0
LINE
  5
1A7
330
1F
100
AcDbEntity
  8
0
  6
Continuous
 62
     7
370
    25
100
AcDbLine
 10
850.0932347996
 20
727.45151387
 30
0.0
 11
849.8161311813
 21
727.2721338852
 31
0.0
  0
LINE
  5
1A8
330
1F
100
AcDbEntity
  8
0
  6
Continuous
 62
     7
370
    25
100
AcDbLine
 10
849.8161311813
 20
727.2721338852
 30
0.0
 11
849.555143174
 21
727.0171034248
 31
0.0
  0
LINE
  5
1A9
330
1F
100
AcDbEntity
  8
0
  6
Continuous
 62
     7
370
    25
100
AcDbLine
 10
849.555143174
 20
727.0171034248
 30
0.0
 11
849.3654810817
 21
726.7642206351
 31
0.0
  0
LINE
  5
1AA
330
1F
100
AcDbEntity
  8
0
  6
Continuous
 62
     7
370
    25
100
AcDbLine
 10
849.3654810817
 20
726.7642206351
 30
0.0
 11
849.2380660506
 21
726.5631880305
 31
0.0
  0
LINE
  5
1AB
330
1F
100
AcDbEntity
  8
0
  6
Continuous
 62
     7
370
    25
100
AcDbLine
 10
849.2380660506
 20
726.5631880305
 30
0.0
 11
849.1022034112
 21
726.2132388078
 31
0.0
  0
LINE
  5
1AC
330
1F
100
AcDbEntity
  8
0
  6
Continuous
 62
     7
370
    25
100
AcDbLine
 10
849.1022034112
 20
726.2132388078
 30
0.0
 11
849.0543926965
 21
725.9597678392
 31
0.0
  0
LINE
  5
1AD
330
1F
100
AcDbEntity
  8
0
  6
Continuous
 62
     7
370
    25
100
AcDbLine
 10
849.0543926965
 20
725.9597678392
 30
0.0
 11
849.0433942695
 21
725.7857875026
 31
0.0
  0
LINE
  5
1AE
330
1F
100
AcDbEntity
  8
0
  6
Continuous
 62
     7
370
    25
100
AcDbLine
 10
849.0433942695
 20
725.7857875026
 30
0.0
 11
849.0433942695
 21
724.8092934595
 31
0.0
  0
LINE
  5
1AF
330
1F
100
AcDbEntity
  8
0
  6
Continuous
 62
     7
370
    25
100
AcDbLine
 10
849.0433942695
 20
724.8092934595
 30
0.0
 11
849.1022034112
 21
724.4641898962
 31
0.0
  0
LINE
  5
1B0
330
1F
100
AcDbEntity
  8
0
  6
Continuous
 62
     7
370
    25
100
AcDbLine
 10
849.1022034112
 20
724.4641898962
 30
0.0
 11
849.212790517
 21
724.1337886701
 31
0.0
  0
LINE
  5
1B1
330
1F
100
AcDbEntity
  8
0
  6
Continuous
 62
     7
370
    25
100
AcDbLine
 10
849.212790517
 20
724.1337886701
 30
0.0
 11
849.3434521913
 21
723.8573807106
 31
0.0
  0
LINE
  5
1B2
330
1F
100
AcDbEntity
  8
0
  6
Continuous
 62
     7
370
    25
100
AcDbLine
 10
849.3434521913
 20
723.8573807106
 30
0.0
 11
849.5109687419
 21
723.6213378215
 31
0.0
  0
LINE
  5
1B3
330
1F
100
AcDbEntity
  8
0
  6
Continuous
 62
     7
370
    25
100
AcDbLine
 10
849.5109687419
 20
723.6213378215
 30
0.0
 11
849.7076661855
 21
723.3958122173
 31
0.0
  0
LINE
  5
1B4
330
1F
100
AcDbEntity
  8
0
  6
Continuous
 62
     7
370
    25
100
AcDbLine
 10
849.7076661855
 20
723.3958122173
 30
0.0
 11
849.9302367425
 21
723.2400797054
 31
0.0
  0
LINE
  5
1B5
330
1F
100
AcDbEntity
  8
0
  6
Continuous
 62
     7
370
    25
100
AcDbLine
 10
849.9302367425
 20
723.2400797054
 30
0.0
 11
850.1518464523
 21
723.1139507748
 31
0.0
  0
LINE
  5
1B6
330
1F
100
AcDbEntity
  8
0
  6
Continuous
 62
     7
370
    25
100
AcDbLine
 10
850.1518464523
 20
723.1139507748
 30
0.0
 11
850.4188662498
 21
722.9853856871
 31
0.0
  0
LINE
  5
1B7
330
1F
100
AcDbEntity
  8
0
  6
Continuous
 62
     7
370
    25
100
AcDbLine
 10
850.4188662498
 20
722.9853856871
 30
0.0
 11
850.6541246495
 21
722.9144367349
 31
0.0
  0
LINE
  5
1B8
330
1F
100
AcDbEntity
  8
0
  6
Continuous
 62
     7
370
    25
100
AcDbLine
 10
850.6541246495
 20
722.9144367349
 30
0.0
 11
851.0245256452
 21
722.8677966267
 31
0.0
  0
LINE
  5
1B9
330
1F
100
AcDbEntity
  8
0
  6
Continuous
 62
     7
370
    25
100
AcDbLine
 10
851.0245256452
 20
722.8677966267
 30
0.0
 11
851.6614279006
 21
722.8677966267
 31
0.0
  0
LINE
  5
1BA
330
1F
100
AcDbEntity
  8
0
  6
Continuous
 62
     7
370
    25
100
AcDbLine
 10
851.6614279006
 20
722.8677966267
 30
0.0
 11
851.951284806
 21
722.9171911785
 31
0.0
  0
LINE
  5
1BB
330
1F
100
AcDbEntity
  8
0
  6
Continuous
 62
     7
370
    25
100
AcDbLine
 10
851.951284806
 20
722.9171911785
 30
0.0
 11
852.2075323872
 21
722.9954684861
 31
0.0
  0
LINE
  5
1BC
330
1F
100
AcDbEntity
  8
0
  6
Continuous
 62
     7
370
    25
100
AcDbLine
 10
852.2075323872
 20
722.9954684861
 30
0.0
 11
852.4756177592
 21
723.122195964
 31
0.0
  0
LINE
  5
1BD
330
1F
100
AcDbEntity
  8
0
  6
Continuous
 62
     7
370
    25
100
AcDbLine
 10
852.4756177592
 20
723.122195964
 30
0.0
 11
852.7054566797
 21
723.256924695
 31
0.0
  0
LINE
  5
1BE
330
1F
100
AcDbEntity
  8
0
  6
Continuous
 62
     7
370
    25
100
AcDbLine
 10
858.6878449765
 20
724.3274028901
 30
0.0
 11
858.7794487174
 21
724.6429552292
 31
0.0
  0
LINE
  5
1BF
330
1F
100
AcDbEntity
  8
0
  6
Continuous
 62
     7
370
    25
100
AcDbLine
 10
858.7794487174
 20
724.6429552292
 30
0.0
 11
858.8349893628
 21
724.9958690718
 31
0.0
  0
LINE
  5
1C0
330
1F
100
AcDbEntity
  8
0
  6
Continuous
 62
     7
370
    25
100
AcDbLine
 10
858.7887829343
 20
725.9129544289
 30
0.0
 11
858.6662845014
 21
726.3034047846
 31
0.0
  0
LINE
  5
1C1
330
1F
100
AcDbEntity
  8
0
  6
Continuous
 62
     7
370
    25
100
AcDbLine
 10
858.6662845014
 20
726.3034047846
 30
0.0
 11
858.5355371724
 21
726.5906499904
 31
0.0
  0
LINE
  5
1C2
330
1F
100
AcDbEntity
  8
0
  6
Continuous
 62
     7
370
    25
100
AcDbLine
 10
858.5355371724
 20
726.5906499904
 30
0.0
 11
858.3462134199
 21
726.8884031717
 31
0.0
  0
LINE
  5
1C3
330
1F
100
AcDbEntity
  8
0
  6
Continuous
 62
     7
370
    25
100
AcDbLine
 10
858.3462134199
 20
726.8884031717
 30
0.0
 11
858.1255094058
 21
727.1343438024
 31
0.0
  0
LINE
  5
1C4
330
1F
100
AcDbEntity
  8
0
  6
Continuous
 62
     7
370
    25
100
AcDbLine
 10
858.1255094058
 20
727.1343438024
 30
0.0
 11
857.8796774519
 21
727.3394646468
 31
0.0
  0
LINE
  5
1C5
330
1F
100
AcDbEntity
  8
0
  6
Continuous
 62
     7
370
    25
100
AcDbLine
 10
862.0367489223
 20
726.5002553559
 30
0.0
 11
862.1919636303
 21
726.383139272
 31
0.0
  0
LINE
  5
1C6
330
1F
100
AcDbEntity
  8
0
  6
Continuous
 62
     7
370
    25
100
AcDbLine
 10
862.1919636303
 20
726.383139272
 30
0.0
 11
862.3126861811
 21
726.1724907396
 31
0.0
  0
LINE
  5
1C7
330
1F
100
AcDbEntity
  8
0
  6
Continuous
 62
     7
370
    25
100
AcDbLine
 10
862.3126861811
 20
726.1724907396
 30
0.0
 11
862.3385552991
 21
726.034303371
 31
0.0
  0
LINE
  5
1C8
330
1F
100
AcDbEntity
  8
0
  6
Continuous
 62
     7
370
    25
100
AcDbLine
 10
833.4241873467
 20
740.9138891089
 30
0.0
 11
833.8744387636
 21
740.5087480704
 31
0.0
  0
LINE
  5
1C9
330
1F
100
AcDbEntity
  8
0
  6
Continuous
 62
     7
370
    25
100
AcDbLine
 10
833.8744387636
 20
740.5087480704
 30
0.0
 11
834.5487006765
 21
739.9615829797
 31
0.0
  0
LINE
  5
1CA
330
1F
100
AcDbEntity
  8
0
  6
Continuous
 62
     7
370
    25
100
AcDbLine
 10
834.5487006765
 20
739.9615829797
 30
0.0
 11
835.153793138
 21
739.505033072
 31
0.0
  0
LINE
  5
1CB
330
1F
100
AcDbEntity
  8
0
  6
Continuous
 62
     7
370
    25
100
AcDbLine
 10
843.2868416249
 20
736.689348062
 30
0.0
 11
843.4122561757
 21
736.9494290566
 31
0.0
  0
LINE
  5
1CC
330
1F
100
AcDbEntity
  8
0
  6
Continuous
 62
     7
370
    25
100
AcDbLine
 10
843.4122561757
 20
736.9494290566
 30
0.0
 11
843.6150912349
 21
737.4044586178
 31
0.0
  0
LINE
  5
1CD
330
1F
100
AcDbEntity
  8
0
  6
Continuous
 62
     7
370
    25
100
AcDbLine
 10
843.6150912349
 20
737.4044586178
 30
0.0
 11
843.799534781
 21
737.7869522012
 31
0.0
  0
LINE
  5
1CE
330
1F
100
AcDbEntity
  8
0
  6
Continuous
 62
     7
370
    25
100
AcDbLine
 10
850.7327189324
 20
739.849628599
 30
0.0
 11
852.8830923798
 21
739.849628599
 31
0.0
  0
LINE
  5
1CF
330
1F
100
AcDbEntity
  8
0
  6
Continuous
 62
     7
370
    25
100
AcDbLine
 10
852.8830923798
 20
739.849628599
 30
0.0
 11
852.9568139217
 21
739.8081341649
 31
0.0
  0
LINE
  5
1D0
330
1F
100
AcDbEntity
  8
0
  6
Continuous
 62
     7
370
    25
100
AcDbLine
 10
852.9568139217
 20
739.8081341649
 30
0.0
 11
852.9568139217
 21
739.6808673415
 31
0.0
  0
LINE
  5
1D1
330
1F
100
AcDbEntity
  8
0
  6
Continuous
 62
     7
370
    25
100
AcDbLine
 10
852.9568139217
 20
739.6808673415
 30
0.0
 11
852.7627630411
 21
739.2455437469
 31
0.0
  0
LINE
  5
1D2
330
1F
100
AcDbEntity
  8
0
  6
Continuous
 62
     7
370
    25
100
AcDbLine
 10
852.7627630411
 20
739.2455437469
 30
0.0
 11
852.6364273175
 21
739.0374968193
 31
0.0
  0
LINE
  5
1D3
330
1F
100
AcDbEntity
  8
0
  6
Continuous
 62
     7
370
    25
100
AcDbLine
 10
852.6364273175
 20
739.0374968193
 30
0.0
 11
852.3540493835
 21
738.7654260234
 31
0.0
  0
LINE
  5
1D4
330
1F
100
AcDbEntity
  8
0
  6
Continuous
 62
     7
370
    25
100
AcDbLine
 10
851.6964383795
 20
738.3129319119
 30
0.0
 11
850.9784966879
 21
737.9409781237
 31
0.0
  0
LINE
  5
1D5
330
1F
100
AcDbEntity
  8
0
  6
Continuous
 62
     7
370
    25
100
AcDbLine
 10
850.9784966879
 20
737.9409781237
 30
0.0
 11
850.8554298625
 21
737.8562973421
 31
0.0
  0
LINE
  5
1D6
330
1F
100
AcDbEntity
  8
0
  6
Continuous
 62
     7
370
    25
100
AcDbLine
 10
850.8554298625
 20
737.8562973421
 30
0.0
 11
850.8554298625
 21
737.7381557629
 31
0.0
  0
LINE
  5
1D7
330
1F
100
AcDbEntity
  8
0
  6
Continuous
 62
     7
370
    25
100
AcDbLine
 10
850.8554298625
 20
737.7381557629
 30
0.0
 11
850.9784966879
 21
737.4766118528
 31
0.0
  0
LINE
  5
1D8
330
1F
100
AcDbEntity
  8
0
  6
Continuous
 62
     7
370
    25
100
AcDbLine
 10
850.9784966879
 20
737.4766118528
 30
0.0
 11
851.1730651604
 21
737.1552327245
 31
0.0
  0
LINE
  5
1D9
330
1F
100
AcDbEntity
  8
0
  6
Continuous
 62
     7
370
    25
100
AcDbLine
 10
851.1730651604
 20
737.1552327245
 30
0.0
 11
851.3445222953
 21
736.9436385429
 31
0.0
  0
LINE
  5
1DA
330
1F
100
AcDbEntity
  8
0
  6
Continuous
 62
     7
370
    25
100
AcDbLine
 10
851.3445222953
 20
736.9436385429
 30
0.0
 11
851.6220253457
 21
736.6282435097
 31
0.0
  0
LINE
  5
1DB
330
1F
100
AcDbEntity
  8
0
  6
Continuous
 62
     7
370
    25
100
AcDbLine
 10
851.6220253457
 20
736.6282435097
 30
0.0
 11
851.8769104911
 21
736.3836880795
 31
0.0
  0
LINE
  5
1DC
330
1F
100
AcDbEntity
  8
0
  6
Continuous
 62
     7
370
    25
100
AcDbLine
 10
851.8769104911
 20
736.3836880795
 30
0.0
 11
852.2075323872
 21
736.1059130751
 31
0.0
  0
LINE
  5
1DD
330
1F
100
AcDbEntity
  8
0
  6
Continuous
 62
     7
370
    25
100
AcDbLine
 10
852.2075323872
 20
736.1059130751
 30
0.0
 11
852.7142755812
 21
735.7235689323
 31
0.0
  0
LINE
  5
1DE
330
1F
100
AcDbEntity
  8
0
  6
Continuous
 62
     7
370
    25
100
AcDbLine
 10
852.7142755812
 20
735.7235689323
 30
0.0
 11
853.176670806
 21
735.3929953828
 31
0.0
  0
LINE
  5
1DF
330
1F
100
AcDbEntity
  8
0
  6
Continuous
 62
     7
370
    25
100
AcDbLine
 10
853.176670806
 20
735.3929953828
 30
0.0
 11
853.6934392472
 21
735.0791896673
 31
0.0
  0
LINE
  5
1E0
330
1F
100
AcDbEntity
  8
0
  6
Continuous
 62
     7
370
    25
100
AcDbLine
 10
853.6934392472
 20
735.0791896673
 30
0.0
 11
855.1497923414
 21
734.259476109
 31
0.0
  0
LINE
  5
1E1
330
1F
100
AcDbEntity
  8
0
  6
Continuous
 62
     7
370
    25
100
AcDbLine
 10
855.1497923414
 20
734.259476109
 30
0.0
 11
855.619941597
 21
734.0327638198
 31
0.0
  0
LINE
  5
1E2
330
1F
100
AcDbEntity
  8
0
  6
Continuous
 62
     7
370
    25
100
AcDbLine
 10
855.619941597
 20
734.0327638198
 30
0.0
 11
855.6535044605
 21
733.9946180754
 31
0.0
  0
LINE
  5
1E3
330
1F
100
AcDbEntity
  8
0
  6
Continuous
 62
     7
370
    25
100
AcDbLine
 10
855.6535044605
 20
733.9946180754
 30
0.0
 11
855.5528244088
 21
733.9130359021
 31
0.0
  0
LINE
  5
1E4
330
1F
100
AcDbEntity
  8
0
  6
Continuous
 62
     7
370
    25
100
AcDbLine
 10
855.5528244088
 20
733.9130359021
 30
0.0
 11
855.2330051635
 21
733.7286953926
 31
0.0
  0
LINE
  5
1E5
330
1F
100
AcDbEntity
  8
0
  6
Continuous
 62
     7
370
    25
100
AcDbLine
 10
855.2330051635
 20
733.7286953926
 30
0.0
 11
854.9055101306
 21
733.5304242458
 31
0.0
  0
LINE
  5
1E6
330
1F
100
AcDbEntity
  8
0
  6
Continuous
 62
     7
370
    25
100
AcDbLine
 10
854.9055101306
 20
733.5304242458
 30
0.0
 11
854.335817347
 21
733.2154614998
 31
0.0
  0
LINE
  5
1E7
330
1F
100
AcDbEntity
  8
0
  6
Continuous
 62
     7
370
    25
100
AcDbLine
 10
854.335817347
 20
733.2154614998
 30
0.0
 11
853.889318318
 21
732.9451432794
 31
0.0
  0
LINE
  5
1E8
330
1F
100
AcDbEntity
  8
0
  6
Continuous
 62
     7
370
    25
100
AcDbLine
 10
853.889318318
 20
732.9451432794
 30
0.0
 11
853.5647674041
 21
732.7325761679
 31
0.0
  0
LINE
  5
1E9
330
1F
100
AcDbEntity
  8
0
  6
Continuous
 62
     7
370
    25
100
AcDbLine
 10
853.5647674041
 20
732.7325761679
 30
0.0
 11
853.5647674041
 21
732.6743949893
 31
0.0
  0
LINE
  5
1EA
330
1F
100
AcDbEntity
  8
0
  6
Continuous
 62
     7
370
    25
100
AcDbLine
 10
853.5647674041
 20
732.6743949893
 30
0.0
 11
853.6750566457
 21
732.4400062383
 31
0.0
  0
LINE
  5
1EB
330
1F
100
AcDbEntity
  8
0
  6
Continuous
 62
     7
370
    25
100
AcDbLine
 10
853.6750566457
 20
732.4400062383
 30
0.0
 11
853.8007997652
 21
732.2125668074
 31
0.0
  0
LINE
  5
1EC
330
1F
100
AcDbEntity
  8
0
  6
Continuous
 62
     7
370
    25
100
AcDbLine
 10
853.8007997652
 20
732.2125668074
 30
0.0
 11
853.9142088097
 21
732.2125668074
 31
0.0
  0
LINE
  5
1ED
330
1F
100
AcDbEntity
  8
0
  6
Continuous
 62
     7
370
    25
100
AcDbLine
 10
853.9142088097
 20
732.2125668074
 30
0.0
 11
854.0282624634
 21
732.2417851788
 31
0.0
  0
LINE
  5
1EE
330
1F
100
AcDbEntity
  8
0
  6
Continuous
 62
     7
370
    25
100
AcDbLine
 10
854.2924839947
 20
732.4017494553
 30
0.0
 11
854.7347657485
 21
732.6743949893
 31
0.0
  0
LINE
  5
1EF
330
1F
100
AcDbEntity
  8
0
  6
Continuous
 62
     7
370
    25
100
AcDbLine
 10
854.7347657485
 20
732.6743949893
 30
0.0
 11
855.812459141
 21
733.3268491743
 31
0.0
  0
LINE
  5
1F0
330
1F
100
AcDbEntity
  8
0
  6
Continuous
 62
     7
370
    25
100
AcDbLine
 10
855.812459141
 20
733.3268491743
 30
0.0
 11
856.1426957614
 21
733.5304242458
 31
0.0
  0
LINE
  5
1F1
330
1F
100
AcDbEntity
  8
0
  6
Continuous
 62
     7
370
    25
100
AcDbLine
 10
856.1426957614
 20
733.5304242458
 30
0.0
 11
856.1863374572
 21
733.5590077094
 31
0.0
  0
LINE
  5
1F2
330
1F
100
AcDbEntity
  8
0
  6
Continuous
 62
     7
370
    25
100
AcDbLine
 10
856.1863374572
 20
733.5590077094
 30
0.0
 11
856.3127750309
 21
733.5590077094
 31
0.0
  0
LINE
  5
1F3
330
1F
100
AcDbEntity
  8
0
  6
Continuous
 62
     7
370
    25
100
AcDbLine
 10
856.3127750309
 20
733.5590077094
 30
0.0
 11
856.636363958
 21
733.4747128201
 31
0.0
  0
LINE
  5
1F4
330
1F
100
AcDbEntity
  8
0
  6
Continuous
 62
     7
370
    25
100
AcDbLine
 10
865.1136376802
 20
733.3482953923
 30
0.0
 11
864.3164762792
 21
733.5447159776
 31
0.0
  0
LINE
  5
1F5
330
1F
100
AcDbEntity
  8
0
  6
Continuous
 62
     7
370
    25
100
AcDbLine
 10
864.3164762792
 20
733.5447159776
 30
0.0
 11
863.6776856635
 21
733.6660331342
 31
0.0
  0
LINE
  5
1F6
330
1F
100
AcDbEntity
  8
0
  6
Continuous
 62
     7
370
    25
100
AcDbLine
 10
863.6776856635
 20
733.6660331342
 30
0.0
 11
862.8563379288
 21
733.7932109845
 31
0.0
  0
LINE
  5
1F7
330
1F
100
AcDbEntity
  8
0
  6
Continuous
 62
     7
370
    25
100
AcDbLine
 10
862.8563379288
 20
733.7932109845
 30
0.0
 11
861.89710546
 21
733.9152629021
 31
0.0
  0
LINE
  5
1F8
330
1F
100
AcDbEntity
  8
0
  6
Continuous
 62
     7
370
    25
100
AcDbLine
 10
861.89710546
 20
733.9152629021
 30
0.0
 11
861.4185204691
 21
733.9893672159
 31
0.0
  0
LINE
  5
1F9
330
1F
100
AcDbEntity
  8
0
  6
Continuous
 62
     7
370
    25
100
AcDbLine
 10
861.4185204691
 20
733.9893672159
 30
0.0
 11
861.132857154
 21
734.0597546625
 31
0.0
  0
LINE
  5
1FA
330
1F
100
AcDbEntity
  8
0
  6
Continuous
 62
     7
370
    25
100
AcDbLine
 10
861.132857154
 20
734.0597546625
 30
0.0
 11
860.688085394
 21
734.5045264225
 31
0.0
  0
LINE
  5
1FB
330
1F
100
AcDbEntity
  8
0
  6
Continuous
 62
     7
370
    25
100
AcDbLine
 10
860.688085394
 20
734.5045264225
 30
0.0
 11
860.3838673479
 21
734.9690114701
 31
0.0
  0
LINE
  5
1FC
330
1F
100
AcDbEntity
  8
0
  6
Continuous
 62
     7
370
    25
100
AcDbLine
 10
860.3838673479
 20
734.9690114701
 30
0.0
 11
860.092745721
 21
735.495581333
 31
0.0
  0
LINE
  5
1FD
330
1F
100
AcDbEntity
  8
0
  6
Continuous
 62
     7
370
    25
100
AcDbLine
 10
860.092745721
 20
735.495581333
 30
0.0
 11
859.7160988323
 21
736.2960383178
 31
0.0
  0
LINE
  5
1FE
330
1F
100
AcDbEntity
  8
0
  6
Continuous
 62
     7
370
    25
100
AcDbLine
 10
859.2236282389
 20
737.7972265525
 30
0.0
 11
858.9058946445
 21
739.0374968193
 31
0.0
  0
LINE
  5
1FF
330
1F
100
AcDbEntity
  8
0
  6
Continuous
 62
     7
370
    25
100
AcDbLine
 10
858.9058946445
 20
739.0374968193
 30
0.0
 11
858.7144670624
 21
740.0065712911
 31
0.0
  0
LINE
  5
200
330
1F
100
AcDbEntity
  8
0
  6
Continuous
 62
     7
370
    25
100
AcDbLine
 10
858.7144670624
 20
740.0065712911
 30
0.0
 11
858.5686254741
 21
740.8227760648
 31
0.0
  0
LINE
  5
201
330
1F
100
AcDbEntity
  8
0
  6
Continuous
 62
     7
370
    25
100
AcDbLine
 10
858.5686254741
 20
740.8227760648
 30
0.0
 11
858.5686254741
 21
740.9618528837
 31
0.0
  0
LINE
  5
202
330
1F
100
AcDbEntity
  8
0
  6
Continuous
 62
     7
370
    25
100
AcDbLine
 10
862.2280934579
 20
767.2271653564
 30
0.0
 11
861.8848861718
 21
766.4572320844
 31
0.0
  0
LINE
  5
203
330
1F
100
AcDbEntity
  8
0
  6
Continuous
 62
     7
370
    25
100
AcDbLine
 10
839.8413850429
 20
769.2864703078
 30
0.0
 11
839.644505245
 21
768.6906810177
 31
0.0
  0
LINE
  5
204
330
1F
100
AcDbEntity
  8
0
  6
Continuous
 62
     7
370
    25
100
AcDbLine
 10
838.2338970245
 20
722.9776908078
 30
0.0
 11
836.7775325295
 21
722.9776908078
 31
0.0
  0
LINE
  5
205
330
1F
100
AcDbEntity
  8
0
  6
Continuous
 62
     7
370
    25
100
AcDbLine
 10
838.2338970245
 20
725.5236318614
 30
0.0
 11
838.2338970245
 21
722.9776908078
 31
0.0
  0
LINE
  5
206
330
1F
100
AcDbEntity
  8
0
  6
Continuous
 62
     7
370
    25
100
AcDbLine
 10
841.0577792412
 20
725.5236318614
 30
0.0
 11
838.2338970245
 21
725.5236318614
 31
0.0
  0
LINE
  5
207
330
1F
100
AcDbEntity
  8
0
  6
Continuous
 62
     7
370
    25
100
AcDbLine
 10
841.0577792412
 20
726.7484468319
 30
0.0
 11
841.0577792412
 21
725.5236318614
 31
0.0
  0
LINE
  5
208
330
1F
100
AcDbEntity
  8
0
  6
Continuous
 62
     7
370
    25
100
AcDbLine
 10
838.2338970245
 20
726.7484468319
 30
0.0
 11
841.0577792412
 21
726.7484468319
 31
0.0
  0
LINE
  5
209
330
1F
100
AcDbEntity
  8
0
  6
Continuous
 62
     7
370
    25
100
AcDbLine
 10
841.4691321625
 20
728.1029258546
 30
0.0
 11
838.2338970245
 21
728.1029258546
 31
0.0
  0
LINE
  5
20A
330
1F
100
AcDbEntity
  8
0
  6
Continuous
 62
     7
370
    25
100
AcDbLine
 10
841.4691321625
 20
729.3954688349
 30
0.0
 11
841.4691321625
 21
728.1029258546
 31
0.0
  0
LINE
  5
20B
330
1F
100
AcDbEntity
  8
0
  6
Continuous
 62
     7
370
    25
100
AcDbLine
 10
836.7775325295
 20
729.3954688349
 30
0.0
 11
841.4691321625
 21
729.3954688349
 31
0.0
  0
LINE
  5
20C
330
1F
100
AcDbEntity
  8
0
  6
Continuous
 62
     7
370
    25
100
AcDbLine
 10
836.7775325295
 20
722.9776908078
 30
0.0
 11
836.7775325295
 21
729.3954688349
 31
0.0
  0
ARC
  5
20D
330
1F
100
AcDbEntity
  8
0
  6
Continuous
 62
     7
370
    25
100
AcDbCircle
 10
833.4241873466
 20
775.2386689012
 30
0.0
 40
2.5
100
AcDbArc
 50
90.0
 51
180.0
  0
LINE
  5
20E
330
1F
100
AcDbEntity
  8
0
  6
Continuous
 62
     7
370
    25
100
AcDbLine
 10
833.4241873466
 20
777.7386689012
 30
0.0
 11
866.4241873466
 21
777.7386689012
 31
0.0
  0
ARC
  5
20F
330
1F
100
AcDbEntity
  8
0
  6
Continuous
 62
     7
370
    25
100
AcDbCircle
 10
866.4241873466
 20
775.2386689012
 30
0.0
 40
2.5
100
AcDbArc
 50
0.0
 51
90.0
  0
LINE
  5
210
330
1F
100
AcDbEntity
  8
0
  6
Continuous
 62
     7
370
    25
100
AcDbLine
 10
868.9241873466
 20
775.2386689012
 30
0.0
 11
868.9241873466
 21
722.2386689012
 31
0.0
  0
ARC
  5
211
330
1F
100
AcDbEntity
  8
0
  6
Continuous
 62
     7
370
    25
100
AcDbCircle
 10
866.4241873466
 20
722.2386689012
 30
0.0
 40
2.5
100
AcDbArc
 50
270.0
 51
0.0
  0
LINE
  5
212
330
1F
100
AcDbEntity
  8
0
  6
Continuous
 62
     7
370
    25
100
AcDbLine
 10
833.4241873466
 20
719.7386689012
 30
0.0
 11
866.4241873466
 21
719.7386689012
 31
0.0
  0
ARC
  5
213
330
1F
100
AcDbEntity
  8
0
  6
Continuous
 62
     7
370
    25
100
AcDbCircle
 10
833.4241873466
 20
722.2386689012
 30
0.0
 40
2.5
100
AcDbArc
 50
180.0
 51
270.0
  0
LINE
  5
214
330
1F
100
AcDbEntity
  8
0
  6
Continuous
 62
     7
370
    25
100
AcDbLine
 10
830.9241873466
 20
775.2386689012
 30
0.0
 11
830.9241873466
 21
722.2386689012
 31
0.0
  0
LINE
  5
215
330
1F
100
AcDbEntity
  8
0
  6
Continuous
 62
     7
370
    25
100
AcDbLine
 10
845.3458878673
 20
727.4053751011
 30
0.0
 11
845.1150692598
 21
727.5486172757
 31
0.0
  0
LINE
  5
216
330
1F
100
AcDbEntity
  8
0
  6
Continuous
 62
     7
370
    25
100
AcDbLine
 10
845.1150692598
 20
727.5486172757
 30
0.0
 11
844.9438465897
 21
727.6215653639
 31
0.0
  0
LINE
  5
217
330
1F
100
AcDbEntity
  8
0
  6
Continuous
 62
     7
370
    25
100
AcDbLine
 10
844.9438465897
 20
727.6215653639
 30
0.0
 11
844.5048720684
 21
727.7456817847
 31
0.0
  0
LINE
  5
218
330
1F
100
AcDbEntity
  8
0
  6
Continuous
 62
     7
370
    25
100
AcDbLine
 10
844.5048720684
 20
727.7456817847
 30
0.0
 11
843.4366398582
 21
727.7456817847
 31
0.0
  0
LINE
  5
219
330
1F
100
AcDbEntity
  8
0
  6
Continuous
 62
     7
370
    25
100
AcDbLine
 10
843.4366398582
 20
727.7456817847
 30
0.0
 11
842.9956085543
 21
727.6819733037
 31
0.0
  0
LINE
  5
21A
330
1F
100
AcDbEntity
  8
0
  6
Continuous
 62
     7
370
    25
100
AcDbLine
 10
842.9956085543
 20
727.6819733037
 30
0.0
 11
842.7915109884
 21
727.6215653639
 31
0.0
  0
LINE
  5
21B
330
1F
100
AcDbEntity
  8
0
  6
Continuous
 62
     7
370
    25
100
AcDbLine
 10
842.7915109884
 20
727.6215653639
 30
0.0
 11
842.537887007
 21
727.4868073577
 31
0.0
  0
LINE
  5
21C
330
1F
100
AcDbEntity
  8
0
  6
Continuous
 62
     7
370
    25
100
AcDbLine
 10
842.537887007
 20
727.4868073577
 30
0.0
 11
842.343611261
 21
727.3602902269
 31
0.0
  0
LINE
  5
21D
330
1F
100
AcDbEntity
  8
0
  6
Continuous
 62
     7
370
    25
100
AcDbLine
 10
842.343611261
 20
727.3602902269
 30
0.0
 11
842.2101921967
 21
727.226854813
 31
0.0
  0
LINE
  5
21E
330
1F
100
AcDbEntity
  8
0
  6
Continuous
 62
     7
370
    25
100
AcDbLine
 10
842.2101921967
 20
727.226854813
 30
0.0
 11
842.0719315742
 21
727.0387063369
 31
0.0
  0
LINE
  5
21F
330
1F
100
AcDbEntity
  8
0
  6
Continuous
 62
     7
370
    25
100
AcDbLine
 10
842.0719315742
 20
727.0387063369
 30
0.0
 11
841.9579021947
 21
726.8320280867
 31
0.0
  0
LINE
  5
220
330
1F
100
AcDbEntity
  8
0
  6
Continuous
 62
     7
370
    25
100
AcDbLine
 10
841.9579021947
 20
726.8320280867
 30
0.0
 11
841.8866858748
 21
726.6495999796
 31
0.0
  0
LINE
  5
221
330
1F
100
AcDbEntity
  8
0
  6
Continuous
 62
     7
370
    25
100
AcDbLine
 10
841.8866858748
 20
726.6495999796
 30
0.0
 11
841.8614077013
 21
726.3968081013
 31
0.0
  0
LINE
  5
222
330
1F
100
AcDbEntity
  8
0
  6
Continuous
 62
     7
370
    25
100
AcDbLine
 10
857.0292628663
 20
734.046111477
 30
0.0
 11
856.636363958
 21
734.1284935062
 31
0.0
  0
LINE
  5
223
330
1F
100
AcDbEntity
  8
0
  6
Continuous
 62
     7
370
    25
100
AcDbLine
 10
856.636363958
 20
734.1284935062
 30
0.0
 11
856.3851781664
 21
734.1939273846
 31
0.0
  0
LINE
  5
224
330
1F
100
AcDbEntity
  8
0
  6
Continuous
 62
     7
370
    25
100
AcDbLine
 10
856.3851781664
 20
734.1939273846
 30
0.0
 11
856.2677785106
 21
734.3065691914
 31
0.0
  0
LINE
  5
225
330
1F
100
AcDbEntity
  8
0
  6
Continuous
 62
     7
370
    25
100
AcDbLine
 10
856.2677785106
 20
734.3065691914
 30
0.0
 11
856.0672256248
 21
734.575250539
 31
0.0
  0
LINE
  5
226
330
1F
100
AcDbEntity
  8
0
  6
Continuous
 62
     7
370
    25
100
AcDbLine
 10
856.0672256248
 20
734.575250539
 30
0.0
 11
855.874666479
 21
734.9235442886
 31
0.0
  0
LINE
  5
227
330
1F
100
AcDbEntity
  8
0
  6
Continuous
 62
     7
370
    25
100
AcDbLine
 10
855.874666479
 20
734.9235442886
 30
0.0
 11
855.7337417916
 21
735.2230400598
 31
0.0
  0
LINE
  5
228
330
1F
100
AcDbEntity
  8
0
  6
Continuous
 62
     7
370
    25
100
AcDbLine
 10
855.7337417916
 20
735.2230400598
 30
0.0
 11
855.5528244088
 21
735.7235689323
 31
0.0
  0
LINE
  5
229
330
1F
100
AcDbEntity
  8
0
  6
Continuous
 62
     7
370
    25
100
AcDbLine
 10
855.5528244088
 20
735.7235689323
 30
0.0
 11
855.4293067865
 21
736.1388118222
 31
0.0
  0
LINE
  5
22A
330
1F
100
AcDbEntity
  8
0
  6
Continuous
 62
     7
370
    25
100
AcDbLine
 10
855.4293067865
 20
736.1388118222
 30
0.0
 11
855.2931354828
 21
736.6703552979
 31
0.0
  0
LINE
  5
22B
330
1F
100
AcDbEntity
  8
0
  6
Continuous
 62
     7
370
    25
100
AcDbLine
 10
855.2931354828
 20
736.6703552979
 30
0.0
 11
855.2330051636
 21
736.9967310304
 31
0.0
  0
LINE
  5
22C
330
1F
100
AcDbEntity
  8
0
  6
Continuous
 62
     7
370
    25
100
AcDbLine
 10
855.2330051636
 20
736.9967310304
 30
0.0
 11
855.2055710083
 21
737.2605462077
 31
0.0
  0
LINE
  5
22D
330
1F
100
AcDbEntity
  8
0
  6
Continuous
 62
     7
370
    25
100
AcDbLine
 10
855.2055710083
 20
737.2605462077
 30
0.0
 11
855.2055710083
 21
737.379170132
 31
0.0
  0
LINE
  5
22E
330
1F
100
AcDbEntity
  8
0
  6
Continuous
 62
     7
370
    25
100
AcDbLine
 10
855.2055710083
 20
737.379170132
 30
0.0
 11
855.2630703232
 21
737.379170132
 31
0.0
  0
LINE
  5
22F
330
1F
100
AcDbEntity
  8
0
  6
Continuous
 62
     7
370
    25
100
AcDbLine
 10
855.2630703232
 20
737.379170132
 30
0.0
 11
855.4293067865
 21
737.1564626063
 31
0.0
  0
LINE
  5
230
330
1F
100
AcDbEntity
  8
0
  6
Continuous
 62
     7
370
    25
100
AcDbLine
 10
855.4293067865
 20
737.1564626063
 30
0.0
 11
855.7258843049
 21
736.8193885593
 31
0.0
  0
LINE
  5
231
330
1F
100
AcDbEntity
  8
0
  6
Continuous
 62
     7
370
    25
100
AcDbLine
 10
855.7258843049
 20
736.8193885593
 30
0.0
 11
856.1248002232
 21
736.4366394829
 31
0.0
  0
LINE
  5
232
330
1F
100
AcDbEntity
  8
0
  6
Continuous
 62
     7
370
    25
100
AcDbLine
 10
856.1248002232
 20
736.4366394829
 30
0.0
 11
856.5107710623
 21
736.1123625587
 31
0.0
  0
LINE
  5
233
330
1F
100
AcDbEntity
  8
0
  6
Continuous
 62
     7
370
    25
100
AcDbLine
 10
856.5107710623
 20
736.1123625587
 30
0.0
 11
856.9472018534
 21
735.8003513873
 31
0.0
  0
LINE
  5
234
330
1F
100
AcDbEntity
  8
0
  6
Continuous
 62
     7
370
    25
100
AcDbLine
 10
856.9472018534
 20
735.8003513873
 30
0.0
 11
857.3465306153
 21
735.5301672462
 31
0.0
  0
LINE
  5
235
330
1F
100
AcDbEntity
  8
0
  6
Continuous
 62
     7
370
    25
100
AcDbLine
 10
857.3465306153
 20
735.5301672462
 30
0.0
 11
857.6697352135
 21
735.3339024551
 31
0.0
  0
LINE
  5
236
330
1F
100
AcDbEntity
  8
0
  6
Continuous
 62
     7
370
    25
100
AcDbLine
 10
857.6697352135
 20
735.3339024551
 30
0.0
 11
858.0481098601
 21
735.1303022155
 31
0.0
  0
LINE
  5
237
330
1F
100
AcDbEntity
  8
0
  6
Continuous
 62
     7
370
    25
100
AcDbLine
 10
858.0481098601
 20
735.1303022155
 30
0.0
 11
858.5223059909
 21
734.8874917012
 31
0.0
  0
LINE
  5
238
330
1F
100
AcDbEntity
  8
0
  6
Continuous
 62
     7
370
    25
100
AcDbLine
 10
858.5223059909
 20
734.8874917012
 30
0.0
 11
859.2706505294
 21
734.4848137505
 31
0.0
  0
LINE
  5
239
330
1F
100
AcDbEntity
  8
0
  6
Continuous
 62
     7
370
    25
100
AcDbLine
 10
859.2706505294
 20
734.4848137505
 30
0.0
 11
860.5065924116
 21
733.7891594328
 31
0.0
  0
LINE
  5
23A
330
1F
100
AcDbEntity
  8
0
  6
Continuous
 62
     7
370
    25
100
AcDbLine
 10
860.5065924116
 20
733.7891594328
 30
0.0
 11
860.5640024232
 21
733.7239103032
 31
0.0
  0
LINE
  5
23B
330
1F
100
AcDbEntity
  8
0
  6
Continuous
 62
     7
370
    25
100
AcDbLine
 10
860.5640024232
 20
733.7239103032
 30
0.0
 11
860.4324422721
 21
733.6081559653
 31
0.0
  0
LINE
  5
23C
330
1F
100
AcDbEntity
  8
0
  6
Continuous
 62
     7
370
    25
100
AcDbLine
 10
860.4324422721
 20
733.6081559653
 30
0.0
 11
860.1023600504
 21
733.3617713811
 31
0.0
  0
LINE
  5
23D
330
1F
100
AcDbEntity
  8
0
  6
Continuous
 62
     7
370
    25
100
AcDbLine
 10
860.1023600504
 20
733.3617713811
 30
0.0
 11
859.6645783569
 21
733.0070319724
 31
0.0
  0
LINE
  5
23E
330
1F
100
AcDbEntity
  8
0
  6
Continuous
 62
     7
370
    25
100
AcDbLine
 10
859.6645783569
 20
733.0070319724
 30
0.0
 11
859.1315839422
 21
732.5380722223
 31
0.0
  0
LINE
  5
23F
330
1F
100
AcDbEntity
  8
0
  6
Continuous
 62
     7
370
    25
100
AcDbLine
 10
859.1315839422
 20
732.5380722223
 30
0.0
 11
858.7436544002
 21
732.1337570221
 31
0.0
  0
LINE
  5
240
330
1F
100
AcDbEntity
  8
0
  6
Continuous
 62
     7
370
    25
100
AcDbLine
 10
858.7436544002
 20
732.1337570221
 30
0.0
 11
858.305190249
 21
731.6464721346
 31
0.0
  0
LINE
  5
241
330
1F
100
AcDbEntity
  8
0
  6
Continuous
 62
     7
370
    25
100
AcDbLine
 10
858.305190249
 20
731.6464721346
 30
0.0
 11
858.2577767324
 21
731.5622343898
 31
0.0
  0
LINE
  5
242
330
1F
100
AcDbEntity
  8
0
  6
Continuous
 62
     7
370
    25
100
AcDbLine
 10
858.2577767324
 20
731.5622343898
 30
0.0
 11
858.2719369384
 21
731.4853755331
 31
0.0
  0
LINE
  5
243
330
1F
100
AcDbEntity
  8
0
  6
Continuous
 62
     7
370
    25
100
AcDbLine
 10
858.2719369384
 20
731.4853755331
 30
0.0
 11
858.4494059717
 21
731.3362733046
 31
0.0
  0
LINE
  5
244
330
1F
100
AcDbEntity
  8
0
  6
Continuous
 62
     7
370
    25
100
AcDbLine
 10
858.4494059717
 20
731.3362733046
 30
0.0
 11
858.6878449764
 21
731.121723339
 31
0.0
  0
LINE
  5
245
330
1F
100
AcDbEntity
  8
0
  6
Continuous
 62
     7
370
    25
100
AcDbLine
 10
858.6878449764
 20
731.121723339
 30
0.0
 11
858.7682261981
 21
731.0829624337
 31
0.0
  0
LINE
  5
246
330
1F
100
AcDbEntity
  8
0
  6
Continuous
 62
     7
370
    25
100
AcDbLine
 10
858.7682261981
 20
731.0829624337
 30
0.0
 11
858.873295282
 21
731.0938885737
 31
0.0
  0
LINE
  5
247
330
1F
100
AcDbEntity
  8
0
  6
Continuous
 62
     7
370
    25
100
AcDbLine
 10
858.873295282
 20
731.0938885737
 30
0.0
 11
859.1092828904
 21
731.3212623474
 31
0.0
  0
LINE
  5
248
330
1F
100
AcDbEntity
  8
0
  6
Continuous
 62
     7
370
    25
100
AcDbLine
 10
859.1092828904
 20
731.3212623474
 30
0.0
 11
859.4213129199
 21
731.6464721346
 31
0.0
  0
LINE
  5
249
330
1F
100
AcDbEntity
  8
0
  6
Continuous
 62
     7
370
    25
100
AcDbLine
 10
859.4213129199
 20
731.6464721346
 30
0.0
 11
859.8735470438
 21
732.0987062585
 31
0.0
  0
LINE
  5
24A
330
1F
100
AcDbEntity
  8
0
  6
Continuous
 62
     7
370
    25
100
AcDbLine
 10
859.8735470438
 20
732.0987062585
 30
0.0
 11
860.4421520608
 21
732.6134292896
 31
0.0
  0
LINE
  5
24B
330
1F
100
AcDbEntity
  8
0
  6
Continuous
 62
     7
370
    25
100
AcDbLine
 10
860.4421520608
 20
732.6134292896
 30
0.0
 11
860.8359827145
 21
732.9325546785
 31
0.0
  0
LINE
  5
24C
330
1F
100
AcDbEntity
  8
0
  6
Continuous
 62
     7
370
    25
100
AcDbLine
 10
860.8359827145
 20
732.9325546785
 30
0.0
 11
861.132857154
 21
733.1269948708
 31
0.0
  0
LINE
  5
24D
330
1F
100
AcDbEntity
  8
0
  6
Continuous
 62
     7
370
    25
100
AcDbLine
 10
861.132857154
 20
733.1269948708
 30
0.0
 11
861.2535836872
 21
733.1706317709
 31
0.0
  0
LINE
  5
24E
330
1F
100
AcDbEntity
  8
0
  6
Continuous
 62
     7
370
    25
100
AcDbLine
 10
861.2535836872
 20
733.1706317709
 30
0.0
 11
861.5409612844
 21
733.1706317709
 31
0.0
  0
LINE
  5
24F
330
1F
100
AcDbEntity
  8
0
  6
Continuous
 62
     7
370
    25
100
AcDbLine
 10
861.5409612844
 20
733.1706317709
 30
0.0
 11
862.2497268741
 21
733.0861673644
 31
0.0
  0
LINE
  5
250
330
1F
100
AcDbEntity
  8
0
  6
Continuous
 62
     7
370
    25
100
AcDbLine
 10
862.2497268741
 20
733.0861673644
 30
0.0
 11
862.7608038804
 21
733.0070319724
 31
0.0
  0
LINE
  5
251
330
1F
100
AcDbEntity
  8
0
  6
Continuous
 62
     7
370
    25
100
AcDbLine
 10
862.7608038804
 20
733.0070319724
 30
0.0
 11
863.5218022443
 21
732.8625054946
 31
0.0
  0
LINE
  5
252
330
1F
100
AcDbEntity
  8
0
  6
Continuous
 62
     7
370
    25
100
AcDbLine
 10
863.5218022443
 20
732.8625054946
 30
0.0
 11
864.1773195145
 21
732.7610049076
 31
0.0
  0
LINE
  5
253
330
1F
100
AcDbEntity
  8
0
  6
Continuous
 62
     7
370
    25
100
AcDbLine
 10
864.1773195145
 20
732.7610049076
 30
0.0
 11
864.9408126677
 21
732.562115003
 31
0.0
  0
LINE
  5
254
330
1F
100
AcDbEntity
  8
0
  6
Continuous
 62
     7
370
    25
100
AcDbLine
 10
864.9408126677
 20
732.562115003
 30
0.0
 11
865.2864626927
 21
732.4400062383
 31
0.0
  0
LINE
  5
255
330
1F
100
AcDbEntity
  8
0
  6
Continuous
 62
     7
370
    25
100
AcDbLine
 10
865.2864626927
 20
732.4400062383
 30
0.0
 11
865.4105885618
 21
732.4400062383
 31
0.0
  0
LINE
  5
256
330
1F
100
AcDbEntity
  8
0
  6
Continuous
 62
     7
370
    25
100
AcDbLine
 10
865.4105885618
 20
732.4400062383
 30
0.0
 11
865.5038073832
 21
732.5010606206
 31
0.0
  0
LINE
  5
257
330
1F
100
AcDbEntity
  8
0
  6
Continuous
 62
     7
370
    25
100
AcDbLine
 10
865.5038073832
 20
732.5010606206
 30
0.0
 11
865.6640122114
 21
732.9858656738
 31
0.0
  0
LINE
  5
258
330
1F
100
AcDbEntity
  8
0
  6
Continuous
 62
     7
370
    25
100
AcDbLine
 10
865.6640122114
 20
732.9858656738
 30
0.0
 11
865.6640122114
 21
733.1565909585
 31
0.0
  0
LINE
  5
259
330
1F
100
AcDbEntity
  8
0
  6
Continuous
 62
     7
370
    25
100
AcDbLine
 10
865.6640122114
 20
733.1565909585
 30
0.0
 11
865.5594192177
 21
733.2154614998
 31
0.0
  0
LINE
  5
25A
330
1F
100
AcDbEntity
  8
0
  6
Continuous
 62
     7
370
    25
100
AcDbLine
 10
865.5594192177
 20
733.2154614998
 30
0.0
 11
865.1136376802
 21
733.3482953923
 31
0.0
  0
LINE
  5
25B
330
1F
100
AcDbEntity
  8
0
  6
Continuous
 62
     7
370
    25
100
AcDbLine
 10
846.350108513
 20
752.6023799705
 30
0.0
 11
846.3283251261
 21
752.0416187454
 31
0.0
  0
LINE
  5
25C
330
1F
100
AcDbEntity
  8
0
  6
Continuous
 62
     7
370
    25
100
AcDbLine
 10
846.3283251261
 20
752.0416187454
 30
0.0
 11
846.3085069596
 21
751.8527219927
 31
0.0
  0
LINE
  5
25D
330
1F
100
AcDbEntity
  8
0
  6
Continuous
 62
     7
370
    25
100
AcDbLine
 10
846.3085069596
 20
751.8527219927
 30
0.0
 11
846.3085069596
 21
751.2505734837
 31
0.0
  0
LINE
  5
25E
330
1F
100
AcDbEntity
  8
0
  6
Continuous
 62
     7
370
    25
100
AcDbLine
 10
846.3085069596
 20
751.2505734837
 30
0.0
 11
846.3479296668
 21
750.6648688231
 31
0.0
  0
LINE
  5
25F
330
1F
100
AcDbEntity
  8
0
  6
Continuous
 62
     7
370
    25
100
AcDbLine
 10
846.3479296668
 20
750.6648688231
 30
0.0
 11
846.4915487315
 21
750.0178823231
 31
0.0
  0
LINE
  5
260
330
1F
100
AcDbEntity
  8
0
  6
Continuous
 62
     7
370
    25
100
AcDbLine
 10
846.4915487315
 20
750.0178823231
 30
0.0
 11
846.6739969579
 21
749.3366803625
 31
0.0
  0
LINE
  5
261
330
1F
100
AcDbEntity
  8
0
  6
Continuous
 62
     7
370
    25
100
AcDbLine
 10
846.6739969579
 20
749.3366803625
 30
0.0
 11
847.01012831
 21
748.5382929895
 31
0.0
  0
LINE
  5
262
330
1F
100
AcDbEntity
  8
0
  6
Continuous
 62
     7
370
    25
100
AcDbLine
 10
847.01012831
 20
748.5382929895
 30
0.0
 11
847.313465965
 21
747.9527935106
 31
0.0
  0
LINE
  5
263
330
1F
100
AcDbEntity
  8
0
  6
Continuous
 62
     7
370
    25
100
AcDbLine
 10
847.313465965
 20
747.9527935106
 30
0.0
 11
847.7150475915
 21
747.3691737687
 31
0.0
  0
LINE
  5
264
330
1F
100
AcDbEntity
  8
0
  6
Continuous
 62
     7
370
    25
100
AcDbLine
 10
847.7150475915
 20
747.3691737687
 30
0.0
 11
848.1610738737
 21
746.8427056134
 31
0.0
  0
LINE
  5
265
330
1F
100
AcDbEntity
  8
0
  6
Continuous
 62
     7
370
    25
100
AcDbLine
 10
859.7160988323
 20
736.2960383178
 30
0.0
 11
859.4566801115
 21
737.013750225
 31
0.0
  0
LINE
  5
266
330
1F
100
AcDbEntity
  8
0
  6
Continuous
 62
     7
370
    25
100
AcDbLine
 10
859.4566801115
 20
737.013750225
 30
0.0
 11
859.2236282389
 21
737.7972265525
 31
0.0
  0
LINE
  5
267
330
1F
100
AcDbEntity
  8
0
  6
Continuous
 62
     7
370
    25
100
AcDbLine
 10
848.6997247688
 20
746.3704934872
 30
0.0
 11
848.6997247688
 21
746.3096465566
 31
0.0
  0
LINE
  5
268
330
1F
100
AcDbEntity
  8
0
  6
Continuous
 62
     7
370
    25
100
AcDbLine
 10
848.6997247688
 20
746.3096465566
 30
0.0
 11
848.5406331076
 21
746.2001775249
 31
0.0
  0
LINE
  5
269
330
1F
100
AcDbEntity
  8
0
  6
Continuous
 62
     7
370
    25
100
AcDbLine
 10
848.5406331076
 20
746.2001775249
 30
0.0
 11
848.0917674278
 21
745.9414559835
 31
0.0
  0
LINE
  5
26A
330
1F
100
AcDbEntity
  8
0
  6
Continuous
 62
     7
370
    25
100
AcDbLine
 10
848.0917674278
 20
745.9414559835
 30
0.0
 11
846.0341789579
 21
744.8038889768
 31
0.0
  0
LINE
  5
26B
330
1F
100
AcDbEntity
  8
0
  6
Continuous
 62
     7
370
    25
100
AcDbLine
 10
858.5686254741
 20
740.9618528837
 30
0.0
 11
858.7682261982
 21
741.0925829096
 31
0.0
  0
LINE
  5
26C
330
1F
100
AcDbEntity
  8
0
  6
Continuous
 62
     7
370
    25
100
AcDbLine
 10
841.5760204317
 20
742.9116125305
 30
0.0
 11
840.4367376852
 21
742.588937889
 31
0.0
  0
LINE
  5
26D
330
1F
100
AcDbEntity
  8
0
  6
Continuous
 62
     7
370
    25
100
AcDbLine
 10
840.4367376852
 20
742.588937889
 30
0.0
 11
838.5781141202
 21
742.1998786945
 31
0.0
  0
LINE
  5
26E
330
1F
100
AcDbEntity
  8
0
  6
Continuous
 62
     7
370
    25
100
AcDbLine
 10
838.5781141202
 20
742.1998786945
 30
0.0
 11
837.2239793451
 21
742.0135014082
 31
0.0
  0
LINE
  5
26F
330
1F
100
AcDbEntity
  8
0
  6
Continuous
 62
     7
370
    25
100
AcDbLine
 10
837.2239793451
 20
742.0135014082
 30
0.0
 11
836.1147801495
 21
741.905377067
 31
0.0
  0
LINE
  5
270
330
1F
100
AcDbEntity
  8
0
  6
Continuous
 62
     7
370
    25
100
AcDbLine
 10
836.1147801495
 20
741.905377067
 30
0.0
 11
833.7050931945
 21
741.905377067
 31
0.0
  0
LINE
  5
271
330
1F
100
AcDbEntity
  8
0
  6
Continuous
 62
     7
370
    25
100
AcDbLine
 10
833.7050931945
 20
741.905377067
 30
0.0
 11
832.6942547635
 21
742.0114295219
 31
0.0
  0
LINE
  5
272
330
1F
100
AcDbEntity
  8
0
  6
Continuous
 62
     7
370
    25
100
AcDbLine
 10
832.6942547635
 20
742.0114295219
 30
0.0
 11
832.5798362007
 21
742.0354205109
 31
0.0
  0
LINE
  5
273
330
1F
100
AcDbEntity
  8
0
  6
Continuous
 62
     7
370
    25
100
AcDbLine
 10
832.5798362007
 20
742.0354205109
 30
0.0
 11
832.3976263513
 21
742.0354205109
 31
0.0
  0
LINE
  5
274
330
1F
100
AcDbEntity
  8
0
  6
Continuous
 62
     7
370
    25
100
AcDbLine
 10
848.2996360333
 20
722.9776908078
 30
0.0
 11
846.9080036491
 21
722.9776908078
 31
0.0
  0
LINE
  5
275
330
1F
100
AcDbEntity
  8
0
  6
Continuous
 62
     7
370
    25
100
AcDbLine
 10
848.2996360333
 20
729.3954688349
 30
0.0
 11
848.2996360333
 21
722.9776908078
 31
0.0
  0
LINE
  5
276
330
1F
100
AcDbEntity
  8
0
  6
Continuous
 62
     7
370
    25
100
AcDbLine
 10
846.9080036491
 20
729.3954688349
 30
0.0
 11
848.2996360333
 21
729.3954688349
 31
0.0
  0
LINE
  5
277
330
1F
100
AcDbEntity
  8
0
  6
Continuous
 62
     7
370
    25
100
AcDbLine
 10
846.9080036491
 20
722.9776908078
 30
0.0
 11
846.9080036491
 21
729.3954688349
 31
0.0
  0
LINE
  5
278
330
1F
100
AcDbEntity
  8
0
  6
Continuous
 62
     7
370
    25
100
AcDbLine
 10
841.8614077013
 20
726.3968081013
 30
0.0
 11
841.8614077013
 21
726.1556523131
 31
0.0
  0
LINE
  5
279
330
1F
100
AcDbEntity
  8
0
  6
Continuous
 62
     7
370
    25
100
AcDbLine
 10
841.8614077013
 20
726.1556523131
 30
0.0
 11
843.0875467935
 21
726.1556523131
 31
0.0
  0
LINE
  5
27A
330
1F
100
AcDbEntity
  8
0
  6
Continuous
 62
     7
370
    25
100
AcDbLine
 10
843.0875467935
 20
726.1556523131
 30
0.0
 11
843.148677655
 21
726.3420094256
 31
0.0
  0
LINE
  5
27B
330
1F
100
AcDbEntity
  8
0
  6
Continuous
 62
     7
370
    25
100
AcDbLine
 10
850.4359212171
 20
725.6722232245
 30
0.0
 11
850.4359212171
 21
724.9649723237
 31
0.0
  0
LINE
  5
27C
330
1F
100
AcDbEntity
  8
0
  6
Continuous
 62
     7
370
    25
100
AcDbLine
 10
850.4359212171
 20
725.6722232245
 30
0.0
 11
850.4664875568
 21
725.8477634653
 31
0.0
  0
LINE
  5
27D
330
1F
100
AcDbEntity
  8
0
  6
Continuous
 62
     7
370
    25
100
AcDbLine
 10
843.4599483861
 20
726.6167829206
 30
0.0
 11
843.6582629684
 21
726.7007832179
 31
0.0
  0
LINE
  5
27E
330
1F
100
AcDbEntity
  8
0
  6
Continuous
 62
     7
370
    25
100
AcDbLine
 10
843.6582629684
 20
726.7007832179
 30
0.0
 11
844.1122645751
 21
726.7007832179
 31
0.0
  0
LINE
  5
27F
330
1F
100
AcDbEntity
  8
0
  6
Continuous
 62
     7
370
    25
100
AcDbLine
 10
844.1122645751
 20
726.7007832179
 30
0.0
 11
844.3297892073
 21
726.6294284519
 31
0.0
  0
LINE
  5
280
330
1F
100
AcDbEntity
  8
0
  6
Continuous
 62
     7
370
    25
100
AcDbLine
 10
844.3297892073
 20
726.6294284519
 30
0.0
 11
844.4982659412
 21
726.4899633019
 31
0.0
  0
LINE
  5
281
330
1F
100
AcDbEntity
  8
0
  6
Continuous
 62
     7
370
    25
100
AcDbLine
 10
850.8344794178
 20
726.4899633019
 30
0.0
 11
850.9374143864
 21
726.5631880305
 31
0.0
  0
LINE
  5
282
330
1F
100
AcDbEntity
  8
0
  6
Continuous
 62
     7
370
    25
100
AcDbLine
 10
850.9374143864
 20
726.5631880305
 30
0.0
 11
851.0466699234
 21
726.6028305921
 31
0.0
  0
LINE
  5
283
330
1F
100
AcDbEntity
  8
0
  6
Continuous
 62
     7
370
    25
100
AcDbLine
 10
851.0466699234
 20
726.6028305921
 30
0.0
 11
851.1889103222
 21
726.6340558036
 31
0.0
  0
LINE
  5
284
330
1F
100
AcDbEntity
  8
0
  6
Continuous
 62
     7
370
    25
100
AcDbLine
 10
851.1889103222
 20
726.6340558036
 30
0.0
 11
851.4405003631
 21
726.6340558036
 31
0.0
  0
LINE
  5
285
330
1F
100
AcDbEntity
  8
0
  6
Continuous
 62
     7
370
    25
100
AcDbLine
 10
851.4405003631
 20
726.6340558036
 30
0.0
 11
851.5875511391
 21
726.6028305921
 31
0.0
  0
LINE
  5
286
330
1F
100
AcDbEntity
  8
0
  6
Continuous
 62
     7
370
    25
100
AcDbLine
 10
843.5320243861
 20
725.9009102351
 30
0.0
 11
843.148677655
 21
725.8330418967
 31
0.0
  0
LINE
  5
287
330
1F
100
AcDbEntity
  8
0
  6
Continuous
 62
     7
370
    25
100
AcDbLine
 10
843.148677655
 20
725.8330418967
 30
0.0
 11
842.557108854
 21
725.6679945361
 31
0.0
  0
LINE
  5
288
330
1F
100
AcDbEntity
  8
0
  6
Continuous
 62
     7
370
    25
100
AcDbLine
 10
842.557108854
 20
725.6679945361
 30
0.0
 11
842.1830257718
 21
725.4767368446
 31
0.0
  0
LINE
  5
289
330
1F
100
AcDbEntity
  8
0
  6
Continuous
 62
     7
370
    25
100
AcDbLine
 10
842.1830257718
 20
725.4767368446
 30
0.0
 11
841.9246834213
 21
725.2636783152
 31
0.0
  0
LINE
  5
28A
330
1F
100
AcDbEntity
  8
0
  6
Continuous
 62
     7
370
    25
100
AcDbLine
 10
841.9246834213
 20
725.2636783152
 30
0.0
 11
841.7607800845
 21
725.0656797553
 31
0.0
  0
LINE
  5
28B
330
1F
100
AcDbEntity
  8
0
  6
Continuous
 62
     7
370
    25
100
AcDbLine
 10
841.7607800845
 20
725.0656797553
 30
0.0
 11
841.6377331601
 21
724.7768658401
 31
0.0
  0
LINE
  5
28C
330
1F
100
AcDbEntity
  8
0
  6
Continuous
 62
     7
370
    25
100
AcDbLine
 10
841.6377331601
 20
724.7768658401
 30
0.0
 11
841.5760204317
 21
724.4790086399
 31
0.0
  0
LINE
  5
28D
330
1F
100
AcDbEntity
  8
0
  6
Continuous
 62
     7
370
    25
100
AcDbLine
 10
841.5760204317
 20
724.4790086399
 30
0.0
 11
841.5760204317
 21
724.2108854101
 31
0.0
  0
LINE
  5
28E
330
1F
100
AcDbEntity
  8
0
  6
Continuous
 62
     7
370
    25
100
AcDbLine
 10
841.5760204317
 20
724.2108854101
 30
0.0
 11
841.655306599
 21
723.8913856834
 31
0.0
  0
LINE
  5
28F
330
1F
100
AcDbEntity
  8
0
  6
Continuous
 62
     7
370
    25
100
AcDbLine
 10
841.655306599
 20
723.8913856834
 30
0.0
 11
841.7906063596
 21
723.5719592482
 31
0.0
  0
LINE
  5
290
330
1F
100
AcDbEntity
  8
0
  6
Continuous
 62
     7
370
    25
100
AcDbLine
 10
841.7906063596
 20
723.5719592482
 30
0.0
 11
841.9668378539
 21
723.3582712134
 31
0.0
  0
LINE
  5
291
330
1F
100
AcDbEntity
  8
0
  6
Continuous
 62
     7
370
    25
100
AcDbLine
 10
841.9668378539
 20
723.3582712134
 30
0.0
 11
842.1748761416
 21
723.1607803396
 31
0.0
  0
LINE
  5
292
330
1F
100
AcDbEntity
  8
0
  6
Continuous
 62
     7
370
    25
100
AcDbLine
 10
842.1748761416
 20
723.1607803396
 30
0.0
 11
842.537887007
 21
722.9632005344
 31
0.0
  0
LINE
  5
293
330
1F
100
AcDbEntity
  8
0
  6
Continuous
 62
     7
370
    25
100
AcDbLine
 10
842.537887007
 20
722.9632005344
 30
0.0
 11
842.7527535826
 21
722.9013908219
 31
0.0
  0
LINE
  5
294
330
1F
100
AcDbEntity
  8
0
  6
Continuous
 62
     7
370
    25
100
AcDbLine
 10
842.7527535826
 20
722.9013908219
 30
0.0
 11
843.077864004
 21
722.8677966267
 31
0.0
  0
LINE
  5
295
330
1F
100
AcDbEntity
  8
0
  6
Continuous
 62
     7
370
    25
100
AcDbLine
 10
843.077864004
 20
722.8677966267
 30
0.0
 11
843.5979315884
 21
722.8677966267
 31
0.0
  0
LINE
  5
296
330
1F
100
AcDbEntity
  8
0
  6
Continuous
 62
     7
370
    25
100
AcDbLine
 10
843.5979315884
 20
722.8677966267
 30
0.0
 11
843.921177897
 21
722.9098528021
 31
0.0
  0
LINE
  5
297
330
1F
100
AcDbEntity
  8
0
  6
Continuous
 62
     7
370
    25
100
AcDbLine
 10
843.921177897
 20
722.9098528021
 30
0.0
 11
844.1122645751
 21
722.9907915691
 31
0.0
  0
LINE
  5
298
330
1F
100
AcDbEntity
  8
0
  6
Continuous
 62
     7
370
    25
100
AcDbLine
 10
844.1122645751
 20
722.9907915691
 30
0.0
 11
844.3297892073
 21
723.1020055238
 31
0.0
  0
LINE
  5
299
330
1F
100
AcDbEntity
  8
0
  6
Continuous
 62
     7
370
    25
100
AcDbLine
 10
844.3297892073
 20
723.1020055238
 30
0.0
 11
844.5016249214
 21
723.2437208271
 31
0.0
  0
LINE
  5
29A
330
1F
100
AcDbEntity
  8
0
  6
Continuous
 62
     7
370
    25
100
AcDbLine
 10
844.5016249214
 20
723.2437208271
 30
0.0
 11
844.6038373137
 21
723.2959790209
 31
0.0
  0
LINE
  5
29B
330
1F
100
AcDbEntity
  8
0
  6
Continuous
 62
     7
370
    25
100
AcDbLine
 10
844.6038373137
 20
723.2959790209
 30
0.0
 11
844.6518439714
 21
723.269849924
 31
0.0
  0
LINE
  5
29C
330
1F
100
AcDbEntity
  8
0
  6
Continuous
 62
     7
370
    25
100
AcDbLine
 10
844.6518439714
 20
723.269849924
 30
0.0
 11
844.6809162611
 21
723.0463985465
 31
0.0
  0
LINE
  5
29D
330
1F
100
AcDbEntity
  8
0
  6
Continuous
 62
     7
370
    25
100
AcDbLine
 10
844.6809162611
 20
723.0463985465
 30
0.0
 11
844.7375804888
 21
722.9776908078
 31
0.0
  0
LINE
  5
29E
330
1F
100
AcDbEntity
  8
0
  6
Continuous
 62
     7
370
    25
100
AcDbLine
 10
844.7375804888
 20
722.9776908078
 30
0.0
 11
846.0526224988
 21
722.9776908078
 31
0.0
  0
LINE
  5
29F
330
1F
100
AcDbEntity
  8
0
  6
Continuous
 62
     7
370
    25
100
AcDbLine
 10
846.0526224988
 20
722.9776908078
 30
0.0
 11
846.1230081403
 21
723.0357388253
 31
0.0
  0
LINE
  5
2A0
330
1F
100
AcDbEntity
  8
0
  6
Continuous
 62
     7
370
    25
100
AcDbLine
 10
846.1230081403
 20
723.0357388253
 30
0.0
 11
846.1230081403
 21
723.096388251
 31
0.0
  0
LINE
  5
2A1
330
1F
100
AcDbEntity
  8
0
  6
Continuous
 62
     7
370
    25
100
AcDbLine
 10
846.1230081403
 20
723.096388251
 30
0.0
 11
845.9753139282
 21
723.3106137585
 31
0.0
  0
LINE
  5
2A2
330
1F
100
AcDbEntity
  8
0
  6
Continuous
 62
     7
370
    25
100
AcDbLine
 10
845.9753139282
 20
723.3106137585
 30
0.0
 11
845.9383875422
 21
723.4594161363
 31
0.0
  0
LINE
  5
2A3
330
1F
100
AcDbEntity
  8
0
  6
Continuous
 62
     7
370
    25
100
AcDbLine
 10
845.9383875422
 20
723.4594161363
 30
0.0
 11
845.9383875422
 21
726.3217481063
 31
0.0
  0
LINE
  5
2A4
330
1F
100
AcDbEntity
  8
0
  6
Continuous
 62
     7
370
    25
100
AcDbLine
 10
845.9383875422
 20
726.3217481063
 30
0.0
 11
845.9151627381
 21
726.5002553559
 31
0.0
  0
LINE
  5
2A5
330
1F
100
AcDbEntity
  8
0
  6
Continuous
 62
     7
370
    25
100
AcDbLine
 10
845.9151627381
 20
726.5002553559
 30
0.0
 11
845.8535722288
 21
726.7484468319
 31
0.0
  0
LINE
  5
2A6
330
1F
100
AcDbEntity
  8
0
  6
Continuous
 62
     7
370
    25
100
AcDbLine
 10
845.8535722288
 20
726.7484468319
 30
0.0
 11
845.7740288621
 21
726.9362391381
 31
0.0
  0
LINE
  5
2A7
330
1F
100
AcDbEntity
  8
0
  6
Continuous
 62
     7
370
    25
100
AcDbLine
 10
845.7740288621
 20
726.9362391381
 30
0.0
 11
845.6874540431
 21
727.1055718058
 31
0.0
  0
LINE
  5
2A8
330
1F
100
AcDbEntity
  8
0
  6
Continuous
 62
     7
370
    25
100
AcDbLine
 10
845.6874540431
 20
727.1055718058
 30
0.0
 11
845.5596834457
 21
727.2416279148
 31
0.0
  0
LINE
  5
2A9
330
1F
100
AcDbEntity
  8
0
  6
Continuous
 62
     7
370
    25
100
AcDbLine
 10
845.5596834457
 20
727.2416279148
 30
0.0
 11
845.3458878673
 21
727.4053751011
 31
0.0
  0
LINE
  5
2AA
330
1F
100
AcDbEntity
  8
0
  6
Continuous
 62
     7
370
    25
100
AcDbLine
 10
840.4737213538
 20
770.7690314692
 30
0.0
 11
840.288087342
 21
770.352589838
 31
0.0
  0
LINE
  5
2AB
330
1F
100
AcDbEntity
  8
0
  6
Continuous
 62
     7
370
    25
100
AcDbLine
 10
861.8848861718
 20
766.4572320844
 30
0.0
 11
861.6987454018
 21
765.986510714
 31
0.0
  0
LINE
  5
2AC
330
1F
100
AcDbEntity
  8
0
  6
Continuous
 62
     7
370
    25
100
AcDbLine
 10
861.6987454018
 20
765.986510714
 30
0.0
 11
861.4413474064
 21
765.2075838228
 31
0.0
  0
LINE
  5
2AD
330
1F
100
AcDbEntity
  8
0
  6
Continuous
 62
     7
370
    25
100
AcDbLine
 10
861.4413474064
 20
765.2075838228
 30
0.0
 11
861.0204225032
 21
763.59174876
 31
0.0
  0
LINE
  5
2AE
330
1F
100
AcDbEntity
  8
0
  6
Continuous
 62
     7
370
    25
100
AcDbLine
 10
861.0204225032
 20
763.59174876
 30
0.0
 11
860.8885381261
 21
762.8973168694
 31
0.0
  0
LINE
  5
2AF
330
1F
100
AcDbEntity
  8
0
  6
Continuous
 62
     7
370
    25
100
AcDbLine
 10
860.8885381261
 20
762.8973168694
 30
0.0
 11
860.7564672924
 21
762.0443689705
 31
0.0
  0
LINE
  5
2B0
330
1F
100
AcDbEntity
  8
0
  6
Continuous
 62
     7
370
    25
100
AcDbLine
 10
860.7564672924
 20
762.0443689705
 30
0.0
 11
860.6160901929
 21
760.9411149268
 31
0.0
  0
LINE
  5
2B1
330
1F
100
AcDbEntity
  8
0
  6
Continuous
 62
     7
370
    25
100
AcDbLine
 10
860.6160901929
 20
760.9411149268
 30
0.0
 11
860.5802595439
 21
760.0187405174
 31
0.0
  0
LINE
  5
2B2
330
1F
100
AcDbEntity
  8
0
  6
Continuous
 62
     7
370
    25
100
AcDbLine
 10
852.7054566797
 20
723.256924695
 30
0.0
 11
852.9214169731
 21
723.427998715
 31
0.0
  0
LINE
  5
2B3
330
1F
100
AcDbEntity
  8
0
  6
Continuous
 62
     7
370
    25
100
AcDbLine
 10
852.9214169731
 20
723.427998715
 30
0.0
 11
853.0666329607
 21
723.5698998719
 31
0.0
  0
LINE
  5
2B4
330
1F
100
AcDbEntity
  8
0
  6
Continuous
 62
     7
370
    25
100
AcDbLine
 10
853.0666329607
 20
723.5698998719
 30
0.0
 11
853.1856074408
 21
723.7576151626
 31
0.0
  0
LINE
  5
2B5
330
1F
100
AcDbEntity
  8
0
  6
Continuous
 62
     7
370
    25
100
AcDbLine
 10
853.1856074408
 20
723.7576151626
 30
0.0
 11
853.3027106584
 21
723.9633666104
 31
0.0
  0
LINE
  5
2B6
330
1F
100
AcDbEntity
  8
0
  6
Continuous
 62
     7
370
    25
100
AcDbLine
 10
853.3027106584
 20
723.9633666104
 30
0.0
 11
853.3800574632
 21
724.1240099742
 31
0.0
  0
LINE
  5
2B7
330
1F
100
AcDbEntity
  8
0
  6
Continuous
 62
     7
370
    25
100
AcDbLine
 10
853.3800574632
 20
724.1240099742
 30
0.0
 11
853.4590217717
 21
724.3274028901
 31
0.0
  0
LINE
  5
2B8
330
1F
100
AcDbEntity
  8
0
  6
Continuous
 62
     7
370
    25
100
AcDbLine
 10
853.4590217717
 20
724.3274028901
 30
0.0
 11
853.5043419473
 21
724.5047805912
 31
0.0
  0
LINE
  5
2B9
330
1F
100
AcDbEntity
  8
0
  6
Continuous
 62
     7
370
    25
100
AcDbLine
 10
853.5043419473
 20
724.5047805912
 30
0.0
 11
853.5202212704
 21
724.7708850637
 31
0.0
  0
LINE
  5
2BA
330
1F
100
AcDbEntity
  8
0
  6
Continuous
 62
     7
370
    25
100
AcDbLine
 10
853.5202212704
 20
724.7708850637
 30
0.0
 11
852.1503325486
 21
724.7708850637
 31
0.0
  0
LINE
  5
2BB
330
1F
100
AcDbEntity
  8
0
  6
Continuous
 62
     7
370
    25
100
AcDbLine
 10
852.1338361155
 20
724.5869730982
 30
0.0
 11
852.1503325486
 21
724.7708850637
 31
0.0
  0
LINE
  5
2BC
330
1F
100
AcDbEntity
  8
0
  6
Continuous
 62
     7
370
    25
100
AcDbLine
 10
838.2338970245
 20
728.1029258546
 30
0.0
 11
838.2338970245
 21
726.7484468319
 31
0.0
  0
LINE
  5
2BD
330
1F
100
AcDbEntity
  8
0
  6
Continuous
 62
     7
370
    25
100
AcDbLine
 10
855.7536290088
 20
722.9171911785
 30
0.0
 11
856.039143941
 21
722.8677966267
 31
0.0
  0
LINE
  5
2BE
330
1F
100
AcDbEntity
  8
0
  6
Continuous
 62
     7
370
    25
100
AcDbLine
 10
856.039143941
 20
722.8677966267
 30
0.0
 11
856.6236603242
 21
722.8677966267
 31
0.0
  0
LINE
  5
2BF
330
1F
100
AcDbEntity
  8
0
  6
Continuous
 62
     7
370
    25
100
AcDbLine
 10
856.6236603242
 20
722.8677966267
 30
0.0
 11
857.0398451348
 21
722.9171911785
 31
0.0
  0
LINE
  5
2C0
330
1F
100
AcDbEntity
  8
0
  6
Continuous
 62
     7
370
    25
100
AcDbLine
 10
857.0398451348
 20
722.9171911785
 30
0.0
 11
857.4405360006
 21
723.0553019316
 31
0.0
  0
LINE
  5
2C1
330
1F
100
AcDbEntity
  8
0
  6
Continuous
 62
     7
370
    25
100
AcDbLine
 10
857.4405360006
 20
723.0553019316
 30
0.0
 11
857.7343408928
 21
723.2139843475
 31
0.0
  0
LINE
  5
2C2
330
1F
100
AcDbEntity
  8
0
  6
Continuous
 62
     7
370
    25
100
AcDbLine
 10
857.7343408928
 20
723.2139843475
 30
0.0
 11
857.972812156
 21
723.3656142116
 31
0.0
  0
LINE
  5
2C3
330
1F
100
AcDbEntity
  8
0
  6
Continuous
 62
     7
370
    25
100
AcDbLine
 10
857.972812156
 20
723.3656142116
 30
0.0
 11
858.2577767324
 21
723.6213378215
 31
0.0
  0
LINE
  5
2C4
330
1F
100
AcDbEntity
  8
0
  6
Continuous
 62
     7
370
    25
100
AcDbLine
 10
858.2577767324
 20
723.6213378215
 30
0.0
 11
858.5223059909
 21
723.9958034185
 31
0.0
  0
LINE
  5
2C5
330
1F
100
AcDbEntity
  8
0
  6
Continuous
 62
     7
370
    25
100
AcDbLine
 10
858.5223059909
 20
723.9958034185
 30
0.0
 11
858.6878449765
 21
724.3274028901
 31
0.0
  0
LINE
  5
2C6
330
1F
100
AcDbEntity
  8
0
  6
Continuous
 62
     7
370
    25
100
AcDbLine
 10
860.266345859
 20
763.0577232223
 30
0.0
 11
860.7198559762
 21
764.430116295
 31
0.0
  0
LINE
  5
2C7
330
1F
100
AcDbEntity
  8
0
  6
Continuous
 62
     7
370
    25
100
AcDbLine
 10
860.7198559762
 20
764.430116295
 30
0.0
 11
861.002472871
 21
765.2301124053
 31
0.0
  0
LINE
  5
2C8
330
1F
100
AcDbEntity
  8
0
  6
Continuous
 62
     7
370
    25
100
AcDbLine
 10
858.8349893628
 20
724.9958690718
 30
0.0
 11
858.8349893628
 21
725.5236318614
 31
0.0
  0
LINE
  5
2C9
330
1F
100
AcDbEntity
  8
0
  6
Continuous
 62
     7
370
    25
100
AcDbLine
 10
858.8349893628
 20
725.5236318614
 30
0.0
 11
858.7887829343
 21
725.9129544289
 31
0.0
  0
LINE
  5
2CA
330
1F
100
AcDbEntity
  8
0
  6
Continuous
 62
     7
370
    25
100
AcDbLine
 10
861.8742305305
 20
767.1557798008
 30
0.0
 11
862.1997870977
 21
767.7608004597
 31
0.0
  0
LINE
  5
2CB
330
1F
100
AcDbEntity
  8
0
  6
Continuous
 62
     7
370
    25
100
AcDbLine
 10
862.1997870977
 20
767.7608004597
 30
0.0
 11
862.9570479225
 21
769.00784115
 31
0.0
  0
LINE
  5
2CC
330
1F
100
AcDbEntity
  8
0
  6
Continuous
 62
     7
370
    25
100
AcDbLine
 10
862.9570479225
 20
769.00784115
 30
0.0
 11
863.3188658911
 21
769.4873797973
 31
0.0
  0
LINE
  5
2CD
330
1F
100
AcDbEntity
  8
0
  6
Continuous
 62
     7
370
    25
100
AcDbLine
 10
863.3188658911
 20
769.4873797973
 30
0.0
 11
863.6904310116
 21
769.9003167899
 31
0.0
  0
LINE
  5
2CE
330
1F
100
AcDbEntity
  8
0
  6
Continuous
 62
     7
370
    25
100
AcDbLine
 10
863.6904310116
 20
769.9003167899
 30
0.0
 11
863.9399182145
 21
770.1972691102
 31
0.0
  0
LINE
  5
2CF
330
1F
100
AcDbEntity
  8
0
  6
Continuous
 62
     7
370
    25
100
AcDbLine
 10
857.8796774519
 20
727.3394646468
 30
0.0
 11
857.555303693
 21
727.518412037
 31
0.0
  0
LINE
  5
2D0
330
1F
100
AcDbEntity
  8
0
  6
Continuous
 62
     7
370
    25
100
AcDbLine
 10
857.555303693
 20
727.518412037
 30
0.0
 11
857.3649947757
 21
727.613416848
 31
0.0
  0
LINE
  5
2D1
330
1F
100
AcDbEntity
  8
0
  6
Continuous
 62
     7
370
    25
100
AcDbLine
 10
857.3649947757
 20
727.613416848
 30
0.0
 11
857.1355178992
 21
727.680033183
 31
0.0
  0
LINE
  5
2D2
330
1F
100
AcDbEntity
  8
0
  6
Continuous
 62
     7
370
    25
100
AcDbLine
 10
857.1355178992
 20
727.680033183
 30
0.0
 11
856.8306720775
 21
727.7556943158
 31
0.0
  0
LINE
  5
2D3
330
1F
100
AcDbEntity
  8
0
  6
Continuous
 62
     7
370
    25
100
AcDbLine
 10
856.8306720775
 20
727.7556943158
 30
0.0
 11
855.9555070721
 21
727.7556943158
 31
0.0
  0
LINE
  5
2D4
330
1F
100
AcDbEntity
  8
0
  6
Continuous
 62
     7
370
    25
100
AcDbLine
 10
855.9555070721
 20
727.7556943158
 30
0.0
 11
855.5763700912
 21
727.666968835
 31
0.0
  0
LINE
  5
2D5
330
1F
100
AcDbEntity
  8
0
  6
Continuous
 62
     7
370
    25
100
AcDbLine
 10
855.5763700912
 20
727.666968835
 30
0.0
 11
855.2330051635
 21
727.5486172757
 31
0.0
  0
LINE
  5
2D6
330
1F
100
AcDbEntity
  8
0
  6
Continuous
 62
     7
370
    25
100
AcDbLine
 10
855.2330051635
 20
727.5486172757
 30
0.0
 11
854.9055101306
 21
727.3403824274
 31
0.0
  0
LINE
  5
2D7
330
1F
100
AcDbEntity
  8
0
  6
Continuous
 62
     7
370
    25
100
AcDbLine
 10
854.9055101306
 20
727.3403824274
 30
0.0
 11
854.649805188
 21
727.1444450125
 31
0.0
  0
LINE
  5
2D8
330
1F
100
AcDbEntity
  8
0
  6
Continuous
 62
     7
370
    25
100
AcDbLine
 10
854.649805188
 20
727.1444450125
 30
0.0
 11
854.4336787573
 21
726.8995761378
 31
0.0
  0
LINE
  5
2D9
330
1F
100
AcDbEntity
  8
0
  6
Continuous
 62
     7
370
    25
100
AcDbLine
 10
854.4336787573
 20
726.8995761378
 30
0.0
 11
854.2765732044
 21
726.6771787176
 31
0.0
  0
LINE
  5
2DA
330
1F
100
AcDbEntity
  8
0
  6
Continuous
 62
     7
370
    25
100
AcDbLine
 10
854.2765732044
 20
726.6771787176
 30
0.0
 11
854.1218718881
 21
726.3672887266
 31
0.0
  0
LINE
  5
2DB
330
1F
100
AcDbEntity
  8
0
  6
Continuous
 62
     7
370
    25
100
AcDbLine
 10
854.1218718881
 20
726.3672887266
 30
0.0
 11
854.0021668849
 21
725.9967832072
 31
0.0
  0
LINE
  5
2DC
330
1F
100
AcDbEntity
  8
0
  6
Continuous
 62
     7
370
    25
100
AcDbLine
 10
854.0021668849
 20
725.9967832072
 30
0.0
 11
853.9168747193
 21
725.6531330481
 31
0.0
  0
LINE
  5
2DD
330
1F
100
AcDbEntity
  8
0
  6
Continuous
 62
     7
370
    25
100
AcDbLine
 10
853.9168747193
 20
725.6531330481
 30
0.0
 11
853.9168747193
 21
724.9958690718
 31
0.0
  0
LINE
  5
2DE
330
1F
100
AcDbEntity
  8
0
  6
Continuous
 62
     7
370
    25
100
AcDbLine
 10
853.9168747193
 20
724.9958690718
 30
0.0
 11
854.0524487188
 21
724.4165415057
 31
0.0
  0
LINE
  5
2DF
330
1F
100
AcDbEntity
  8
0
  6
Continuous
 62
     7
370
    25
100
AcDbLine
 10
854.0524487188
 20
724.4165415057
 30
0.0
 11
854.2514514998
 21
724.0090133083
 31
0.0
  0
LINE
  5
2E0
330
1F
100
AcDbEntity
  8
0
  6
Continuous
 62
     7
370
    25
100
AcDbLine
 10
854.2514514998
 20
724.0090133083
 30
0.0
 11
854.4507546303
 21
723.6955653632
 31
0.0
  0
LINE
  5
2E1
330
1F
100
AcDbEntity
  8
0
  6
Continuous
 62
     7
370
    25
100
AcDbLine
 10
854.4507546303
 20
723.6955653632
 30
0.0
 11
854.7088408868
 21
723.427998715
 31
0.0
  0
LINE
  5
2E2
330
1F
100
AcDbEntity
  8
0
  6
Continuous
 62
     7
370
    25
100
AcDbLine
 10
854.7088408868
 20
723.427998715
 30
0.0
 11
854.9748576009
 21
723.2400797054
 31
0.0
  0
LINE
  5
2E3
330
1F
100
AcDbEntity
  8
0
  6
Continuous
 62
     7
370
    25
100
AcDbLine
 10
854.9748576009
 20
723.2400797054
 30
0.0
 11
855.3452615465
 21
723.0357388253
 31
0.0
  0
LINE
  5
2E4
330
1F
100
AcDbEntity
  8
0
  6
Continuous
 62
     7
370
    25
100
AcDbLine
 10
855.3452615465
 20
723.0357388253
 30
0.0
 11
855.7536290088
 21
722.9171911785
 31
0.0
  0
LINE
  5
2E5
330
1F
100
AcDbEntity
  8
0
  6
Continuous
 62
     7
370
    25
100
AcDbLine
 10
862.3385552991
 20
722.9776908078
 30
0.0
 11
863.7593101519
 21
722.9776908078
 31
0.0
  0
LINE
  5
2E6
330
1F
100
AcDbEntity
  8
0
  6
Continuous
 62
     7
370
    25
100
AcDbLine
 10
863.7593101519
 20
726.308711614
 30
0.0
 11
863.7593101519
 21
722.9776908078
 31
0.0
  0
LINE
  5
2E7
330
1F
100
AcDbEntity
  8
0
  6
Continuous
 62
     7
370
    25
100
AcDbLine
 10
863.7370310739
 20
726.5002553559
 30
0.0
 11
863.7593101519
 21
726.308711614
 31
0.0
  0
LINE
  5
2E8
330
1F
100
AcDbEntity
  8
0
  6
Continuous
 62
     7
370
    25
100
AcDbLine
 10
863.6128428187
 20
726.8884031717
 30
0.0
 11
863.7370310739
 21
726.5002553559
 31
0.0
  0
LINE
  5
2E9
330
1F
100
AcDbEntity
  8
0
  6
Continuous
 62
     7
370
    25
100
AcDbLine
 10
863.4851483355
 20
727.1444450125
 30
0.0
 11
863.6128428187
 21
726.8884031717
 31
0.0
  0
LINE
  5
2EA
330
1F
100
AcDbEntity
  8
0
  6
Continuous
 62
     7
370
    25
100
AcDbLine
 10
863.2943094503
 20
727.3513342752
 30
0.0
 11
863.4851483355
 21
727.1444450125
 31
0.0
  0
LINE
  5
2EB
330
1F
100
AcDbEntity
  8
0
  6
Continuous
 62
     7
370
    25
100
AcDbLine
 10
863.0823755505
 20
727.5301671858
 30
0.0
 11
863.2943094503
 21
727.3513342752
 31
0.0
  0
LINE
  5
2EC
330
1F
100
AcDbEntity
  8
0
  6
Continuous
 62
     7
370
    25
100
AcDbLine
 10
862.8189818994
 20
727.6628353875
 30
0.0
 11
863.0823755505
 21
727.5301671858
 31
0.0
  0
LINE
  5
2ED
330
1F
100
AcDbEntity
  8
0
  6
Continuous
 62
     7
370
    25
100
AcDbLine
 10
862.4201592416
 20
727.7556943158
 30
0.0
 11
862.8189818994
 21
727.6628353875
 31
0.0
  0
LINE
  5
2EE
330
1F
100
AcDbEntity
  8
0
  6
Continuous
 62
     7
370
    25
100
AcDbLine
 10
861.9884937281
 20
727.7556943158
 30
0.0
 11
862.4201592416
 21
727.7556943158
 31
0.0
  0
LINE
  5
2EF
330
1F
100
AcDbEntity
  8
0
  6
Continuous
 62
     7
370
    25
100
AcDbLine
 10
861.6818692448
 20
727.7200298211
 30
0.0
 11
861.9884937281
 21
727.7556943158
 31
0.0
  0
LINE
  5
2F0
330
1F
100
AcDbEntity
  8
0
  6
Continuous
 62
     7
370
    25
100
AcDbLine
 10
861.4018183357
 20
727.6056409539
 30
0.0
 11
861.6818692448
 21
727.7200298211
 31
0.0
  0
LINE
  5
2F1
330
1F
100
AcDbEntity
  8
0
  6
Continuous
 62
     7
370
    25
100
AcDbLine
 10
861.1236892744
 20
727.419782322
 30
0.0
 11
861.4018183357
 21
727.6056409539
 31
0.0
  0
LINE
  5
2F2
330
1F
100
AcDbEntity
  8
0
  6
Continuous
 62
     7
370
    25
100
AcDbLine
 10
860.908710076
 20
727.2048031236
 30
0.0
 11
861.1236892744
 21
727.419782322
 31
0.0
  0
LINE
  5
2F3
330
1F
100
AcDbEntity
  8
0
  6
Continuous
 62
     7
370
    25
100
AcDbLine
 10
860.908710076
 20
727.666968835
 30
0.0
 11
860.908710076
 21
727.2048031236
 31
0.0
  0
LINE
  5
2F4
330
1F
100
AcDbEntity
  8
0
  6
Continuous
 62
     7
370
    25
100
AcDbLine
 10
859.5539514745
 20
727.666968835
 30
0.0
 11
860.908710076
 21
727.666968835
 31
0.0
  0
LINE
  5
2F5
330
1F
100
AcDbEntity
  8
0
  6
Continuous
 62
     7
370
    25
100
AcDbLine
 10
859.5539514745
 20
722.9776908078
 30
0.0
 11
859.5539514745
 21
727.666968835
 31
0.0
  0
LINE
  5
2F6
330
1F
100
AcDbEntity
  8
0
  6
Continuous
 62
     7
370
    25
100
AcDbLine
 10
859.5539514745
 20
722.9776908078
 30
0.0
 11
860.9577382904
 21
722.9776908078
 31
0.0
  0
LINE
  5
2F7
330
1F
100
AcDbEntity
  8
0
  6
Continuous
 62
     7
370
    25
100
AcDbLine
 10
860.9577382904
 20
722.9776908078
 30
0.0
 11
860.9577382904
 21
725.9129544289
 31
0.0
  0
LINE
  5
2F8
330
1F
100
AcDbEntity
  8
0
  6
Continuous
 62
     7
370
    25
100
AcDbLine
 10
860.9577382904
 20
725.9129544289
 30
0.0
 11
861.0204225032
 21
726.1556523131
 31
0.0
  0
LINE
  5
2F9
330
1F
100
AcDbEntity
  8
0
  6
Continuous
 62
     7
370
    25
100
AcDbLine
 10
861.0204225032
 20
726.1556523131
 30
0.0
 11
861.1429513628
 21
726.3420094256
 31
0.0
  0
LINE
  5
2FA
330
1F
100
AcDbEntity
  8
0
  6
Continuous
 62
     7
370
    25
100
AcDbLine
 10
861.1429513628
 20
726.3420094256
 30
0.0
 11
861.3349530446
 21
726.4899633019
 31
0.0
  0
LINE
  5
2FB
330
1F
100
AcDbEntity
  8
0
  6
Continuous
 62
     7
370
    25
100
AcDbLine
 10
861.3349530446
 20
726.4899633019
 30
0.0
 11
861.5409612844
 21
726.5726607967
 31
0.0
  0
LINE
  5
2FC
330
1F
100
AcDbEntity
  8
0
  6
Continuous
 62
     7
370
    25
100
AcDbLine
 10
861.5409612844
 20
726.5726607967
 30
0.0
 11
861.8386457684
 21
726.5726607967
 31
0.0
  0
LINE
  5
2FD
330
1F
100
AcDbEntity
  8
0
  6
Continuous
 62
     7
370
    25
100
AcDbLine
 10
861.8386457684
 20
726.5726607967
 30
0.0
 11
862.0367489223
 21
726.5002553559
 31
0.0
  0
LINE
  5
2FE
330
1F
100
AcDbEntity
  8
0
  6
Continuous
 62
     7
370
    25
100
AcDbLine
 10
851.562237151
 20
755.5638174403
 30
0.0
 11
851.3545221092
 21
755.3165844645
 31
0.0
  0
LINE
  5
2FF
330
1F
100
AcDbEntity
  8
0
  6
Continuous
 62
     7
370
    25
100
AcDbLine
 10
851.3545221092
 20
755.3165844645
 30
0.0
 11
850.9756321702
 21
754.81441933
 31
0.0
  0
LINE
  5
300
330
1F
100
AcDbEntity
  8
0
  6
Continuous
 62
     7
370
    25
100
AcDbLine
 10
850.9756321702
 20
754.81441933
 30
0.0
 11
850.7339693079
 21
754.4164541736
 31
0.0
  0
LINE
  5
301
330
1F
100
AcDbEntity
  8
0
  6
Continuous
 62
     7
370
    25
100
AcDbLine
 10
862.3385552991
 20
726.034303371
 30
0.0
 11
862.3385552991
 21
722.9776908078
 31
0.0
  0
LINE
  5
302
330
1F
100
AcDbEntity
  8
0
  6
Continuous
 62
     7
370
    25
100
AcDbLine
 10
832.3976263513
 20
742.0354205109
 30
0.0
 11
832.3793519354
 21
742.0135014082
 31
0.0
  0
LINE
  5
303
330
1F
100
AcDbEntity
  8
0
  6
Continuous
 62
     7
370
    25
100
AcDbLine
 10
850.3305711738
 20
747.4420945293
 30
0.0
 11
850.4677379324
 21
746.9066653043
 31
0.0
  0
LINE
  5
304
330
1F
100
AcDbEntity
  8
0
  6
Continuous
 62
     7
370
    25
100
AcDbLine
 10
850.4677379324
 20
746.9066653043
 30
0.0
 11
850.8602073092
 21
745.8208533625
 31
0.0
  0
LINE
  5
305
330
1F
100
AcDbEntity
  8
0
  6
Continuous
 62
     7
370
    25
100
AcDbLine
 10
850.8602073092
 20
745.8208533625
 30
0.0
 11
851.0144297589
 21
745.4707763771
 31
0.0
  0
LINE
  5
306
330
1F
100
AcDbEntity
  8
0
  6
Continuous
 62
     7
370
    25
100
AcDbLine
 10
832.3793519354
 20
742.0135014082
 30
0.0
 11
832.6677361404
 21
741.7251172032
 31
0.0
  0
LINE
  5
307
330
1F
100
AcDbEntity
  8
0
  6
Continuous
 62
     7
370
    25
100
AcDbLine
 10
832.6677361404
 20
741.7251172032
 30
0.0
 11
833.0688962915
 21
741.269180164
 31
0.0
  0
LINE
  5
308
330
1F
100
AcDbEntity
  8
0
  6
Continuous
 62
     7
370
    25
100
AcDbLine
 10
833.0688962915
 20
741.269180164
 30
0.0
 11
833.4241873467
 21
740.9138891089
 31
0.0
  0
LINE
  5
309
330
1F
100
AcDbEntity
  8
0
  6
Continuous
 62
     7
370
    25
100
AcDbLine
 10
849.8261980077
 20
753.2087608574
 30
0.0
 11
850.1624178499
 21
754.1604894018
 31
0.0
  0
LINE
  5
30A
330
1F
100
AcDbEntity
  8
0
  6
Continuous
 62
     7
370
    25
100
AcDbLine
 10
850.1624178499
 20
754.1604894018
 30
0.0
 11
850.3305711739
 21
754.5857232883
 31
0.0
  0
LINE
  5
30B
330
1F
100
AcDbEntity
  8
0
  6
Continuous
 62
     7
370
    25
100
AcDbLine
 10
850.3305711739
 20
754.5857232883
 30
0.0
 11
850.548666872
 21
754.9910365772
 31
0.0
  0
LINE
  5
30C
330
1F
100
AcDbEntity
  8
0
  6
Continuous
 62
     7
370
    25
100
AcDbLine
 10
835.153793138
 20
739.505033072
 30
0.0
 11
835.9123700941
 21
738.9627145887
 31
0.0
  0
LINE
  5
30D
330
1F
100
AcDbEntity
  8
0
  6
Continuous
 62
     7
370
    25
100
AcDbLine
 10
835.9123700941
 20
738.9627145887
 30
0.0
 11
836.4175513045
 21
738.6209111314
 31
0.0
  0
LINE
  5
30E
330
1F
100
AcDbEntity
  8
0
  6
Continuous
 62
     7
370
    25
100
AcDbLine
 10
836.4175513045
 20
738.6209111314
 30
0.0
 11
837.3487126669
 21
738.0554668546
 31
0.0
  0
LINE
  5
30F
330
1F
100
AcDbEntity
  8
0
  6
Continuous
 62
     7
370
    25
100
AcDbLine
 10
837.3487126669
 20
738.0554668546
 30
0.0
 11
837.8817977623
 21
737.7984060576
 31
0.0
  0
LINE
  5
310
330
1F
100
AcDbEntity
  8
0
  6
Continuous
 62
     7
370
    25
100
AcDbLine
 10
837.8817977623
 20
737.7984060576
 30
0.0
 11
838.5102448756
 21
737.4766118528
 31
0.0
  0
LINE
  5
311
330
1F
100
AcDbEntity
  8
0
  6
Continuous
 62
     7
370
    25
100
AcDbLine
 10
838.5102448756
 20
737.4766118528
 30
0.0
 11
839.1620378961
 21
737.2188686052
 31
0.0
  0
LINE
  5
312
330
1F
100
AcDbEntity
  8
0
  6
Continuous
 62
     7
370
    25
100
AcDbLine
 10
839.1620378961
 20
737.2188686052
 30
0.0
 11
839.6527413869
 21
737.0726488781
 31
0.0
  0
LINE
  5
313
330
1F
100
AcDbEntity
  8
0
  6
Continuous
 62
     7
370
    25
100
AcDbLine
 10
839.6527413869
 20
737.0726488781
 30
0.0
 11
840.3778908039
 21
736.8837475137
 31
0.0
  0
LINE
  5
314
330
1F
100
AcDbEntity
  8
0
  6
Continuous
 62
     7
370
    25
100
AcDbLine
 10
840.3778908039
 20
736.8837475137
 30
0.0
 11
841.097908076
 21
736.7327761501
 31
0.0
  0
LINE
  5
315
330
1F
100
AcDbEntity
  8
0
  6
Continuous
 62
     7
370
    25
100
AcDbLine
 10
841.097908076
 20
736.7327761501
 30
0.0
 11
842.9410132878
 21
736.4195211141
 31
0.0
  0
LINE
  5
316
330
1F
100
AcDbEntity
  8
0
  6
Continuous
 62
     7
370
    25
100
AcDbLine
 10
842.9410132878
 20
736.4195211141
 30
0.0
 11
843.148677655
 21
736.4195211141
 31
0.0
  0
LINE
  5
317
330
1F
100
AcDbEntity
  8
0
  6
Continuous
 62
     7
370
    25
100
AcDbLine
 10
843.148677655
 20
736.4195211141
 30
0.0
 11
843.2868416249
 21
736.689348062
 31
0.0
  0
LINE
  5
318
330
1F
100
AcDbEntity
  8
0
  6
Continuous
 62
     7
370
    25
100
AcDbLine
 10
849.9248563053
 20
761.3108492386
 30
0.0
 11
849.536454686
 21
761.4644377116
 31
0.0
  0
LINE
  5
319
330
1F
100
AcDbEntity
  8
0
  6
Continuous
 62
     7
370
    25
100
AcDbLine
 10
849.536454686
 20
761.4644377116
 30
0.0
 11
849.0319116493
 21
761.7708195956
 31
0.0
  0
LINE
  5
31A
330
1F
100
AcDbEntity
  8
0
  6
Continuous
 62
     7
370
    25
100
AcDbLine
 10
849.0319116493
 20
761.7708195956
 30
0.0
 11
848.6036955671
 21
762.0605487747
 31
0.0
  0
LINE
  5
31B
330
1F
100
AcDbEntity
  8
0
  6
Continuous
 62
     7
370
    25
100
AcDbLine
 10
843.799534781
 20
737.7869522012
 30
0.0
 11
844.0514159601
 21
738.2344596638
 31
0.0
  0
LINE
  5
31C
330
1F
100
AcDbEntity
  8
0
  6
Continuous
 62
     7
370
    25
100
AcDbLine
 10
844.0514159601
 20
738.2344596638
 30
0.0
 11
844.2371420071
 21
738.5089604251
 31
0.0
  0
LINE
  5
31D
330
1F
100
AcDbEntity
  8
0
  6
Continuous
 62
     7
370
    25
100
AcDbLine
 10
844.2371420071
 20
738.5089604251
 30
0.0
 11
844.4805479607
 21
738.8315606602
 31
0.0
  0
LINE
  5
31E
330
1F
100
AcDbEntity
  8
0
  6
Continuous
 62
     7
370
    25
100
AcDbLine
 10
844.4805479607
 20
738.8315606602
 30
0.0
 11
844.9438465897
 21
739.4024754082
 31
0.0
  0
LINE
  5
31F
330
1F
100
AcDbEntity
  8
0
  6
Continuous
 62
     7
370
    25
100
AcDbLine
 10
844.9438465897
 20
739.4024754082
 30
0.0
 11
845.1943466275
 21
739.6808673415
 31
0.0
  0
LINE
  5
320
330
1F
100
AcDbEntity
  8
0
  6
Continuous
 62
     7
370
    25
100
AcDbLine
 10
845.1943466275
 20
739.6808673415
 30
0.0
 11
845.5759204855
 21
740.0624411995
 31
0.0
  0
LINE
  5
321
330
1F
100
AcDbEntity
  8
0
  6
Continuous
 62
     7
370
    25
100
AcDbLine
 10
845.5759204855
 20
740.0624411995
 30
0.0
 11
845.8767607808
 21
740.3523004581
 31
0.0
  0
LINE
  5
322
330
1F
100
AcDbEntity
  8
0
  6
Continuous
 62
     7
370
    25
100
AcDbLine
 10
845.8767607808
 20
740.3523004581
 30
0.0
 11
846.0377668296
 21
740.5312337053
 31
0.0
  0
LINE
  5
323
330
1F
100
AcDbEntity
  8
0
  6
Continuous
 62
     7
370
    25
100
AcDbLine
 10
846.0377668296
 20
740.5312337053
 30
0.0
 11
846.281342587
 21
740.5440790309
 31
0.0
  0
LINE
  5
324
330
1F
100
AcDbEntity
  8
0
  6
Continuous
 62
     7
370
    25
100
AcDbLine
 10
846.281342587
 20
740.5440790309
 30
0.0
 11
846.6364636207
 21
740.4515700304
 31
0.0
  0
LINE
  5
325
330
1F
100
AcDbEntity
  8
0
  6
Continuous
 62
     7
370
    25
100
AcDbLine
 10
846.6364636207
 20
740.4515700304
 30
0.0
 11
848.3548307741
 21
740.1252230052
 31
0.0
  0
LINE
  5
326
330
1F
100
AcDbEntity
  8
0
  6
Continuous
 62
     7
370
    25
100
AcDbLine
 10
848.3548307741
 20
740.1252230052
 30
0.0
 11
849.1938228212
 21
739.9953131018
 31
0.0
  0
LINE
  5
327
330
1F
100
AcDbEntity
  8
0
  6
Continuous
 62
     7
370
    25
100
AcDbLine
 10
849.1938228212
 20
739.9953131018
 30
0.0
 11
849.8356489749
 21
739.9188259445
 31
0.0
  0
LINE
  5
328
330
1F
100
AcDbEntity
  8
0
  6
Continuous
 62
     7
370
    25
100
AcDbLine
 10
849.8356489749
 20
739.9188259445
 30
0.0
 11
850.7327189324
 21
739.849628599
 31
0.0
  0
LINE
  5
329
330
1F
100
AcDbEntity
  8
0
  6
Continuous
 62
     7
370
    25
100
AcDbLine
 10
842.88454124
 20
770.1162392638
 30
0.0
 11
842.68324754
 21
769.8766492945
 31
0.0
  0
LINE
  5
32A
330
1F
100
AcDbEntity
  8
0
  6
Continuous
 62
     7
370
    25
100
AcDbLine
 10
842.68324754
 20
769.8766492945
 30
0.0
 11
842.5415761448
 21
769.5183841317
 31
0.0
  0
LINE
  5
32B
330
1F
100
AcDbEntity
  8
0
  6
Continuous
 62
     7
370
    25
100
AcDbLine
 10
842.5415761448
 20
769.5183841317
 30
0.0
 11
842.5057978404
 21
769.0545564839
 31
0.0
  0
LINE
  5
32C
330
1F
100
AcDbEntity
  8
0
  6
Continuous
 62
     7
370
    25
100
AcDbLine
 10
842.5057978404
 20
769.0545564839
 30
0.0
 11
842.5057978404
 21
768.7244603581
 31
0.0
  0
LINE
  5
32D
330
1F
100
AcDbEntity
  8
0
  6
Continuous
 62
     7
370
    25
100
AcDbLine
 10
842.5057978404
 20
768.7244603581
 30
0.0
 11
842.5285205423
 21
768.4913583357
 31
0.0
  0
LINE
  5
32E
330
1F
100
AcDbEntity
  8
0
  6
Continuous
 62
     7
370
    25
100
AcDbLine
 10
842.5285205423
 20
768.4913583357
 30
0.0
 11
842.4677736669
 21
768.4913583357
 31
0.0
  0
LINE
  5
32F
330
1F
100
AcDbEntity
  8
0
  6
Continuous
 62
     7
370
    25
100
AcDbLine
 10
852.3540493835
 20
738.7654260234
 30
0.0
 11
851.6964383795
 21
738.3129319119
 31
0.0
  0
LINE
  5
330
330
1F
100
AcDbEntity
  8
0
  6
Continuous
 62
     7
370
    25
100
AcDbLine
 10
842.3853733602
 20
768.6343177101
 30
0.0
 11
842.1543649584
 21
768.889508421
 31
0.0
  0
LINE
  5
331
330
1F
100
AcDbEntity
  8
0
  6
Continuous
 62
     7
370
    25
100
AcDbLine
 10
842.1543649584
 20
768.889508421
 30
0.0
 11
841.7906063596
 21
769.4181598471
 31
0.0
  0
LINE
  5
332
330
1F
100
AcDbEntity
  8
0
  6
Continuous
 62
     7
370
    25
100
AcDbLine
 10
841.7906063596
 20
769.4181598471
 30
0.0
 11
841.3882405946
 21
770.1162392637
 31
0.0
  0
LINE
  5
333
330
1F
100
AcDbEntity
  8
0
  6
Continuous
 62
     7
370
    25
100
AcDbLine
 10
841.3882405946
 20
770.1162392637
 30
0.0
 11
840.974244258
 21
770.9960719912
 31
0.0
  0
LINE
  5
334
330
1F
100
AcDbEntity
  8
0
  6
Continuous
 62
     7
370
    25
100
AcDbLine
 10
840.974244258
 20
770.9960719912
 30
0.0
 11
840.9073570011
 21
771.2209343009
 31
0.0
  0
LINE
  5
335
330
1F
100
AcDbEntity
  8
0
  6
Continuous
 62
     7
370
    25
100
AcDbLine
 10
840.9073570011
 20
771.2209343009
 30
0.0
 11
840.8657896708
 21
771.3092739656
 31
0.0
  0
LINE
  5
336
330
1F
100
AcDbEntity
  8
0
  6
Continuous
 62
     7
370
    25
100
AcDbLine
 10
840.8657896708
 20
771.3092739656
 30
0.0
 11
840.7890974586
 21
771.3092739656
 31
0.0
  0
LINE
  5
337
330
1F
100
AcDbEntity
  8
0
  6
Continuous
 62
     7
370
    25
100
AcDbLine
 10
840.7890974586
 20
771.3092739656
 30
0.0
 11
840.6685540007
 21
771.1311122511
 31
0.0
  0
LINE
  5
338
330
1F
100
AcDbEntity
  8
0
  6
Continuous
 62
     7
370
    25
100
AcDbLine
 10
840.6685540007
 20
771.1311122511
 30
0.0
 11
840.4737213538
 21
770.7690314692
 31
0.0
  0
LINE
  5
339
330
1F
100
AcDbEntity
  8
0
  6
Continuous
 62
     7
370
    25
100
AcDbLine
 10
852.219833492
 20
767.3544634282
 30
0.0
 11
851.7894971623
 21
766.8762113535
 31
0.0
  0
LINE
  5
33A
330
1F
100
AcDbEntity
  8
0
  6
Continuous
 62
     7
370
    25
100
AcDbLine
 10
840.288087342
 20
770.352589838
 30
0.0
 11
839.8413850429
 21
769.2864703078
 31
0.0
  0
LINE
  5
33B
330
1F
100
AcDbEntity
  8
0
  6
Continuous
 62
     7
370
    25
100
AcDbLine
 10
851.3902584854
 20
766.401017235
 30
0.0
 11
851.1901606977
 21
766.0715005414
 31
0.0
  0
LINE
  5
33C
330
1F
100
AcDbEntity
  8
0
  6
Continuous
 62
     7
370
    25
100
AcDbLine
 10
839.644505245
 20
768.6906810177
 30
0.0
 11
839.4566083451
 21
768.0601117605
 31
0.0
  0
LINE
  5
33D
330
1F
100
AcDbEntity
  8
0
  6
Continuous
 62
     7
370
    25
100
AcDbLine
 10
839.4566083451
 20
768.0601117605
 30
0.0
 11
839.3439435804
 21
767.5227874981
 31
0.0
  0
LINE
  5
33E
330
1F
100
AcDbEntity
  8
0
  6
Continuous
 62
     7
370
    25
100
AcDbLine
 10
839.3439435804
 20
767.5227874981
 30
0.0
 11
839.2086967264
 21
766.8106506203
 31
0.0
  0
LINE
  5
33F
330
1F
100
AcDbEntity
  8
0
  6
Continuous
 62
     7
370
    25
100
AcDbLine
 10
839.2086967264
 20
766.8106506203
 30
0.0
 11
839.1285409717
 21
766.2929838456
 31
0.0
  0
LINE
  5
340
330
1F
100
AcDbEntity
  8
0
  6
Continuous
 62
     7
370
    25
100
AcDbLine
 10
839.1285409717
 20
766.2929838456
 30
0.0
 11
839.080674657
 21
765.6724480058
 31
0.0
  0
LINE
  5
341
330
1F
100
AcDbEntity
  8
0
  6
Continuous
 62
     7
370
    25
100
AcDbLine
 10
839.080674657
 20
765.6724480058
 30
0.0
 11
839.0587478652
 21
765.1079951663
 31
0.0
  0
LINE
  5
342
330
1F
100
AcDbEntity
  8
0
  6
Continuous
 62
     7
370
    25
100
AcDbLine
 10
839.0587478652
 20
765.1079951663
 30
0.0
 11
839.0587478652
 21
764.2855364045
 31
0.0
  0
LINE
  5
343
330
1F
100
AcDbEntity
  8
0
  6
Continuous
 62
     7
370
    25
100
AcDbLine
 10
839.0587478652
 20
764.2855364045
 30
0.0
 11
839.0854944338
 21
763.8881616188
 31
0.0
  0
LINE
  5
344
330
1F
100
AcDbEntity
  8
0
  6
Continuous
 62
     7
370
    25
100
AcDbLine
 10
839.0854944338
 20
763.8881616188
 30
0.0
 11
839.1475910845
 21
763.2511398871
 31
0.0
  0
LINE
  5
345
330
1F
100
AcDbEntity
  8
0
  6
Continuous
 62
     7
370
    25
100
AcDbLine
 10
839.1475910845
 20
763.2511398871
 30
0.0
 11
839.2101419248
 21
762.7966731992
 31
0.0
  0
LINE
  5
346
330
1F
100
AcDbEntity
  8
0
  6
Continuous
 62
     7
370
    25
100
AcDbLine
 10
839.2101419248
 20
762.7966731992
 30
0.0
 11
839.3439435804
 21
762.0478501005
 31
0.0
  0
LINE
  5
347
330
1F
100
AcDbEntity
  8
0
  6
Continuous
 62
     7
370
    25
100
AcDbLine
 10
839.3439435804
 20
762.0478501005
 30
0.0
 11
839.4713122689
 21
761.4740695785
 31
0.0
  0
LINE
  5
348
330
1F
100
AcDbEntity
  8
0
  6
Continuous
 62
     7
370
    25
100
AcDbLine
 10
839.4713122689
 20
761.4740695785
 30
0.0
 11
839.594421753
 21
760.9935127995
 31
0.0
  0
LINE
  5
349
330
1F
100
AcDbEntity
  8
0
  6
Continuous
 62
     7
370
    25
100
AcDbLine
 10
839.594421753
 20
760.9935127995
 30
0.0
 11
839.7823889887
 21
760.3616024962
 31
0.0
  0
LINE
  5
34A
330
1F
100
AcDbEntity
  8
0
  6
Continuous
 62
     7
370
    25
100
AcDbLine
 10
854.0282624634
 20
732.2417851788
 30
0.0
 11
854.2924839947
 21
732.4017494553
 31
0.0
  0
LINE
  5
34B
330
1F
100
AcDbEntity
  8
0
  6
Continuous
 62
     7
370
    25
100
AcDbLine
 10
839.9709055908
 20
759.8400495041
 30
0.0
 11
840.1654485676
 21
759.3313765079
 31
0.0
  0
LINE
  5
34C
330
1F
100
AcDbEntity
  8
0
  6
Continuous
 62
     7
370
    25
100
AcDbLine
 10
840.1654485676
 20
759.3313765079
 30
0.0
 11
840.3604212526
 21
758.8682726386
 31
0.0
  0
LINE
  5
34D
330
1F
100
AcDbEntity
  8
0
  6
Continuous
 62
     7
370
    25
100
AcDbLine
 10
840.3604212526
 20
758.8682726386
 30
0.0
 11
840.7598768919
 21
758.0972471334
 31
0.0
  0
LINE
  5
34E
330
1F
100
AcDbEntity
  8
0
  6
Continuous
 62
     7
370
    25
100
AcDbLine
 10
840.7598768919
 20
758.0972471334
 30
0.0
 11
841.2183383734
 21
757.2679992275
 31
0.0
  0
LINE
  5
34F
330
1F
100
AcDbEntity
  8
0
  6
Continuous
 62
     7
370
    25
100
AcDbLine
 10
841.2183383734
 20
757.2679992275
 30
0.0
 11
841.5197993541
 21
756.8077237121
 31
0.0
  0
LINE
  5
350
330
1F
100
AcDbEntity
  8
0
  6
Continuous
 62
     7
370
    25
100
AcDbLine
 10
841.5197993541
 20
756.8077237121
 30
0.0
 11
841.9246834213
 21
756.2193045236
 31
0.0
  0
LINE
  5
351
330
1F
100
AcDbEntity
  8
0
  6
Continuous
 62
     7
370
    25
100
AcDbLine
 10
856.636363958
 20
733.4747128201
 30
0.0
 11
856.9816157445
 21
733.4023213164
 31
0.0
  0
LINE
  5
352
330
1F
100
AcDbEntity
  8
0
  6
Continuous
 62
     7
370
    25
100
AcDbLine
 10
856.9816157445
 20
733.4023213164
 30
0.0
 11
857.4405360006
 21
733.3312618989
 31
0.0
  0
LINE
  5
353
330
1F
100
AcDbEntity
  8
0
  6
Continuous
 62
     7
370
    25
100
AcDbLine
 10
857.4405360006
 20
733.3312618989
 30
0.0
 11
857.916804569
 21
733.2745044286
 31
0.0
  0
LINE
  5
354
330
1F
100
AcDbEntity
  8
0
  6
Continuous
 62
     7
370
    25
100
AcDbLine
 10
857.916804569
 20
733.2745044286
 30
0.0
 11
859.0382409205
 21
733.2745044286
 31
0.0
  0
LINE
  5
355
330
1F
100
AcDbEntity
  8
0
  6
Continuous
 62
     7
370
    25
100
AcDbLine
 10
859.0382409205
 20
733.2745044286
 30
0.0
 11
859.1092828905
 21
733.3210339119
 31
0.0
  0
LINE
  5
356
330
1F
100
AcDbEntity
  8
0
  6
Continuous
 62
     7
370
    25
100
AcDbLine
 10
859.1092828905
 20
733.3210339119
 30
0.0
 11
859.1092828905
 21
733.8318769118
 31
0.0
  0
LINE
  5
357
330
1F
100
AcDbEntity
  8
0
  6
Continuous
 62
     7
370
    25
100
AcDbLine
 10
859.1092828905
 20
733.8318769118
 30
0.0
 11
859.0382409205
 21
733.9195493641
 31
0.0
  0
LINE
  5
358
330
1F
100
AcDbEntity
  8
0
  6
Continuous
 62
     7
370
    25
100
AcDbLine
 10
859.0382409205
 20
733.9195493641
 30
0.0
 11
857.972812156
 21
733.9195493641
 31
0.0
  0
LINE
  5
359
330
1F
100
AcDbEntity
  8
0
  6
Continuous
 62
     7
370
    25
100
AcDbLine
 10
857.972812156
 20
733.9195493641
 30
0.0
 11
857.4250727983
 21
733.9848240903
 31
0.0
  0
LINE
  5
35A
330
1F
100
AcDbEntity
  8
0
  6
Continuous
 62
     7
370
    25
100
AcDbLine
 10
857.4250727983
 20
733.9848240903
 30
0.0
 11
857.0292628663
 21
734.046111477
 31
0.0
  0
LINE
  5
35B
330
1F
100
AcDbEntity
  8
0
  6
Continuous
 62
     7
370
    25
100
AcDbLine
 10
845.8416027485
 20
752.2065016842
 30
0.0
 11
846.1595547083
 21
751.9913767413
 31
0.0
  0
LINE
  5
35C
330
1F
100
AcDbEntity
  8
0
  6
Continuous
 62
     7
370
    25
100
AcDbLine
 10
846.1595547083
 20
751.9913767413
 30
0.0
 11
846.2579330468
 21
751.9913767413
 31
0.0
  0
LINE
  5
35D
330
1F
100
AcDbEntity
  8
0
  6
Continuous
 62
     7
370
    25
100
AcDbLine
 10
846.2579330468
 20
751.9913767413
 30
0.0
 11
846.2579330468
 21
752.2065016842
 31
0.0
  0
LINE
  5
35E
330
1F
100
AcDbEntity
  8
0
  6
Continuous
 62
     7
370
    25
100
AcDbLine
 10
846.2579330468
 20
752.2065016842
 30
0.0
 11
846.1721445569
 21
752.5413762933
 31
0.0
  0
LINE
  5
35F
330
1F
100
AcDbEntity
  8
0
  6
Continuous
 62
     7
370
    25
100
AcDbLine
 10
846.1721445569
 20
752.5413762933
 30
0.0
 11
846.0377668295
 21
753.388953503
 31
0.0
  0
LINE
  5
360
330
1F
100
AcDbEntity
  8
0
  6
Continuous
 62
     7
370
    25
100
AcDbLine
 10
846.0377668295
 20
753.388953503
 30
0.0
 11
845.9069130523
 21
754.7313238047
 31
0.0
  0
LINE
  5
361
330
1F
100
AcDbEntity
  8
0
  6
Continuous
 62
     7
370
    25
100
AcDbLine
 10
845.9069130523
 20
754.7313238047
 30
0.0
 11
845.8898108444
 21
755.3155311928
 31
0.0
  0
LINE
  5
362
330
1F
100
AcDbEntity
  8
0
  6
Continuous
 62
     7
370
    25
100
AcDbLine
 10
845.8898108444
 20
755.3155311928
 30
0.0
 11
845.8898108444
 21
755.9798255424
 31
0.0
  0
LINE
  5
363
330
1F
100
AcDbEntity
  8
0
  6
Continuous
 62
     7
370
    25
100
AcDbLine
 10
845.8898108444
 20
755.9798255424
 30
0.0
 11
845.9597649831
 21
756.8867065188
 31
0.0
  0
LINE
  5
364
330
1F
100
AcDbEntity
  8
0
  6
Continuous
 62
     7
370
    25
100
AcDbLine
 10
845.9597649831
 20
756.8867065188
 30
0.0
 11
846.0341789579
 21
757.4715420715
 31
0.0
  0
LINE
  5
365
330
1F
100
AcDbEntity
  8
0
  6
Continuous
 62
     7
370
    25
100
AcDbLine
 10
846.0341789579
 20
757.4715420715
 30
0.0
 11
846.1721445569
 21
758.2832931544
 31
0.0
  0
LINE
  5
366
330
1F
100
AcDbEntity
  8
0
  6
Continuous
 62
     7
370
    25
100
AcDbLine
 10
846.1721445569
 20
758.2832931544
 30
0.0
 11
846.2402473574
 21
758.5447243314
 31
0.0
  0
LINE
  5
367
330
1F
100
AcDbEntity
  8
0
  6
Continuous
 62
     7
370
    25
100
AcDbLine
 10
846.2402473574
 20
758.5447243314
 30
0.0
 11
846.2857846977
 21
758.7619024157
 31
0.0
  0
LINE
  5
368
330
1F
100
AcDbEntity
  8
0
  6
Continuous
 62
     7
370
    25
100
AcDbLine
 10
846.2857846977
 20
758.7619024157
 30
0.0
 11
846.2857846977
 21
758.8556279896
 31
0.0
  0
LINE
  5
369
330
1F
100
AcDbEntity
  8
0
  6
Continuous
 62
     7
370
    25
100
AcDbLine
 10
846.2857846977
 20
758.8556279896
 30
0.0
 11
846.0065403789
 21
759.2408555575
 31
0.0
  0
LINE
  5
36A
330
1F
100
AcDbEntity
  8
0
  6
Continuous
 62
     7
370
    25
100
AcDbLine
 10
846.0065403789
 20
759.2408555575
 30
0.0
 11
845.4003881757
 21
760.2420694958
 31
0.0
  0
LINE
  5
36B
330
1F
100
AcDbEntity
  8
0
  6
Continuous
 62
     7
370
    25
100
AcDbLine
 10
845.4003881757
 20
760.2420694958
 30
0.0
 11
844.6176399308
 21
761.6000887054
 31
0.0
  0
LINE
  5
36C
330
1F
100
AcDbEntity
  8
0
  6
Continuous
 62
     7
370
    25
100
AcDbLine
 10
844.6176399308
 20
761.6000887054
 30
0.0
 11
843.8395678958
 21
763.1992716536
 31
0.0
  0
LINE
  5
36D
330
1F
100
AcDbEntity
  8
0
  6
Continuous
 62
     7
370
    25
100
AcDbLine
 10
843.8395678958
 20
763.1992716536
 30
0.0
 11
843.5320243861
 21
763.9297564871
 31
0.0
  0
LINE
  5
36E
330
1F
100
AcDbEntity
  8
0
  6
Continuous
 62
     7
370
    25
100
AcDbLine
 10
843.5320243861
 20
763.9297564871
 30
0.0
 11
843.2819436488
 21
764.5836444868
 31
0.0
  0
LINE
  5
36F
330
1F
100
AcDbEntity
  8
0
  6
Continuous
 62
     7
370
    25
100
AcDbLine
 10
843.2819436488
 20
764.5836444868
 30
0.0
 11
843.0202271603
 21
765.3587106165
 31
0.0
  0
LINE
  5
370
330
1F
100
AcDbEntity
  8
0
  6
Continuous
 62
     7
370
    25
100
AcDbLine
 10
843.0202271603
 20
765.3587106165
 30
0.0
 11
842.7634841284
 21
766.317305064
 31
0.0
  0
LINE
  5
371
330
1F
100
AcDbEntity
  8
0
  6
Continuous
 62
     7
370
    25
100
AcDbLine
 10
842.7634841284
 20
766.317305064
 30
0.0
 11
842.6282517231
 21
767.0018995739
 31
0.0
  0
LINE
  5
372
330
1F
100
AcDbEntity
  8
0
  6
Continuous
 62
     7
370
    25
100
AcDbLine
 10
842.6282517231
 20
767.0018995739
 30
0.0
 11
842.5489055065
 21
767.578394024
 31
0.0
  0
LINE
  5
373
330
1F
100
AcDbEntity
  8
0
  6
Continuous
 62
     7
370
    25
100
AcDbLine
 10
842.5489055065
 20
767.578394024
 30
0.0
 11
842.537887007
 21
767.9547833676
 31
0.0
  0
LINE
  5
374
330
1F
100
AcDbEntity
  8
0
  6
Continuous
 62
     7
370
    25
100
AcDbLine
 10
842.537887007
 20
767.9547833676
 30
0.0
 11
842.537887007
 21
768.2329716947
 31
0.0
  0
LINE
  5
375
330
1F
100
AcDbEntity
  8
0
  6
Continuous
 62
     7
370
    25
100
AcDbLine
 10
842.537887007
 20
768.2329716947
 30
0.0
 11
842.6036935246
 21
768.2329716947
 31
0.0
  0
LINE
  5
376
330
1F
100
AcDbEntity
  8
0
  6
Continuous
 62
     7
370
    25
100
AcDbLine
 10
842.6036935246
 20
768.2329716947
 30
0.0
 11
842.6368471432
 21
767.7404071215
 31
0.0
  0
LINE
  5
377
330
1F
100
AcDbEntity
  8
0
  6
Continuous
 62
     7
370
    25
100
AcDbLine
 10
842.6368471432
 20
767.7404071215
 30
0.0
 11
842.6883514842
 21
767.4796738381
 31
0.0
  0
LINE
  5
378
330
1F
100
AcDbEntity
  8
0
  6
Continuous
 62
     7
370
    25
100
AcDbLine
 10
842.6883514842
 20
767.4796738381
 30
0.0
 11
842.8215915858
 21
767.0850869687
 31
0.0
  0
LINE
  5
379
330
1F
100
AcDbEntity
  8
0
  6
Continuous
 62
     7
370
    25
100
AcDbLine
 10
842.8215915858
 20
767.0850869687
 30
0.0
 11
843.0202271603
 21
766.5657130261
 31
0.0
  0
LINE
  5
37A
330
1F
100
AcDbEntity
  8
0
  6
Continuous
 62
     7
370
    25
100
AcDbLine
 10
843.0202271603
 20
766.5657130261
 30
0.0
 11
843.2740696866
 21
765.9895036187
 31
0.0
  0
LINE
  5
37B
330
1F
100
AcDbEntity
  8
0
  6
Continuous
 62
     7
370
    25
100
AcDbLine
 10
843.2740696866
 20
765.9895036187
 30
0.0
 11
843.4599483861
 21
765.6074643816
 31
0.0
  0
LINE
  5
37C
330
1F
100
AcDbEntity
  8
0
  6
Continuous
 62
     7
370
    25
100
AcDbLine
 10
843.4599483861
 20
765.6074643816
 30
0.0
 11
843.7307921777
 21
765.084684251
 31
0.0
  0
LINE
  5
37D
330
1F
100
AcDbEntity
  8
0
  6
Continuous
 62
     7
370
    25
100
AcDbLine
 10
843.7307921777
 20
765.084684251
 30
0.0
 11
843.9844074929
 21
764.6259543956
 31
0.0
  0
LINE
  5
37E
330
1F
100
AcDbEntity
  8
0
  6
Continuous
 62
     7
370
    25
100
AcDbLine
 10
843.9844074929
 20
764.6259543956
 30
0.0
 11
844.2434061419
 21
764.1766079514
 31
0.0
  0
LINE
  5
37F
330
1F
100
AcDbEntity
  8
0
  6
Continuous
 62
     7
370
    25
100
AcDbLine
 10
844.2434061419
 20
764.1766079514
 30
0.0
 11
845.0193542906
 21
762.9577358774
 31
0.0
  0
LINE
  5
380
330
1F
100
AcDbEntity
  8
0
  6
Continuous
 62
     7
370
    25
100
AcDbLine
 10
845.0193542906
 20
762.9577358774
 30
0.0
 11
845.7820909158
 21
761.8492485289
 31
0.0
  0
LINE
  5
381
330
1F
100
AcDbEntity
  8
0
  6
Continuous
 62
     7
370
    25
100
AcDbLine
 10
845.7820909158
 20
761.8492485289
 30
0.0
 11
846.0341789579
 21
761.5285816973
 31
0.0
  0
LINE
  5
382
330
1F
100
AcDbEntity
  8
0
  6
Continuous
 62
     7
370
    25
100
AcDbLine
 10
846.0341789579
 20
761.5285816973
 30
0.0
 11
846.4764757662
 21
760.9360352375
 31
0.0
  0
LINE
  5
383
330
1F
100
AcDbEntity
  8
0
  6
Continuous
 62
     7
370
    25
100
AcDbLine
 10
846.4764757662
 20
760.9360352375
 30
0.0
 11
846.8028545457
 21
760.5507932892
 31
0.0
  0
LINE
  5
384
330
1F
100
AcDbEntity
  8
0
  6
Continuous
 62
     7
370
    25
100
AcDbLine
 10
846.8028545457
 20
760.5507932892
 30
0.0
 11
847.1153849314
 21
760.1532411968
 31
0.0
  0
LINE
  5
385
330
1F
100
AcDbEntity
  8
0
  6
Continuous
 62
     7
370
    25
100
AcDbLine
 10
847.1153849314
 20
760.1532411968
 30
0.0
 11
847.5656519117
 21
759.6414919783
 31
0.0
  0
LINE
  5
386
330
1F
100
AcDbEntity
  8
0
  6
Continuous
 62
     7
370
    25
100
AcDbLine
 10
847.5656519117
 20
759.6414919783
 30
0.0
 11
848.0276232574
 21
759.1311607728
 31
0.0
  0
LINE
  5
387
330
1F
100
AcDbEntity
  8
0
  6
Continuous
 62
     7
370
    25
100
AcDbLine
 10
848.0276232574
 20
759.1311607728
 30
0.0
 11
848.3147942004
 21
758.8556279896
 31
0.0
  0
LINE
  5
388
330
1F
100
AcDbEntity
  8
0
  6
Continuous
 62
     7
370
    25
100
AcDbLine
 10
848.3147942004
 20
758.8556279896
 30
0.0
 11
848.3147942004
 21
758.7740999666
 31
0.0
  0
LINE
  5
389
330
1F
100
AcDbEntity
  8
0
  6
Continuous
 62
     7
370
    25
100
AcDbLine
 10
848.3147942004
 20
758.7740999666
 30
0.0
 11
848.1949077632
 21
758.6798528096
 31
0.0
  0
LINE
  5
38A
330
1F
100
AcDbEntity
  8
0
  6
Continuous
 62
     7
370
    25
100
AcDbLine
 10
848.1949077632
 20
758.6798528096
 30
0.0
 11
847.9623496739
 21
758.4315680251
 31
0.0
  0
LINE
  5
38B
330
1F
100
AcDbEntity
  8
0
  6
Continuous
 62
     7
370
    25
100
AcDbLine
 10
847.9623496739
 20
758.4315680251
 30
0.0
 11
847.7897943079
 21
758.2028702435
 31
0.0
  0
LINE
  5
38C
330
1F
100
AcDbEntity
  8
0
  6
Continuous
 62
     7
370
    25
100
AcDbLine
 10
847.7897943079
 20
758.2028702435
 30
0.0
 11
847.6184653614
 21
757.8984767893
 31
0.0
  0
LINE
  5
38D
330
1F
100
AcDbEntity
  8
0
  6
Continuous
 62
     7
370
    25
100
AcDbLine
 10
847.6184653614
 20
757.8984767893
 30
0.0
 11
847.4149415042
 21
757.5010054282
 31
0.0
  0
LINE
  5
38E
330
1F
100
AcDbEntity
  8
0
  6
Continuous
 62
     7
370
    25
100
AcDbLine
 10
847.4149415042
 20
757.5010054282
 30
0.0
 11
847.2286383782
 21
757.0563661204
 31
0.0
  0
LINE
  5
38F
330
1F
100
AcDbEntity
  8
0
  6
Continuous
 62
     7
370
    25
100
AcDbLine
 10
847.2286383782
 20
757.0563661204
 30
0.0
 11
847.0470284885
 21
756.542287847
 31
0.0
  0
LINE
  5
390
330
1F
100
AcDbEntity
  8
0
  6
Continuous
 62
     7
370
    25
100
AcDbLine
 10
847.0470284885
 20
756.542287847
 30
0.0
 11
846.8659798633
 21
755.8472833117
 31
0.0
  0
LINE
  5
391
330
1F
100
AcDbEntity
  8
0
  6
Continuous
 62
     7
370
    25
100
AcDbLine
 10
846.8659798633
 20
755.8472833117
 30
0.0
 11
846.6739969579
 21
754.9316725321
 31
0.0
  0
LINE
  5
392
330
1F
100
AcDbEntity
  8
0
  6
Continuous
 62
     7
370
    25
100
AcDbLine
 10
846.6739969579
 20
754.9316725321
 30
0.0
 11
846.4662405279
 21
753.7092916766
 31
0.0
  0
LINE
  5
393
330
1F
100
AcDbEntity
  8
0
  6
Continuous
 62
     7
370
    25
100
AcDbLine
 10
846.4662405279
 20
753.7092916766
 30
0.0
 11
846.350108513
 21
752.6023799705
 31
0.0
  0
LINE
  5
394
330
1F
100
AcDbEntity
  8
0
  6
Continuous
 62
     7
370
    25
100
AcDbLine
 10
857.1513873471
 20
771.6971658878
 30
0.0
 11
855.6178002623
 21
770.5524443866
 31
0.0
  0
LINE
  5
395
330
1F
100
AcDbEntity
  8
0
  6
Continuous
 62
     7
370
    25
100
AcDbLine
 10
855.6178002623
 20
770.5524443866
 30
0.0
 11
854.9067605061
 21
769.9500481814
 31
0.0
  0
LINE
  5
396
330
1F
100
AcDbEntity
  8
0
  6
Continuous
 62
     7
370
    25
100
AcDbLine
 10
854.9067605061
 20
769.9500481814
 30
0.0
 11
854.2514514997
 21
769.3568373797
 31
0.0
  0
LINE
  5
397
330
1F
100
AcDbEntity
  8
0
  6
Continuous
 62
     7
370
    25
100
AcDbLine
 10
854.2514514997
 20
769.3568373797
 30
0.0
 11
853.4783309142
 21
768.6373326669
 31
0.0
  0
LINE
  5
398
330
1F
100
AcDbEntity
  8
0
  6
Continuous
 62
     7
370
    25
100
AcDbLine
 10
853.4783309142
 20
768.6373326669
 30
0.0
 11
852.7968348865
 21
767.9558366393
 31
0.0
  0
LINE
  5
399
330
1F
100
AcDbEntity
  8
0
  6
Continuous
 62
     7
370
    25
100
AcDbLine
 10
852.7968348865
 20
767.9558366393
 30
0.0
 11
852.219833492
 21
767.3544634282
 31
0.0
  0
LINE
  5
39A
330
1F
100
AcDbEntity
  8
0
  6
Continuous
 62
     7
370
    25
100
AcDbLine
 10
864.487982908
 20
746.2001775248
 30
0.0
 11
863.8653080227
 21
746.6453375006
 31
0.0
  0
LINE
  5
39B
330
1F
100
AcDbEntity
  8
0
  6
Continuous
 62
     7
370
    25
100
AcDbLine
 10
851.7894971623
 20
766.8762113535
 30
0.0
 11
851.3902584854
 21
766.401017235
 31
0.0
  0
LINE
  5
39C
330
1F
100
AcDbEntity
  8
0
  6
Continuous
 62
     7
370
    25
100
AcDbLine
 10
863.1874766371
 20
747.0100729122
 30
0.0
 11
862.649875676
 21
747.2226603645
 31
0.0
  0
LINE
  5
39D
330
1F
100
AcDbEntity
  8
0
  6
Continuous
 62
     7
370
    25
100
AcDbLine
 10
851.1901606977
 20
766.0715005414
 30
0.0
 11
850.9410334696
 21
765.6085176533
 31
0.0
  0
LINE
  5
39E
330
1F
100
AcDbEntity
  8
0
  6
Continuous
 62
     7
370
    25
100
AcDbLine
 10
848.1610738737
 20
746.8427056134
 30
0.0
 11
848.4820783805
 21
746.5347104372
 31
0.0
  0
LINE
  5
39F
330
1F
100
AcDbEntity
  8
0
  6
Continuous
 62
     7
370
    25
100
AcDbLine
 10
848.4820783805
 20
746.5347104372
 30
0.0
 11
848.6997247688
 21
746.3704934872
 31
0.0
  0
LINE
  5
3A0
330
1F
100
AcDbEntity
  8
0
  6
Continuous
 62
     7
370
    25
100
AcDbLine
 10
850.5962449817
 20
764.6387706357
 30
0.0
 11
850.5010887622
 21
764.1849486661
 31
0.0
  0
LINE
  5
3A1
330
1F
100
AcDbEntity
  8
0
  6
Continuous
 62
     7
370
    25
100
AcDbLine
 10
850.5010887622
 20
764.1849486661
 30
0.0
 11
850.5010887622
 21
763.2541548439
 31
0.0
  0
LINE
  5
3A2
330
1F
100
AcDbEntity
  8
0
  6
Continuous
 62
     7
370
    25
100
AcDbLine
 10
850.5010887622
 20
763.2541548439
 30
0.0
 11
850.5731414319
 21
762.799688156
 31
0.0
  0
LINE
  5
3A3
330
1F
100
AcDbEntity
  8
0
  6
Continuous
 62
     7
370
    25
100
AcDbLine
 10
850.5731414319
 20
762.799688156
 30
0.0
 11
850.7009043479
 21
762.2241316864
 31
0.0
  0
LINE
  5
3A4
330
1F
100
AcDbEntity
  8
0
  6
Continuous
 62
     7
370
    25
100
AcDbLine
 10
846.0341789579
 20
744.8038889768
 30
0.0
 11
845.1844835103
 21
744.349816983
 31
0.0
  0
LINE
  5
3A5
330
1F
100
AcDbEntity
  8
0
  6
Continuous
 62
     7
370
    25
100
AcDbLine
 10
858.7682261982
 20
741.0925829096
 30
0.0
 11
859.2886607169
 21
741.4810529153
 31
0.0
  0
LINE
  5
3A6
330
1F
100
AcDbEntity
  8
0
  6
Continuous
 62
     7
370
    25
100
AcDbLine
 10
859.2886607169
 20
741.4810529153
 30
0.0
 11
859.7996626936
 21
741.8063627212
 31
0.0
  0
LINE
  5
3A7
330
1F
100
AcDbEntity
  8
0
  6
Continuous
 62
     7
370
    25
100
AcDbLine
 10
859.7996626936
 20
741.8063627212
 30
0.0
 11
860.1578495524
 21
742.0043914129
 31
0.0
  0
LINE
  5
3A8
330
1F
100
AcDbEntity
  8
0
  6
Continuous
 62
     7
370
    25
100
AcDbLine
 10
860.1578495524
 20
742.0043914129
 30
0.0
 11
860.576604813
 21
742.1888692987
 31
0.0
  0
LINE
  5
3A9
330
1F
100
AcDbEntity
  8
0
  6
Continuous
 62
     7
370
    25
100
AcDbLine
 10
860.576604813
 20
742.1888692987
 30
0.0
 11
861.2756888116
 21
742.4415549164
 31
0.0
  0
LINE
  5
3AA
330
1F
100
AcDbEntity
  8
0
  6
Continuous
 62
     7
370
    25
100
AcDbLine
 10
861.2756888116
 20
742.4415549164
 30
0.0
 11
861.7440174113
 21
742.5340669101
 31
0.0
  0
LINE
  5
3AB
330
1F
100
AcDbEntity
  8
0
  6
Continuous
 62
     7
370
    25
100
AcDbLine
 10
861.7440174113
 20
742.5340669101
 30
0.0
 11
862.3767216945
 21
742.5340669101
 31
0.0
  0
LINE
  5
3AC
330
1F
100
AcDbEntity
  8
0
  6
Continuous
 62
     7
370
    25
100
AcDbLine
 10
862.3767216945
 20
742.5340669101
 30
0.0
 11
862.8563379289
 21
742.4598029181
 31
0.0
  0
LINE
  5
3AD
330
1F
100
AcDbEntity
  8
0
  6
Continuous
 62
     7
370
    25
100
AcDbLine
 10
862.8563379289
 20
742.4598029181
 30
0.0
 11
863.2670117962
 21
742.3240948929
 31
0.0
  0
LINE
  5
3AE
330
1F
100
AcDbEntity
  8
0
  6
Continuous
 62
     7
370
    25
100
AcDbLine
 10
863.2670117962
 20
742.3240948929
 30
0.0
 11
863.6128428187
 21
742.1294426625
 31
0.0
  0
LINE
  5
3AF
330
1F
100
AcDbEntity
  8
0
  6
Continuous
 62
     7
370
    25
100
AcDbLine
 10
863.6128428187
 20
742.1294426625
 30
0.0
 11
863.9767086578
 21
741.8693093057
 31
0.0
  0
LINE
  5
3B0
330
1F
100
AcDbEntity
  8
0
  6
Continuous
 62
     7
370
    25
100
AcDbLine
 10
863.9767086578
 20
741.8693093057
 30
0.0
 11
864.288819316
 21
741.5571986475
 31
0.0
  0
LINE
  5
3B1
330
1F
100
AcDbEntity
  8
0
  6
Continuous
 62
     7
370
    25
100
AcDbLine
 10
864.288819316
 20
741.5571986475
 30
0.0
 11
864.4609468389
 21
741.2868179125
 31
0.0
  0
LINE
  5
3B2
330
1F
100
AcDbEntity
  8
0
  6
Continuous
 62
     7
370
    25
100
AcDbLine
 10
864.4609468389
 20
741.2868179125
 30
0.0
 11
864.5830989846
 21
741.0272178967
 31
0.0
  0
LINE
  5
3B3
330
1F
100
AcDbEntity
  8
0
  6
Continuous
 62
     7
370
    25
100
AcDbLine
 10
864.5830989846
 20
741.0272178967
 30
0.0
 11
864.6209199362
 21
740.8795841478
 31
0.0
  0
LINE
  5
3B4
330
1F
100
AcDbEntity
  8
0
  6
Continuous
 62
     7
370
    25
100
AcDbLine
 10
864.6209199362
 20
740.8795841478
 30
0.0
 11
864.6209199362
 21
740.7508281534
 31
0.0
  0
LINE
  5
3B5
330
1F
100
AcDbEntity
  8
0
  6
Continuous
 62
     7
370
    25
100
AcDbLine
 10
864.6209199362
 20
740.7508281534
 30
0.0
 11
864.564459349
 21
740.5799695204
 31
0.0
  0
LINE
  5
3B6
330
1F
100
AcDbEntity
  8
0
  6
Continuous
 62
     7
370
    25
100
AcDbLine
 10
864.564459349
 20
740.5799695204
 30
0.0
 11
864.4157891365
 21
740.3351426412
 31
0.0
  0
LINE
  5
3B7
330
1F
100
AcDbEntity
  8
0
  6
Continuous
 62
     7
370
    25
100
AcDbLine
 10
864.4157891365
 20
740.3351426412
 30
0.0
 11
864.2364949082
 21
740.1898585202
 31
0.0
  0
LINE
  5
3B8
330
1F
100
AcDbEntity
  8
0
  6
Continuous
 62
     7
370
    25
100
AcDbLine
 10
864.2364949082
 20
740.1898585202
 30
0.0
 11
864.1972452319
 21
740.1252230052
 31
0.0
  0
LINE
  5
3B9
330
1F
100
AcDbEntity
  8
0
  6
Continuous
 62
     7
370
    25
100
AcDbLine
 10
864.1972452319
 20
740.1252230052
 30
0.0
 11
864.1972452319
 21
740.0334721364
 31
0.0
  0
LINE
  5
3BA
330
1F
100
AcDbEntity
  8
0
  6
Continuous
 62
     7
370
    25
100
AcDbLine
 10
864.1972452319
 20
740.0334721364
 30
0.0
 11
864.662210919
 21
740.0334721364
 31
0.0
  0
LINE
  5
3BB
330
1F
100
AcDbEntity
  8
0
  6
Continuous
 62
     7
370
    25
100
AcDbLine
 10
864.662210919
 20
740.0334721364
 30
0.0
 11
865.0680868853
 21
740.1801769952
 31
0.0
  0
LINE
  5
3BC
330
1F
100
AcDbEntity
  8
0
  6
Continuous
 62
     7
370
    25
100
AcDbLine
 10
865.0680868853
 20
740.1801769952
 30
0.0
 11
865.4084472272
 21
740.3683500439
 31
0.0
  0
LINE
  5
3BD
330
1F
100
AcDbEntity
  8
0
  6
Continuous
 62
     7
370
    25
100
AcDbLine
 10
865.4084472272
 20
740.3683500439
 30
0.0
 11
865.6735617539
 21
740.6083418637
 31
0.0
  0
LINE
  5
3BE
330
1F
100
AcDbEntity
  8
0
  6
Continuous
 62
     7
370
    25
100
AcDbLine
 10
865.6735617539
 20
740.6083418637
 30
0.0
 11
865.8620939311
 21
740.8720543676
 31
0.0
  0
LINE
  5
3BF
330
1F
100
AcDbEntity
  8
0
  6
Continuous
 62
     7
370
    25
100
AcDbLine
 10
865.8620939311
 20
740.8720543676
 30
0.0
 11
866.0536414112
 21
741.2280299314
 31
0.0
  0
LINE
  5
3C0
330
1F
100
AcDbEntity
  8
0
  6
Continuous
 62
     7
370
    25
100
AcDbLine
 10
866.0536414112
 20
741.2280299314
 30
0.0
 11
866.1856090507
 21
741.6709043826
 31
0.0
  0
LINE
  5
3C1
330
1F
100
AcDbEntity
  8
0
  6
Continuous
 62
     7
370
    25
100
AcDbLine
 10
866.1856090507
 20
741.6709043826
 30
0.0
 11
866.2513346889
 21
742.0169800908
 31
0.0
  0
LINE
  5
3C2
330
1F
100
AcDbEntity
  8
0
  6
Continuous
 62
     7
370
    25
100
AcDbLine
 10
866.2513346889
 20
742.0169800908
 30
0.0
 11
866.2513346889
 21
742.9116125305
 31
0.0
  0
LINE
  5
3C3
330
1F
100
AcDbEntity
  8
0
  6
Continuous
 62
     7
370
    25
100
AcDbLine
 10
866.2513346889
 20
742.9116125305
 30
0.0
 11
866.1702548607
 21
743.3220674441
 31
0.0
  0
LINE
  5
3C4
330
1F
100
AcDbEntity
  8
0
  6
Continuous
 62
     7
370
    25
100
AcDbLine
 10
866.1702548607
 20
743.3220674441
 30
0.0
 11
866.0318314901
 21
743.8624018435
 31
0.0
  0
LINE
  5
3C5
330
1F
100
AcDbEntity
  8
0
  6
Continuous
 62
     7
370
    25
100
AcDbLine
 10
866.0318314901
 20
743.8624018435
 30
0.0
 11
865.8556540981
 21
744.3498169829
 31
0.0
  0
LINE
  5
3C6
330
1F
100
AcDbEntity
  8
0
  6
Continuous
 62
     7
370
    25
100
AcDbLine
 10
865.8556540981
 20
744.3498169829
 30
0.0
 11
865.6335205239
 21
744.8218993932
 31
0.0
  0
LINE
  5
3C7
330
1F
100
AcDbEntity
  8
0
  6
Continuous
 62
     7
370
    25
100
AcDbLine
 10
865.6335205239
 20
744.8218993932
 30
0.0
 11
865.2739859734
 21
745.38666216
 31
0.0
  0
LINE
  5
3C8
330
1F
100
AcDbEntity
  8
0
  6
Continuous
 62
     7
370
    25
100
AcDbLine
 10
865.2739859734
 20
745.38666216
 30
0.0
 11
864.8651489022
 21
745.8382969146
 31
0.0
  0
LINE
  5
3C9
330
1F
100
AcDbEntity
  8
0
  6
Continuous
 62
     7
370
    25
100
AcDbLine
 10
864.8651489022
 20
745.8382969146
 30
0.0
 11
864.487982908
 21
746.2001775248
 31
0.0
  0
LINE
  5
3CA
330
1F
100
AcDbEntity
  8
0
  6
Continuous
 62
     7
370
    25
100
AcDbLine
 10
862.4201592416
 20
767.7128701747
 30
0.0
 11
862.2280934579
 21
767.2271653564
 31
0.0
  0
LINE
  5
3CB
330
1F
100
AcDbEntity
  8
0
  6
Continuous
 62
     7
370
    25
100
AcDbLine
 10
863.8653080227
 20
746.6453375006
 30
0.0
 11
863.1874766371
 21
747.0100729122
 31
0.0
  0
LINE
  5
3CC
330
1F
100
AcDbEntity
  8
0
  6
Continuous
 62
     7
370
    25
100
AcDbLine
 10
858.4699296435
 20
753.6172590112
 30
0.0
 11
858.6662845014
 21
753.8354769763
 31
0.0
  0
LINE
  5
3CD
330
1F
100
AcDbEntity
  8
0
  6
Continuous
 62
     7
370
    25
100
AcDbLine
 10
862.649875676
 20
747.2226603645
 30
0.0
 11
862.0110233169
 21
747.4130254614
 31
0.0
  0
LINE
  5
3CE
330
1F
100
AcDbEntity
  8
0
  6
Continuous
 62
     7
370
    25
100
AcDbLine
 10
862.0110233169
 20
747.4130254614
 30
0.0
 11
861.3619927825
 21
747.5729465982
 31
0.0
  0
LINE
  5
3CF
330
1F
100
AcDbEntity
  8
0
  6
Continuous
 62
     7
370
    25
100
AcDbLine
 10
861.3619927825
 20
747.5729465982
 30
0.0
 11
860.5338350363
 21
747.7011789137
 31
0.0
  0
LINE
  5
3D0
330
1F
100
AcDbEntity
  8
0
  6
Continuous
 62
     7
370
    25
100
AcDbLine
 10
860.5338350363
 20
747.7011789137
 30
0.0
 11
858.6394049335
 21
747.8473096956
 31
0.0
  0
LINE
  5
3D1
330
1F
100
AcDbEntity
  8
0
  6
Continuous
 62
     7
370
    25
100
AcDbLine
 10
858.6394049335
 20
747.8473096956
 30
0.0
 11
858.1671971661
 21
747.865653126
 31
0.0
  0
LINE
  5
3D2
330
1F
100
AcDbEntity
  8
0
  6
Continuous
 62
     7
370
    25
100
AcDbLine
 10
858.1671971661
 20
747.865653126
 30
0.0
 11
857.8796774519
 21
747.865653126
 31
0.0
  0
LINE
  5
3D3
330
1F
100
AcDbEntity
  8
0
  6
Continuous
 62
     7
370
    25
100
AcDbLine
 10
857.8796774519
 20
747.865653126
 30
0.0
 11
857.9351505476
 21
747.9687454065
 31
0.0
  0
LINE
  5
3D4
330
1F
100
AcDbEntity
  8
0
  6
Continuous
 62
     7
370
    25
100
AcDbLine
 10
857.9351505476
 20
747.9687454065
 30
0.0
 11
858.7660848635
 21
748.4977278631
 31
0.0
  0
LINE
  5
3D5
330
1F
100
AcDbEntity
  8
0
  6
Continuous
 62
     7
370
    25
100
AcDbLine
 10
858.7660848635
 20
748.4977278631
 30
0.0
 11
859.2865193822
 21
748.7854574778
 31
0.0
  0
LINE
  5
3D6
330
1F
100
AcDbEntity
  8
0
  6
Continuous
 62
     7
370
    25
100
AcDbLine
 10
859.2865193822
 20
748.7854574778
 30
0.0
 11
859.8137886891
 21
749.058627038
 31
0.0
  0
LINE
  5
3D7
330
1F
100
AcDbEntity
  8
0
  6
Continuous
 62
     7
370
    25
100
AcDbLine
 10
859.8137886891
 20
749.058627038
 30
0.0
 11
860.5044510768
 21
749.3836111962
 31
0.0
  0
LINE
  5
3D8
330
1F
100
AcDbEntity
  8
0
  6
Continuous
 62
     7
370
    25
100
AcDbLine
 10
860.5044510768
 20
749.3836111962
 30
0.0
 11
861.0987347859
 21
749.6914998164
 31
0.0
  0
LINE
  5
3D9
330
1F
100
AcDbEntity
  8
0
  6
Continuous
 62
     7
370
    25
100
AcDbLine
 10
861.0987347859
 20
749.6914998164
 30
0.0
 11
862.5031240426
 21
750.7397836695
 31
0.0
  0
LINE
  5
3DA
330
1F
100
AcDbEntity
  8
0
  6
Continuous
 62
     7
370
    25
100
AcDbLine
 10
862.5031240426
 20
750.7397836695
 30
0.0
 11
862.7586625458
 21
750.9711069062
 31
0.0
  0
LINE
  5
3DB
330
1F
100
AcDbEntity
  8
0
  6
Continuous
 62
     7
370
    25
100
AcDbLine
 10
862.7586625458
 20
750.9711069062
 30
0.0
 11
862.8366844744
 21
751.1684123603
 31
0.0
  0
LINE
  5
3DC
330
1F
100
AcDbEntity
  8
0
  6
Continuous
 62
     7
370
    25
100
AcDbLine
 10
862.8366844744
 20
751.1684123603
 30
0.0
 11
862.9086057092
 21
751.4603004648
 31
0.0
  0
LINE
  5
3DD
330
1F
100
AcDbEntity
  8
0
  6
Continuous
 62
     7
370
    25
100
AcDbLine
 10
862.9086057092
 20
751.4603004648
 30
0.0
 11
863.1391617277
 21
752.6742839199
 31
0.0
  0
LINE
  5
3DE
330
1F
100
AcDbEntity
  8
0
  6
Continuous
 62
     7
370
    25
100
AcDbLine
 10
863.1391617277
 20
752.6742839199
 30
0.0
 11
863.2218078536
 21
753.3238177319
 31
0.0
  0
LINE
  5
3DF
330
1F
100
AcDbEntity
  8
0
  6
Continuous
 62
     7
370
    25
100
AcDbLine
 10
863.2218078536
 20
753.3238177319
 30
0.0
 11
863.2218078536
 21
755.1758624008
 31
0.0
  0
LINE
  5
3E0
330
1F
100
AcDbEntity
  8
0
  6
Continuous
 62
     7
370
    25
100
AcDbLine
 10
863.2218078536
 20
755.1758624008
 30
0.0
 11
863.14580555
 21
756.6170340175
 31
0.0
  0
LINE
  5
3E1
330
1F
100
AcDbEntity
  8
0
  6
Continuous
 62
     7
370
    25
100
AcDbLine
 10
863.14580555
 20
756.6170340175
 30
0.0
 11
862.8793012531
 21
759.3509822539
 31
0.0
  0
LINE
  5
3E2
330
1F
100
AcDbEntity
  8
0
  6
Continuous
 62
     7
370
    25
100
AcDbLine
 10
862.8793012531
 20
759.3509822539
 30
0.0
 11
862.7586625458
 21
761.1433161163
 31
0.0
  0
LINE
  5
3E3
330
1F
100
AcDbEntity
  8
0
  6
Continuous
 62
     7
370
    25
100
AcDbLine
 10
862.7586625458
 20
761.1433161163
 30
0.0
 11
862.7586625458
 21
762.7150281472
 31
0.0
  0
LINE
  5
3E4
330
1F
100
AcDbEntity
  8
0
  6
Continuous
 62
     7
370
    25
100
AcDbLine
 10
862.7586625458
 20
762.7150281472
 30
0.0
 11
862.8189818994
 21
763.8013343756
 31
0.0
  0
LINE
  5
3E5
330
1F
100
AcDbEntity
  8
0
  6
Continuous
 62
     7
370
    25
100
AcDbLine
 10
862.8189818994
 20
763.8013343756
 30
0.0
 11
863.0205608506
 21
764.8627402466
 31
0.0
  0
LINE
  5
3E6
330
1F
100
AcDbEntity
  8
0
  6
Continuous
 62
     7
370
    25
100
AcDbLine
 10
863.0205608506
 20
764.8627402466
 30
0.0
 11
863.2218078536
 21
765.6794893802
 31
0.0
  0
LINE
  5
3E7
330
1F
100
AcDbEntity
  8
0
  6
Continuous
 62
     7
370
    25
100
AcDbLine
 10
863.2218078536
 20
765.6794893802
 30
0.0
 11
863.4535594674
 21
766.4572320844
 31
0.0
  0
LINE
  5
3E8
330
1F
100
AcDbEntity
  8
0
  6
Continuous
 62
     7
370
    25
100
AcDbLine
 10
863.4535594674
 20
766.4572320844
 30
0.0
 11
863.729791264
 21
767.1557798008
 31
0.0
  0
LINE
  5
3E9
330
1F
100
AcDbEntity
  8
0
  6
Continuous
 62
     7
370
    25
100
AcDbLine
 10
863.729791264
 20
767.1557798008
 30
0.0
 11
863.9745673231
 21
767.6633891691
 31
0.0
  0
LINE
  5
3EA
330
1F
100
AcDbEntity
  8
0
  6
Continuous
 62
     7
370
    25
100
AcDbLine
 10
863.9745673231
 20
767.6633891691
 30
0.0
 11
864.3819983543
 21
768.420566925
 31
0.0
  0
LINE
  5
3EB
330
1F
100
AcDbEntity
  8
0
  6
Continuous
 62
     7
370
    25
100
AcDbLine
 10
864.3819983543
 20
768.420566925
 30
0.0
 11
864.8739552225
 21
769.2307108178
 31
0.0
  0
LINE
  5
3EC
330
1F
100
AcDbEntity
  8
0
  6
Continuous
 62
     7
370
    25
100
AcDbLine
 10
864.8739552225
 20
769.2307108178
 30
0.0
 11
865.7100191755
 21
770.4001691123
 31
0.0
  0
LINE
  5
3ED
330
1F
100
AcDbEntity
  8
0
  6
Continuous
 62
     7
370
    25
100
AcDbLine
 10
865.7100191755
 20
770.4001691123
 30
0.0
 11
865.8394184699
 21
770.4717093499
 31
0.0
  0
LINE
  5
3EE
330
1F
100
AcDbEntity
  8
0
  6
Continuous
 62
     7
370
    25
100
AcDbLine
 10
865.8394184699
 20
770.4717093499
 30
0.0
 11
865.8394184699
 21
770.6322453874
 31
0.0
  0
LINE
  5
3EF
330
1F
100
AcDbEntity
  8
0
  6
Continuous
 62
     7
370
    25
100
AcDbLine
 10
865.8394184699
 20
770.6322453874
 30
0.0
 11
865.7100191755
 21
770.7564005243
 31
0.0
  0
LINE
  5
3F0
330
1F
100
AcDbEntity
  8
0
  6
Continuous
 62
     7
370
    25
100
AcDbLine
 10
865.7100191755
 20
770.7564005243
 30
0.0
 11
865.4921457233
 21
770.8213224115
 31
0.0
  0
LINE
  5
3F1
330
1F
100
AcDbEntity
  8
0
  6
Continuous
 62
     7
370
    25
100
AcDbLine
 10
865.4921457233
 20
770.8213224115
 30
0.0
 11
865.0557296034
 21
770.8213224115
 31
0.0
  0
LINE
  5
3F2
330
1F
100
AcDbEntity
  8
0
  6
Continuous
 62
     7
370
    25
100
AcDbLine
 10
865.0557296034
 20
770.8213224115
 30
0.0
 11
864.8053532729
 21
770.7308232757
 31
0.0
  0
LINE
  5
3F3
330
1F
100
AcDbEntity
  8
0
  6
Continuous
 62
     7
370
    25
100
AcDbLine
 10
864.8053532729
 20
770.7308232757
 30
0.0
 11
864.4286574081
 21
770.5225616171
 31
0.0
  0
LINE
  5
3F4
330
1F
100
AcDbEntity
  8
0
  6
Continuous
 62
     7
370
    25
100
AcDbLine
 10
864.4286574081
 20
770.5225616171
 30
0.0
 11
864.0403227595
 21
770.2326954424
 31
0.0
  0
LINE
  5
3F5
330
1F
100
AcDbEntity
  8
0
  6
Continuous
 62
     7
370
    25
100
AcDbLine
 10
864.0403227595
 20
770.2326954424
 30
0.0
 11
863.8062369142
 21
769.9540745989
 31
0.0
  0
LINE
  5
3F6
330
1F
100
AcDbEntity
  8
0
  6
Continuous
 62
     7
370
    25
100
AcDbLine
 10
863.8062369142
 20
769.9540745989
 30
0.0
 11
863.4535594674
 21
769.460761182
 31
0.0
  0
LINE
  5
3F7
330
1F
100
AcDbEntity
  8
0
  6
Continuous
 62
     7
370
    25
100
AcDbLine
 10
863.4535594674
 20
769.460761182
 30
0.0
 11
863.1002906799
 21
768.9386343576
 31
0.0
  0
LINE
  5
3F8
330
1F
100
AcDbEntity
  8
0
  6
Continuous
 62
     7
370
    25
100
AcDbLine
 10
863.1002906799
 20
768.9386343576
 30
0.0
 11
862.919771375
 21
768.6413590844
 31
0.0
  0
LINE
  5
3F9
330
1F
100
AcDbEntity
  8
0
  6
Continuous
 62
     7
370
    25
100
AcDbLine
 10
862.919771375
 20
768.6413590844
 30
0.0
 11
862.4201592416
 21
767.7128701747
 31
0.0
  0
LINE
  5
3FA
330
1F
100
AcDbEntity
  8
0
  6
Continuous
 62
     7
370
    25
100
AcDbLine
 10
857.2375973823
 20
752.2197916276
 30
0.0
 11
858.001609624
 21
753.1291577405
 31
0.0
  0
LINE
  5
3FB
330
1F
100
AcDbEntity
  8
0
  6
Continuous
 62
     7
370
    25
100
AcDbLine
 10
858.001609624
 20
753.1291577405
 30
0.0
 11
858.4699296435
 21
753.6172590112
 31
0.0
  0
LINE
  5
3FC
330
1F
100
AcDbEntity
  8
0
  6
Continuous
 62
     7
370
    25
100
AcDbLine
 10
849.6990536282
 20
752.6023799705
 30
0.0
 11
849.8261980077
 21
753.2087608574
 31
0.0
  0
LINE
  5
3FD
330
1F
100
AcDbEntity
  8
0
  6
Continuous
 62
     7
370
    25
100
AcDbLine
 10
858.6662845014
 20
753.8354769763
 30
0.0
 11
858.7036862491
 21
754.0138545423
 31
0.0
  0
LINE
  5
3FE
330
1F
100
AcDbEntity
  8
0
  6
Continuous
 62
     7
370
    25
100
AcDbLine
 10
858.7036862491
 20
754.0138545423
 30
0.0
 11
858.7794487174
 21
754.9960343313
 31
0.0
  0
LINE
  5
3FF
330
1F
100
AcDbEntity
  8
0
  6
Continuous
 62
     7
370
    25
100
AcDbLine
 10
850.9410334696
 20
765.6085176533
 30
0.0
 11
850.7192633299
 21
765.1110101231
 31
0.0
  0
LINE
  5
400
330
1F
100
AcDbEntity
  8
0
  6
Continuous
 62
     7
370
    25
100
AcDbLine
 10
850.7192633299
 20
765.1110101231
 30
0.0
 11
850.5962449817
 21
764.6387706357
 31
0.0
  0
LINE
  5
401
330
1F
100
AcDbEntity
  8
0
  6
Continuous
 62
     7
370
    25
100
AcDbLine
 10
859.0339090938
 20
757.2037654279
 30
0.0
 11
859.2885277074
 21
758.8481588592
 31
0.0
  0
LINE
  5
402
330
1F
100
AcDbEntity
  8
0
  6
Continuous
 62
     7
370
    25
100
AcDbLine
 10
859.2885277074
 20
758.8481588592
 30
0.0
 11
859.5984282505
 21
760.4799277221
 31
0.0
  0
LINE
  5
403
330
1F
100
AcDbEntity
  8
0
  6
Continuous
 62
     7
370
    25
100
AcDbLine
 10
860.5802595439
 20
760.0187405174
 30
0.0
 11
860.5802595439
 21
759.1498029375
 31
0.0
  0
LINE
  5
404
330
1F
100
AcDbEntity
  8
0
  6
Continuous
 62
     7
370
    25
100
AcDbLine
 10
860.5802595439
 20
759.1498029375
 30
0.0
 11
860.6160901929
 21
757.9258364198
 31
0.0
  0
LINE
  5
405
330
1F
100
AcDbEntity
  8
0
  6
Continuous
 62
     7
370
    25
100
AcDbLine
 10
860.6160901929
 20
757.9258364198
 30
0.0
 11
860.7564672924
 21
756.9059186187
 31
0.0
  0
LINE
  5
406
330
1F
100
AcDbEntity
  8
0
  6
Continuous
 62
     7
370
    25
100
AcDbLine
 10
860.7564672924
 20
756.9059186187
 30
0.0
 11
860.8917474094
 21
755.51814048
 31
0.0
  0
LINE
  5
407
330
1F
100
AcDbEntity
  8
0
  6
Continuous
 62
     7
370
    25
100
AcDbLine
 10
860.8917474094
 20
755.51814048
 30
0.0
 11
860.931221492
 21
754.931672532
 31
0.0
  0
LINE
  5
408
330
1F
100
AcDbEntity
  8
0
  6
Continuous
 62
     7
370
    25
100
AcDbLine
 10
860.931221492
 20
754.931672532
 30
0.0
 11
860.931221492
 21
754.1573096743
 31
0.0
  0
LINE
  5
409
330
1F
100
AcDbEntity
  8
0
  6
Continuous
 62
     7
370
    25
100
AcDbLine
 10
860.931221492
 20
754.1573096743
 30
0.0
 11
860.8521323833
 21
753.5357312307
 31
0.0
  0
LINE
  5
40A
330
1F
100
AcDbEntity
  8
0
  6
Continuous
 62
     7
370
    25
100
AcDbLine
 10
860.8521323833
 20
753.5357312307
 30
0.0
 11
860.6707871349
 21
752.5808651087
 31
0.0
  0
LINE
  5
40B
330
1F
100
AcDbEntity
  8
0
  6
Continuous
 62
     7
370
    25
100
AcDbLine
 10
860.6707871349
 20
752.5808651087
 30
0.0
 11
860.4925920636
 21
752.0416187454
 31
0.0
  0
LINE
  5
40C
330
1F
100
AcDbEntity
  8
0
  6
Continuous
 62
     7
370
    25
100
AcDbLine
 10
860.4925920636
 20
752.0416187454
 30
0.0
 11
860.2507065574
 21
751.498985454
 31
0.0
  0
LINE
  5
40D
330
1F
100
AcDbEntity
  8
0
  6
Continuous
 62
     7
370
    25
100
AcDbLine
 10
860.2507065574
 20
751.498985454
 30
0.0
 11
859.9900607728
 21
751.0697596332
 31
0.0
  0
LINE
  5
40E
330
1F
100
AcDbEntity
  8
0
  6
Continuous
 62
     7
370
    25
100
AcDbLine
 10
859.9900607728
 20
751.0697596332
 30
0.0
 11
859.6031457113
 21
750.6092337067
 31
0.0
  0
LINE
  5
40F
330
1F
100
AcDbEntity
  8
0
  6
Continuous
 62
     7
370
    25
100
AcDbLine
 10
859.6031457113
 20
750.6092337067
 30
0.0
 11
859.2407649944
 21
750.3387404283
 31
0.0
  0
LINE
  5
410
330
1F
100
AcDbEntity
  8
0
  6
Continuous
 62
     7
370
    25
100
AcDbLine
 10
859.2407649944
 20
750.3387404283
 30
0.0
 11
858.7660848635
 21
750.0365535322
 31
0.0
  0
LINE
  5
411
330
1F
100
AcDbEntity
  8
0
  6
Continuous
 62
     7
370
    25
100
AcDbLine
 10
858.7660848635
 20
750.0365535322
 30
0.0
 11
858.1286734606
 21
749.6506536647
 31
0.0
  0
LINE
  5
412
330
1F
100
AcDbEntity
  8
0
  6
Continuous
 62
     7
370
    25
100
AcDbLine
 10
858.1286734606
 20
749.6506536647
 30
0.0
 11
857.6143032634
 21
749.3231996104
 31
0.0
  0
LINE
  5
413
330
1F
100
AcDbEntity
  8
0
  6
Continuous
 62
     7
370
    25
100
AcDbLine
 10
857.6143032634
 20
749.3231996104
 30
0.0
 11
857.181462335
 21
749.0253670466
 31
0.0
  0
LINE
  5
414
330
1F
100
AcDbEntity
  8
0
  6
Continuous
 62
     7
370
    25
100
AcDbLine
 10
857.181462335
 20
749.0253670466
 30
0.0
 11
856.8306720775
 21
748.7411177726
 31
0.0
  0
LINE
  5
415
330
1F
100
AcDbEntity
  8
0
  6
Continuous
 62
     7
370
    25
100
AcDbLine
 10
856.8306720775
 20
748.7411177726
 30
0.0
 11
856.4940795905
 21
748.3903080404
 31
0.0
  0
LINE
  5
416
330
1F
100
AcDbEntity
  8
0
  6
Continuous
 62
     7
370
    25
100
AcDbLine
 10
856.4940795905
 20
748.3903080404
 30
0.0
 11
856.2549084523
 21
748.0368161066
 31
0.0
  0
LINE
  5
417
330
1F
100
AcDbEntity
  8
0
  6
Continuous
 62
     7
370
    25
100
AcDbLine
 10
856.2549084523
 20
748.0368161066
 30
0.0
 11
856.0913201314
 21
747.732800388
 31
0.0
  0
LINE
  5
418
330
1F
100
AcDbEntity
  8
0
  6
Continuous
 62
     7
370
    25
100
AcDbLine
 10
856.0913201314
 20
747.732800388
 30
0.0
 11
856.0502256205
 21
747.5164188916
 31
0.0
  0
LINE
  5
419
330
1F
100
AcDbEntity
  8
0
  6
Continuous
 62
     7
370
    25
100
AcDbLine
 10
856.0502256205
 20
747.5164188916
 30
0.0
 11
856.0502256205
 21
746.6848963113
 31
0.0
  0
LINE
  5
41A
330
1F
100
AcDbEntity
  8
0
  6
Continuous
 62
     7
370
    25
100
AcDbLine
 10
856.0502256205
 20
746.6848963113
 30
0.0
 11
856.1095600052
 21
746.384524563
 31
0.0
  0
LINE
  5
41B
330
1F
100
AcDbEntity
  8
0
  6
Continuous
 62
     7
370
    25
100
AcDbLine
 10
856.1095600052
 20
746.384524563
 30
0.0
 11
856.1636896816
 21
746.2347685501
 31
0.0
  0
LINE
  5
41C
330
1F
100
AcDbEntity
  8
0
  6
Continuous
 62
     7
370
    25
100
AcDbLine
 10
856.1636896816
 20
746.2347685501
 30
0.0
 11
856.0502256205
 21
746.2563172969
 31
0.0
  0
LINE
  5
41D
330
1F
100
AcDbEntity
  8
0
  6
Continuous
 62
     7
370
    25
100
AcDbLine
 10
856.0502256205
 20
746.2563172969
 30
0.0
 11
855.8607885237
 21
746.5538881945
 31
0.0
  0
LINE
  5
41E
330
1F
100
AcDbEntity
  8
0
  6
Continuous
 62
     7
370
    25
100
AcDbLine
 10
855.8607885237
 20
746.5538881945
 30
0.0
 11
855.6610682673
 21
746.9393863486
 31
0.0
  0
LINE
  5
41F
330
1F
100
AcDbEntity
  8
0
  6
Continuous
 62
     7
370
    25
100
AcDbLine
 10
855.6610682673
 20
746.9393863486
 30
0.0
 11
855.4964921663
 21
747.3947051742
 31
0.0
  0
LINE
  5
420
330
1F
100
AcDbEntity
  8
0
  6
Continuous
 62
     7
370
    25
100
AcDbLine
 10
855.4964921663
 20
747.3947051742
 30
0.0
 11
855.4647935228
 21
747.865653126
 31
0.0
  0
LINE
  5
421
330
1F
100
AcDbEntity
  8
0
  6
Continuous
 62
     7
370
    25
100
AcDbLine
 10
855.4647935228
 20
747.865653126
 30
0.0
 11
855.4647935228
 21
748.2135620735
 31
0.0
  0
LINE
  5
422
330
1F
100
AcDbEntity
  8
0
  6
Continuous
 62
     7
370
    25
100
AcDbLine
 10
855.4647935228
 20
748.2135620735
 30
0.0
 11
855.5025507553
 21
748.7030444177
 31
0.0
  0
LINE
  5
423
330
1F
100
AcDbEntity
  8
0
  6
Continuous
 62
     7
370
    25
100
AcDbLine
 10
855.5025507553
 20
748.7030444177
 30
0.0
 11
855.6270249705
 21
749.2966906749
 31
0.0
  0
LINE
  5
424
330
1F
100
AcDbEntity
  8
0
  6
Continuous
 62
     7
370
    25
100
AcDbLine
 10
855.6270249705
 20
749.2966906749
 30
0.0
 11
855.7725176003
 21
749.7369742975
 31
0.0
  0
LINE
  5
425
330
1F
100
AcDbEntity
  8
0
  6
Continuous
 62
     7
370
    25
100
AcDbLine
 10
855.7725176003
 20
749.7369742975
 30
0.0
 11
855.9555070721
 21
750.1997265194
 31
0.0
  0
LINE
  5
426
330
1F
100
AcDbEntity
  8
0
  6
Continuous
 62
     7
370
    25
100
AcDbLine
 10
855.9555070721
 20
750.1997265194
 30
0.0
 11
856.2395169473
 21
750.7275359976
 31
0.0
  0
LINE
  5
427
330
1F
100
AcDbEntity
  8
0
  6
Continuous
 62
     7
370
    25
100
AcDbLine
 10
856.2395169473
 20
750.7275359976
 30
0.0
 11
856.519673944
 21
751.188892459
 31
0.0
  0
LINE
  5
428
330
1F
100
AcDbEntity
  8
0
  6
Continuous
 62
     7
370
    25
100
AcDbLine
 10
856.519673944
 20
751.188892459
 30
0.0
 11
857.0398451348
 21
751.957698936
 31
0.0
  0
LINE
  5
429
330
1F
100
AcDbEntity
  8
0
  6
Continuous
 62
     7
370
    25
100
AcDbLine
 10
857.0398451348
 20
751.957698936
 30
0.0
 11
857.2375973823
 21
752.2197916276
 31
0.0
  0
LINE
  5
42A
330
1F
100
AcDbEntity
  8
0
  6
Continuous
 62
     7
370
    25
100
AcDbLine
 10
849.5625082678
 20
751.6095930957
 30
0.0
 11
849.5986074765
 21
751.9536725185
 31
0.0
  0
LINE
  5
42B
330
1F
100
AcDbEntity
  8
0
  6
Continuous
 62
     7
370
    25
100
AcDbLine
 10
849.5986074765
 20
751.9536725185
 30
0.0
 11
849.6990536282
 21
752.6023799705
 31
0.0
  0
LINE
  5
42C
330
1F
100
AcDbEntity
  8
0
  6
Continuous
 62
     7
370
    25
100
AcDbLine
 10
864.7774997099
 20
772.3924681128
 30
0.0
 11
865.4658680016
 21
773.5260580749
 31
0.0
  0
LINE
  5
42D
330
1F
100
AcDbEntity
  8
0
  6
Continuous
 62
     7
370
    25
100
AcDbLine
 10
865.4658680016
 20
773.5260580749
 30
0.0
 11
865.9190657994
 21
774.1958787195
 31
0.0
  0
LINE
  5
42E
330
1F
100
AcDbEntity
  8
0
  6
Continuous
 62
     7
370
    25
100
AcDbLine
 10
865.9190657994
 20
774.1958787195
 30
0.0
 11
866.1196252309
 21
774.5261556382
 31
0.0
  0
LINE
  5
42F
330
1F
100
AcDbEntity
  8
0
  6
Continuous
 62
     7
370
    25
100
AcDbLine
 10
858.7794487174
 20
754.9960343313
 30
0.0
 11
858.9037533097
 21
756.1808429169
 31
0.0
  0
LINE
  5
430
330
1F
100
AcDbEntity
  8
0
  6
Continuous
 62
     7
370
    25
100
AcDbLine
 10
858.9037533097
 20
756.1808429169
 30
0.0
 11
859.0339090938
 21
757.2037654279
 31
0.0
  0
LINE
  5
431
330
1F
100
AcDbEntity
  8
0
  6
Continuous
 62
     7
370
    25
100
AcDbLine
 10
850.7657072464
 20
755.348453955
 30
0.0
 11
851.0200586882
 21
755.7243821866
 31
0.0
  0
LINE
  5
432
330
1F
100
AcDbEntity
  8
0
  6
Continuous
 62
     7
370
    25
100
AcDbLine
 10
851.0200586882
 20
755.7243821866
 30
0.0
 11
851.6471924791
 21
756.5555595075
 31
0.0
  0
LINE
  5
433
330
1F
100
AcDbEntity
  8
0
  6
Continuous
 62
     7
370
    25
100
AcDbLine
 10
859.5984282505
 20
760.4799277221
 30
0.0
 11
859.8115901873
 21
761.2982079636
 31
0.0
  0
LINE
  5
434
330
1F
100
AcDbEntity
  8
0
  6
Continuous
 62
     7
370
    25
100
AcDbLine
 10
859.8115901873
 20
761.2982079636
 30
0.0
 11
859.9767258926
 21
762.0857782503
 31
0.0
  0
LINE
  5
435
330
1F
100
AcDbEntity
  8
0
  6
Continuous
 62
     7
370
    25
100
AcDbLine
 10
859.9767258926
 20
762.0857782503
 30
0.0
 11
860.266345859
 21
763.0577232223
 31
0.0
  0
LINE
  5
436
330
1F
100
AcDbEntity
  8
0
  6
Continuous
 62
     7
370
    25
100
AcDbLine
 10
851.4515570479
 20
757.4566885009
 30
0.0
 11
851.1806042898
 21
758.1002620902
 31
0.0
  0
LINE
  5
437
330
1F
100
AcDbEntity
  8
0
  6
Continuous
 62
     7
370
    25
100
AcDbLine
 10
851.1806042898
 20
758.1002620902
 30
0.0
 11
850.8015070262
 21
759.0914905791
 31
0.0
  0
LINE
  5
438
330
1F
100
AcDbEntity
  8
0
  6
Continuous
 62
     7
370
    25
100
AcDbLine
 10
861.002472871
 20
765.2301124053
 30
0.0
 11
861.2614234042
 21
765.8849584653
 31
0.0
  0
LINE
  5
439
330
1F
100
AcDbEntity
  8
0
  6
Continuous
 62
     7
370
    25
100
AcDbLine
 10
861.2614234042
 20
765.8849584653
 30
0.0
 11
861.8742305305
 21
767.1557798008
 31
0.0
  0
LINE
  5
43A
330
1F
100
AcDbEntity
  8
0
  6
Continuous
 62
     7
370
    25
100
AcDbLine
 10
850.0598918634
 20
761.2381877317
 30
0.0
 11
849.9248563053
 21
761.3108492386
 31
0.0
  0
LINE
  5
43B
330
1F
100
AcDbEntity
  8
0
  6
Continuous
 62
     7
370
    25
100
AcDbLine
 10
852.902680788
 20
756.6882777549
 30
0.0
 11
852.6917926858
 21
756.5308637108
 31
0.0
  0
LINE
  5
43C
330
1F
100
AcDbEntity
  8
0
  6
Continuous
 62
     7
370
    25
100
AcDbLine
 10
852.6917926858
 20
756.5308637108
 30
0.0
 11
852.3839017249
 21
756.3190076957
 31
0.0
  0
LINE
  5
43D
330
1F
100
AcDbEntity
  8
0
  6
Continuous
 62
     7
370
    25
100
AcDbLine
 10
852.3839017249
 20
756.3190076957
 30
0.0
 11
852.0103770002
 21
755.9808788141
 31
0.0
  0
LINE
  5
43E
330
1F
100
AcDbEntity
  8
0
  6
Continuous
 62
     7
370
    25
100
AcDbLine
 10
848.6036955671
 20
762.0605487747
 30
0.0
 11
848.0206616743
 21
762.5004552136
 31
0.0
  0
LINE
  5
43F
330
1F
100
AcDbEntity
  8
0
  6
Continuous
 62
     7
370
    25
100
AcDbLine
 10
863.9399182145
 20
770.1972691102
 30
0.0
 11
863.9929347314
 21
770.4501171137
 31
0.0
  0
LINE
  5
440
330
1F
100
AcDbEntity
  8
0
  6
Continuous
 62
     7
370
    25
100
AcDbLine
 10
863.9929347314
 20
770.4501171137
 30
0.0
 11
864.1306226521
 21
770.9786697567
 31
0.0
  0
LINE
  5
441
330
1F
100
AcDbEntity
  8
0
  6
Continuous
 62
     7
370
    25
100
AcDbLine
 10
864.1306226521
 20
770.9786697567
 30
0.0
 11
864.3548431875
 21
771.5456889951
 31
0.0
  0
LINE
  5
442
330
1F
100
AcDbEntity
  8
0
  6
Continuous
 62
     7
370
    25
100
AcDbLine
 10
864.3548431875
 20
771.5456889951
 30
0.0
 11
864.53157425
 21
771.9121886575
 31
0.0
  0
LINE
  5
443
330
1F
100
AcDbEntity
  8
0
  6
Continuous
 62
     7
370
    25
100
AcDbLine
 10
864.53157425
 20
771.9121886575
 30
0.0
 11
864.7774997099
 21
772.3924681128
 31
0.0
  0
LINE
  5
444
330
1F
100
AcDbEntity
  8
0
  6
Continuous
 62
     7
370
    25
100
AcDbLine
 10
850.3228325883
 20
753.5614317615
 30
0.0
 11
850.2052399793
 21
753.1100204544
 31
0.0
  0
LINE
  5
445
330
1F
100
AcDbEntity
  8
0
  6
Continuous
 62
     7
370
    25
100
AcDbLine
 10
850.2052399793
 20
753.1100204544
 30
0.0
 11
850.0862289863
 21
752.542429565
 31
0.0
  0
LINE
  5
446
330
1F
100
AcDbEntity
  8
0
  6
Continuous
 62
     7
370
    25
100
AcDbLine
 10
850.0862289863
 20
752.542429565
 30
0.0
 11
850.0153568569
 21
752.0847188643
 31
0.0
  0
LINE
  5
447
330
1F
100
AcDbEntity
  8
0
  6
Continuous
 62
     7
370
    25
100
AcDbLine
 10
866.1196252309
 20
774.5261556382
 30
0.0
 11
866.1196252309
 21
774.6404099696
 31
0.0
  0
LINE
  5
448
330
1F
100
AcDbEntity
  8
0
  6
Continuous
 62
     7
370
    25
100
AcDbLine
 10
866.1196252309
 20
774.6404099696
 30
0.0
 11
865.9027606675
 21
774.6969031708
 31
0.0
  0
LINE
  5
449
330
1F
100
AcDbEntity
  8
0
  6
Continuous
 62
     7
370
    25
100
AcDbLine
 10
865.9027606675
 20
774.6969031708
 30
0.0
 11
865.5485454835
 21
774.7517500082
 31
0.0
  0
LINE
  5
44A
330
1F
100
AcDbEntity
  8
0
  6
Continuous
 62
     7
370
    25
100
AcDbLine
 10
865.5485454835
 20
774.7517500082
 30
0.0
 11
864.3240006876
 21
774.7517500082
 31
0.0
  0
LINE
  5
44B
330
1F
100
AcDbEntity
  8
0
  6
Continuous
 62
     7
370
    25
100
AcDbLine
 10
864.3240006876
 20
774.7517500082
 30
0.0
 11
863.729791264
 21
774.6699655788
 31
0.0
  0
LINE
  5
44C
330
1F
100
AcDbEntity
  8
0
  6
Continuous
 62
     7
370
    25
100
AcDbLine
 10
863.729791264
 20
774.6699655788
 30
0.0
 11
863.2943094503
 21
774.6009228346
 31
0.0
  0
LINE
  5
44D
330
1F
100
AcDbEntity
  8
0
  6
Continuous
 62
     7
370
    25
100
AcDbLine
 10
863.2943094503
 20
774.6009228346
 30
0.0
 11
862.3745803597
 21
774.3653057779
 31
0.0
  0
LINE
  5
44E
330
1F
100
AcDbEntity
  8
0
  6
Continuous
 62
     7
370
    25
100
AcDbLine
 10
862.3745803597
 20
774.3653057779
 30
0.0
 11
861.8848861718
 21
774.2196419671
 31
0.0
  0
LINE
  5
44F
330
1F
100
AcDbEntity
  8
0
  6
Continuous
 62
     7
370
    25
100
AcDbLine
 10
861.8848861718
 20
774.2196419671
 30
0.0
 11
861.1816460145
 21
773.9506864011
 31
0.0
  0
LINE
  5
450
330
1F
100
AcDbEntity
  8
0
  6
Continuous
 62
     7
370
    25
100
AcDbLine
 10
861.1816460145
 20
773.9506864011
 30
0.0
 11
860.4783388087
 21
773.6408523798
 31
0.0
  0
LINE
  5
451
330
1F
100
AcDbEntity
  8
0
  6
Continuous
 62
     7
370
    25
100
AcDbLine
 10
860.4783388087
 20
773.6408523798
 30
0.0
 11
859.6748719589
 21
773.2499308235
 31
0.0
  0
LINE
  5
452
330
1F
100
AcDbEntity
  8
0
  6
Continuous
 62
     7
370
    25
100
AcDbLine
 10
859.6748719589
 20
773.2499308235
 30
0.0
 11
859.0915612238
 21
772.9274391996
 31
0.0
  0
LINE
  5
453
330
1F
100
AcDbEntity
  8
0
  6
Continuous
 62
     7
370
    25
100
AcDbLine
 10
859.0915612238
 20
772.9274391996
 30
0.0
 11
858.447379162
 21
772.5561393132
 31
0.0
  0
LINE
  5
454
330
1F
100
AcDbEntity
  8
0
  6
Continuous
 62
     7
370
    25
100
AcDbLine
 10
858.447379162
 20
772.5561393132
 30
0.0
 11
857.8105264274
 21
772.1507114501
 31
0.0
  0
LINE
  5
455
330
1F
100
AcDbEntity
  8
0
  6
Continuous
 62
     7
370
    25
100
AcDbLine
 10
857.8105264274
 20
772.1507114501
 30
0.0
 11
857.1513873471
 21
771.6971658878
 31
0.0
  0
LINE
  5
456
330
1F
100
AcDbEntity
  8
0
  6
Continuous
 62
     7
370
    25
100
AcDbLine
 10
849.812725926
 20
748.853197735
 30
0.0
 11
849.7089165611
 21
749.5079673421
 31
0.0
  0
LINE
  5
457
330
1F
100
AcDbEntity
  8
0
  6
Continuous
 62
     7
370
    25
100
AcDbLine
 10
849.7089165611
 20
749.5079673421
 30
0.0
 11
849.6294893479
 21
750.0850502775
 31
0.0
  0
LINE
  5
458
330
1F
100
AcDbEntity
  8
0
  6
Continuous
 62
     7
370
    25
100
AcDbLine
 10
849.6294893479
 20
750.0850502775
 30
0.0
 11
849.5625082678
 21
750.772179183
 31
0.0
  0
LINE
  5
459
330
1F
100
AcDbEntity
  8
0
  6
Continuous
 62
     7
370
    25
100
AcDbLine
 10
849.5625082678
 20
750.772179183
 30
0.0
 11
849.5625082678
 21
751.6095930957
 31
0.0
  0
LINE
  5
45A
330
1F
100
AcDbEntity
  8
0
  6
Continuous
 62
     7
370
    25
100
AcDbLine
 10
850.7339693079
 20
754.4164541736
 30
0.0
 11
850.4585042929
 21
753.9045246299
 31
0.0
  0
LINE
  5
45B
330
1F
100
AcDbEntity
  8
0
  6
Continuous
 62
     7
370
    25
100
AcDbLine
 10
850.4585042929
 20
753.9045246299
 30
0.0
 11
850.3228325883
 21
753.5614317615
 31
0.0
  0
LINE
  5
45C
330
1F
100
AcDbEntity
  8
0
  6
Continuous
 62
     7
370
    25
100
AcDbLine
 10
845.9761698713
 20
764.5816828017
 30
0.0
 11
845.5735917006
 21
765.1210180745
 31
0.0
  0
LINE
  5
45D
330
1F
100
AcDbEntity
  8
0
  6
Continuous
 62
     7
370
    25
100
AcDbLine
 10
845.5735917006
 20
765.1210180745
 30
0.0
 11
844.9996629249
 21
765.9973018389
 31
0.0
  0
LINE
  5
45E
330
1F
100
AcDbEntity
  8
0
  6
Continuous
 62
     7
370
    25
100
AcDbLine
 10
844.9996629249
 20
765.9973018389
 30
0.0
 11
844.5373046135
 21
766.7994645682
 31
0.0
  0
LINE
  5
45F
330
1F
100
AcDbEntity
  8
0
  6
Continuous
 62
     7
370
    25
100
AcDbLine
 10
843.148677655
 20
726.3420094256
 30
0.0
 11
843.2819436488
 21
726.4899633019
 31
0.0
  0
LINE
  5
460
330
1F
100
AcDbEntity
  8
0
  6
Continuous
 62
     7
370
    25
100
AcDbLine
 10
850.548666872
 20
754.9910365772
 30
0.0
 11
850.7657072464
 21
755.348453955
 31
0.0
  0
LINE
  5
461
330
1F
100
AcDbEntity
  8
0
  6
Continuous
 62
     7
370
    25
100
AcDbLine
 10
843.2819436488
 20
726.4899633019
 30
0.0
 11
843.4599483861
 21
726.6167829206
 31
0.0
  0
LINE
  5
462
330
1F
100
AcDbEntity
  8
0
  6
Continuous
 62
     7
370
    25
100
AcDbLine
 10
849.9248563052
 20
750.1836205627
 30
0.0
 11
849.9551902575
 21
749.73294788
 31
0.0
  0
LINE
  5
463
330
1F
100
AcDbEntity
  8
0
  6
Continuous
 62
     7
370
    25
100
AcDbLine
 10
851.6471924791
 20
756.5555595075
 30
0.0
 11
851.7686788814
 21
756.6686208341
 31
0.0
  0
LINE
  5
464
330
1F
100
AcDbEntity
  8
0
  6
Continuous
 62
     7
370
    25
100
AcDbLine
 10
851.7686788814
 20
756.6686208341
 30
0.0
 11
851.7686788814
 21
756.7629133918
 31
0.0
  0
LINE
  5
465
330
1F
100
AcDbEntity
  8
0
  6
Continuous
 62
     7
370
    25
100
AcDbLine
 10
851.7686788814
 20
756.7629133918
 30
0.0
 11
851.6471924791
 21
757.0126061892
 31
0.0
  0
LINE
  5
466
330
1F
100
AcDbEntity
  8
0
  6
Continuous
 62
     7
370
    25
100
AcDbLine
 10
850.7009043479
 20
762.2241316864
 30
0.0
 11
850.9522690245
 21
761.3790911748
 31
0.0
  0
LINE
  5
467
330
1F
100
AcDbEntity
  8
0
  6
Continuous
 62
     7
370
    25
100
AcDbLine
 10
850.9522690245
 20
761.3790911748
 30
0.0
 11
851.2136593043
 21
760.7857487571
 31
0.0
  0
LINE
  5
468
330
1F
100
AcDbEntity
  8
0
  6
Continuous
 62
     7
370
    25
100
AcDbLine
 10
851.2136593043
 20
760.7857487571
 30
0.0
 11
851.7614152196
 21
759.353527213
 31
0.0
  0
LINE
  5
469
330
1F
100
AcDbEntity
  8
0
  6
Continuous
 62
     7
370
    25
100
AcDbLine
 10
851.7614152196
 20
759.353527213
 30
0.0
 11
852.902680788
 21
756.7629133918
 31
0.0
  0
LINE
  5
46A
330
1F
100
AcDbEntity
  8
0
  6
Continuous
 62
     7
370
    25
100
AcDbLine
 10
852.902680788
 20
756.7629133918
 30
0.0
 11
852.902680788
 21
756.6882777549
 31
0.0
  0
LINE
  5
46B
330
1F
100
AcDbEntity
  8
0
  6
Continuous
 62
     7
370
    25
100
AcDbLine
 10
842.3672547035
 20
743.1787885136
 30
0.0
 11
841.5760204317
 21
742.9116125305
 31
0.0
  0
LINE
  5
46C
330
1F
100
AcDbEntity
  8
0
  6
Continuous
 62
     7
370
    25
100
AcDbLine
 10
850.4677379324
 20
746.6022714493
 30
0.0
 11
850.1430020998
 21
747.5639676205
 31
0.0
  0
LINE
  5
46D
330
1F
100
AcDbEntity
  8
0
  6
Continuous
 62
     7
370
    25
100
AcDbLine
 10
850.1430020998
 20
747.5639676205
 30
0.0
 11
849.812725926
 21
748.853197735
 31
0.0
  0
LINE
  5
46E
330
1F
100
AcDbEntity
  8
0
  6
Continuous
 62
     7
370
    25
100
AcDbLine
 10
852.0103770002
 20
755.9808788141
 30
0.0
 11
851.562237151
 21
755.5638174403
 31
0.0
  0
LINE
  5
46F
330
1F
100
AcDbEntity
  8
0
  6
Continuous
 62
     7
370
    25
100
AcDbLine
 10
849.9551902575
 20
749.73294788
 30
0.0
 11
850.0213153059
 21
749.0546006204
 31
0.0
  0
LINE
  5
470
330
1F
100
AcDbEntity
  8
0
  6
Continuous
 62
     7
370
    25
100
AcDbLine
 10
848.0206616743
 20
762.5004552136
 30
0.0
 11
847.436911827
 21
762.9908979772
 31
0.0
  0
LINE
  5
471
330
1F
100
AcDbEntity
  8
0
  6
Continuous
 62
     7
370
    25
100
AcDbLine
 10
847.436911827
 20
762.9908979772
 30
0.0
 11
847.0003660666
 21
763.4097518734
 31
0.0
  0
LINE
  5
472
330
1F
100
AcDbEntity
  8
0
  6
Continuous
 62
     7
370
    25
100
AcDbLine
 10
847.0003660666
 20
763.4097518734
 30
0.0
 11
846.5116515041
 21
763.949625816
 31
0.0
  0
LINE
  5
473
330
1F
100
AcDbEntity
  8
0
  6
Continuous
 62
     7
370
    25
100
AcDbLine
 10
846.5116515041
 20
763.949625816
 30
0.0
 11
845.9761698713
 21
764.5816828017
 31
0.0
  0
LINE
  5
474
330
1F
100
AcDbEntity
  8
0
  6
Continuous
 62
     7
370
    25
100
AcDbLine
 10
844.4694597835
 20
726.0801370723
 30
0.0
 11
843.9844074929
 21
725.9597678392
 31
0.0
  0
LINE
  5
475
330
1F
100
AcDbEntity
  8
0
  6
Continuous
 62
     7
370
    25
100
AcDbLine
 10
841.9246834213
 20
756.2193045236
 30
0.0
 11
842.3034489573
 21
755.696783862
 31
0.0
  0
LINE
  5
476
330
1F
100
AcDbEntity
  8
0
  6
Continuous
 62
     7
370
    25
100
AcDbLine
 10
842.3034489573
 20
755.696783862
 30
0.0
 11
842.739135053
 21
755.1425724096
 31
0.0
  0
LINE
  5
477
330
1F
100
AcDbEntity
  8
0
  6
Continuous
 62
     7
370
    25
100
AcDbLine
 10
850.0153568569
 20
752.0847188643
 30
0.0
 11
849.9611212527
 21
751.5677724799
 31
0.0
  0
LINE
  5
478
330
1F
100
AcDbEntity
  8
0
  6
Continuous
 62
     7
370
    25
100
AcDbLine
 10
849.9611212527
 20
751.5677724799
 30
0.0
 11
849.9248563052
 21
751.0976360227
 31
0.0
  0
LINE
  5
479
330
1F
100
AcDbEntity
  8
0
  6
Continuous
 62
     7
370
    25
100
AcDbLine
 10
849.9248563052
 20
751.0976360227
 30
0.0
 11
849.9248563052
 21
750.1836205627
 31
0.0
  0
LINE
  5
47A
330
1F
100
AcDbEntity
  8
0
  6
Continuous
 62
     7
370
    25
100
AcDbLine
 10
843.2990812568
 20
770.1672637383
 30
0.0
 11
843.2444005466
 21
770.227668508
 31
0.0
  0
LINE
  5
47B
330
1F
100
AcDbEntity
  8
0
  6
Continuous
 62
     7
370
    25
100
AcDbLine
 10
843.2444005466
 20
770.227668508
 30
0.0
 11
843.077864004
 21
770.227668508
 31
0.0
  0
LINE
  5
47C
330
1F
100
AcDbEntity
  8
0
  6
Continuous
 62
     7
370
    25
100
AcDbLine
 10
850.0213153059
 20
749.0546006204
 30
0.0
 11
850.1430020999
 21
748.2870705003
 31
0.0
  0
LINE
  5
47D
330
1F
100
AcDbEntity
  8
0
  6
Continuous
 62
     7
370
    25
100
AcDbLine
 10
850.1430020999
 20
748.2870705003
 30
0.0
 11
850.3305711738
 21
747.4420945293
 31
0.0
  0
LINE
  5
47E
330
1F
100
AcDbEntity
  8
0
  6
Continuous
 62
     7
370
    25
100
AcDbLine
 10
845.5024925575
 20
752.4623646082
 30
0.0
 11
845.8416027485
 21
752.2065016842
 31
0.0
  0
LINE
  5
47F
330
1F
100
AcDbEntity
  8
0
  6
Continuous
 62
     7
370
    25
100
AcDbLine
 10
844.554395481
 20
726.1827411199
 30
0.0
 11
844.4694597835
 21
726.0801370723
 31
0.0
  0
LINE
  5
480
330
1F
100
AcDbEntity
  8
0
  6
Continuous
 62
     7
370
    25
100
AcDbLine
 10
845.1844835103
 20
744.349816983
 30
0.0
 11
844.2371420071
 21
743.8888941523
 31
0.0
  0
LINE
  5
481
330
1F
100
AcDbEntity
  8
0
  6
Continuous
 62
     7
370
    25
100
AcDbLine
 10
851.0144297589
 20
745.4707763771
 30
0.0
 11
850.9373185341
 21
745.4177170838
 31
0.0
  0
LINE
  5
482
330
1F
100
AcDbEntity
  8
0
  6
Continuous
 62
     7
370
    25
100
AcDbLine
 10
850.9373185341
 20
745.4177170838
 30
0.0
 11
850.7065912955
 21
745.9414559835
 31
0.0
  0
LINE
  5
483
330
1F
100
AcDbEntity
  8
0
  6
Continuous
 62
     7
370
    25
100
AcDbLine
 10
850.7065912955
 20
745.9414559835
 30
0.0
 11
850.4677379324
 21
746.6022714493
 31
0.0
  0
LINE
  5
484
330
1F
100
AcDbEntity
  8
0
  6
Continuous
 62
     7
370
    25
100
AcDbLine
 10
844.0239081491
 20
767.8905442991
 30
0.0
 11
843.7550694341
 21
768.6343177101
 31
0.0
  0
LINE
  5
485
330
1F
100
AcDbEntity
  8
0
  6
Continuous
 62
     7
370
    25
100
AcDbLine
 10
843.7550694341
 20
768.6343177101
 30
0.0
 11
843.2990812568
 21
770.1672637383
 31
0.0
  0
LINE
  5
486
330
1F
100
AcDbEntity
  8
0
  6
Continuous
 62
     7
370
    25
100
AcDbLine
 10
839.7823889887
 20
760.3616024962
 30
0.0
 11
839.9709055908
 21
759.8400495041
 31
0.0
  0
LINE
  5
487
330
1F
100
AcDbEntity
  8
0
  6
Continuous
 62
     7
370
    25
100
AcDbLine
 10
844.526429729
 20
753.2845404507
 30
0.0
 11
844.8064692387
 21
753.0389342132
 31
0.0
  0
LINE
  5
488
330
1F
100
AcDbEntity
  8
0
  6
Continuous
 62
     7
370
    25
100
AcDbLine
 10
843.077864004
 20
770.227668508
 30
0.0
 11
842.88454124
 21
770.1162392638
 31
0.0
  0
LINE
  5
489
330
1F
100
AcDbEntity
  8
0
  6
Continuous
 62
     7
370
    25
100
AcDbLine
 10
845.092639749
 20
752.8067061869
 30
0.0
 11
845.5024925575
 21
752.4623646082
 31
0.0
  0
LINE
  5
48A
330
1F
100
AcDbEntity
  8
0
  6
Continuous
 62
     7
370
    25
100
AcDbLine
 10
851.6471924791
 20
757.0126061892
 30
0.0
 11
851.4515570479
 21
757.4566885009
 31
0.0
  0
LINE
  5
48B
330
1F
100
AcDbEntity
  8
0
  6
Continuous
 62
     7
370
    25
100
AcDbLine
 10
844.554395481
 20
726.3574482203
 30
0.0
 11
844.554395481
 21
726.1827411199
 31
0.0
  0
LINE
  5
48C
330
1F
100
AcDbEntity
  8
0
  6
Continuous
 62
     7
370
    25
100
AcDbLine
 10
844.1606320459
 20
753.6271680122
 30
0.0
 11
844.526429729
 21
753.2845404507
 31
0.0
  0
LINE
  5
48D
330
1F
100
AcDbEntity
  8
0
  6
Continuous
 62
     7
370
    25
100
AcDbLine
 10
850.8015070262
 20
759.0914905791
 30
0.0
 11
850.2193907902
 21
760.7019824999
 31
0.0
  0
LINE
  5
48E
330
1F
100
AcDbEntity
  8
0
  6
Continuous
 62
     7
370
    25
100
AcDbLine
 10
850.2193907902
 20
760.7019824999
 30
0.0
 11
850.0598918634
 21
761.2381877317
 31
0.0
  0
LINE
  5
48F
330
1F
100
AcDbEntity
  8
0
  6
Continuous
 62
     7
370
    25
100
AcDbLine
 10
844.5373046135
 20
766.7994645682
 30
0.0
 11
844.0239081491
 21
767.8905442991
 31
0.0
  0
LINE
  5
490
330
1F
100
AcDbEntity
  8
0
  6
Continuous
 62
     7
370
    25
100
AcDbLine
 10
843.0875467935
 20
754.7313238046
 30
0.0
 11
843.3843569842
 21
754.4034430739
 31
0.0
  0
LINE
  5
491
330
1F
100
AcDbEntity
  8
0
  6
Continuous
 62
     7
370
    25
100
AcDbLine
 10
843.3843569842
 20
754.4034430739
 30
0.0
 11
844.1606320459
 21
753.6271680122
 31
0.0
  0
LINE
  5
492
330
1F
100
AcDbEntity
  8
0
  6
Continuous
 62
     7
370
    25
100
AcDbLine
 10
842.4677736669
 20
768.4913583357
 30
0.0
 11
842.3853733602
 21
768.6343177101
 31
0.0
  0
LINE
  5
493
330
1F
100
AcDbEntity
  8
0
  6
Continuous
 62
     7
370
    25
100
AcDbLine
 10
844.2371420071
 20
743.8888941523
 30
0.0
 11
843.4069840175
 21
743.5546012121
 31
0.0
  0
LINE
  5
494
330
1F
100
AcDbEntity
  8
0
  6
Continuous
 62
     7
370
    25
100
AcDbLine
 10
844.8064692387
 20
753.0389342132
 30
0.0
 11
845.092639749
 21
752.8067061869
 31
0.0
  0
LINE
  5
495
330
1F
100
AcDbEntity
  8
0
  6
Continuous
 62
     7
370
    25
100
AcDbLine
 10
842.739135053
 20
755.1425724096
 30
0.0
 11
843.0875467935
 21
754.7313238046
 31
0.0
  0
LINE
  5
496
330
1F
100
AcDbEntity
  8
0
  6
Continuous
 62
     7
370
    25
100
AcDbLine
 10
844.4982659412
 20
726.4899633019
 30
0.0
 11
844.554395481
 21
726.3574482203
 31
0.0
  0
LINE
  5
497
330
1F
100
AcDbEntity
  8
0
  6
Continuous
 62
     7
370
    25
100
AcDbLine
 10
843.4069840175
 20
743.5546012121
 30
0.0
 11
842.3672547035
 21
743.1787885136
 31
0.0
  0
LINE
  5
498
330
1F
100
AcDbEntity
  8
0
  6
Continuous
 62
     7
370
    25
100
AcDbLine
 10
843.9844074929
 20
725.9597678392
 30
0.0
 11
843.5320243861
 21
725.9009102351
 31
0.0
  0
LINE
  5
499
330
1F
100
AcDbEntity
  8
0
  6
Continuous
 62
     7
370
    25
100
AcDbLine
 10
117.4241873466
 20
376.2386689012
 30
0.0
 11
117.4241873466
 21
638.2386689012
 31
0.0
  0
ARC
  5
49A
330
1F
100
AcDbEntity
  8
0
  6
Continuous
 62
     7
370
    25
100
AcDbCircle
 10
147.4241873466
 20
376.2386689012
 30
0.0
 40
30.00000000000003
100
AcDbArc
 50
180.0
 51
270.0
  0
LINE
  5
49B
330
1F
100
AcDbEntity
  8
0
  6
Continuous
 62
     7
370
    25
100
AcDbLine
 10
249.4241873466
 20
346.2386689012
 30
0.0
 11
147.4241873466
 21
346.2386689012
 31
0.0
  0
ARC
  5
49C
330
1F
100
AcDbEntity
  8
0
  6
Continuous
 62
     7
370
    25
100
AcDbCircle
 10
249.4241873466
 20
376.2386689012
 30
0.0
 40
29.99999999999997
100
AcDbArc
 50
270.0
 51
0.0
  0
LINE
  5
49D
330
1F
100
AcDbEntity
  8
0
  6
Continuous
 62
     7
370
    25
100
AcDbLine
 10
279.4241873466
 20
376.2386689012
 30
0.0
 11
279.4241873466
 21
638.2386689012
 31
0.0
  0
ARC
  5
49E
330
1F
100
AcDbEntity
  8
0
  6
Continuous
 62
     7
370
    25
100
AcDbCircle
 10
249.4241873466
 20
638.2386689012
 30
0.0
 40
30.0
100
AcDbArc
 50
0.0
 51
90.0
  0
LINE
  5
49F
330
1F
100
AcDbEntity
  8
0
  6
Continuous
 62
     7
370
    25
100
AcDbLine
 10
249.4241873466
 20
668.2386689012
 30
0.0
 11
147.4241873466
 21
668.2386689012
 31
0.0
  0
ARC
  5
4A0
330
1F
100
AcDbEntity
  8
0
  6
Continuous
 62
     7
370
    25
100
AcDbCircle
 10
147.4241873466
 20
638.2386689012
 30
0.0
 40
30.00000000000003
100
AcDbArc
 50
90.0
 51
180.0
  0
ARC
  5
4A1
330
1F
100
AcDbEntity
  8
0
  6
Continuous
 62
     7
370
    25
100
AcDbCircle
 10
837.4591873466
 20
273.5061689012
 30
0.0
 40
4.454999999999984
100
AcDbArc
 50
90.0
 51
180.0
  0
ARC
  5
4A2
330
1F
100
AcDbEntity
  8
0
  6
Continuous
 62
     7
370
    25
100
AcDbCircle
 10
837.4591873466
 20
235.9461689012
 30
0.0
 40
4.454999999999984
100
AcDbArc
 50
180.0
 51
270.0
  0
LINE
  5
4A3
330
1F
100
AcDbEntity
  8
0
  6
Continuous
 62
     7
370
    25
100
AcDbLine
 10
837.4591873466
 20
231.4911689012
 30
0.0
 11
872.0191873466
 21
231.4911689012
 31
0.0
  0
ARC
  5
4A4
330
1F
100
AcDbEntity
  8
0
  6
Continuous
 62
     7
370
    25
100
AcDbCircle
 10
872.0191873466
 20
235.9461689012
 30
0.0
 40
4.455000000000041
100
AcDbArc
 50
270.0
 51
0.0
  0
LINE
  5
4A5
330
1F
100
AcDbEntity
  8
0
  6
Continuous
 62
     7
370
    25
100
AcDbLine
 10
876.4741873466
 20
273.5061689012
 30
0.0
 11
876.4741873466
 21
235.9461689012
 31
0.0
  0
ARC
  5
4A6
330
1F
100
AcDbEntity
  8
0
  6
Continuous
 62
     7
370
    25
100
AcDbCircle
 10
872.0191873466
 20
273.5061689012
 30
0.0
 40
4.455000000000041
100
AcDbArc
 50
0.0
 51
90.0
  0
LINE
  5
4A7
330
1F
100
AcDbEntity
  8
0
  6
Continuous
 62
     7
370
    25
100
AcDbLine
 10
837.4591873466
 20
277.9611689012
 30
0.0
 11
872.0191873466
 21
277.9611689012
 31
0.0
  0
ARC
  5
4A8
330
1F
100
AcDbEntity
  8
0
  6
Continuous
 62
     7
370
    25
100
AcDbCircle
 10
882.0091873466
 20
273.5061689012
 30
0.0
 40
4.454999999999927
100
AcDbArc
 50
90.0
 51
180.0
  0
LINE
  5
4A9
330
1F
100
AcDbEntity
  8
0
  6
Continuous
 62
     7
370
    25
100
AcDbLine
 10
877.5541873466
 20
273.5061689012
 30
0.0
 11
877.5541873466
 21
235.9461689012
 31
0.0
  0
ARC
  5
4AA
330
1F
100
AcDbEntity
  8
0
  6
Continuous
 62
     7
370
    25
100
AcDbCircle
 10
882.0091873466
 20
235.9461689012
 30
0.0
 40
4.454999999999927
100
AcDbArc
 50
180.0
 51
270.0
  0
LINE
  5
4AB
330
1F
100
AcDbEntity
  8
0
  6
Continuous
 62
     7
370
    25
100
AcDbLine
 10
882.0091873466
 20
231.4911689012
 30
0.0
 11
897.9691873466
 21
231.4911689012
 31
0.0
  0
ARC
  5
4AC
330
1F
100
AcDbEntity
  8
0
  6
Continuous
 62
     7
370
    25
100
AcDbCircle
 10
897.9691873466
 20
235.9461689012
 30
0.0
 40
4.454999999999927
100
AcDbArc
 50
270.0
 51
0.0
  0
LINE
  5
4AD
330
1F
100
AcDbEntity
  8
0
  6
Continuous
 62
     7
370
    25
100
AcDbLine
 10
902.4241873466
 20
273.5061689012
 30
0.0
 11
902.4241873466
 21
235.9461689012
 31
0.0
  0
ARC
  5
4AE
330
1F
100
AcDbEntity
  8
0
  6
Continuous
 62
     7
370
    25
100
AcDbCircle
 10
897.9691873466
 20
273.5061689012
 30
0.0
 40
4.454999999999927
100
AcDbArc
 50
0.0
 51
90.0
  0
LINE
  5
4AF
330
1F
100
AcDbEntity
  8
0
  6
Continuous
 62
     7
370
    25
100
AcDbLine
 10
882.0091873466
 20
277.9611689012
 30
0.0
 11
897.9691873466
 21
277.9611689012
 31
0.0
  0
LINE
  5
4B0
330
1F
100
AcDbEntity
  8
0
  6
Continuous
 62
     7
370
    25
100
AcDbLine
 10
926.9241873466
 20
832.2386689012
 30
0.0
 11
84.9241873466
 21
832.2386689012
 31
0.0
  0
LINE
  5
4B1
330
1F
100
AcDbEntity
  8
0
  6
Continuous
 62
     7
370
    25
100
AcDbLine
 10
926.9241873466
 20
182.2386689012
 30
0.0
 11
926.9241873466
 21
832.2386689012
 31
0.0
  0
LINE
  5
4B2
330
1F
100
AcDbEntity
  8
0
  6
Continuous
 62
     7
370
    25
100
AcDbLine
 10
84.9241873466
 20
182.2386689012
 30
0.0
 11
926.9241873466
 21
182.2386689012
 31
0.0
  0
LINE
  5
4B3
330
1F
100
AcDbEntity
  8
0
  6
Continuous
 62
     7
370
    25
100
AcDbLine
 10
84.9241873466
 20
832.2386689012
 30
0.0
 11
84.9241873466
 21
182.2386689012
 31
0.0
  0
LINE
  5
4B4
330
1F
100
AcDbEntity
  8
0
  6
Continuous
 62
     7
370
    25
100
AcDbLine
 10
117.4241873466
 20
244.7386689012
 30
0.0
 11
117.4241873466
 21
286.7386689012
 31
0.0
  0
ARC
  5
4B5
330
1F
100
AcDbEntity
  8
0
  6
Continuous
 62
     7
370
    25
100
AcDbCircle
 10
147.4241873466
 20
244.7386689012
 30
0.0
 40
30.00000000000003
100
AcDbArc
 50
180.0
 51
270.0
  0
LINE
  5
4B6
330
1F
100
AcDbEntity
  8
0
  6
Continuous
 62
     7
370
    25
100
AcDbLine
 10
147.4241873466
 20
214.7386689012
 30
0.0
 11
749.4241873466
 21
214.7386689012
 31
0.0
  0
ARC
  5
4B7
330
1F
100
AcDbEntity
  8
0
  6
Continuous
 62
     7
370
    25
100
AcDbCircle
 10
749.4241873466
 20
244.7386689012
 30
0.0
 40
30.00000000000011
100
AcDbArc
 50
270.0
 51
0.0
  0
LINE
  5
4B8
330
1F
100
AcDbEntity
  8
0
  6
Continuous
 62
     7
370
    25
100
AcDbLine
 10
779.4241873466
 20
244.7386689012
 30
0.0
 11
779.4241873466
 21
286.7386689012
 31
0.0
  0
ARC
  5
4B9
330
1F
100
AcDbEntity
  8
0
  6
Continuous
 62
     7
370
    25
100
AcDbCircle
 10
749.4241873466
 20
286.7386689012
 30
0.0
 40
30.00000000000011
100
AcDbArc
 50
0.0
 51
90.0
  0
LINE
  5
4BA
330
1F
100
AcDbEntity
  8
0
  6
Continuous
 62
     7
370
    25
100
AcDbLine
 10
147.4241873466
 20
316.7386689012
 30
0.0
 11
749.4241873466
 21
316.7386689012
 31
0.0
  0
ARC
  5
4BB
330
1F
100
AcDbEntity
  8
0
  6
Continuous
 62
     7
370
    25
100
AcDbCircle
 10
147.4241873466
 20
286.7386689012
 30
0.0
 40
30.00000000000006
100
AcDbArc
 50
90.0
 51
180.0
  0
LINE
  5
4BC
330
1F
100
AcDbEntity
  8
0
  6
Continuous
 62
     7
370
    25
100
AcDbLine
 10
902.4241873466
 20
291.4586689012
 30
0.0
 11
902.4241873466
 21
283.5986689012
 31
0.0
  0
ARC
  5
4BD
330
1F
100
AcDbEntity
  8
0
  6
Continuous
 62
     7
370
    25
100
AcDbCircle
 10
897.9691873466
 20
291.4586689012
 30
0.0
 40
4.455000000000041
100
AcDbArc
 50
0.0
 51
90.0
  0
LINE
  5
4BE
330
1F
100
AcDbEntity
  8
0
  6
Continuous
 62
     7
370
    25
100
AcDbLine
 10
811.5091873466
 20
295.9136689012
 30
0.0
 11
897.9691873466
 21
295.9136689012
 31
0.0
  0
ARC
  5
4BF
330
1F
100
AcDbEntity
  8
0
  6
Continuous
 62
     7
370
    25
100
AcDbCircle
 10
811.5091873466
 20
291.4586689012
 30
0.0
 40
4.455000000000041
100
AcDbArc
 50
90.0
 51
180.0
  0
LINE
  5
4C0
330
1F
100
AcDbEntity
  8
0
  6
Continuous
 62
     7
370
    25
100
AcDbLine
 10
807.0541873466
 20
291.4586689012
 30
0.0
 11
807.0541873466
 21
283.5986689012
 31
0.0
  0
ARC
  5
4C1
330
1F
100
AcDbEntity
  8
0
  6
Continuous
 62
     7
370
    25
100
AcDbCircle
 10
811.5091873466
 20
283.5986689012
 30
0.0
 40
4.455000000000041
100
AcDbArc
 50
180.0
 51
270.0
  0
LINE
  5
4C2
330
1F
100
AcDbEntity
  8
0
  6
Continuous
 62
     7
370
    25
100
AcDbLine
 10
811.5091873466
 20
279.1436689012
 30
0.0
 11
897.9691873466
 21
279.1436689012
 31
0.0
  0
ARC
  5
4C3
330
1F
100
AcDbEntity
  8
0
  6
Continuous
 62
     7
370
    25
100
AcDbCircle
 10
897.9691873466
 20
283.5986689012
 30
0.0
 40
4.455000000000041
100
AcDbArc
 50
270.0
 51
0.0
  0
LINE
  5
4C4
330
1F
100
AcDbEntity
  8
0
  6
Continuous
 62
     7
370
    25
100
AcDbLine
 10
811.5091873466
 20
231.4911689012
 30
0.0
 11
827.4691873466
 21
231.4911689012
 31
0.0
  0
ARC
  5
4C5
330
1F
100
AcDbEntity
  8
0
  6
Continuous
 62
     7
370
    25
100
AcDbCircle
 10
827.4691873466
 20
235.9461689012
 30
0.0
 40
4.455000000000041
100
AcDbArc
 50
270.0
 51
0.0
  0
LINE
  5
4C6
330
1F
100
AcDbEntity
  8
0
  6
Continuous
 62
     7
370
    25
100
AcDbLine
 10
831.9241873466
 20
273.5061689012
 30
0.0
 11
831.9241873466
 21
235.9461689012
 31
0.0
  0
ARC
  5
4C7
330
1F
100
AcDbEntity
  8
0
  6
Continuous
 62
     7
370
    25
100
AcDbCircle
 10
827.4691873466
 20
273.5061689012
 30
0.0
 40
4.454999999999984
100
AcDbArc
 50
0.0
 51
90.0
  0
LINE
  5
4C8
330
1F
100
AcDbEntity
  8
0
  6
Continuous
 62
     7
370
    25
100
AcDbLine
 10
811.5091873466
 20
277.9611689012
 30
0.0
 11
827.4691873466
 21
277.9611689012
 31
0.0
  0
ARC
  5
4C9
330
1F
100
AcDbEntity
  8
0
  6
Continuous
 62
     7
370
    25
100
AcDbCircle
 10
811.5091873466
 20
273.5061689012
 30
0.0
 40
4.455000000000041
100
AcDbArc
 50
90.0
 51
180.0
  0
LINE
  5
4CA
330
1F
100
AcDbEntity
  8
0
  6
Continuous
 62
     7
370
    25
100
AcDbLine
 10
807.0541873466
 20
273.5061689012
 30
0.0
 11
807.0541873466
 21
235.9461689012
 31
0.0
  0
ARC
  5
4CB
330
1F
100
AcDbEntity
  8
0
  6
Continuous
 62
     7
370
    25
100
AcDbCircle
 10
811.5091873466
 20
235.9461689012
 30
0.0
 40
4.455000000000041
100
AcDbArc
 50
180.0
 51
270.0
  0
LINE
  5
4CC
330
1F
100
AcDbEntity
  8
0
  6
Continuous
 62
     7
370
    25
100
AcDbLine
 10
811.5091873466
 20
213.6386689012
 30
0.0
 11
897.9691873466
 21
213.6386689012
 31
0.0
  0
ARC
  5
4CD
330
1F
100
AcDbEntity
  8
0
  6
Continuous
 62
     7
370
    25
100
AcDbCircle
 10
897.9691873466
 20
218.0936689012
 30
0.0
 40
4.454999999999984
100
AcDbArc
 50
270.0
 51
0.0
  0
LINE
  5
4CE
330
1F
100
AcDbEntity
  8
0
  6
Continuous
 62
     7
370
    25
100
AcDbLine
 10
902.4241873466
 20
225.9536689012
 30
0.0
 11
902.4241873466
 21
218.0936689012
 31
0.0
  0
ARC
  5
4CF
330
1F
100
AcDbEntity
  8
0
  6
Continuous
 62
     7
370
    25
100
AcDbCircle
 10
897.9691873466
 20
225.9536689012
 30
0.0
 40
4.454999999999984
100
AcDbArc
 50
0.0
 51
90.0
  0
LINE
  5
4D0
330
1F
100
AcDbEntity
  8
0
  6
Continuous
 62
     7
370
    25
100
AcDbLine
 10
811.5091873466
 20
230.4086689012
 30
0.0
 11
897.9691873466
 21
230.4086689012
 31
0.0
  0
ARC
  5
4D1
330
1F
100
AcDbEntity
  8
0
  6
Continuous
 62
     7
370
    25
100
AcDbCircle
 10
811.5091873466
 20
225.9536689012
 30
0.0
 40
4.454999999999984
100
AcDbArc
 50
90.0
 51
180.0
  0
LINE
  5
4D2
330
1F
100
AcDbEntity
  8
0
  6
Continuous
 62
     7
370
    25
100
AcDbLine
 10
807.0541873466
 20
225.9536689012
 30
0.0
 11
807.0541873466
 21
218.0936689012
 31
0.0
  0
ARC
  5
4D3
330
1F
100
AcDbEntity
  8
0
  6
Continuous
 62
     7
370
    25
100
AcDbCircle
 10
811.5091873466
 20
218.0936689012
 30
0.0
 40
4.454999999999984
100
AcDbArc
 50
180.0
 51
270.0
  0
LINE
  5
4D4
330
1F
100
AcDbEntity
  8
0
  6
Continuous
 62
     7
370
    25
100
AcDbLine
 10
287.4241873466
 20
376.2386689012
 30
0.0
 11
287.4241873466
 21
638.2386689012
 31
0.0
  0
ARC
  5
4D5
330
1F
100
AcDbEntity
  8
0
  6
Continuous
 62
     7
370
    25
100
AcDbCircle
 10
317.4241873466
 20
376.2386689012
 30
0.0
 40
30.0
100
AcDbArc
 50
180.0
 51
270.0
  0
LINE
  5
4D6
330
1F
100
AcDbEntity
  8
0
  6
Continuous
 62
     7
370
    25
100
AcDbLine
 10
317.4241873466
 20
346.2386689012
 30
0.0
 11
579.4241873466
 21
346.2386689012
 31
0.0
  0
ARC
  5
4D7
330
1F
100
AcDbEntity
  8
0
  6
Continuous
 62
     7
370
    25
100
AcDbCircle
 10
579.4241873466
 20
376.2386689012
 30
0.0
 40
30.0
100
AcDbArc
 50
270.0
 51
0.0
  0
LINE
  5
4D8
330
1F
100
AcDbEntity
  8
0
  6
Continuous
 62
     7
370
    25
100
AcDbLine
 10
609.4241873466
 20
376.2386689012
 30
0.0
 11
609.4241873466
 21
638.2386689012
 31
0.0
  0
ARC
  5
4D9
330
1F
100
AcDbEntity
  8
0
  6
Continuous
 62
     7
370
    25
100
AcDbCircle
 10
579.4241873466
 20
638.2386689012
 30
0.0
 40
30.0
100
AcDbArc
 50
0.0
 51
90.0
  0
LINE
  5
4DA
330
1F
100
AcDbEntity
  8
0
  6
Continuous
 62
     7
370
    25
100
AcDbLine
 10
317.4241873466
 20
668.2386689012
 30
0.0
 11
579.4241873466
 21
668.2386689012
 31
0.0
  0
LINE
  5
4DB
330
1F
100
AcDbEntity
  8
0
  6
Continuous
 62
     7
370
    25
100
AcDbLine
 10
617.4241873466
 20
376.2386689012
 30
0.0
 11
617.4241873466
 21
638.2386689012
 31
0.0
  0
ARC
  5
4DC
330
1F
100
AcDbEntity
  8
0
  6
Continuous
 62
     7
370
    25
100
AcDbCircle
 10
647.4241873466
 20
376.2386689012
 30
0.0
 40
30.0
100
AcDbArc
 50
180.0
 51
270.0
  0
LINE
  5
4DD
330
1F
100
AcDbEntity
  8
0
  6
Continuous
 62
     7
370
    25
100
AcDbLine
 10
647.4241873466
 20
346.2386689012
 30
0.0
 11
749.4241873466
 21
346.2386689012
 31
0.0
  0
ARC
  5
4DE
330
1F
100
AcDbEntity
  8
0
  6
Continuous
 62
     7
370
    25
100
AcDbCircle
 10
749.4241873466
 20
376.2386689012
 30
0.0
 40
30.00000000000011
100
AcDbArc
 50
270.0
 51
0.0
  0
LINE
  5
4DF
330
1F
100
AcDbEntity
  8
0
  6
Continuous
 62
     7
370
    25
100
AcDbLine
 10
779.4241873466
 20
376.2386689012
 30
0.0
 11
779.4241873466
 21
638.2386689012
 31
0.0
  0
ARC
  5
4E0
330
1F
100
AcDbEntity
  8
0
  6
Continuous
 62
     7
370
    25
100
AcDbCircle
 10
749.4241873466
 20
638.2386689012
 30
0.0
 40
30.00000000000011
100
AcDbArc
 50
0.0
 51
90.0
  0
LINE
  5
4E1
330
1F
100
AcDbEntity
  8
0
  6
Continuous
 62
     7
370
    25
100
AcDbLine
 10
647.4241873466
 20
668.2386689012
 30
0.0
 11
749.4241873466
 21
668.2386689012
 31
0.0
  0
ARC
  5
4E2
330
1F
100
AcDbEntity
  8
0
  6
Continuous
 62
     7
370
    25
100
AcDbCircle
 10
647.4241873466
 20
638.2386689012
 30
0.0
 40
30.0
100
AcDbArc
 50
90.0
 51
180.0
  0
LINE
  5
4E3
330
1F
100
AcDbEntity
  8
0
  6
Continuous
 62
     7
370
    25
100
AcDbLine
 10
117.4241873466
 20
727.7386689012
 30
0.0
 11
117.4241873466
 21
769.7386689012
 31
0.0
  0
ARC
  5
4E4
330
1F
100
AcDbEntity
  8
0
  6
Continuous
 62
     7
370
    25
100
AcDbCircle
 10
147.4241873466
 20
727.7386689012
 30
0.0
 40
30.0
100
AcDbArc
 50
180.0
 51
270.0
  0
LINE
  5
4E5
330
1F
100
AcDbEntity
  8
0
  6
Continuous
 62
     7
370
    25
100
AcDbLine
 10
147.4241873466
 20
697.7386689012
 30
0.0
 11
749.4241873466
 21
697.7386689012
 31
0.0
  0
ARC
  5
4E6
330
1F
100
AcDbEntity
  8
0
  6
Continuous
 62
     7
370
    25
100
AcDbCircle
 10
749.4241873466
 20
727.7386689012
 30
0.0
 40
30.00000000000011
100
AcDbArc
 50
270.0
 51
0.0
  0
LINE
  5
4E7
330
1F
100
AcDbEntity
  8
0
  6
Continuous
 62
     7
370
    25
100
AcDbLine
 10
779.4241873466
 20
727.7386689012
 30
0.0
 11
779.4241873466
 21
769.7386689012
 31
0.0
  0
ARC
  5
4E8
330
1F
100
AcDbEntity
  8
0
  6
Continuous
 62
     7
370
    25
100
AcDbCircle
 10
749.4241873466
 20
769.7386689012
 30
0.0
 40
30.00000000000011
100
AcDbArc
 50
0.0
 51
90.0
  0
LINE
  5
4E9
330
1F
100
AcDbEntity
  8
0
  6
Continuous
 62
     7
370
    25
100
AcDbLine
 10
147.4241873466
 20
799.7386689012
 30
0.0
 11
749.4241873466
 21
799.7386689012
 31
0.0
  0
ARC
  5
4EA
330
1F
100
AcDbEntity
  8
0
  6
Continuous
 62
     7
370
    25
100
AcDbCircle
 10
147.4241873466
 20
769.7386689012
 30
0.0
 40
30.00000000000011
100
AcDbArc
 50
90.0
 51
180.0
  0
ARC
  5
4EB
330
1F
100
AcDbEntity
  8
0
  6
Continuous
 62
     7
370
    25
100
AcDbCircle
 10
866.4241873466
 20
775.2386689012
 30
0.0
 40
3.5
100
AcDbArc
 50
0.0
 51
90.0
  0
LINE
  5
4EC
330
1F
100
AcDbEntity
  8
0
  6
Continuous
 62
     7
370
    25
100
AcDbLine
 10
833.4241873466
 20
778.7386689012
 30
0.0
 11
866.4241873466
 21
778.7386689012
 31
0.0
  0
ARC
  5
4ED
330
1F
100
AcDbEntity
  8
0
  6
Continuous
 62
     7
370
    25
100
AcDbCircle
 10
833.4241873466
 20
775.2386689012
 30
0.0
 40
3.5
100
AcDbArc
 50
90.0
 51
180.0
  0
LINE
  5
4EE
330
1F
100
AcDbEntity
  8
0
  6
Continuous
 62
     7
370
    25
100
AcDbLine
 10
829.9241873466
 20
775.2386689012
 30
0.0
 11
829.9241873466
 21
722.2386689012
 31
0.0
  0
ARC
  5
4EF
330
1F
100
AcDbEntity
  8
0
  6
Continuous
 62
     7
370
    25
100
AcDbCircle
 10
833.4241873466
 20
722.2386689012
 30
0.0
 40
3.500000000000114
100
AcDbArc
 50
180.0
 51
270.0
  0
LINE
  5
4F0
330
1F
100
AcDbEntity
  8
0
  6
Continuous
 62
     7
370
    25
100
AcDbLine
 10
833.4241873466
 20
718.7386689012
 30
0.0
 11
866.4241873466
 21
718.7386689012
 31
0.0
  0
ARC
  5
4F1
330
1F
100
AcDbEntity
  8
0
  6
Continuous
 62
     7
370
    25
100
AcDbCircle
 10
866.4241873466
 20
722.2386689012
 30
0.0
 40
3.500000000000114
100
AcDbArc
 50
270.0
 51
0.0
  0
LINE
  5
4F2
330
1F
100
AcDbEntity
  8
0
  6
Continuous
 62
     7
370
    25
100
AcDbLine
 10
869.9241873466
 20
775.2386689012
 30
0.0
 11
869.9241873466
 21
722.2386689012
 31
0.0
  0
LINE
  5
4F3
330
1F
100
AcDbEntity
  8
0
  6
Continuous
 62
     7
370
    25
100
AcDbLine
 10
833.0041873466
 20
273.5061689012
 30
0.0
 11
833.0041873466
 21
235.9461689012
 31
0.0
  0
ARC
  5
4F4
330
1F
100
AcDbEntity
  8
0
  6
Continuous
 62
     7
370
    25
100
AcDbCircle
 10
317.4241873466
 20
638.2386689012
 30
0.0
 40
30.0
100
AcDbArc
 50
90.0
 51
180.0
  0
ARC
  5
4F5
330
1F
100
AcDbEntity
  8
0
  6
Continuous
 62
     7
370
    25
100
AcDbCircle
 10
811.5091873466
 20
218.0936689012
 30
0.0
 40
2.455000000000041
100
AcDbArc
 50
180.0
 51
270.0
  0
LINE
  5
4F6
330
1F
100
AcDbEntity
  8
0
  6
Continuous
 62
     7
370
    25
100
AcDbLine
 10
809.0541873466
 20
225.9536689012
 30
0.0
 11
809.0541873466
 21
218.0936689012
 31
0.0
  0
ARC
  5
4F7
330
1F
100
AcDbEntity
  8
0
  6
Continuous
 62
     7
370
    25
100
AcDbCircle
 10
811.5091873466
 20
225.9536689012
 30
0.0
 40
2.455000000000041
100
AcDbArc
 50
90.0
 51
180.0
  0
LINE
  5
4F8
330
1F
100
AcDbEntity
  8
0
  6
Continuous
 62
     7
370
    25
100
AcDbLine
 10
811.5091873466
 20
228.4086689012
 30
0.0
 11
897.9691873466
 21
228.4086689012
 31
0.0
  0
ARC
  5
4F9
330
1F
100
AcDbEntity
  8
0
  6
Continuous
 62
     7
370
    25
100
AcDbCircle
 10
897.9691873466
 20
225.9536689012
 30
0.0
 40
2.455000000000041
100
AcDbArc
 50
0.0
 51
90.0
  0
LINE
  5
4FA
330
1F
100
AcDbEntity
  8
0
  6
Continuous
 62
     7
370
    25
100
AcDbLine
 10
900.4241873466
 20
225.9536689012
 30
0.0
 11
900.4241873466
 21
218.0936689012
 31
0.0
  0
ARC
  5
4FB
330
1F
100
AcDbEntity
  8
0
  6
Continuous
 62
     7
370
    25
100
AcDbCircle
 10
897.9691873466
 20
218.0936689012
 30
0.0
 40
2.455000000000041
100
AcDbArc
 50
270.0
 51
0.0
  0
LINE
  5
4FC
330
1F
100
AcDbEntity
  8
0
  6
Continuous
 62
     7
370
    25
100
AcDbLine
 10
811.5091873466
 20
215.6386689012
 30
0.0
 11
897.9691873466
 21
215.6386689012
 31
0.0
  0
LINE
  5
4FD
330
1F
100
AcDbEntity
  8
0
  6
Continuous
 62
     7
370
    25
100
AcDbLine
 10
837.4591873466
 20
275.9611689012
 30
0.0
 11
872.0191873466
 21
275.9611689012
 31
0.0
  0
ARC
  5
4FE
330
1F
100
AcDbEntity
  8
0
  6
Continuous
 62
     7
370
    25
100
AcDbCircle
 10
872.0191873466
 20
273.5061689012
 30
0.0
 40
2.455000000000041
100
AcDbArc
 50
0.0
 51
90.0
  0
LINE
  5
4FF
330
1F
100
AcDbEntity
  8
0
  6
Continuous
 62
     7
370
    25
100
AcDbLine
 10
837.4591873466
 20
233.4911689012
 30
0.0
 11
872.0191873466
 21
233.4911689012
 31
0.0
  0
ARC
  5
500
330
1F
100
AcDbEntity
  8
0
  6
Continuous
 62
     7
370
    25
100
AcDbCircle
 10
837.4591873466
 20
235.9461689012
 30
0.0
 40
2.454999999999984
100
AcDbArc
 50
180.0
 51
270.0
  0
LINE
  5
501
330
1F
100
AcDbEntity
  8
0
  6
Continuous
 62
     7
370
    25
100
AcDbLine
 10
835.0041873466
 20
273.5061689012
 30
0.0
 11
835.0041873466
 21
235.9461689012
 31
0.0
  0
ARC
  5
502
330
1F
100
AcDbEntity
  8
0
  6
Continuous
 62
     7
370
    25
100
AcDbCircle
 10
837.4591873466
 20
273.5061689012
 30
0.0
 40
2.454999999999984
100
AcDbArc
 50
90.0
 51
180.0
  0
LINE
  5
503
330
1F
100
AcDbEntity
  8
0
  6
Continuous
 62
     7
370
    25
100
AcDbLine
 10
874.4741873466
 20
273.5061689012
 30
0.0
 11
874.4741873466
 21
235.9461689012
 31
0.0
  0
ARC
  5
504
330
1F
100
AcDbEntity
  8
0
  6
Continuous
 62
     7
370
    25
100
AcDbCircle
 10
872.0191873466
 20
235.9461689012
 30
0.0
 40
2.455000000000041
100
AcDbArc
 50
270.0
 51
0.0
  0
ARC
  5
505
330
1F
100
AcDbEntity
  8
0
  6
Continuous
 62
     7
370
    25
100
AcDbCircle
 10
811.5091873466
 20
283.5986689012
 30
0.0
 40
2.455000000000041
100
AcDbArc
 50
180.0
 51
270.0
  0
LINE
  5
506
330
1F
100
AcDbEntity
  8
0
  6
Continuous
 62
     7
370
    25
100
AcDbLine
 10
809.0541873466
 20
291.4586689012
 30
0.0
 11
809.0541873466
 21
283.5986689012
 31
0.0
  0
ARC
  5
507
330
1F
100
AcDbEntity
  8
0
  6
Continuous
 62
     7
370
    25
100
AcDbCircle
 10
811.5091873466
 20
291.4586689012
 30
0.0
 40
2.455000000000041
100
AcDbArc
 50
90.0
 51
180.0
  0
LINE
  5
508
330
1F
100
AcDbEntity
  8
0
  6
Continuous
 62
     7
370
    25
100
AcDbLine
 10
811.5091873466
 20
293.9136689012
 30
0.0
 11
897.9691873466
 21
293.9136689012
 31
0.0
  0
ARC
  5
509
330
1F
100
AcDbEntity
  8
0
  6
Continuous
 62
     7
370
    25
100
AcDbCircle
 10
897.9691873466
 20
291.4586689012
 30
0.0
 40
2.455000000000041
100
AcDbArc
 50
0.0
 51
90.0
  0
LINE
  5
50A
330
1F
100
AcDbEntity
  8
0
  6
Continuous
 62
     7
370
    25
100
AcDbLine
 10
900.4241873466
 20
291.4586689012
 30
0.0
 11
900.4241873466
 21
283.5986689012
 31
0.0
  0
ARC
  5
50B
330
1F
100
AcDbEntity
  8
0
  6
Continuous
 62
     7
370
    25
100
AcDbCircle
 10
897.9691873466
 20
283.5986689012
 30
0.0
 40
2.455000000000041
100
AcDbArc
 50
270.0
 51
0.0
  0
LINE
  5
50C
330
1F
100
AcDbEntity
  8
0
  6
Continuous
 62
     7
370
    25
100
AcDbLine
 10
811.5091873466
 20
281.1436689012
 30
0.0
 11
897.9691873466
 21
281.1436689012
 31
0.0
  0
LINE
  5
50D
330
1F
100
AcDbEntity
  8
0
  6
Continuous
 62
     7
370
    25
100
AcDbLine
 10
811.5091873466
 20
275.9611689012
 30
0.0
 11
827.4691873466
 21
275.9611689012
 31
0.0
  0
ARC
  5
50E
330
1F
100
AcDbEntity
  8
0
  6
Continuous
 62
     7
370
    25
100
AcDbCircle
 10
827.4691873466
 20
273.5061689012
 30
0.0
 40
2.454999999999984
100
AcDbArc
 50
0.0
 51
90.0
  0
LINE
  5
50F
330
1F
100
AcDbEntity
  8
0
  6
Continuous
 62
     7
370
    25
100
AcDbLine
 10
829.9241873466
 20
273.5061689012
 30
0.0
 11
829.9241873466
 21
235.9461689012
 31
0.0
  0
ARC
  5
510
330
1F
100
AcDbEntity
  8
0
  6
Continuous
 62
     7
370
    25
100
AcDbCircle
 10
827.4691873466
 20
235.9461689012
 30
0.0
 40
2.454999999999984
100
AcDbArc
 50
270.0
 51
0.0
  0
LINE
  5
511
330
1F
100
AcDbEntity
  8
0
  6
Continuous
 62
     7
370
    25
100
AcDbLine
 10
811.5091873466
 20
233.4911689012
 30
0.0
 11
827.4691873466
 21
233.4911689012
 31
0.0
  0
LINE
  5
512
330
1F
100
AcDbEntity
  8
0
  6
Continuous
 62
     7
370
    25
100
AcDbLine
 10
809.0541873466
 20
273.5061689012
 30
0.0
 11
809.0541873466
 21
235.9461689012
 31
0.0
  0
ARC
  5
513
330
1F
100
AcDbEntity
  8
0
  6
Continuous
 62
     7
370
    25
100
AcDbCircle
 10
811.5091873466
 20
273.5061689012
 30
0.0
 40
2.455000000000041
100
AcDbArc
 50
90.0
 51
180.0
  0
ARC
  5
514
330
1F
100
AcDbEntity
  8
0
  6
Continuous
 62
     7
370
    25
100
AcDbCircle
 10
811.5091873466
 20
235.9461689012
 30
0.0
 40
2.455000000000041
100
AcDbArc
 50
180.0
 51
270.0
  0
ARC
  5
515
330
1F
100
AcDbEntity
  8
0
  6
Continuous
 62
     7
370
    25
100
AcDbCircle
 10
147.4241873466
 20
376.2386689012
 30
0.0
 40
26.00000000000003
100
AcDbArc
 50
180.0
 51
270.0
  0
LINE
  5
516
330
1F
100
AcDbEntity
  8
0
  6
Continuous
 62
     7
370
    25
100
AcDbLine
 10
275.4241873466
 20
376.2386689012
 30
0.0
 11
275.4241873466
 21
638.2386689012
 31
0.0
  0
ARC
  5
517
330
1F
100
AcDbEntity
  8
0
  6
Continuous
 62
     7
370
    25
100
AcDbCircle
 10
249.4241873466
 20
376.2386689012
 30
0.0
 40
25.99999999999997
100
AcDbArc
 50
270.0
 51
0.0
  0
LINE
  5
518
330
1F
100
AcDbEntity
  8
0
  6
Continuous
 62
     7
370
    25
100
AcDbLine
 10
249.4241873466
 20
350.2386689012
 30
0.0
 11
147.4241873466
 21
350.2386689012
 31
0.0
  0
LINE
  5
519
330
1F
100
AcDbEntity
  8
0
  6
Continuous
 62
     7
370
    25
100
AcDbLine
 10
121.4241873466
 20
376.2386689012
 30
0.0
 11
121.4241873466
 21
638.2386689012
 31
0.0
  0
ARC
  5
51A
330
1F
100
AcDbEntity
  8
0
  6
Continuous
 62
     7
370
    25
100
AcDbCircle
 10
147.4241873466
 20
638.2386689012
 30
0.0
 40
26.00000000000003
100
AcDbArc
 50
90.0
 51
180.0
  0
LINE
  5
51B
330
1F
100
AcDbEntity
  8
0
  6
Continuous
 62
     7
370
    25
100
AcDbLine
 10
249.4241873466
 20
664.2386689012
 30
0.0
 11
147.4241873466
 21
664.2386689012
 31
0.0
  0
ARC
  5
51C
330
1F
100
AcDbEntity
  8
0
  6
Continuous
 62
     7
370
    25
100
AcDbCircle
 10
249.4241873466
 20
638.2386689012
 30
0.0
 40
26.0
100
AcDbArc
 50
0.0
 51
90.0
  0
ARC
  5
51D
330
1F
100
AcDbEntity
  8
0
  6
Continuous
 62
     7
370
    25
100
AcDbCircle
 10
317.4241873466
 20
638.2386689012
 30
0.0
 40
26.0
100
AcDbArc
 50
90.0
 51
180.0
  0
LINE
  5
51E
330
1F
100
AcDbEntity
  8
0
  6
Continuous
 62
     7
370
    25
100
AcDbLine
 10
317.4241873466
 20
664.2386689012
 30
0.0
 11
579.4241873466
 21
664.2386689012
 31
0.0
  0
ARC
  5
51F
330
1F
100
AcDbEntity
  8
0
  6
Continuous
 62
     7
370
    25
100
AcDbCircle
 10
579.4241873466
 20
638.2386689012
 30
0.0
 40
26.0
100
AcDbArc
 50
0.0
 51
90.0
  0
LINE
  5
520
330
1F
100
AcDbEntity
  8
0
  6
Continuous
 62
     7
370
    25
100
AcDbLine
 10
605.4241873466
 20
376.2386689012
 30
0.0
 11
605.4241873466
 21
638.2386689012
 31
0.0
  0
ARC
  5
521
330
1F
100
AcDbEntity
  8
0
  6
Continuous
 62
     7
370
    25
100
AcDbCircle
 10
579.4241873466
 20
376.2386689012
 30
0.0
 40
26.0
100
AcDbArc
 50
270.0
 51
0.0
  0
LINE
  5
522
330
1F
100
AcDbEntity
  8
0
  6
Continuous
 62
     7
370
    25
100
AcDbLine
 10
317.4241873466
 20
350.2386689012
 30
0.0
 11
579.4241873466
 21
350.2386689012
 31
0.0
  0
ARC
  5
523
330
1F
100
AcDbEntity
  8
0
  6
Continuous
 62
     7
370
    25
100
AcDbCircle
 10
317.4241873466
 20
376.2386689012
 30
0.0
 40
26.0
100
AcDbArc
 50
180.0
 51
270.0
  0
LINE
  5
524
330
1F
100
AcDbEntity
  8
0
  6
Continuous
 62
     7
370
    25
100
AcDbLine
 10
291.4241873466
 20
376.2386689012
 30
0.0
 11
291.4241873466
 21
638.2386689012
 31
0.0
  0
ARC
  5
525
330
1F
100
AcDbEntity
  8
0
  6
Continuous
 62
     7
370
    25
100
AcDbCircle
 10
647.4241873466
 20
376.2386689012
 30
0.0
 40
26.0
100
AcDbArc
 50
180.0
 51
270.0
  0
LINE
  5
526
330
1F
100
AcDbEntity
  8
0
  6
Continuous
 62
     7
370
    25
100
AcDbLine
 10
621.4241873466
 20
376.2386689012
 30
0.0
 11
621.4241873466
 21
638.2386689012
 31
0.0
  0
ARC
  5
527
330
1F
100
AcDbEntity
  8
0
  6
Continuous
 62
     7
370
    25
100
AcDbCircle
 10
647.4241873466
 20
638.2386689012
 30
0.0
 40
26.0
100
AcDbArc
 50
90.0
 51
180.0
  0
LINE
  5
528
330
1F
100
AcDbEntity
  8
0
  6
Continuous
 62
     7
370
    25
100
AcDbLine
 10
647.4241873466
 20
664.2386689012
 30
0.0
 11
749.4241873466
 21
664.2386689012
 31
0.0
  0
ARC
  5
529
330
1F
100
AcDbEntity
  8
0
  6
Continuous
 62
     7
370
    25
100
AcDbCircle
 10
749.4241873466
 20
638.2386689012
 30
0.0
 40
26.0
100
AcDbArc
 50
0.0
 51
90.0
  0
LINE
  5
52A
330
1F
100
AcDbEntity
  8
0
  6
Continuous
 62
     7
370
    25
100
AcDbLine
 10
775.4241873466
 20
376.2386689012
 30
0.0
 11
775.4241873466
 21
638.2386689012
 31
0.0
  0
ARC
  5
52B
330
1F
100
AcDbEntity
  8
0
  6
Continuous
 62
     7
370
    25
100
AcDbCircle
 10
749.4241873466
 20
376.2386689012
 30
0.0
 40
26.0
100
AcDbArc
 50
270.0
 51
0.0
  0
LINE
  5
52C
330
1F
100
AcDbEntity
  8
0
  6
Continuous
 62
     7
370
    25
100
AcDbLine
 10
647.4241873466
 20
350.2386689012
 30
0.0
 11
749.4241873466
 21
350.2386689012
 31
0.0
  0
LINE
  5
52D
330
1F
100
AcDbEntity
  8
0
  6
Continuous
 62
     7
370
    25
100
AcDbLine
 10
775.4241873466
 20
727.7386689012
 30
0.0
 11
775.4241873466
 21
769.7386689012
 31
0.0
  0
ARC
  5
52E
330
1F
100
AcDbEntity
  8
0
  6
Continuous
 62
     7
370
    25
100
AcDbCircle
 10
749.4241873466
 20
727.7386689012
 30
0.0
 40
26.0
100
AcDbArc
 50
270.0
 51
0.0
  0
LINE
  5
52F
330
1F
100
AcDbEntity
  8
0
  6
Continuous
 62
     7
370
    25
100
AcDbLine
 10
121.4241873466
 20
727.7386689012
 30
0.0
 11
121.4241873466
 21
769.7386689012
 31
0.0
  0
ARC
  5
530
330
1F
100
AcDbEntity
  8
0
  6
Continuous
 62
     7
370
    25
100
AcDbCircle
 10
147.4241873466
 20
769.7386689012
 30
0.0
 40
26.00000000000011
100
AcDbArc
 50
90.0
 51
180.0
  0
LINE
  5
531
330
1F
100
AcDbEntity
  8
0
  6
Continuous
 62
     7
370
    25
100
AcDbLine
 10
147.4241873466
 20
795.7386689012
 30
0.0
 11
749.4241873466
 21
795.7386689012
 31
0.0
  0
ARC
  5
532
330
1F
100
AcDbEntity
  8
0
  6
Continuous
 62
     7
370
    25
100
AcDbCircle
 10
749.4241873466
 20
769.7386689012
 30
0.0
 40
26.00000000000011
100
AcDbArc
 50
0.0
 51
90.0
  0
LINE
  5
533
330
1F
100
AcDbEntity
  8
0
  6
Continuous
 62
     7
370
    25
100
AcDbLine
 10
147.4241873466
 20
701.7386689012
 30
0.0
 11
749.4241873466
 21
701.7386689012
 31
0.0
  0
ARC
  5
534
330
1F
100
AcDbEntity
  8
0
  6
Continuous
 62
     7
370
    25
100
AcDbCircle
 10
147.4241873466
 20
727.7386689012
 30
0.0
 40
26.0
100
AcDbArc
 50
180.0
 51
270.0
  0
LINE
  5
535
330
1F
100
AcDbEntity
  8
0
  6
Continuous
 62
     7
370
    25
100
AcDbLine
 10
882.0091873466
 20
275.9611689012
 30
0.0
 11
897.9691873466
 21
275.9611689012
 31
0.0
  0
ARC
  5
536
330
1F
100
AcDbEntity
  8
0
  6
Continuous
 62
     7
370
    25
100
AcDbCircle
 10
897.9691873466
 20
273.5061689012
 30
0.0
 40
2.454999999999927
100
AcDbArc
 50
0.0
 51
90.0
  0
LINE
  5
537
330
1F
100
AcDbEntity
  8
0
  6
Continuous
 62
     7
370
    25
100
AcDbLine
 10
900.4241873466
 20
273.5061689012
 30
0.0
 11
900.4241873466
 21
235.9461689012
 31
0.0
  0
ARC
  5
538
330
1F
100
AcDbEntity
  8
0
  6
Continuous
 62
     7
370
    25
100
AcDbCircle
 10
897.9691873466
 20
235.9461689012
 30
0.0
 40
2.454999999999927
100
AcDbArc
 50
270.0
 51
0.0
  0
LINE
  5
539
330
1F
100
AcDbEntity
  8
0
  6
Continuous
 62
     7
370
    25
100
AcDbLine
 10
882.0091873466
 20
233.4911689012
 30
0.0
 11
897.9691873466
 21
233.4911689012
 31
0.0
  0
ARC
  5
53A
330
1F
100
AcDbEntity
  8
0
  6
Continuous
 62
     7
370
    25
100
AcDbCircle
 10
882.0091873466
 20
235.9461689012
 30
0.0
 40
2.454999999999927
100
AcDbArc
 50
180.0
 51
270.0
  0
LINE
  5
53B
330
1F
100
AcDbEntity
  8
0
  6
Continuous
 62
     7
370
    25
100
AcDbLine
 10
879.5541873466
 20
273.5061689012
 30
0.0
 11
879.5541873466
 21
235.9461689012
 31
0.0
  0
ARC
  5
53C
330
1F
100
AcDbEntity
  8
0
  6
Continuous
 62
     7
370
    25
100
AcDbCircle
 10
882.0091873466
 20
273.5061689012
 30
0.0
 40
2.454999999999927
100
AcDbArc
 50
90.0
 51
180.0
  0
ARC
  5
53D
330
1F
100
AcDbEntity
  8
0
  6
Continuous
 62
     7
370
    25
100
AcDbCircle
 10
749.4241873466
 20
286.7386689012
 30
0.0
 40
26.0
100
AcDbArc
 50
0.0
 51
90.0
  0
ARC
  5
53E
330
1F
100
AcDbEntity
  8
0
  6
Continuous
 62
     7
370
    25
100
AcDbCircle
 10
147.4241873466
 20
286.7386689012
 30
0.0
 40
26.0
100
AcDbArc
 50
90.0
 51
180.0
  0
LINE
  5
53F
330
1F
100
AcDbEntity
  8
0
  6
Continuous
 62
     7
370
    25
100
AcDbLine
 10
775.4241873466
 20
244.7386689012
 30
0.0
 11
775.4241873466
 21
286.7386689012
 31
0.0
  0
ARC
  5
540
330
1F
100
AcDbEntity
  8
0
  6
Continuous
 62
     7
370
    25
100
AcDbCircle
 10
749.4241873466
 20
244.7386689012
 30
0.0
 40
26.00000000000003
100
AcDbArc
 50
270.0
 51
0.0
  0
LINE
  5
541
330
1F
100
AcDbEntity
  8
0
  6
Continuous
 62
     7
370
    25
100
AcDbLine
 10
147.4241873466
 20
312.7386689012
 30
0.0
 11
749.4241873466
 21
312.7386689012
 31
0.0
  0
LINE
  5
542
330
1F
100
AcDbEntity
  8
0
  6
Continuous
 62
     7
370
    25
100
AcDbLine
 10
147.4241873466
 20
218.7386689012
 30
0.0
 11
749.4241873466
 21
218.7386689012
 31
0.0
  0
ARC
  5
543
330
1F
100
AcDbEntity
  8
0
  6
Continuous
 62
     7
370
    25
100
AcDbCircle
 10
147.4241873466
 20
244.7386689012
 30
0.0
 40
26.00000000000003
100
AcDbArc
 50
180.0
 51
270.0
  0
LINE
  5
544
330
1F
100
AcDbEntity
  8
0
  6
Continuous
 62
     7
370
    25
100
AcDbLine
 10
121.4241873466
 20
244.7386689012
 30
0.0
 11
121.4241873466
 21
286.7386689012
 31
0.0
  0
LINE
  5
545
330
1F
100
AcDbEntity
  8
0
  6
Continuous
 62
     7
370
    25
100
AcDbLine
 10
928.2241873466
 20
833.7386689012
 30
0.0
 11
930.9241873466
 21
833.7386689012
 31
0.0
  0
LINE
  5
546
330
1F
100
AcDbEntity
  8
0
  6
Continuous
 62
     7
370
    25
100
AcDbLine
 10
930.9241873466
 20
180.7386689012
 30
0.0
 11
930.9241873466
 21
180.8064358541
 31
0.0
  0
LINE
  5
547
330
1F
100
AcDbEntity
  8
0
  6
Continuous
 62
     7
370
    25
100
AcDbLine
 10
930.9241873466
 20
833.6709019482
 30
0.0
 11
930.9241873466
 21
833.7386689012
 31
0.0
  0
LINE
  5
548
330
1F
100
AcDbEntity
  8
0
  6
Continuous
 62
     7
370
    25
100
AcDbLine
 10
930.9241873466
 20
180.7386689012
 30
0.0
 11
928.2241873466
 21
180.7386689012
 31
0.0
  0
LINE
  5
549
330
1F
100
AcDbEntity
  8
0
  6
Continuous
 62
     7
370
    25
100
AcDbLine
 10
928.2241873466
 20
180.7386689012
 30
0.0
 11
928.2241873466
 21
833.7386689012
 31
0.0
  0
ARC
  5
54A
330
1F
100
AcDbEntity
  8
0
  6
Continuous
 62
     7
370
    25
100
AcDbCircle
 10
920.8241873466
 20
182.7386689012
 30
0.0
 40
2.000000000000068
100
AcDbArc
 50
194.0396169486
 51
270.0
  0
ARC
  5
54B
330
1F
100
AcDbEntity
  8
0
  6
Continuous
 62
     7
370
    25
100
AcDbCircle
 10
920.8241873466
 20
831.7386689012
 30
0.0
 40
2.0
100
AcDbArc
 50
90.0
 51
165.5224878142
  0
LINE
  5
54C
330
1F
100
AcDbEntity
  8
0
  6
Continuous
 62
     7
370
    25
100
AcDbLine
 10
928.2241873466
 20
833.7386689012
 30
0.0
 11
920.8241873466
 21
833.7386689012
 31
0.0
  0
LINE
  5
54D
330
1F
100
AcDbEntity
  8
0
  6
Continuous
 62
     7
370
    25
100
AcDbLine
 10
920.8241873466
 20
180.7386689012
 30
0.0
 11
928.2241873466
 21
180.7386689012
 31
0.0
  0
ARC
  5
54E
330
1F
100
AcDbEntity
  8
0
  6
Continuous
 62
     7
370
    25
100
AcDbCircle
 10
91.0241873466
 20
182.7386689012
 30
0.0
 40
2.000000000000007
100
AcDbArc
 50
270.0
 51
345.9603830515
  0
LINE
  5
54F
330
1F
100
AcDbEntity
  8
0
  6
Continuous
 62
     7
370
    25
100
AcDbLine
 10
83.6241873466
 20
180.7386689012
 30
0.0
 11
91.0241873466
 21
180.7386689012
 31
0.0
  0
LINE
  5
550
330
1F
100
AcDbEntity
  8
0
  6
Continuous
 62
     7
370
    25
100
AcDbLine
 10
83.6241873466
 20
833.7386689012
 30
0.0
 11
83.6241873466
 21
180.7386689012
 31
0.0
  0
LINE
  5
551
330
1F
100
AcDbEntity
  8
0
  6
Continuous
 62
     7
370
    25
100
AcDbLine
 10
91.0241873466
 20
833.7386689012
 30
0.0
 11
83.6241873466
 21
833.7386689012
 31
0.0
  0
ARC
  5
552
330
1F
100
AcDbEntity
  8
0
  6
Continuous
 62
     7
370
    25
100
AcDbCircle
 10
91.0241873466
 20
831.7386689012
 30
0.0
 40
2.0
100
AcDbArc
 50
14.4775121859
 51
90.0
  0
LINE
  5
553
330
1F
100
AcDbEntity
  8
0
  6
Continuous
 62
     7
370
    25
100
AcDbLine
 10
80.9241873466
 20
833.7386689012
 30
0.0
 11
80.9241873466
 21
833.6709019482
 31
0.0
  0
LINE
  5
554
330
1F
100
AcDbEntity
  8
0
  6
Continuous
 62
     7
370
    25
100
AcDbLine
 10
80.9241873466
 20
180.8064358541
 30
0.0
 11
80.9241873466
 21
180.7386689012
 31
0.0
  0
LINE
  5
555
330
1F
100
AcDbEntity
  8
0
  6
Continuous
 62
     7
370
    25
100
AcDbLine
 10
80.9241873466
 20
833.7386689012
 30
0.0
 11
83.6241873466
 21
833.7386689012
 31
0.0
  0
LINE
  5
556
330
1F
100
AcDbEntity
  8
0
  6
Continuous
 62
     7
370
    25
100
AcDbLine
 10
83.6241873466
 20
180.7386689012
 30
0.0
 11
80.9241873466
 21
180.7386689012
 31
0.0
  0
LINE
  5
557
330
1F
100
AcDbEntity
  8
0
  6
Continuous
 62
     7
370
    25
100
AcDbLine
 10
916.9241873466
 20
181.7386689012
 30
0.0
 11
916.9241873466
 21
182.2386689012
 31
0.0
  0
LINE
  5
558
330
1F
100
AcDbEntity
  8
0
  6
Continuous
 62
     7
370
    25
100
AcDbLine
 10
94.9241873466
 20
181.7386689012
 30
0.0
 11
916.9241873466
 21
181.7386689012
 31
0.0
  0
LINE
  5
559
330
1F
100
AcDbEntity
  8
0
  6
Continuous
 62
     7
370
    25
100
AcDbLine
 10
94.9241873466
 20
182.2386689012
 30
0.0
 11
94.9241873466
 21
181.7386689012
 31
0.0
  0
LINE
  5
55A
330
1F
100
AcDbEntity
  8
0
  6
Continuous
 62
     7
370
    25
100
AcDbLine
 10
94.9241873466
 20
179.0386689012
 30
0.0
 11
94.9241873466
 21
181.7386689012
 31
0.0
  0
LINE
  5
55B
330
1F
100
AcDbEntity
  8
0
  6
Continuous
 62
     7
370
    25
100
AcDbLine
 10
916.9241873466
 20
181.7386689012
 30
0.0
 11
916.9241873466
 21
179.0386689012
 31
0.0
  0
LINE
  5
55C
330
1F
100
AcDbEntity
  8
0
  6
Continuous
 62
     7
370
    25
100
AcDbLine
 10
94.9241873466
 20
832.7386689012
 30
0.0
 11
94.9241873466
 21
835.4386689012
 31
0.0
  0
LINE
  5
55D
330
1F
100
AcDbEntity
  8
0
  6
Continuous
 62
     7
370
    25
100
AcDbLine
 10
916.9241873466
 20
835.4386689012
 30
0.0
 11
916.9241873466
 21
832.7386689012
 31
0.0
  0
LINE
  5
55E
330
1F
100
AcDbEntity
  8
0
  6
Continuous
 62
     7
370
    25
100
AcDbLine
 10
916.9241873466
 20
832.7386689012
 30
0.0
 11
94.9241873466
 21
832.7386689012
 31
0.0
  0
LINE
  5
55F
330
1F
100
AcDbEntity
  8
0
  6
Continuous
 62
     7
370
    25
100
AcDbLine
 10
94.9241873466
 20
832.7386689012
 30
0.0
 11
94.9241873466
 21
832.2386689012
 31
0.0
  0
LINE
  5
560
330
1F
100
AcDbEntity
  8
0
  6
Continuous
 62
     7
370
    25
100
AcDbLine
 10
916.9241873466
 20
832.2386689012
 30
0.0
 11
916.9241873466
 21
832.7386689012
 31
0.0
  0
LINE
  5
561
330
1F
100
AcDbEntity
  8
0
  6
Continuous
 62
     7
370
    25
100
AcDbLine
 10
55.9241873466
 20
875.4886689012
 30
0.0
 11
955.9241873466
 21
875.4886689012
 31
0.0
  0
LINE
  5
562
330
1F
100
AcDbEntity
  8
0
  6
Continuous
 62
     7
370
    25
100
AcDbLine
 10
55.9241873466
 20
941.9886689012
 30
0.0
 11
55.9241873466
 21
875.4886689012
 31
0.0
  0
LINE
  5
563
330
1F
100
AcDbEntity
  8
0
  6
Continuous
 62
     7
370
    25
100
AcDbLine
 10
55.9241873466
 20
941.9886689012
 30
0.0
 11
955.9241873466
 21
941.9886689012
 31
0.0
  0
LINE
  5
564
330
1F
100
AcDbEntity
  8
0
  6
Continuous
 62
     7
370
    25
100
AcDbLine
 10
955.9241873466
 20
941.9886689012
 30
0.0
 11
955.9241873466
 21
875.4886689012
 31
0.0
  0
LINE
  5
565
330
1F
100
AcDbEntity
  8
0
  6
Continuous
 62
     7
370
    25
100
AcDbLine
 10
55.9241873466
 20
946.2386689012
 30
0.0
 11
55.9241873466
 21
941.9886689012
 31
0.0
  0
LINE
  5
566
330
1F
100
AcDbEntity
  8
0
  6
Continuous
 62
     7
370
    25
100
AcDbLine
 10
55.9241873466
 20
946.2386689012
 30
0.0
 11
955.9241873466
 21
946.2386689012
 31
0.0
  0
LINE
  5
567
330
1F
100
AcDbEntity
  8
0
  6
Continuous
 62
     7
370
    25
100
AcDbLine
 10
955.9241873466
 20
941.9886689012
 30
0.0
 11
955.9241873466
 21
946.2386689012
 31
0.0
  0
LINE
  5
568
330
1F
100
AcDbEntity
  8
0
  6
Continuous
 62
     7
370
    25
100
AcDbLine
 10
55.9241873466
 20
871.2386689012
 30
0.0
 11
955.9241873466
 21
871.2386689012
 31
0.0
  0
LINE
  5
569
330
1F
100
AcDbEntity
  8
0
  6
Continuous
 62
     7
370
    25
100
AcDbLine
 10
55.9241873466
 20
875.4886689012
 30
0.0
 11
55.9241873466
 21
871.2386689012
 31
0.0
  0
LINE
  5
56A
330
1F
100
AcDbEntity
  8
0
  6
Continuous
 62
     7
370
    25
100
AcDbLine
 10
955.9241873466
 20
871.2386689012
 30
0.0
 11
955.9241873466
 21
875.4886689012
 31
0.0
  0
LINE
  5
56B
330
1F
100
AcDbEntity
  8
0
  6
Continuous
 62
     7
370
    25
100
AcDbLine
 10
55.9241873466
 20
868.9886689012
 30
0.0
 11
955.9241873466
 21
868.9886689012
 31
0.0
  0
LINE
  5
56C
330
1F
100
AcDbEntity
  8
0
  6
Continuous
 62
     7
370
    25
100
AcDbLine
 10
55.9241873466
 20
871.2386689012
 30
0.0
 11
55.9241873466
 21
868.9886689012
 31
0.0
  0
LINE
  5
56D
330
1F
100
AcDbEntity
  8
0
  6
Continuous
 62
     7
370
    25
100
AcDbLine
 10
955.9241873466
 20
868.9886689012
 30
0.0
 11
955.9241873466
 21
871.2386689012
 31
0.0
  0
LINE
  5
56E
330
1F
100
AcDbEntity
  8
0
  6
Continuous
 62
     7
370
    25
100
AcDbLine
 10
76.6741873466
 20
174.7886689012
 30
0.0
 11
76.6741873466
 21
839.6886689012
 31
0.0
  0
LINE
  5
56F
330
1F
100
AcDbEntity
  8
0
  6
Continuous
 62
     7
370
    25
100
AcDbLine
 10
935.1741873466
 20
174.7886689012
 30
0.0
 11
76.6741873466
 21
174.7886689012
 31
0.0
  0
LINE
  5
570
330
1F
100
AcDbEntity
  8
0
  6
Continuous
 62
     7
370
    25
100
AcDbLine
 10
935.1741873466
 20
839.6886689012
 30
0.0
 11
935.1741873466
 21
174.7886689012
 31
0.0
  0
LINE
  5
571
330
1F
100
AcDbEntity
  8
0
  6
Continuous
 62
     7
370
    25
100
AcDbLine
 10
76.6741873466
 20
839.6886689012
 30
0.0
 11
935.1741873466
 21
839.6886689012
 31
0.0
  0
LINE
  5
572
330
1F
100
AcDbEntity
  8
0
  6
Continuous
 62
     7
370
    25
100
AcDbLine
 10
55.9241873466
 20
58.2386689012
 30
0.0
 11
955.9241873466
 21
58.2386689012
 31
0.0
  0
LINE
  5
573
330
1F
100
AcDbEntity
  8
0
  6
Continuous
 62
     7
370
    25
100
AcDbLine
 10
55.9241873466
 20
868.9886689012
 30
0.0
 11
55.9241873466
 21
58.2386689012
 31
0.0
  0
LINE
  5
574
330
1F
100
AcDbEntity
  8
0
  6
Continuous
 62
     7
370
    25
100
AcDbLine
 10
955.9241873466
 20
868.9886689012
 30
0.0
 11
955.9241873466
 21
58.2386689012
 31
0.0
  0
SPLINE
  5
575
330
1F
100
AcDbEntity
  8
0
  6
Continuous
 62
     7
370
    25
100
AcDbSpline
210
0.0
220
0.0
230
1.0
 70
     8
 71
     3
 72
    11
 73
     7
 74
     0
 42
0.00000001
 43
0.00000001
 40
0.0
 40
0.0
 40
0.0
 40
0.0
 40
0.2500000000000051
 40
0.500000000000001
 40
0.7500000000000095
 40
1.0
 40
1.0
 40
1.0
 40
1.0
 10
930.9241873466414
 20
180.8064358541227
 30
0.0
 10
930.9880715309876
 20
180.3049552747088
 30
0.0
 10
931.1158398996798
 20
179.301994115881
 30
0.0
 10
932.0986490554501
 20
177.7975523776397
 30
0.0
 10
933.5034650381118
 20
176.2931106393978
 30
0.0
 10
934.6172799104648
 20
175.2901494805702
 30
0.0
 10
935.1741873466415
 20
174.7886689011563
 30
0.0
  0
LINE
  5
576
330
1F
100
AcDbEntity
  8
0
  6
Continuous
 62
     7
370
    25
100
AcDbLine
 10
930.9241873466
 20
833.6709019482
 30
0.0
 11
930.9241873466
 21
180.8064358541
 31
0.0
  0
SPLINE
  5
577
330
1F
100
AcDbEntity
  8
0
  6
Continuous
 62
     7
370
    25
100
AcDbSpline
210
0.0
220
0.0
230
1.0
 70
     8
 71
     3
 72
    11
 73
     7
 74
     0
 42
0.00000001
 43
0.00000001
 40
0.0
 40
0.0
 40
0.0
 40
0.0
 40
0.2499999999999925
 40
0.4999999999999963
 40
0.750000000000001
 40
1.0
 40
1.0
 40
1.0
 40
1.0
 10
935.1741873466391
 20
839.6886689011562
 30
0.0
 10
934.6172799104626
 20
839.1871883217424
 30
0.0
 10
933.5034650381095
 20
838.1842271629147
 30
0.0
 10
932.0986490554479
 20
836.679785424673
 30
0.0
 10
931.1158398996777
 20
835.1753436864315
 30
0.0
 10
930.9880715309853
 20
834.1723825276038
 30
0.0
 10
930.9241873466392
 20
833.6709019481899
 30
0.0
  0
SPLINE
  5
578
330
1F
100
AcDbEntity
  8
0
  6
Continuous
 62
     7
370
    25
100
AcDbSpline
210
0.0
220
0.0
230
1.0
 70
     8
 71
     3
 72
    11
 73
     7
 74
     0
 42
0.00000001
 43
0.00000001
 40
0.0
 40
0.0
 40
0.0
 40
0.0
 40
0.289465331252381
 40
0.5792287517468973
 40
0.8689929743191512
 40
1.0
 40
1.0
 40
1.0
 40
1.0
 10
929.1564203936729
 20
835.4386689011563
 30
0.0
 10
929.7374045160444
 20
835.5248159158366
 30
0.0
 10
930.8999710539099
 20
835.6971986587512
 30
0.0
 10
932.6431482904296
 20
836.999788384405
 30
0.0
 10
934.0717186801284
 20
838.4643731797477
 30
0.0
 10
934.9124315876162
 20
839.3979881176016
 30
0.0
 10
935.1741873466391
 20
839.6886689011562
 30
0.0
  0
LINE
  5
579
330
1F
100
AcDbEntity
  8
0
  6
Continuous
 62
     7
370
    25
100
AcDbLine
 10
82.6919542996
 20
835.4386689012
 30
0.0
 11
929.1564203937
 21
835.4386689012
 31
0.0
  0
SPLINE
  5
57A
330
1F
100
AcDbEntity
  8
0
  6
Continuous
 62
     7
370
    25
100
AcDbSpline
210
0.0
220
0.0
230
1.0
 70
     8
 71
     3
 72
    11
 73
     7
 74
     0
 42
0.00000001
 43
0.00000001
 40
0.0
 40
0.0
 40
0.0
 40
0.0
 40
0.2894751298369077
 40
0.579238635362954
 40
0.8690028895772081
 40
1.0
 40
1.0
 40
1.0
 40
1.0
 10
76.67418734663956
 20
839.6886689011534
 30
0.0
 10
77.25519131285785
 20
839.0438009346746
 30
0.0
 10
78.41777804257937
 20
837.7534225829908
 30
0.0
 10
80.16097473366085
 20
836.2209850148581
 30
0.0
 10
81.5895254707017
 20
835.5146966135808
 30
0.0
 10
82.4302184177645
 20
835.4567192095585
 30
0.0
 10
82.6919542996058
 20
835.4386689011534
 30
0.0
  0
SPLINE
  5
57B
330
1F
100
AcDbEntity
  8
0
  6
Continuous
 62
     7
370
    25
100
AcDbSpline
210
0.0
220
0.0
230
1.0
 70
     8
 71
     3
 72
    11
 73
     7
 74
     0
 42
0.00000001
 43
0.00000001
 40
0.0
 40
0.0
 40
0.0
 40
0.0
 40
0.2499999999999933
 40
0.500000000000006
 40
0.7499999999999933
 40
0.9999999999999999
 40
0.9999999999999999
 40
0.9999999999999999
 40
0.9999999999999999
 10
80.92418734663958
 20
833.6709019481871
 30
0.0
 10
80.86030316229342
 20
834.1723825276008
 30
0.0
 10
80.7325347936012
 20
835.1753436864284
 30
0.0
 10
79.749725637831
 20
836.6797854246704
 30
0.0
 10
78.34490965516916
 20
838.1842271629116
 30
0.0
 10
77.23109478281609
 20
839.1871883217394
 30
0.0
 10
76.6741873466395
 20
839.6886689011534
 30
0.0
  0
LINE
  5
57C
330
1F
100
AcDbEntity
  8
0
  6
Continuous
 62
     7
370
    25
100
AcDbLine
 10
80.9241873466
 20
833.6709019482
 30
0.0
 11
80.9241873466
 21
180.8064358541
 31
0.0
  0
SPLINE
  5
57D
330
1F
100
AcDbEntity
  8
0
  6
Continuous
 62
     7
370
    25
100
AcDbSpline
210
0.0
220
0.0
230
1.0
 70
     8
 71
     3
 72
    11
 73
     7
 74
     0
 42
0.00000001
 43
0.00000001
 40
0.0
 40
0.0
 40
0.0
 40
0.0
 40
0.2894751298369474
 40
0.5792386353629845
 40
0.8690028895772569
 40
1.0
 40
1.0
 40
1.0
 40
1.0
 10
76.67418734664183
 20
174.7886689011534
 30
0.0
 10
77.31905531312061
 20
175.3696728673718
 30
0.0
 10
78.60943366480444
 20
176.5322595970933
 30
0.0
 10
80.14187123293698
 20
178.2754562881748
 30
0.0
 10
80.8481596342146
 20
179.704007025216
 30
0.0
 10
80.90613703823662
 20
180.5446999722786
 30
0.0
 10
80.9241873466418
 20
180.8064358541198
 30
0.0
  0
SPLINE
  5
57E
330
1F
100
AcDbEntity
  8
0
  6
Continuous
 62
     7
370
    25
100
AcDbSpline
210
0.0
220
0.0
230
1.0
 70
     8
 71
     3
 72
    11
 73
     7
 74
     0
 42
0.00000001
 43
0.00000001
 40
0.0
 40
0.0
 40
0.0
 40
0.0
 40
0.2500000000000073
 40
0.4999999999999966
 40
0.7499999999999903
 40
1.0
 40
1.0
 40
1.0
 40
1.0
 10
82.69195429960824
 20
179.0386689011534
 30
0.0
 10
82.19047372019439
 20
178.9747847168073
 30
0.0
 10
81.18751256136663
 20
178.8470163481151
 30
0.0
 10
79.68307082312504
 20
177.8642071923448
 30
0.0
 10
78.17862908488371
 20
176.4593912096831
 30
0.0
 10
77.1756679260558
 20
175.3455763373299
 30
0.0
 10
76.67418734664183
 20
174.7886689011534
 30
0.0
  0
LINE
  5
57F
330
1F
100
AcDbEntity
  8
0
  6
Continuous
 62
     7
370
    25
100
AcDbLine
 10
82.6919542996
 20
179.0386689012
 30
0.0
 11
929.1564203937
 21
179.0386689012
 31
0.0
  0
SPLINE
  5
580
330
1F
100
AcDbEntity
  8
0
  6
Continuous
 62
     7
370
    25
100
AcDbSpline
210
0.0
220
0.0
230
1.0
 70
     8
 71
     3
 72
    11
 73
     7
 74
     0
 42
0.00000001
 43
0.00000001
 40
0.0
 40
0.0
 40
0.0
 40
0.0
 40
0.28947512983694
 40
0.5792386353629777
 40
0.8690028895772546
 40
1.0
 40
1.0
 40
1.0
 40
1.0
 10
935.1741873466415
 20
174.7886689011563
 30
0.0
 10
934.5931833804229
 20
175.4335368676352
 30
0.0
 10
933.4305966507015
 20
176.7239152193191
 30
0.0
 10
931.6873999596202
 20
178.2563527874513
 30
0.0
 10
930.258849222579
 20
178.9626411887294
 30
0.0
 10
929.4181562755164
 20
179.0206185927512
 30
0.0
 10
929.1564203936753
 20
179.0386689011564
 30
0.0
  0
LINE
  5
581
330
1F
100
AcDbEntity
  8
0
  6
Continuous
 62
     7
370
    25
100
AcDbLine
 10
55.9241873466
 20
58.2386689012
 30
0.0
 11
55.9241873466
 21
46.2386689012
 31
0.0
  0
LINE
  5
582
330
1F
100
AcDbEntity
  8
0
  6
Continuous
 62
     7
370
    25
100
AcDbLine
 10
955.9241873466
 20
46.2386689012
 30
0.0
 11
955.9241873466
 21
58.2386689012
 31
0.0
  0
ARC
  5
583
330
1F
100
AcDbEntity
  8
0
  6
Continuous
 62
     7
370
    25
100
AcDbCircle
 10
484.8170143096
 20
41.3434327564
 30
0.0
 40
11.4326165482731
100
AcDbArc
 50
341.0816364259
 51
22.7581991796
  0
ARC
  5
584
330
1F
100
AcDbEntity
  8
0
  6
Continuous
 62
     7
370
    25
100
AcDbCircle
 10
526.9700450551
 20
41.3400113251
 30
0.0
 40
11.37281884456654
100
AcDbArc
 50
159.9581675297
 51
197.7084809908
  0
LWPOLYLINE
  5
585
330
1F
100
AcDbEntity
  8
0
  6
Continuous
 62
     7
370
    25
100
AcDbPolyline
 90
        9
 70
   128
 43
0.0
 10
504.4241873466
 20
33.2625655336
 10
504.5383680479
 20
33.0199720231
 10
504.8635271749
 20
32.8143111755
 10
505.3501621981
 20
32.6768929904
 10
505.9241873466
 20
32.628638141
 10
506.4982124952
 20
32.6768929904
 10
506.9848475184
 20
32.8143111755
 10
507.3100066454
 20
33.0199720231
 10
507.4241873466
 20
33.2625655336
  0
ARC
  5
586
330
1F
100
AcDbEntity
  8
0
  6
Continuous
 62
     7
370
    25
100
AcDbCircle
 10
505.9241873466
 20
73.35288876
 30
0.0
 40
40.89209773825748
100
AcDbArc
 50
254.9257909362
 51
285.0742090638
  0
LINE
  5
587
330
1F
100
AcDbEntity
  8
0
  6
Continuous
 62
     7
370
    25
100
AcDbLine
 10
504.4241873466
 20
46.2386689012
 30
0.0
 11
504.4241873466
 21
33.2625655336
 31
0.0
  0
LINE
  5
588
330
1F
100
AcDbEntity
  8
0
  6
Continuous
 62
     7
370
    25
100
AcDbLine
 10
507.4241873466
 20
33.2625655336
 30
0.0
 11
507.4241873466
 21
46.2386689012
 31
0.0
  0
ARC
  5
589
330
1F
100
AcDbEntity
  8
0
  6
Continuous
 62
     7
370
    25
100
AcDbCircle
 10
506.4688388954
 20
33.6664518941
 30
0.0
 40
0.9566179765387895
100
AcDbArc
 50
2.9521409374
 51
92.6753367005
  0
ARC
  5
58A
330
1F
100
AcDbEntity
  8
0
  6
Continuous
 62
     7
370
    25
100
AcDbCircle
 10
505.3795357979
 20
33.6664518941
 30
0.0
 40
0.9566179765386676
100
AcDbArc
 50
87.3246632995
 51
177.0478590626
  0
LWPOLYLINE
  5
58B
330
1F
100
AcDbEntity
  8
0
  6
Continuous
 62
     7
370
    25
100
AcDbPolyline
 90
        9
 70
   128
 43
0.0
 10
505.4241873466
 20
34.6220272141
 10
505.4622475804
 20
34.5411627106
 10
505.570633956
 20
34.4726090948
 10
505.7328456305
 20
34.4268030331
 10
505.9241873466
 20
34.4107180833
 10
506.1155290628
 20
34.4268030331
 10
506.2777407372
 20
34.4726090948
 10
506.3861271129
 20
34.5411627106
 10
506.4241873466
 20
34.6220272141
  0
ARC
  5
58C
330
1F
100
AcDbEntity
  8
0
  6
Continuous
 62
     7
370
    25
100
AcDbCircle
 10
516.4580771874
 20
34.934783042
 30
0.0
 40
1.071648496692703
100
AcDbArc
 50
275.4033504145
 51
356.1905476645
  0
ARC
  5
58D
330
1F
100
AcDbEntity
  8
0
  6
Continuous
 62
     7
370
    25
100
AcDbCircle
 10
495.3902975059
 20
34.934783042
 30
0.0
 40
1.071648496692822
100
AcDbArc
 50
183.8094523355
 51
264.5966495855
  0
LINE
  5
58E
330
1F
100
AcDbEntity
  8
0
  6
Continuous
 62
     7
370
    25
100
AcDbLine
 10
494.3066275251
 20
34.5893001039
 30
0.0
 11
494.3034861456
 21
34.6076469826
 31
0.0
  0
LWPOLYLINE
  5
58F
330
1F
100
AcDbEntity
  8
0
  6
Continuous
 62
     7
370
    25
100
AcDbPolyline
 90
        9
 70
   128
 43
0.0
 10
507.4241873466
 20
33.7157194271
 10
507.3100066454
 20
33.4731259166
 10
506.9848475184
 20
33.267465069
 10
506.4982124952
 20
33.130046884
 10
505.9241873466
 20
33.0817920345
 10
505.3501621981
 20
33.130046884
 10
504.8635271749
 20
33.267465069
 10
504.5383680479
 20
33.4731259166
 10
504.4241873466
 20
33.7157194271
  0
ARC
  5
590
330
1F
100
AcDbEntity
  8
0
  6
Continuous
 62
     7
370
    25
100
AcDbCircle
 10
634.8170143096
 20
41.3434327564
 30
0.0
 40
11.43261654827307
100
AcDbArc
 50
341.0816364259
 51
22.7581991796
  0
ARC
  5
591
330
1F
100
AcDbEntity
  8
0
  6
Continuous
 62
     7
370
    25
100
AcDbCircle
 10
676.9700450551
 20
41.3400113251
 30
0.0
 40
11.37281884457054
100
AcDbArc
 50
159.9581675297
 51
197.7084809908
  0
LWPOLYLINE
  5
592
330
1F
100
AcDbEntity
  8
0
  6
Continuous
 62
     7
370
    25
100
AcDbPolyline
 90
        9
 70
   128
 43
0.0
 10
654.4241873466
 20
33.2625655336
 10
654.5383680479
 20
33.0199720231
 10
654.8635271749
 20
32.8143111755
 10
655.3501621981
 20
32.6768929904
 10
655.9241873466
 20
32.6286381409
 10
656.4982124952
 20
32.6768929904
 10
656.9848475184
 20
32.8143111755
 10
657.3100066454
 20
33.0199720231
 10
657.4241873466
 20
33.2625655336
  0
ARC
  5
593
330
1F
100
AcDbEntity
  8
0
  6
Continuous
 62
     7
370
    25
100
AcDbCircle
 10
655.9241873466
 20
73.3528887599
 30
0.0
 40
40.89209773825743
100
AcDbArc
 50
254.9257909362
 51
285.0742090638
  0
LINE
  5
594
330
1F
100
AcDbEntity
  8
0
  6
Continuous
 62
     7
370
    25
100
AcDbLine
 10
654.4241873466
 20
46.2386689012
 30
0.0
 11
654.4241873466
 21
33.2625655336
 31
0.0
  0
LINE
  5
595
330
1F
100
AcDbEntity
  8
0
  6
Continuous
 62
     7
370
    25
100
AcDbLine
 10
657.4241873466
 20
33.2625655336
 30
0.0
 11
657.4241873466
 21
46.2386689012
 31
0.0
  0
ARC
  5
596
330
1F
100
AcDbEntity
  8
0
  6
Continuous
 62
     7
370
    25
100
AcDbCircle
 10
655.3795357979
 20
33.6664518941
 30
0.0
 40
0.9566179765387082
100
AcDbArc
 50
87.3246632995
 51
177.0478590626
  0
ARC
  5
597
330
1F
100
AcDbEntity
  8
0
  6
Continuous
 62
     7
370
    25
100
AcDbCircle
 10
656.4688388954
 20
33.6664518941
 30
0.0
 40
0.9566179765386514
100
AcDbArc
 50
2.9521409374
 51
92.6753367005
  0
LWPOLYLINE
  5
598
330
1F
100
AcDbEntity
  8
0
  6
Continuous
 62
     7
370
    25
100
AcDbPolyline
 90
        9
 70
   128
 43
0.0
 10
655.4241873466
 20
34.6220272141
 10
655.4622475804
 20
34.5411627106
 10
655.570633956
 20
34.4726090947
 10
655.7328456305
 20
34.4268030331
 10
655.9241873466
 20
34.4107180832
 10
656.1155290628
 20
34.4268030331
 10
656.2777407372
 20
34.4726090947
 10
656.3861271129
 20
34.5411627106
 10
656.4241873466
 20
34.6220272141
  0
ARC
  5
599
330
1F
100
AcDbEntity
  8
0
  6
Continuous
 62
     7
370
    25
100
AcDbCircle
 10
666.4580771874
 20
34.934783042
 30
0.0
 40
1.071648496692822
100
AcDbArc
 50
275.4033504145
 51
356.1905476645
  0
ARC
  5
59A
330
1F
100
AcDbEntity
  8
0
  6
Continuous
 62
     7
370
    25
100
AcDbCircle
 10
645.3902975059
 20
34.934783042
 30
0.0
 40
1.071648496692705
100
AcDbArc
 50
183.8094523355
 51
264.5966495855
  0
LINE
  5
59B
330
1F
100
AcDbEntity
  8
0
  6
Continuous
 62
     7
370
    25
100
AcDbLine
 10
644.3066275251
 20
34.5893001039
 30
0.0
 11
644.3034861456
 21
34.6076469826
 31
0.0
  0
LWPOLYLINE
  5
59C
330
1F
100
AcDbEntity
  8
0
  6
Continuous
 62
     7
370
    25
100
AcDbPolyline
 90
        9
 70
   128
 43
0.0
 10
657.4241873466
 20
33.7157194271
 10
657.3100066454
 20
33.4731259166
 10
656.9848475184
 20
33.267465069
 10
656.4982124952
 20
33.1300468839
 10
655.9241873466
 20
33.0817920345
 10
655.3501621981
 20
33.1300468839
 10
654.8635271749
 20
33.267465069
 10
654.5383680479
 20
33.4731259166
 10
654.4241873466
 20
33.7157194271
  0
ARC
  5
59D
330
1F
100
AcDbEntity
  8
0
  6
Continuous
 62
     7
370
    25
100
AcDbCircle
 10
334.8170143096
 20
41.3434327564
 30
0.0
 40
11.43261654827338
100
AcDbArc
 50
341.0816364259
 51
22.7581991796
  0
ARC
  5
59E
330
1F
100
AcDbEntity
  8
0
  6
Continuous
 62
     7
370
    25
100
AcDbCircle
 10
376.9700450551
 20
41.3400113251
 30
0.0
 40
11.37281884457138
100
AcDbArc
 50
159.9581675297
 51
197.7084809908
  0
LWPOLYLINE
  5
59F
330
1F
100
AcDbEntity
  8
0
  6
Continuous
 62
     7
370
    25
100
AcDbPolyline
 90
        9
 70
   128
 43
0.0
 10
354.4241873466
 20
33.2625655336
 10
354.5383680479
 20
33.0199720231
 10
354.8635271749
 20
32.8143111755
 10
355.3501621981
 20
32.6768929904
 10
355.9241873466
 20
32.628638141
 10
356.4982124952
 20
32.6768929904
 10
356.9848475184
 20
32.8143111755
 10
357.3100066454
 20
33.0199720231
 10
357.4241873466
 20
33.2625655336
  0
ARC
  5
5A0
330
1F
100
AcDbEntity
  8
0
  6
Continuous
 62
     7
370
    25
100
AcDbCircle
 10
355.9241873466
 20
73.35288876
 30
0.0
 40
40.8920977382575
100
AcDbArc
 50
254.9257909362
 51
285.0742090638
  0
LINE
  5
5A1
330
1F
100
AcDbEntity
  8
0
  6
Continuous
 62
     7
370
    25
100
AcDbLine
 10
354.4241873466
 20
46.2386689012
 30
0.0
 11
354.4241873466
 21
33.2625655336
 31
0.0
  0
LINE
  5
5A2
330
1F
100
AcDbEntity
  8
0
  6
Continuous
 62
     7
370
    25
100
AcDbLine
 10
357.4241873466
 20
33.2625655336
 30
0.0
 11
357.4241873466
 21
46.2386689012
 31
0.0
  0
ARC
  5
5A3
330
1F
100
AcDbEntity
  8
0
  6
Continuous
 62
     7
370
    25
100
AcDbCircle
 10
355.3795357978
 20
33.6664518941
 30
0.0
 40
0.9566179765386069
100
AcDbArc
 50
87.3246632995
 51
177.0478590626
  0
ARC
  5
5A4
330
1F
100
AcDbEntity
  8
0
  6
Continuous
 62
     7
370
    25
100
AcDbCircle
 10
356.4688388954
 20
33.6664518941
 30
0.0
 40
0.9566179765388467
100
AcDbArc
 50
2.9521409374
 51
92.6753367005
  0
LWPOLYLINE
  5
5A5
330
1F
100
AcDbEntity
  8
0
  6
Continuous
 62
     7
370
    25
100
AcDbPolyline
 90
        9
 70
   128
 43
0.0
 10
355.4241873466
 20
34.6220272141
 10
355.4622475804
 20
34.5411627106
 10
355.570633956
 20
34.4726090948
 10
355.7328456305
 20
34.4268030331
 10
355.9241873466
 20
34.4107180833
 10
356.1155290628
 20
34.4268030331
 10
356.2777407372
 20
34.4726090948
 10
356.3861271129
 20
34.5411627106
 10
356.4241873466
 20
34.6220272141
  0
ARC
  5
5A6
330
1F
100
AcDbEntity
  8
0
  6
Continuous
 62
     7
370
    25
100
AcDbCircle
 10
345.3902975059
 20
34.9347830421
 30
0.0
 40
1.071648496692821
100
AcDbArc
 50
183.8094523355
 51
264.5966495855
  0
ARC
  5
5A7
330
1F
100
AcDbEntity
  8
0
  6
Continuous
 62
     7
370
    25
100
AcDbCircle
 10
366.4580771874
 20
34.9347830421
 30
0.0
 40
1.071648496692845
100
AcDbArc
 50
275.4033504145
 51
356.1905476645
  0
LINE
  5
5A8
330
1F
100
AcDbEntity
  8
0
  6
Continuous
 62
     7
370
    25
100
AcDbLine
 10
344.3066275251
 20
34.5893001039
 30
0.0
 11
344.3034861456
 21
34.6076469826
 31
0.0
  0
LWPOLYLINE
  5
5A9
330
1F
100
AcDbEntity
  8
0
  6
Continuous
 62
     7
370
    25
100
AcDbPolyline
 90
        9
 70
   128
 43
0.0
 10
357.4241873466
 20
33.7157194271
 10
357.3100066454
 20
33.4731259166
 10
356.9848475184
 20
33.267465069
 10
356.4982124952
 20
33.130046884
 10
355.9241873466
 20
33.0817920345
 10
355.3501621981
 20
33.130046884
 10
354.8635271749
 20
33.267465069
 10
354.5383680479
 20
33.4731259166
 10
354.4241873466
 20
33.7157194271
  0
LINE
  5
5AA
330
1F
100
AcDbEntity
  8
0
  6
Continuous
 62
     7
370
    25
100
AcDbLine
 10
240.1241873467
 20
946.2386689012
 30
0.0
 11
240.1241873467
 21
960.0534834112
 31
0.0
  0
LINE
  5
5AB
330
1F
100
AcDbEntity
  8
0
  6
Continuous
 62
     7
370
    25
100
AcDbLine
 10
520.1241873467
 20
960.0534834112
 30
0.0
 11
240.1241873467
 21
960.0534834112
 31
0.0
  0
LINE
  5
5AC
330
1F
100
AcDbEntity
  8
0
  6
Continuous
 62
     7
370
    25
100
AcDbLine
 10
520.1241873467
 20
960.0534834112
 30
0.0
 11
520.1241873467
 21
946.2386689012
 31
0.0
  0
LINE
  5
5AD
330
1F
100
AcDbEntity
  8
0
  6
Continuous
 62
     7
370
    25
100
AcDbLine
 10
520.1241873467
 20
962.1034834112
 30
0.0
 11
520.1241873467
 21
960.0534834112
 31
0.0
  0
LINE
  5
5AE
330
1F
100
AcDbEntity
  8
0
  6
Continuous
 62
     7
370
    25
100
AcDbLine
 10
240.1241873467
 20
960.0534834112
 30
0.0
 11
240.1241873467
 21
962.1034834112
 31
0.0
  0
LINE
  5
5AF
330
1F
100
AcDbEntity
  8
0
  6
Continuous
 62
     7
370
    25
100
AcDbLine
 10
240.1241873467
 20
962.1034834112
 30
0.0
 11
520.1241873467
 21
962.1034834112
 31
0.0
  0
LINE
  5
5B0
330
1F
100
AcDbEntity
  8
0
  6
Continuous
 62
     7
370
    25
100
AcDbLine
 10
953.1241873466
 20
946.2418131306
 30
0.0
 11
953.1241873466
 21
946.2386689012
 31
0.0
  0
LINE
  5
5B1
330
1F
100
AcDbEntity
  8
0
  6
Continuous
 62
     7
370
    25
100
AcDbLine
 10
941.1241873466
 20
946.2418131306
 30
0.0
 11
953.1241873466
 21
946.2418131306
 31
0.0
  0
LINE
  5
5B2
330
1F
100
AcDbEntity
  8
0
  6
Continuous
 62
     7
370
    25
100
AcDbLine
 10
941.1241873466
 20
946.2418131306
 30
0.0
 11
941.0039643479
 21
946.2386689012
 31
0.0
  0
LINE
  5
5B3
330
1F
100
AcDbEntity
  8
0
  6
Continuous
 62
     7
370
    25
100
AcDbLine
 10
58.7241873466
 20
946.2418131306
 30
0.0
 11
58.7241873466
 21
946.2386689012
 31
0.0
  0
LINE
  5
5B4
330
1F
100
AcDbEntity
  8
0
  6
Continuous
 62
     7
370
    25
100
AcDbLine
 10
70.8444103455
 20
946.2386689012
 30
0.0
 11
70.7241873466
 21
946.2418131306
 31
0.0
  0
LINE
  5
5B5
330
1F
100
AcDbEntity
  8
0
  6
Continuous
 62
     7
370
    25
100
AcDbLine
 10
58.7241873466
 20
946.2418131306
 30
0.0
 11
70.7241873466
 21
946.2418131306
 31
0.0
  0
ARC
  5
5B6
330
1F
100
AcDbEntity
  8
0
  6
Continuous
 62
     7
370
    25
100
AcDbCircle
 10
920.4241873466
 20
841.2534834112
 30
0.0
 40
6.399999999999978
100
AcDbArc
 50
245.3077604253
 51
294.6922395747
  0
ARC
  5
5B7
330
1F
100
AcDbEntity
  8
0
  6
Continuous
 62
     7
370
    25
100
AcDbCircle
 10
91.4241873466
 20
841.2534834112
 30
0.0
 40
6.399999999999936
100
AcDbArc
 50
245.3077604254
 51
294.6922395746
  0
LWPOLYLINE
  5
5B8
330
1F
100
AcDbEntity
  8
0
  6
Continuous
 62
     8
370
    25
100
AcDbPolyline
 90
        3
 70
   128
 43
0.0
 10
494.3210167938
 20
34.8635843114
 10
495.166085437
 20
36.459541065
 10
495.6320579825
 20
37.6367426568
  0
LINE
  5
5B9
330
1F
100
AcDbEntity
  8
0
  6
Continuous
 62
     8
370
    25
100
AcDbLine
 10
491.8930215885
 20
46.2386689012
 30
0.0
 11
494.3210167938
 21
34.8635843114
 31
0.0
  0
LINE
  5
5BA
330
1F
100
AcDbEntity
  8
0
  6
Continuous
 62
     8
370
    25
100
AcDbLine
 10
517.5273578995
 20
34.8635843114
 30
0.0
 11
519.9553531048
 21
46.2386689012
 31
0.0
  0
LWPOLYLINE
  5
5BB
330
1F
100
AcDbEntity
  8
0
  6
Continuous
 62
     8
370
    25
100
AcDbPolyline
 90
        3
 70
   128
 43
0.0
 10
516.1361105422
 20
37.8806947104
 10
516.6822892563
 20
36.459541065
 10
517.5273578995
 20
34.8635843114
  0
ARC
  5
5BC
330
1F
100
AcDbEntity
  8
0
  6
Continuous
 62
     8
370
    25
100
AcDbCircle
 10
526.616483136
 20
40.426214751
 30
0.0
 40
12.00686032211036
100
AcDbArc
 50
151.0468413411
 51
213.1076808363
  0
ARC
  5
5BD
330
1F
100
AcDbEntity
  8
0
  6
Continuous
 62
     8
370
    25
100
AcDbCircle
 10
485.2318915573
 20
40.426214751
 30
0.0
 40
12.00686032211008
100
AcDbArc
 50
326.8923191637
 51
28.9531586589
  0
LINE
  5
5BE
330
1F
100
AcDbEntity
  8
0
  6
Continuous
 62
     8
370
    25
100
AcDbLine
 10
506.4241873466
 20
34.6220272141
 30
0.0
 11
506.4241873466
 21
46.2386689012
 31
0.0
  0
LINE
  5
5BF
330
1F
100
AcDbEntity
  8
0
  6
Continuous
 62
     8
370
    25
100
AcDbLine
 10
505.4241873466
 20
46.2386689012
 30
0.0
 11
505.4241873466
 21
34.6220272141
 31
0.0
  0
ARC
  5
5C0
330
1F
100
AcDbEntity
  8
0
  6
Continuous
 62
     8
370
    25
100
AcDbCircle
 10
494.8869831671
 20
34.6962489034
 30
0.0
 40
0.5901856271655638
100
AcDbArc
 50
163.5289925532
 51
188.6342003638
  0
ARC
  5
5C1
330
1F
100
AcDbEntity
  8
0
  6
Continuous
 62
     8
370
    25
100
AcDbCircle
 10
495.0909232967
 20
34.1451403853
 30
0.0
 40
0.3409558327655892
100
AcDbArc
 50
256.6172813918
 51
305.5963972668
  0
ARC
  5
5C2
330
1F
100
AcDbEntity
  8
0
  6
Continuous
 62
     8
370
    25
100
AcDbCircle
 10
516.7574513965
 20
34.1451403853
 30
0.0
 40
0.3409558327655732
100
AcDbArc
 50
234.4036027332
 51
283.3827186082
  0
ARC
  5
5C3
330
1F
100
AcDbEntity
  8
0
  6
Continuous
 62
     8
370
    25
100
AcDbCircle
 10
516.9627677488
 20
34.6964457125
 30
0.0
 40
0.5888101132474587
100
AcDbArc
 50
349.5154887901
 51
16.4906118372
  0
LINE
  5
5C4
330
1F
100
AcDbEntity
  8
0
  6
Continuous
 62
     8
370
    25
100
AcDbLine
 10
491.7896755268
 20
46.1641731461
 30
0.0
 11
491.7773471219
 21
46.2386689012
 31
0.0
  0
LINE
  5
5C5
330
1F
100
AcDbEntity
  8
0
  6
Continuous
 62
     8
370
    25
100
AcDbLine
 10
520.0595607306
 20
46.1678279749
 30
0.0
 11
520.0710275714
 21
46.2386689012
 31
0.0
  0
LWPOLYLINE
  5
5C6
330
1F
100
AcDbEntity
  8
0
  6
Continuous
 62
     8
370
    25
100
AcDbPolyline
 90
        3
 70
   128
 43
0.0
 10
644.3210167938
 20
34.8635843114
 10
645.166085437
 20
36.459541065
 10
645.6320579825
 20
37.6367426568
  0
LINE
  5
5C7
330
1F
100
AcDbEntity
  8
0
  6
Continuous
 62
     8
370
    25
100
AcDbLine
 10
641.8930215885
 20
46.2386689012
 30
0.0
 11
644.3210167938
 21
34.8635843114
 31
0.0
  0
LINE
  5
5C8
330
1F
100
AcDbEntity
  8
0
  6
Continuous
 62
     8
370
    25
100
AcDbLine
 10
667.5273578995
 20
34.8635843114
 30
0.0
 11
669.9553531048
 21
46.2386689012
 31
0.0
  0
LWPOLYLINE
  5
5C9
330
1F
100
AcDbEntity
  8
0
  6
Continuous
 62
     8
370
    25
100
AcDbPolyline
 90
        3
 70
   128
 43
0.0
 10
666.1361105422
 20
37.8806947104
 10
666.6822892563
 20
36.459541065
 10
667.5273578995
 20
34.8635843114
  0
ARC
  5
5CA
330
1F
100
AcDbEntity
  8
0
  6
Continuous
 62
     8
370
    25
100
AcDbCircle
 10
676.616483136
 20
40.426214751
 30
0.0
 40
12.00686032211127
100
AcDbArc
 50
151.046841341
 51
213.1076808363
  0
ARC
  5
5CB
330
1F
100
AcDbEntity
  8
0
  6
Continuous
 62
     8
370
    25
100
AcDbCircle
 10
635.2318915573
 20
40.426214751
 30
0.0
 40
12.0068603221113
100
AcDbArc
 50
326.8923191637
 51
28.953158659
  0
LINE
  5
5CC
330
1F
100
AcDbEntity
  8
0
  6
Continuous
 62
     8
370
    25
100
AcDbLine
 10
655.4241873466
 20
46.2386689012
 30
0.0
 11
655.4241873466
 21
34.6220272141
 31
0.0
  0
LINE
  5
5CD
330
1F
100
AcDbEntity
  8
0
  6
Continuous
 62
     8
370
    25
100
AcDbLine
 10
656.4241873466
 20
34.6220272141
 30
0.0
 11
656.4241873466
 21
46.2386689012
 31
0.0
  0
ARC
  5
5CE
330
1F
100
AcDbEntity
  8
0
  6
Continuous
 62
     8
370
    25
100
AcDbCircle
 10
644.8869831671
 20
34.6962489034
 30
0.0
 40
0.5901856271518289
100
AcDbArc
 50
163.5289925529
 51
188.6342003641
  0
ARC
  5
5CF
330
1F
100
AcDbEntity
  8
0
  6
Continuous
 62
     8
370
    25
100
AcDbCircle
 10
645.0909232967
 20
34.1451403853
 30
0.0
 40
0.3409558327652958
100
AcDbArc
 50
256.6172813918
 51
305.5963972669
  0
ARC
  5
5D0
330
1F
100
AcDbEntity
  8
0
  6
Continuous
 62
     8
370
    25
100
AcDbCircle
 10
666.7574513965
 20
34.1451403853
 30
0.0
 40
0.3409558327654212
100
AcDbArc
 50
234.4036027332
 51
283.3827186082
  0
ARC
  5
5D1
330
1F
100
AcDbEntity
  8
0
  6
Continuous
 62
     8
370
    25
100
AcDbCircle
 10
666.9627677488
 20
34.6964457125
 30
0.0
 40
0.588810113247126
100
AcDbArc
 50
349.5154887901
 51
16.4906118372
  0
LINE
  5
5D2
330
1F
100
AcDbEntity
  8
0
  6
Continuous
 62
     8
370
    25
100
AcDbLine
 10
670.0595607306
 20
46.1678279749
 30
0.0
 11
670.0710275714
 21
46.2386689012
 31
0.0
  0
LINE
  5
5D3
330
1F
100
AcDbEntity
  8
0
  6
Continuous
 62
     8
370
    25
100
AcDbLine
 10
641.7896755268
 20
46.1641731461
 30
0.0
 11
641.7773471219
 21
46.2386689012
 31
0.0
  0
LWPOLYLINE
  5
5D4
330
1F
100
AcDbEntity
  8
0
  6
Continuous
 62
     8
370
    25
100
AcDbPolyline
 90
        3
 70
   128
 43
0.0
 10
344.3210167938
 20
34.8635843114
 10
345.166085437
 20
36.459541065
 10
345.6320579825
 20
37.6367426568
  0
LINE
  5
5D5
330
1F
100
AcDbEntity
  8
0
  6
Continuous
 62
     8
370
    25
100
AcDbLine
 10
341.8930215885
 20
46.2386689012
 30
0.0
 11
344.3210167938
 21
34.8635843114
 31
0.0
  0
LINE
  5
5D6
330
1F
100
AcDbEntity
  8
0
  6
Continuous
 62
     8
370
    25
100
AcDbLine
 10
367.5273578995
 20
34.8635843114
 30
0.0
 11
369.9553531048
 21
46.2386689012
 31
0.0
  0
LWPOLYLINE
  5
5D7
330
1F
100
AcDbEntity
  8
0
  6
Continuous
 62
     8
370
    25
100
AcDbPolyline
 90
        3
 70
   128
 43
0.0
 10
366.1361105422
 20
37.8806947104
 10
366.6822892563
 20
36.459541065
 10
367.5273578995
 20
34.8635843114
  0
ARC
  5
5D8
330
1F
100
AcDbEntity
  8
0
  6
Continuous
 62
     8
370
    25
100
AcDbCircle
 10
376.616483136
 20
40.426214751
 30
0.0
 40
12.00686032211078
100
AcDbArc
 50
151.0468413411
 51
213.1076808363
  0
ARC
  5
5D9
330
1F
100
AcDbEntity
  8
0
  6
Continuous
 62
     8
370
    25
100
AcDbCircle
 10
335.2318915573
 20
40.426214751
 30
0.0
 40
12.0068603221107
100
AcDbArc
 50
326.8923191637
 51
28.9531586589
  0
LINE
  5
5DA
330
1F
100
AcDbEntity
  8
0
  6
Continuous
 62
     8
370
    25
100
AcDbLine
 10
355.4241873466
 20
46.2386689012
 30
0.0
 11
355.4241873466
 21
34.6220272141
 31
0.0
  0
LINE
  5
5DB
330
1F
100
AcDbEntity
  8
0
  6
Continuous
 62
     8
370
    25
100
AcDbLine
 10
356.4241873466
 20
34.6220272141
 30
0.0
 11
356.4241873466
 21
46.2386689012
 31
0.0
  0
ARC
  5
5DC
330
1F
100
AcDbEntity
  8
0
  6
Continuous
 62
     8
370
    25
100
AcDbCircle
 10
344.8869831671
 20
34.6962489034
 30
0.0
 40
0.5901856271625044
100
AcDbArc
 50
163.5289925532
 51
188.6342003639
  0
ARC
  5
5DD
330
1F
100
AcDbEntity
  8
0
  6
Continuous
 62
     8
370
    25
100
AcDbCircle
 10
345.0909232967
 20
34.1451403853
 30
0.0
 40
0.3409558327653127
100
AcDbArc
 50
256.6172813918
 51
305.5963972668
  0
ARC
  5
5DE
330
1F
100
AcDbEntity
  8
0
  6
Continuous
 62
     8
370
    25
100
AcDbCircle
 10
366.7574513965
 20
34.1451403853
 30
0.0
 40
0.3409558327652712
100
AcDbArc
 50
234.4036027332
 51
283.3827186082
  0
ARC
  5
5DF
330
1F
100
AcDbEntity
  8
0
  6
Continuous
 62
     8
370
    25
100
AcDbCircle
 10
366.9627677488
 20
34.6964457125
 30
0.0
 40
0.5888101132481242
100
AcDbArc
 50
349.5154887901
 51
16.4906118372
  0
LINE
  5
5E0
330
1F
100
AcDbEntity
  8
0
  6
Continuous
 62
     8
370
    25
100
AcDbLine
 10
370.0595607306
 20
46.1678279749
 30
0.0
 11
370.0710275714
 21
46.2386689012
 31
0.0
  0
LINE
  5
5E1
330
1F
100
AcDbEntity
  8
0
  6
Continuous
 62
     8
370
    25
100
AcDbLine
 10
341.7896755267
 20
46.1641731461
 30
0.0
 11
341.7773471219
 21
46.2386689012
 31
0.0
  0
LINE
  5
5E2
330
1F
100
AcDbEntity
  8
0
  6
Continuous
 62
     8
370
    25
100
AcDbLine
 10
941.1241873466
 20
946.2386689012
 30
0.0
 11
941.1241873466
 21
946.2418131306
 31
0.0
  0
LINE
  5
5E3
330
1F
100
AcDbEntity
  8
0
  6
Continuous
 62
     8
370
    25
100
AcDbLine
 10
70.7241873466
 20
946.2386689012
 30
0.0
 11
70.7241873466
 21
946.2418131306
 31
0.0
  0
ARC
  5
5E4
330
1F
100
AcDbEntity
  8
0
  6
Continuous
 62
     8
370
    25
100
AcDbCircle
 10
920.4241873466
 20
841.2534834112
 30
0.0
 40
5.899999999999984
100
AcDbArc
 50
260.2519362074
 51
279.7480637926
  0
ARC
  5
5E5
330
1F
100
AcDbEntity
  8
0
  6
Continuous
 62
     8
370
    25
100
AcDbCircle
 10
91.4241873466
 20
841.2534834112
 30
0.0
 40
5.899999999999939
100
AcDbArc
 50
260.2519362076
 51
279.7480637924
  0
ENDSEC
  0
SECTION
  2
OBJECTS
  0
DICTIONARY
  5
C
330
0
100
AcDbDictionary
281
     1
  3
ACAD_GROUP
350
D
  3
ACAD_LAYOUT
350
1A
  3
ACAD_MLINESTYLE
350
17
  3
ACAD_PLOTSETTINGS
350
19
  3
ACAD_PLOTSTYLENAME
350
E
  3
ACAD_SCALELIST
350
47
  3
DWGPROPS
350
5E6
  0
DICTIONARY
  5
D
102
{ACAD_REACTORS
330
C
102
}
330
C
100
AcDbDictionary
281
     1
  0
DICTIONARY
  5
1A
102
{ACAD_REACTORS
330
C
102
}
330
C
100
AcDbDictionary
281
     1
  3
Layout1
350
1E
  3
Layout2
350
26
  3
Model
350
22
  0
DICTIONARY
  5
17
102
{ACAD_REACTORS
330
C
102
}
330
C
100
AcDbDictionary
281
     1
  3
Standard
350
18
  0
DICTIONARY
  5
19
102
{ACAD_REACTORS
330
C
102
}
330
C
100
AcDbDictionary
281
     1
  0
ACDBDICTIONARYWDFLT
  5
E
102
{ACAD_REACTORS
330
C
102
}
330
C
100
AcDbDictionary
281
     1
  3
Normal
350
F
100
AcDbDictionaryWithDefault
340
F
  0
DICTIONARY
  5
47
102
{ACAD_REACTORS
330
C
102
}
330
C
100
AcDbDictionary
281
     1
  3
A0
350
48
  3
A1
350
49
  3
A2
350
4A
  3
A3
350
4B
  3
A4
350
4C
  3
A5
350
4D
  3
A6
350
4E
  3
A7
350
4F
  3
A8
350
50
  3
A9
350
51
  3
B0
350
52
  3
B1
350
53
  3
B2
350
54
  3
B3
350
55
  3
B4
350
56
  3
B5
350
57
  3
B6
350
58
  3
B7
350
59
  3
B8
350
5A
  3
B9
350
5B
  3
C0
350
5C
  3
C1
350
5D
  3
C2
350
5E
  3
C3
350
5F
  3
C4
350
60
  3
C5
350
61
  3
C6
350
62
  3
C7
350
63
  3
C8
350
64
  3
C9
350
65
  3
D0
350
66
  3
D1
350
67
  3
D2
350
68
  0
XRECORD
  5
5E6
102
{ACAD_REACTORS
330
C
102
}
330
C
100
AcDbXrecord
280
     1
  1
DWGPROPS COOKIE
  2

  3

  4

  6

  7

  8
rnd15
  9

300
=
301
=
302
=
303
=
304
=
305
=
306
=
307
=
308
=
309
=
 40
0.0
 41
2459954.631243275
 42
2459954.631243646
  1

 90
        0
  0
LAYOUT
  5
1E
102
{ACAD_REACTORS
330
1A
102
}
330
1A
100
AcDbPlotSettings
  1

  2
none_device
  4

  6

 40
0.0
 41
0.0
 42
0.0
 43
0.0
 44
0.0
 45
0.0
 46
0.0
 47
0.0
 48
0.0
 49
0.0
140
0.0
141
0.0
142
1.0
143
1.0
 70
   688
 72
     1
 73
     0
 74
     5
  7

 75
    16
147
1.0
148
0.0
149
0.0
100
AcDbLayout
  1
Layout1
 70
     1
 71
     1
 10
0.0
 20
0.0
 11
420.0
 21
297.0
 12
0.0
 22
0.0
 32
0.0
 14
1.0000000000E+20
 24
1.0000000000E+20
 34
1.0000000000E+20
 15
-1.0000000000E+20
 25
-1.0000000000E+20
 35
-1.0000000000E+20
146
0.0
 13
0.0
 23
0.0
 33
0.0
 16
1.0
 26
0.0
 36
0.0
 17
0.0
 27
1.0
 37
0.0
 76
     0
330
1B
  0
LAYOUT
  5
26
102
{ACAD_REACTORS
330
1A
102
}
330
1A
100
AcDbPlotSettings
  1

  2
none_device
  4

  6

 40
0.0
 41
0.0
 42
0.0
 43
0.0
 44
0.0
 45
0.0
 46
0.0
 47
0.0
 48
0.0
 49
0.0
140
0.0
141
0.0
142
1.0
143
1.0
 70
   688
 72
     1
 73
     0
 74
     5
  7

 75
    16
147
1.0
148
0.0
149
0.0
100
AcDbLayout
  1
Layout2
 70
     1
 71
     2
 10
0.0
 20
0.0
 11
0.0
 21
0.0
 12
0.0
 22
0.0
 32
0.0
 14
0.0
 24
0.0
 34
0.0
 15
0.0
 25
0.0
 35
0.0
146
0.0
 13
0.0
 23
0.0
 33
0.0
 16
1.0
 26
0.0
 36
0.0
 17
0.0
 27
1.0
 37
0.0
 76
     0
330
23
  0
LAYOUT
  5
22
102
{ACAD_REACTORS
330
1A
102
}
330
1A
100
AcDbPlotSettings
  1

  2
none_device
  4
Letter_(8.50_x_11.00_Inches)
  6

 40
6.35
 41
6.35
 42
6.35000508
 43
6.35000508
 44
215.9
 45
279.4
 46
0.0
 47
0.0
 48
0.0
 49
0.0
140
0.0
141
0.0
142
1.0
143
1.0
 70
  1712
 72
     1
 73
     0
 74
     0
  7

 75
     0
147
1.0
148
0.0
149
0.0
100
AcDbLayout
  1
Model
 70
     1
 71
     0
 10
0.0
 20
0.0
 11
1000.0
 21
1000.0
 12
0.0
 22
0.0
 32
0.0
 14
0.0
 24
0.0
 34
0.0
 15
1000.0
 25
1000.0
 35
0.0
146
0.0
 13
0.0
 23
0.0
 33
0.0
 16
1.0
 26
0.0
 36
0.0
 17
0.0
 27
1.0
 37
0.0
 76
     0
330
1F
331
29
  0
MLINESTYLE
  5
18
102
{ACAD_REACTORS
330
17
102
}
330
17
100
AcDbMlineStyle
  2
Standard
 70
     0
  3

 62
   256
 51
90.0
 52
90.0
 71
     2
 49
0.5
 62
   256
  6
BYLAYER
 49
-0.5
 62
   256
  6
BYLAYER
  0
ACDBPLACEHOLDER
  5
F
102
{ACAD_REACTORS
330
E
102
}
330
E
  0
SCALE
  5
48
102
{ACAD_REACTORS
330
47
102
}
330
47
100
AcDbScale
 70
     0
300
1:1
140
1.0
141
1.0
290
     1
  0
SCALE
  5
49
102
{ACAD_REACTORS
330
47
102
}
330
47
100
AcDbScale
 70
     0
300
1:2
140
1.0
141
2.0
290
     0
  0
SCALE
  5
4A
102
{ACAD_REACTORS
330
47
102
}
330
47
100
AcDbScale
 70
     0
300
1:4
140
1.0
141
4.0
290
     0
  0
SCALE
  5
4B
102
{ACAD_REACTORS
330
47
102
}
330
47
100
AcDbScale
 70
     0
300
1:5
140
1.0
141
5.0
290
     0
  0
SCALE
  5
4C
102
{ACAD_REACTORS
330
47
102
}
330
47
100
AcDbScale
 70
     0
300
1:8
140
1.0
141
8.0
290
     0
  0
SCALE
  5
4D
102
{ACAD_REACTORS
330
47
102
}
330
47
100
AcDbScale
 70
     0
300
1:10
140
1.0
141
10.0
290
     0
  0
SCALE
  5
4E
102
{ACAD_REACTORS
330
47
102
}
330
47
100
AcDbScale
 70
     0
300
1:16
140
1.0
141
16.0
290
     0
  0
SCALE
  5
4F
102
{ACAD_REACTORS
330
47
102
}
330
47
100
AcDbScale
 70
     0
300
1:20
140
1.0
141
20.0
290
     0
  0
SCALE
  5
50
102
{ACAD_REACTORS
330
47
102
}
330
47
100
AcDbScale
 70
     0
300
1:30
140
1.0
141
30.0
290
     0
  0
SCALE
  5
51
102
{ACAD_REACTORS
330
47
102
}
330
47
100
AcDbScale
 70
     0
300
1:40
140
1.0
141
40.0
290
     0
  0
SCALE
  5
52
102
{ACAD_REACTORS
330
47
102
}
330
47
100
AcDbScale
 70
     0
300
1:50
140
1.0
141
50.0
290
     0
  0
SCALE
  5
53
102
{ACAD_REACTORS
330
47
102
}
330
47
100
AcDbScale
 70
     0
300
1:100
140
1.0
141
100.0
290
     0
  0
SCALE
  5
54
102
{ACAD_REACTORS
330
47
102
}
330
47
100
AcDbScale
 70
     0
300
2:1
140
2.0
141
1.0
290
     0
  0
SCALE
  5
55
102
{ACAD_REACTORS
330
47
102
}
330
47
100
AcDbScale
 70
     0
300
4:1
140
4.0
141
1.0
290
     0
  0
SCALE
  5
56
102
{ACAD_REACTORS
330
47
102
}
330
47
100
AcDbScale
 70
     0
300
8:1
140
8.0
141
1.0
290
     0
  0
SCALE
  5
57
102
{ACAD_REACTORS
330
47
102
}
330
47
100
AcDbScale
 70
     0
300
10:1
140
10.0
141
1.0
290
     0
  0
SCALE
  5
58
102
{ACAD_REACTORS
330
47
102
}
330
47
100
AcDbScale
 70
     0
300
100:1
140
100.0
141
1.0
290
     0
  0
SCALE
  5
59
102
{ACAD_REACTORS
330
47
102
}
330
47
100
AcDbScale
 70
     0
300
1/128" = 1'-0"
140
0.0078125
141
12.0
290
     0
  0
SCALE
  5
5A
102
{ACAD_REACTORS
330
47
102
}
330
47
100
AcDbScale
 70
     0
300
1/64" = 1'-0"
140
0.015625
141
12.0
290
     0
  0
SCALE
  5
5B
102
{ACAD_REACTORS
330
47
102
}
330
47
100
AcDbScale
 70
     0
300
1/32" = 1'-0"
140
0.03125
141
12.0
290
     0
  0
SCALE
  5
5C
102
{ACAD_REACTORS
330
47
102
}
330
47
100
AcDbScale
 70
     0
300
1/16" = 1'-0"
140
0.0625
141
12.0
290
     0
  0
SCALE
  5
5D
102
{ACAD_REACTORS
330
47
102
}
330
47
100
AcDbScale
 70
     0
300
3/32" = 1'-0"
140
0.09375
141
12.0
290
     0
  0
SCALE
  5
5E
102
{ACAD_REACTORS
330
47
102
}
330
47
100
AcDbScale
 70
     0
300
1/8" = 1'-0"
140
0.125
141
12.0
290
     0
  0
SCALE
  5
5F
102
{ACAD_REACTORS
330
47
102
}
330
47
100
AcDbScale
 70
     0
300
3/16" = 1'-0"
140
0.1875
141
12.0
290
     0
  0
SCALE
  5
60
102
{ACAD_REACTORS
330
47
102
}
330
47
100
AcDbScale
 70
     0
300
1/4" = 1'-0"
140
0.25
141
12.0
290
     0
  0
SCALE
  5
61
102
{ACAD_REACTORS
330
47
102
}
330
47
100
AcDbScale
 70
     0
300
3/8" = 1'-0"
140
0.375
141
12.0
290
     0
  0
SCALE
  5
62
102
{ACAD_REACTORS
330
47
102
}
330
47
100
AcDbScale
 70
     0
300
1/2" = 1'-0"
140
0.5
141
12.0
290
     0
  0
SCALE
  5
63
102
{ACAD_REACTORS
330
47
102
}
330
47
100
AcDbScale
 70
     0
300
3/4" = 1'-0"
140
0.75
141
12.0
290
     0
  0
SCALE
  5
64
102
{ACAD_REACTORS
330
47
102
}
330
47
100
AcDbScale
 70
     0
300
1" = 1'-0"
140
1.0
141
12.0
290
     0
  0
SCALE
  5
65
102
{ACAD_REACTORS
330
47
102
}
330
47
100
AcDbScale
 70
     0
300
1-1/2" = 1'-0"
140
1.5
141
12.0
290
     0
  0
SCALE
  5
66
102
{ACAD_REACTORS
330
47
102
}
330
47
100
AcDbScale
 70
     0
300
3" = 1'-0"
140
3.0
141
12.0
290
     0
  0
SCALE
  5
67
102
{ACAD_REACTORS
330
47
102
}
330
47
100
AcDbScale
 70
     0
300
6" = 1'-0"
140
6.0
141
12.0
290
     0
  0
SCALE
  5
68
102
{ACAD_REACTORS
330
47
102
}
330
47
100
AcDbScale
 70
     0
300
1'-0" = 1'-0"
140
12.0
141
12.0
290
     0
  0
ENDSEC
  0
EOF
