  0
SECTION
  2
HEADER
  9
$ACADVER
  1
AC1015
  9
$ACADMAINTVER
 70
     6
  9
$DWGCODEPAGE
  3
ANSI_1252
  9
$INSBASE
 10
0.0
 20
0.0
 30
0.0
  9
$EXTMIN
 10
0.0
 20
0.0
 30
0.0
  9
$EXTMAX
 10
1000.0
 20
1000.0
 30
0.0
  9
$LIMMIN
 10
0.0
 20
0.0
  9
$LIMMAX
 10
1000.0
 20
1000.0
  9
$ORTHOMODE
 70
     0
  9
$REGENMODE
 70
     1
  9
$FILLMODE
 70
     1
  9
$QTEXTMODE
 70
     0
  9
$MIRRTEXT
 70
     1
  9
$LTSCALE
 40
1.0
  9
$ATTMODE
 70
     1
  9
$TEXTSIZE
 40
3.5
  9
$TRACEWID
 40
1.0
  9
$TEXTSTYLE
  7
Standard
  9
$CLAYER
  8
0
  9
$CELTYPE
  6
ByLayer
  9
$CECOLOR
 62
   256
  9
$CELTSCALE
 40
1.0
  9
$DISPSILH
 70
     0
  9
$DIMSCALE
 40
1.0
  9
$DIMASZ
 40
3.302
  9
$DIMEXO
 40
1.0
  9
$DIMDLI
 40
3.75
  9
$DIMRND
 40
0.0
  9
$DIMDLE
 40
0.0
  9
$DIMEXE
 40
1.0
  9
$DIMTP
 40
0.0
  9
$DIMTM
 40
0.0
  9
$DIMTXT
 40
3.5
  9
$DIMCEN
 40
2.5
  9
$DIMTSZ
 40
0.0
  9
$DIMTOL
 70
     0
  9
$DIMLIM
 70
     0
  9
$DIMTIH
 70
     1
  9
$DIMTOH
 70
     1
  9
$DIMSE1
 70
     0
  9
$DIMSE2
 70
     0
  9
$DIMTAD
 70
     1
  9
$DIMZIN
 70
     0
  9
$DIMBLK
  1

  9
$DIMASO
 70
     1
  9
$DIMSHO
 70
     1
  9
$DIMPOST
  1

  9
$DIMAPOST
  1

  9
$DIMALT
 70
     0
  9
$DIMALTD
 70
     3
  9
$DIMALTF
 40
0.0393700787
  9
$DIMLFAC
 40
1.0
  9
$DIMTOFL
 70
     1
  9
$DIMTVP
 40
0.0
  9
$DIMTIX
 70
     0
  9
$DIMSOXD
 70
     0
  9
$DIMSAH
 70
     0
  9
$DIMBLK1
  1

  9
$DIMBLK2
  1

  9
$DIMSTYLE
  2
ISO-25
  9
$DIMCLRD
 70
     0
  9
$DIMCLRE
 70
     0
  9
$DIMCLRT
 70
     0
  9
$DIMTFAC
 40
1.0
  9
$DIMGAP
 40
1.524
  9
$DIMJUST
 70
     0
  9
$DIMSD1
 70
     0
  9
$DIMSD2
 70
     0
  9
$DIMTOLJ
 70
     0
  9
$DIMTZIN
 70
     0
  9
$DIMALTZ
 70
     0
  9
$DIMALTTZ
 70
     0
  9
$DIMUPT
 70
     0
  9
$DIMDEC
 70
     1
  9
$DIMTDEC
 70
     1
  9
$DIMALTU
 70
     2
  9
$DIMALTTD
 70
     3
  9
$DIMTXSTY
  7
Standard
  9
$DIMAUNIT
 70
     0
  9
$DIMADEC
 70
     1
  9
$DIMALTRND
 40
0.0
  9
$DIMAZIN
 70
     0
  9
$DIMDSEP
 70
    44
  9
$DIMATFIT
 70
     3
  9
$DIMFRAC
 70
     0
  9
$DIMLDRBLK
  1

  9
$DIMLUNIT
 70
     2
  9
$DIMLWD
 70
    -2
  9
$DIMLWE
 70
    -2
  9
$DIMTMOVE
 70
     0
  9
$LUNITS
 70
     2
  9
$LUPREC
 70
     1
  9
$SKETCHINC
 40
1.0
  9
$FILLETRAD
 40
10.0
  9
$AUNITS
 70
     0
  9
$AUPREC
 70
     1
  9
$MENU
  1
.
  9
$ELEVATION
 40
0.0
  9
$PELEVATION
 40
0.0
  9
$THICKNESS
 40
0.0
  9
$LIMCHECK
 70
     0
  9
$CHAMFERA
 40
10.0
  9
$CHAMFERB
 40
10.0
  9
$CHAMFERC
 40
20.0
  9
$CHAMFERD
 40
0.0
  9
$SKPOLY
 70
     0
  9
$TDCREATE
 40
2457072.309394861
  9
$TDUCREATE
 40
2457072.309394861
  9
$TDUPDATE
 40
2457072.309397199
  9
$TDUUPDATE
 40
2457072.309397199
  9
$TDINDWG
 40
0.0000000116
  9
$TDUSRTIMER
 40
0.0000000116
  9
$USRTIMER
 70
     1
  9
$ANGBASE
 50
0.0
  9
$ANGDIR
 70
     0
  9
$PDMODE
 70
     0
  9
$PDSIZE
 40
-1.0
  9
$PLINEWID
 40
0.0
  9
$SPLFRAME
 70
     0
  9
$SPLINETYPE
 70
     6
  9
$SPLINESEGS
 70
     8
  9
$HANDSEED
  5
338
  9
$SURFTAB1
 70
     6
  9
$SURFTAB2
 70
     6
  9
$SURFTYPE
 70
     6
  9
$SURFU
 70
     6
  9
$SURFV
 70
     6
  9
$UCSBASE
  2

  9
$UCSNAME
  2

  9
$UCSORG
 10
0.0
 20
0.0
 30
0.0
  9
$UCSXDIR
 10
1.0
 20
0.0
 30
0.0
  9
$UCSYDIR
 10
0.0
 20
1.0
 30
0.0
  9
$UCSORTHOREF
  2

  9
$UCSORTHOVIEW
 70
     0
  9
$UCSORGTOP
 10
0.0
 20
0.0
 30
0.0
  9
$UCSORGBOTTOM
 10
0.0
 20
0.0
 30
0.0
  9
$UCSORGLEFT
 10
0.0
 20
0.0
 30
0.0
  9
$UCSORGRIGHT
 10
0.0
 20
0.0
 30
0.0
  9
$UCSORGFRONT
 10
0.0
 20
0.0
 30
0.0
  9
$UCSORGBACK
 10
0.0
 20
0.0
 30
0.0
  9
$PUCSBASE
  2

  9
$PUCSNAME
  2

  9
$PUCSORG
 10
0.0
 20
0.0
 30
0.0
  9
$PUCSXDIR
 10
1.0
 20
0.0
 30
0.0
  9
$PUCSYDIR
 10
0.0
 20
1.0
 30
0.0
  9
$PUCSORTHOREF
  2

  9
$PUCSORTHOVIEW
 70
     0
  9
$PUCSORGTOP
 10
0.0
 20
0.0
 30
0.0
  9
$PUCSORGBOTTOM
 10
0.0
 20
0.0
 30
0.0
  9
$PUCSORGLEFT
 10
0.0
 20
0.0
 30
0.0
  9
$PUCSORGRIGHT
 10
0.0
 20
0.0
 30
0.0
  9
$PUCSORGFRONT
 10
0.0
 20
0.0
 30
0.0
  9
$PUCSORGBACK
 10
0.0
 20
0.0
 30
0.0
  9
$USERI1
 70
     0
  9
$USERI2
 70
     0
  9
$USERI3
 70
     0
  9
$USERI4
 70
     0
  9
$USERI5
 70
     0
  9
$USERR1
 40
0.0
  9
$USERR2
 40
0.0
  9
$USERR3
 40
0.0
  9
$USERR4
 40
0.0
  9
$USERR5
 40
0.0
  9
$WORLDVIEW
 70
     1
  9
$SHADEDGE
 70
     3
  9
$SHADEDIF
 70
    70
  9
$TILEMODE
 70
     1
  9
$MAXACTVP
 70
    64
  9
$PINSBASE
 10
0.0
 20
0.0
 30
0.0
  9
$PLIMCHECK
 70
     0
  9
$PEXTMIN
 10
1.0000000000E+20
 20
1.0000000000E+20
 30
1.0000000000E+20
  9
$PEXTMAX
 10
-1.0000000000E+20
 20
-1.0000000000E+20
 30
-1.0000000000E+20
  9
$PLIMMIN
 10
0.0
 20
0.0
  9
$PLIMMAX
 10
420.0
 20
297.0
  9
$UNITMODE
 70
     0
  9
$VISRETAIN
 70
     1
  9
$PLINEGEN
 70
     0
  9
$PSLTSCALE
 70
     1
  9
$TREEDEPTH
 70
  3020
  9
$CMLSTYLE
  2
Standard
  9
$CMLJUST
 70
     0
  9
$CMLSCALE
 40
20.0
  9
$PROXYGRAPHICS
 70
     1
  9
$MEASUREMENT
 70
     1
  9
$CELWEIGHT
370
    -1
  9
$ENDCAPS
280
     0
  9
$JOINSTYLE
280
     0
  9
$LWDISPLAY
290
     1
  9
$INSUNITS
 70
     4
  9
$HYPERLINKBASE
  1

  9
$STYLESHEET
  1

  9
$XEDIT
290
     1
  9
$CEPSNTYPE
380
     0
  9
$PSTYLEMODE
290
     1
  9
$FINGERPRINTGUID
  2
{3411C75F-CA26-4199-80A1-A6B3210A4EC4}
  9
$VERSIONGUID
  2
{FAEB1C32-E019-11D5-929B-00C0DF256EC4}
  9
$EXTNAMES
290
     1
  9
$PSVPSCALE
 40
0.0
  9
$OLESTARTUP
290
     0
  0
ENDSEC
  0
SECTION
  2
CLASSES
  0
CLASS
  1
ACDBDICTIONARYWDFLT
  2
AcDbDictionaryWithDefault
  3
ObjectDBX Classes
 90
        0
280
     0
281
     0
  0
CLASS
  1
VISUALSTYLE
  2
AcDbVisualStyle
  3
ObjectDBX Classes
 90
     4095
280
     0
281
     0
  0
CLASS
  1
MATERIAL
  2
AcDbMaterial
  3
ObjectDBX Classes
 90
     1153
280
     0
281
     0
  0
CLASS
  1
ACDBPLACEHOLDER
  2
AcDbPlaceHolder
  3
ObjectDBX Classes
 90
        0
280
     0
281
     0
  0
CLASS
  1
LAYOUT
  2
AcDbLayout
  3
ObjectDBX Classes
 90
        0
280
     0
281
     0
  0
ENDSEC
  0
SECTION
  2
TABLES
  0
TABLE
  2
VPORT
  5
8
330
0
100
AcDbSymbolTable
 70
     1
  0
VPORT
  5
29
330
8
100
AcDbSymbolTableRecord
100
AcDbViewportTableRecord
  2
*Active
 70
     0
 10
0.0
 20
0.0
 11
1.0
 21
1.0
 12
500.0
 22
500.0
 13
0.0
 23
0.0
 14
10.0
 24
10.0
 15
10.0
 25
10.0
 16
0.0
 26
0.0
 36
1.0
 17
0.0
 27
0.0
 37
0.0
 40
1000.0
 41
1.0
 42
50.0
 43
0.0
 44
0.0
 50
0.0
 51
0.0
 71
     0
 72
  2000
 73
     1
 74
     3
 75
     0
 76
     0
 77
     0
 78
     0
281
     0
 65
     1
110
0.0
120
0.0
130
0.0
111
1.0
121
0.0
131
0.0
112
0.0
122
1.0
132
0.0
 79
     0
146
0.0
  0
ENDTAB
  0
TABLE
  2
LTYPE
  5
5
330
0
100
AcDbSymbolTable
 70
     6
  0
LTYPE
  5
14
330
5
100
AcDbSymbolTableRecord
100
AcDbLinetypeTableRecord
  2
ByBlock
 70
     0
  3

 72
    65
 73
     0
 40
0.0
  0
LTYPE
  5
15
330
5
100
AcDbSymbolTableRecord
100
AcDbLinetypeTableRecord
  2
ByLayer
 70
     0
  3

 72
    65
 73
     0
 40
0.0
  0
LTYPE
  5
16
330
5
100
AcDbSymbolTableRecord
100
AcDbLinetypeTableRecord
  2
Continuous
 70
     0
  3
Solid line
 72
    65
 73
     0
 40
0.0
  0
LTYPE
  5
3F
330
5
100
AcDbSymbolTableRecord
100
AcDbLinetypeTableRecord
  2
HIDDEN
 70
     0
  3
Hidden __ __ __ __ __ __ __ __ __ __ __ __ __ __
 72
    65
 73
     2
 40
1.905
 49
1.27
 74
     0
 49
-0.635
 74
     0
  0
LTYPE
  5
40
330
5
100
AcDbSymbolTableRecord
100
AcDbLinetypeTableRecord
  2
PHANTOM
 70
     0
  3
Phantom ______  __  __  ______  __  __  ______
 72
    65
 73
     6
 40
12.7
 49
6.35
 74
     0
 49
-1.27
 74
     0
 49
1.27
 74
     0
 49
-1.27
 74
     0
 49
1.27
 74
     0
 49
-1.27
 74
     0
  0
LTYPE
  5
41
330
5
100
AcDbSymbolTableRecord
100
AcDbLinetypeTableRecord
  2
CENTER
 70
     0
  3
Center ____ _ ____ _ ____ _ ____ _ ____ _ ____
 72
    65
 73
     4
 40
10.16
 49
6.35
 74
     0
 49
-1.27
 74
     0
 49
1.27
 74
     0
 49
-1.27
 74
     0
  0
LTYPE
  5
42
330
5
100
AcDbSymbolTableRecord
100
AcDbLinetypeTableRecord
  2
CENTERX2
 70
     0
  3
Center (2x) ________  __  ________  __  _____
 72
    65
 73
     4
 40
20.32
 49
12.7
 74
     0
 49
-2.54
 74
     0
 49
2.54
 74
     0
 49
-2.54
 74
     0
  0
LTYPE
  5
43
330
5
100
AcDbSymbolTableRecord
100
AcDbLinetypeTableRecord
  2
DOT2
 70
     0
  3
Dot (.5x) ........................................
 72
    65
 73
     2
 40
0.635
 49
0.0
 74
     0
 49
-0.635
 74
     0
  0
ENDTAB
  0
TABLE
  2
LAYER
  5
2
330
0
100
AcDbSymbolTable
 70
     1
  0
LAYER
  5
10
330
2
100
AcDbSymbolTableRecord
100
AcDbLayerTableRecord
  2
0
 70
     0
 62
     7
  6
Continuous
370
    -3
390
F
  0
ENDTAB
  0
TABLE
  2
STYLE
  5
3
330
0
100
AcDbSymbolTable
 70
     1
  0
STYLE
  5
11
330
3
100
AcDbSymbolTableRecord
100
AcDbTextStyleTableRecord
  2
Standard
 70
     0
 40
0.0
 41
1.0
 50
0.0
 71
     0
 42
3.5
  3
txt
  4

  0
ENDTAB
  0
TABLE
  2
VIEW
  5
6
330
0
100
AcDbSymbolTable
 70
     0
  0
ENDTAB
  0
TABLE
  2
UCS
  5
7
330
0
100
AcDbSymbolTable
 70
     0
  0
ENDTAB
  0
TABLE
  2
APPID
  5
9
330
0
100
AcDbSymbolTable
 70
     1
  0
APPID
  5
12
330
9
100
AcDbSymbolTableRecord
100
AcDbRegAppTableRecord
  2
ACAD
 70
     0
  0
ENDTAB
  0
TABLE
  2
DIMSTYLE
  5
A
330
0
100
AcDbSymbolTable
 70
     1
100
AcDbDimStyleTable
  0
DIMSTYLE
105
27
330
A
100
AcDbSymbolTableRecord
100
AcDbDimStyleTableRecord
  2
ISO-25
 70
     0
 41
2.5
 42
0.625
 43
3.75
 44
1.25
 73
     0
 74
     0
 77
     1
 78
     8
140
2.5
141
2.5
143
0.0393700787
147
0.625
171
     3
172
     1
178
     0
271
     2
272
     2
274
     3
278
    44
283
     0
284
     8
340
11
  0
ENDTAB
  0
TABLE
  2
BLOCK_RECORD
  5
1
330
0
100
AcDbSymbolTable
 70
     1
  0
BLOCK_RECORD
  5
1F
330
1
100
AcDbSymbolTableRecord
100
AcDbBlockTableRecord
  2
*Model_Space
340
22
  0
BLOCK_RECORD
  5
1B
330
1
100
AcDbSymbolTableRecord
100
AcDbBlockTableRecord
  2
*Paper_Space
340
1E
  0
BLOCK_RECORD
  5
23
330
1
100
AcDbSymbolTableRecord
100
AcDbBlockTableRecord
  2
*Paper_Space0
340
26
  0
ENDTAB
  0
ENDSEC
  0
SECTION
  2
BLOCKS
  0
BLOCK
  5
20
330
1F
100
AcDbEntity
  8
0
100
AcDbBlockBegin
  2
*Model_Space
 70
     0
 10
0.0
 20
0.0
 30
0.0
  3
*Model_Space
  1

  0
ENDBLK
  5
21
330
1F
100
AcDbEntity
  8
0
100
AcDbBlockEnd
  0
BLOCK
  5
1C
330
1B
100
AcDbEntity
 67
     1
  8
0
100
AcDbBlockBegin
  2
*Paper_Space
 70
     0
 10
0.0
 20
0.0
 30
0.0
  3
*Paper_Space
  1

  0
ENDBLK
  5
1D
330
1B
100
AcDbEntity
 67
     1
  8
0
100
AcDbBlockEnd
  0
BLOCK
  5
24
330
23
100
AcDbEntity
  8
0
100
AcDbBlockBegin
  2
*Paper_Space0
 70
     0
 10
0.0
 20
0.0
 30
0.0
  3
*Paper_Space0
  1

  0
ENDBLK
  5
25
330
23
100
AcDbEntity
  8
0
100
AcDbBlockEnd
  0
ENDSEC
  0
SECTION
  2
ENTITIES
  0
ARC
  5
44
330
1F
100
AcDbEntity
  8
0
  6
Continuous
 62
     7
370
    15
100
AcDbCircle
 10
197.4802414954
 20
19.9433075909
 30
0.0
 40
2.000000000000004
100
AcDbArc
 50
270.0
 51
0.0
  0
ARC
  5
45
330
1F
100
AcDbEntity
  8
0
  6
Continuous
 62
     7
370
    15
100
AcDbCircle
 10
144.4802414954
 20
19.9433075909
 30
0.0
 40
2.000000000000004
100
AcDbArc
 50
180.0
 51
270.0
  0
LINE
  5
46
330
1F
100
AcDbEntity
  8
0
  6
Continuous
 62
     7
370
    15
100
AcDbLine
 10
199.4802416303
 20
19.9432886646
 30
0.0
 11
199.4802416303
 21
23.9432967709
 31
0.0
  0
LINE
  5
47
330
1F
100
AcDbEntity
  8
0
  6
Continuous
 62
     7
370
    15
100
AcDbLine
 10
142.4802304246
 20
23.9432967709
 30
0.0
 11
142.4802304246
 21
19.9432886646
 31
0.0
  0
LINE
  5
48
330
1F
100
AcDbEntity
  8
0
  6
Continuous
 62
     7
370
    15
100
AcDbLine
 10
778.4802378156
 20
19.9432886646
 30
0.0
 11
778.4802378156
 21
23.9432967709
 31
0.0
  0
LINE
  5
49
330
1F
100
AcDbEntity
  8
0
  6
Continuous
 62
     7
370
    15
100
AcDbLine
 10
721.4802266099
 20
23.9432967709
 30
0.0
 11
721.4802266099
 21
19.9432886646
 31
0.0
  0
ARC
  5
4A
330
1F
100
AcDbEntity
  8
0
  6
Continuous
 62
     7
370
    15
100
AcDbCircle
 10
776.4802414954
 20
19.9433075909
 30
0.0
 40
2.000000000000004
100
AcDbArc
 50
270.0
 51
0.0
  0
ARC
  5
4B
330
1F
100
AcDbEntity
  8
0
  6
Continuous
 62
     7
370
    15
100
AcDbCircle
 10
723.4802414954
 20
19.9433075909
 30
0.0
 40
2.000000000000004
100
AcDbArc
 50
180.0
 51
270.0
  0
LINE
  5
4C
330
1F
100
AcDbEntity
  8
0
  6
Continuous
 62
     7
370
    15
100
AcDbLine
 10
199.2802382447
 20
23.9432967709
 30
0.0
 11
199.2802382447
 21
91.9433153675
 31
0.0
  0
LINE
  5
4D
330
1F
100
AcDbEntity
  8
0
  6
Continuous
 62
     7
370
    15
100
AcDbLine
 10
142.6802338101
 20
91.9433153675
 30
0.0
 11
142.6802338101
 21
23.9432967709
 31
0.0
  0
LINE
  5
4E
330
1F
100
AcDbEntity
  8
0
  6
Continuous
 62
     7
370
    15
100
AcDbLine
 10
778.28023443
 20
23.9432967709
 30
0.0
 11
778.28023443
 21
91.9433153675
 31
0.0
  0
LINE
  5
4F
330
1F
100
AcDbEntity
  8
0
  6
Continuous
 62
     7
370
    15
100
AcDbLine
 10
721.6802299954
 20
91.9433153675
 30
0.0
 11
721.6802299954
 21
23.9432967709
 31
0.0
  0
ARC
  5
50
330
1F
100
AcDbEntity
  8
0
  6
Continuous
 62
     7
370
    15
100
AcDbCircle
 10
204.3802414954
 20
184.4433075909
 30
0.0
 40
1.5
100
AcDbArc
 50
90.0
 51
180.0
  0
ARC
  5
51
330
1F
100
AcDbEntity
  8
0
  6
Continuous
 62
     7
370
    15
100
AcDbCircle
 10
137.5802414954
 20
184.4433075909
 30
0.0
 40
1.5
100
AcDbArc
 50
0.0
 51
90.0
  0
LINE
  5
52
330
1F
100
AcDbEntity
  8
0
  6
Continuous
 62
     7
370
    15
100
AcDbLine
 10
202.8802395799
 20
97.9759014652
 30
0.0
 11
202.8802395799
 21
184.4433165596
 31
0.0
  0
LINE
  5
53
330
1F
100
AcDbEntity
  8
0
  6
Continuous
 62
     7
370
    15
100
AcDbLine
 10
139.080232475
 20
184.4433165596
 30
0.0
 11
139.080232475
 21
97.9759014652
 31
0.0
  0
ARC
  5
54
330
1F
100
AcDbEntity
  8
0
  6
Continuous
 62
     7
370
    15
100
AcDbCircle
 10
198.1802414954
 20
97.9758735366
 30
0.0
 40
4.699999999999975
100
AcDbArc
 50
350.5402980318
 51
0.0
  0
ARC
  5
55
330
1F
100
AcDbEntity
  8
0
  6
Continuous
 62
     7
370
    15
100
AcDbCircle
 10
143.7802414954
 20
97.9758735366
 30
0.0
 40
4.700000000000003
100
AcDbArc
 50
180.0
 51
189.4597019682
  0
LINE
  5
56
330
1F
100
AcDbEntity
  8
0
  6
Continuous
 62
     7
370
    15
100
AcDbLine
 10
139.1441584565
 20
97.2034252689
 30
0.0
 11
140.0205851533
 21
91.9433153675
 31
0.0
  0
LINE
  5
57
330
1F
100
AcDbEntity
  8
0
  6
Continuous
 62
     7
370
    15
100
AcDbLine
 10
201.9398869016
 20
91.9433153675
 30
0.0
 11
202.8163135983
 21
97.2034252689
 31
0.0
  0
ARC
  5
58
330
1F
100
AcDbEntity
  8
0
  6
Continuous
 62
     7
370
    15
100
AcDbCircle
 10
783.3802414954
 20
184.4433075909
 30
0.0
 40
1.5
100
AcDbArc
 50
90.0
 51
180.0
  0
ARC
  5
59
330
1F
100
AcDbEntity
  8
0
  6
Continuous
 62
     7
370
    15
100
AcDbCircle
 10
716.5802414954
 20
184.4433075909
 30
0.0
 40
1.5
100
AcDbArc
 50
0.0
 51
90.0
  0
LINE
  5
5A
330
1F
100
AcDbEntity
  8
0
  6
Continuous
 62
     7
370
    15
100
AcDbLine
 10
781.8802357652
 20
97.9759014652
 30
0.0
 11
781.8802357652
 21
184.4433165596
 31
0.0
  0
LINE
  5
5B
330
1F
100
AcDbEntity
  8
0
  6
Continuous
 62
     7
370
    15
100
AcDbLine
 10
718.0802286603
 20
184.4433165596
 30
0.0
 11
718.0802286603
 21
97.9759014652
 31
0.0
  0
ARC
  5
5C
330
1F
100
AcDbEntity
  8
0
  6
Continuous
 62
     7
370
    15
100
AcDbCircle
 10
777.1802414954
 20
97.9758735366
 30
0.0
 40
4.700000000000045
100
AcDbArc
 50
350.5402980318
 51
0.0
  0
ARC
  5
5D
330
1F
100
AcDbEntity
  8
0
  6
Continuous
 62
     7
370
    15
100
AcDbCircle
 10
722.7802414954
 20
97.9758735366
 30
0.0
 40
4.700000000000045
100
AcDbArc
 50
180.0
 51
189.4597019682
  0
LINE
  5
5E
330
1F
100
AcDbEntity
  8
0
  6
Continuous
 62
     7
370
    15
100
AcDbLine
 10
718.1441546418
 20
97.2034252689
 30
0.0
 11
719.0205813386
 21
91.9433153675
 31
0.0
  0
LINE
  5
5F
330
1F
100
AcDbEntity
  8
0
  6
Continuous
 62
     7
370
    15
100
AcDbLine
 10
780.9398830869
 20
91.9433153675
 30
0.0
 11
781.816339586
 21
97.2034252689
 31
0.0
  0
ARC
  5
60
330
1F
100
AcDbEntity
  8
0
  6
Continuous
 62
     7
370
    15
100
AcDbCircle
 10
61.6302414954
 20
641.8433075909
 30
0.0
 40
5.0
100
AcDbArc
 50
180.0
 51
270.0
  0
ARC
  5
61
330
1F
100
AcDbEntity
  8
0
  6
Continuous
 62
     7
370
    15
100
AcDbCircle
 10
81.3302414954
 20
641.8433075909
 30
0.0
 40
5.0
100
AcDbArc
 50
270.0
 51
0.0
  0
LINE
  5
62
330
1F
100
AcDbEntity
  8
0
  6
Continuous
 62
     7
370
    15
100
AcDbLine
 10
56.6302300431
 20
657.3433067159
 30
0.0
 11
56.6302300431
 21
654.9433070676
 31
0.0
  0
LINE
  5
63
330
1F
100
AcDbEntity
  8
0
  6
Continuous
 62
     7
370
    15
100
AcDbLine
 10
86.3302410581
 20
654.9433070676
 30
0.0
 11
86.3302410581
 21
657.3433067159
 31
0.0
  0
LINE
  5
64
330
1F
100
AcDbEntity
  8
0
  6
Continuous
 62
     7
370
    15
100
AcDbLine
 10
56.6302300431
 20
651.0433081047
 30
0.0
 11
56.6302300431
 21
641.8433069692
 31
0.0
  0
LINE
  5
65
330
1F
100
AcDbEntity
  8
0
  6
Continuous
 62
     7
370
    15
100
AcDbLine
 10
86.3302410581
 20
641.8433069692
 30
0.0
 11
86.3302410581
 21
651.0433081047
 31
0.0
  0
LINE
  5
66
330
1F
100
AcDbEntity
  8
0
  6
Continuous
 62
     7
370
    15
100
AcDbLine
 10
85.4802490212
 20
657.3433067159
 30
0.0
 11
85.4802490212
 21
662.8433076174
 31
0.0
  0
LINE
  5
67
330
1F
100
AcDbEntity
  8
0
  6
Continuous
 62
     7
370
    15
100
AcDbLine
 10
57.4802518823
 20
662.8433076174
 30
0.0
 11
57.4802518823
 21
657.3433067159
 31
0.0
  0
LINE
  5
68
330
1F
100
AcDbEntity
  8
0
  6
Continuous
 62
     7
370
    15
100
AcDbLine
 10
84.4802320935
 20
662.8433076174
 30
0.0
 11
84.4802320935
 21
664.8433079452
 31
0.0
  0
LINE
  5
69
330
1F
100
AcDbEntity
  8
0
  6
Continuous
 62
     7
370
    15
100
AcDbLine
 10
58.4802390077
 20
664.8433079452
 30
0.0
 11
58.4802390077
 21
662.8433076174
 31
0.0
  0
LINE
  5
6A
330
1F
100
AcDbEntity
  8
0
  6
Continuous
 62
     7
370
    15
100
AcDbLine
 10
88.2302285172
 20
664.8433079452
 30
0.0
 11
88.2302285172
 21
668.0433076316
 31
0.0
  0
LINE
  5
6B
330
1F
100
AcDbEntity
  8
0
  6
Continuous
 62
     7
370
    15
100
AcDbLine
 10
54.7302425839
 20
668.0433076316
 30
0.0
 11
54.7302425839
 21
664.8433079452
 31
0.0
  0
LINE
  5
6C
330
1F
100
AcDbEntity
  8
0
  6
Continuous
 62
     7
370
    15
100
AcDbLine
 10
920.3222454526
 20
759.4120047496
 30
0.0
 11
927.6948333718
 21
767.2634191321
 31
0.0
  0
LINE
  5
6D
330
1F
100
AcDbEntity
  8
0
  6
Continuous
 62
     7
370
    15
100
AcDbLine
 10
903.6055863835
 20
818.922958474
 30
0.0
 11
892.8520441987
 21
818.3220095442
 31
0.0
  0
LINE
  5
6E
330
1F
100
AcDbEntity
  8
0
  6
Continuous
 62
     7
370
    15
100
AcDbLine
 10
904.1055501439
 20
818.9297087
 30
0.0
 11
903.6055863835
 21
818.922958474
 31
0.0
  0
LINE
  5
6F
330
1F
100
AcDbEntity
  8
0
  6
Continuous
 62
     7
370
    15
100
AcDbLine
 10
927.6948333718
 20
767.2634191321
 30
0.0
 11
941.5951729753
 21
783.3828918145
 31
0.0
  0
ARC
  5
70
330
1F
100
AcDbEntity
  8
0
  6
Continuous
 62
     7
370
    15
100
AcDbCircle
 10
940.8378667456
 20
784.0359438516
 30
0.0
 40
1.000000000000013
100
AcDbArc
 50
319.227745318
 51
25.0
  0
LINE
  5
71
330
1F
100
AcDbEntity
  8
0
  6
Continuous
 62
     7
370
    15
100
AcDbLine
 10
919.5242882707
 20
747.399277191
 30
0.0
 11
919.5030392148
 21
747.3893679188
 31
0.0
  0
LINE
  5
72
330
1F
100
AcDbEntity
  8
0
  6
Continuous
 62
     7
370
    15
100
AcDbLine
 10
929.5257986524
 20
727.8439133869
 30
0.0
 11
929.9678863027
 21
728.0789717541
 31
0.0
  0
LINE
  5
73
330
1F
100
AcDbEntity
  8
0
  6
Continuous
 62
     7
370
    15
100
AcDbLine
 10
911.2726510503
 20
765.0949350999
 30
0.0
 11
911.2514019944
 21
765.0850258277
 31
0.0
  0
LINE
  5
74
330
1F
100
AcDbEntity
  8
0
  6
Continuous
 62
     7
370
    15
100
AcDbLine
 10
914.6112264134
 20
757.8798822568
 30
0.0
 11
914.6324754693
 21
757.8897840784
 31
0.0
  0
LINE
  5
75
330
1F
100
AcDbEntity
  8
0
  6
Continuous
 62
     7
370
    15
100
AcDbLine
 10
886.9403065183
 20
817.2203815983
 30
0.0
 11
886.9615257718
 21
817.2302908705
 31
0.0
  0
LINE
  5
76
330
1F
100
AcDbEntity
  8
0
  6
Continuous
 62
     7
370
    15
100
AcDbLine
 10
881.8901241757
 20
828.1059778736
 30
0.0
 11
881.8688751199
 21
828.0960835026
 31
0.0
  0
LINE
  5
77
330
1F
100
AcDbEntity
  8
0
  6
Continuous
 62
     7
370
    15
100
AcDbLine
 10
928.3568919637
 20
728.4022226439
 30
0.0
 11
928.3781410195
 21
728.4121244655
 31
0.0
  0
LINE
  5
78
330
1F
100
AcDbEntity
  8
0
  6
Continuous
 62
     7
370
    15
100
AcDbLine
 10
923.3067096211
 20
739.2878226445
 30
0.0
 11
923.2854605653
 21
739.2779133723
 31
0.0
  0
ARC
  5
79
330
1F
100
AcDbEntity
  8
0
  6
Continuous
 62
     7
370
    15
100
AcDbCircle
 10
95.6302414954
 20
174.5933075909
 30
0.0
 40
0.2500000000000288
100
AcDbArc
 50
132.7847355088
 51
180.0
  0
ARC
  5
7A
330
1F
100
AcDbEntity
  8
0
  6
Continuous
 62
     7
370
    15
100
AcDbCircle
 10
95.6302414954
 20
173.8933075909
 30
0.0
 40
0.2499999999999731
100
AcDbArc
 50
180.0
 51
209.473426788
  0
LINE
  5
7B
330
1F
100
AcDbEntity
  8
0
  6
Continuous
 62
     7
370
    15
100
AcDbLine
 10
95.3802526929
 20
174.5933211849
 30
0.0
 11
95.3802526929
 21
173.8932944344
 31
0.0
  0
SPLINE
  5
7C
330
1F
100
AcDbEntity
  8
0
  6
Continuous
 62
     7
370
    15
100
AcDbSpline
210
0.0
220
0.0
230
1.0
 70
     8
 71
     3
 72
    13
 73
     9
 74
     0
 42
0.00000001
 43
0.00000001
 12
1.0
 22
0.0
 32
0.0
 13
1.0
 23
0.0
 33
0.0
 40
0.0
 40
0.0
 40
0.0
 40
0.0
 40
0.0547149915332718
 40
0.213461183751711
 40
0.3745975985766424
 40
0.544500648167192
 40
0.7475460792056285
 40
1.0
 40
1.0
 40
1.0
 40
1.0
 10
108.0345273949656
 20
175.0932253406626
 30
0.0
 10
108.0350113843636
 20
175.0836363010629
 30
0.0
 10
108.0368995862429
 20
175.0462263026948
 30
0.0
 10
108.0229237198618
 20
174.9823788909319
 30
0.0
 10
107.9952679242608
 20
174.9149663800024
 30
0.0
 10
107.9583570539217
 20
174.8674099800938
 30
0.0
 10
107.9235623512733
 20
174.844491424787
 30
0.0
 10
107.9117385091229
 20
174.8440528038844
 30
0.0
 10
107.905185315803
 20
174.8438097045999
 30
0.0
  0
LINE
  5
7D
330
1F
100
AcDbEntity
  8
0
  6
Continuous
 62
     7
370
    15
100
AcDbLine
 10
108.0364049413
 20
180.1932967709
 30
0.0
 11
108.0364049413
 21
175.0933147476
 31
0.0
  0
ARC
  5
7E
330
1F
100
AcDbEntity
  8
0
  6
Continuous
 62
     7
370
    15
100
AcDbCircle
 10
108.2863912451
 20
180.1933075909
 30
0.0
 40
0.2500000000000284
100
AcDbArc
 50
90.0
 51
180.0
  0
ARC
  5
7F
330
1F
100
AcDbEntity
  8
0
  6
Continuous
 62
     7
370
    15
100
AcDbCircle
 10
112.9863616444
 20
180.1933075909
 30
0.0
 40
0.2500000000000284
100
AcDbArc
 50
0.0
 51
90.0
  0
LINE
  5
80
330
1F
100
AcDbEntity
  8
0
  6
Continuous
 62
     7
370
    15
100
AcDbLine
 10
113.2363737561
 20
175.0933147476
 30
0.0
 11
113.2363737561
 21
180.1932967709
 31
0.0
  0
ARC
  5
81
330
1F
100
AcDbEntity
  8
0
  6
Continuous
 62
     7
370
    15
100
AcDbCircle
 10
112.5302414954
 20
173.8933075909
 30
0.0
 40
0.2499999999999716
100
AcDbArc
 50
270.0
 51
0.0
  0
LINE
  5
82
330
1F
100
AcDbEntity
  8
0
  6
Continuous
 62
     7
370
    15
100
AcDbLine
 10
94.9241281487
 20
180.1932967709
 30
0.0
 11
94.9241281487
 21
175.0933147476
 31
0.0
  0
ARC
  5
83
330
1F
100
AcDbEntity
  8
0
  6
Continuous
 62
     7
370
    15
100
AcDbCircle
 10
95.1741213465
 20
180.1933075909
 30
0.0
 40
0.2500000000000284
100
AcDbArc
 50
90.0
 51
180.0
  0
SPLINE
  5
84
330
1F
100
AcDbEntity
  8
0
  6
Continuous
 62
     7
370
    15
100
AcDbSpline
210
0.0
220
0.0
230
1.0
 70
     8
 71
     3
 72
    13
 73
     9
 74
     0
 42
0.00000001
 43
0.00000001
 12
1.0
 22
0.0
 32
0.0
 13
1.0
 23
0.0
 33
0.0
 40
0.0
 40
0.0
 40
0.0
 40
0.0
 40
0.0634869775403059
 40
0.2470491176757372
 40
0.4311577607905596
 40
0.6187805539273434
 40
0.8315588096473888
 40
1.0
 40
1.0
 40
1.0
 40
1.0
 10
100.9710789658579
 20
174.5934105918985
 30
0.0
 10
100.9706131532599
 20
174.6036366735494
 30
0.0
 10
100.9688005202473
 20
174.6434297862005
 30
0.0
 10
100.9820899992173
 20
174.7109947625937
 30
0.0
 10
101.0080714070503
 20
174.7811110655828
 30
0.0
 10
101.0400537869348
 20
174.8275417155022
 30
0.0
 10
101.0630366369151
 20
174.8435942121694
 30
0.0
 10
101.0623010618034
 20
174.8428962172837
 30
0.0
 10
101.0619760491404
 20
174.8425878093821
 30
0.0
  0
LINE
  5
85
330
1F
100
AcDbEntity
  8
0
  6
Continuous
 62
     7
370
    15
100
AcDbLine
 10
100.9692908265
 20
169.4933093594
 30
0.0
 11
100.9692908265
 21
174.5933211849
 31
0.0
  0
ARC
  5
86
330
1F
100
AcDbEntity
  8
0
  6
Continuous
 62
     7
370
    15
100
AcDbCircle
 10
100.7192896718
 20
169.4933075909
 30
0.0
 40
0.2500000000000853
100
AcDbArc
 50
270.0
 51
0.0
  0
ARC
  5
87
330
1F
100
AcDbEntity
  8
0
  6
Continuous
 62
     7
370
    15
100
AcDbCircle
 10
95.6625954996
 20
169.4933075909
 30
0.0
 40
0.2500000000000853
100
AcDbArc
 50
180.0
 51
270.0
  0
LINE
  5
88
330
1F
100
AcDbEntity
  8
0
  6
Continuous
 62
     7
370
    15
100
AcDbLine
 10
95.4125882127
 20
174.5933211849
 30
0.0
 11
95.4125882127
 21
169.4933093594
 31
0.0
  0
ARC
  5
89
330
1F
100
AcDbEntity
  8
0
  6
Continuous
 62
     7
370
    15
100
AcDbCircle
 10
95.6302414954
 20
175.7933075909
 30
0.0
 40
0.2499999999999716
100
AcDbArc
 50
90.0
 51
180.0
  0
ARC
  5
8A
330
1F
100
AcDbEntity
  8
0
  6
Continuous
 62
     7
370
    15
100
AcDbCircle
 10
95.6302414954
 20
175.0933075909
 30
0.0
 40
0.2500000000000284
100
AcDbArc
 50
180.0
 51
232.7089330724
  0
LINE
  5
8B
330
1F
100
AcDbEntity
  8
0
  6
Continuous
 62
     7
370
    15
100
AcDbLine
 10
95.3802526929
 20
175.7933116959
 30
0.0
 11
95.3802526929
 21
175.0933147476
 31
0.0
  0
ARC
  5
8C
330
1F
100
AcDbEntity
  8
0
  6
Continuous
 62
     7
370
    15
100
AcDbCircle
 10
112.4978874913
 20
169.4933075909
 30
0.0
 40
0.2499999999999716
100
AcDbArc
 50
270.0
 51
0.0
  0
LINE
  5
8D
330
1F
100
AcDbEntity
  8
0
  6
Continuous
 62
     7
370
    15
100
AcDbLine
 10
112.7478838899
 20
169.4933093594
 30
0.0
 11
112.7478838899
 21
173.7703002499
 31
0.0
  0
LINE
  5
8E
330
1F
100
AcDbEntity
  8
0
  6
Continuous
 62
     7
370
    15
100
AcDbLine
 10
98.9909828641
 20
181.5448320912
 30
0.0
 11
99.0802408196
 21
181.4933038757
 31
0.0
  0
LINE
  5
8F
330
1F
100
AcDbEntity
  8
0
  6
Continuous
 62
     7
370
    15
100
AcDbLine
 10
109.0802312829
 20
181.4933038757
 30
0.0
 11
109.1694892385
 21
181.5448320912
 31
0.0
  0
LINE
  5
90
330
1F
100
AcDbEntity
  8
0
  6
Continuous
 62
     7
370
    15
100
AcDbLine
 10
109.327620361
 20
181.1004794644
 30
0.0
 11
109.0802312829
 21
181.2433219956
 31
0.0
  0
LINE
  5
91
330
1F
100
AcDbEntity
  8
0
  6
Continuous
 62
     7
370
    15
100
AcDbLine
 10
99.0802408196
 20
181.2433219956
 30
0.0
 11
98.8328517415
 21
181.1004794644
 31
0.0
  0
LINE
  5
92
330
1F
100
AcDbEntity
  8
0
  6
Continuous
 62
     7
370
    15
100
AcDbLine
 10
98.8328517415
 20
176.1861361073
 30
0.0
 11
99.0802408196
 21
176.0432935761
 31
0.0
  0
LINE
  5
93
330
1F
100
AcDbEntity
  8
0
  6
Continuous
 62
     7
370
    15
100
AcDbLine
 10
98.6185432412
 20
168.7098659084
 30
0.0
 11
99.0802408196
 21
168.443313937
 31
0.0
  0
LINE
  5
94
330
1F
100
AcDbEntity
  8
0
  6
Continuous
 62
     7
370
    15
100
AcDbLine
 10
109.5419288613
 20
173.3767605827
 30
0.0
 11
109.0802312829
 21
173.6433125542
 31
0.0
  0
LINE
  5
95
330
1F
100
AcDbEntity
  8
0
  6
Continuous
 62
     7
370
    15
100
AcDbLine
 10
109.0802312829
 20
168.443313937
 30
0.0
 11
109.5419288613
 21
168.7098659084
 31
0.0
  0
LINE
  5
96
330
1F
100
AcDbEntity
  8
0
  6
Continuous
 62
     7
370
    15
100
AcDbLine
 10
101.0802448728
 20
181.4933038757
 30
0.0
 11
101.0802448728
 21
181.2433219956
 31
0.0
  0
LINE
  5
97
330
1F
100
AcDbEntity
  8
0
  6
Continuous
 62
     7
370
    15
100
AcDbLine
 10
107.0802272298
 20
181.2433219956
 30
0.0
 11
107.0802272298
 21
181.4933038757
 31
0.0
  0
LINE
  5
98
330
1F
100
AcDbEntity
  8
0
  6
Continuous
 62
     7
370
    15
100
AcDbLine
 10
197.4802375772
 20
17.9433144138
 30
0.0
 11
144.4802344777
 21
17.9433144138
 31
0.0
  0
LINE
  5
99
330
1F
100
AcDbEntity
  8
0
  6
Continuous
 62
     7
370
    15
100
AcDbLine
 10
199.4802416303
 20
23.9432967709
 30
0.0
 11
142.4802304246
 21
23.9432967709
 31
0.0
  0
LINE
  5
9A
330
1F
100
AcDbEntity
  8
0
  6
Continuous
 62
     7
370
    15
100
AcDbLine
 10
778.4802378156
 20
23.9432967709
 30
0.0
 11
721.4802266099
 21
23.9432967709
 31
0.0
  0
LINE
  5
9B
330
1F
100
AcDbEntity
  8
0
  6
Continuous
 62
     7
370
    15
100
AcDbLine
 10
776.4802337625
 20
17.9433144138
 30
0.0
 11
723.480230663
 21
17.9433144138
 31
0.0
  0
LINE
  5
9C
330
1F
100
AcDbEntity
  8
0
  6
Continuous
 62
     7
370
    15
100
AcDbLine
 10
215.9802378156
 20
185.9432972477
 30
0.0
 11
215.9802378156
 21
186.4433206127
 31
0.0
  0
LINE
  5
9D
330
1F
100
AcDbEntity
  8
0
  6
Continuous
 62
     7
370
    15
100
AcDbLine
 10
125.9802342393
 20
185.9432972477
 30
0.0
 11
215.9802378156
 21
185.9432972477
 31
0.0
  0
LINE
  5
9E
330
1F
100
AcDbEntity
  8
0
  6
Continuous
 62
     7
370
    15
100
AcDbLine
 10
125.9802342393
 20
185.9432972477
 30
0.0
 11
125.9802342393
 21
186.4433206127
 31
0.0
  0
LINE
  5
9F
330
1F
100
AcDbEntity
  8
0
  6
Continuous
 62
     7
370
    15
100
AcDbLine
 10
201.9398869016
 20
91.9433153675
 30
0.0
 11
140.0205851533
 21
91.9433153675
 31
0.0
  0
LINE
  5
A0
330
1F
100
AcDbEntity
  8
0
  6
Continuous
 62
     7
370
    15
100
AcDbLine
 10
704.9802304246
 20
185.9432972477
 30
0.0
 11
704.9802304246
 21
186.4433206127
 31
0.0
  0
LINE
  5
A1
330
1F
100
AcDbEntity
  8
0
  6
Continuous
 62
     7
370
    15
100
AcDbLine
 10
794.9802340009
 20
185.9432972477
 30
0.0
 11
794.9802340009
 21
186.4433206127
 31
0.0
  0
LINE
  5
A2
330
1F
100
AcDbEntity
  8
0
  6
Continuous
 62
     7
370
    15
100
AcDbLine
 10
704.9802304246
 20
185.9432972477
 30
0.0
 11
794.9802340009
 21
185.9432972477
 31
0.0
  0
LINE
  5
A3
330
1F
100
AcDbEntity
  8
0
  6
Continuous
 62
     7
370
    15
100
AcDbLine
 10
780.9398830869
 20
91.9433153675
 30
0.0
 11
719.0205813386
 21
91.9433153675
 31
0.0
  0
SPLINE
  5
A4
330
1F
100
AcDbEntity
  8
0
  6
Continuous
 62
     7
370
    15
100
AcDbSpline
210
0.0
220
0.0
230
1.0
 70
     8
 71
     3
 72
    12
 73
     8
 74
     0
 42
0.00000001
 43
0.00000001
 12
1.0
 22
0.0
 32
0.0
 13
1.0
 23
0.0
 33
0.0
 40
0.0
 40
0.0
 40
0.0
 40
0.0
 40
0.2096834367031598
 40
0.4420457327309759
 40
0.6744332971218069
 40
0.9068207090494416
 40
0.9999999999999999
 40
0.9999999999999999
 40
0.9999999999999999
 40
0.9999999999999999
 10
836.8731797673258
 20
668.0433076315802
 30
0.0
 10
836.7688851520139
 20
668.0189679808469
 30
0.0
 10
836.5490156650851
 20
667.9676561609342
 30
0.0
 10
836.2130817702047
 20
667.5467230986369
 30
0.0
 10
835.8661593730883
 20
666.8949349996086
 30
0.0
 10
835.5877842488469
 20
666.2454928769351
 30
0.0
 10
835.4264168251375
 20
665.8550539526525
 30
0.0
 10
835.3802324273142
 20
665.7433078133744
 30
0.0
  0
LINE
  5
A5
330
1F
100
AcDbEntity
  8
0
  6
Continuous
 62
     7
370
    15
100
AcDbLine
 10
836.8731797673
 20
668.0433076316
 30
0.0
 11
836.8731797673
 21
667.2433075936
 31
0.0
  0
SPLINE
  5
A6
330
1F
100
AcDbEntity
  8
0
  6
Continuous
 62
     7
370
    15
100
AcDbSpline
210
0.0
220
0.0
230
1.0
 70
     8
 71
     3
 72
    11
 73
     7
 74
     0
 42
0.00000001
 43
0.00000001
 12
1.0
 22
0.0
 32
0.0
 13
1.0
 23
0.0
 33
0.0
 40
0.0
 40
0.0
 40
0.0
 40
0.0
 40
0.2543199951375884
 40
0.5088694416886906
 40
0.7634130840979394
 40
1.0
 40
1.0
 40
1.0
 40
1.0
 10
836.8731797673258
 20
667.2433075935822
 30
0.0
 10
836.7465997589038
 20
667.2199524264071
 30
0.0
 10
836.4933255396282
 20
667.1732210206653
 30
0.0
 10
836.113352991428
 20
666.8143450542674
 30
0.0
 10
835.7421460850165
 20
666.3151101755168
 30
0.0
 10
835.4978935240072
 20
665.9292054483199
 30
0.0
 10
835.3802324273142
 20
665.7433078133744
 30
0.0
  0
SPLINE
  5
A7
330
1F
100
AcDbEntity
  8
0
  6
Continuous
 62
     7
370
    15
100
AcDbSpline
210
0.0
220
0.0
230
1.0
 70
     8
 71
     3
 72
    12
 73
     8
 74
     0
 42
0.00000001
 43
0.00000001
 12
1.0
 22
0.0
 32
0.0
 13
1.0
 23
0.0
 33
0.0
 40
0.0
 40
0.0
 40
0.0
 40
0.0
 40
0.209682184029424
 40
0.4420462725892367
 40
0.6744326071352547
 40
0.9068189719466555
 40
1.0
 40
1.0
 40
1.0
 40
1.0
 10
835.3802324273142
 20
665.7433078133744
 30
0.0
 10
835.6325632518866
 20
665.8475931738942
 30
0.0
 10
836.1645202275249
 20
666.0674447321788
 30
0.0
 10
836.8859089287728
 20
666.4034093313312
 30
0.0
 10
837.4292639183394
 20
666.7503166645272
 30
0.0
 10
837.6579054205461
 20
667.0286975125848
 30
0.0
 10
837.6752596757149
 20
667.1900543856959
 30
0.0
 10
837.6802266575846
 20
667.2362365269345
 30
0.0
  0
LINE
  5
A8
330
1F
100
AcDbEntity
  8
0
  6
Continuous
 62
     7
370
    15
100
AcDbLine
 10
837.6802266576
 20
187.250367503
 30
0.0
 11
837.6802266576
 21
667.2362365269
 31
0.0
  0
SPLINE
  5
A9
330
1F
100
AcDbEntity
  8
0
  6
Continuous
 62
     7
370
    15
100
AcDbSpline
210
0.0
220
0.0
230
1.0
 70
     8
 71
     3
 72
    12
 73
     8
 74
     0
 42
0.00000001
 43
0.00000001
 12
1.0
 22
0.0
 32
0.0
 13
1.0
 23
0.0
 33
0.0
 40
0.0
 40
0.0
 40
0.0
 40
0.0
 40
0.2096820469520256
 40
0.4420435774712024
 40
0.6744294653087828
 40
0.9068220750750943
 40
1.0
 40
1.0
 40
1.0
 40
1.0
 10
837.6802266575846
 20
187.2503675029856
 30
0.0
 10
837.6558954865818
 20
187.3546623191496
 30
0.0
 10
837.6046014533996
 20
187.5745326147662
 30
0.0
 10
837.1836611014395
 20
187.9104633886166
 30
0.0
 10
836.5318782032227
 20
188.2573958507002
 30
0.0
 10
835.8824197144866
 20
188.5357572589438
 30
0.0
 10
835.4919767651568
 20
188.6971301119483
 30
0.0
 10
835.3802324273142
 20
188.7433148429972
 30
0.0
  0
LINE
  5
AA
330
1F
100
AcDbEntity
  8
0
  6
Continuous
 62
     7
370
    15
100
AcDbLine
 10
95.7802296617
 20
667.2433075936
 30
0.0
 11
96.7802465894
 21
667.2433075936
 31
0.0
  0
LINE
  5
AB
330
1F
100
AcDbEntity
  8
0
  6
Continuous
 62
     7
370
    15
100
AcDbLine
 10
96.7802465894
 20
665.7433078134
 30
0.0
 11
96.7802465894
 21
667.2433075936
 31
0.0
  0
ARC
  5
AC
330
1F
100
AcDbEntity
  8
0
  6
Continuous
 62
     7
370
    15
100
AcDbCircle
 10
96.8802414954
 20
665.7433075909
 30
0.0
 40
0.0999999999999943
100
AcDbArc
 50
180.0
 51
0.0
  0
LINE
  5
AD
330
1F
100
AcDbEntity
  8
0
  6
Continuous
 62
     7
370
    15
100
AcDbLine
 10
96.9802499749
 20
665.7433078134
 30
0.0
 11
96.9802499749
 21
668.0433076316
 31
0.0
  0
LINE
  5
AE
330
1F
100
AcDbEntity
  8
0
  6
Continuous
 62
     7
370
    15
100
AcDbLine
 10
96.9802499749
 20
668.0433076316
 30
0.0
 11
836.8731797673
 21
668.0433076316
 31
0.0
  0
SPLINE
  5
AF
330
1F
100
AcDbEntity
  8
0
  6
Continuous
 62
     7
370
    15
100
AcDbSpline
210
0.0
220
0.0
230
1.0
 70
     8
 71
     3
 72
    11
 73
     7
 74
     0
 42
0.00000001
 43
0.00000001
 12
1.0
 22
0.0
 32
0.0
 13
1.0
 23
0.0
 33
0.0
 40
0.0
 40
0.0
 40
0.0
 40
0.0
 40
0.2543199587659072
 40
0.5088686104910676
 40
0.7634155114914277
 40
1.0
 40
1.0
 40
1.0
 40
1.0
 10
835.3802324273142
 20
665.7433078133744
 30
0.0
 10
835.580206252233
 20
665.8698894513956
 30
0.0
 10
835.9803337251798
 20
666.1231665538538
 30
0.0
 10
836.4819794715908
 20
666.5031047052131
 30
0.0
 10
836.818049422526
 20
666.8743300754769
 30
0.0
 10
836.8600234657501
 20
667.1185787221614
 30
0.0
 10
836.8802429177317
 20
667.2362365269345
 30
0.0
  0
LINE
  5
B0
330
1F
100
AcDbEntity
  8
0
  6
Continuous
 62
     7
370
    15
100
AcDbLine
 10
837.6802266576
 20
667.2362365269
 30
0.0
 11
836.8802429177
 21
667.2362365269
 31
0.0
  0
LINE
  5
B1
330
1F
100
AcDbEntity
  8
0
  6
Continuous
 62
     7
370
    15
100
AcDbLine
 10
837.6802266576
 20
187.250367503
 30
0.0
 11
836.8802429177
 21
187.250367503
 31
0.0
  0
SPLINE
  5
B2
330
1F
100
AcDbEntity
  8
0
  6
Continuous
 62
     7
370
    15
100
AcDbSpline
210
0.0
220
0.0
230
1.0
 70
     8
 71
     3
 72
    11
 73
     7
 74
     0
 42
0.00000001
 43
0.00000001
 12
1.0
 22
0.0
 32
0.0
 13
1.0
 23
0.0
 33
0.0
 40
0.0
 40
0.0
 40
0.0
 40
0.0
 40
0.2543183389755627
 40
0.5088662300215927
 40
0.7634100632695042
 40
1.0
 40
1.0
 40
1.0
 40
1.0
 10
836.8802429177317
 20
187.2503675029856
 30
0.0
 10
836.8568904433137
 20
187.3769474910272
 30
0.0
 10
836.810164416136
 20
187.6302217203666
 30
0.0
 10
836.451288990895
 20
188.0101955455009
 30
0.0
 10
835.9520472936895
 20
188.381403664407
 30
0.0
 10
835.5661349089979
 20
188.6256540576533
 30
0.0
 10
835.3802324273142
 20
188.7433148429972
 30
0.0
  0
SPLINE
  5
B3
330
1F
100
AcDbEntity
  8
0
  6
Continuous
 62
     7
370
    15
100
AcDbSpline
210
0.0
220
0.0
230
1.0
 70
     8
 71
     3
 72
    12
 73
     8
 74
     0
 42
0.00000001
 43
0.00000001
 12
1.0
 22
0.0
 32
0.0
 13
1.0
 23
0.0
 33
0.0
 40
0.0
 40
0.0
 40
0.0
 40
0.0
 40
0.2096836801541893
 40
0.4420457364497212
 40
0.6744321501187711
 40
0.9068185940530827
 40
1.0
 40
1.0
 40
1.0
 40
1.0
 10
835.3802324273142
 20
188.7433148429972
 30
0.0
 10
835.4845269950192
 20
188.4909850170698
 30
0.0
 10
835.7043961281578
 20
187.9590345875072
 30
0.0
 10
836.0403298764394
 20
187.237633666602
 30
0.0
 10
836.3872521047808
 20
186.6942841884228
 30
0.0
 10
836.6656319138048
 20
186.4656416217387
 30
0.0
 10
836.8269955639554
 20
186.4482875540954
 30
0.0
 10
836.8731797673258
 20
186.4433206127268
 30
0.0
  0
SPLINE
  5
B4
330
1F
100
AcDbEntity
  8
0
  6
Continuous
 62
     7
370
    15
100
AcDbSpline
210
0.0
220
0.0
230
1.0
 70
     8
 71
     3
 72
    11
 73
     7
 74
     0
 42
0.00000001
 43
0.00000001
 12
1.0
 22
0.0
 32
0.0
 13
1.0
 23
0.0
 33
0.0
 40
0.0
 40
0.0
 40
0.0
 40
0.0
 40
0.2543202217181527
 40
0.5088728341119518
 40
0.7634127592813669
 40
0.9999999999999999
 40
0.9999999999999999
 40
0.9999999999999999
 40
0.9999999999999999
 10
835.3802324273142
 20
188.7433148429972
 30
0.0
 10
835.5068131096742
 20
188.5433411262067
 30
0.0
 10
835.7600901402667
 20
188.1432109622602
 30
0.0
 10
836.1400520677023
 20
187.6415666359192
 30
0.0
 10
836.5112703777045
 20
187.3055396376904
 30
0.0
 10
836.7555194006993
 20
187.263537666976
 30
0.0
 10
836.8731797673258
 20
187.2433043525797
 30
0.0
  0
LINE
  5
B5
330
1F
100
AcDbEntity
  8
0
  6
Continuous
 62
     7
370
    15
100
AcDbLine
 10
836.8731797673
 20
186.4433206127
 30
0.0
 11
836.8731797673
 21
187.2433043526
 31
0.0
  0
LINE
  5
B6
330
1F
100
AcDbEntity
  8
0
  6
Continuous
 62
     7
370
    15
100
AcDbLine
 10
836.8731797673
 20
186.4433206127
 30
0.0
 11
94.287312124
 21
186.4433206127
 31
0.0
  0
SPLINE
  5
B7
330
1F
100
AcDbEntity
  8
0
  6
Continuous
 62
     7
370
    15
100
AcDbSpline
210
0.0
220
0.0
230
1.0
 70
     8
 71
     3
 72
    12
 73
     8
 74
     0
 42
0.00000001
 43
0.00000001
 12
1.0
 22
0.0
 32
0.0
 13
1.0
 23
0.0
 33
0.0
 40
0.0
 40
0.0
 40
0.0
 40
0.0
 40
0.2096797248131746
 40
0.4420448722692929
 40
0.6744314394537975
 40
0.9068247285866838
 40
1.0
 40
1.0
 40
1.0
 40
1.0
 10
94.28731212396946
 20
186.4433206127268
 30
0.0
 10
94.3915922420292
 20
186.4676529592697
 30
0.0
 10
94.61143463026677
 20
186.5189501890284
 30
0.0
 10
94.9474197516203
 20
186.9398811010792
 30
0.0
 10
95.2943306275792
 20
187.5916722836039
 30
0.0
 10
95.57271940034629
 20
188.2411163532047
 30
0.0
 10
95.73405626531661
 20
188.6315699598049
 30
0.0
 10
95.78022966165861
 20
188.7433148429971
 30
0.0
  0
SPLINE
  5
B8
330
1F
100
AcDbEntity
  8
0
  6
Continuous
 62
     7
370
    15
100
AcDbSpline
210
0.0
220
0.0
230
1.0
 70
     8
 71
     3
 72
    12
 73
     8
 74
     0
 42
0.00000001
 43
0.00000001
 12
1.0
 22
0.0
 32
0.0
 13
1.0
 23
0.0
 33
0.0
 40
0.0
 40
0.0
 40
0.0
 40
0.0
 40
0.2096848644881012
 40
0.4420420695563915
 40
0.6744297957887758
 40
0.9068175522865927
 40
1.0
 40
1.0
 40
1.0
 40
1.0
 10
95.78022966165867
 20
188.7433148429972
 30
0.0
 10
95.52789857567207
 20
188.6390211757742
 30
0.0
 10
94.99595290694086
 20
188.4191570066869
 30
0.0
 10
94.27457890013274
 20
188.0832109141233
 30
0.0
 10
93.7312200486648
 20
187.7362962894138
 30
0.0
 10
93.50260799254967
 20
187.4579144571079
 30
0.0
 10
93.48521385958702
 20
187.2965516479973
 30
0.0
 10
93.48023543138828
 20
187.2503675029856
 30
0.0
  0
SPLINE
  5
B9
330
1F
100
AcDbEntity
  8
0
  6
Continuous
 62
     7
370
    15
100
AcDbSpline
210
0.0
220
0.0
230
1.0
 70
     8
 71
     3
 72
    11
 73
     7
 74
     0
 42
0.00000001
 43
0.00000001
 12
1.0
 22
0.0
 32
0.0
 13
1.0
 23
0.0
 33
0.0
 40
0.0
 40
0.0
 40
0.0
 40
0.0
 40
0.2543213023275201
 40
0.5088617527801697
 40
0.7634134255022961
 40
1.0
 40
1.0
 40
1.0
 40
1.0
 10
95.78022966165867
 20
188.7433148429972
 30
0.0
 10
95.58025452500834
 20
188.6167326273204
 30
0.0
 10
95.18013193355773
 20
188.3634591203406
 30
0.0
 10
94.678508055479
 20
187.9835215008418
 30
0.0
 10
94.34244323861446
 20
187.6122785967007
 30
0.0
 10
94.30046860560392
 20
187.3680264083568
 30
0.0
 10
94.28024897356357
 20
187.2503675029856
 30
0.0
  0
LINE
  5
BA
330
1F
100
AcDbEntity
  8
0
  6
Continuous
 62
     7
370
    15
100
AcDbLine
 10
93.4802354314
 20
187.250367503
 30
0.0
 11
94.2802489736
 21
187.250367503
 31
0.0
  0
LINE
  5
BB
330
1F
100
AcDbEntity
  8
0
  6
Continuous
 62
     7
370
    15
100
AcDbLine
 10
93.4802354314
 20
665.4933077724
 30
0.0
 11
93.4802354314
 21
187.250367503
 31
0.0
  0
SPLINE
  5
BC
330
1F
100
AcDbEntity
  8
0
  6
Continuous
 62
     7
370
    15
100
AcDbSpline
210
0.0
220
0.0
230
1.0
 70
     8
 71
     3
 72
    12
 73
     8
 74
     0
 42
0.00000001
 43
0.00000001
 12
1.0
 22
0.0
 32
0.0
 13
1.0
 23
0.0
 33
0.0
 40
0.0
 40
0.0
 40
0.0
 40
0.0
 40
0.2039318309845802
 40
0.4425645029191915
 40
0.6812474422407632
 40
0.9199230796316802
 40
0.9999999999999999
 40
0.9999999999999999
 40
0.9999999999999999
 40
0.9999999999999999
 10
93.48023543138828
 20
665.4933077723962
 30
0.0
 10
93.5033055653397
 20
665.612143158392
 30
0.0
 10
93.5533714246773
 20
665.870034843464
 30
0.0
 10
93.97584021013911
 20
666.2679163555374
 30
0.0
 10
94.64902492043959
 20
666.6855192186945
 30
0.0
 10
95.30199331943057
 20
667.0116322760293
 30
0.0
 10
95.6842094435103
 20
667.1967918594843
 30
0.0
 10
95.78022966165867
 20
667.2433075935822
 30
0.0
  0
LINE
  5
BD
330
1F
100
AcDbEntity
  8
0
  6
Continuous
 62
     7
370
    15
100
AcDbLine
 10
94.287312124
 20
186.4433206127
 30
0.0
 11
94.287312124
 21
187.2433043526
 31
0.0
  0
SPLINE
  5
BE
330
1F
100
AcDbEntity
  8
0
  6
Continuous
 62
     7
370
    15
100
AcDbSpline
210
0.0
220
0.0
230
1.0
 70
     8
 71
     3
 72
    11
 73
     7
 74
     0
 42
0.00000001
 43
0.00000001
 12
1.0
 22
0.0
 32
0.0
 13
1.0
 23
0.0
 33
0.0
 40
0.0
 40
0.0
 40
0.0
 40
0.0
 40
0.2543198059462697
 40
0.508863393062529
 40
0.7634144667675685
 40
1.0
 40
1.0
 40
1.0
 40
1.0
 10
94.28731212396946
 20
187.2433043525797
 30
0.0
 10
94.41389528307192
 20
187.2666553110511
 30
0.0
 10
94.66717298437311
 20
187.3133777749771
 30
0.0
 10
95.04709918999494
 20
187.6722726893162
 30
0.0
 10
95.41835706002672
 20
188.1714836746789
 30
0.0
 10
95.66258335451278
 20
188.5574101213903
 30
0.0
 10
95.78022966165867
 20
188.7433148429972
 30
0.0
  0
LINE
  5
BF
330
1F
100
AcDbEntity
  8
0
  6
Continuous
 62
     7
370
    15
100
AcDbLine
 10
96.7802465894
 20
667.2433075936
 30
0.0
 11
96.9802499749
 21
667.2433075936
 31
0.0
  0
LINE
  5
C0
330
1F
100
AcDbEntity
  8
0
  6
Continuous
 62
     7
370
    15
100
AcDbLine
 10
96.7802465894
 20
666.4433075556
 30
0.0
 11
96.9802499749
 21
666.4433075556
 31
0.0
  0
LINE
  5
C1
330
1F
100
AcDbEntity
  8
0
  6
Continuous
 62
     7
370
    15
100
AcDbLine
 10
94.287312124
 20
187.2433043526
 30
0.0
 11
94.2802489736
 21
187.2433043526
 31
0.0
  0
LINE
  5
C2
330
1F
100
AcDbEntity
  8
0
  6
Continuous
 62
     7
370
    15
100
AcDbLine
 10
95.0802327134
 20
187.7220190571
 30
0.0
 11
95.0802327134
 21
188.2526792095
 31
0.0
  0
LINE
  5
C3
330
1F
100
AcDbEntity
  8
0
  6
Continuous
 62
     7
370
    15
100
AcDbLine
 10
94.2802489736
 20
187.2433043526
 30
0.0
 11
94.2802489736
 21
187.250367503
 31
0.0
  0
LINE
  5
C4
330
1F
100
AcDbEntity
  8
0
  6
Continuous
 62
     7
370
    15
100
AcDbLine
 10
95.349109266
 20
188.4641862915
 30
0.0
 11
95.457917545
 21
188.2805145786
 31
0.0
  0
LWPOLYLINE
  5
C5
330
1F
100
AcDbEntity
  8
0
  6
Continuous
 62
     7
370
    15
100
AcDbPolyline
 90
        3
 70
   128
 43
0.0
 10
835.9724939801
 20
187.8835774468
 10
836.0065878369
 20
187.9169560478
 10
836.2227738835
 20
188.1666995094
  0
LINE
  5
C6
330
1F
100
AcDbEntity
  8
0
  6
Continuous
 62
     7
370
    15
100
AcDbLine
 10
72.5248516538
 20
654.9433070676
 30
0.0
 11
72.5248516538
 21
651.0433081047
 31
0.0
  0
LINE
  5
C7
330
1F
100
AcDbEntity
  8
0
  6
Continuous
 62
     7
370
    15
100
AcDbLine
 10
70.4356194474
 20
651.0433081047
 30
0.0
 11
70.4356194474
 21
654.9433070676
 31
0.0
  0
LINE
  5
C8
330
1F
100
AcDbEntity
  8
0
  6
Continuous
 62
     7
370
    15
100
AcDbLine
 10
70.4356194474
 20
654.9433070676
 30
0.0
 11
72.5248516538
 21
654.9433070676
 31
0.0
  0
LINE
  5
C9
330
1F
100
AcDbEntity
  8
0
  6
Continuous
 62
     7
370
    15
100
AcDbLine
 10
70.4356194474
 20
651.0433081047
 30
0.0
 11
72.5248516538
 21
651.0433081047
 31
0.0
  0
LINE
  5
CA
330
1F
100
AcDbEntity
  8
0
  6
Continuous
 62
     7
370
    15
100
AcDbLine
 10
57.5248659589
 20
654.9433070676
 30
0.0
 11
57.5248659589
 21
651.0433081047
 31
0.0
  0
LINE
  5
CB
330
1F
100
AcDbEntity
  8
0
  6
Continuous
 62
     7
370
    15
100
AcDbLine
 10
57.5248659589
 20
654.9433070676
 30
0.0
 11
70.4356194474
 21
654.9433070676
 31
0.0
  0
LINE
  5
CC
330
1F
100
AcDbEntity
  8
0
  6
Continuous
 62
     7
370
    15
100
AcDbLine
 10
57.5248659589
 20
651.0433081047
 30
0.0
 11
70.4356194474
 21
651.0433081047
 31
0.0
  0
LINE
  5
CD
330
1F
100
AcDbEntity
  8
0
  6
Continuous
 62
     7
370
    15
100
AcDbLine
 10
85.4356051423
 20
651.0433081047
 30
0.0
 11
85.4356051423
 21
654.9433070676
 31
0.0
  0
LINE
  5
CE
330
1F
100
AcDbEntity
  8
0
  6
Continuous
 62
     7
370
    15
100
AcDbLine
 10
72.5248516538
 20
654.9433070676
 30
0.0
 11
85.4356051423
 21
654.9433070676
 31
0.0
  0
LINE
  5
CF
330
1F
100
AcDbEntity
  8
0
  6
Continuous
 62
     7
370
    15
100
AcDbLine
 10
72.5248516538
 20
651.0433081047
 30
0.0
 11
85.4356051423
 21
651.0433081047
 31
0.0
  0
LINE
  5
D0
330
1F
100
AcDbEntity
  8
0
  6
Continuous
 62
     7
370
    15
100
AcDbLine
 10
80.7436169126
 20
664.8433079452
 30
0.0
 11
80.7436169126
 21
668.0433076316
 31
0.0
  0
LINE
  5
D1
330
1F
100
AcDbEntity
  8
0
  6
Continuous
 62
     7
370
    15
100
AcDbLine
 10
78.9342583158
 20
668.0433076316
 30
0.0
 11
78.9342583158
 21
664.8433079452
 31
0.0
  0
LINE
  5
D2
330
1F
100
AcDbEntity
  8
0
  6
Continuous
 62
     7
370
    15
100
AcDbLine
 10
78.9342583158
 20
664.8433079452
 30
0.0
 11
80.7436169126
 21
664.8433079452
 31
0.0
  0
LINE
  5
D3
330
1F
100
AcDbEntity
  8
0
  6
Continuous
 62
     7
370
    15
100
AcDbLine
 10
64.0262127854
 20
664.8433079452
 30
0.0
 11
64.0262127854
 21
668.0433076316
 31
0.0
  0
LINE
  5
D4
330
1F
100
AcDbEntity
  8
0
  6
Continuous
 62
     7
370
    15
100
AcDbLine
 10
62.216883991
 20
668.0433076316
 30
0.0
 11
62.216883991
 21
664.8433079452
 31
0.0
  0
LINE
  5
D5
330
1F
100
AcDbEntity
  8
0
  6
Continuous
 62
     7
370
    15
100
AcDbLine
 10
62.216883991
 20
664.8433079452
 30
0.0
 11
64.0262127854
 21
664.8433079452
 31
0.0
  0
LINE
  5
D6
330
1F
100
AcDbEntity
  8
0
  6
Continuous
 62
     7
370
    15
100
AcDbLine
 10
64.0262127854
 20
664.8433079452
 30
0.0
 11
78.9342583158
 21
664.8433079452
 31
0.0
  0
LINE
  5
D7
330
1F
100
AcDbEntity
  8
0
  6
Continuous
 62
     7
370
    15
100
AcDbLine
 10
81.3302458264
 20
636.8433080123
 30
0.0
 11
61.6302550771
 21
636.8433080123
 31
0.0
  0
LINE
  5
D8
330
1F
100
AcDbEntity
  8
0
  6
Continuous
 62
     7
370
    15
100
AcDbLine
 10
56.6302300431
 20
657.3433067159
 30
0.0
 11
86.3302410581
 21
657.3433067159
 31
0.0
  0
LINE
  5
D9
330
1F
100
AcDbEntity
  8
0
  6
Continuous
 62
     7
370
    15
100
AcDbLine
 10
57.4802518823
 20
662.8433076174
 30
0.0
 11
85.4802490212
 21
662.8433076174
 31
0.0
  0
LINE
  5
DA
330
1F
100
AcDbEntity
  8
0
  6
Continuous
 62
     7
370
    15
100
AcDbLine
 10
54.7628463246
 20
664.8433079452
 30
0.0
 11
54.7628463246
 21
668.0433076316
 31
0.0
  0
LINE
  5
DB
330
1F
100
AcDbEntity
  8
0
  6
Continuous
 62
     7
370
    15
100
AcDbLine
 10
54.7628463246
 20
664.8433079452
 30
0.0
 11
62.216883991
 21
664.8433079452
 31
0.0
  0
LINE
  5
DC
330
1F
100
AcDbEntity
  8
0
  6
Continuous
 62
     7
370
    15
100
AcDbLine
 10
88.1976247766
 20
668.0433076316
 30
0.0
 11
88.1976247766
 21
664.8433079452
 31
0.0
  0
LINE
  5
DD
330
1F
100
AcDbEntity
  8
0
  6
Continuous
 62
     7
370
    15
100
AcDbLine
 10
80.7436169126
 20
664.8433079452
 30
0.0
 11
88.1976247766
 21
664.8433079452
 31
0.0
  0
LINE
  5
DE
330
1F
100
AcDbEntity
  8
0
  6
Continuous
 62
     7
370
    15
100
AcDbLine
 10
86.4802361466
 20
654.9433070676
 30
0.0
 11
86.4802361466
 21
651.0433081047
 31
0.0
  0
LINE
  5
DF
330
1F
100
AcDbEntity
  8
0
  6
Continuous
 62
     7
370
    15
100
AcDbLine
 10
85.4356051423
 20
654.9433070676
 30
0.0
 11
86.4802361466
 21
654.9433070676
 31
0.0
  0
LINE
  5
E0
330
1F
100
AcDbEntity
  8
0
  6
Continuous
 62
     7
370
    15
100
AcDbLine
 10
85.4356051423
 20
651.0433081047
 30
0.0
 11
86.4802361466
 21
651.0433081047
 31
0.0
  0
LINE
  5
E1
330
1F
100
AcDbEntity
  8
0
  6
Continuous
 62
     7
370
    15
100
AcDbLine
 10
56.4802349546
 20
651.0433081047
 30
0.0
 11
56.4802349546
 21
654.9433070676
 31
0.0
  0
LINE
  5
E2
330
1F
100
AcDbEntity
  8
0
  6
Continuous
 62
     7
370
    15
100
AcDbLine
 10
56.4802349546
 20
654.9433070676
 30
0.0
 11
57.5248659589
 21
654.9433070676
 31
0.0
  0
LINE
  5
E3
330
1F
100
AcDbEntity
  8
0
  6
Continuous
 62
     7
370
    15
100
AcDbLine
 10
56.4802349546
 20
651.0433081047
 30
0.0
 11
57.5248659589
 21
651.0433081047
 31
0.0
  0
LINE
  5
E4
330
1F
100
AcDbEntity
  8
0
  6
Continuous
 62
     7
370
    15
100
AcDbLine
 10
88.1976247766
 20
664.8433079452
 30
0.0
 11
88.2302285172
 21
664.8433079452
 31
0.0
  0
LINE
  5
E5
330
1F
100
AcDbEntity
  8
0
  6
Continuous
 62
     7
370
    15
100
AcDbLine
 10
54.7302425839
 20
664.8433079452
 30
0.0
 11
54.7628463246
 21
664.8433079452
 31
0.0
  0
LINE
  5
E6
330
1F
100
AcDbEntity
  8
0
  6
Continuous
 62
     7
370
    15
100
AcDbLine
 10
35.4919196107
 20
935.2433002995
 30
0.0
 11
39.6603704431
 21
982.8890181587
 31
0.0
  0
LINE
  5
E7
330
1F
100
AcDbEntity
  8
0
  6
Continuous
 62
     7
370
    15
100
AcDbLine
 10
98.5569418408
 20
968.7900758789
 30
0.0
 11
101.4919043519
 21
935.2433002995
 31
0.0
  0
LINE
  5
E8
330
1F
100
AcDbEntity
  8
0
  6
Continuous
 62
     7
370
    15
100
AcDbLine
 10
42.1501458623
 20
984.6518851326
 30
0.0
 11
97.0619381406
 21
970.5529428528
 31
0.0
  0
ARC
  5
E9
330
1F
100
AcDbEntity
  8
0
  6
Continuous
 62
     7
370
    15
100
AcDbCircle
 10
96.5645603303
 20
968.6157658379
 30
0.0
 40
2.000000000000053
100
AcDbArc
 50
5.0
 51
75.6
  0
ARC
  5
EA
330
1F
100
AcDbEntity
  8
0
  6
Continuous
 62
     7
370
    15
100
AcDbCircle
 10
41.6527618227
 20
982.7147193639
 30
0.0
 40
1.999999999999964
100
AcDbArc
 50
75.6
 51
175.0
  0
SPLINE
  5
EB
330
1F
100
AcDbEntity
  8
0
  6
Continuous
 62
     7
370
    15
100
AcDbSpline
210
0.0
220
0.0
230
1.0
 70
     8
 71
     3
 72
    12
 73
     8
 74
     0
 42
0.00000001
 43
0.00000001
 12
1.0
 22
0.0
 32
0.0
 13
1.0
 23
0.0
 33
0.0
 40
0.0
 40
0.0
 40
0.0
 40
0.0
 40
0.1928941652425023
 40
0.4122203138478734
 40
0.6315562753299842
 40
0.8508895640073058
 40
1.0
 40
1.0
 40
1.0
 40
1.0
 10
841.7302430607829
 20
659.3933078901154
 30
0.0
 10
841.6848181900964
 20
659.1763696023423
 30
0.0
 10
841.5877439503063
 20
658.712766315229
 30
0.0
 10
841.4387296861221
 20
658.0696322089518
 30
0.0
 10
841.2835644395689
 20
657.5596439960178
 30
0.0
 10
841.1448083420698
 20
657.2836113538567
 30
0.0
 10
841.0581815262452
 20
657.254918843065
 30
0.0
 10
841.02312335749
 20
657.2433068857771
 30
0.0
  0
LINE
  5
EC
330
1F
100
AcDbEntity
  8
0
  6
Continuous
 62
     7
370
    15
100
AcDbLine
 10
837.6802266576
 20
657.2433068858
 30
0.0
 11
841.0231233575
 21
657.2433068858
 31
0.0
  0
LINE
  5
ED
330
1F
100
AcDbEntity
  8
0
  6
Continuous
 62
     7
370
    15
100
AcDbLine
 10
841.0231233575
 20
666.0433077694
 30
0.0
 11
837.6802266576
 21
666.0433077694
 31
0.0
  0
SPLINE
  5
EE
330
1F
100
AcDbEntity
  8
0
  6
Continuous
 62
     7
370
    15
100
AcDbSpline
210
0.0
220
0.0
230
1.0
 70
     8
 71
     3
 72
    12
 73
     8
 74
     0
 42
0.00000001
 43
0.00000001
 12
1.0
 22
0.0
 32
0.0
 13
1.0
 23
0.0
 33
0.0
 40
0.0
 40
0.0
 40
0.0
 40
0.0
 40
0.1928959797377179
 40
0.4122225702378971
 40
0.6315551550234199
 40
0.8508889682109719
 40
1.0
 40
1.0
 40
1.0
 40
1.0
 10
841.02312335749
 20
666.043307769416
 30
0.0
 10
841.0685598986654
 20
666.0240541752155
 30
0.0
 10
841.1656586967403
 20
665.9829088589761
 30
0.0
 10
841.3146730566434
 20
665.6394102466547
 30
0.0
 10
841.4697935704412
 20
665.0933083975088
 30
0.0
 10
841.6085596834819
 20
664.4743770599015
 30
0.0
 10
841.6951853312594
 20
664.0607173544146
 30
0.0
 10
841.7302430607829
 20
663.8933076964003
 30
0.0
  0
LINE
  5
EF
330
1F
100
AcDbEntity
  8
0
  6
Continuous
 62
     7
370
    15
100
AcDbLine
 10
843.8802422025
 20
663.8933076964
 30
0.0
 11
841.7302430608
 21
663.8933076964
 31
0.0
  0
LINE
  5
F0
330
1F
100
AcDbEntity
  8
0
  6
Continuous
 62
     7
370
    15
100
AcDbLine
 10
843.8802422025
 20
663.8933076964
 30
0.0
 11
843.8802422025
 21
659.3933078901
 31
0.0
  0
LINE
  5
F1
330
1F
100
AcDbEntity
  8
0
  6
Continuous
 62
     7
370
    15
100
AcDbLine
 10
843.8802422025
 20
659.3933078901
 30
0.0
 11
841.7302430608
 21
659.3933078901
 31
0.0
  0
SPLINE
  5
F2
330
1F
100
AcDbEntity
  8
0
  6
Continuous
 62
     7
370
    15
100
AcDbSpline
210
0.0
220
0.0
230
1.0
 70
     8
 71
     3
 72
    12
 73
     8
 74
     0
 42
0.00000001
 43
0.00000001
 12
1.0
 22
0.0
 32
0.0
 13
1.0
 23
0.0
 33
0.0
 40
0.0
 40
0.0
 40
0.0
 40
0.0
 40
0.1928965874354514
 40
0.4122227548788844
 40
0.6315569927533504
 40
0.8508891320794777
 40
1.0
 40
1.0
 40
1.0
 40
1.0
 10
841.7302430607829
 20
657.2433068857771
 30
0.0
 10
841.9471844429504
 20
657.2625608742422
 30
0.0
 10
842.4107912666544
 20
657.3037069218373
 30
0.0
 10
843.0539222984673
 20
657.6472074830752
 30
0.0
 10
843.5639232909351
 20
658.1932995345121
 30
0.0
 10
843.8399412613539
 20
658.8122415069325
 30
0.0
 10
843.8686312212873
 20
659.2258986272867
 30
0.0
 10
843.880242202476
 20
659.3933078901154
 30
0.0
  0
LINE
  5
F3
330
1F
100
AcDbEntity
  8
0
  6
Continuous
 62
     7
370
    15
100
AcDbLine
 10
841.7302430608
 20
657.2433068858
 30
0.0
 11
841.7302430608
 21
657.8933076442
 31
0.0
  0
SPLINE
  5
F4
330
1F
100
AcDbEntity
  8
0
  6
Continuous
 62
     7
370
    15
100
AcDbSpline
210
0.0
220
0.0
230
1.0
 70
     8
 71
     3
 72
    12
 73
     8
 74
     0
 42
0.00000001
 43
0.00000001
 12
1.0
 22
0.0
 32
0.0
 13
1.0
 23
0.0
 33
0.0
 40
0.0
 40
0.0
 40
0.0
 40
0.0
 40
0.2241769521601278
 40
0.4483888117545951
 40
0.6726055981097756
 40
0.8968233814975237
 40
1.0
 40
1.0
 40
1.0
 40
1.0
 10
841.7302430607829
 20
657.8933076442462
 30
0.0
 10
841.9063331295895
 20
657.9113989982648
 30
0.0
 10
842.2585406868485
 20
657.9475845233744
 30
0.0
 10
842.7225189875026
 20
658.228926731141
 30
0.0
 10
843.0623999926346
 20
658.6397673705495
 30
0.0
 10
843.2137312472031
 20
659.0565381366007
 30
0.0
 10
843.2262943542836
 20
659.3126086262637
 30
0.0
 10
843.2302535512003
 20
659.3933078901154
 30
0.0
  0
SPLINE
  5
F5
330
1F
100
AcDbEntity
  8
0
  6
Continuous
 62
     7
370
    15
100
AcDbSpline
210
0.0
220
0.0
230
1.0
 70
     8
 71
     3
 72
    12
 73
     8
 74
     0
 42
0.00000001
 43
0.00000001
 12
1.0
 22
0.0
 32
0.0
 13
1.0
 23
0.0
 33
0.0
 40
0.0
 40
0.0
 40
0.0
 40
0.0
 40
0.2241750300493121
 40
0.4483930980429675
 40
0.6726087369462268
 40
0.8968296553785969
 40
1.0
 40
1.0
 40
1.0
 40
1.0
 10
843.2302535512003
 20
663.8933076964003
 30
0.0
 10
843.2121580547256
 20
664.0693948032655
 30
0.0
 10
843.1759635877364
 20
664.4216028228441
 30
0.0
 10
842.8946253864843
 20
664.8855914156568
 30
0.0
 10
842.4837798790724
 20
665.2254800171294
 30
0.0
 10
842.0670074700361
 20
665.3768238905689
 30
0.0
 10
841.8109379010555
 20
665.3893580654936
 30
0.0
 10
841.7302430607829
 20
665.3933079422694
 30
0.0
  0
LINE
  5
F6
330
1F
100
AcDbEntity
  8
0
  6
Continuous
 62
     7
370
    15
100
AcDbLine
 10
841.7302430608
 20
666.0433077694
 30
0.0
 11
841.7302430608
 21
665.3933079423
 31
0.0
  0
SPLINE
  5
F7
330
1F
100
AcDbEntity
  8
0
  6
Continuous
 62
     7
370
    15
100
AcDbSpline
210
0.0
220
0.0
230
1.0
 70
     8
 71
     3
 72
    12
 73
     8
 74
     0
 42
0.00000001
 43
0.00000001
 12
1.0
 22
0.0
 32
0.0
 13
1.0
 23
0.0
 33
0.0
 40
0.0
 40
0.0
 40
0.0
 40
0.0
 40
0.1928946272869204
 40
0.4122216218429532
 40
0.6315524794460985
 40
0.8508879866002758
 40
1.0
 40
1.0
 40
1.0
 40
1.0
 10
843.880242202476
 20
663.8933076964003
 30
0.0
 10
843.860990590241
 20
664.1102463675024
 30
0.0
 10
843.8198493157007
 20
664.5738508343559
 30
0.0
 10
843.4763426391768
 20
665.2169726912464
 30
0.0
 10
842.93025661202
 20
665.7269811419993
 30
0.0
 10
842.3113174294616
 20
666.0030022147084
 30
0.0
 10
841.8976540799304
 20
666.03169549678
 30
0.0
 10
841.7302430607829
 20
666.043307769416
 30
0.0
  0
LINE
  5
F8
330
1F
100
AcDbEntity
  8
0
  6
Continuous
 62
     7
370
    15
100
AcDbLine
 10
841.3761318662
 20
657.8933076442
 30
0.0
 11
841.7302430608
 21
657.8933076442
 31
0.0
  0
LINE
  5
F9
330
1F
100
AcDbEntity
  8
0
  6
Continuous
 62
     7
370
    15
100
AcDbLine
 10
841.0231233575
 20
657.2433068858
 30
0.0
 11
841.7302430608
 21
657.2433068858
 31
0.0
  0
LINE
  5
FA
330
1F
100
AcDbEntity
  8
0
  6
Continuous
 62
     7
370
    15
100
AcDbLine
 10
841.7302430608
 20
666.0433077694
 30
0.0
 11
841.0231233575
 21
666.0433077694
 31
0.0
  0
LINE
  5
FB
330
1F
100
AcDbEntity
  8
0
  6
Continuous
 62
     7
370
    15
100
AcDbLine
 10
841.7302430608
 20
665.3933079423
 30
0.0
 11
841.3764596917
 21
665.3933079423
 31
0.0
  0
LINE
  5
FC
330
1F
100
AcDbEntity
  8
0
  6
Continuous
 62
     7
370
    15
100
AcDbLine
 10
101.740306709
 20
915.4433078573
 30
0.0
 11
46.0903109052
 21
915.4433078573
 31
0.0
  0
LINE
  5
FD
330
1F
100
AcDbEntity
  8
0
  6
Continuous
 62
     7
370
    15
100
AcDbLine
 10
46.0903109052
 20
915.4433078573
 30
0.0
 11
46.0903109052
 21
917.4433119104
 31
0.0
  0
LINE
  5
FE
330
1F
100
AcDbEntity
  8
0
  6
Continuous
 62
     7
370
    15
100
AcDbLine
 10
33.0902994611
 20
919.5933110521
 30
0.0
 11
33.0902994611
 21
931.0932971047
 31
0.0
  0
ARC
  5
FF
330
1F
100
AcDbEntity
  8
0
  6
Continuous
 62
     7
370
    15
100
AcDbCircle
 10
35.2403047202
 20
931.0933075909
 30
0.0
 40
2.150000000000091
100
AcDbArc
 50
90.0
 51
180.0
  0
LINE
  5
100
330
1F
100
AcDbEntity
  8
0
  6
Continuous
 62
     7
370
    15
100
AcDbLine
 10
35.2402986028
 20
933.2432962463
 30
0.0
 11
35.2419079282
 21
933.2432962463
 31
0.0
  0
ARC
  5
101
330
1F
100
AcDbEntity
  8
0
  6
Continuous
 62
     7
370
    15
100
AcDbCircle
 10
108.2403047202
 20
919.5933075905
 30
0.0
 40
4.350000000000042
100
AcDbArc
 50
179.999999996
 51
252.5584061437
  0
LINE
  5
102
330
1F
100
AcDbEntity
  8
0
  6
Continuous
 62
     7
370
    15
100
AcDbLine
 10
46.0903109052
 20
917.7433020876
 30
0.0
 11
46.0903109052
 21
917.4433119104
 31
0.0
  0
LINE
  5
103
330
1F
100
AcDbEntity
  8
0
  6
Continuous
 62
     7
370
    15
100
AcDbLine
 10
101.740306709
 20
930.9433020161
 30
0.0
 11
101.740306709
 21
933.2432962463
 31
0.0
  0
LINE
  5
104
330
1F
100
AcDbEntity
  8
0
  6
Continuous
 62
     7
370
    15
100
AcDbLine
 10
103.8903058507
 20
931.0932971047
 30
0.0
 11
103.8903058507
 21
919.5933110521
 31
0.0
  0
LINE
  5
105
330
1F
100
AcDbEntity
  8
0
  6
Continuous
 62
     7
370
    15
100
AcDbLine
 10
46.0903109052
 20
917.4433119104
 30
0.0
 11
35.2402986028
 21
917.4433119104
 31
0.0
  0
ARC
  5
106
330
1F
100
AcDbEntity
  8
0
  6
Continuous
 62
     7
370
    15
100
AcDbCircle
 10
35.2403047202
 20
919.5933075909
 30
0.0
 40
2.149999999999984
100
AcDbArc
 50
180.0
 51
270.0
  0
LINE
  5
107
330
1F
100
AcDbEntity
  8
0
  6
Continuous
 62
     7
370
    15
100
AcDbLine
 10
106.9364608266
 20
915.4433078573
 30
0.0
 11
101.740306709
 21
915.4433078573
 31
0.0
  0
LINE
  5
108
330
1F
100
AcDbEntity
  8
0
  6
Continuous
 62
     7
370
    15
100
AcDbLine
 10
35.2419079282
 20
933.2432962463
 30
0.0
 11
35.2419079282
 21
930.9433020161
 31
0.0
  0
ARC
  5
109
330
1F
100
AcDbEntity
  8
0
  6
Continuous
 62
     7
370
    15
100
AcDbCircle
 10
101.7403047202
 20
931.0933075909
 30
0.0
 40
2.150000000000105
100
AcDbArc
 50
359.9999999959
 51
90.0
  0
LINE
  5
10A
330
1F
100
AcDbEntity
  8
0
  6
Continuous
 62
     7
370
    15
100
AcDbLine
 10
101.740306709
 20
915.4433078573
 30
0.0
 11
101.740306709
 21
917.7433020876
 31
0.0
  0
LINE
  5
10B
330
1F
100
AcDbEntity
  8
0
  6
Continuous
 62
     7
370
    15
100
AcDbLine
 10
908.7117672898
 20
865.18450747
 30
0.0
 11
873.3184994199
 21
848.6803389595
 31
0.0
  0
SPLINE
  5
10C
330
1F
100
AcDbEntity
  8
0
  6
Continuous
 62
     7
370
    15
100
AcDbSpline
210
0.0
220
0.0
230
1.0
 70
     8
 71
     3
 72
    11
 73
     7
 74
     0
 42
0.00000001
 43
0.00000001
 12
1.0
 22
0.0
 32
0.0
 13
1.0
 23
0.0
 33
0.0
 40
0.0
 40
0.0
 40
0.0
 40
0.0
 40
0.2889756968407599
 40
0.5779504724415041
 40
0.8674386428106725
 40
1.0
 40
1.0
 40
1.0
 40
1.0
 10
873.3184994198832
 20
848.6803389595133
 30
0.0
 10
873.0149719326698
 20
848.5900622565732
 30
0.0
 10
872.4079179258736
 20
848.4095091384905
 30
0.0
 10
871.2593862514907
 20
848.6488951615044
 30
0.0
 10
870.2248273530015
 20
849.0406860246713
 30
0.0
 10
869.5978738877969
 20
849.3075337705125
 30
0.0
 10
869.4009543396983
 20
849.3913478658777
 30
0.0
  0
LINE
  5
10D
330
1F
100
AcDbEntity
  8
0
  6
Continuous
 62
     7
370
    15
100
AcDbLine
 10
872.8571892716
 20
847.4216974781
 30
0.0
 11
929.258143995
 21
726.469489883
 31
0.0
  0
SPLINE
  5
10E
330
1F
100
AcDbEntity
  8
0
  6
Continuous
 62
     7
370
    15
100
AcDbSpline
210
0.0
220
0.0
230
1.0
 70
     8
 71
     3
 72
    11
 73
     7
 74
     0
 42
0.00000001
 43
0.00000001
 12
1.0
 22
0.0
 32
0.0
 13
1.0
 23
0.0
 33
0.0
 40
0.0
 40
0.0
 40
0.0
 40
0.0
 40
0.2888120400448639
 40
0.5776164487219432
 40
0.8669342235397972
 40
1.0
 40
1.0
 40
1.0
 40
1.0
 10
869.4009543396983
 20
849.3913478658777
 30
0.0
 10
869.8486599108966
 20
849.2551343624941
 30
0.0
 10
870.7440592234336
 20
848.9827109549376
 30
0.0
 10
871.891228431912
 20
848.4827144721826
 30
0.0
 10
872.566117715499
 20
847.9464580630474
 30
0.0
 10
872.7874589457804
 20
847.5474113303102
 30
0.0
 10
872.8571892716441
 20
847.4216974781137
 30
0.0
  0
ARC
  5
10F
330
1F
100
AcDbEntity
  8
0
  6
Continuous
 62
     7
370
    15
100
AcDbCircle
 10
920.1950560036
 20
722.2433075909
 30
0.0
 40
9.999999999999673
100
AcDbArc
 50
335.0
 51
25.0
  0
SPLINE
  5
110
330
1F
100
AcDbEntity
  8
0
  6
Continuous
 62
     7
370
    15
100
AcDbSpline
210
0.0
220
0.0
230
1.0
 70
     8
 71
     3
 72
    12
 73
     8
 74
     0
 42
0.00000001
 43
0.00000001
 12
1.0
 22
0.0
 32
0.0
 13
1.0
 23
0.0
 33
0.0
 40
0.0
 40
0.0
 40
0.0
 40
0.0
 40
0.2096819501754736
 40
0.4420451978240919
 40
0.6744329471089905
 40
0.9068207266593246
 40
1.0
 40
1.0
 40
1.0
 40
1.0
 10
33.29191217203464
 20
912.9433102415186
 30
0.0
 10
33.18763275272518
 20
913.1956423450536
 30
0.0
 10
32.96779400886091
 20
913.7276013168731
 30
0.0
 10
32.6317997410513
 20
914.448969401466
 30
0.0
 10
32.28490290023511
 20
914.9923316574149
 30
0.0
 10
32.00649471664258
 20
915.2209562564715
 30
0.0
 10
31.84516747378396
 20
915.2383315554115
 30
0.0
 10
31.79899463434538
 20
915.2433044717891
 30
0.0
  0
LINE
  5
111
330
1F
100
AcDbEntity
  8
0
  6
Continuous
 62
     7
370
    15
100
AcDbLine
 10
31.7989946343
 20
915.2433044718
 30
0.0
 11
35.2419079282
 21
915.2433044718
 31
0.0
  0
LINE
  5
112
330
1F
100
AcDbEntity
  8
0
  6
Continuous
 62
     7
370
    15
100
AcDbLine
 10
45.9919036366
 20
915.2433044718
 30
0.0
 11
108.2419217565
 21
915.2433044718
 31
0.0
  0
SPLINE
  5
113
330
1F
100
AcDbEntity
  8
0
  6
Continuous
 62
     7
370
    15
100
AcDbSpline
210
0.0
220
0.0
230
1.0
 70
     8
 71
     3
 72
    12
 73
     8
 74
     0
 42
0.00000001
 43
0.00000001
 12
1.0
 22
0.0
 32
0.0
 13
1.0
 23
0.0
 33
0.0
 40
0.0
 40
0.0
 40
0.0
 40
0.0
 40
0.2096822021516558
 40
0.4420463083339706
 40
0.6744326146004861
 40
0.9068189740832882
 40
0.9999999999999999
 40
0.9999999999999999
 40
0.9999999999999999
 40
0.9999999999999999
 10
33.29191217203464
 20
670.3433076826167
 30
0.0
 10
33.03958134576024
 20
670.2390222521394
 30
0.0
 10
32.507624369494
 20
670.0191705475958
 30
0.0
 10
31.78623575125622
 20
669.6832055930735
 30
0.0
 10
31.24288064338304
 20
669.3362986770405
 30
0.0
 10
31.01423918122848
 20
669.0579177428517
 30
0.0
 10
30.99688492417379
 20
668.8965608757458
 30
0.0
 10
30.99191794176426
 20
668.8503787362259
 30
0.0
  0
LINE
  5
114
330
1F
100
AcDbEntity
  8
0
  6
Continuous
 62
     7
370
    15
100
AcDbLine
 10
30.9919179418
 20
914.4362426804
 30
0.0
 11
30.9919179418
 21
668.8503787362
 31
0.0
  0
SPLINE
  5
115
330
1F
100
AcDbEntity
  8
0
  6
Continuous
 62
     7
370
    15
100
AcDbSpline
210
0.0
220
0.0
230
1.0
 70
     8
 71
     3
 72
    12
 73
     8
 74
     0
 42
0.00000001
 43
0.00000001
 12
1.0
 22
0.0
 32
0.0
 13
1.0
 23
0.0
 33
0.0
 40
0.0
 40
0.0
 40
0.0
 40
0.0
 40
0.2096815629188593
 40
0.4420491149794379
 40
0.6744360928704168
 40
0.9068231010267308
 40
1.0
 40
1.0
 40
1.0
 40
1.0
 10
30.99191794176426
 20
914.436242680369
 30
0.0
 10
31.01624758134608
 20
914.3319547862678
 30
0.0
 10
31.06753914697163
 20
914.1120958218044
 30
0.0
 10
31.48851591880364
 20
913.7761434584738
 30
0.0
 10
32.14029150804604
 20
913.4292260855492
 30
0.0
 10
32.78972661282548
 20
913.1508396856118
 30
0.0
 10
33.18016740669449
 20
912.9894890465561
 30
0.0
 10
33.29191217203459
 20
912.9433102415187
 30
0.0
  0
LINE
  5
116
330
1F
100
AcDbEntity
  8
0
  6
Continuous
 62
     7
370
    15
100
AcDbLine
 10
30.9919179418
 20
914.4362426804
 30
0.0
 11
31.7919016816
 21
914.4362426804
 31
0.0
  0
SPLINE
  5
117
330
1F
100
AcDbEntity
  8
0
  6
Continuous
 62
     7
370
    15
100
AcDbSpline
210
0.0
220
0.0
230
1.0
 70
     8
 71
     3
 72
    11
 73
     7
 74
     0
 42
0.00000001
 43
0.00000001
 12
1.0
 22
0.0
 32
0.0
 13
1.0
 23
0.0
 33
0.0
 40
0.0
 40
0.0
 40
0.0
 40
0.0
 40
0.2543223474730156
 40
0.5088695669247337
 40
0.7634108890922889
 40
0.9999999999999999
 40
0.9999999999999999
 40
0.9999999999999999
 40
0.9999999999999999
 10
31.79190168161716
 20
914.436242680369
 30
0.0
 10
31.81526534428108
 20
914.3096610049851
 30
0.0
 10
31.86201332777405
 20
914.0563857306204
 30
0.0
 10
32.22089181359345
 20
913.676442821768
 30
0.0
 10
32.72009071322785
 20
913.3051948399062
 30
0.0
 10
33.10600713257866
 20
913.0609626477122
 30
0.0
 10
33.29191217203459
 20
912.9433102415187
 30
0.0
  0
SPLINE
  5
118
330
1F
100
AcDbEntity
  8
0
  6
Continuous
 62
     7
370
    15
100
AcDbSpline
210
0.0
220
0.0
230
1.0
 70
     8
 71
     3
 72
    11
 73
     7
 74
     0
 42
0.00000001
 43
0.00000001
 12
1.0
 22
0.0
 32
0.0
 13
1.0
 23
0.0
 33
0.0
 40
0.0
 40
0.0
 40
0.0
 40
0.0
 40
0.254322556810935
 40
0.5088642628279851
 40
0.763417191169868
 40
0.9999999999999999
 40
0.9999999999999999
 40
0.9999999999999999
 40
0.9999999999999999
 10
33.29191217203464
 20
912.9433102415186
 30
0.0
 10
33.16532980716131
 20
913.1432852764763
 30
0.0
 10
32.91205600165997
 20
913.5434076644541
 30
0.0
 10
32.53212062258509
 20
914.0450330696098
 30
0.0
 10
32.16087185910316
 20
914.3810899958231
 30
0.0
 10
31.91664167076524
 20
914.4230793337762
 30
0.0
 10
31.79899463434543
 20
914.4433058307749
 30
0.0
  0
LINE
  5
119
330
1F
100
AcDbEntity
  8
0
  6
Continuous
 62
     7
370
    15
100
AcDbLine
 10
31.7989946343
 20
915.2433044718
 30
0.0
 11
31.7989946343
 21
914.4433058308
 31
0.0
  0
CIRCLE
  5
11A
330
1F
100
AcDbEntity
  8
0
  6
Continuous
 62
     7
370
    15
100
AcDbCircle
 10
108.539134186
 20
895.2433075909
 30
0.0
 40
6.347663105371453
  0
CIRCLE
  5
11B
330
1F
100
AcDbEntity
  8
0
  6
Continuous
 62
     7
370
    15
100
AcDbCircle
 10
878.539134186
 20
895.2433075909
 30
0.0
 40
6.347663105371453
  0
CIRCLE
  5
11C
330
1F
100
AcDbEntity
  8
0
  6
Continuous
 62
     7
370
    15
100
AcDbCircle
 10
498.539134186
 20
895.2433075909
 30
0.0
 40
6.347663105371453
  0
SPLINE
  5
11D
330
1F
100
AcDbEntity
  8
0
  6
Continuous
 62
     7
370
    15
100
AcDbSpline
210
0.0
220
0.0
230
1.0
 70
     8
 71
     3
 72
    11
 73
     7
 74
     0
 42
0.00000001
 43
0.00000001
 12
1.0
 22
0.0
 32
0.0
 13
1.0
 23
0.0
 33
0.0
 40
0.0
 40
0.0
 40
0.0
 40
0.0
 40
0.2543215125062881
 40
0.508864067558153
 40
0.763412478510118
 40
1.0
 40
1.0
 40
1.0
 40
1.0
 10
33.29191217203464
 20
670.3433076826167
 30
0.0
 10
33.09193673679256
 20
670.2167270617938
 30
0.0
 10
32.69181205844313
 20
669.9634558030976
 30
0.0
 10
32.19019406825324
 20
669.5835034101448
 30
0.0
 10
31.85413173389356
 20
669.2122844860535
 30
0.0
 10
31.8121330672495
 20
668.9680365963677
 30
0.0
 10
31.79190168161716
 20
668.8503787362259
 30
0.0
  0
LINE
  5
11E
330
1F
100
AcDbEntity
  8
0
  6
Continuous
 62
     7
370
    15
100
AcDbLine
 10
30.9919179418
 20
668.8503787362
 30
0.0
 11
31.7919016816
 21
668.8503787362
 31
0.0
  0
ARC
  5
11F
330
1F
100
AcDbEntity
  8
0
  6
Continuous
 62
     7
370
    15
100
AcDbCircle
 10
899.5842575132
 20
678.0433075909
 30
0.0
 40
9.999999999999886
100
AcDbArc
 50
270.0
 51
335.0
  0
LINE
  5
120
330
1F
100
AcDbEntity
  8
0
  6
Continuous
 62
     7
370
    15
100
AcDbLine
 10
908.6473346688
 20
673.8171249952
 30
0.0
 11
929.258143995
 21
718.0171265708
 31
0.0
  0
SPLINE
  5
121
330
1F
100
AcDbEntity
  8
0
  6
Continuous
 62
     7
370
    15
100
AcDbSpline
210
0.0
220
0.0
230
1.0
 70
     8
 71
     3
 72
    12
 73
     8
 74
     0
 42
0.00000001
 43
0.00000001
 12
1.0
 22
0.0
 32
0.0
 13
1.0
 23
0.0
 33
0.0
 40
0.0
 40
0.0
 40
0.0
 40
0.0
 40
0.2096810798168898
 40
0.4420470284463186
 40
0.6744323161003873
 40
0.9068203889286796
 40
1.0
 40
1.0
 40
1.0
 40
1.0
 10
31.79899463434538
 20
668.0433076315802
 30
0.0
 10
31.90327402217974
 20
668.0676484118007
 30
0.0
 10
32.12311452262279
 20
668.1189633400526
 30
0.0
 10
32.45911041463123
 20
668.5398828758375
 30
0.0
 10
32.80597400283914
 20
669.1916868886603
 30
0.0
 10
33.08436152703825
 20
669.8411221506445
 30
0.0
 10
33.24572802085169
 20
670.2315614024214
 30
0.0
 10
33.29191217203464
 20
670.3433076826167
 30
0.0
  0
LINE
  5
122
330
1F
100
AcDbEntity
  8
0
  6
Continuous
 62
     7
370
    15
100
AcDbLine
 10
31.7989946343
 20
668.0433076316
 30
0.0
 11
31.7989946343
 21
668.8433076696
 31
0.0
  0
SPLINE
  5
123
330
1F
100
AcDbEntity
  8
0
  6
Continuous
 62
     7
370
    15
100
AcDbSpline
210
0.0
220
0.0
230
1.0
 70
     8
 71
     3
 72
    11
 73
     7
 74
     0
 42
0.00000001
 43
0.00000001
 12
1.0
 22
0.0
 32
0.0
 13
1.0
 23
0.0
 33
0.0
 40
0.0
 40
0.0
 40
0.0
 40
0.0
 40
0.254321445459641
 40
0.5088665713962858
 40
0.7634116654029907
 40
0.9999999999999999
 40
0.9999999999999999
 40
0.9999999999999999
 40
0.9999999999999999
 10
31.79899463434543
 20
668.8433076695782
 30
0.0
 10
31.92557703772031
 20
668.8666617819632
 30
0.0
 10
32.17885317606572
 20
668.9133905471126
 30
0.0
 10
32.55878688686664
 20
669.2722763639716
 30
0.0
 10
32.93000032034099
 20
669.7715045906891
 30
0.0
 10
33.17425165039989
 20
670.1574097913106
 30
0.0
 10
33.29191217203464
 20
670.3433076826167
 30
0.0
  0
ARC
  5
124
330
1F
100
AcDbEntity
  8
0
  6
Continuous
 62
     7
370
    15
100
AcDbCircle
 10
918.939134186
 20
905.2433075909
 30
0.0
 40
9.999999999999659
100
AcDbArc
 50
335.0
 51
90.0
  0
LINE
  5
125
330
1F
100
AcDbEntity
  8
0
  6
Continuous
 62
     7
370
    15
100
AcDbLine
 10
838.9808298089
 20
668.0433076316
 30
0.0
 11
31.7989946343
 21
668.0433076316
 31
0.0
  0
LINE
  5
126
330
1F
100
AcDbEntity
  8
0
  6
Continuous
 62
     7
370
    15
100
AcDbLine
 10
913.548654411
 20
870.0213945912
 30
0.0
 11
928.0022145249
 21
901.0171211765
 31
0.0
  0
ARC
  5
127
330
1F
100
AcDbEntity
  8
0
  6
Continuous
 62
     7
370
    15
100
AcDbCircle
 10
904.4855896344
 20
874.2475812743
 30
0.0
 40
10.00000000000028
100
AcDbArc
 50
295.0
 51
335.0
  0
CIRCLE
  5
128
330
1F
100
AcDbEntity
  8
0
  6
Continuous
 62
     7
370
    15
100
AcDbCircle
 10
878.539134186
 20
895.2433075909
 30
0.0
 40
2.699999999999932
  0
CIRCLE
  5
129
330
1F
100
AcDbEntity
  8
0
  6
Continuous
 62
     7
370
    15
100
AcDbCircle
 10
108.539134186
 20
895.2433075909
 30
0.0
 40
2.699999999999932
  0
CIRCLE
  5
12A
330
1F
100
AcDbEntity
  8
0
  6
Continuous
 62
     7
370
    15
100
AcDbCircle
 10
498.539134186
 20
895.2433075909
 30
0.0
 40
2.699999999999932
  0
CIRCLE
  5
12B
330
1F
100
AcDbEntity
  8
0
  6
Continuous
 62
     7
370
    15
100
AcDbCircle
 10
108.5950560048
 20
895.2433075909
 30
0.0
 40
2.524999999999991
  0
CIRCLE
  5
12C
330
1F
100
AcDbEntity
  8
0
  6
Continuous
 62
     7
370
    15
100
AcDbCircle
 10
108.5950560048
 20
895.2433075909
 30
0.0
 40
2.09999999999998
  0
CIRCLE
  5
12D
330
1F
100
AcDbEntity
  8
0
  6
Continuous
 62
     7
370
    15
100
AcDbCircle
 10
498.5950560048
 20
895.2433075909
 30
0.0
 40
2.524999999999977
  0
CIRCLE
  5
12E
330
1F
100
AcDbEntity
  8
0
  6
Continuous
 62
     7
370
    15
100
AcDbCircle
 10
498.5950560048
 20
895.2433075909
 30
0.0
 40
2.099999999999966
  0
LINE
  5
12F
330
1F
100
AcDbEntity
  8
0
  6
Continuous
 62
     7
370
    15
100
AcDbLine
 10
861.191904638
 20
915.2433044718
 30
0.0
 11
861.191904638
 21
917.2433085249
 31
0.0
  0
LINE
  5
130
330
1F
100
AcDbEntity
  8
0
  6
Continuous
 62
     7
370
    15
100
AcDbLine
 10
139.7919119336
 20
915.2433044718
 30
0.0
 11
861.191904638
 21
915.2433044718
 31
0.0
  0
LINE
  5
131
330
1F
100
AcDbEntity
  8
0
  6
Continuous
 62
     7
370
    15
100
AcDbLine
 10
139.7919119336
 20
917.2433085249
 30
0.0
 11
861.191904638
 21
917.2433085249
 31
0.0
  0
LINE
  5
132
330
1F
100
AcDbEntity
  8
0
  6
Continuous
 62
     7
370
    15
100
AcDbLine
 10
139.7919119336
 20
915.2433044718
 30
0.0
 11
139.7919119336
 21
917.2433085249
 31
0.0
  0
LINE
  5
133
330
1F
100
AcDbEntity
  8
0
  6
Continuous
 62
     7
370
    15
100
AcDbLine
 10
496.4950555005
 20
895.2433086441
 30
0.0
 11
500.6950558164
 21
895.2433086441
 31
0.0
  0
LINE
  5
134
330
1F
100
AcDbEntity
  8
0
  6
Continuous
 62
     7
370
    15
100
AcDbLine
 10
35.2419079282
 20
915.2433044718
 30
0.0
 11
43.9918995835
 21
915.2433044718
 31
0.0
  0
LINE
  5
135
330
1F
100
AcDbEntity
  8
0
  6
Continuous
 62
     7
370
    15
100
AcDbLine
 10
35.2419079282
 20
917.2433085249
 30
0.0
 11
43.9918995835
 21
917.2433085249
 31
0.0
  0
LINE
  5
136
330
1F
100
AcDbEntity
  8
0
  6
Continuous
 62
     7
370
    15
100
AcDbLine
 10
45.9919036366
 20
915.2433044718
 30
0.0
 11
45.9919036366
 21
917.2433085249
 31
0.0
  0
LINE
  5
137
330
1F
100
AcDbEntity
  8
0
  6
Continuous
 62
     7
370
    15
100
AcDbLine
 10
43.9918995835
 20
915.2433044718
 30
0.0
 11
45.9919036366
 21
915.2433044718
 31
0.0
  0
LINE
  5
138
330
1F
100
AcDbEntity
  8
0
  6
Continuous
 62
     7
370
    15
100
AcDbLine
 10
43.9918995835
 20
917.2433085249
 30
0.0
 11
45.9919036366
 21
917.2433085249
 31
0.0
  0
LINE
  5
139
330
1F
100
AcDbEntity
  8
0
  6
Continuous
 62
     7
370
    15
100
AcDbLine
 10
101.7419160344
 20
935.2433002995
 30
0.0
 11
35.2419079282
 21
935.2433002995
 31
0.0
  0
LINE
  5
13A
330
1F
100
AcDbEntity
  8
0
  6
Continuous
 62
     7
370
    15
100
AcDbLine
 10
101.7419160344
 20
933.2432962463
 30
0.0
 11
35.2419079282
 21
933.2432962463
 31
0.0
  0
ARC
  5
13B
330
1F
100
AcDbEntity
  8
0
  6
Continuous
 62
     7
370
    15
100
AcDbCircle
 10
101.741911776
 20
930.9933075909
 30
0.0
 40
4.250000000000028
100
AcDbArc
 50
0.0
 51
90.0
  0
ARC
  5
13C
330
1F
100
AcDbEntity
  8
0
  6
Continuous
 62
     7
370
    15
100
AcDbCircle
 10
101.741911776
 20
930.9933075909
 30
0.0
 40
2.250000000000028
100
AcDbArc
 50
0.0
 51
90.0
  0
LINE
  5
13D
330
1F
100
AcDbEntity
  8
0
  6
Continuous
 62
     7
370
    15
100
AcDbLine
 10
32.9919219949
 20
930.993310313
 30
0.0
 11
32.9919219949
 21
919.4933093594
 31
0.0
  0
LINE
  5
13E
330
1F
100
AcDbEntity
  8
0
  6
Continuous
 62
     7
370
    15
100
AcDbLine
 10
30.9919179418
 20
930.993310313
 30
0.0
 11
30.9919179418
 21
919.4933093594
 31
0.0
  0
LINE
  5
13F
330
1F
100
AcDbEntity
  8
0
  6
Continuous
 62
     7
370
    15
100
AcDbLine
 10
103.9919019677
 20
919.4933093594
 30
0.0
 11
103.9919019677
 21
930.993310313
 31
0.0
  0
LINE
  5
140
330
1F
100
AcDbEntity
  8
0
  6
Continuous
 62
     7
370
    15
100
AcDbLine
 10
105.9919060208
 20
919.4933093594
 30
0.0
 11
105.9919060208
 21
930.993310313
 31
0.0
  0
ARC
  5
141
330
1F
100
AcDbEntity
  8
0
  6
Continuous
 62
     7
370
    15
100
AcDbCircle
 10
35.241911776
 20
930.9933075909
 30
0.0
 40
2.250000000000028
100
AcDbArc
 50
90.0
 51
180.0
  0
ARC
  5
142
330
1F
100
AcDbEntity
  8
0
  6
Continuous
 62
     7
370
    15
100
AcDbCircle
 10
35.241911776
 20
930.9933075909
 30
0.0
 40
4.250000000000028
100
AcDbArc
 50
90.0
 51
180.0
  0
ARC
  5
143
330
1F
100
AcDbEntity
  8
0
  6
Continuous
 62
     7
370
    15
100
AcDbCircle
 10
35.241911776
 20
919.4933075909
 30
0.0
 40
4.250000000000028
100
AcDbArc
 50
180.0
 51
270.0
  0
ARC
  5
144
330
1F
100
AcDbEntity
  8
0
  6
Continuous
 62
     7
370
    15
100
AcDbCircle
 10
35.241911776
 20
919.4933075909
 30
0.0
 40
2.250000000000028
100
AcDbArc
 50
180.0
 51
270.0
  0
ARC
  5
145
330
1F
100
AcDbEntity
  8
0
  6
Continuous
 62
     7
370
    15
100
AcDbCircle
 10
108.241911776
 20
919.4933075909
 30
0.0
 40
4.25
100
AcDbArc
 50
180.0
 51
270.0
  0
ARC
  5
146
330
1F
100
AcDbEntity
  8
0
  6
Continuous
 62
     7
370
    15
100
AcDbCircle
 10
108.241911776
 20
919.4933075909
 30
0.0
 40
2.249999999999972
100
AcDbArc
 50
180.0
 51
270.0
  0
LINE
  5
147
330
1F
100
AcDbEntity
  8
0
  6
Continuous
 62
     7
370
    15
100
AcDbLine
 10
108.2419217565
 20
915.2433044718
 30
0.0
 11
139.7919119336
 21
915.2433044718
 31
0.0
  0
LINE
  5
148
330
1F
100
AcDbEntity
  8
0
  6
Continuous
 62
     7
370
    15
100
AcDbLine
 10
108.2419217565
 20
917.2433085249
 30
0.0
 11
139.7919119336
 21
917.2433085249
 31
0.0
  0
LINE
  5
149
330
1F
100
AcDbEntity
  8
0
  6
Continuous
 62
     7
370
    15
100
AcDbLine
 10
861.191904638
 20
917.2433085249
 30
0.0
 11
918.9950586297
 21
917.2433085249
 31
0.0
  0
LINE
  5
14A
330
1F
100
AcDbEntity
  8
0
  6
Continuous
 62
     7
370
    15
100
AcDbLine
 10
861.191904638
 20
915.2433044718
 30
0.0
 11
918.9950586297
 21
915.2433044718
 31
0.0
  0
LINE
  5
14B
330
1F
100
AcDbEntity
  8
0
  6
Continuous
 62
     7
370
    15
100
AcDbLine
 10
915.4326678254
 20
869.2092962072
 30
0.0
 11
929.870760534
 21
900.1718826101
 31
0.0
  0
LINE
  5
14C
330
1F
100
AcDbEntity
  8
0
  6
Continuous
 62
     7
370
    15
100
AcDbLine
 10
913.6200309732
 20
870.0545347736
 30
0.0
 11
928.0581236817
 21
901.0171211765
 31
0.0
  0
ARC
  5
14D
330
1F
100
AcDbEntity
  8
0
  6
Continuous
 62
     7
370
    15
100
AcDbCircle
 10
918.9950560048
 20
905.2433075909
 30
0.0
 40
12.00000000000006
100
AcDbArc
 50
335.0
 51
90.0
  0
ARC
  5
14E
330
1F
100
AcDbEntity
  8
0
  6
Continuous
 62
     7
370
    15
100
AcDbCircle
 10
918.9950560048
 20
905.2433075909
 30
0.0
 40
10.00000000000003
100
AcDbArc
 50
335.0
 51
90.0
  0
LINE
  5
14F
330
1F
100
AcDbEntity
  8
0
  6
Continuous
 62
     7
370
    15
100
AcDbLine
 10
908.783143852
 20
865.2176327513
 30
0.0
 11
891.2367583253
 21
857.035613756
 31
0.0
  0
LINE
  5
150
330
1F
100
AcDbEntity
  8
0
  6
Continuous
 62
     7
370
    15
100
AcDbLine
 10
909.6283675172
 20
863.4050257013
 30
0.0
 11
892.0819819905
 21
855.2230067061
 31
0.0
  0
ARC
  5
151
330
1F
100
AcDbEntity
  8
0
  6
Continuous
 62
     7
370
    15
100
AcDbCircle
 10
904.5569615798
 20
874.2807141775
 30
0.0
 40
11.99999999999996
100
AcDbArc
 50
295.0
 51
335.0
  0
ARC
  5
152
330
1F
100
AcDbEntity
  8
0
  6
Continuous
 62
     7
370
    15
100
AcDbCircle
 10
904.5569615798
 20
874.2807141775
 30
0.0
 40
9.999999999999826
100
AcDbArc
 50
295.0
 51
335.0
  0
LINE
  5
153
330
1F
100
AcDbEntity
  8
0
  6
Continuous
 62
     7
370
    15
100
AcDbLine
 10
890.2693749406
 20
854.3777681397
 30
0.0
 11
889.4241512754
 21
856.1903900908
 31
0.0
  0
LWPOLYLINE
  5
154
330
1F
100
AcDbEntity
  8
0
  6
Continuous
 62
     7
370
    15
100
AcDbPolyline
 90
        9
 70
   128
 43
0.0
 10
891.2367583253
 20
857.035613756
 10
890.8831239678
 20
856.8707175062
 10
890.5431092717
 20
856.7121691511
 10
890.2297080495
 20
856.5660334633
 10
889.9550498464
 20
856.4379430817
 10
889.7296250798
 20
856.3328302906
 10
889.5621062257
 20
856.2547184036
 10
889.4589603879
 20
856.2066323565
 10
889.4241512754
 20
856.1903900908
  0
LWPOLYLINE
  5
155
330
1F
100
AcDbEntity
  8
0
  6
Continuous
 62
     7
370
    15
100
AcDbPolyline
 90
        9
 70
   128
 43
0.0
 10
892.0819819905
 20
855.2230067061
 10
891.7283774354
 20
855.0581104563
 10
891.388332937
 20
854.8995472
 10
891.0749615171
 20
854.7534115122
 10
890.8002735116
 20
854.6253360317
 10
890.5748487451
 20
854.5202232407
 10
890.4073596932
 20
854.4421113537
 10
890.3042138555
 20
854.3940104054
 10
890.2693749406
 20
854.3777681397
  0
LINE
  5
156
330
1F
100
AcDbEntity
  8
0
  6
Continuous
 62
     7
370
    15
100
AcDbLine
 10
909.3982339837
 20
673.4790303661
 30
0.0
 11
930.0090433099
 21
717.6790303991
 31
0.0
  0
LINE
  5
157
330
1F
100
AcDbEntity
  8
0
  6
Continuous
 62
     7
370
    15
100
AcDbLine
 10
908.6732030847
 20
673.8171249952
 30
0.0
 11
929.2839826085
 21
718.0171265708
 31
0.0
  0
LINE
  5
158
330
1F
100
AcDbEntity
  8
0
  6
Continuous
 62
     7
370
    15
100
AcDbLine
 10
840.980833862
 20
667.2433075936
 30
0.0
 11
838.9808298089
 21
667.2433075936
 31
0.0
  0
LINE
  5
159
330
1F
100
AcDbEntity
  8
0
  6
Continuous
 62
     7
370
    15
100
AcDbLine
 10
838.9808298089
 20
667.2433075936
 30
0.0
 11
838.9808298089
 21
668.0433076316
 31
0.0
  0
LINE
  5
15A
330
1F
100
AcDbEntity
  8
0
  6
Continuous
 62
     7
370
    15
100
AcDbLine
 10
838.9808298089
 20
668.0433076316
 30
0.0
 11
840.980833862
 21
668.0433076316
 31
0.0
  0
LWPOLYLINE
  5
15B
330
1F
100
AcDbEntity
  8
0
  6
Continuous
 62
     7
370
    15
100
AcDbPolyline
 90
        9
 70
   128
 43
0.0
 10
887.0116830804
 20
854.9819804237
 10
887.3653174378
 20
855.1468766735
 10
887.705332134
 20
855.3054399298
 10
888.0187035539
 20
855.4515756176
 10
888.2933915593
 20
855.5796510981
 10
888.5188163259
 20
855.6847638891
 10
888.6863053777
 20
855.7628757761
 10
888.7894810178
 20
855.8109767244
 10
888.8242901303
 20
855.8272189901
  0
LINE
  5
15C
330
1F
100
AcDbEntity
  8
0
  6
Continuous
 62
     7
370
    15
100
AcDbLine
 10
888.8242901303
 20
855.8272189901
 30
0.0
 11
889.1623974778
 21
855.1021731899
 31
0.0
  0
LWPOLYLINE
  5
15D
330
1F
100
AcDbEntity
  8
0
  6
Continuous
 62
     7
370
    15
100
AcDbPolyline
 90
        9
 70
   128
 43
0.0
 10
889.1623974778
 20
855.1021731899
 10
889.1275585629
 20
855.0859309242
 10
889.0244127252
 20
855.0378299759
 10
888.8569236733
 20
854.9597180889
 10
888.6314989068
 20
854.8546052979
 10
888.3568109014
 20
854.7265298174
 10
888.0434394815
 20
854.5803941296
 10
887.703394983
 20
854.4218308733
 10
887.3497606256
 20
854.2569346235
  0
ARC
  5
15E
330
1F
100
AcDbEntity
  8
0
  6
Continuous
 62
     7
370
    15
100
AcDbCircle
 10
920.220915482
 20
722.2433075909
 30
0.0
 40
10.80000000000001
100
AcDbArc
 50
335.0
 51
25.0
  0
ARC
  5
15F
330
1F
100
AcDbEntity
  8
0
  6
Continuous
 62
     7
370
    15
100
AcDbCircle
 10
920.220915482
 20
722.2433075909
 30
0.0
 40
10.00000000000008
100
AcDbArc
 50
335.0
 51
25.0
  0
LINE
  5
160
330
1F
100
AcDbEntity
  8
0
  6
Continuous
 62
     7
370
    15
100
AcDbLine
 10
930.0090433099
 20
726.8075860546
 30
0.0
 11
874.1021812894
 21
846.7002577589
 31
0.0
  0
LINE
  5
161
330
1F
100
AcDbEntity
  8
0
  6
Continuous
 62
     7
370
    15
100
AcDbLine
 10
929.2839826085
 20
726.469489883
 30
0.0
 11
873.377120588
 21
846.3621653126
 31
0.0
  0
ARC
  5
162
330
1F
100
AcDbEntity
  8
0
  6
Continuous
 62
     7
370
    15
100
AcDbCircle
 10
875.2350546897
 20
847.2285264622
 30
0.0
 40
1.250000000000128
100
AcDbArc
 50
115.0
 51
205.0
  0
ARC
  5
163
330
1F
100
AcDbEntity
  8
0
  6
Continuous
 62
     7
370
    15
100
AcDbCircle
 10
875.2350546897
 20
847.2285264622
 30
0.0
 40
2.05000000000016
100
AcDbArc
 50
115.0
 51
205.0
  0
LINE
  5
164
330
1F
100
AcDbEntity
  8
0
  6
Continuous
 62
     7
370
    15
100
AcDbLine
 10
874.3686736562
 20
849.0864552067
 30
0.0
 11
887.0116830804
 21
854.9819804237
 31
0.0
  0
LINE
  5
165
330
1F
100
AcDbEntity
  8
0
  6
Continuous
 62
     7
370
    15
100
AcDbLine
 10
874.7067810037
 20
848.3614094065
 30
0.0
 11
887.3497606256
 21
854.2569346235
 31
0.0
  0
ARC
  5
166
330
1F
100
AcDbEntity
  8
0
  6
Continuous
 62
     7
370
    15
100
AcDbCircle
 10
899.6101169916
 20
678.0433075909
 30
0.0
 40
10.80000000000007
100
AcDbArc
 50
270.0
 51
335.0
  0
ARC
  5
167
330
1F
100
AcDbEntity
  8
0
  6
Continuous
 62
     7
370
    15
100
AcDbCircle
 10
899.6101169916
 20
678.0433075909
 30
0.0
 40
10.0
100
AcDbArc
 50
270.0
 51
335.0
  0
LINE
  5
168
330
1F
100
AcDbEntity
  8
0
  6
Continuous
 62
     7
370
    15
100
AcDbLine
 10
840.980833862
 20
667.2433075936
 30
0.0
 11
899.6101082303
 21
667.2433075936
 31
0.0
  0
LINE
  5
169
330
1F
100
AcDbEntity
  8
0
  6
Continuous
 62
     7
370
    15
100
AcDbLine
 10
840.980833862
 20
668.0433076316
 30
0.0
 11
899.6101082303
 21
668.0433076316
 31
0.0
  0
LWPOLYLINE
  5
16A
330
1F
100
AcDbEntity
  8
0
  6
Continuous
 62
     7
370
    15
100
AcDbPolyline
 90
        3
 70
   128
 43
0.0
 10
886.9473398664
 20
854.9519843863
 10
887.1737779119
 20
855.0827122734
 10
887.3419226148
 20
855.219579439
  0
LWPOLYLINE
  5
16B
330
1F
100
AcDbEntity
  8
0
  6
Continuous
 62
     7
370
    15
100
AcDbPolyline
 90
       27
 70
   128
 43
0.0
 10
919.9166060426
 20
760.2818898366
 10
919.6499944665
 20
760.853639941
 10
919.1347719171
 20
761.9585237907
 10
918.4820712544
 20
763.3582271145
 10
917.6990748384
 20
765.0374091671
 10
916.794306133
 20
766.977674465
 10
915.777719114
 20
769.1577665017
 10
914.6604300477
 20
771.5537912653
 10
913.4546876885
 20
774.1395078109
 10
912.1737242677
 20
776.8865815805
 10
910.8315170743
 20
779.7649122284
 10
909.442818258
 20
782.7429688976
 10
908.0228568055
 20
785.7881254957
 10
906.5871299245
 20
788.8670108722
 10
905.1514328458
 20
791.9458962486
 10
903.7314713933
 20
794.9910528467
 10
902.342772577
 20
797.969109516
 10
901.0005653836
 20
800.8474327133
 10
899.7196019628
 20
803.5945064829
 10
898.5138596036
 20
806.1802304791
 10
897.3965705373
 20
808.5762477921
 10
896.3799835183
 20
810.7563472794
 10
895.4752148129
 20
812.6966125773
 10
894.6922183969
 20
814.3757946299
 10
894.0395177342
 20
815.7754905031
 10
893.5242951848
 20
816.8803818033
 10
893.2576836087
 20
817.4521393583
  0
LWPOLYLINE
  5
16C
330
1F
100
AcDbEntity
  8
0
  6
Continuous
 62
     7
370
    15
100
AcDbPolyline
 90
        6
 70
   128
 43
0.0
 10
905.6342602708
 20
814.5724899576
 10
904.917574022
 20
816.1094106243
 10
904.3496013619
 20
817.3274464415
 10
903.9381803014
 20
818.2097292946
 10
903.6890328862
 20
818.7440402315
 10
903.6055863835
 20
818.922958474
  0
LWPOLYLINE
  5
16D
330
1F
100
AcDbEntity
  8
0
  6
Continuous
 62
     7
370
    15
100
AcDbPolyline
 90
        6
 70
   128
 43
0.0
 10
927.6948333718
 20
767.2634191321
 10
927.6114166715
 20
767.4423522757
 10
927.362239454
 20
767.976655762
 10
926.9508481957
 20
768.8589460657
 10
926.3828457334
 20
770.0769818829
 10
925.6661892869
 20
771.6139025496
  0
LINE
  5
16E
330
1F
100
AcDbEntity
  8
0
  6
Continuous
 62
     7
370
    15
100
AcDbLine
 10
897.7253199555
 20
815.6008786963
 30
0.0
 11
897.4959612824
 21
816.0923487948
 31
0.0
  0
LINE
  5
16F
330
1F
100
AcDbEntity
  8
0
  6
Continuous
 62
     7
370
    15
100
AcDbLine
 10
898.6037434079
 20
815.4688097046
 30
0.0
 11
897.7253199555
 21
815.6008786963
 31
0.0
  0
LINE
  5
170
330
1F
100
AcDbEntity
  8
0
  6
Continuous
 62
     7
370
    15
100
AcDbLine
 10
902.0663262345
 20
816.1635614441
 30
0.0
 11
898.4387577512
 21
815.8413089321
 31
0.0
  0
SPLINE
  5
171
330
1F
100
AcDbEntity
  8
0
  6
Continuous
 62
     7
370
    15
100
AcDbSpline
210
0.0
220
0.0
230
1.0
 70
     8
 71
     3
 72
    13
 73
     9
 74
     0
 42
0.00000001
 43
0.00000001
 12
1.0
 22
0.0
 32
0.0
 13
1.0
 23
0.0
 33
0.0
 40
0.0
 40
0.0
 40
0.0
 40
0.0
 40
0.1668548012165322
 40
0.3335012700934141
 40
0.5001334491502791
 40
0.6667258679779735
 40
0.832371971762724
 40
1.0
 40
1.0
 40
1.0
 40
1.0
 10
903.5652042367014
 20
805.950558881579
 30
0.0
 10
903.5290015418533
 20
805.9405418610355
 30
0.0
 10
903.4566413542855
 20
805.9205203270463
 30
0.0
 10
903.3617469122893
 20
805.8702024461558
 30
0.0
 10
903.2833476674516
 20
805.8050475408821
 30
0.0
 10
903.2271848446117
 20
805.7262350524296
 30
0.0
 10
903.1920649712932
 20
805.6380942240176
 30
0.0
 10
903.1894966538778
 20
805.5752083099779
 30
0.0
 10
903.1882048584971
 20
805.5435783670526
 30
0.0
  0
SPLINE
  5
172
330
1F
100
AcDbEntity
  8
0
  6
Continuous
 62
     7
370
    15
100
AcDbSpline
210
0.0
220
0.0
230
1.0
 70
     8
 71
     3
 72
    10
 73
     6
 74
     0
 42
0.00000001
 43
0.00000001
 12
1.0
 22
0.0
 32
0.0
 13
1.0
 23
0.0
 33
0.0
 40
0.0
 40
0.0
 40
0.0
 40
0.0
 40
0.5008404771162758
 40
0.7508773390801313
 40
1.0
 40
1.0
 40
1.0
 40
1.0
 10
905.1295281388316
 20
805.6087858484369
 30
0.0
 10
904.8798532283965
 20
805.7120334965988
 30
0.0
 10
904.5055319805174
 20
805.8668259362285
 30
0.0
 10
903.964385963621
 20
805.9890938321273
 30
0.0
 10
903.6981022478438
 20
805.9633881719548
 30
0.0
 10
903.5652042367014
 20
805.950558881579
 30
0.0
  0
LINE
  5
173
330
1F
100
AcDbEntity
  8
0
  6
Continuous
 62
     7
370
    15
100
AcDbLine
 10
906.9171608426
 20
804.8286951588
 30
0.0
 11
905.1295281388
 21
805.6087858484
 31
0.0
  0
LINE
  5
174
330
1F
100
AcDbEntity
  8
0
  6
Continuous
 62
     7
370
    15
100
AcDbLine
 10
907.2924316861
 20
804.9158967541
 30
0.0
 11
906.9171608426
 21
804.8286951588
 31
0.0
  0
LINE
  5
175
330
1F
100
AcDbEntity
  8
0
  6
Continuous
 62
     7
370
    15
100
AcDbLine
 10
906.0350717046
 20
805.9232152508
 30
0.0
 11
905.4601849057
 21
807.1227140234
 31
0.0
  0
SPLINE
  5
176
330
1F
100
AcDbEntity
  8
0
  6
Continuous
 62
     7
370
    15
100
AcDbSpline
210
0.0
220
0.0
230
1.0
 70
     8
 71
     3
 72
     9
 73
     5
 74
     0
 42
0.00000001
 43
0.00000001
 12
1.0
 22
0.0
 32
0.0
 13
1.0
 23
0.0
 33
0.0
 40
0.0
 40
0.0
 40
0.0
 40
0.0
 40
0.6943924722363014
 40
1.0
 40
1.0
 40
1.0
 40
1.0
 10
902.4837375618968
 20
805.2273310230356
 30
0.0
 10
902.4297716420144
 20
805.3680717239289
 30
0.0
 10
902.3520549010647
 20
805.5707535019153
 30
0.0
 10
902.3815360413823
 20
805.7684336542919
 30
0.0
 10
902.3905456997904
 20
805.8288461969477
 30
0.0
  0
SPLINE
  5
177
330
1F
100
AcDbEntity
  8
0
  6
Continuous
 62
     7
370
    15
100
AcDbSpline
210
0.0
220
0.0
230
1.0
 70
     8
 71
     3
 72
    13
 73
     9
 74
     0
 42
0.00000001
 43
0.00000001
 12
1.0
 22
0.0
 32
0.0
 13
1.0
 23
0.0
 33
0.0
 40
0.0
 40
0.0
 40
0.0
 40
0.0
 40
0.2498981039322787
 40
0.3750948847455877
 40
0.5002447369073835
 40
0.6260937028924757
 40
0.7505721373174928
 40
1.0
 40
1.0
 40
1.0
 40
1.0
 10
904.4593037106547
 20
804.3641961620432
 30
0.0
 10
904.2637267531711
 20
804.3385352408438
 30
0.0
 10
903.9701674377067
 20
804.3000184208751
 30
0.0
 10
903.5667009953827
 20
804.3622949411249
 30
0.0
 10
903.275828147478
 20
804.4578525733799
 30
0.0
 10
903.011461505446
 20
804.6005468270663
 30
0.0
 10
902.7054739283807
 20
804.843063141258
 30
0.0
 10
902.5724656174707
 20
805.0735657994489
 30
0.0
 10
902.4837375618968
 20
805.2273310230356
 30
0.0
  0
SPLINE
  5
178
330
1F
100
AcDbEntity
  8
0
  6
Continuous
 62
     7
370
    15
100
AcDbSpline
210
0.0
220
0.0
230
1.0
 70
     8
 71
     3
 72
    13
 73
     9
 74
     0
 42
0.00000001
 43
0.00000001
 12
1.0
 22
0.0
 32
0.0
 13
1.0
 23
0.0
 33
0.0
 40
0.0
 40
0.0
 40
0.0
 40
0.0
 40
0.2505560873899675
 40
0.5000837242677816
 40
0.6251757491780869
 40
0.7501956170104616
 40
0.8750946590184582
 40
1.0
 40
1.0
 40
1.0
 40
1.0
 10
911.446696613029
 20
789.8807294176203
 30
0.0
 10
911.4021673667683
 20
789.9572114173902
 30
0.0
 10
911.3132916521895
 20
790.1098614834204
 30
0.0
 10
911.1655936335567
 20
790.2788887609513
 30
0.0
 10
911.0146455968659
 20
790.3650459592019
 30
0.0
 10
910.8920529957667
 20
790.4011066612851
 30
0.0
 10
910.7647125406602
 20
790.4056501105364
 30
0.0
 10
910.6869408190299
 20
790.3772156418954
 30
0.0
 10
910.6480539776835
 20
790.3629980490786
 30
0.0
  0
SPLINE
  5
179
330
1F
100
AcDbEntity
  8
0
  6
Continuous
 62
     7
370
    15
100
AcDbSpline
210
0.0
220
0.0
230
1.0
 70
     8
 71
     3
 72
    13
 73
     9
 74
     0
 42
0.00000001
 43
0.00000001
 12
1.0
 22
0.0
 32
0.0
 13
1.0
 23
0.0
 33
0.0
 40
0.0
 40
0.0
 40
0.0
 40
0.0
 40
0.2496958393209817
 40
0.3749153049150158
 40
0.5002261676055171
 40
0.6262255597039093
 40
0.7507629185196911
 40
1.0
 40
1.0
 40
1.0
 40
1.0
 10
913.0870760418925
 20
791.0443014906031
 30
0.0
 10
913.0429009581518
 20
791.1224412989329
 30
0.0
 10
912.9765726002772
 20
791.2397672830007
 30
0.0
 10
912.8407250548503
 20
791.3536763113467
 30
0.0
 10
912.7256208472047
 20
791.4155361757685
 30
0.0
 10
912.6032607847757
 20
791.4550957837376
 30
0.0
 10
912.4337667380278
 20
791.4742910360828
 30
0.0
 10
912.3154276328426
 20
791.4325138070069
 30
0.0
 10
912.2365177609477
 20
791.4046562717539
 30
0.0
  0
SPLINE
  5
17A
330
1F
100
AcDbEntity
  8
0
  6
Continuous
 62
     7
370
    15
100
AcDbSpline
210
0.0
220
0.0
230
1.0
 70
     8
 71
     3
 72
    12
 73
     8
 74
     0
 42
0.00000001
 43
0.00000001
 12
1.0
 22
0.0
 32
0.0
 13
1.0
 23
0.0
 33
0.0
 40
0.0
 40
0.0
 40
0.0
 40
0.0
 40
0.2504684018135986
 40
0.4998347255116578
 40
0.6240442120213322
 40
0.7503584834997251
 40
1.0
 40
1.0
 40
1.0
 40
1.0
 10
912.812149617866
 20
790.1162571714502
 30
0.0
 10
912.8799669320517
 20
790.1690181639651
 30
0.0
 10
913.0153031595983
 20
790.2743079970159
 30
0.0
 10
913.1311167339472
 20
790.4679834196963
 30
0.0
 10
913.1676700283913
 20
790.6441075742795
 30
0.0
 10
913.1691170349607
 20
790.8276294876373
 30
0.0
 10
913.1198140952346
 20
790.9578395972793
 30
0.0
 10
913.0870760418925
 20
791.0443014906031
 30
0.0
  0
LINE
  5
17B
330
1F
100
AcDbEntity
  8
0
  6
Continuous
 62
     7
370
    15
100
AcDbLine
 10
913.1591380574
 20
789.3458596871
 30
0.0
 11
912.8121496179
 21
790.1162571715
 31
0.0
  0
SPLINE
  5
17C
330
1F
100
AcDbEntity
  8
0
  6
Continuous
 62
     7
370
    15
100
AcDbSpline
210
0.0
220
0.0
230
1.0
 70
     8
 71
     3
 72
    11
 73
     7
 74
     0
 42
0.00000001
 43
0.00000001
 12
1.0
 22
0.0
 32
0.0
 13
1.0
 23
0.0
 33
0.0
 40
0.0
 40
0.0
 40
0.0
 40
0.0
 40
0.250238899228055
 40
0.5000971396292312
 40
0.7499430001518769
 40
1.0
 40
1.0
 40
1.0
 40
1.0
 10
911.2938703038249
 20
790.9228868291956
 30
0.0
 10
911.2793346146999
 20
791.0508375203465
 30
0.0
 10
911.2502853478741
 20
791.306544266402
 30
0.0
 10
911.3518762186025
 20
791.6738580636904
 30
0.0
 10
911.5603234681937
 20
791.9831579288515
 30
0.0
 10
911.7683007964941
 20
792.1047781007167
 30
0.0
 10
911.87233338137
 20
792.1656138704401
 30
0.0
  0
SPLINE
  5
17D
330
1F
100
AcDbEntity
  8
0
  6
Continuous
 62
     7
370
    15
100
AcDbSpline
210
0.0
220
0.0
230
1.0
 70
     8
 71
     3
 72
    12
 73
     8
 74
     0
 42
0.00000001
 43
0.00000001
 12
1.0
 22
0.0
 32
0.0
 13
1.0
 23
0.0
 33
0.0
 40
0.0
 40
0.0
 40
0.0
 40
0.0
 40
0.249999306893385
 40
0.4996400817443568
 40
0.749240125442073
 40
0.874597179938232
 40
1.0
 40
1.0
 40
1.0
 40
1.0
 10
909.7906411625895
 20
789.4658363865
 30
0.0
 10
909.7322262760574
 20
789.6196610701035
 30
0.0
 10
909.6154802776601
 20
789.9270898323871
 30
0.0
 10
909.6528757875371
 20
790.4200947241928
 30
0.0
 10
909.812525822232
 20
790.7833671117177
 30
0.0
 10
910.0242521118864
 20
791.0077506525074
 30
0.0
 10
910.1570693525455
 20
791.0816994765648
 30
0.0
 10
910.2234900929484
 20
791.1186806367022
 30
0.0
  0
SPLINE
  5
17E
330
1F
100
AcDbEntity
  8
0
  6
Continuous
 62
     7
370
    15
100
AcDbSpline
210
0.0
220
0.0
230
1.0
 70
     8
 71
     3
 72
     9
 73
     5
 74
     0
 42
0.00000001
 43
0.00000001
 12
1.0
 22
0.0
 32
0.0
 13
1.0
 23
0.0
 33
0.0
 40
0.0
 40
0.0
 40
0.0
 40
0.0
 40
0.4997284638600236
 40
1.0
 40
1.0
 40
1.0
 40
1.0
 10
910.5727137066874
 20
788.7011982009989
 30
0.0
 10
910.4068363096345
 20
788.7866701203452
 30
0.0
 10
910.0749012507997
 20
788.9577068443411
 30
0.0
 10
909.8854288244005
 20
789.2963985610861
 30
0.0
 10
909.7906411625895
 20
789.4658363865
 30
0.0
  0
SPLINE
  5
17F
330
1F
100
AcDbEntity
  8
0
  6
Continuous
 62
     7
370
    15
100
AcDbSpline
210
0.0
220
0.0
230
1.0
 70
     8
 71
     3
 72
     9
 73
     5
 74
     0
 42
0.00000001
 43
0.00000001
 12
1.0
 22
0.0
 32
0.0
 13
1.0
 23
0.0
 33
0.0
 40
0.0
 40
0.0
 40
0.0
 40
0.0
 40
0.5006388387949946
 40
1.0
 40
1.0
 40
1.0
 40
1.0
 10
911.389893386558
 20
788.6972121403795
 30
0.0
 10
911.2547981467077
 20
788.6616372184117
 30
0.0
 10
910.9849524428157
 20
788.5905781650357
 30
0.0
 10
910.7100095225944
 20
788.6643562772247
 30
0.0
 10
910.5727137066874
 20
788.7011982009989
 30
0.0
  0
LINE
  5
180
330
1F
100
AcDbEntity
  8
0
  6
Continuous
 62
     7
370
    15
100
AcDbLine
 10
917.0582355001
 20
774.0385300921
 30
0.0
 11
916.7569340207
 21
774.6687001989
 31
0.0
  0
LINE
  5
181
330
1F
100
AcDbEntity
  8
0
  6
Continuous
 62
     7
370
    15
100
AcDbLine
 10
919.4928766229
 20
776.8116808937
 30
0.0
 11
920.1776445844
 21
777.3481823013
 31
0.0
  0
LINE
  5
182
330
1F
100
AcDbEntity
  8
0
  6
Continuous
 62
     7
370
    15
100
AcDbLine
 10
918.7603653409
 20
776.6492060826
 30
0.0
 11
919.3475604989
 21
777.1091751264
 31
0.0
  0
LINE
  5
183
330
1F
100
AcDbEntity
  8
0
  6
Continuous
 62
     7
370
    15
100
AcDbLine
 10
918.9055920579
 20
776.3517565535
 30
0.0
 11
918.7603653409
 21
776.6492060826
 31
0.0
  0
LINE
  5
184
330
1F
100
AcDbEntity
  8
0
  6
Continuous
 62
     7
370
    15
100
AcDbLine
 10
916.7569340207
 20
774.6687001989
 30
0.0
 11
918.9055920579
 21
776.3517565535
 31
0.0
  0
LINE
  5
185
330
1F
100
AcDbEntity
  8
0
  6
Continuous
 62
     7
370
    15
100
AcDbLine
 10
921.9649196603
 20
763.67590497
 30
0.0
 11
921.6246367433
 21
764.3711484478
 31
0.0
  0
SPLINE
  5
186
330
1F
100
AcDbEntity
  8
0
  6
Continuous
 62
     7
370
    15
100
AcDbSpline
210
0.0
220
0.0
230
1.0
 70
     8
 71
     3
 72
    10
 73
     6
 74
     0
 42
0.00000001
 43
0.00000001
 12
1.0
 22
0.0
 32
0.0
 13
1.0
 23
0.0
 33
0.0
 40
0.0
 40
0.0
 40
0.0
 40
0.0
 40
0.2499941560549894
 40
0.5002543036980485
 40
1.0
 40
1.0
 40
1.0
 40
1.0
 10
923.5050440766368
 20
765.5702225373369
 30
0.0
 10
923.5160596308938
 20
765.5562381815753
 30
0.0
 10
923.5381024598609
 20
765.5282545908202
 30
0.0
 10
923.6280004178974
 20
765.5278890199744
 30
0.0
 10
923.7200061347892
 20
765.5684788175685
 30
0.0
 10
923.7813116051707
 20
765.5955247090441
 30
0.0
  0
SPLINE
  5
187
330
1F
100
AcDbEntity
  8
0
  6
Continuous
 62
     7
370
    15
100
AcDbSpline
210
0.0
220
0.0
230
1.0
 70
     8
 71
     3
 72
    11
 73
     7
 74
     0
 42
0.00000001
 43
0.00000001
 12
1.0
 22
0.0
 32
0.0
 13
1.0
 23
0.0
 33
0.0
 40
0.0
 40
0.0
 40
0.0
 40
0.0
 40
0.2503270401026801
 40
0.5003317106428377
 40
0.7501393301841567
 40
1.0
 40
1.0
 40
1.0
 40
1.0
 10
924.3110776879344
 20
766.0656116412264
 30
0.0
 10
924.3479613261015
 20
766.1183373948202
 30
0.0
 10
924.4216811039225
 20
766.223721002119
 30
0.0
 10
924.495467895789
 20
766.3700207146429
 30
0.0
 10
924.5328047732093
 20
766.4950020664347
 30
0.0
 10
924.5194353999041
 20
766.5466883555367
 30
0.0
 10
924.5127500035319
 20
766.5725342438799
 30
0.0
  0
LINE
  5
188
330
1F
100
AcDbEntity
  8
0
  6
Continuous
 62
     7
370
    15
100
AcDbLine
 10
924.427098129
 20
765.7943956063
 30
0.0
 11
924.3110776879
 21
766.0656116412
 31
0.0
  0
SPLINE
  5
189
330
1F
100
AcDbEntity
  8
0
  6
Continuous
 62
     7
370
    15
100
AcDbSpline
210
0.0
220
0.0
230
1.0
 70
     8
 71
     3
 72
    11
 73
     7
 74
     0
 42
0.00000001
 43
0.00000001
 12
1.0
 22
0.0
 32
0.0
 13
1.0
 23
0.0
 33
0.0
 40
0.0
 40
0.0
 40
0.0
 40
0.0
 40
0.2762111703193444
 40
0.5521834186371565
 40
0.8280953411950581
 40
1.0
 40
1.0
 40
1.0
 40
1.0
 10
923.7249256112132
 20
766.5452874706369
 30
0.0
 10
923.870338391013
 20
766.6830651978647
 30
0.0
 10
924.1610381689059
 20
766.9585014749158
 30
0.0
 10
924.579358037183
 20
767.1925598514624
 30
0.0
 10
924.8902762905391
 20
767.2813628158091
 30
0.0
 10
924.9699212634122
 20
767.2018412358365
 30
0.0
 10
925.0004948117289
 20
767.1713150547129
 30
0.0
  0
SPLINE
  5
18A
330
1F
100
AcDbEntity
  8
0
  6
Continuous
 62
     7
370
    15
100
AcDbSpline
210
0.0
220
0.0
230
1.0
 70
     8
 71
     3
 72
    13
 73
     9
 74
     0
 42
0.00000001
 43
0.00000001
 12
1.0
 22
0.0
 32
0.0
 13
1.0
 23
0.0
 33
0.0
 40
0.0
 40
0.0
 40
0.0
 40
0.0
 40
0.2493168709112641
 40
0.3731104906789546
 40
0.499793202772656
 40
0.625514143542186
 40
0.7502704836165311
 40
1.0
 40
1.0
 40
1.0
 40
1.0
 10
922.9390979744944
 20
765.0171137855631
 30
0.0
 10
922.920768970403
 20
765.092887385664
 30
0.0
 10
922.8933390428367
 20
765.2062849468111
 30
0.0
 10
922.9677346601844
 20
765.4550916471168
 30
0.0
 10
923.0606646261866
 20
765.6635644210776
 30
0.0
 10
923.1882920864838
 20
765.8871255501402
 30
0.0
 10
923.3983041936755
 20
766.192083240188
 30
0.0
 10
923.5942543522359
 20
766.4039812396592
 30
0.0
 10
923.7249256112132
 20
766.5452874706369
 30
0.0
  0
LINE
  5
18B
330
1F
100
AcDbEntity
  8
0
  6
Continuous
 62
     7
370
    15
100
AcDbLine
 10
923.0127991178
 20
764.9537838505
 30
0.0
 11
922.9390979745
 21
765.0171137856
 31
0.0
  0
LINE
  5
18C
330
1F
100
AcDbEntity
  8
0
  6
Continuous
 62
     7
370
    15
100
AcDbLine
 10
922.4178553559
 20
764.4345901416
 30
0.0
 11
923.0127991178
 21
764.9537838505
 31
0.0
  0
LINE
  5
18D
330
1F
100
AcDbEntity
  8
0
  6
Continuous
 62
     7
370
    15
100
AcDbLine
 10
921.6246367433
 20
764.3711484478
 30
0.0
 11
922.1707344987
 21
764.9279750393
 31
0.0
  0
LINE
  5
18E
330
1F
100
AcDbEntity
  8
0
  6
Continuous
 62
     7
370
    15
100
AcDbLine
 10
911.0545278527
 20
789.4456229613
 30
0.0
 11
911.3935590722
 21
788.6981807159
 31
0.0
  0
SPLINE
  5
18F
330
1F
100
AcDbEntity
  8
0
  6
Continuous
 62
     7
370
    15
100
AcDbSpline
210
0.0
220
0.0
230
1.0
 70
     8
 71
     3
 72
     9
 73
     5
 74
     0
 42
0.00000001
 43
0.00000001
 12
1.0
 22
0.0
 32
0.0
 13
1.0
 23
0.0
 33
0.0
 40
0.0
 40
0.0
 40
0.0
 40
0.0
 40
0.5006289713906731
 40
1.0
 40
1.0
 40
1.0
 40
1.0
 10
911.3935590722117
 20
788.6981807158571
 30
0.0
 10
911.2584525404175
 20
788.6626161949487
 30
0.0
 10
910.9885789623487
 20
788.5915765169821
 30
0.0
 10
910.713624220136
 20
788.6654038522518
 30
0.0
 10
910.5763197876963
 20
788.7022710846048
 30
0.0
  0
SPLINE
  5
190
330
1F
100
AcDbEntity
  8
0
  6
Continuous
 62
     7
370
    15
100
AcDbSpline
210
0.0
220
0.0
230
1.0
 70
     8
 71
     3
 72
     9
 73
     5
 74
     0
 42
0.00000001
 43
0.00000001
 12
1.0
 22
0.0
 32
0.0
 13
1.0
 23
0.0
 33
0.0
 40
0.0
 40
0.0
 40
0.0
 40
0.0
 40
0.4996918894889837
 40
1.0
 40
1.0
 40
1.0
 40
1.0
 10
910.5762899853739
 20
788.7022710846048
 30
0.0
 10
910.41040458242
 20
788.7877900745721
 30
0.0
 10
910.0784292063071
 20
788.9589335166933
 30
0.0
 10
909.888914151147
 20
789.2976982153135
 30
0.0
 10
909.7940982319865
 20
789.467184941588
 30
0.0
  0
SPLINE
  5
191
330
1F
100
AcDbEntity
  8
0
  6
Continuous
 62
     7
370
    15
100
AcDbSpline
210
0.0
220
0.0
230
1.0
 70
     8
 71
     3
 72
    12
 73
     8
 74
     0
 42
0.00000001
 43
0.00000001
 12
1.0
 22
0.0
 32
0.0
 13
1.0
 23
0.0
 33
0.0
 40
0.0
 40
0.0
 40
0.0
 40
0.0
 40
0.2500368680603856
 40
0.4996960533418534
 40
0.7492895794133758
 40
0.8746258788244566
 40
0.9999999999999999
 40
0.9999999999999999
 40
0.9999999999999999
 40
0.9999999999999999
 10
909.7940982319865
 20
789.467184941588
 30
0.0
 10
909.7356608577641
 20
789.6210531387297
 30
0.0
 10
909.6188743794613
 20
789.9285571138154
 30
0.0
 10
909.6562382950766
 20
790.4216710357986
 30
0.0
 10
909.8158613633369
 20
790.7850164494868
 30
0.0
 10
910.0275532848816
 20
791.0094485422194
 30
0.0
 10
910.1603566490684
 20
791.083403674929
 30
0.0
 10
910.226768348411
 20
791.1203868196588
 30
0.0
  0
SPLINE
  5
192
330
1F
100
AcDbEntity
  8
0
  6
Continuous
 62
     7
370
    15
100
AcDbSpline
210
0.0
220
0.0
230
1.0
 70
     8
 71
     3
 72
    11
 73
     7
 74
     0
 42
0.00000001
 43
0.00000001
 12
1.0
 22
0.0
 32
0.0
 13
1.0
 23
0.0
 33
0.0
 40
0.0
 40
0.0
 40
0.0
 40
0.0
 40
0.249791545433125
 40
0.4996094941610844
 40
0.7496537793731308
 40
1.0
 40
1.0
 40
1.0
 40
1.0
 10
910.226768348411
 20
791.1203868196588
 30
0.0
 10
910.3148702754063
 20
791.1533282188856
 30
0.0
 10
910.4910834418862
 20
791.2192144992886
 30
0.0
 10
910.7816717423965
 20
791.2015752196738
 30
0.0
 10
911.0594877565998
 20
791.1039373378696
 30
0.0
 10
911.2179758873613
 20
790.9842842780237
 30
0.0
 10
911.2972677685771
 20
790.9244216487986
 30
0.0
  0
SPLINE
  5
193
330
1F
100
AcDbEntity
  8
0
  6
Continuous
 62
     7
370
    15
100
AcDbSpline
210
0.0
220
0.0
230
1.0
 70
     8
 71
     3
 72
    11
 73
     7
 74
     0
 42
0.00000001
 43
0.00000001
 12
1.0
 22
0.0
 32
0.0
 13
1.0
 23
0.0
 33
0.0
 40
0.0
 40
0.0
 40
0.0
 40
0.0
 40
0.25027300256175
 40
0.5001463331922852
 40
0.7499677033635952
 40
1.0
 40
1.0
 40
1.0
 40
1.0
 10
911.2972677685771
 20
790.9244216487986
 30
0.0
 10
911.2827085395188
 20
791.0524041225214
 30
0.0
 10
911.2536133316737
 20
791.3081646891432
 30
0.0
 10
911.3551836265133
 20
791.6755454253076
 30
0.0
 10
911.5635542988944
 20
791.9849354225039
 30
0.0
 10
911.7715434004721
 20
792.1065577397195
 30
0.0
 10
911.8755818345103
 20
792.1673945592028
 30
0.0
  0
SPLINE
  5
194
330
1F
100
AcDbEntity
  8
0
  6
Continuous
 62
     7
370
    15
100
AcDbSpline
210
0.0
220
0.0
230
1.0
 70
     8
 71
     3
 72
    12
 73
     8
 74
     0
 42
0.00000001
 43
0.00000001
 12
1.0
 22
0.0
 32
0.0
 13
1.0
 23
0.0
 33
0.0
 40
0.0
 40
0.0
 40
0.0
 40
0.0
 40
0.249325236662813
 40
0.3746725358111129
 40
0.500148913661237
 40
0.7497782913121205
 40
1.0
 40
1.0
 40
1.0
 40
1.0
 10
911.8755818345103
 20
792.1673945592028
 30
0.0
 10
912.0529599327173
 20
792.2284001860662
 30
0.0
 10
912.3195141842731
 20
792.3200761560626
 30
0.0
 10
912.699910841522
 20
792.2642318639189
 30
0.0
 10
913.0615869817684
 20
792.1370309322086
 30
0.0
 10
913.4753003671398
 20
791.8433285309186
 30
0.0
 10
913.6704355184164
 20
791.4933709675246
 30
0.0
 10
913.7681187130961
 20
791.318184833346
 30
0.0
  0
SPLINE
  5
195
330
1F
100
AcDbEntity
  8
0
  6
Continuous
 62
     7
370
    15
100
AcDbSpline
210
0.0
220
0.0
230
1.0
 70
     8
 71
     3
 72
    13
 73
     9
 74
     0
 42
0.00000001
 43
0.00000001
 12
1.0
 22
0.0
 32
0.0
 13
1.0
 23
0.0
 33
0.0
 40
0.0
 40
0.0
 40
0.0
 40
0.0
 40
0.2496098371883049
 40
0.3750346127106359
 40
0.4999482777825205
 40
0.6248883658453043
 40
0.7502739509783266
 40
1.0
 40
1.0
 40
1.0
 40
1.0
 10
913.7681187130961
 20
791.318184833346
 30
0.0
 10
913.8386496674138
 20
791.1324920226033
 30
0.0
 10
913.944621248641
 20
790.8534916749228
 30
0.0
 10
913.9438378175637
 20
790.4584655064336
 30
0.0
 10
913.885206377762
 20
790.172969873338
 30
0.0
 10
913.7705411469514
 20
789.909236609021
 30
0.0
 10
913.5499002762799
 20
789.6007256691993
 30
0.0
 10
913.31751286263
 20
789.448266507327
 30
0.0
 10
913.1628037430796
 20
789.3467686579805
 30
0.0
  0
LINE
  5
196
330
1F
100
AcDbEntity
  8
0
  6
Continuous
 62
     7
370
    15
100
AcDbLine
 10
913.1628037431
 20
789.346768658
 30
0.0
 11
912.8156960942
 21
790.1174045609
 31
0.0
  0
SPLINE
  5
197
330
1F
100
AcDbEntity
  8
0
  6
Continuous
 62
     7
370
    15
100
AcDbSpline
210
0.0
220
0.0
230
1.0
 70
     8
 71
     3
 72
    12
 73
     8
 74
     0
 42
0.00000001
 43
0.00000001
 12
1.0
 22
0.0
 32
0.0
 13
1.0
 23
0.0
 33
0.0
 40
0.0
 40
0.0
 40
0.0
 40
0.0
 40
0.2504666110637096
 40
0.4997987479811217
 40
0.6239957686278477
 40
0.7503379038691987
 40
1.0
 40
1.0
 40
1.0
 40
1.0
 10
912.8156960942301
 20
790.1174045608622
 30
0.0
 10
912.8835323146878
 20
790.1701668608558
 30
0.0
 10
913.0188974953348
 20
790.2754524770321
 30
0.0
 10
913.1346196426118
 20
790.4692050926539
 30
0.0
 10
913.1712002341663
 20
790.6453426290187
 30
0.0
 10
913.1725818429413
 20
790.8289088979743
 30
0.0
 10
913.1232912496572
 20
790.9591584952786
 30
0.0
 10
913.0905629136118
 20
791.0456425951105
 30
0.0
  0
SPLINE
  5
198
330
1F
100
AcDbEntity
  8
0
  6
Continuous
 62
     7
370
    15
100
AcDbSpline
210
0.0
220
0.0
230
1.0
 70
     8
 71
     3
 72
    14
 73
    10
 74
     0
 42
0.00000001
 43
0.00000001
 12
1.0
 22
0.0
 32
0.0
 13
1.0
 23
0.0
 33
0.0
 40
0.0
 40
0.0
 40
0.0
 40
0.0
 40
0.2494141757405314
 40
0.3744910482232011
 40
0.4996289979486548
 40
0.6254221793501158
 40
0.7498029791265115
 40
0.874809971616733
 40
1.0
 40
1.0
 40
1.0
 40
1.0
 10
913.0905629136118
 20
791.0456500456911
 30
0.0
 10
913.0463714229309
 20
791.1238077673456
 30
0.0
 10
912.9800186680463
 20
791.2411602274543
 30
0.0
 10
912.8441161385881
 20
791.355160251347
 30
0.0
 10
912.7290826468663
 20
791.4168974766905
 30
0.0
 10
912.6064724075833
 20
791.457077505346
 30
0.0
 10
912.4799919295257
 20
791.4693506047162
 30
0.0
 10
912.354844747987
 20
791.454279044772
 30
0.0
 10
912.2782437460515
 20
791.4222381566218
 30
0.0
 10
912.2399152256999
 20
791.406205992518
 30
0.0
  0
SPLINE
  5
199
330
1F
100
AcDbEntity
  8
0
  6
Continuous
 62
     7
370
    15
100
AcDbSpline
210
0.0
220
0.0
230
1.0
 70
     8
 71
     3
 72
    13
 73
     9
 74
     0
 42
0.00000001
 43
0.00000001
 12
1.0
 22
0.0
 32
0.0
 13
1.0
 23
0.0
 33
0.0
 40
0.0
 40
0.0
 40
0.0
 40
0.0
 40
0.1246198197744317
 40
0.2499296704587267
 40
0.3736315760506727
 40
0.5000761734193001
 40
0.7496187321608339
 40
1.0
 40
1.0
 40
1.0
 40
1.0
 10
912.2399152256999
 20
791.406205992518
 30
0.0
 10
912.1924341065466
 20
791.3787225836269
 30
0.0
 10
912.0972089611046
 20
791.3236035877908
 30
0.0
 10
911.9951017463359
 20
791.1883523468067
 30
0.0
 10
911.9310581075334
 20
791.0299471772669
 30
0.0
 10
911.8925217960575
 20
790.8016184263594
 30
0.0
 10
911.9320327765749
 20
790.5039702749059
 30
0.0
 10
912.0202146432805
 20
790.2856216292867
 30
0.0
 10
912.0643795468363
 20
790.1762641475779
 30
0.0
  0
LINE
  5
19A
330
1F
100
AcDbEntity
  8
0
  6
Continuous
 62
     7
370
    15
100
AcDbLine
 10
912.0643795468
 20
790.1762641476
 30
0.0
 11
911.4502132871
 21
789.8819885657
 31
0.0
  0
SPLINE
  5
19B
330
1F
100
AcDbEntity
  8
0
  6
Continuous
 62
     7
370
    15
100
AcDbSpline
210
0.0
220
0.0
230
1.0
 70
     8
 71
     3
 72
    14
 73
    10
 74
     0
 42
0.00000001
 43
0.00000001
 12
1.0
 22
0.0
 32
0.0
 13
1.0
 23
0.0
 33
0.0
 40
0.0
 40
0.0
 40
0.0
 40
0.0
 40
0.2504907020410937
 40
0.4999617681836658
 40
0.624997135034907
 40
0.7499506485357597
 40
0.8748110744391078
 40
0.9373779519013649
 40
1.0
 40
1.0
 40
1.0
 40
1.0
 10
911.4502132870707
 20
789.8819885657412
 30
0.0
 10
911.4056801689876
 20
789.9584885813887
 30
0.0
 10
911.3167952072782
 20
790.1111772152486
 30
0.0
 10
911.1689999868211
 20
790.2803467704496
 30
0.0
 10
911.0181361660336
 20
790.3663315745038
 30
0.0
 10
910.8952531399531
 20
790.4031173632326
 30
0.0
 10
910.7899284832677
 20
790.404691299409
 30
0.0
 10
910.708508111447
 20
790.3886580891215
 30
0.0
 10
910.6704759190227
 20
790.3725322742215
 30
0.0
 10
910.6514514424357
 20
790.3644658134561
 30
0.0
  0
SPLINE
  5
19C
330
1F
100
AcDbEntity
  8
0
  6
Continuous
 62
     7
370
    15
100
AcDbSpline
210
0.0
220
0.0
230
1.0
 70
     8
 71
     3
 72
    14
 73
    10
 74
     0
 42
0.00000001
 43
0.00000001
 12
1.0
 22
0.0
 32
0.0
 13
1.0
 23
0.0
 33
0.0
 40
0.0
 40
0.0
 40
0.0
 40
0.0
 40
0.2488813382313866
 40
0.3739677452421243
 40
0.4991331260810998
 40
0.6242578198449998
 40
0.7494529034654943
 40
0.8746606038696058
 40
1.0
 40
1.0
 40
1.0
 40
1.0
 10
910.6514514424357
 20
790.3644658134561
 30
0.0
 10
910.6047021970194
 20
790.3351275315465
 30
0.0
 10
910.5344570351108
 20
790.2910439887106
 30
0.0
 10
910.4738343418996
 20
790.1954552972362
 30
0.0
 10
910.4460492078542
 20
790.1144946018366
 30
0.0
 10
910.4326042340402
 20
790.0284932800295
 30
0.0
 10
910.4388782842577
 20
789.9405723881454
 30
0.0
 10
910.4585336479156
 20
789.8541941331308
 30
0.0
 10
910.4813631346932
 20
789.7998318321232
 30
0.0
 10
910.4927838780436
 20
789.7726363943201
 30
0.0
  0
SPLINE
  5
19D
330
1F
100
AcDbEntity
  8
0
  6
Continuous
 62
     7
370
    15
100
AcDbSpline
210
0.0
220
0.0
230
1.0
 70
     8
 71
     3
 72
    12
 73
     8
 74
     0
 42
0.00000001
 43
0.00000001
 12
1.0
 22
0.0
 32
0.0
 13
1.0
 23
0.0
 33
0.0
 40
0.0
 40
0.0
 40
0.0
 40
0.0
 40
0.249797960356929
 40
0.4995288506009686
 40
0.749390584974227
 40
0.8746462223019092
 40
1.0
 40
1.0
 40
1.0
 40
1.0
 10
910.492813680366
 20
789.7726363943201
 30
0.0
 10
910.5226488610026
 20
789.7204936500409
 30
0.0
 10
910.5823112116062
 20
789.616222161676
 30
0.0
 10
910.724861736082
 20
789.5072381933783
 30
0.0
 10
910.8590261096148
 20
789.4547264031042
 30
0.0
 10
910.9710739538475
 20
789.4384471993972
 30
0.0
 10
911.0267026249118
 20
789.4432304163126
 30
0.0
 10
911.0545278527293
 20
789.4456229613405
 30
0.0
  0
SPLINE
  5
19E
330
1F
100
AcDbEntity
  8
0
  6
Continuous
 62
     7
370
    15
100
AcDbSpline
210
0.0
220
0.0
230
1.0
 70
     8
 71
     3
 72
     9
 73
     5
 74
     0
 42
0.00000001
 43
0.00000001
 12
1.0
 22
0.0
 32
0.0
 13
1.0
 23
0.0
 33
0.0
 40
0.0
 40
0.0
 40
0.0
 40
0.0
 40
0.5007564393742975
 40
1.0
 40
1.0
 40
1.0
 40
1.0
 10
910.226768348411
 20
791.1203868196588
 30
0.0
 10
910.2262223870533
 20
791.1201008070618
 30
0.0
 10
910.2251321137891
 20
791.1195296459657
 30
0.0
 10
910.2240368809103
 20
791.1189633542131
 30
0.0
 10
910.2234900929484
 20
791.1186806367022
 30
0.0
  0
SPLINE
  5
19F
330
1F
100
AcDbEntity
  8
0
  6
Continuous
 62
     7
370
    15
100
AcDbSpline
210
0.0
220
0.0
230
1.0
 70
     8
 71
     3
 72
     9
 73
     5
 74
     0
 42
0.00000001
 43
0.00000001
 12
1.0
 22
0.0
 32
0.0
 13
1.0
 23
0.0
 33
0.0
 40
0.0
 40
0.0
 40
0.0
 40
0.0
 40
0.5007422632873467
 40
0.9999999999999999
 40
0.9999999999999999
 40
0.9999999999999999
 40
0.9999999999999999
 10
909.7940982319865
 20
789.467184941588
 30
0.0
 10
909.7935224827012
 20
789.4669584852419
 30
0.0
 10
909.792372691027
 20
789.466506243914
 30
0.0
 10
909.7912177672303
 20
789.4660594512127
 30
0.0
 10
909.7906411625895
 20
789.4658363865
 30
0.0
  0
LINE
  5
1A0
330
1F
100
AcDbEntity
  8
0
  6
Continuous
 62
     7
370
    15
100
AcDbLine
 10
910.5762899854
 20
788.7022710846
 30
0.0
 11
910.5727137067
 21
788.701198201
 31
0.0
  0
LINE
  5
1A1
330
1F
100
AcDbEntity
  8
0
  6
Continuous
 62
     7
370
    15
100
AcDbLine
 10
911.4502132871
 20
789.8819885657
 30
0.0
 11
911.446696613
 21
789.8807294176
 31
0.0
  0
SPLINE
  5
1A2
330
1F
100
AcDbEntity
  8
0
  6
Continuous
 62
     7
370
    15
100
AcDbSpline
210
0.0
220
0.0
230
1.0
 70
     8
 71
     3
 72
     9
 73
     5
 74
     0
 42
0.00000001
 43
0.00000001
 12
1.0
 22
0.0
 32
0.0
 13
1.0
 23
0.0
 33
0.0
 40
0.0
 40
0.0
 40
0.0
 40
0.0
 40
0.4999454066780245
 40
1.0
 40
1.0
 40
1.0
 40
1.0
 10
910.6514514424357
 20
790.3644658134561
 30
0.0
 10
910.6508851674038
 20
790.3642230352174
 30
0.0
 10
910.6497524936674
 20
790.3637374257178
 30
0.0
 10
910.648620190889
 20
790.3632445258977
 30
0.0
 10
910.6480539776835
 20
790.3629980490786
 30
0.0
  0
SPLINE
  5
1A3
330
1F
100
AcDbEntity
  8
0
  6
Continuous
 62
     7
370
    15
100
AcDbSpline
210
0.0
220
0.0
230
1.0
 70
     8
 71
     3
 72
     9
 73
     5
 74
     0
 42
0.00000001
 43
0.00000001
 12
1.0
 22
0.0
 32
0.0
 13
1.0
 23
0.0
 33
0.0
 40
0.0
 40
0.0
 40
0.0
 40
0.0
 40
0.4998783476491481
 40
1.0
 40
1.0
 40
1.0
 40
1.0
 10
913.0905629136118
 20
791.0456500456911
 30
0.0
 10
913.0899742482896
 20
791.0454233968375
 30
0.0
 10
913.0887966311254
 20
791.044969988814
 30
0.0
 10
913.0876496646575
 20
791.0445243594812
 30
0.0
 10
913.0870760418925
 20
791.0443014906031
 30
0.0
  0
SPLINE
  5
1A4
330
1F
100
AcDbEntity
  8
0
  6
Continuous
 62
     7
370
    15
100
AcDbSpline
210
0.0
220
0.0
230
1.0
 70
    24
 71
     3
 72
     9
 73
     5
 74
     0
 42
0.00000001
 43
0.00000001
 12
1.0
 22
0.0
 32
0.0
 13
1.0
 23
0.0
 33
0.0
 40
0.0
 40
0.0
 40
0.0
 40
0.0
 40
0.4993092041013241
 40
1.0
 40
1.0
 40
1.0
 40
1.0
 10
912.2399152256999
 20
791.406205992518
 30
0.0
 10
912.2393485914947
 20
791.4059475277928
 30
0.0
 10
912.2382137552039
 20
791.405429883169
 30
0.0
 10
912.2370836128315
 20
791.4049143796308
 30
0.0
 10
912.2365177609477
 20
791.4046562717539
 30
0.0
  0
LINE
  5
1A5
330
1F
100
AcDbEntity
  8
0
  6
Continuous
 62
     7
370
    15
100
AcDbLine
 10
912.8156960942
 20
790.1174045609
 30
0.0
 11
912.8121496179
 21
790.1162571715
 31
0.0
  0
SPLINE
  5
1A6
330
1F
100
AcDbEntity
  8
0
  6
Continuous
 62
     7
370
    15
100
AcDbSpline
210
0.0
220
0.0
230
1.0
 70
     8
 71
     3
 72
     9
 73
     5
 74
     0
 42
0.00000001
 43
0.00000001
 12
1.0
 22
0.0
 32
0.0
 13
1.0
 23
0.0
 33
0.0
 40
0.0
 40
0.0
 40
0.0
 40
0.0
 40
0.5001433706214798
 40
1.0
 40
1.0
 40
1.0
 40
1.0
 10
913.1628037430796
 20
789.3467686579805
 30
0.0
 10
913.1622003351181
 20
789.3466171845741
 30
0.0
 10
913.1609938651399
 20
789.3463143246038
 30
0.0
 10
913.1597565417334
 20
789.3460112039941
 30
0.0
 10
913.1591380574259
 20
789.3458596871477
 30
0.0
  0
LWPOLYLINE
  5
1A7
330
1F
100
AcDbEntity
  8
0
  6
Continuous
 62
     7
370
    15
100
AcDbPolyline
 90
       17
 70
   128
 43
0.0
 10
906.4095080831
 20
812.9099674032
 10
907.2884679772
 20
811.025045018
 10
908.2740903832
 20
808.911345105
 10
909.3538583257
 20
806.5958089636
 10
910.5139137246
 20
804.1080153988
 10
911.7395342328
 20
801.4796740816
 10
913.0150438287
 20
798.7443424271
 10
914.3241704442
 20
795.9369115041
 10
915.6502247788
 20
793.0931962536
 10
916.9762791135
 20
790.2494810031
 10
918.285405729
 20
787.4420426295
 10
919.5609153249
 20
784.706710975
 10
920.7865060308
 20
782.0783771084
 10
921.946591232
 20
779.590576093
 10
923.0263293721
 20
777.2750474022
 10
924.0119815805
 20
775.1613400386
 10
924.8909414746
 20
773.2764102028
  0
LINE
  5
1A8
330
1F
100
AcDbEntity
  8
0
  6
Continuous
 62
     7
370
    15
100
AcDbLine
 10
904.1670621373
 20
805.0213969753
 30
0.0
 11
904.4607342221
 21
804.3698586033
 31
0.0
  0
SPLINE
  5
1A9
330
1F
100
AcDbEntity
  8
0
  6
Continuous
 62
     7
370
    15
100
AcDbSpline
210
0.0
220
0.0
230
1.0
 70
     8
 71
     3
 72
    13
 73
     9
 74
     0
 42
0.00000001
 43
0.00000001
 12
1.0
 22
0.0
 32
0.0
 13
1.0
 23
0.0
 33
0.0
 40
0.0
 40
0.0
 40
0.0
 40
0.0
 40
0.2498619838809332
 40
0.3750429217529658
 40
0.5001917813950782
 40
0.6260375490026803
 40
0.750543350243063
 40
1.0
 40
1.0
 40
1.0
 40
1.0
 10
904.4607342221293
 20
804.3698586032968
 30
0.0
 10
904.2651558277681
 20
804.344209678061
 30
0.0
 10
903.9715925921219
 20
804.3057106326644
 30
0.0
 10
903.5681205458333
 20
804.368040447905
 30
0.0
 10
903.277223094386
 20
804.4636067349618
 30
0.0
 10
903.0128445823167
 20
804.6063960051497
 30
0.0
 10
902.7068064198422
 20
804.8489695312994
 30
0.0
 10
902.5737656709647
 20
805.0795435872482
 30
0.0
 10
902.4850190617594
 20
805.233351092158
 30
0.0
  0
SPLINE
  5
1AA
330
1F
100
AcDbEntity
  8
0
  6
Continuous
 62
     7
370
    15
100
AcDbSpline
210
0.0
220
0.0
230
1.0
 70
     8
 71
     3
 72
    12
 73
     8
 74
     0
 42
0.00000001
 43
0.00000001
 12
1.0
 22
0.0
 32
0.0
 13
1.0
 23
0.0
 33
0.0
 40
0.0
 40
0.0
 40
0.0
 40
0.0
 40
0.2500641217427851
 40
0.3767839258808743
 40
0.5008709360559734
 40
0.7506153012684368
 40
1.0
 40
1.0
 40
1.0
 40
1.0
 10
902.4850190617594
 20
805.2333510921579
 30
0.0
 10
902.4337938850198
 20
805.3735329581526
 30
0.0
 10
902.3566103887972
 20
805.5847518784786
 30
0.0
 10
902.3850088846734
 20
805.8637179287316
 30
0.0
 10
902.4850998733554
 20
806.1221643273968
 30
0.0
 10
902.7334544274122
 20
806.4035345388094
 30
0.0
 10
903.043788875304
 20
806.5164162745981
 30
0.0
 10
903.1988442875895
 20
806.5728164718729
 30
0.0
  0
SPLINE
  5
1AB
330
1F
100
AcDbEntity
  8
0
  6
Continuous
 62
     7
370
    15
100
AcDbSpline
210
0.0
220
0.0
230
1.0
 70
     8
 71
     3
 72
    10
 73
     6
 74
     0
 42
0.00000001
 43
0.00000001
 12
1.0
 22
0.0
 32
0.0
 13
1.0
 23
0.0
 33
0.0
 40
0.0
 40
0.0
 40
0.0
 40
0.0
 40
0.2495179609125705
 40
0.499597884239566
 40
1.0
 40
1.0
 40
1.0
 40
1.0
 10
903.1988442875895
 20
806.5728164718729
 30
0.0
 10
903.3799983237426
 20
806.5966668711095
 30
0.0
 10
903.7427143897625
 20
806.6444213852668
 30
0.0
 10
904.4975328480584
 20
806.5309057355375
 30
0.0
 10
905.0206057054017
 20
806.3315999134802
 30
0.0
 10
905.3693772294077
 20
806.1987079189402
 30
0.0
  0
LINE
  5
1AC
330
1F
100
AcDbEntity
  8
0
  6
Continuous
 62
     7
370
    15
100
AcDbLine
 10
905.3693772294
 20
806.1987079189
 30
0.0
 11
906.0363830068
 21
805.9292055176
 31
0.0
  0
LINE
  5
1AD
330
1F
100
AcDbEntity
  8
0
  6
Continuous
 62
     7
370
    15
100
AcDbLine
 10
906.0363830068
 20
805.9292055176
 30
0.0
 11
905.461317394
 21
807.1290768192
 31
0.0
  0
LINE
  5
1AE
330
1F
100
AcDbEntity
  8
0
  6
Continuous
 62
     7
370
    15
100
AcDbLine
 10
905.461317394
 20
807.1290768192
 30
0.0
 11
906.1858714559
 21
807.2970576094
 31
0.0
  0
LINE
  5
1AF
330
1F
100
AcDbEntity
  8
0
  6
Continuous
 62
     7
370
    15
100
AcDbLine
 10
906.1859012582
 20
807.2970576094
 30
0.0
 11
907.2938919999
 21
804.921529393
 31
0.0
  0
LINE
  5
1B0
330
1F
100
AcDbEntity
  8
0
  6
Continuous
 62
     7
370
    15
100
AcDbLine
 10
907.2938919999
 20
804.921529393
 30
0.0
 11
906.9186211564
 21
804.8343277977
 31
0.0
  0
LINE
  5
1B1
330
1F
100
AcDbEntity
  8
0
  6
Continuous
 62
     7
370
    15
100
AcDbLine
 10
906.9186211564
 20
804.8343277977
 30
0.0
 11
905.130839441
 21
805.6147463129
 31
0.0
  0
SPLINE
  5
1B2
330
1F
100
AcDbEntity
  8
0
  6
Continuous
 62
     7
370
    15
100
AcDbSpline
210
0.0
220
0.0
230
1.0
 70
     8
 71
     3
 72
    10
 73
     6
 74
     0
 42
0.00000001
 43
0.00000001
 12
1.0
 22
0.0
 32
0.0
 13
1.0
 23
0.0
 33
0.0
 40
0.0
 40
0.0
 40
0.0
 40
0.0
 40
0.5008638882013253
 40
0.7509016397432909
 40
1.0
 40
1.0
 40
1.0
 40
1.0
 10
905.1308394410166
 20
805.6147463129145
 30
0.0
 10
904.8811481497252
 20
805.7180417330418
 30
0.0
 10
904.5068077261546
 20
805.8729035671222
 30
0.0
 10
903.9656235953757
 20
805.9952347790876
 30
0.0
 10
903.699324891973
 20
805.9695474530952
 30
0.0
 10
903.5664261319193
 20
805.9567279623133
 30
0.0
  0
SPLINE
  5
1B3
330
1F
100
AcDbEntity
  8
0
  6
Continuous
 62
     7
370
    15
100
AcDbSpline
210
0.0
220
0.0
230
1.0
 70
     8
 71
     3
 72
    14
 73
    10
 74
     0
 42
0.00000001
 43
0.00000001
 12
1.0
 22
0.0
 32
0.0
 13
1.0
 23
0.0
 33
0.0
 40
0.0
 40
0.0
 40
0.0
 40
0.0
 40
0.2492126380839743
 40
0.3742582673218899
 40
0.4993414633407026
 40
0.6236754981481157
 40
0.7495530941933245
 40
0.8746960344276821
 40
1.0
 40
1.0
 40
1.0
 40
1.0
 10
903.5664261319193
 20
805.9567279623133
 30
0.0
 10
903.4951360677708
 20
805.9338472855982
 30
0.0
 10
903.3880753019497
 20
805.8994859366375
 30
0.0
 10
903.2848067178027
 20
805.81088665075
 30
0.0
 10
903.2281293895584
 20
805.7324659723262
 30
0.0
 10
903.1943553198789
 20
805.6441087961325
 30
0.0
 10
903.1855553942107
 20
805.5501364404084
 30
0.0
 10
903.200093222434
 20
805.4541656720523
 30
0.0
 10
903.2259182088916
 20
805.3921840096812
 30
0.0
 10
903.2388390042338
 20
805.3611732528788
 30
0.0
  0
SPLINE
  5
1B4
330
1F
100
AcDbEntity
  8
0
  6
Continuous
 62
     7
370
    15
100
AcDbSpline
210
0.0
220
0.0
230
1.0
 70
     8
 71
     3
 72
    13
 73
     9
 74
     0
 42
0.00000001
 43
0.00000001
 12
1.0
 22
0.0
 32
0.0
 13
1.0
 23
0.0
 33
0.0
 40
0.0
 40
0.0
 40
0.0
 40
0.0
 40
0.125191242516926
 40
0.2502504893209794
 40
0.3726048678568684
 40
0.5006145012945148
 40
0.7498759864802181
 40
1.0
 40
1.0
 40
1.0
 40
1.0
 10
903.2388390042338
 20
805.3611583517176
 30
0.0
 10
903.2577820362286
 20
805.3261044761713
 30
0.0
 10
903.2956481275837
 20
805.2560336842238
 30
0.0
 10
903.3855624017547
 20
805.1644053739607
 30
0.0
 10
903.4982597084145
 20
805.0908019310255
 30
0.0
 10
903.6669791302037
 20
805.0184850462272
 30
0.0
 10
903.9024845025921
 20
804.9818379691661
 30
0.0
 10
904.0787681012791
 20
805.0081954652386
 30
0.0
 10
904.167062137321
 20
805.0213969753366
 30
0.0
  0
SPLINE
  5
1B5
330
1F
100
AcDbEntity
  8
0
  6
Continuous
 62
     7
370
    15
100
AcDbSpline
210
0.0
220
0.0
230
1.0
 70
     8
 71
     3
 72
     9
 73
     5
 74
     0
 42
0.00000001
 43
0.00000001
 12
1.0
 22
0.0
 32
0.0
 13
1.0
 23
0.0
 33
0.0
 40
0.0
 40
0.0
 40
0.0
 40
0.0
 40
0.4992219011565478
 40
1.0
 40
1.0
 40
1.0
 40
1.0
 10
902.4850190617594
 20
805.2333510921579
 30
0.0
 10
902.4848127556393
 20
805.2323469690288
 30
0.0
 10
902.4843995002922
 20
805.2303355926713
 30
0.0
 10
902.4839584368225
 20
805.2283335847542
 30
0.0
 10
902.4837375618968
 20
805.2273310230356
 30
0.0
  0
LINE
  5
1B6
330
1F
100
AcDbEntity
  8
0
  6
Continuous
 62
     7
370
    15
100
AcDbLine
 10
904.4607342221
 20
804.3698586033
 30
0.0
 11
904.4593037107
 21
804.364196162
 31
0.0
  0
LINE
  5
1B7
330
1F
100
AcDbEntity
  8
0
  6
Continuous
 62
     7
370
    15
100
AcDbLine
 10
906.9186211564
 20
804.8343277977
 30
0.0
 11
906.9171608426
 21
804.8286951588
 31
0.0
  0
SPLINE
  5
1B8
330
1F
100
AcDbEntity
  8
0
  6
Continuous
 62
     7
370
    15
100
AcDbSpline
210
0.0
220
0.0
230
1.0
 70
     8
 71
     3
 72
     9
 73
     5
 74
     0
 42
0.00000001
 43
0.00000001
 12
1.0
 22
0.0
 32
0.0
 13
1.0
 23
0.0
 33
0.0
 40
0.0
 40
0.0
 40
0.0
 40
0.0
 40
0.499818023623944
 40
1.0
 40
1.0
 40
1.0
 40
1.0
 10
903.5664261319193
 20
805.9567279623134
 30
0.0
 10
903.5662298944576
 20
805.9556995952227
 30
0.0
 10
903.5658372766395
 20
805.9536421122145
 30
0.0
 10
903.5654153012072
 20
805.9515868744606
 30
0.0
 10
903.5652042367014
 20
805.950558881579
 30
0.0
  0
LINE
  5
1B9
330
1F
100
AcDbEntity
  8
0
  6
Continuous
 62
     7
370
    15
100
AcDbLine
 10
917.063868139
 20
774.0352816389
 30
0.0
 11
916.7624772527
 21
774.6656454609
 31
0.0
  0
LINE
  5
1BA
330
1F
100
AcDbEntity
  8
0
  6
Continuous
 62
     7
370
    15
100
AcDbLine
 10
916.7624772527
 20
774.6656454609
 30
0.0
 11
918.9111054875
 21
776.348709266
 31
0.0
  0
LINE
  5
1BB
330
1F
100
AcDbEntity
  8
0
  6
Continuous
 62
     7
370
    15
100
AcDbLine
 10
918.9111054875
 20
776.348709266
 30
0.0
 11
918.7658489682
 21
776.6462482021
 31
0.0
  0
LINE
  5
1BC
330
1F
100
AcDbEntity
  8
0
  6
Continuous
 62
     7
370
    15
100
AcDbLine
 10
918.7658489682
 20
776.6462482021
 30
0.0
 11
919.3530441262
 21
777.1062246965
 31
0.0
  0
LINE
  5
1BD
330
1F
100
AcDbEntity
  8
0
  6
Continuous
 62
     7
370
    15
100
AcDbLine
 10
919.3530441262
 20
777.1062246965
 30
0.0
 11
919.4983900525
 21
776.8086336063
 31
0.0
  0
LINE
  5
1BE
330
1F
100
AcDbEntity
  8
0
  6
Continuous
 62
     7
370
    15
100
AcDbLine
 10
919.4983900525
 20
776.8086336063
 30
0.0
 11
920.183158014
 21
777.3451424645
 31
0.0
  0
LINE
  5
1BF
330
1F
100
AcDbEntity
  8
0
  6
Continuous
 62
     7
370
    15
100
AcDbLine
 10
920.183158014
 20
777.3451424645
 30
0.0
 11
920.4792440869
 21
776.7279587195
 31
0.0
  0
LINE
  5
1C0
330
1F
100
AcDbEntity
  8
0
  6
Continuous
 62
     7
370
    15
100
AcDbLine
 10
920.4792440869
 20
776.7279587195
 30
0.0
 11
919.7943569161
 21
776.1915243672
 31
0.0
  0
LINE
  5
1C1
330
1F
100
AcDbEntity
  8
0
  6
Continuous
 62
     7
370
    15
100
AcDbLine
 10
919.7943569161
 20
776.1915243672
 30
0.0
 11
920.4398752191
 21
774.771272342
 31
0.0
  0
LINE
  5
1C2
330
1F
100
AcDbEntity
  8
0
  6
Continuous
 62
     7
370
    15
100
AcDbLine
 10
920.4398752191
 20
774.771272342
 30
0.0
 11
919.8527098634
 21
774.3112660454
 31
0.0
  0
LINE
  5
1C3
330
1F
100
AcDbEntity
  8
0
  6
Continuous
 62
     7
370
    15
100
AcDbLine
 10
919.8527098634
 20
774.3112660454
 30
0.0
 11
917.063868139
 21
774.0352816389
 31
0.0
  0
LINE
  5
1C4
330
1F
100
AcDbEntity
  8
0
  6
Continuous
 62
     7
370
    15
100
AcDbLine
 10
919.5531965234
 20
774.9833531187
 30
0.0
 11
919.2069829442
 21
775.731652181
 31
0.0
  0
LINE
  5
1C5
330
1F
100
AcDbEntity
  8
0
  6
Continuous
 62
     7
370
    15
100
AcDbLine
 10
919.2069829442
 20
775.731652181
 30
0.0
 11
918.0882335641
 21
774.8556129144
 31
0.0
  0
LINE
  5
1C6
330
1F
100
AcDbEntity
  8
0
  6
Continuous
 62
     7
370
    15
100
AcDbLine
 10
918.0882335641
 20
774.8556129144
 30
0.0
 11
919.5531965234
 21
774.9833531187
 31
0.0
  0
LINE
  5
1C7
330
1F
100
AcDbEntity
  8
0
  6
Continuous
 62
     7
370
    15
100
AcDbLine
 10
918.9111054875
 20
776.348709266
 30
0.0
 11
918.9055920579
 21
776.3517565535
 31
0.0
  0
LINE
  5
1C8
330
1F
100
AcDbEntity
  8
0
  6
Continuous
 62
     7
370
    15
100
AcDbLine
 10
916.7624772527
 20
774.6656454609
 30
0.0
 11
916.7569340207
 21
774.6687001989
 31
0.0
  0
LINE
  5
1C9
330
1F
100
AcDbEntity
  8
0
  6
Continuous
 62
     7
370
    15
100
AcDbLine
 10
917.063868139
 20
774.0352816389
 30
0.0
 11
917.0582355001
 21
774.0385300921
 31
0.0
  0
LINE
  5
1CA
330
1F
100
AcDbEntity
  8
0
  6
Continuous
 62
     7
370
    15
100
AcDbLine
 10
907.2938919999
 20
804.921529393
 30
0.0
 11
907.2924316861
 21
804.9158967541
 31
0.0
  0
LINE
  5
1CB
330
1F
100
AcDbEntity
  8
0
  6
Continuous
 62
     7
370
    15
100
AcDbLine
 10
919.3530441262
 20
777.1062246965
 30
0.0
 11
919.3475604989
 21
777.1091751264
 31
0.0
  0
LINE
  5
1CC
330
1F
100
AcDbEntity
  8
0
  6
Continuous
 62
     7
370
    15
100
AcDbLine
 10
918.7658489682
 20
776.6462482021
 30
0.0
 11
918.7603653409
 21
776.6492060826
 31
0.0
  0
LINE
  5
1CD
330
1F
100
AcDbEntity
  8
0
  6
Continuous
 62
     7
370
    15
100
AcDbLine
 10
905.461317394
 20
807.1290768192
 30
0.0
 11
905.4601849057
 21
807.1227140234
 31
0.0
  0
LINE
  5
1CE
330
1F
100
AcDbEntity
  8
0
  6
Continuous
 62
     7
370
    15
100
AcDbLine
 10
918.0826307275
 20
774.8588539169
 30
0.0
 11
919.5474744775
 21
774.9868250893
 31
0.0
  0
LINE
  5
1CF
330
1F
100
AcDbEntity
  8
0
  6
Continuous
 62
     7
370
    15
100
AcDbLine
 10
919.5474744775
 20
774.9868250893
 30
0.0
 11
919.5531965234
 21
774.9833531187
 31
0.0
  0
LINE
  5
1D0
330
1F
100
AcDbEntity
  8
0
  6
Continuous
 62
     7
370
    15
100
AcDbLine
 10
919.5474744775
 20
774.9868250893
 30
0.0
 11
919.2013801076
 21
775.7348931835
 31
0.0
  0
LINE
  5
1D1
330
1F
100
AcDbEntity
  8
0
  6
Continuous
 62
     7
370
    15
100
AcDbLine
 10
920.183158014
 20
777.3451424645
 30
0.0
 11
920.1776445844
 21
777.3481823013
 31
0.0
  0
SPLINE
  5
1D2
330
1F
100
AcDbEntity
  8
0
  6
Continuous
 62
     7
370
    15
100
AcDbSpline
210
0.0
220
0.0
230
1.0
 70
     8
 71
     3
 72
    12
 73
     8
 74
     0
 42
0.00000001
 43
0.00000001
 12
1.0
 22
0.0
 32
0.0
 13
1.0
 23
0.0
 33
0.0
 40
0.0
 40
0.0
 40
0.0
 40
0.0
 40
0.0304780555617319
 40
0.088818596824181
 40
0.3925556941724314
 40
0.6962831298849691
 40
1.0
 40
1.0
 40
1.0
 40
1.0
 10
906.4638973214182
 20
813.8740129278284
 30
0.0
 10
906.4596383396982
 20
813.8837285008038
 30
0.0
 10
906.4472268924031
 20
813.9120414473851
 30
0.0
 10
906.3853500451527
 20
814.0354977868047
 30
0.0
 10
906.2396567749323
 20
814.2323383637819
 30
0.0
 10
905.9697014469469
 20
814.4476337274313
 30
0.0
 10
905.761788548735
 20
814.5177784672821
 30
0.0
 10
905.6578339077982
 20
814.5528502271753
 30
0.0
  0
SPLINE
  5
1D3
330
1F
100
AcDbEntity
  8
0
  6
Continuous
 62
     7
370
    15
100
AcDbSpline
210
0.0
220
0.0
230
1.0
 70
     8
 71
     3
 72
    11
 73
     7
 74
     0
 42
0.00000001
 43
0.00000001
 12
1.0
 22
0.0
 32
0.0
 13
1.0
 23
0.0
 33
0.0
 40
0.0
 40
0.0
 40
0.0
 40
0.0
 40
0.3705008259271063
 40
0.7441572466131479
 40
0.9440016547626977
 40
1.0
 40
1.0
 40
1.0
 40
1.0
 10
905.6342602707896
 20
814.5724899576288
 30
0.0
 10
905.6357537075309
 20
814.569700668618
 30
0.0
 10
905.6387533007718
 20
814.5640983339266
 30
0.0
 10
905.6460152767496
 20
814.557415324666
 30
0.0
 10
905.653532033344
 20
814.5539690291976
 30
0.0
 10
905.6570614058672
 20
814.5530511341826
 30
0.0
 10
905.6578339077982
 20
814.5528502271754
 30
0.0
  0
SPLINE
  5
1D4
330
1F
100
AcDbEntity
  8
0
  6
Continuous
 62
     7
370
    15
100
AcDbSpline
210
0.0
220
0.0
230
1.0
 70
     8
 71
     3
 72
    12
 73
     8
 74
     0
 42
0.00000001
 43
0.00000001
 12
1.0
 22
0.0
 32
0.0
 13
1.0
 23
0.0
 33
0.0
 40
0.0
 40
0.0
 40
0.0
 40
0.0
 40
0.0304699267038042
 40
0.088807977965081
 40
0.3925518876018819
 40
0.6962740219703611
 40
1.0
 40
1.0
 40
1.0
 40
1.0
 10
925.6644011475596
 20
772.6983941600901
 30
0.0
 10
925.6691010687259
 20
772.6888878437801
 30
0.0
 10
925.6827995097967
 20
772.6611806314327
 30
0.0
 10
925.7376318623683
 20
772.534441461487
 30
0.0
 10
925.7947199487164
 20
772.2962935613092
 30
0.0
 10
925.7861598013939
 20
771.9511118124709
 30
0.0
 10
925.7062392316119
 20
771.746755428436
 30
0.0
 10
925.66627869387
 20
771.6445765898806
 30
0.0
  0
SPLINE
  5
1D5
330
1F
100
AcDbEntity
  8
0
  6
Continuous
 62
     7
370
    15
100
AcDbSpline
210
0.0
220
0.0
230
1.0
 70
     8
 71
     3
 72
    10
 73
     6
 74
     0
 42
0.00000001
 43
0.00000001
 12
1.0
 22
0.0
 32
0.0
 13
1.0
 23
0.0
 33
0.0
 40
0.0
 40
0.0
 40
0.0
 40
0.0
 40
0.2118618606466908
 40
0.4879738499528634
 40
1.0
 40
1.0
 40
1.0
 40
1.0
 10
925.66627869387
 20
771.6445765898806
 30
0.0
 10
925.6651679243488
 20
771.6418349996433
 30
0.0
 10
925.6626095286186
 20
771.6355203928564
 30
0.0
 10
925.66216623582
 20
771.6243546285168
 30
0.0
 10
925.6646049430055
 20
771.6180187507158
 30
0.0
 10
925.6661892869029
 20
771.613902549563
 30
0.0
  0
SPLINE
  5
1D6
330
1F
100
AcDbEntity
  8
0
  6
Continuous
 62
     7
370
    15
100
AcDbSpline
210
0.0
220
0.0
230
1.0
 70
     8
 71
     3
 72
    12
 73
     8
 74
     0
 42
0.00000001
 43
0.00000001
 12
1.0
 22
0.0
 32
0.0
 13
1.0
 23
0.0
 33
0.0
 40
0.0
 40
0.0
 40
0.0
 40
0.0
 40
0.2238899412331784
 40
0.4477632828419018
 40
0.6716562228132823
 40
0.895583686834126
 40
1.0
 40
1.0
 40
1.0
 40
1.0
 10
904.339408967689
 20
818.9317203567606
 30
0.0
 10
904.3115429607517
 20
818.931385072833
 30
0.0
 10
904.2558130129157
 20
818.9307145298366
 30
0.0
 10
904.1838539626455
 20
818.9301111471166
 30
0.0
 10
904.1314721260038
 20
818.929775192423
 30
0.0
 10
904.1081242977253
 20
818.9296854610999
 30
0.0
 10
904.1061712354981
 20
818.9296917871095
 30
0.0
 10
904.1055501439128
 20
818.9296937988383
 30
0.0
  0
LINE
  5
1D7
330
1F
100
AcDbEntity
  8
0
  6
Continuous
 62
     7
370
    15
100
AcDbLine
 10
904.3394089677
 20
818.9317203568
 30
0.0
 11
923.4342337586
 21
819.1398001717
 31
0.0
  0
LINE
  5
1D8
330
1F
100
AcDbEntity
  8
0
  6
Continuous
 62
     7
370
    15
100
AcDbLine
 10
923.4342337586
 20
819.1398001717
 30
0.0
 11
924.9128759839
 21
819.1581882046
 31
0.0
  0
LINE
  5
1D9
330
1F
100
AcDbEntity
  8
0
  6
Continuous
 62
     7
370
    15
100
AcDbLine
 10
897.7251709439
 20
815.6099982069
 30
0.0
 11
897.4957526662
 21
816.101617317
 31
0.0
  0
LINE
  5
1DA
330
1F
100
AcDbEntity
  8
0
  6
Continuous
 62
     7
370
    15
100
AcDbLine
 10
897.4957526662
 20
816.101617317
 30
0.0
 11
901.9136787393
 21
816.493845682
 31
0.0
  0
LINE
  5
1DB
330
1F
100
AcDbEntity
  8
0
  6
Continuous
 62
     7
370
    15
100
AcDbLine
 10
901.9136787393
 20
816.493845682
 30
0.0
 11
902.0661474206
 21
816.1727256582
 31
0.0
  0
LINE
  5
1DC
330
1F
100
AcDbEntity
  8
0
  6
Continuous
 62
     7
370
    15
100
AcDbLine
 10
902.0661474206
 20
816.1727256582
 30
0.0
 11
898.4385789372
 21
815.8504731463
 31
0.0
  0
LINE
  5
1DD
330
1F
100
AcDbEntity
  8
0
  6
Continuous
 62
     7
370
    15
100
AcDbLine
 10
898.4385789372
 20
815.8504731463
 30
0.0
 11
898.6035943963
 21
815.4778696106
 31
0.0
  0
LINE
  5
1DE
330
1F
100
AcDbEntity
  8
0
  6
Continuous
 62
     7
370
    15
100
AcDbLine
 10
898.6035943963
 20
815.4778696106
 30
0.0
 11
897.7251709439
 21
815.6099982069
 31
0.0
  0
LINE
  5
1DF
330
1F
100
AcDbEntity
  8
0
  6
Continuous
 62
     7
370
    15
100
AcDbLine
 10
897.7251709439
 20
815.6099982069
 30
0.0
 11
897.7253199555
 21
815.6008786963
 31
0.0
  0
LINE
  5
1E0
330
1F
100
AcDbEntity
  8
0
  6
Continuous
 62
     7
370
    15
100
AcDbLine
 10
898.6035943963
 20
815.4778696106
 30
0.0
 11
898.6037434079
 21
815.4688097046
 31
0.0
  0
LINE
  5
1E1
330
1F
100
AcDbEntity
  8
0
  6
Continuous
 62
     7
370
    15
100
AcDbLine
 10
897.4957526662
 20
816.101617317
 30
0.0
 11
897.4959612824
 21
816.0923487948
 31
0.0
  0
LINE
  5
1E2
330
1F
100
AcDbEntity
  8
0
  6
Continuous
 62
     7
370
    15
100
AcDbLine
 10
902.0661474206
 20
816.1727256582
 30
0.0
 11
902.0663262345
 21
816.1635614441
 31
0.0
  0
LINE
  5
1E3
330
1F
100
AcDbEntity
  8
0
  6
Continuous
 62
     7
370
    15
100
AcDbLine
 10
921.9719828107
 20
763.6695570753
 30
0.0
 11
921.6315806844
 21
764.36501662
 31
0.0
  0
LINE
  5
1E4
330
1F
100
AcDbEntity
  8
0
  6
Continuous
 62
     7
370
    15
100
AcDbLine
 10
921.6315806844
 20
764.36501662
 30
0.0
 11
922.1777082421
 21
764.9218432115
 31
0.0
  0
LINE
  5
1E5
330
1F
100
AcDbEntity
  8
0
  6
Continuous
 62
     7
370
    15
100
AcDbLine
 10
922.1777082421
 20
764.9218432115
 30
0.0
 11
922.424888704
 21
764.4283018516
 31
0.0
  0
LINE
  5
1E6
330
1F
100
AcDbEntity
  8
0
  6
Continuous
 62
     7
370
    15
100
AcDbLine
 10
922.424888704
 20
764.4283018516
 30
0.0
 11
923.0198622682
 21
764.9474806593
 31
0.0
  0
LINE
  5
1E7
330
1F
100
AcDbEntity
  8
0
  6
Continuous
 62
     7
370
    15
100
AcDbLine
 10
923.0198622682
 20
764.9474806593
 30
0.0
 11
922.9461313226
 21
765.0108403967
 31
0.0
  0
SPLINE
  5
1E8
330
1F
100
AcDbEntity
  8
0
  6
Continuous
 62
     7
370
    15
100
AcDbSpline
210
0.0
220
0.0
230
1.0
 70
     8
 71
     3
 72
    13
 73
     9
 74
     0
 42
0.00000001
 43
0.00000001
 12
1.0
 22
0.0
 32
0.0
 13
1.0
 23
0.0
 33
0.0
 40
0.0
 40
0.0
 40
0.0
 40
0.0
 40
0.249355615974366
 40
0.3731499156401158
 40
0.4998433809157684
 40
0.6255472125598708
 40
0.7503112147547873
 40
1.0
 40
1.0
 40
1.0
 40
1.0
 10
922.9461313225779
 20
765.0108403967005
 30
0.0
 10
922.9277953331338
 20
765.086632947261
 30
0.0
 10
922.9003563164204
 20
765.2000532275191
 30
0.0
 10
922.974701776687
 20
765.4488876707005
 30
0.0
 10
923.0676361627275
 20
765.6573765523458
 30
0.0
 10
923.1952353639437
 20
765.8809744760587
 30
0.0
 10
923.4052701808382
 20
766.1859242648364
 30
0.0
 10
923.6012129771254
 20
766.3978538328415
 30
0.0
 10
923.7318695523295
 20
766.5391705439669
 30
0.0
  0
SPLINE
  5
1E9
330
1F
100
AcDbEntity
  8
0
  6
Continuous
 62
     7
370
    15
100
AcDbSpline
210
0.0
220
0.0
230
1.0
 70
     8
 71
     3
 72
    11
 73
     7
 74
     0
 42
0.00000001
 43
0.00000001
 12
1.0
 22
0.0
 32
0.0
 13
1.0
 23
0.0
 33
0.0
 40
0.0
 40
0.0
 40
0.0
 40
0.0
 40
0.2501228540487042
 40
0.5000591447379102
 40
0.7500043987775651
 40
1.0
 40
1.0
 40
1.0
 40
1.0
 10
923.7318695523295
 20
766.5391705439669
 30
0.0
 10
923.877095081183
 20
766.676706616932
 30
0.0
 10
924.1674378170709
 20
766.9516761765078
 30
0.0
 10
924.5886314925814
 20
767.1891604401816
 30
0.0
 10
924.9333933777634
 20
767.2776010209545
 30
0.0
 10
925.0265235123683
 20
767.1735821841463
 30
0.0
 10
925.0730932690653
 20
767.1215675280672
 30
0.0
  0
SPLINE
  5
1EA
330
1F
100
AcDbEntity
  8
0
  6
Continuous
 62
     7
370
    15
100
AcDbSpline
210
0.0
220
0.0
230
1.0
 70
     8
 71
     3
 72
    11
 73
     7
 74
     0
 42
0.00000001
 43
0.00000001
 12
1.0
 22
0.0
 32
0.0
 13
1.0
 23
0.0
 33
0.0
 40
0.0
 40
0.0
 40
0.0
 40
0.0
 40
0.2502469732101871
 40
0.5000729834125134
 40
0.7498692763507687
 40
1.0
 40
1.0
 40
1.0
 40
1.0
 10
925.0730932690653
 20
767.1215675280672
 30
0.0
 10
925.090283402038
 20
767.0550603500228
 30
0.0
 10
925.1246347509099
 20
766.9221578716576
 30
0.0
 10
925.0047532812359
 20
766.5893974178033
 30
0.0
 10
924.7697469171452
 20
766.1950875786937
 30
0.0
 10
924.5460928986548
 20
765.9237335380012
 30
0.0
 10
924.4341910817179
 20
765.787965755282
 30
0.0
  0
LINE
  5
1EB
330
1F
100
AcDbEntity
  8
0
  6
Continuous
 62
     7
370
    15
100
AcDbLine
 10
924.4341910817
 20
765.7879657553
 30
0.0
 11
924.3181408383
 21
766.0592637466
 31
0.0
  0
SPLINE
  5
1EC
330
1F
100
AcDbEntity
  8
0
  6
Continuous
 62
     7
370
    15
100
AcDbSpline
210
0.0
220
0.0
230
1.0
 70
     8
 71
     3
 72
    11
 73
     7
 74
     0
 42
0.00000001
 43
0.00000001
 12
1.0
 22
0.0
 32
0.0
 13
1.0
 23
0.0
 33
0.0
 40
0.0
 40
0.0
 40
0.0
 40
0.0
 40
0.2503016754231271
 40
0.5002926410289418
 40
0.7501203224517831
 40
1.0
 40
1.0
 40
1.0
 40
1.0
 10
924.3181408383402
 20
766.0592637465578
 30
0.0
 10
924.3550280385977
 20
766.1119917446323
 30
0.0
 10
924.4287566495065
 20
766.2173822873375
 30
0.0
 10
924.5024948590852
 20
766.363703868022
 30
0.0
 10
924.5398401166743
 20
766.4886997225337
 30
0.0
 10
924.5264694037232
 20
766.5403954170487
 30
0.0
 10
924.5197833516154
 20
766.5662459538561
 30
0.0
  0
SPLINE
  5
1ED
330
1F
100
AcDbEntity
  8
0
  6
Continuous
 62
     7
370
    15
100
AcDbSpline
210
0.0
220
0.0
230
1.0
 70
     8
 71
     3
 72
    13
 73
     9
 74
     0
 42
0.00000001
 43
0.00000001
 12
1.0
 22
0.0
 32
0.0
 13
1.0
 23
0.0
 33
0.0
 40
0.0
 40
0.0
 40
0.0
 40
0.0
 40
0.2491892654927024
 40
0.3735630521055894
 40
0.4997285706423448
 40
0.6255137779790063
 40
0.7502433890907144
 40
1.0
 40
1.0
 40
1.0
 40
1.0
 10
924.5197833516154
 20
766.5662534044367
 30
0.0
 10
924.4983810991989
 20
766.5895861359926
 30
0.0
 10
924.4662966885049
 20
766.624564554492
 30
0.0
 10
924.3731505135522
 20
766.6092215002427
 30
0.0
 10
924.2913761331199
 20
766.5780282462988
 30
0.0
 10
924.1995468151698
 20
766.5267640389993
 30
0.0
 10
924.0686149354184
 20
766.4340968841406
 30
0.0
 10
923.9697232893402
 20
766.3388969275846
 30
0.0
 10
923.9037693478617
 20
766.2754050896746
 30
0.0
  0
SPLINE
  5
1EE
330
1F
100
AcDbEntity
  8
0
  6
Continuous
 62
     7
370
    15
100
AcDbSpline
210
0.0
220
0.0
230
1.0
 70
     8
 71
     3
 72
    14
 73
    10
 74
     0
 42
0.00000001
 43
0.00000001
 12
1.0
 22
0.0
 32
0.0
 13
1.0
 23
0.0
 33
0.0
 40
0.0
 40
0.0
 40
0.0
 40
0.0
 40
0.2499158205540508
 40
0.4990980381843824
 40
0.6265607594568261
 40
0.7495000846915946
 40
0.8745999422039805
 40
0.9372929900329083
 40
1.0
 40
1.0
 40
1.0
 40
1.0
 10
923.9037693478617
 20
766.2754050896746
 30
0.0
 10
923.84323484593
 20
766.2105004478968
 30
0.0
 10
923.7223435350493
 20
766.080881685433
 30
0.0
 10
923.6036446116121
 20
765.902159072161
 30
0.0
 10
923.5387370116159
 20
765.7728469766057
 30
0.0
 10
923.5072281379464
 20
765.6848951538167
 30
0.0
 10
923.4994873267284
 20
765.6256391346608
 30
0.0
 10
923.5030669328752
 20
765.5868368637341
 30
0.0
 10
923.5090737045057
 20
765.57157895317
 30
0.0
 10
923.5120774247202
 20
765.5639491484743
 30
0.0
  0
SPLINE
  5
1EF
330
1F
100
AcDbEntity
  8
0
  6
Continuous
 62
     7
370
    15
100
AcDbSpline
210
0.0
220
0.0
230
1.0
 70
     8
 71
     3
 72
    10
 73
     6
 74
     0
 42
0.00000001
 43
0.00000001
 12
1.0
 22
0.0
 32
0.0
 13
1.0
 23
0.0
 33
0.0
 40
0.0
 40
0.0
 40
0.0
 40
0.0
 40
0.2500080553449955
 40
0.5002614695547307
 40
1.0
 40
1.0
 40
1.0
 40
1.0
 10
923.5120774247202
 20
765.5639491484743
 30
0.0
 10
923.5230926665262
 20
765.5499567066917
 30
0.0
 10
923.5451339605388
 20
765.5219580908903
 30
0.0
 10
923.6350312815894
 20
765.5215731614148
 30
0.0
 10
923.727056220204
 20
765.5621526078723
 30
0.0
 10
923.7883747555766
 20
765.5891917155367
 30
0.0
  0
LINE
  5
1F0
330
1F
100
AcDbEntity
  8
0
  6
Continuous
 62
     7
370
    15
100
AcDbLine
 10
923.7883747556
 20
765.5891917155
 30
0.0
 11
923.7738312223
 21
765.2649647997
 31
0.0
  0
LINE
  5
1F1
330
1F
100
AcDbEntity
  8
0
  6
Continuous
 62
     7
370
    15
100
AcDbLine
 10
923.7738312223
 20
765.2649647997
 30
0.0
 11
921.9719828107
 21
763.6695570753
 31
0.0
  0
LINE
  5
1F2
330
1F
100
AcDbEntity
  8
0
  6
Continuous
 62
     7
370
    15
100
AcDbLine
 10
922.1777082421
 20
764.9218432115
 30
0.0
 11
922.1707344987
 21
764.9279750393
 31
0.0
  0
LINE
  5
1F3
330
1F
100
AcDbEntity
  8
0
  6
Continuous
 62
     7
370
    15
100
AcDbLine
 10
921.6315806844
 20
764.36501662
 30
0.0
 11
921.6246367433
 21
764.3711484478
 31
0.0
  0
LINE
  5
1F4
330
1F
100
AcDbEntity
  8
0
  6
Continuous
 62
     7
370
    15
100
AcDbLine
 10
921.9719828107
 20
763.6695570753
 30
0.0
 11
921.9649196603
 21
763.67590497
 31
0.0
  0
SPLINE
  5
1F5
330
1F
100
AcDbEntity
  8
0
  6
Continuous
 62
     7
370
    15
100
AcDbSpline
210
0.0
220
0.0
230
1.0
 70
     8
 71
     3
 72
     9
 73
     5
 74
     0
 42
0.00000001
 43
0.00000001
 12
1.0
 22
0.0
 32
0.0
 13
1.0
 23
0.0
 33
0.0
 40
0.0
 40
0.0
 40
0.0
 40
0.0
 40
0.4991919223599915
 40
1.0
 40
1.0
 40
1.0
 40
1.0
 10
923.7318695523295
 20
766.5391705439669
 30
0.0
 10
923.7307187391867
 20
766.5401927135534
 30
0.0
 10
923.7284133870944
 20
766.5422403620445
 30
0.0
 10
923.7260894551185
 20
766.5442706740063
 30
0.0
 10
923.7249256112132
 20
766.5452874706369
 30
0.0
  0
SPLINE
  5
1F6
330
1F
100
AcDbEntity
  8
0
  6
Continuous
 62
     7
370
    15
100
AcDbSpline
210
0.0
220
0.0
230
1.0
 70
    24
 71
     3
 72
     9
 73
     5
 74
     0
 42
0.00000001
 43
0.00000001
 12
1.0
 22
0.0
 32
0.0
 13
1.0
 23
0.0
 33
0.0
 40
0.0
 40
0.0
 40
0.0
 40
0.0
 40
0.5001250345239993
 40
1.0
 40
1.0
 40
1.0
 40
1.0
 10
922.9461313225779
 20
765.0108403967005
 30
0.0
 10
922.9449592445392
 20
765.0118858307138
 30
0.0
 10
922.942615674516
 20
765.0139761760097
 30
0.0
 10
922.9402703456702
 20
765.0160680900864
 30
0.0
 10
922.9390979744944
 20
765.0171137855631
 30
0.0
  0
LWPOLYLINE
  5
1F7
330
1F
100
AcDbEntity
  8
0
  6
Continuous
 62
     7
370
    15
100
AcDbPolyline
 90
        9
 70
   128
 43
0.0
 10
927.1971941926
 20
815.654656987
 10
928.8190961816
 20
812.1765024469
 10
930.4605782964
 20
808.65629683
 10
932.1152032353
 20
805.1079727219
 10
933.7763846852
 20
801.5455521153
 10
935.4375661351
 20
797.9831464098
 10
937.0921612718
 20
794.4348148511
 10
938.7336731889
 20
790.9146166847
 10
940.3555453755
 20
787.4364621447
  0
SPLINE
  5
1F8
330
1F
100
AcDbEntity
  8
0
  6
Continuous
 62
     7
370
    15
100
AcDbSpline
210
0.0
220
0.0
230
1.0
 70
     8
 71
     3
 72
     9
 73
     5
 74
     0
 42
0.00000001
 43
0.00000001
 12
1.0
 22
0.0
 32
0.0
 13
1.0
 23
0.0
 33
0.0
 40
0.0
 40
0.0
 40
0.0
 40
0.0
 40
0.5002338432347447
 40
1.0
 40
1.0
 40
1.0
 40
1.0
 10
924.5197833516154
 20
766.5662534044367
 30
0.0
 10
924.5186114013082
 20
766.567301829219
 30
0.0
 10
924.5162685963917
 20
766.5693976985739
 30
0.0
 10
924.5139225020729
 20
766.5714890548109
 30
0.0
 10
924.5127500035319
 20
766.5725342438799
 30
0.0
  0
LWPOLYLINE
  5
1F9
330
1F
100
AcDbEntity
  8
0
  6
Continuous
 62
     7
370
    15
100
AcDbPolyline
 90
        9
 70
   128
 43
0.0
 10
925.8338273503
 20
818.5783840225
 10
925.8917332627
 20
818.4542126463
 10
925.9828985669
 20
818.2587243126
 10
926.1069358327
 20
817.9927236841
 10
926.2633086183
 20
817.6573581503
 10
926.4513910749
 20
817.2540284203
 10
926.6703785398
 20
816.7844332264
 10
926.9193173387
 20
816.2505544232
 10
927.1971941926
 20
815.654656987
  0
SPLINE
  5
1FA
330
1F
100
AcDbEntity
  8
0
  6
Continuous
 62
     7
370
    15
100
AcDbSpline
210
0.0
220
0.0
230
1.0
 70
     8
 71
     3
 72
    11
 73
     7
 74
     0
 42
0.00000001
 43
0.00000001
 12
1.0
 22
0.0
 32
0.0
 13
1.0
 23
0.0
 33
0.0
 40
0.0
 40
0.0
 40
0.0
 40
0.0
 40
0.2933138781375494
 40
0.5866006141670386
 40
0.8805007706104826
 40
1.0
 40
1.0
 40
1.0
 40
1.0
 10
924.9128759839091
 20
819.1581882045847
 30
0.0
 10
925.0255788952488
 20
819.1485177475577
 30
0.0
 10
925.2509742888461
 20
819.1291777283697
 30
0.0
 10
925.5517164927812
 20
818.9599575253487
 30
0.0
 10
925.7401978984079
 20
818.7593826744359
 30
0.0
 10
925.8128315229217
 20
818.6189718544483
 30
0.0
 10
925.8338273503336
 20
818.5783840225321
 30
0.0
  0
LWPOLYLINE
  5
1FB
330
1F
100
AcDbEntity
  8
0
  6
Continuous
 62
     7
370
    15
100
AcDbPolyline
 90
        5
 70
   128
 43
0.0
 10
940.3555453755
 20
787.4364621447
 10
940.9527243115
 20
786.1558116482
 10
941.3891197183
 20
785.2200038241
 10
941.6548968293
 20
784.6499971555
 10
941.7441845872
 20
784.4585619376
  0
SPLINE
  5
1FC
330
1F
100
AcDbEntity
  8
0
  6
Continuous
 62
     7
370
    15
100
AcDbSpline
210
0.0
220
0.0
230
1.0
 70
     8
 71
     3
 72
     9
 73
     5
 74
     0
 42
0.00000001
 43
0.00000001
 12
1.0
 22
0.0
 32
0.0
 13
1.0
 23
0.0
 33
0.0
 40
0.0
 40
0.0
 40
0.0
 40
0.0
 40
0.498830911226038
 40
1.0
 40
1.0
 40
1.0
 40
1.0
 10
923.7883747555766
 20
765.5891917155367
 30
0.0
 10
923.7872036330152
 20
765.5902484426696
 30
0.0
 10
923.7848558984725
 20
765.5923668501479
 30
0.0
 10
923.7824948764342
 20
765.5944704498821
 30
0.0
 10
923.7813116051707
 20
765.5955247090441
 30
0.0
  0
LINE
  5
1FD
330
1F
100
AcDbEntity
  8
0
  6
Continuous
 62
     7
370
    15
100
AcDbLine
 10
924.3181408383
 20
766.0592637466
 30
0.0
 11
924.3110776879
 21
766.0656116412
 31
0.0
  0
SPLINE
  5
1FE
330
1F
100
AcDbEntity
  8
0
  6
Continuous
 62
     7
370
    15
100
AcDbSpline
210
0.0
220
0.0
230
1.0
 70
     8
 71
     3
 72
     9
 73
     5
 74
     0
 42
0.00000001
 43
0.00000001
 12
1.0
 22
0.0
 32
0.0
 13
1.0
 23
0.0
 33
0.0
 40
0.0
 40
0.0
 40
0.0
 40
0.0
 40
0.499760493012942
 40
0.9999999999999999
 40
0.9999999999999999
 40
0.9999999999999999
 40
0.9999999999999999
 10
924.4341910817179
 20
765.787965755282
 30
0.0
 10
924.4330086400656
 20
765.7890357914938
 30
0.0
 10
924.430642623406
 20
765.7911768895334
 30
0.0
 10
924.428280004371
 20
765.793322358166
 30
0.0
 10
924.4270981289897
 20
765.7943956063372
 30
0.0
  0
LINE
  5
1FF
330
1F
100
AcDbEntity
  8
0
  6
Continuous
 62
     7
370
    15
100
AcDbLine
 10
880.9732557275
 20
832.0889241503
 30
0.0
 11
881.3889087178
 21
832.2568751381
 31
0.0
  0
SPLINE
  5
200
330
1F
100
AcDbEntity
  8
0
  6
Continuous
 62
     7
370
    15
100
AcDbSpline
210
0.0
220
0.0
230
1.0
 70
     8
 71
     3
 72
    14
 73
    10
 74
     0
 42
0.00000001
 43
0.00000001
 12
1.0
 22
0.0
 32
0.0
 13
1.0
 23
0.0
 33
0.0
 40
0.0
 40
0.0
 40
0.0
 40
0.0
 40
0.000006567875717
 40
0.0730572253118469
 40
0.2154951905957198
 40
0.4037777801711115
 40
0.588746279207746
 40
0.8882361070835397
 40
1.0
 40
1.0
 40
1.0
 40
1.0
 10
881.3889087178263
 20
832.2568751381021
 30
0.0
 10
881.3889285860593
 20
832.2568801050819
 30
0.0
 10
881.6099312406278
 20
832.3121298958864
 30
0.0
 10
882.242060667775
 20
832.5560685410027
 30
0.0
 10
883.5331920313021
 20
832.521530219982
 30
0.0
 10
885.0994662868226
 20
832.0638211826401
 30
0.0
 10
886.7928759906722
 20
830.7516356674267
 30
0.0
 10
887.7851075987244
 20
829.1419123704994
 30
0.0
 10
888.3402831323594
 20
827.987685299852
 30
0.0
 10
888.4911597706828
 20
827.6740081117731
 30
0.0
  0
SPLINE
  5
201
330
1F
100
AcDbEntity
  8
0
  6
Continuous
 62
     7
370
    15
100
AcDbSpline
210
0.0
220
0.0
230
1.0
 70
     8
 71
     3
 72
    15
 73
    11
 74
     0
 42
0.00000001
 43
0.00000001
 12
1.0
 22
0.0
 32
0.0
 13
1.0
 23
0.0
 33
0.0
 40
0.0
 40
0.0
 40
0.0
 40
0.0
 40
0.0125251390574359
 40
0.2274807790937335
 40
0.4424410845379977
 40
0.4999984272884286
 40
0.7148759819686894
 40
0.9297498883457034
 40
0.9874748336881597
 40
1.0
 40
1.0
 40
1.0
 40
1.0
 10
881.8173171021494
 20
830.2787906931025
 30
0.0
 10
881.8121232594466
 20
830.2907511436905
 30
0.0
 10
881.7177930185525
 20
830.5079760867128
 30
0.0
 10
881.5310611664473
 20
830.9308833902401
 30
0.0
 10
881.3464224143341
 20
831.3386498719468
 30
0.0
 10
881.1888055074918
 20
831.6785933462264
 30
0.0
 10
881.0589977097023
 20
831.9494628004709
 30
0.0
 10
880.9905360985882
 20
832.0742503284347
 30
0.0
 10
880.975563675255
 20
832.0892694596579
 30
0.0
 10
880.9736049553026
 20
832.0889764008787
 30
0.0
 10
880.9732557274851
 20
832.0889241502863
 30
0.0
  0
SPLINE
  5
202
330
1F
100
AcDbEntity
  8
0
  6
Continuous
 62
     7
370
    15
100
AcDbSpline
210
0.0
220
0.0
230
1.0
 70
     8
 71
     3
 72
     9
 73
     5
 74
     0
 42
0.00000001
 43
0.00000001
 12
1.0
 22
0.0
 32
0.0
 13
1.0
 23
0.0
 33
0.0
 40
0.0
 40
0.0
 40
0.0
 40
0.0
 40
0.0000220739755756
 40
1.0
 40
1.0
 40
1.0
 40
1.0
 10
931.0224116780314
 20
736.4654011533838
 30
0.0
 10
931.0224216121701
 20
736.4653837687105
 30
0.0
 10
931.4724601073399
 20
735.6778195507978
 30
0.0
 10
931.7300575445316
 20
734.7994605868578
 30
0.0
 10
931.9876492955241
 20
733.9211210117918
 30
0.0
  0
LINE
  5
203
330
1F
100
AcDbEntity
  8
0
  6
Continuous
 62
     7
370
    15
100
AcDbLine
 10
880.9732557275
 20
832.0889241503
 30
0.0
 11
880.924677942
 21
832.0693142222
 31
0.0
  0
LINE
  5
204
330
1F
100
AcDbEntity
  8
0
  6
Continuous
 62
     7
370
    15
100
AcDbLine
 10
888.4911597707
 20
827.6740081118
 30
0.0
 11
893.2576836087
 21
817.4521393583
 31
0.0
  0
LINE
  5
205
330
1F
100
AcDbEntity
  8
0
  6
Continuous
 62
     7
370
    15
100
AcDbLine
 10
919.9166060426
 20
760.2818898366
 30
0.0
 11
931.022411678
 21
736.4654011534
 31
0.0
  0
SPLINE
  5
206
330
1F
100
AcDbEntity
  8
0
  6
Continuous
 62
     7
370
    15
100
AcDbSpline
210
0.0
220
0.0
230
1.0
 70
     8
 71
     3
 72
    20
 73
    16
 74
     0
 42
0.00000001
 43
0.00000001
 12
1.0
 22
0.0
 32
0.0
 13
1.0
 23
0.0
 33
0.0
 40
0.0
 40
0.0
 40
0.0
 40
0.0
 40
0.2070574430990688
 40
0.4203773173575917
 40
0.7011168726554161
 40
0.8834535545935035
 40
0.9282295932420581
 40
0.9524797081945934
 40
0.9675029091051573
 40
0.9773828408676964
 40
0.984094995173939
 40
0.9887406565640818
 40
0.9919942193631911
 40
0.9977342443597229
 40
1.0
 40
1.0
 40
1.0
 40
1.0
 10
931.9876492955241
 20
733.9211210117918
 30
0.0
 10
932.0925076037922
 20
733.4320075133888
 30
0.0
 10
932.3053956491229
 20
732.4389873289194
 30
0.0
 10
932.1069987208207
 20
730.730229255311
 30
0.0
 10
931.4728744751314
 20
729.4334172443712
 30
0.0
 10
930.8021424413703
 20
728.6657238055556
 30
0.0
 10
930.3917723470747
 20
728.3442064133529
 30
0.0
 10
930.2462898913706
 20
728.2441081119223
 30
0.0
 10
930.1583945712017
 20
728.1882389967102
 30
0.0
 10
930.1007384916855
 20
728.1534615876053
 30
0.0
 10
930.0614766913499
 20
728.1306467594051
 30
0.0
 10
930.0342250788339
 20
728.1152180686845
 30
0.0
 10
930.0086617064578
 20
728.1009794547226
 30
0.0
 10
929.9873970375743
 20
728.089388097725
 30
0.0
 10
929.9721900948607
 20
728.0812694522182
 30
0.0
 10
929.9678863026652
 20
728.0789717541319
 30
0.0
  0
SPLINE
  5
207
330
1F
100
AcDbEntity
  8
0
  6
Continuous
 62
     7
370
    15
100
AcDbSpline
210
0.0
220
0.0
230
1.0
 70
     8
 71
     3
 72
    10
 73
     6
 74
     0
 42
0.00000001
 43
0.00000001
 12
1.0
 22
0.0
 32
0.0
 13
1.0
 23
0.0
 33
0.0
 40
0.0
 40
0.0
 40
0.0
 40
0.0
 40
0.4527377978307329
 40
0.9055964621358739
 40
1.0
 40
1.0
 40
1.0
 40
1.0
 10
932.1097196080241
 20
731.1241991327387
 30
0.0
 10
932.1173375662513
 20
731.176700224411
 30
0.0
 10
932.1325755164562
 20
731.2817164238633
 30
0.0
 10
932.2559439807615
 20
731.7643771011433
 30
0.0
 10
932.2139418027871
 20
732.2408277387977
 30
0.0
 10
932.2066963650736
 20
732.3230161772352
 30
0.0
  0
SPLINE
  5
208
330
1F
100
AcDbEntity
  8
0
  6
Continuous
 62
     7
370
    15
100
AcDbSpline
210
0.0
220
0.0
230
1.0
 70
     8
 71
     3
 72
    12
 73
     8
 74
     0
 42
0.00000001
 43
0.00000001
 12
1.0
 22
0.0
 32
0.0
 13
1.0
 23
0.0
 33
0.0
 40
0.0
 40
0.0
 40
0.0
 40
0.0
 40
0.4616879184803683
 40
0.7307704788154765
 40
0.917574843288193
 40
0.9719302305435881
 40
1.0
 40
1.0
 40
1.0
 40
1.0
 10
931.966579053596
 20
733.9965097115618
 30
0.0
 10
931.9365642993394
 20
734.1050674261085
 30
0.0
 10
931.8890562414898
 20
734.2768951258661
 30
0.0
 10
931.8174397509289
 20
734.5009995415728
 30
0.0
 10
931.7759652360927
 20
734.6253646819132
 30
0.0
 10
931.7534814796071
 20
734.691042748487
 30
0.0
 10
931.7465312219426
 20
734.7111280398958
 30
0.0
 10
931.7441643216166
 20
734.7179680572134
 30
0.0
  0
LINE
  5
209
330
1F
100
AcDbEntity
  8
0
  6
Continuous
 62
     7
370
    15
100
AcDbLine
 10
887.1212960221
 20
829.9351550148
 30
0.0
 11
886.6756916978
 21
830.6700355814
 31
0.0
  0
LINE
  5
20A
330
1F
100
AcDbEntity
  8
0
  6
Continuous
 62
     7
370
    15
100
AcDbLine
 10
931.0686052777
 20
736.365853946
 30
0.0
 11
931.0265542008
 21
736.4565051602
 31
0.0
  0
SPLINE
  5
20B
330
1F
100
AcDbEntity
  8
0
  6
Continuous
 62
     7
370
    15
100
AcDbSpline
210
0.0
220
0.0
230
1.0
 70
     8
 71
     3
 72
     9
 73
     5
 74
     0
 42
0.00000001
 43
0.00000001
 12
1.0
 22
0.0
 32
0.0
 13
1.0
 23
0.0
 33
0.0
 40
0.0
 40
0.0
 40
0.0
 40
0.0
 40
0.5000204368570494
 40
1.0
 40
1.0
 40
1.0
 40
1.0
 10
931.536412332252
 20
735.2782181904894
 30
0.0
 10
931.4684375842239
 20
735.446936266447
 30
0.0
 10
931.3324936447016
 20
735.7843586266572
 30
0.0
 10
931.1565656697787
 20
736.1720274547262
 30
0.0
 10
931.0686052777323
 20
736.3658539460283
 30
0.0
  0
SPLINE
  5
20C
330
1F
100
AcDbEntity
  8
0
  6
Continuous
 62
     7
370
    15
100
AcDbSpline
210
0.0
220
0.0
230
1.0
 70
     8
 71
     3
 72
    13
 73
     9
 74
     0
 42
0.00000001
 43
0.00000001
 12
1.0
 22
0.0
 32
0.0
 13
1.0
 23
0.0
 33
0.0
 40
0.0
 40
0.0
 40
0.0
 40
0.0
 40
0.125467349217193
 40
0.2502456979445875
 40
0.3760670788599126
 40
0.5019112889528262
 40
0.7508308159905942
 40
1.0
 40
1.0
 40
1.0
 40
1.0
 10
886.6756916977915
 20
830.6700355814081
 30
0.0
 10
886.5880142077896
 20
830.7673109679932
 30
0.0
 10
886.4131407063051
 20
830.9613275560594
 30
0.0
 10
886.1394573920685
 20
831.2207244892937
 30
0.0
 10
885.8724640527342
 20
831.4441922187649
 30
0.0
 10
885.5476149729378
 20
831.6826725825489
 30
0.0
 10
885.2149013510086
 20
831.8802297778723
 30
0.0
 10
885.1620009415044
 20
831.9071888478908
 30
0.0
 10
885.1355374791178
 20
831.9206751392466
 30
0.0
  0
SPLINE
  5
20D
330
1F
100
AcDbEntity
  8
0
  6
Continuous
 62
     7
370
    15
100
AcDbSpline
210
0.0
220
0.0
230
1.0
 70
     8
 71
     3
 72
     9
 73
     5
 74
     0
 42
0.00000001
 43
0.00000001
 12
1.0
 22
0.0
 32
0.0
 13
1.0
 23
0.0
 33
0.0
 40
0.0
 40
0.0
 40
0.0
 40
0.0
 40
0.8821755266658424
 40
1.0
 40
1.0
 40
1.0
 40
1.0
 10
932.2258592583689
 20
732.1153386936766
 30
0.0
 10
932.2328806648796
 20
732.1260257808416
 30
0.0
 10
932.2408398592785
 20
732.1381402488154
 30
0.0
 10
932.2211196332132
 20
732.3884945855248
 30
0.0
 10
932.218796107963
 20
732.4179924533945
 30
0.0
  0
SPLINE
  5
20E
330
1F
100
AcDbEntity
  8
0
  6
Continuous
 62
     7
370
    15
100
AcDbSpline
210
0.0
220
0.0
230
1.0
 70
     8
 71
     3
 72
     9
 73
     5
 74
     0
 42
0.00000001
 43
0.00000001
 12
1.0
 22
0.0
 32
0.0
 13
1.0
 23
0.0
 33
0.0
 40
0.0
 40
0.0
 40
0.0
 40
0.0
 40
0.1164890805185892
 40
1.0
 40
1.0
 40
1.0
 40
1.0
 10
931.9986761548075
 20
733.8479637609106
 30
0.0
 10
931.990287002207
 20
733.8916261641293
 30
0.0
 10
931.91827035856
 20
734.2664458727604
 30
0.0
 10
931.7155330012354
 20
734.8036194602687
 30
0.0
 10
931.536412332252
 20
735.2782181904894
 30
0.0
  0
LINE
  5
20F
330
1F
100
AcDbEntity
  8
0
  6
Continuous
 62
     7
370
    15
100
AcDbLine
 10
931.7441643216
 20
734.7179680572
 30
0.0
 11
931.5750659444
 21
735.1630620168
 31
0.0
  0
LINE
  5
210
330
1F
100
AcDbEntity
  8
0
  6
Continuous
 62
     7
370
    15
100
AcDbLine
 10
897.9496122338
 20
793.6662874625
 30
0.0
 11
897.928363178
 21
793.6563856409
 31
0.0
  0
LINE
  5
211
330
1F
100
AcDbEntity
  8
0
  6
Continuous
 62
     7
370
    15
100
AcDbLine
 10
909.1912568547
 20
769.5585034297
 30
0.0
 11
909.1700077989
 21
769.5485941575
 31
0.0
  0
LINE
  5
212
330
1F
100
AcDbEntity
  8
0
  6
Continuous
 62
     7
370
    15
100
AcDbLine
 10
913.8731420972
 20
759.5181457208
 30
0.0
 11
913.8519228437
 21
759.5082438992
 31
0.0
  0
LINE
  5
213
330
1F
100
AcDbEntity
  8
0
  6
Continuous
 62
     7
370
    15
100
AcDbLine
 10
912.0319844224
 20
763.4665734575
 30
0.0
 11
912.0107353665
 21
763.4566641853
 31
0.0
  0
CIRCLE
  5
214
330
1F
100
AcDbEntity
  8
0
  6
Continuous
 62
     7
370
    15
100
AcDbCircle
 10
878.5950560048
 20
895.2433075909
 30
0.0
 40
2.524999999999966
  0
CIRCLE
  5
215
330
1F
100
AcDbEntity
  8
0
  6
Continuous
 62
     7
370
    15
100
AcDbCircle
 10
878.5950560048
 20
895.2433075909
 30
0.0
 40
2.10000000000011
  0
SPLINE
  5
216
330
1F
100
AcDbEntity
  8
0
  6
Continuous
 62
     7
370
    15
100
AcDbSpline
210
0.0
220
0.0
230
1.0
 70
     8
 71
     3
 72
    13
 73
     9
 74
     0
 42
0.00000001
 43
0.00000001
 12
1.0
 22
0.0
 32
0.0
 13
1.0
 23
0.0
 33
0.0
 40
0.0
 40
0.0
 40
0.0
 40
0.0
 40
0.1695239427326401
 40
0.3386489500679015
 40
0.5184882279093468
 40
0.7277240752337637
 40
0.9924541829596193
 40
1.0
 40
1.0
 40
1.0
 40
1.0
 10
107.6238513924631
 20
174.5933211849314
 30
0.0
 10
107.6243034051258
 20
174.6179293117816
 30
0.0
 10
107.6252063667441
 20
174.6670876559462
 30
0.0
 10
107.6319601862122
 20
174.7332225906371
 30
0.0
 10
107.6421938687148
 20
174.7889057232495
 30
0.0
 10
107.6566678857087
 20
174.8315455561888
 30
0.0
 10
107.6682728628047
 20
174.8433671205427
 30
0.0
 10
107.6747239852059
 20
174.8433047924709
 30
0.0
 10
107.6749027707132
 20
174.8433030651194
 30
0.0
  0
LINE
  5
217
330
1F
100
AcDbEntity
  8
0
  6
Continuous
 62
     7
370
    15
100
AcDbLine
 10
101.2570024468
 20
174.8433030651
 30
0.0
 11
107.6749027707
 21
174.8433030651
 31
0.0
  0
SPLINE
  5
218
330
1F
100
AcDbEntity
  8
0
  6
Continuous
 62
     7
370
    15
100
AcDbSpline
210
0.0
220
0.0
230
1.0
 70
     8
 71
     3
 72
    13
 73
     9
 74
     0
 42
0.00000001
 43
0.00000001
 12
1.0
 22
0.0
 32
0.0
 13
1.0
 23
0.0
 33
0.0
 40
0.0
 40
0.0
 40
0.0
 40
0.0
 40
0.0075458170403807
 40
0.2722759247662363
 40
0.4815117720906532
 40
0.6613510499320985
 40
0.83047605726736
 40
1.0
 40
1.0
 40
1.0
 40
1.0
 10
107.6749027707132
 20
173.6433125541788
 30
0.0
 10
107.6747239852058
 20
173.6433108268272
 30
0.0
 10
107.6682728628072
 20
173.643248498756
 30
0.0
 10
107.6566678857078
 20
173.6550700631092
 30
0.0
 10
107.6421938687149
 20
173.6977098960485
 30
0.0
 10
107.6319601862122
 20
173.7533930286612
 30
0.0
 10
107.6252063667441
 20
173.8195279633519
 30
0.0
 10
107.6243034051257
 20
173.8686863075164
 30
0.0
 10
107.6238513924631
 20
173.8932944343668
 30
0.0
  0
LINE
  5
219
330
1F
100
AcDbEntity
  8
0
  6
Continuous
 62
     7
370
    15
100
AcDbLine
 10
107.6749027707
 20
173.6433125542
 30
0.0
 11
101.0802448728
 21
173.6433125542
 31
0.0
  0
LINE
  5
21A
330
1F
100
AcDbEntity
  8
0
  6
Continuous
 62
     7
370
    15
100
AcDbLine
 10
107.6238513925
 20
174.5933211849
 30
0.0
 11
107.6238513925
 21
173.8932944344
 31
0.0
  0
SPLINE
  5
21B
330
1F
100
AcDbEntity
  8
0
  6
Continuous
 62
     7
370
    15
100
AcDbSpline
210
0.0
220
0.0
230
1.0
 70
     8
 71
     3
 72
    12
 73
     8
 74
     0
 42
0.00000001
 43
0.00000001
 12
1.0
 22
0.0
 32
0.0
 13
1.0
 23
0.0
 33
0.0
 40
0.0
 40
0.0
 40
0.0
 40
0.0
 40
0.228945325243411
 40
0.4594215441877338
 40
0.6825370659681816
 40
0.8947205058730021
 40
1.0
 40
1.0
 40
1.0
 40
1.0
 10
112.0751560666117
 20
173.6433125541788
 30
0.0
 10
112.2092513440364
 20
173.660644831098
 30
0.0
 10
112.4783385567026
 20
173.6954252810505
 30
0.0
 10
112.8309539676696
 20
173.9692937373719
 30
0.0
 10
113.083931348257
 20
174.3663527866914
 30
0.0
 10
113.1973080592529
 20
174.7672183155033
 30
0.0
 10
113.2069501337085
 20
175.0121039083004
 30
0.0
 10
113.2101477124246
 20
175.0933147476297
 30
0.0
  0
LINE
  5
21C
330
1F
100
AcDbEntity
  8
0
  6
Continuous
 62
     7
370
    15
100
AcDbLine
 10
112.0751560666
 20
173.6433125542
 30
0.0
 11
107.9050661065
 21
173.6433125542
 31
0.0
  0
LINE
  5
21D
330
1F
100
AcDbEntity
  8
0
  6
Continuous
 62
     7
370
    15
100
AcDbLine
 10
108.8162721135
 20
180.4433084534
 30
0.0
 11
112.9863620736
 21
180.4433084534
 31
0.0
  0
LINE
  5
21E
330
1F
100
AcDbEntity
  8
0
  6
Continuous
 62
     7
370
    15
100
AcDbLine
 10
108.2863868215
 20
180.4433084534
 30
0.0
 11
108.8162721135
 21
180.4433084534
 31
0.0
  0
LINE
  5
21F
330
1F
100
AcDbEntity
  8
0
  6
Continuous
 62
     7
370
    15
100
AcDbLine
 10
107.6749027707
 20
174.8433030651
 30
0.0
 11
107.9050661065
 21
174.8433030651
 31
0.0
  0
LINE
  5
220
330
1F
100
AcDbEntity
  8
0
  6
Continuous
 62
     7
370
    15
100
AcDbLine
 10
107.9050661065
 20
173.6433125542
 30
0.0
 11
107.6749027707
 21
173.6433125542
 31
0.0
  0
LINE
  5
221
330
1F
100
AcDbEntity
  8
0
  6
Continuous
 62
     7
370
    15
100
AcDbLine
 10
113.2101477124
 20
175.0933147476
 30
0.0
 11
113.2363737561
 21
175.0933147476
 31
0.0
  0
LINE
  5
222
330
1F
100
AcDbEntity
  8
0
  6
Continuous
 62
     7
370
    15
100
AcDbLine
 10
112.5302375295
 20
173.6433125542
 30
0.0
 11
112.0751560666
 21
173.6433125542
 31
0.0
  0
SPLINE
  5
223
330
1F
100
AcDbEntity
  8
0
  6
Continuous
 62
     7
370
    15
100
AcDbSpline
210
0.0
220
0.0
230
1.0
 70
     8
 71
     3
 72
    11
 73
     7
 74
     0
 42
0.00000001
 43
0.00000001
 12
1.0
 22
0.0
 32
0.0
 13
1.0
 23
0.0
 33
0.0
 40
0.0
 40
0.0
 40
0.0
 40
0.0
 40
0.0796324042394251
 40
0.4595029375578007
 40
0.8207539427899357
 40
1.0
 40
1.0
 40
1.0
 40
1.0
 10
95.41258821268406
 20
173.941812615214
 30
0.0
 10
95.38852315274553
 20
173.9587699110845
 30
0.0
 10
95.24966051460359
 20
174.0566186114968
 30
0.0
 10
95.08044449502384
 20
174.3750017324179
 30
0.0
 10
94.96277644107876
 20
174.7662909610315
 30
0.0
 10
94.95344785048998
 20
175.0118721846358
 30
0.0
 10
94.9503541924509
 20
175.0933147476297
 30
0.0
  0
ARC
  5
224
330
1F
100
AcDbEntity
  8
0
  6
Continuous
 62
     7
370
    15
100
AcDbCircle
 10
95.6915643215
 20
180.2045570894
 30
0.0
 40
0.2390747656422051
100
AcDbArc
 50
357.300394713
 51
87.0194883044
  0
LINE
  5
225
330
1F
100
AcDbEntity
  8
0
  6
Continuous
 62
     7
370
    15
100
AcDbLine
 10
95.1741100289
 20
180.4433084534
 30
0.0
 11
95.703995321
 21
180.4433084534
 31
0.0
  0
LINE
  5
226
330
1F
100
AcDbEntity
  8
0
  6
Continuous
 62
     7
370
    15
100
AcDbLine
 10
95.703995321
 20
180.4433084534
 30
0.0
 11
98.4400571324
 21
180.4433084534
 31
0.0
  0
SPLINE
  5
227
330
1F
100
AcDbEntity
  8
0
  6
Continuous
 62
     7
370
    15
100
AcDbSpline
210
0.0
220
0.0
230
1.0
 70
     8
 71
     3
 72
    13
 73
     9
 74
     0
 42
0.00000001
 43
0.00000001
 12
1.0
 22
0.0
 32
0.0
 13
1.0
 23
0.0
 33
0.0
 40
0.0
 40
0.0
 40
0.0
 40
0.0
 40
0.1695237433500265
 40
0.338648417065008
 40
0.5184768347800551
 40
0.7277066597313081
 40
0.9924598814880737
 40
1.0
 40
1.0
 40
1.0
 40
1.0
 10
101.3492406346353
 20
175.7933116958719
 30
0.0
 10
101.3485289942073
 20
175.817919888718
 30
0.0
 10
101.347107388598
 20
175.8670783451646
 30
0.0
 10
101.3364888394402
 20
175.9332109002439
 30
0.0
 10
101.320495608688
 20
175.9888974715406
 30
0.0
 10
101.297602829064
 20
176.0315382021784
 30
0.0
 10
101.2792577717839
 20
176.0433575677907
 30
0.0
 10
101.2688538447423
 20
176.0432953003183
 30
0.0
 10
101.2685657479318
 20
176.0432935760599
 30
0.0
  0
LINE
  5
228
330
1F
100
AcDbEntity
  8
0
  6
Continuous
 62
     7
370
    15
100
AcDbLine
 10
101.2685657479
 20
176.0432935761
 30
0.0
 11
108.0364049413
 21
176.0432935761
 31
0.0
  0
SPLINE
  5
229
330
1F
100
AcDbEntity
  8
0
  6
Continuous
 62
     7
370
    15
100
AcDbSpline
210
0.0
220
0.0
230
1.0
 70
     8
 71
     3
 72
    13
 73
     9
 74
     0
 42
0.00000001
 43
0.00000001
 12
1.0
 22
0.0
 32
0.0
 13
1.0
 23
0.0
 33
0.0
 40
0.0
 40
0.0
 40
0.0
 40
0.0
 40
0.0075402229241823
 40
0.2722746454373079
 40
0.4815298166573679
 40
0.6613532470642925
 40
0.830413266524882
 40
1.0
 40
1.0
 40
1.0
 40
1.0
 10
101.2685657479318
 20
174.8433030651193
 30
0.0
 10
101.2688538440812
 20
174.8433114430531
 30
0.0
 10
101.279256888889
 20
174.8436139671282
 30
0.0
 10
101.2976064814914
 20
174.8549146708131
 30
0.0
 10
101.3204939204555
 20
174.8977600245544
 30
0.0
 10
101.3364862603344
 20
174.9534036361666
 30
0.0
 10
101.3471104583867
 20
175.0195349312276
 30
0.0
 10
101.3485298400078
 20
175.0686959879563
 30
0.0
 10
101.3492406346354
 20
175.0933147476297
 30
0.0
  0
LINE
  5
22A
330
1F
100
AcDbEntity
  8
0
  6
Continuous
 62
     7
370
    15
100
AcDbLine
 10
107.6911152341
 20
174.8433030651
 30
0.0
 11
101.2685657479
 21
174.8433030651
 31
0.0
  0
LINE
  5
22B
330
1F
100
AcDbEntity
  8
0
  6
Continuous
 62
     7
370
    15
100
AcDbLine
 10
101.3492406346
 20
175.0933147476
 30
0.0
 11
101.3492406346
 21
175.7933116959
 31
0.0
  0
SPLINE
  5
22C
330
1F
100
AcDbEntity
  8
0
  6
Continuous
 62
     7
370
    15
100
AcDbSpline
210
0.0
220
0.0
230
1.0
 70
     8
 71
     3
 72
    12
 73
     8
 74
     0
 42
0.00000001
 43
0.00000001
 12
1.0
 22
0.0
 32
0.0
 13
1.0
 23
0.0
 33
0.0
 40
0.0
 40
0.0
 40
0.0
 40
0.0
 40
0.2289505173240412
 40
0.459426192027805
 40
0.6825356445830428
 40
0.8947196497955547
 40
1.0
 40
1.0
 40
1.0
 40
1.0
 10
96.48112067957248
 20
176.0432935760599
 30
0.0
 10
96.35930466282528
 20
176.0259625525437
 30
0.0
 10
96.11486115006839
 20
175.9911850546323
 30
0.0
 10
95.7949253457529
 20
175.7173074127721
 30
0.0
 10
95.56548748059551
 20
175.3202852485944
 30
0.0
 10
95.46272109091363
 20
174.9194156839061
 30
0.0
 10
95.45398871972827
 20
174.6745317656798
 30
0.0
 10
95.45109281320896
 20
174.5933211849314
 30
0.0
  0
LINE
  5
22D
330
1F
100
AcDbEntity
  8
0
  6
Continuous
 62
     7
370
    15
100
AcDbLine
 10
96.4811206796
 20
176.0432935761
 30
0.0
 11
101.0618270375
 21
176.0432935761
 31
0.0
  0
LINE
  5
22E
330
1F
100
AcDbEntity
  8
0
  6
Continuous
 62
     7
370
    15
100
AcDbLine
 10
100.2433062532
 20
169.2433274792
 30
0.0
 11
95.6625998952
 21
169.2433274792
 31
0.0
  0
LINE
  5
22F
330
1F
100
AcDbEntity
  8
0
  6
Continuous
 62
     7
370
    15
100
AcDbLine
 10
100.719279144
 20
169.2433274792
 30
0.0
 11
100.2433062532
 21
169.2433274792
 31
0.0
  0
LINE
  5
230
330
1F
100
AcDbEntity
  8
0
  6
Continuous
 62
     7
370
    15
100
AcDbLine
 10
101.0618270375
 20
176.0432935761
 30
0.0
 11
101.2685657479
 21
176.0432935761
 31
0.0
  0
LINE
  5
231
330
1F
100
AcDbEntity
  8
0
  6
Continuous
 62
     7
370
    15
100
AcDbLine
 10
101.2685657479
 20
174.8433030651
 30
0.0
 11
101.0618270375
 21
174.8433030651
 31
0.0
  0
LINE
  5
232
330
1F
100
AcDbEntity
  8
0
  6
Continuous
 62
     7
370
    15
100
AcDbLine
 10
95.4510928132
 20
174.5933211849
 30
0.0
 11
95.4125882127
 21
174.5933211849
 31
0.0
  0
LINE
  5
233
330
1F
100
AcDbEntity
  8
0
  6
Continuous
 62
     7
370
    15
100
AcDbLine
 10
95.6302345731
 20
176.0432935761
 30
0.0
 11
96.4811206796
 21
176.0432935761
 31
0.0
  0
ARC
  5
234
330
1F
100
AcDbEntity
  8
0
  6
Continuous
 62
     7
370
    15
100
AcDbCircle
 10
112.0410017198
 20
169.4768640699
 30
0.0
 40
0.2343165402483551
100
AcDbArc
 50
175.9754401081
 51
265.3238338195
  0
LINE
  5
235
330
1F
100
AcDbEntity
  8
0
  6
Continuous
 62
     7
370
    15
100
AcDbLine
 10
112.0218993165
 20
169.2433274792
 30
0.0
 11
109.8100305535
 21
169.2433274792
 31
0.0
  0
LINE
  5
236
330
1F
100
AcDbEntity
  8
0
  6
Continuous
 62
     7
370
    15
100
AcDbLine
 10
112.4979020097
 20
169.2433274792
 30
0.0
 11
112.0218993165
 21
169.2433274792
 31
0.0
  0
LINE
  5
237
330
1F
100
AcDbEntity
  8
0
  6
Continuous
 62
     7
370
    15
100
AcDbLine
 10
103.003716562
 20
186.2467146919
 30
0.0
 11
104.2033792474
 21
186.4433206127
 31
0.0
  0
LINE
  5
238
330
1F
100
AcDbEntity
  8
0
  6
Continuous
 62
     7
370
    15
100
AcDbLine
 10
107.333815191
 20
186.4433206127
 30
0.0
 11
108.4542931058
 21
186.2467146919
 31
0.0
  0
LINE
  5
239
330
1F
100
AcDbEntity
  8
0
  6
Continuous
 62
     7
370
    15
100
AcDbLine
 10
108.4542931058
 20
186.2467146919
 30
0.0
 11
108.4542931058
 21
181.9398916767
 31
0.0
  0
SPLINE
  5
23A
330
1F
100
AcDbEntity
  8
0
  6
Continuous
 62
     7
370
    15
100
AcDbSpline
210
0.0
220
0.0
230
1.0
 70
     8
 71
     3
 72
     9
 73
     5
 74
     0
 42
0.00000001
 43
0.00000001
 12
1.0
 22
0.0
 32
0.0
 13
1.0
 23
0.0
 33
0.0
 40
0.0
 40
0.0
 40
0.0
 40
0.0
 40
0.0701976328295743
 40
0.9999999999999999
 40
0.9999999999999999
 40
0.9999999999999999
 40
0.9999999999999999
 10
105.7290197350534
 20
181.4933038757425
 30
0.0
 10
105.7936217250687
 20
181.4937547562256
 30
0.0
 10
106.7139090255265
 20
181.5001777717157
 30
0.0
 10
107.615754784386
 20
181.7280321429647
 30
0.0
 10
108.4542931057962
 20
181.9398916767221
 30
0.0
  0
LINE
  5
23B
330
1F
100
AcDbEntity
  8
0
  6
Continuous
 62
     7
370
    15
100
AcDbLine
 10
103.003716562
 20
181.9398916767
 30
0.0
 11
105.7290197351
 21
181.4933038757
 31
0.0
  0
LINE
  5
23C
330
1F
100
AcDbEntity
  8
0
  6
Continuous
 62
     7
370
    15
100
AcDbLine
 10
103.003716562
 20
186.2467146919
 30
0.0
 11
103.003716562
 21
181.9398916767
 31
0.0
  0
SPLINE
  5
23D
330
1F
100
AcDbEntity
  8
0
  6
Continuous
 62
     7
370
    15
100
AcDbSpline
210
0.0
220
0.0
230
1.0
 70
     8
 71
     3
 72
     9
 73
     5
 74
     0
 42
0.00000001
 43
0.00000001
 12
1.0
 22
0.0
 32
0.0
 13
1.0
 23
0.0
 33
0.0
 40
0.0
 40
0.0
 40
0.0
 40
0.0
 40
0.0701974366821791
 40
1.0
 40
1.0
 40
1.0
 40
1.0
 10
100.8167029358896
 20
181.4933038757425
 30
0.0
 10
100.8685434770485
 20
181.4937547584208
 30
0.0
 10
101.6070396901455
 20
181.5001778231298
 30
0.0
 10
102.3307805009368
 20
181.7280321445773
 30
0.0
 10
103.0037165619883
 20
181.9398916767221
 30
0.0
  0
LINE
  5
23E
330
1F
100
AcDbEntity
  8
0
  6
Continuous
 62
     7
370
    15
100
AcDbLine
 10
105.7290197351
 20
181.4933038757
 30
0.0
 11
100.8167029359
 21
181.4933038757
 31
0.0
  0
LINE
  5
23F
330
1F
100
AcDbEntity
  8
0
  6
Continuous
 62
     7
370
    15
100
AcDbLine
 10
102.1045506932
 20
186.4433206127
 30
0.0
 11
103.003716562
 21
186.2467146919
 31
0.0
  0
LINE
  5
240
330
1F
100
AcDbEntity
  8
0
  6
Continuous
 62
     7
370
    15
100
AcDbLine
 10
98.6296595075
 20
186.2467146919
 30
0.0
 11
99.5923937299
 21
186.4433206127
 31
0.0
  0
LINE
  5
241
330
1F
100
AcDbEntity
  8
0
  6
Continuous
 62
     7
370
    15
100
AcDbLine
 10
98.6296595075
 20
181.9398916767
 30
0.0
 11
100.8167029359
 21
181.4933038757
 31
0.0
  0
LINE
  5
242
330
1F
100
AcDbEntity
  8
0
  6
Continuous
 62
     7
370
    15
100
AcDbLine
 10
98.6296595075
 20
186.2467146919
 30
0.0
 11
98.6296595075
 21
181.9398916767
 31
0.0
  0
SPLINE
  5
243
330
1F
100
AcDbEntity
  8
0
  6
Continuous
 62
     7
370
    15
100
AcDbSpline
210
0.0
220
0.0
230
1.0
 70
     8
 71
     3
 72
     9
 73
     5
 74
     0
 42
0.00000001
 43
0.00000001
 12
1.0
 22
0.0
 32
0.0
 13
1.0
 23
0.0
 33
0.0
 40
0.0
 40
0.0
 40
0.0
 40
0.0
 40
0.9250532978969885
 40
1.0
 40
1.0
 40
1.0
 40
1.0
 10
108.4542931057962
 20
186.2467146919352
 30
0.0
 10
108.4991089017667
 20
186.3252501320013
 30
0.0
 10
108.5475556194557
 20
186.4101484186674
 30
0.0
 10
108.5978375225465
 20
186.4410078035972
 30
0.0
 10
108.6016059853586
 20
186.4433206127268
 30
0.0
  0
SPLINE
  5
244
330
1F
100
AcDbEntity
  8
0
  6
Continuous
 62
     7
370
    15
100
AcDbSpline
210
0.0
220
0.0
230
1.0
 70
     8
 71
     3
 72
     9
 73
     5
 74
     0
 42
0.00000001
 43
0.00000001
 12
1.0
 22
0.0
 32
0.0
 13
1.0
 23
0.0
 33
0.0
 40
0.0
 40
0.0
 40
0.0
 40
0.0
 40
0.2575517351660612
 40
1.0
 40
1.0
 40
1.0
 40
1.0
 10
108.4542931057962
 20
181.9398916767221
 30
0.0
 10
108.4994813611556
 20
181.8724720666561
 30
0.0
 10
108.6749344806242
 20
181.6107009315386
 30
0.0
 10
108.8572172928179
 20
181.543326158832
 30
0.0
 10
108.9925528504404
 20
181.4933038757425
 30
0.0
  0
LINE
  5
245
330
1F
100
AcDbEntity
  8
0
  6
Continuous
 62
     7
370
    15
100
AcDbLine
 10
108.9925528504
 20
181.4933038757
 30
0.0
 11
105.7290197351
 21
181.4933038757
 31
0.0
  0
SPLINE
  5
246
330
1F
100
AcDbEntity
  8
0
  6
Continuous
 62
     7
370
    15
100
AcDbSpline
210
0.0
220
0.0
230
1.0
 70
     8
 71
     3
 72
     9
 73
     5
 74
     0
 42
0.00000001
 43
0.00000001
 12
1.0
 22
0.0
 32
0.0
 13
1.0
 23
0.0
 33
0.0
 40
0.0
 40
0.0
 40
0.0
 40
0.0
 40
0.9250470303446963
 40
1.0
 40
1.0
 40
1.0
 40
1.0
 10
98.6296595074686
 20
186.2467146919352
 30
0.0
 10
98.67442054279557
 20
186.3252512732998
 30
0.0
 10
98.72280839104397
 20
186.410151368958
 30
0.0
 10
98.77322343229616
 20
186.4410078293848
 30
0.0
 10
98.77700218935337
 20
186.4433206127268
 30
0.0
  0
SPLINE
  5
247
330
1F
100
AcDbEntity
  8
0
  6
Continuous
 62
     7
370
    15
100
AcDbSpline
210
0.0
220
0.0
230
1.0
 70
     8
 71
     3
 72
     9
 73
     5
 74
     0
 42
0.00000001
 43
0.00000001
 12
1.0
 22
0.0
 32
0.0
 13
1.0
 23
0.0
 33
0.0
 40
0.0
 40
0.0
 40
0.0
 40
0.0
 40
0.2575517351660612
 40
1.0
 40
1.0
 40
1.0
 40
1.0
 10
98.6296595074686
 20
181.9398916767221
 30
0.0
 10
98.67484776282798
 20
181.8724720666561
 30
0.0
 10
98.85030088229647
 20
181.6107009315386
 30
0.0
 10
99.03258369449036
 20
181.543326158832
 30
0.0
 10
99.16791925211277
 20
181.4933038757425
 30
0.0
  0
LINE
  5
248
330
1F
100
AcDbEntity
  8
0
  6
Continuous
 62
     7
370
    15
100
AcDbLine
 10
100.8167029359
 20
181.4933038757
 30
0.0
 11
99.0882576444
 21
181.4933038757
 31
0.0
  0
LINE
  5
249
330
1F
100
AcDbEntity
  8
0
  6
Continuous
 62
     7
370
    15
100
AcDbLine
 10
109.3435049989
 20
186.4433206127
 30
0.0
 11
109.5308125951
 21
186.2467146919
 31
0.0
  0
LINE
  5
24A
330
1F
100
AcDbEntity
  8
0
  6
Continuous
 62
     7
370
    15
100
AcDbLine
 10
109.5308125951
 20
186.2467146919
 30
0.0
 11
109.5308125951
 21
181.9398916767
 31
0.0
  0
SPLINE
  5
24B
330
1F
100
AcDbEntity
  8
0
  6
Continuous
 62
     7
370
    15
100
AcDbSpline
210
0.0
220
0.0
230
1.0
 70
     8
 71
     3
 72
     9
 73
     5
 74
     0
 42
0.00000001
 43
0.00000001
 12
1.0
 22
0.0
 32
0.0
 13
1.0
 23
0.0
 33
0.0
 40
0.0
 40
0.0
 40
0.0
 40
0.0
 40
0.2686341541478472
 40
1.0
 40
1.0
 40
1.0
 40
1.0
 10
108.9925528504404
 20
181.4933038757425
 30
0.0
 10
109.0414942894584
 20
181.4999288280501
 30
0.0
 10
109.2236805016819
 20
181.5245904438767
 30
0.0
 10
109.4010734508026
 20
181.7644595817833
 30
0.0
 10
109.5308125950846
 20
181.9398916767221
 30
0.0
  0
LINE
  5
24C
330
1F
100
AcDbEntity
  8
0
  6
Continuous
 62
     7
370
    15
100
AcDbLine
 10
109.5308125951
 20
186.2467146919
 30
0.0
 11
108.568108175
 21
186.4433206127
 31
0.0
  0
LINE
  5
24D
330
1F
100
AcDbEntity
  8
0
  6
Continuous
 62
     7
370
    15
100
AcDbLine
 10
109.5308125951
 20
181.9398916767
 30
0.0
 11
107.343798969
 21
181.4933038757
 31
0.0
  0
LINE
  5
24E
330
1F
100
AcDbEntity
  8
0
  6
Continuous
 62
     7
370
    15
100
AcDbLine
 10
100.1918674447
 20
180.7967341946
 30
0.0
 11
103.011942003
 21
181.2433219956
 31
0.0
  0
SPLINE
  5
24F
330
1F
100
AcDbEntity
  8
0
  6
Continuous
 62
     7
370
    15
100
AcDbSpline
210
0.0
220
0.0
230
1.0
 70
     8
 71
     3
 72
     9
 73
     5
 74
     0
 42
0.00000001
 43
0.00000001
 12
1.0
 22
0.0
 32
0.0
 13
1.0
 23
0.0
 33
0.0
 40
0.0
 40
0.0
 40
0.0
 40
0.0
 40
0.0702053421837776
 40
1.0
 40
1.0
 40
1.0
 40
1.0
 10
103.0119420029673
 20
181.2433219955545
 30
0.0
 10
103.0788001271887
 20
181.2428712013591
 30
0.0
 10
104.03112258787
 20
181.236450120264
 30
0.0
 10
104.9643430050701
 20
181.0085937916603
 30
0.0
 10
105.8320463635477
 20
180.7967341945749
 30
0.0
  0
LINE
  5
250
330
1F
100
AcDbEntity
  8
0
  6
Continuous
 62
     7
370
    15
100
AcDbLine
 10
105.8320463635
 20
180.7967341946
 30
0.0
 11
105.8320463635
 21
176.489881377
 31
0.0
  0
SPLINE
  5
251
330
1F
100
AcDbEntity
  8
0
  6
Continuous
 62
     7
370
    15
100
AcDbSpline
210
0.0
220
0.0
230
1.0
 70
     8
 71
     3
 72
     9
 73
     5
 74
     0
 42
0.00000001
 43
0.00000001
 12
1.0
 22
0.0
 32
0.0
 13
1.0
 23
0.0
 33
0.0
 40
0.0
 40
0.0
 40
0.0
 40
0.0
 40
0.0702053421837776
 40
1.0
 40
1.0
 40
1.0
 40
1.0
 10
103.0119420029673
 20
176.0432935760599
 30
0.0
 10
103.0788001271887
 20
176.0437443702554
 30
0.0
 10
104.03112258787
 20
176.0501654513509
 30
0.0
 10
104.9643430050701
 20
176.2780217799544
 30
0.0
 10
105.8320463635477
 20
176.4898813770395
 30
0.0
  0
LINE
  5
252
330
1F
100
AcDbEntity
  8
0
  6
Continuous
 62
     7
370
    15
100
AcDbLine
 10
100.1918674447
 20
176.489881377
 30
0.0
 11
103.011942003
 21
176.0432935761
 31
0.0
  0
LINE
  5
253
330
1F
100
AcDbEntity
  8
0
  6
Continuous
 62
     7
370
    15
100
AcDbLine
 10
100.1918674447
 20
180.7967341946
 30
0.0
 11
100.1918674447
 21
176.489881377
 31
0.0
  0
LINE
  5
254
330
1F
100
AcDbEntity
  8
0
  6
Continuous
 62
     7
370
    15
100
AcDbLine
 10
105.8320463635
 20
180.7967341946
 30
0.0
 11
107.7762306668
 21
181.2433219956
 31
0.0
  0
LINE
  5
255
330
1F
100
AcDbEntity
  8
0
  6
Continuous
 62
     7
370
    15
100
AcDbLine
 10
103.011942003
 20
181.2433219956
 30
0.0
 11
107.7762306668
 21
181.2433219956
 31
0.0
  0
LINE
  5
256
330
1F
100
AcDbEntity
  8
0
  6
Continuous
 62
     7
370
    15
100
AcDbLine
 10
105.8320463635
 20
176.489881377
 30
0.0
 11
107.7762306668
 21
176.0432935761
 31
0.0
  0
SPLINE
  5
257
330
1F
100
AcDbEntity
  8
0
  6
Continuous
 62
     7
370
    15
100
AcDbSpline
210
0.0
220
0.0
230
1.0
 70
     8
 71
     3
 72
     9
 73
     5
 74
     0
 42
0.00000001
 43
0.00000001
 12
1.0
 22
0.0
 32
0.0
 13
1.0
 23
0.0
 33
0.0
 40
0.0
 40
0.0
 40
0.0
 40
0.0
 40
0.2575503935143421
 40
1.0
 40
1.0
 40
1.0
 40
1.0
 10
100.1918674447092
 20
180.7967341945749
 30
0.0
 10
100.1183326429851
 20
180.8641421519813
 30
0.0
 10
99.83281647381659
 20
181.1258694065454
 30
0.0
 10
99.53618288138422
 20
181.193275998146
 30
0.0
 10
99.31594738741245
 20
181.2433219955545
 30
0.0
  0
LINE
  5
258
330
1F
100
AcDbEntity
  8
0
  6
Continuous
 62
     7
370
    15
100
AcDbLine
 10
99.3159473874
 20
181.2433219956
 30
0.0
 11
103.011942003
 21
181.2433219956
 31
0.0
  0
SPLINE
  5
259
330
1F
100
AcDbEntity
  8
0
  6
Continuous
 62
     7
370
    15
100
AcDbSpline
210
0.0
220
0.0
230
1.0
 70
     8
 71
     3
 72
     9
 73
     5
 74
     0
 42
0.00000001
 43
0.00000001
 12
1.0
 22
0.0
 32
0.0
 13
1.0
 23
0.0
 33
0.0
 40
0.0
 40
0.0
 40
0.0
 40
0.0
 40
0.2575503935143421
 40
1.0
 40
1.0
 40
1.0
 40
1.0
 10
100.1918674447092
 20
176.4898813770395
 30
0.0
 10
100.1183326429851
 20
176.4224734196331
 30
0.0
 10
99.83281647381659
 20
176.1607461650692
 30
0.0
 10
99.53618288138422
 20
176.0933395734683
 30
0.0
 10
99.31594738741245
 20
176.0432935760599
 30
0.0
  0
SPLINE
  5
25A
330
1F
100
AcDbEntity
  8
0
  6
Continuous
 62
     7
370
    15
100
AcDbSpline
210
0.0
220
0.0
230
1.0
 70
     8
 71
     3
 72
     9
 73
     5
 74
     0
 42
0.00000001
 43
0.00000001
 12
1.0
 22
0.0
 32
0.0
 13
1.0
 23
0.0
 33
0.0
 40
0.0
 40
0.0
 40
0.0
 40
0.0
 40
0.0702057388240702
 40
1.0
 40
1.0
 40
1.0
 40
1.0
 10
107.7762306668314
 20
181.2433219955545
 30
0.0
 10
107.8223268318254
 20
181.2428712057988
 30
0.0
 10
108.4789136830726
 20
181.2364502242191
 30
0.0
 10
109.1222471782639
 20
181.0085937949144
 30
0.0
 10
109.7204149701151
 20
180.7967341945749
 30
0.0
  0
LINE
  5
25B
330
1F
100
AcDbEntity
  8
0
  6
Continuous
 62
     7
370
    15
100
AcDbLine
 10
109.7204149701
 20
180.7967341946
 30
0.0
 11
109.7204149701
 21
180.4433084534
 31
0.0
  0
SPLINE
  5
25C
330
1F
100
AcDbEntity
  8
0
  6
Continuous
 62
     7
370
    15
100
AcDbSpline
210
0.0
220
0.0
230
1.0
 70
     8
 71
     3
 72
     9
 73
     5
 74
     0
 42
0.00000001
 43
0.00000001
 12
1.0
 22
0.0
 32
0.0
 13
1.0
 23
0.0
 33
0.0
 40
0.0
 40
0.0
 40
0.0
 40
0.0
 40
0.5278922499917329
 40
1.0
 40
1.0
 40
1.0
 40
1.0
 10
107.7762306668313
 20
176.0432935760599
 30
0.0
 10
107.8224689028155
 20
176.0413736969365
 30
0.0
 10
107.9100591941768
 20
176.0377368200482
 30
0.0
 10
107.9958856203324
 20
176.0635377050508
 30
0.0
 10
108.0364049412759
 20
176.0757185028177
 30
0.0
  0
LINE
  5
25D
330
1F
100
AcDbEntity
  8
0
  6
Continuous
 62
     7
370
    15
100
AcDbLine
 10
98.8439680078
 20
176.229379277
 30
0.0
 11
98.4400571324
 21
176.489881377
 31
0.0
  0
LINE
  5
25E
330
1F
100
AcDbEntity
  8
0
  6
Continuous
 62
     7
370
    15
100
AcDbLine
 10
98.4400571324
 20
180.7967341946
 30
0.0
 11
98.4400571324
 21
176.489881377
 31
0.0
  0
SPLINE
  5
25F
330
1F
100
AcDbEntity
  8
0
  6
Continuous
 62
     7
370
    15
100
AcDbSpline
210
0.0
220
0.0
230
1.0
 70
     8
 71
     3
 72
     9
 73
     5
 74
     0
 42
0.00000001
 43
0.00000001
 12
1.0
 22
0.0
 32
0.0
 13
1.0
 23
0.0
 33
0.0
 40
0.0
 40
0.0
 40
0.0
 40
0.0
 40
0.2686321504624317
 40
1.0
 40
1.0
 40
1.0
 40
1.0
 10
99.31594738741245
 20
181.2433219955545
 30
0.0
 10
99.236306662767
 20
181.2366851771628
 30
0.0
 10
98.93983907871817
 20
181.2119792051475
 30
0.0
 10
98.65117601591872
 20
180.9721428175864
 30
0.0
 10
98.44005713243808
 20
180.7967341945749
 30
0.0
  0
SPLINE
  5
260
330
1F
100
AcDbEntity
  8
0
  6
Continuous
 62
     7
370
    15
100
AcDbSpline
210
0.0
220
0.0
230
1.0
 70
     8
 71
     3
 72
     9
 73
     5
 74
     0
 42
0.00000001
 43
0.00000001
 12
1.0
 22
0.0
 32
0.0
 13
1.0
 23
0.0
 33
0.0
 40
0.0
 40
0.0
 40
0.0
 40
0.0
 40
0.5569250870212518
 40
0.9999999999999999
 40
0.9999999999999999
 40
0.9999999999999999
 40
0.9999999999999999
 10
109.7204149701151
 20
180.7967341945749
 30
0.0
 10
109.6471800033095
 20
180.8691373204321
 30
0.0
 10
109.5156812281379
 20
180.9991424639327
 30
0.0
 10
109.3790008793812
 20
181.0392755271422
 30
0.0
 10
109.3184412457499
 20
181.0570574806314
 30
0.0
  0
LINE
  5
261
330
1F
100
AcDbEntity
  8
0
  6
Continuous
 62
     7
370
    15
100
AcDbLine
 10
107.7762306668
 20
181.2433219956
 30
0.0
 11
109.0802312829
 21
181.2433219956
 31
0.0
  0
LINE
  5
262
330
1F
100
AcDbEntity
  8
0
  6
Continuous
 62
     7
370
    15
100
AcDbLine
 10
99.3159473874
 20
181.2433219956
 30
0.0
 11
99.0802408196
 21
181.2433219956
 31
0.0
  0
LINE
  5
263
330
1F
100
AcDbEntity
  8
0
  6
Continuous
 62
     7
370
    15
100
AcDbLine
 10
101.8294752576
 20
173.1967247532
 30
0.0
 11
104.6943725087
 21
173.6433125542
 31
0.0
  0
SPLINE
  5
264
330
1F
100
AcDbEntity
  8
0
  6
Continuous
 62
     7
370
    15
100
AcDbSpline
210
0.0
220
0.0
230
1.0
 70
     8
 71
     3
 72
     9
 73
     5
 74
     0
 42
0.00000001
 43
0.00000001
 12
1.0
 22
0.0
 32
0.0
 13
1.0
 23
0.0
 33
0.0
 40
0.0
 40
0.0
 40
0.0
 40
0.0
 40
0.0701972554296296
 40
0.9999999999999999
 40
0.9999999999999999
 40
0.9999999999999999
 40
0.9999999999999999
 10
104.6943725087198
 20
173.6433125541788
 30
0.0
 10
104.7622841164725
 20
173.6428616694721
 30
0.0
 10
105.7297237597602
 20
173.6364385592807
 30
0.0
 10
106.6777719503
 20
173.4085842838535
 30
0.0
 10
107.559269759849
 20
173.1967247531992
 30
0.0
  0
LINE
  5
265
330
1F
100
AcDbEntity
  8
0
  6
Continuous
 62
     7
370
    15
100
AcDbLine
 10
107.5592697598
 20
173.1967247532
 30
0.0
 11
107.5592697598
 21
168.8898719357
 31
0.0
  0
SPLINE
  5
266
330
1F
100
AcDbEntity
  8
0
  6
Continuous
 62
     7
370
    15
100
AcDbSpline
210
0.0
220
0.0
230
1.0
 70
     8
 71
     3
 72
     9
 73
     5
 74
     0
 42
0.00000001
 43
0.00000001
 12
1.0
 22
0.0
 32
0.0
 13
1.0
 23
0.0
 33
0.0
 40
0.0
 40
0.0
 40
0.0
 40
0.0
 40
0.0701973723640591
 40
1.0
 40
1.0
 40
1.0
 40
1.0
 10
104.6943725087198
 20
168.4433139370066
 30
0.0
 10
104.7622841123141
 20
168.4437648467286
 30
0.0
 10
105.7297220848089
 20
168.4501883025751
 30
0.0
 10
106.6777712007339
 20
168.6780269565348
 30
0.0
 10
107.559269759849
 20
168.8898719356638
 30
0.0
  0
LINE
  5
267
330
1F
100
AcDbEntity
  8
0
  6
Continuous
 62
     7
370
    15
100
AcDbLine
 10
101.8294752576
 20
168.8898719357
 30
0.0
 11
104.6943725087
 21
168.443313937
 31
0.0
  0
LINE
  5
268
330
1F
100
AcDbEntity
  8
0
  6
Continuous
 62
     7
370
    15
100
AcDbLine
 10
101.8294752576
 20
173.1967247532
 30
0.0
 11
101.8294752576
 21
168.8898719357
 31
0.0
  0
SPLINE
  5
269
330
1F
100
AcDbEntity
  8
0
  6
Continuous
 62
     7
370
    15
100
AcDbSpline
210
0.0
220
0.0
230
1.0
 70
     8
 71
     3
 72
     9
 73
     5
 74
     0
 42
0.00000001
 43
0.00000001
 12
1.0
 22
0.0
 32
0.0
 13
1.0
 23
0.0
 33
0.0
 40
0.0
 40
0.0
 40
0.0
 40
0.0
 40
0.51740792730802
 40
1.0
 40
1.0
 40
1.0
 40
1.0
 10
101.8294752575907
 20
173.1967247531992
 30
0.0
 10
101.6839267521666
 20
173.2684827274509
 30
0.0
 10
101.4026235526173
 20
173.4071701546521
 30
0.0
 10
101.1103430702889
 20
173.4490742227024
 30
0.0
 10
100.9692908265146
 20
173.4692967937571
 30
0.0
  0
SPLINE
  5
26A
330
1F
100
AcDbEntity
  8
0
  6
Continuous
 62
     7
370
    15
100
AcDbSpline
210
0.0
220
0.0
230
1.0
 70
     8
 71
     3
 72
     9
 73
     5
 74
     0
 42
0.00000001
 43
0.00000001
 12
1.0
 22
0.0
 32
0.0
 13
1.0
 23
0.0
 33
0.0
 40
0.0
 40
0.0
 40
0.0
 40
0.0
 40
0.2575554187673643
 40
1.0
 40
1.0
 40
1.0
 40
1.0
 10
101.8294752575907
 20
168.8898719356638
 30
0.0
 10
101.6834347950698
 20
168.8224518941193
 30
0.0
 10
101.1164094021667
 20
168.5606828276122
 30
0.0
 10
100.5273312135365
 20
168.4933240766541
 30
0.0
 10
100.0899733044656
 20
168.4433139370065
 30
0.0
  0
LINE
  5
26B
330
1F
100
AcDbEntity
  8
0
  6
Continuous
 62
     7
370
    15
100
AcDbLine
 10
104.6943725087
 20
168.443313937
 30
0.0
 11
100.0899733045
 21
168.443313937
 31
0.0
  0
LINE
  5
26C
330
1F
100
AcDbEntity
  8
0
  6
Continuous
 62
     7
370
    15
100
AcDbLine
 10
107.5592697598
 20
168.8898719357
 30
0.0
 11
108.6846352555
 21
168.443313937
 31
0.0
  0
LINE
  5
26D
330
1F
100
AcDbEntity
  8
0
  6
Continuous
 62
     7
370
    15
100
AcDbLine
 10
108.6846352555
 20
168.443313937
 30
0.0
 11
104.6943725087
 21
168.443313937
 31
0.0
  0
LINE
  5
26E
330
1F
100
AcDbEntity
  8
0
  6
Continuous
 62
     7
370
    15
100
AcDbLine
 10
107.5592697598
 20
173.1967247532
 30
0.0
 11
108.6846352555
 21
173.6433125542
 31
0.0
  0
SPLINE
  5
26F
330
1F
100
AcDbEntity
  8
0
  6
Continuous
 62
     7
370
    15
100
AcDbSpline
210
0.0
220
0.0
230
1.0
 70
     8
 71
     3
 72
     9
 73
     5
 74
     0
 42
0.00000001
 43
0.00000001
 12
1.0
 22
0.0
 32
0.0
 13
1.0
 23
0.0
 33
0.0
 40
0.0
 40
0.0
 40
0.0
 40
0.0
 40
0.2686363122564726
 40
1.0
 40
1.0
 40
1.0
 40
1.0
 10
100.0899733044657
 20
168.4433139370066
 30
0.0
 10
99.93179605675229
 20
168.4499392635605
 30
0.0
 10
99.34298047041268
 20
168.4746020744005
 30
0.0
 10
98.76971043568766
 20
168.7144533917194
 30
0.0
 10
98.35044154901829
 20
168.8898719356638
 30
0.0
  0
LINE
  5
270
330
1F
100
AcDbEntity
  8
0
  6
Continuous
 62
     7
370
    15
100
AcDbLine
 10
98.350441549
 20
169.2433274792
 30
0.0
 11
98.350441549
 21
168.8898719357
 31
0.0
  0
LINE
  5
271
330
1F
100
AcDbEntity
  8
0
  6
Continuous
 62
     7
370
    15
100
AcDbLine
 10
109.8100305535
 20
173.1967247532
 30
0.0
 11
109.8100305535
 21
168.8898719357
 31
0.0
  0
SPLINE
  5
272
330
1F
100
AcDbEntity
  8
0
  6
Continuous
 62
     7
370
    15
100
AcDbSpline
210
0.0
220
0.0
230
1.0
 70
     8
 71
     3
 72
     9
 73
     5
 74
     0
 42
0.00000001
 43
0.00000001
 12
1.0
 22
0.0
 32
0.0
 13
1.0
 23
0.0
 33
0.0
 40
0.0
 40
0.0
 40
0.0
 40
0.0
 40
0.0702041492627652
 40
0.9999999999999999
 40
0.9999999999999999
 40
0.9999999999999999
 40
0.9999999999999999
 10
108.6846352555307
 20
168.4433139370066
 30
0.0
 10
108.7113210669148
 20
168.4437647708838
 30
0.0
 10
109.0914383628923
 20
168.4501865263214
 30
0.0
 10
109.4638053106024
 20
168.6780269008224
 30
0.0
 10
109.8100305535349
 20
168.8898719356638
 30
0.0
  0
LINE
  5
273
330
1F
100
AcDbEntity
  8
0
  6
Continuous
 62
     7
370
    15
100
AcDbLine
 10
98.649209831
 20
168.7629736469
 30
0.0
 11
98.350441549
 21
168.8898719357
 31
0.0
  0
LINE
  5
274
330
1F
100
AcDbEntity
  8
0
  6
Continuous
 62
     7
370
    15
100
AcDbLine
 10
100.0899733045
 20
168.443313937
 30
0.0
 11
99.0802408196
 21
168.443313937
 31
0.0
  0
LINE
  5
275
330
1F
100
AcDbEntity
  8
0
  6
Continuous
 62
     7
370
    15
100
AcDbLine
 10
109.0802312829
 20
168.443313937
 30
0.0
 11
108.6846352555
 21
168.443313937
 31
0.0
  0
LINE
  5
276
330
1F
100
AcDbEntity
  8
0
  6
Continuous
 62
     8
370
    15
100
AcDbLine
 10
199.4802416303
 20
19.9432886646
 30
0.0
 11
142.4802304246
 21
19.9432886646
 31
0.0
  0
LINE
  5
277
330
1F
100
AcDbEntity
  8
0
  6
Continuous
 62
     8
370
    15
100
AcDbLine
 10
778.4802378156
 20
19.9432886646
 30
0.0
 11
721.4802266099
 21
19.9432886646
 31
0.0
  0
LINE
  5
278
330
1F
100
AcDbEntity
  8
0
  6
Continuous
 62
     8
370
    15
100
AcDbLine
 10
202.8802395799
 20
184.4433165596
 30
0.0
 11
139.080232475
 21
184.4433165596
 31
0.0
  0
LINE
  5
279
330
1F
100
AcDbEntity
  8
0
  6
Continuous
 62
     8
370
    15
100
AcDbLine
 10
202.8802395799
 20
97.9759014652
 30
0.0
 11
139.080232475
 21
97.9759014652
 31
0.0
  0
LINE
  5
27A
330
1F
100
AcDbEntity
  8
0
  6
Continuous
 62
     8
370
    15
100
AcDbLine
 10
202.8163135983
 20
97.2034252689
 30
0.0
 11
139.1441584565
 21
97.2034252689
 31
0.0
  0
LINE
  5
27B
330
1F
100
AcDbEntity
  8
0
  6
Continuous
 62
     8
370
    15
100
AcDbLine
 10
781.8802357652
 20
184.4433165596
 30
0.0
 11
718.0802286603
 21
184.4433165596
 31
0.0
  0
LINE
  5
27C
330
1F
100
AcDbEntity
  8
0
  6
Continuous
 62
     8
370
    15
100
AcDbLine
 10
781.8802357652
 20
97.9759014652
 30
0.0
 11
718.0802286603
 21
97.9759014652
 31
0.0
  0
LINE
  5
27D
330
1F
100
AcDbEntity
  8
0
  6
Continuous
 62
     8
370
    15
100
AcDbLine
 10
781.816339586
 20
97.2034252689
 30
0.0
 11
718.1441546418
 21
97.2034252689
 31
0.0
  0
LINE
  5
27E
330
1F
100
AcDbEntity
  8
0
  6
Continuous
 62
     8
370
    15
100
AcDbLine
 10
835.3802324273
 20
188.743314843
 30
0.0
 11
835.3802324273
 21
665.7433078134
 31
0.0
  0
LINE
  5
27F
330
1F
100
AcDbEntity
  8
0
  6
Continuous
 62
     8
370
    15
100
AcDbLine
 10
95.7802296617
 20
188.743314843
 30
0.0
 11
835.3802324273
 21
188.743314843
 31
0.0
  0
LINE
  5
280
330
1F
100
AcDbEntity
  8
0
  6
Continuous
 62
     8
370
    15
100
AcDbLine
 10
95.7802296617
 20
667.2433075936
 30
0.0
 11
95.7802296617
 21
188.743314843
 31
0.0
  0
LINE
  5
281
330
1F
100
AcDbEntity
  8
0
  6
Continuous
 62
     8
370
    15
100
AcDbLine
 10
835.3802324273
 20
665.7433078134
 30
0.0
 11
96.9802499749
 21
665.7433078134
 31
0.0
  0
LINE
  5
282
330
1F
100
AcDbEntity
  8
0
  6
Continuous
 62
     8
370
    15
100
AcDbLine
 10
56.6302300431
 20
641.8433069692
 30
0.0
 11
86.3302410581
 21
641.8433069692
 31
0.0
  0
LINE
  5
283
330
1F
100
AcDbEntity
  8
0
  6
Continuous
 62
     8
370
    15
100
AcDbLine
 10
99.4995296933
 20
935.2433002995
 30
0.0
 11
96.5645671823
 21
968.7900758789
 31
0.0
  0
LINE
  5
284
330
1F
100
AcDbEntity
  8
0
  6
Continuous
 62
     8
370
    15
100
AcDbLine
 10
41.652774904
 20
982.8890181587
 30
0.0
 11
37.4842942693
 21
935.2433002995
 31
0.0
  0
LINE
  5
285
330
1F
100
AcDbEntity
  8
0
  6
Continuous
 62
     8
370
    15
100
AcDbLine
 10
96.5645671823
 20
968.7900758789
 30
0.0
 11
41.652774904
 21
982.8890181587
 31
0.0
  0
ARC
  5
286
330
1F
100
AcDbEntity
  8
0
  6
Continuous
 62
     8
370
    15
100
AcDbCircle
 10
40.6565726735
 20
977.1254020481
 30
0.0
 40
5.84907595738034
100
AcDbArc
 50
80.1936980869
 51
99.8063019131
  0
ARC
  5
287
330
1F
100
AcDbEntity
  8
0
  6
Continuous
 62
     8
370
    15
100
AcDbCircle
 10
97.5607545116
 20
963.024497255
 30
0.0
 40
5.851007269178387
100
AcDbArc
 50
80.197115016
 51
99.802884984
  0
ARC
  5
288
330
1F
100
AcDbEntity
  8
0
  6
Continuous
 62
     8
370
    15
100
AcDbCircle
 10
61.5457257912
 20
978.2280668506
 30
0.0
 40
20.43169014299941
100
AcDbArc
 50
161.6751235066
 51
166.8133729103
  0
ARC
  5
289
330
1F
100
AcDbEntity
  8
0
  6
Continuous
 62
     8
370
    15
100
AcDbCircle
 10
116.4575180695
 20
964.1291245708
 30
0.0
 40
20.43169014299941
100
AcDbArc
 50
161.6751235066
 51
166.8133729103
  0
LINE
  5
28A
330
1F
100
AcDbEntity
  8
0
  6
Continuous
 62
     8
370
    15
100
AcDbLine
 10
841.7302430608
 20
663.8933076964
 30
0.0
 11
837.6802266576
 21
663.8933076964
 31
0.0
  0
LINE
  5
28B
330
1F
100
AcDbEntity
  8
0
  6
Continuous
 62
     8
370
    15
100
AcDbLine
 10
841.7302430608
 20
663.8933076964
 30
0.0
 11
841.7302430608
 21
659.3933078901
 31
0.0
  0
LINE
  5
28C
330
1F
100
AcDbEntity
  8
0
  6
Continuous
 62
     8
370
    15
100
AcDbLine
 10
837.6802266576
 20
659.3933078901
 30
0.0
 11
841.7302430608
 21
659.3933078901
 31
0.0
  0
LINE
  5
28D
330
1F
100
AcDbEntity
  8
0
  6
Continuous
 62
     8
370
    15
100
AcDbLine
 10
46.0903109052
 20
917.7433020876
 30
0.0
 11
101.740306709
 21
917.7433020876
 31
0.0
  0
LINE
  5
28E
330
1F
100
AcDbEntity
  8
0
  6
Continuous
 62
     8
370
    15
100
AcDbLine
 10
101.740306709
 20
930.9433020161
 30
0.0
 11
35.2419079282
 21
930.9433020161
 31
0.0
  0
LWPOLYLINE
  5
28F
330
1F
100
AcDbEntity
  8
0
  6
Continuous
 62
     8
370
    15
100
AcDbPolyline
 90
        9
 70
   128
 43
0.0
 10
907.7397645452
 20
867.2690160082
 10
907.9293967225
 20
866.8623484181
 10
908.1117273309
 20
866.4712972448
 10
908.2797826268
 20
866.1109275625
 10
908.4270657041
 20
865.7950378464
 10
908.5479439237
 20
865.5358023451
 10
908.6377681233
 20
865.3431750343
 10
908.6930812337
 20
865.2245617912
 10
908.7117672898
 20
865.18450747
  0
LINE
  5
290
330
1F
100
AcDbEntity
  8
0
  6
Continuous
 62
     8
370
    15
100
AcDbLine
 10
869.4009543397
 20
849.3913478659
 30
0.0
 11
907.7397645452
 21
867.2690160082
 31
0.0
  0
LWPOLYLINE
  5
291
330
1F
100
AcDbEntity
  8
0
  6
Continuous
 62
     8
370
    15
100
AcDbPolyline
 90
        9
 70
   128
 43
0.0
 10
929.258143995
 20
726.469489883
 10
929.2180896737
 20
726.4508112774
 10
929.0994466283
 20
726.3954981671
 10
928.9068342187
 20
726.3056739674
 10
928.6475838162
 20
726.1847920225
 10
928.3317090013
 20
726.0374940441
 10
927.9713393189
 20
725.8694461988
 10
927.5803030469
 20
725.6871006892
 10
927.1736205556
 20
725.4974685119
  0
LINE
  5
292
330
1F
100
AcDbEntity
  8
0
  6
Continuous
 62
     8
370
    15
100
AcDbLine
 10
927.1736205556
 20
725.4974685119
 30
0.0
 11
869.4009543397
 21
849.3913478659
 31
0.0
  0
LWPOLYLINE
  5
293
330
1F
100
AcDbEntity
  8
0
  6
Continuous
 62
     8
370
    15
100
AcDbPolyline
 90
        9
 70
   128
 43
0.0
 10
927.1736205556
 20
718.9891479419
 10
927.5803030469
 20
718.7995157645
 10
927.9713393189
 20
718.617170255
 10
928.3317090013
 20
718.4491186843
 10
928.6475838162
 20
718.3018244312
 10
928.9068342187
 20
718.1809387611
 10
929.0994466283
 20
718.0911145614
 10
929.2180896737
 20
718.035801451
 10
929.258143995
 20
718.0171265708
  0
ARC
  5
294
330
1F
100
AcDbEntity
  8
0
  6
Continuous
 62
     8
370
    15
100
AcDbCircle
 10
920.1950560036
 20
722.2433075909
 30
0.0
 40
7.699999999999647
100
AcDbArc
 50
335.0
 51
25.0
  0
LINE
  5
295
330
1F
100
AcDbEntity
  8
0
  6
Continuous
 62
     8
370
    15
100
AcDbLine
 10
918.9391196706
 20
915.2433044718
 30
0.0
 11
918.9391196706
 21
912.9433102415
 31
0.0
  0
LINE
  5
296
330
1F
100
AcDbEntity
  8
0
  6
Continuous
 62
     8
370
    15
100
AcDbLine
 10
918.9391196706
 20
912.9433102415
 30
0.0
 11
33.291912172
 21
912.9433102415
 31
0.0
  0
LINE
  5
297
330
1F
100
AcDbEntity
  8
0
  6
Continuous
 62
     8
370
    15
100
AcDbLine
 10
33.291912172
 20
912.9433102415
 30
0.0
 11
33.291912172
 21
670.3433076826
 31
0.0
  0
LINE
  5
298
330
1F
100
AcDbEntity
  8
0
  6
Continuous
 62
     8
370
    15
100
AcDbLine
 10
33.291912172
 20
670.3433076826
 30
0.0
 11
899.5842696168
 21
670.3433076826
 31
0.0
  0
ARC
  5
299
330
1F
100
AcDbEntity
  8
0
  6
Continuous
 62
     8
370
    15
100
AcDbCircle
 10
918.939134186
 20
905.2433075909
 30
0.0
 40
7.699999999999704
100
AcDbArc
 50
335.0
 51
90.0
  0
LINE
  5
29A
330
1F
100
AcDbEntity
  8
0
  6
Continuous
 62
     8
370
    15
100
AcDbLine
 10
911.4641607739
 20
870.9934271381
 30
0.0
 11
925.9176910855
 21
901.9891537235
 31
0.0
  0
ARC
  5
29B
330
1F
100
AcDbEntity
  8
0
  6
Continuous
 62
     8
370
    15
100
AcDbCircle
 10
904.4855896344
 20
874.2475812743
 30
0.0
 40
7.700000000000203
100
AcDbArc
 50
295.0
 51
335.0
  0
LINE
  5
29C
330
1F
100
AcDbEntity
  8
0
  6
Continuous
 62
     8
370
    15
100
AcDbLine
 10
906.5628410317
 20
674.7891470067
 30
0.0
 11
927.1736205556
 21
718.9891479419
 31
0.0
  0
ARC
  5
29D
330
1F
100
AcDbEntity
  8
0
  6
Continuous
 62
     8
370
    15
100
AcDbCircle
 10
899.5842575132
 20
678.0433075909
 30
0.0
 40
7.699999999999853
100
AcDbArc
 50
270.0
 51
335.0
  0
LINE
  5
29E
330
1F
100
AcDbEntity
  8
0
  6
Continuous
 62
     8
370
    15
100
AcDbLine
 10
899.5842696168
 20
670.3433076826
 30
0.0
 11
899.5842696168
 21
668.0433076316
 31
0.0
  0
LWPOLYLINE
  5
29F
330
1F
100
AcDbEntity
  8
0
  6
Continuous
 62
     8
370
    15
100
AcDbPolyline
 90
        9
 70
   128
 43
0.0
 10
908.6473346688
 20
673.8171249952
 10
908.6072803475
 20
673.8358020874
 10
908.4886671044
 20
673.8911157216
 10
908.2960248925
 20
673.9809402123
 10
908.0368042924
 20
674.1018236124
 10
907.7209294774
 20
674.2491205431
 10
907.3605299928
 20
674.4171702511
 10
906.9694937207
 20
674.5995149457
 10
906.5628410317
 20
674.7891470067
  0
CIRCLE
  5
2A0
330
1F
100
AcDbEntity
  8
0
  6
Continuous
 62
     8
370
    15
100
AcDbCircle
 10
878.539134186
 20
895.2433075909
 30
0.0
 40
4.699999999999932
  0
LWPOLYLINE
  5
2A1
330
1F
100
AcDbEntity
  8
0
  6
Continuous
 62
     8
370
    15
100
AcDbPolyline
 90
        9
 70
   128
 43
0.0
 10
925.9176910855
 20
901.9891537235
 10
926.3243735768
 20
901.7995215462
 10
926.7154098489
 20
901.6171760367
 10
927.0758093335
 20
901.4491207407
 10
927.3916841485
 20
901.3018227623
 10
927.6509047486
 20
901.1809445427
 10
927.8435469605
 20
901.091120343
 10
927.9621602037
 20
901.0358072327
 10
928.0022145249
 20
901.0171211765
  0
CIRCLE
  5
2A2
330
1F
100
AcDbEntity
  8
0
  6
Continuous
 62
     8
370
    15
100
AcDbCircle
 10
108.539134186
 20
895.2433075909
 30
0.0
 40
4.699999999999932
  0
LWPOLYLINE
  5
2A3
330
1F
100
AcDbEntity
  8
0
  6
Continuous
 62
     8
370
    15
100
AcDbPolyline
 90
        9
 70
   128
 43
0.0
 10
913.548654411
 20
870.0213945912
 10
913.5086000897
 20
870.0400806473
 10
913.3899868466
 20
870.0953937576
 10
913.197374437
 20
870.1852179573
 10
912.9381240346
 20
870.3060961769
 10
912.6222492196
 20
870.4533941553
 10
912.2618795373
 20
870.6214494513
 10
911.8708134629
 20
870.8037949608
 10
911.4641607739
 20
870.9934271381
  0
CIRCLE
  5
2A4
330
1F
100
AcDbEntity
  8
0
  6
Continuous
 62
     8
370
    15
100
AcDbCircle
 10
498.539134186
 20
895.2433075909
 30
0.0
 40
4.699999999999932
  0
LINE
  5
2A5
330
1F
100
AcDbEntity
  8
0
  6
Continuous
 62
     8
370
    15
100
AcDbLine
 10
43.9918995835
 20
915.2433044718
 30
0.0
 11
43.9918995835
 21
917.2433085249
 31
0.0
  0
LINE
  5
2A6
330
1F
100
AcDbEntity
  8
0
  6
Continuous
 62
     8
370
    15
100
AcDbLine
 10
35.2419079282
 20
917.2433085249
 30
0.0
 11
35.2419079282
 21
915.2433044718
 31
0.0
  0
LINE
  5
2A7
330
1F
100
AcDbEntity
  8
0
  6
Continuous
 62
     8
370
    15
100
AcDbLine
 10
35.2419079282
 20
933.2432962463
 30
0.0
 11
35.2419079282
 21
935.2433002995
 31
0.0
  0
LINE
  5
2A8
330
1F
100
AcDbEntity
  8
0
  6
Continuous
 62
     8
370
    15
100
AcDbLine
 10
101.7419160344
 20
933.2432962463
 30
0.0
 11
101.7419160344
 21
935.2433002995
 31
0.0
  0
LINE
  5
2A9
330
1F
100
AcDbEntity
  8
0
  6
Continuous
 62
     8
370
    15
100
AcDbLine
 10
103.9919019677
 20
930.993310313
 30
0.0
 11
105.9919060208
 21
930.993310313
 31
0.0
  0
LINE
  5
2AA
330
1F
100
AcDbEntity
  8
0
  6
Continuous
 62
     8
370
    15
100
AcDbLine
 10
32.9919219949
 20
919.4933093594
 30
0.0
 11
30.9919179418
 21
919.4933093594
 31
0.0
  0
LINE
  5
2AB
330
1F
100
AcDbEntity
  8
0
  6
Continuous
 62
     8
370
    15
100
AcDbLine
 10
32.9919219949
 20
930.993310313
 30
0.0
 11
30.9919179418
 21
930.993310313
 31
0.0
  0
LINE
  5
2AC
330
1F
100
AcDbEntity
  8
0
  6
Continuous
 62
     8
370
    15
100
AcDbLine
 10
105.9919060208
 20
919.4933093594
 30
0.0
 11
103.9919019677
 21
919.4933093594
 31
0.0
  0
LINE
  5
2AD
330
1F
100
AcDbEntity
  8
0
  6
Continuous
 62
     8
370
    15
100
AcDbLine
 10
108.2419217565
 20
917.2433085249
 30
0.0
 11
108.2419217565
 21
915.2433044718
 31
0.0
  0
LINE
  5
2AE
330
1F
100
AcDbEntity
  8
0
  6
Continuous
 62
     8
370
    15
100
AcDbLine
 10
918.9950586297
 20
915.2433044718
 30
0.0
 11
918.9950586297
 21
917.2433085249
 31
0.0
  0
LINE
  5
2AF
330
1F
100
AcDbEntity
  8
0
  6
Continuous
 62
     8
370
    15
100
AcDbLine
 10
928.0581236817
 20
901.0171211765
 30
0.0
 11
929.870760534
 21
900.1718826101
 31
0.0
  0
LINE
  5
2B0
330
1F
100
AcDbEntity
  8
0
  6
Continuous
 62
     8
370
    15
100
AcDbLine
 10
913.6200309732
 20
870.0545347736
 30
0.0
 11
915.4326678254
 21
869.2092962072
 31
0.0
  0
LINE
  5
2B1
330
1F
100
AcDbEntity
  8
0
  6
Continuous
 62
     8
370
    15
100
AcDbLine
 10
892.0819819905
 20
855.2230067061
 30
0.0
 11
891.2367583253
 21
857.035613756
 31
0.0
  0
LINE
  5
2B2
330
1F
100
AcDbEntity
  8
0
  6
Continuous
 62
     8
370
    15
100
AcDbLine
 10
908.783143852
 20
865.2176327513
 30
0.0
 11
909.6283675172
 21
863.4050257013
 31
0.0
  0
LINE
  5
2B3
330
1F
100
AcDbEntity
  8
0
  6
Continuous
 62
     8
370
    15
100
AcDbLine
 10
930.0090433099
 20
717.6790303991
 30
0.0
 11
929.2839826085
 21
718.0171265708
 31
0.0
  0
LINE
  5
2B4
330
1F
100
AcDbEntity
  8
0
  6
Continuous
 62
     8
370
    15
100
AcDbLine
 10
908.6732030847
 20
673.8171249952
 30
0.0
 11
909.3982339837
 21
673.4790303661
 31
0.0
  0
LINE
  5
2B5
330
1F
100
AcDbEntity
  8
0
  6
Continuous
 62
     8
370
    15
100
AcDbLine
 10
840.980833862
 20
668.0433076316
 30
0.0
 11
840.980833862
 21
667.2433075936
 31
0.0
  0
LINE
  5
2B6
330
1F
100
AcDbEntity
  8
0
  6
Continuous
 62
     8
370
    15
100
AcDbLine
 10
887.3497606256
 20
854.2569346235
 30
0.0
 11
887.0116830804
 21
854.9819804237
 31
0.0
  0
LINE
  5
2B7
330
1F
100
AcDbEntity
  8
0
  6
Continuous
 62
     8
370
    15
100
AcDbLine
 10
929.2839826085
 20
726.469489883
 30
0.0
 11
930.0090433099
 21
726.8075860546
 31
0.0
  0
LINE
  5
2B8
330
1F
100
AcDbEntity
  8
0
  6
Continuous
 62
     8
370
    15
100
AcDbLine
 10
874.1021812894
 20
846.7002577589
 30
0.0
 11
873.377120588
 21
846.3621653126
 31
0.0
  0
LINE
  5
2B9
330
1F
100
AcDbEntity
  8
0
  6
Continuous
 62
     8
370
    15
100
AcDbLine
 10
874.3686736562
 20
849.0864552067
 30
0.0
 11
874.7067810037
 21
848.3614094065
 31
0.0
  0
LINE
  5
2BA
330
1F
100
AcDbEntity
  8
0
  6
Continuous
 62
     8
370
    15
100
AcDbLine
 10
899.6101082303
 20
667.2433075936
 30
0.0
 11
899.6101082303
 21
668.0433076316
 31
0.0
  0
SPLINE
  5
2BB
330
1F
100
AcDbEntity
  8
0
  6
Continuous
 62
     8
370
    15
100
AcDbSpline
210
0.0
220
0.0
230
1.0
 70
     8
 71
     3
 72
     9
 73
     5
 74
     0
 42
0.00000001
 43
0.00000001
 12
1.0
 22
0.0
 32
0.0
 13
1.0
 23
0.0
 33
0.0
 40
0.0
 40
0.0
 40
0.0
 40
0.0
 40
0.520971114850104
 40
1.0
 40
1.0
 40
1.0
 40
1.0
 10
905.5314124562296
 20
813.3056230352503
 30
0.0
 10
905.4538537084297
 20
813.5384142635579
 30
0.0
 10
905.3049802957034
 20
813.9852552143744
 30
0.0
 10
905.5276128476381
 20
814.3822959680409
 30
0.0
 10
905.6342602707896
 20
814.5724899576288
 30
0.0
  0
LWPOLYLINE
  5
2BC
330
1F
100
AcDbEntity
  8
0
  6
Continuous
 62
     8
370
    15
100
AcDbPolyline
 90
       17
 70
   128
 43
0.0
 10
924.6296049096
 20
772.3494462178
 10
923.7213195302
 20
774.297273855
 10
922.702765558
 20
776.4815233157
 10
921.5869964101
 20
778.8743219779
 10
920.388197992
 20
781.4451373623
 10
919.1216886975
 20
784.1611869143
 10
917.8036213853
 20
786.9877956317
 10
916.4508045651
 20
789.8889176057
 10
915.0804937818
 20
792.8275309013
 10
913.7102128007
 20
795.7661441968
 10
912.3573959806
 20
798.6672587202
 10
911.0393286683
 20
801.4938748882
 10
909.7728193738
 20
804.2099244402
 10
908.5740209558
 20
806.7807472752
 10
907.4582518079
 20
809.1735459374
 10
906.4396978356
 20
811.3577879475
 10
905.5314124562
 20
813.3056230353
  0
SPLINE
  5
2BD
330
1F
100
AcDbEntity
  8
0
  6
Continuous
 62
     8
370
    15
100
AcDbSpline
210
0.0
220
0.0
230
1.0
 70
     8
 71
     3
 72
     9
 73
     5
 74
     0
 42
0.00000001
 43
0.00000001
 12
1.0
 22
0.0
 32
0.0
 13
1.0
 23
0.0
 33
0.0
 40
0.0
 40
0.0
 40
0.0
 40
0.0
 40
0.479027921812003
 40
1.0
 40
1.0
 40
1.0
 40
1.0
 10
925.6661892869029
 20
771.613902549563
 30
0.0
 10
925.4519409056019
 20
771.6544580189612
 30
0.0
 10
925.0046843438329
 20
771.73912003458
 30
0.0
 10
924.7580792683038
 20
772.1403937936487
 30
0.0
 10
924.629604909614
 20
772.3494462178331
 30
0.0
  0
ARC
  5
2BE
330
1F
100
AcDbEntity
  8
0
  6
Continuous
 62
     8
370
    15
100
AcDbCircle
 10
924.1282247112
 20
772.9911200081
 30
0.0
 40
0.8143263205813038
100
AcDbArc
 50
308.0027549778
 51
20.5080457003
  0
ARC
  5
2BF
330
1F
100
AcDbEntity
  8
0
  6
Continuous
 62
     8
370
    15
100
AcDbCircle
 10
905.7006740385
 20
812.5090469882
 30
0.0
 40
0.8143604128464246
100
AcDbArc
 50
29.4927379913
 51
101.9961541388
  0
LINE
  5
2C0
330
1F
100
AcDbEntity
  8
0
  6
Continuous
 62
     8
370
    15
100
AcDbLine
 10
905.130839441
 20
805.6147463129
 30
0.0
 11
905.1295281388
 21
805.6087858484
 31
0.0
  0
SPLINE
  5
2C1
330
1F
100
AcDbEntity
  8
0
  6
Continuous
 62
     8
370
    15
100
AcDbSpline
210
0.0
220
0.0
230
1.0
 70
     8
 71
     3
 72
     9
 73
     5
 74
     0
 42
0.00000001
 43
0.00000001
 12
1.0
 22
0.0
 32
0.0
 13
1.0
 23
0.0
 33
0.0
 40
0.0
 40
0.0
 40
0.0
 40
0.0
 40
0.4684361467018502
 40
0.9999999999999999
 40
0.9999999999999999
 40
0.9999999999999999
 40
0.9999999999999999
 10
906.4638973214182
 20
813.8740129278284
 30
0.0
 10
906.3866947415764
 20
813.7398032935373
 30
0.0
 10
906.22188555598
 20
813.4532975760859
 30
0.0
 10
906.3443894441964
 20
813.0985424206383
 30
0.0
 10
906.4095080830607
 20
812.9099674032312
 30
0.0
  0
SPLINE
  5
2C2
330
1F
100
AcDbEntity
  8
0
  6
Continuous
 62
     8
370
    15
100
AcDbSpline
210
0.0
220
0.0
230
1.0
 70
     8
 71
     3
 72
     9
 73
     5
 74
     0
 42
0.00000001
 43
0.00000001
 12
1.0
 22
0.0
 32
0.0
 13
1.0
 23
0.0
 33
0.0
 40
0.0
 40
0.0
 40
0.0
 40
0.0
 40
0.5315586831769896
 40
1.0
 40
1.0
 40
1.0
 40
1.0
 10
924.8909414746317
 20
773.2764102027994
 30
0.0
 10
924.9935376656331
 20
773.1053216497354
 30
0.0
 10
925.1865477588709
 20
772.783459626823
 30
0.0
 10
925.5119631385761
 20
772.7255305385044
 30
0.0
 10
925.6644011475596
 20
772.6983941600901
 30
0.0
  0
SPLINE
  5
2C3
330
1F
100
AcDbEntity
  8
0
  6
Continuous
 62
     8
370
    15
100
AcDbSpline
210
0.0
220
0.0
230
1.0
 70
     8
 71
     3
 72
    11
 73
     7
 74
     0
 42
0.00000001
 43
0.00000001
 12
1.0
 22
0.0
 32
0.0
 13
1.0
 23
0.0
 33
0.0
 40
0.0
 40
0.0
 40
0.0
 40
0.0
 40
0.3658242078336019
 40
0.7252613625019361
 40
0.982070032798673
 40
1.0
 40
1.0
 40
1.0
 40
1.0
 10
908.9571000077281
 20
814.4213474796396
 30
0.0
 10
908.5768336246339
 20
814.4298060313107
 30
0.0
 10
907.8229400626145
 20
814.4465754538319
 30
0.0
 10
906.9664027732929
 20
814.2484178673741
 30
0.0
 10
906.5851326296555
 20
814.0094723058913
 30
0.0
 10
906.4713246472927
 20
813.8823116731219
 30
0.0
 10
906.4638973214182
 20
813.8740129278284
 30
0.0
  0
LWPOLYLINE
  5
2C4
330
1F
100
AcDbEntity
  8
0
  6
Continuous
 62
     8
370
    15
100
AcDbPolyline
 90
       10
 70
   128
 43
0.0
 10
908.9571000077
 20
814.4213474796
 10
910.9716177918
 20
810.1012028263
 10
913.0358458497
 20
805.6744552658
 10
915.1358068921
 20
801.171041231
 10
917.2573448159
 20
796.621441047
 10
919.3860352971
 20
792.0564032601
 10
921.5075732209
 20
787.5067956255
 10
923.6075342633
 20
783.0033890412
 10
925.6717623212
 20
778.5766414807
 10
927.6862801053
 20
774.2564893768
  0
SPLINE
  5
2C5
330
1F
100
AcDbEntity
  8
0
  6
Continuous
 62
     8
370
    15
100
AcDbSpline
210
0.0
220
0.0
230
1.0
 70
     8
 71
     3
 72
    11
 73
     7
 74
     0
 42
0.00000001
 43
0.00000001
 12
1.0
 22
0.0
 32
0.0
 13
1.0
 23
0.0
 33
0.0
 40
0.0
 40
0.0
 40
0.0
 40
0.0
 40
0.2357918854304545
 40
0.2749046899389047
 40
0.6342525910832368
 40
1.0
 40
1.0
 40
1.0
 40
1.0
 10
925.6644011475596
 20
772.6983941600901
 30
0.0
 10
925.8166645665451
 20
772.7215782507153
 30
0.0
 10
925.9941852132328
 20
772.748608083541
 30
0.0
 10
926.4283050493724
 20
772.960997591595
 30
0.0
 10
926.9772346512233
 20
773.3710025092677
 30
0.0
 10
927.4485450651193
 20
773.9595954967149
 30
0.0
 10
927.686280105308
 20
774.2564893768412
 30
0.0
  0
LWPOLYLINE
  5
2C6
330
1F
100
AcDbEntity
  8
0
  6
Continuous
 62
     8
370
    15
100
AcDbPolyline
 90
        9
 70
   128
 43
0.0
 10
926.3445795514
 20
816.0879082487
 10
926.0512948968
 20
816.7168266581
 10
925.7887960412
 20
817.2797776268
 10
925.5581856706
 20
817.774362068
 10
925.3604174592
 20
818.1984342144
 10
925.1963854768
 20
818.5502059267
 10
925.0667751767
 20
818.8281572865
 10
924.9721528031
 20
819.0311111019
 10
924.9128759839
 20
819.1581882046
  0
LINE
  5
2C7
330
1F
100
AcDbEntity
  8
0
  6
Continuous
 62
     8
370
    15
100
AcDbLine
 10
908.827608917
 20
815.6287587689
 30
0.0
 11
926.3445795514
 21
816.0879082487
 31
0.0
  0
SPLINE
  5
2C8
330
1F
100
AcDbEntity
  8
0
  6
Continuous
 62
     8
370
    15
100
AcDbSpline
210
0.0
220
0.0
230
1.0
 70
     8
 71
     3
 72
    10
 73
     6
 74
     0
 42
0.00000001
 43
0.00000001
 12
1.0
 22
0.0
 32
0.0
 13
1.0
 23
0.0
 33
0.0
 40
0.0
 40
0.0
 40
0.0
 40
0.0
 40
0.2857664552463892
 40
0.6445551411218121
 40
1.0
 40
1.0
 40
1.0
 40
1.0
 10
905.6578339077982
 20
814.5528502271753
 30
0.0
 10
905.8373314598242
 20
814.7248795518575
 30
0.0
 10
906.2421937795717
 20
815.112897052204
 30
0.0
 10
907.3751617337625
 20
815.5001181264201
 30
0.0
 10
908.3449733114251
 20
815.5860125987526
 30
0.0
 10
908.8276089169535
 20
815.6287587688547
 30
0.0
  0
ARC
  5
2C9
330
1F
100
AcDbEntity
  8
0
  6
Continuous
 62
     8
370
    15
100
AcDbCircle
 10
904.7687792191
 20
814.5828125548
 30
0.0
 40
4.191431974763334
100
AcDbArc
 50
357.7922683543
 51
14.4505232351
  0
LINE
  5
2CA
330
1F
100
AcDbEntity
  8
0
  6
Continuous
 62
     8
370
    15
100
AcDbLine
 10
940.1393891313
 20
786.5048266457
 30
0.0
 11
928.5279870965
 21
773.3811877177
 31
0.0
  0
LWPOLYLINE
  5
2CB
330
1F
100
AcDbEntity
  8
0
  6
Continuous
 62
     8
370
    15
100
AcDbPolyline
 90
        6
 70
   128
 43
0.0
 10
941.5951729753
 20
783.3828918145
 10
941.5766657331
 20
783.4225959585
 10
941.4290548303
 20
783.7391562269
 10
941.1364258267
 20
784.3666813777
 10
940.7039941289
 20
785.294047694
 10
940.1393891313
 20
786.5048266457
  0
SPLINE
  5
2CC
330
1F
100
AcDbEntity
  8
0
  6
Continuous
 62
     8
370
    15
100
AcDbSpline
210
0.0
220
0.0
230
1.0
 70
     8
 71
     3
 72
    10
 73
     6
 74
     0
 42
0.00000001
 43
0.00000001
 12
1.0
 22
0.0
 32
0.0
 13
1.0
 23
0.0
 33
0.0
 40
0.0
 40
0.0
 40
0.0
 40
0.0
 40
0.3554471895768261
 40
0.7142303499590145
 40
1.0
 40
1.0
 40
1.0
 40
1.0
 10
928.5279870965037
 20
773.381187717734
 30
0.0
 10
928.1849976344159
 20
773.038947610488
 30
0.0
 10
927.4957996586745
 20
772.3512553773342
 30
0.0
 10
926.4709459875735
 20
771.7322320747006
 30
0.0
 10
925.9134505086903
 20
771.671501960691
 30
0.0
 10
925.66627869387
 20
771.6445765898806
 30
0.0
  0
ARC
  5
2CD
330
1F
100
AcDbEntity
  8
0
  6
Continuous
 62
     8
370
    15
100
AcDbCircle
 10
925.1172702201
 20
770.9437281392
 30
0.0
 40
4.19215920591468
100
AcDbArc
 50
35.5513933677
 51
52.2068158068
  0
LINE
  5
2CE
330
1F
100
AcDbEntity
  8
0
  6
Continuous
 62
     8
370
    15
100
AcDbLine
 10
926.4119029977
 20
815.0138176487
 30
0.0
 11
908.9571000077
 21
814.4213474796
 31
0.0
  0
ARC
  5
2CF
330
1F
100
AcDbEntity
  8
0
  6
Continuous
 62
     8
370
    15
100
AcDbCircle
 10
920.76531152
 20
815.1990473991
 30
0.0
 40
5.649628782180955
100
AcDbArc
 50
358.1211535084
 51
9.0520025154
  0
LINE
  5
2D0
330
1F
100
AcDbEntity
  8
0
  6
Continuous
 62
     8
370
    15
100
AcDbLine
 10
927.6862801053
 20
774.2564893768
 30
0.0
 11
939.3598795869
 21
787.2468150662
 31
0.0
  0
ARC
  5
2D1
330
1F
100
AcDbEntity
  8
0
  6
Continuous
 62
     8
370
    15
100
AcDbCircle
 10
935.8700047375
 20
782.8000047985
 30
0.0
 40
5.6527292541604
100
AcDbArc
 50
40.9502969588
 51
51.8750323561
  0
LWPOLYLINE
  5
2D2
330
1F
100
AcDbEntity
  8
0
  6
Continuous
 62
     8
370
    15
100
AcDbPolyline
 90
        9
 70
   128
 43
0.0
 10
939.3598795869
 20
787.2468150662
 10
937.7639056184
 20
790.6693584726
 10
936.1486495473
 20
794.1332749532
 10
934.5205188729
 20
797.6248628901
 10
932.8858912923
 20
801.1303163574
 10
931.2512637116
 20
804.6357698248
 10
929.623103235
 20
808.1273652123
 10
928.0078471639
 20
811.5912742422
 10
926.4119029977
 20
815.0138176487
  0
ARC
  5
2D3
330
1F
100
AcDbEntity
  8
0
  6
Continuous
 62
     8
370
    15
100
AcDbCircle
 10
926.1234506665
 20
816.1688618084
 30
0.0
 40
1.190517433026161
100
AcDbArc
 50
284.0218299074
 51
334.4107150594
  0
ARC
  5
2D4
330
1F
100
AcDbEntity
  8
0
  6
Continuous
 62
     8
370
    15
100
AcDbCircle
 10
926.460381909
 20
815.2602259377
 30
0.0
 40
0.8357440960017121
100
AcDbArc
 50
28.1610761033
 51
97.9646428273
  0
ARC
  5
2D5
330
1F
100
AcDbEntity
  8
0
  6
Continuous
 62
     8
370
    15
100
AcDbCircle
 10
940.0592749217
 20
786.2834159963
 30
0.0
 40
1.190500567912639
100
AcDbArc
 50
75.5898135223
 51
125.9783881799
  0
ARC
  5
2D6
330
1F
100
AcDbEntity
  8
0
  6
Continuous
 62
     8
370
    15
100
AcDbCircle
 10
939.579825415
 20
787.1255493472
 30
0.0
 40
0.835708217496612
100
AcDbArc
 50
312.0337534172
 51
21.8411825653
  0
LINE
  5
2D7
330
1F
100
AcDbEntity
  8
0
  6
Continuous
 62
     8
370
    15
100
AcDbLine
 10
893.163329456
 20
813.1697542475
 30
0.0
 11
890.3020084836
 21
811.9596011446
 31
0.0
  0
LWPOLYLINE
  5
2D8
330
1F
100
AcDbEntity
  8
0
  6
Continuous
 62
     8
370
    15
100
AcDbPolyline
 90
       22
 70
   128
 43
0.0
 10
916.5754676797
 20
762.9622660087
 10
915.970271919
 20
764.2600751923
 10
915.2226806619
 20
765.8632836745
 10
914.3422902562
 20
767.7513204024
 10
913.3403659799
 20
769.8999635385
 10
912.2297526338
 20
772.281653385
 10
911.0247255303
 20
774.865835111
 10
909.7407520749
 20
777.6193536327
 10
908.3942831494
 20
780.5068857477
 10
907.0025742986
 20
783.4913946198
 10
905.5835069158
 20
786.5345917152
 10
904.15529022
 20
789.597428541
 10
902.7362228372
 20
792.6406256364
 10
901.3445139863
 20
795.6251345084
 10
899.9980450608
 20
798.5126591728
 10
898.7140418031
 20
801.2661851452
 10
897.5090146997
 20
803.8503594206
 10
896.3984311559
 20
806.2320567177
 10
895.3965068795
 20
808.3806998537
 10
894.5160866715
 20
810.2687365816
 10
893.7684954145
 20
811.8719376133
 10
893.163329456
 20
813.1697542475
  0
LINE
  5
2D9
330
1F
100
AcDbEntity
  8
0
  6
Continuous
 62
     8
370
    15
100
AcDbLine
 10
913.8092161157
 20
761.5482352183
 30
0.0
 11
916.5754676797
 21
762.9622660087
 31
0.0
  0
ARC
  5
2DA
330
1F
100
AcDbEntity
  8
0
  6
Continuous
 62
     8
370
    15
100
AcDbCircle
 10
915.7382324911
 20
764.6939907569
 30
0.0
 40
1.923495090853953
100
AcDbArc
 50
295.8023261042
 51
22.9387507167
  0
ARC
  5
2DB
330
1F
100
AcDbEntity
  8
0
  6
Continuous
 62
     8
370
    15
100
AcDbCircle
 10
893.9517294476
 20
811.4151961546
 30
0.0
 40
1.923551051601244
100
AcDbArc
 50
27.0627745989
 51
114.1964767205
  0
SPLINE
  5
2DC
330
1F
100
AcDbEntity
  8
0
  6
Continuous
 62
     8
370
    15
100
AcDbSpline
210
0.0
220
0.0
230
1.0
 70
     8
 71
     3
 72
    11
 73
     7
 74
     0
 42
0.00000001
 43
0.00000001
 12
1.0
 22
0.0
 32
0.0
 13
1.0
 23
0.0
 33
0.0
 40
0.0
 40
0.0
 40
0.0
 40
0.0
 40
0.2835222542872516
 40
0.5667780085715564
 40
0.8499263154930847
 40
0.9999999999999999
 40
0.9999999999999999
 40
0.9999999999999999
 40
0.9999999999999999
 10
916.5754676796946
 20
762.9622660086733
 30
0.0
 10
916.625450182807
 20
762.8711451879508
 30
0.0
 10
916.725368207403
 20
762.6889891965689
 30
0.0
 10
916.9571059980995
 20
762.1992450507959
 30
0.0
 10
917.1778363760515
 20
761.7058743900789
 30
0.0
 10
917.3124338437148
 20
761.3909544048291
 30
0.0
 10
917.3590601422343
 20
761.2818620608431
 30
0.0
  0
LWPOLYLINE
  5
2DD
330
1F
100
AcDbEntity
  8
0
  6
Continuous
 62
     8
370
    15
100
AcDbPolyline
 90
        3
 70
   128
 43
0.0
 10
917.3590601422
 20
761.2818620608
 10
916.8654740788
 20
761.0300398872
 10
914.5917058923
 20
759.8701633022
  0
LWPOLYLINE
  5
2DE
330
1F
100
AcDbEntity
  8
0
  6
Continuous
 62
     8
370
    15
100
AcDbPolyline
 90
        3
 70
   128
 43
0.0
 10
889.5194889047
 20
813.6376805113
 10
891.8695510366
 20
814.6339274452
 10
892.3797369935
 20
814.8501581953
  0
SPLINE
  5
2DF
330
1F
100
AcDbEntity
  8
0
  6
Continuous
 62
     8
370
    15
100
AcDbSpline
210
0.0
220
0.0
230
1.0
 70
     8
 71
     3
 72
    11
 73
     7
 74
     0
 42
0.00000001
 43
0.00000001
 12
1.0
 22
0.0
 32
0.0
 13
1.0
 23
0.0
 33
0.0
 40
0.0
 40
0.0
 40
0.0
 40
0.0
 40
0.2835262059979446
 40
0.5667802894606927
 40
0.8499282602557081
 40
1.0
 40
1.0
 40
1.0
 40
1.0
 10
892.3797369935069
 20
814.8501581953151
 30
0.0
 10
892.4809678961963
 20
814.6491446923399
 30
0.0
 10
892.6833325422672
 20
814.2473106149544
 30
0.0
 10
892.9379953695176
 20
813.7083422157358
 30
0.0
 10
893.0952237099234
 20
813.3512647258315
 30
0.0
 10
893.1458069159814
 20
813.2164540461087
 30
0.0
 10
893.1633294560465
 20
813.1697542474848
 30
0.0
  0
LWPOLYLINE
  5
2E0
330
1F
100
AcDbEntity
  8
0
  6
Continuous
 62
     8
370
    15
100
AcDbPolyline
 90
        9
 70
   128
 43
0.0
 10
919.0768064
 20
762.0828665302
 10
919.0442324616
 20
762.067682247
 10
918.9477623441
 20
762.0226881908
 10
918.7907935121
 20
761.9495011376
 10
918.5790182092
 20
761.8507362412
 10
918.319976423
 20
761.7299548791
 10
918.023055885
 20
761.5914932893
 10
917.6988662221
 20
761.440321009
 10
917.3590601422
 20
761.2818620608
  0
LWPOLYLINE
  5
2E1
330
1F
100
AcDbEntity
  8
0
  6
Continuous
 62
     8
370
    15
100
AcDbPolyline
 90
        9
 70
   128
 43
0.0
 10
894.0974832513
 20
815.6511552141
 10
894.0649391152
 20
815.635985832
 10
893.9684391954
 20
815.5909843252
 10
893.8115001657
 20
815.5177898214
 10
893.5996950604
 20
815.4190398262
 10
893.3406830766
 20
815.2982510136
 10
893.0437327363
 20
815.1597894238
 10
892.7195430734
 20
815.0086171435
 10
892.3797369935
 20
814.8501581953
  0
LWPOLYLINE
  5
2E2
330
1F
100
AcDbEntity
  8
0
  6
Continuous
 62
     8
370
    15
100
AcDbPolyline
 90
        9
 70
   128
 43
0.0
 10
888.4911597707
 20
827.6740081118
 10
888.4585858323
 20
827.6588238285
 10
888.3621157147
 20
827.6138372229
 10
888.2051468827
 20
827.5406427191
 10
887.9933417775
 20
827.4418778227
 10
887.7343297936
 20
827.3211039112
 10
887.4374092557
 20
827.1826274202
 10
887.1131897904
 20
827.0314551399
 10
886.7733837106
 20
826.8729961918
  0
SPLINE
  5
2E3
330
1F
100
AcDbEntity
  8
0
  6
Continuous
 62
     8
370
    15
100
AcDbSpline
210
0.0
220
0.0
230
1.0
 70
     8
 71
     3
 72
    13
 73
     9
 74
     0
 42
0.00000001
 43
0.00000001
 12
1.0
 22
0.0
 32
0.0
 13
1.0
 23
0.0
 33
0.0
 40
0.0
 40
0.0
 40
0.0
 40
0.0
 40
0.2359781308380746
 40
0.4700655293368649
 40
0.6281547987285486
 40
0.7867739973366102
 40
0.8916102003330499
 40
0.9999999999999999
 40
0.9999999999999999
 40
0.9999999999999999
 40
0.9999999999999999
 10
886.7733837105784
 20
826.8729961917978
 30
0.0
 10
886.5437313906667
 20
827.3546376753504
 30
0.0
 10
886.0862667987601
 20
828.3140615766783
 30
0.0
 10
885.2713422250074
 20
829.4949962449087
 30
0.0
 10
884.2780476353138
 20
830.2845643688626
 30
0.0
 10
883.3471008166072
 20
830.5595023544021
 30
0.0
 10
882.4892907255812
 20
830.5759625909703
 30
0.0
 10
882.0437832331589
 20
830.3789424961021
 30
0.0
 10
881.8173171021494
 20
830.2787906931026
 30
0.0
  0
LINE
  5
2E4
330
1F
100
AcDbEntity
  8
0
  6
Continuous
 62
     8
370
    15
100
AcDbLine
 10
881.8173171021
 20
830.2787906931
 30
0.0
 11
881.7699314096
 21
830.2566922711
 31
0.0
  0
LINE
  5
2E5
330
1F
100
AcDbEntity
  8
0
  6
Continuous
 62
     8
370
    15
100
AcDbLine
 10
892.3797369935
 20
814.8501581953
 30
0.0
 11
886.7733837106
 21
826.8729961918
 31
0.0
  0
LINE
  5
2E6
330
1F
100
AcDbEntity
  8
0
  6
Continuous
 62
     8
370
    15
100
AcDbLine
 10
929.3046654202
 20
735.6644004093
 30
0.0
 11
917.3590601422
 21
761.2818620608
 31
0.0
  0
LINE
  5
2E7
330
1F
100
AcDbEntity
  8
0
  6
Continuous
 62
     8
370
    15
100
AcDbLine
 10
930.1660717465
 20
733.3868957565
 30
0.0
 11
929.3046654202
 21
735.6644004093
 31
0.0
  0
LINE
  5
2E8
330
1F
100
AcDbEntity
  8
0
  6
Continuous
 62
     8
370
    15
100
AcDbLine
 10
930.1660717465
 20
733.3868957565
 30
0.0
 11
927.5170625188
 21
732.1516379223
 31
0.0
  0
SPLINE
  5
2E9
330
1F
100
AcDbEntity
  8
0
  6
Continuous
 62
     8
370
    15
100
AcDbSpline
210
0.0
220
0.0
230
1.0
 70
     8
 71
     3
 72
    11
 73
     7
 74
     0
 42
0.00000001
 43
0.00000001
 12
1.0
 22
0.0
 32
0.0
 13
1.0
 23
0.0
 33
0.0
 40
0.0
 40
0.0
 40
0.0
 40
0.0
 40
0.2499747075282567
 40
0.4998041298842988
 40
0.749534256076355
 40
1.0
 40
1.0
 40
1.0
 40
1.0
 10
931.9876492955241
 20
733.9211210117918
 30
0.0
 10
931.9623010225864
 20
733.9070912517456
 30
0.0
 10
931.9116192091142
 20
733.8790398857427
 30
0.0
 10
931.4967932340173
 20
733.7517753870796
 30
0.0
 10
930.8967491734165
 20
733.5813758064713
 30
0.0
 10
930.409869566849
 20
733.4517859673538
 30
0.0
 10
930.1660717465434
 20
733.3868957565409
 30
0.0
  0
LWPOLYLINE
  5
2EA
330
1F
100
AcDbEntity
  8
0
  6
Continuous
 62
     8
370
    15
100
AcDbPolyline
 90
        9
 70
   128
 43
0.0
 10
931.022411678
 20
736.4654011534
 10
930.989867542
 20
736.4502243207
 10
930.8933676221
 20
736.4052302645
 10
930.7364285924
 20
736.3320357607
 10
930.5246234872
 20
736.2332783149
 10
930.2656115033
 20
736.1124969528
 10
929.968661163
 20
735.9740279124
 10
929.6444715001
 20
735.8228556321
 10
929.3046654202
 20
735.6644004093
  0
SPLINE
  5
2EB
330
1F
100
AcDbEntity
  8
0
  6
Continuous
 62
     8
370
    15
100
AcDbSpline
210
0.0
220
0.0
230
1.0
 70
     8
 71
     3
 72
    11
 73
     7
 74
     0
 42
0.00000001
 43
0.00000001
 12
1.0
 22
0.0
 32
0.0
 13
1.0
 23
0.0
 33
0.0
 40
0.0
 40
0.0
 40
0.0
 40
0.0
 40
0.2440056220045891
 40
0.4919393725984469
 40
0.7439106091000189
 40
1.0
 40
1.0
 40
1.0
 40
1.0
 10
930.8009506203684
 20
732.0777430639845
 30
0.0
 10
930.7640012606682
 20
732.1607596208299
 30
0.0
 10
930.6895077113824
 20
732.3281291779505
 30
0.0
 10
930.536639938247
 20
732.6489394811251
 30
0.0
 10
930.3607597147443
 20
733.0066592425212
 30
0.0
 10
930.2313174731652
 20
733.2594671954716
 30
0.0
 10
930.1660717465434
 20
733.3868957565409
 30
0.0
  0
LINE
  5
2EC
330
1F
100
AcDbEntity
  8
0
  6
Continuous
 62
     8
370
    15
100
AcDbLine
 10
930.8009506204
 20
732.077743064
 30
0.0
 11
928.1832934358
 21
730.7228847848
 31
0.0
  0
SPLINE
  5
2ED
330
1F
100
AcDbEntity
  8
0
  6
Continuous
 62
     8
370
    15
100
AcDbSpline
210
0.0
220
0.0
230
1.0
 70
     8
 71
     3
 72
    11
 73
     7
 74
     0
 42
0.00000001
 43
0.00000001
 12
1.0
 22
0.0
 32
0.0
 13
1.0
 23
0.0
 33
0.0
 40
0.0
 40
0.0
 40
0.0
 40
0.0
 40
0.2501489178315987
 40
0.5002875154753269
 40
0.7504233481478748
 40
1.0
 40
1.0
 40
1.0
 40
1.0
 10
931.9876492955241
 20
733.9211210117918
 30
0.0
 10
932.0092998411961
 20
733.7472924389643
 30
0.0
 10
932.0526000393219
 20
733.3996424648117
 30
0.0
 10
931.8204808401863
 20
732.8668470008374
 30
0.0
 10
931.4034763165071
 20
732.3917477566458
 30
0.0
 10
931.0016426344343
 20
732.1823331828793
 30
0.0
 10
930.8009506203684
 20
732.0777430639845
 30
0.0
  0
SPLINE
  5
2EE
330
1F
100
AcDbEntity
  8
0
  6
Continuous
 62
     8
370
    15
100
AcDbSpline
210
0.0
220
0.0
230
1.0
 70
     8
 71
     3
 72
    14
 73
    10
 74
     0
 42
0.00000001
 43
0.00000001
 12
1.0
 22
0.0
 32
0.0
 13
1.0
 23
0.0
 33
0.0
 40
0.0
 40
0.0
 40
0.0
 40
0.0
 40
0.0024046172604165
 40
0.0051895573743028
 40
0.0347268263195628
 40
0.2932091264505324
 40
0.5746452135556436
 40
0.7844999843774086
 40
0.9999999999999999
 40
0.9999999999999999
 40
0.9999999999999999
 40
0.9999999999999999
 10
929.9678863026652
 20
728.0789717541319
 30
0.0
 10
929.969755349143
 20
728.0799698231228
 30
0.0
 10
929.9737890571648
 20
728.0821238192607
 30
0.0
 10
930.0006472076186
 20
728.096798750587
 30
0.0
 10
930.2250894380043
 20
728.2299763219369
 30
0.0
 10
930.6351087600009
 20
728.6742565855534
 30
0.0
 10
931.0444601527959
 20
729.6643642461529
 30
0.0
 10
931.1127049426623
 20
730.8219661258684
 30
0.0
 10
930.9057841350867
 20
731.6554634010879
 30
0.0
 10
930.8009506203684
 20
732.0777430639845
 30
0.0
  0
LINE
  5
2EF
330
1F
100
AcDbEntity
  8
0
  6
Continuous
 62
     8
370
    15
100
AcDbLine
 10
107.6238513925
 20
174.5933211849
 30
0.0
 11
100.9692908265
 21
174.5933211849
 31
0.0
  0
LINE
  5
2F0
330
1F
100
AcDbEntity
  8
0
  6
Continuous
 62
     8
370
    15
100
AcDbLine
 10
95.4125882127
 20
174.5933211849
 30
0.0
 11
95.3802526929
 21
174.5933211849
 31
0.0
  0
LINE
  5
2F1
330
1F
100
AcDbEntity
  8
0
  6
Continuous
 62
     8
370
    15
100
AcDbLine
 10
95.3802526929
 20
173.8932944344
 30
0.0
 11
95.4125882127
 21
173.8932944344
 31
0.0
  0
LINE
  5
2F2
330
1F
100
AcDbEntity
  8
0
  6
Continuous
 62
     8
370
    15
100
AcDbLine
 10
100.9692908265
 20
173.8932944344
 30
0.0
 11
107.6238513925
 21
173.8932944344
 31
0.0
  0
SPLINE
  5
2F3
330
1F
100
AcDbEntity
  8
0
  6
Continuous
 62
     8
370
    15
100
AcDbSpline
210
0.0
220
0.0
230
1.0
 70
     8
 71
     3
 72
    12
 73
     8
 74
     0
 42
0.00000001
 43
0.00000001
 12
1.0
 22
0.0
 32
0.0
 13
1.0
 23
0.0
 33
0.0
 40
0.0
 40
0.0
 40
0.0
 40
0.0
 40
0.2028171595222117
 40
0.4049481527708025
 40
0.6098316227506633
 40
0.8226896955172253
 40
1.0
 40
1.0
 40
1.0
 40
1.0
 10
108.9352727868113
 20
175.0933147476297
 30
0.0
 10
108.9246472948652
 20
174.9361752979877
 30
0.0
 10
108.9034322588893
 20
174.6224280292169
 30
0.0
 10
108.7388343514909
 20
174.2020363290394
 30
0.0
 10
108.4950516575817
 20
173.8749609604106
 30
0.0
 10
108.2031683890605
 20
173.6767502798349
 30
0.0
 10
107.9982090001356
 20
173.6537602652703
 30
0.0
 10
107.9050661065134
 20
173.6433125541788
 30
0.0
  0
LINE
  5
2F4
330
1F
100
AcDbEntity
  8
0
  6
Continuous
 62
     8
370
    15
100
AcDbLine
 10
108.9352727868
 20
175.0933147476
 30
0.0
 11
113.2101477124
 21
175.0933147476
 31
0.0
  0
LINE
  5
2F5
330
1F
100
AcDbEntity
  8
0
  6
Continuous
 62
     8
370
    15
100
AcDbLine
 10
113.2101477124
 20
175.0933147476
 30
0.0
 11
113.2101477124
 21
180.1932967709
 31
0.0
  0
LINE
  5
2F6
330
1F
100
AcDbEntity
  8
0
  6
Continuous
 62
     8
370
    15
100
AcDbLine
 10
108.9352727868
 20
180.1932967709
 30
0.0
 11
108.9352727868
 21
175.0933147476
 31
0.0
  0
LINE
  5
2F7
330
1F
100
AcDbEntity
  8
0
  6
Continuous
 62
     8
370
    15
100
AcDbLine
 10
113.2101477124
 20
180.1932967709
 30
0.0
 11
108.9352727868
 21
180.1932967709
 31
0.0
  0
LWPOLYLINE
  5
2F8
330
1F
100
AcDbEntity
  8
0
  6
Continuous
 62
     8
370
    15
100
AcDbPolyline
 90
        9
 70
   128
 43
0.0
 10
108.9352727868
 20
180.1932967709
 10
108.932978008
 20
180.2420831726
 10
108.9262128808
 20
180.2889920281
 10
108.9152158238
 20
180.3322053955
 10
108.9004040696
 20
180.3700841473
 10
108.8823736646
 20
180.4011679695
 10
108.8618100621
 20
180.4242647694
 10
108.8394881227
 20
180.4385102795
 10
108.8162721135
 20
180.4433084534
  0
ARC
  5
2F9
330
1F
100
AcDbEntity
  8
0
  6
Continuous
 62
     8
370
    15
100
AcDbCircle
 10
112.972444316
 20
180.2056894732
 30
0.0
 40
0.238026224901462
100
AcDbArc
 50
357.01557793
 51
86.6479161562
  0
SPLINE
  5
2FA
330
1F
100
AcDbEntity
  8
0
  6
Continuous
 62
     8
370
    15
100
AcDbSpline
210
0.0
220
0.0
230
1.0
 70
     8
 71
     3
 72
    12
 73
     8
 74
     0
 42
0.00000001
 43
0.00000001
 12
1.0
 22
0.0
 32
0.0
 13
1.0
 23
0.0
 33
0.0
 40
0.0
 40
0.0
 40
0.0
 40
0.0
 40
0.1789565981726716
 40
0.3928983453804429
 40
0.5976955340823039
 40
0.7987832910929129
 40
1.0
 40
1.0
 40
1.0
 40
1.0
 10
107.7313185669931
 20
173.8932944343668
 30
0.0
 10
107.8143317037342
 20
173.9019096313096
 30
0.0
 10
107.9965866437779
 20
173.9208242545118
 30
0.0
 10
108.2547470375611
 20
174.0843811073512
 30
0.0
 10
108.4697608718377
 20
174.3549225998906
 30
0.0
 10
108.6144927266889
 20
174.7030788690788
 30
0.0
 10
108.6331786284109
 20
174.963208328079
 30
0.0
 10
108.6425245739969
 20
175.0933147476297
 30
0.0
  0
LINE
  5
2FB
330
1F
100
AcDbEntity
  8
0
  6
Continuous
 62
     8
370
    15
100
AcDbLine
 10
108.642524574
 20
175.0933147476
 30
0.0
 11
108.9352727868
 21
175.0933147476
 31
0.0
  0
ARC
  5
2FC
330
1F
100
AcDbEntity
  8
0
  6
Continuous
 62
     8
370
    15
100
AcDbCircle
 10
107.9515290126
 20
173.8609778886
 30
0.0
 40
0.2225690891932869
100
AcDbArc
 50
171.6512655426
 51
257.9504674386
  0
LINE
  5
2FD
330
1F
100
AcDbEntity
  8
0
  6
Continuous
 62
     8
370
    15
100
AcDbLine
 10
108.642524574
 20
175.0933147476
 30
0.0
 11
108.642524574
 21
180.1932967709
 31
0.0
  0
LINE
  5
2FE
330
1F
100
AcDbEntity
  8
0
  6
Continuous
 62
     8
370
    15
100
AcDbLine
 10
108.642524574
 20
180.1932967709
 30
0.0
 11
108.9352727868
 21
180.1932967709
 31
0.0
  0
ARC
  5
2FF
330
1F
100
AcDbEntity
  8
0
  6
Continuous
 62
     8
370
    15
100
AcDbCircle
 10
108.8627292533
 20
180.2256432722
 30
0.0
 40
0.2225677356128591
100
AcDbArc
 50
102.0480890909
 51
188.3565797626
  0
LINE
  5
300
330
1F
100
AcDbEntity
  8
0
  6
Continuous
 62
     8
370
    15
100
AcDbLine
 10
108.1126392819
 20
180.1932967709
 30
0.0
 11
108.1126392819
 21
175.0933147476
 31
0.0
  0
LINE
  5
301
330
1F
100
AcDbEntity
  8
0
  6
Continuous
 62
     8
370
    15
100
AcDbLine
 10
108.642524574
 20
180.1932967709
 30
0.0
 11
108.1126392819
 21
180.1932967709
 31
0.0
  0
LINE
  5
302
330
1F
100
AcDbEntity
  8
0
  6
Continuous
 62
     8
370
    15
100
AcDbLine
 10
107.6238513925
 20
173.8932944344
 30
0.0
 11
107.731318567
 21
173.8932944344
 31
0.0
  0
LINE
  5
303
330
1F
100
AcDbEntity
  8
0
  6
Continuous
 62
     8
370
    15
100
AcDbLine
 10
107.731318567
 20
174.5933211849
 30
0.0
 11
107.6238513925
 21
174.5933211849
 31
0.0
  0
SPLINE
  5
304
330
1F
100
AcDbEntity
  8
0
  6
Continuous
 62
     8
370
    15
100
AcDbSpline
210
0.0
220
0.0
230
1.0
 70
     8
 71
     3
 72
    12
 73
     8
 74
     0
 42
0.00000001
 43
0.00000001
 12
1.0
 22
0.0
 32
0.0
 13
1.0
 23
0.0
 33
0.0
 40
0.0
 40
0.0
 40
0.0
 40
0.0
 40
0.1818500205385964
 40
0.396475051062921
 40
0.6005675582466796
 40
0.8001901285440381
 40
1.0
 40
1.0
 40
1.0
 40
1.0
 10
107.7313185669931
 20
174.5933211849314
 30
0.0
 10
107.7665359497776
 20
174.597035661112
 30
0.0
 10
107.8433179792566
 20
174.6051340772078
 30
0.0
 10
107.9514496534589
 20
174.6742855614207
 30
0.0
 10
108.0408367120361
 20
174.7871250057842
 30
0.0
 10
108.100993762107
 20
174.9315427821476
 30
0.0
 10
108.1087562286774
 20
175.0393739044756
 30
0.0
 10
108.1126392819437
 20
175.0933147476297
 30
0.0
  0
ARC
  5
305
330
1F
100
AcDbEntity
  8
0
  6
Continuous
 62
     8
370
    15
100
AcDbCircle
 10
108.3329106116
 20
180.225596953
 30
0.0
 40
0.2226269535679645
100
AcDbArc
 50
102.0623762868
 51
188.3422925667
  0
ARC
  5
306
330
1F
100
AcDbEntity
  8
0
  6
Continuous
 62
     8
370
    15
100
AcDbCircle
 10
107.9515290126
 20
174.6256377307
 30
0.0
 40
0.2225690891932392
100
AcDbArc
 50
102.0495325614
 51
188.3487344574
  0
LINE
  5
307
330
1F
100
AcDbEntity
  8
0
  6
Continuous
 62
     8
370
    15
100
AcDbLine
 10
108.1126392819
 20
175.0933147476
 30
0.0
 11
108.0364049413
 21
175.0933147476
 31
0.0
  0
LINE
  5
308
330
1F
100
AcDbEntity
  8
0
  6
Continuous
 62
     8
370
    15
100
AcDbLine
 10
108.1126392819
 20
180.1932967709
 30
0.0
 11
108.0364049413
 21
180.1932967709
 31
0.0
  0
LINE
  5
309
330
1F
100
AcDbEntity
  8
0
  6
Continuous
 62
     8
370
    15
100
AcDbLine
 10
113.2101477124
 20
180.1932967709
 30
0.0
 11
113.2363737561
 21
180.1932967709
 31
0.0
  0
SPLINE
  5
30A
330
1F
100
AcDbEntity
  8
0
  6
Continuous
 62
     8
370
    15
100
AcDbSpline
210
0.0
220
0.0
230
1.0
 70
     8
 71
     3
 72
    11
 73
     7
 74
     0
 42
0.00000001
 43
0.00000001
 12
1.0
 22
0.0
 32
0.0
 13
1.0
 23
0.0
 33
0.0
 40
0.0
 40
0.0
 40
0.0
 40
0.0
 40
0.1689189795465851
 40
0.5098450262789213
 40
0.8698841776908516
 40
1.0
 40
1.0
 40
1.0
 40
1.0
 10
95.00036248941745
 20
175.0933147476297
 30
0.0
 10
95.00287524035173
 20
175.0259403140294
 30
0.0
 10
95.01045942994114
 20
174.8225853093891
 30
0.0
 10
95.10449087021155
 20
174.4965329145319
 30
0.0
 10
95.25338310949327
 20
174.2206187982926
 30
0.0
 10
95.37919134304256
 20
174.1322996927566
 30
0.0
 10
95.41258821268406
 20
174.108854632197
 30
0.0
  0
LINE
  5
30B
330
1F
100
AcDbEntity
  8
0
  6
Continuous
 62
     8
370
    15
100
AcDbLine
 10
95.0003624894
 20
180.1932967709
 30
0.0
 11
95.0003624894
 21
175.0933147476
 31
0.0
  0
LINE
  5
30C
330
1F
100
AcDbEntity
  8
0
  6
Continuous
 62
     8
370
    15
100
AcDbLine
 10
95.5302477815
 20
180.1932967709
 30
0.0
 11
95.0003624894
 21
180.1932967709
 31
0.0
  0
LINE
  5
30D
330
1F
100
AcDbEntity
  8
0
  6
Continuous
 62
     8
370
    15
100
AcDbLine
 10
95.5302477815
 20
176.0224319504
 30
0.0
 11
95.5302477815
 21
180.1932967709
 31
0.0
  0
LINE
  5
30E
330
1F
100
AcDbEntity
  8
0
  6
Continuous
 62
     8
370
    15
100
AcDbLine
 10
95.0003624894
 20
175.0933147476
 30
0.0
 11
94.9241281487
 21
175.0933147476
 31
0.0
  0
LINE
  5
30F
330
1F
100
AcDbEntity
  8
0
  6
Continuous
 62
     8
370
    15
100
AcDbLine
 10
95.9303737618
 20
180.1932967709
 30
0.0
 11
95.9303737618
 21
176.0432935761
 31
0.0
  0
LINE
  5
310
330
1F
100
AcDbEntity
  8
0
  6
Continuous
 62
     8
370
    15
100
AcDbLine
 10
95.9303737618
 20
180.1932967709
 30
0.0
 11
95.5302477815
 21
180.1932967709
 31
0.0
  0
ARC
  5
311
330
1F
100
AcDbEntity
  8
0
  6
Continuous
 62
     8
370
    15
100
AcDbCircle
 10
95.7504957361
 20
180.2256131976
 30
0.0
 40
0.2226061835998313
100
AcDbArc
 50
102.0573664746
 51
188.3473023789
  0
ARC
  5
312
330
1F
100
AcDbEntity
  8
0
  6
Continuous
 62
     8
370
    15
100
AcDbCircle
 10
95.2206338191
 20
180.225596953
 30
0.0
 40
0.2226269535679645
100
AcDbArc
 50
102.0623762868
 51
188.3422925667
  0
LINE
  5
313
330
1F
100
AcDbEntity
  8
0
  6
Continuous
 62
     8
370
    15
100
AcDbLine
 10
98.4400571324
 20
180.1932967709
 30
0.0
 11
95.9303737618
 21
180.1932967709
 31
0.0
  0
LINE
  5
314
330
1F
100
AcDbEntity
  8
0
  6
Continuous
 62
     8
370
    15
100
AcDbLine
 10
95.0003624894
 20
180.1932967709
 30
0.0
 11
94.9241281487
 21
180.1932967709
 31
0.0
  0
LINE
  5
315
330
1F
100
AcDbEntity
  8
0
  6
Continuous
 62
     8
370
    15
100
AcDbLine
 10
108.0364049413
 20
175.7933116959
 30
0.0
 11
101.3492406346
 21
175.7933116959
 31
0.0
  0
LINE
  5
316
330
1F
100
AcDbEntity
  8
0
  6
Continuous
 62
     8
370
    15
100
AcDbLine
 10
101.3492406346
 20
175.0933147476
 30
0.0
 11
108.052468393
 21
175.0933147476
 31
0.0
  0
SPLINE
  5
317
330
1F
100
AcDbEntity
  8
0
  6
Continuous
 62
     8
370
    15
100
AcDbSpline
210
0.0
220
0.0
230
1.0
 70
     8
 71
     3
 72
    12
 73
     8
 74
     0
 42
0.00000001
 43
0.00000001
 12
1.0
 22
0.0
 32
0.0
 13
1.0
 23
0.0
 33
0.0
 40
0.0
 40
0.0
 40
0.0
 40
0.0
 40
0.2028192966365954
 40
0.4049484299029628
 40
0.6098316193968725
 40
0.8226944240735022
 40
1.0
 40
1.0
 40
1.0
 40
1.0
 10
100.1468957402262
 20
174.5933211849314
 30
0.0
 10
100.1563525949692
 20
174.7504598143437
 30
0.0
 10
100.1752341242096
 20
175.0642023541949
 30
0.0
 10
100.321579708978
 20
175.4846024417037
 30
0.0
 10
100.538199919346
 20
175.811675819231
 30
0.0
 10
100.7974276604526
 20
176.009892022576
 30
0.0
 10
100.9792162264284
 20
176.032857358487
 30
0.0
 10
101.0618270375284
 20
176.0432935760599
 30
0.0
  0
LINE
  5
318
330
1F
100
AcDbEntity
  8
0
  6
Continuous
 62
     8
370
    15
100
AcDbLine
 10
100.1468957402
 20
174.5933211849
 30
0.0
 11
95.4510928132
 21
174.5933211849
 31
0.0
  0
ARC
  5
319
330
1F
100
AcDbEntity
  8
0
  6
Continuous
 62
     8
370
    15
100
AcDbCircle
 10
95.6835538314
 20
169.4755243046
 30
0.0
 40
0.2331403722133118
100
AcDbArc
 50
175.6249554852
 51
264.8434741544
  0
LINE
  5
31A
330
1F
100
AcDbEntity
  8
0
  6
Continuous
 62
     8
370
    15
100
AcDbLine
 10
95.4510928132
 20
169.4933093594
 30
0.0
 11
100.1468957402
 21
169.4933093594
 31
0.0
  0
LWPOLYLINE
  5
31B
330
1F
100
AcDbEntity
  8
0
  6
Continuous
 62
     8
370
    15
100
AcDbPolyline
 90
        9
 70
   128
 43
0.0
 10
100.2433062532
 20
169.2433274792
 10
100.2245009877
 20
169.2480958508
 10
100.206410978
 20
169.2623413609
 10
100.1897514798
 20
169.285467963
 10
100.1751483418
 20
169.316521983
 10
100.1631380059
 20
169.354430537
 10
100.1542569139
 20
169.3976439045
 10
100.1487434842
 20
169.4445527599
 10
100.1468957402
 20
169.4933093594
  0
LINE
  5
31C
330
1F
100
AcDbEntity
  8
0
  6
Continuous
 62
     8
370
    15
100
AcDbLine
 10
100.1468957402
 20
169.4933093594
 30
0.0
 11
100.1468957402
 21
174.5933211849
 31
0.0
  0
LINE
  5
31D
330
1F
100
AcDbEntity
  8
0
  6
Continuous
 62
     8
370
    15
100
AcDbLine
 10
95.4510928132
 20
174.5933211849
 30
0.0
 11
95.4510928132
 21
169.4933093594
 31
0.0
  0
SPLINE
  5
31E
330
1F
100
AcDbEntity
  8
0
  6
Continuous
 62
     8
370
    15
100
AcDbSpline
210
0.0
220
0.0
230
1.0
 70
     8
 71
     3
 72
    12
 73
     8
 74
     0
 42
0.00000001
 43
0.00000001
 12
1.0
 22
0.0
 32
0.0
 13
1.0
 23
0.0
 33
0.0
 40
0.0
 40
0.0
 40
0.0
 40
0.0
 40
0.1789606029192541
 40
0.392898095365296
 40
0.5977020238268715
 40
0.7987825199828809
 40
1.0
 40
1.0
 40
1.0
 40
1.0
 10
101.2526811100992
 20
175.7933116958719
 30
0.0
 10
101.1781127289943
 20
175.7846939350425
 30
0.0
 10
101.0144019768364
 20
175.7657741182733
 30
0.0
 10
100.78246482436
 20
175.6022700872984
 30
0.0
 10
100.5893938271579
 20
175.3316743447846
 30
0.0
 10
100.4593125921043
 20
174.9835601854221
 30
0.0
 10
100.4425463175073
 20
174.7234303767968
 30
0.0
 10
100.4341603257212
 20
174.5933211849314
 30
0.0
  0
LINE
  5
31F
330
1F
100
AcDbEntity
  8
0
  6
Continuous
 62
     8
370
    15
100
AcDbLine
 10
100.4341603257
 20
174.5933211849
 30
0.0
 11
100.1468957402
 21
174.5933211849
 31
0.0
  0
ARC
  5
320
330
1F
100
AcDbEntity
  8
0
  6
Continuous
 62
     8
370
    15
100
AcDbCircle
 10
101.0277529262
 20
175.8194321842
 30
0.0
 40
0.2264397664207153
100
AcDbArc
 50
353.3760186313
 51
81.3453951455
  0
LINE
  5
321
330
1F
100
AcDbEntity
  8
0
  6
Continuous
 62
     8
370
    15
100
AcDbLine
 10
100.4341603257
 20
169.4933093594
 30
0.0
 11
100.1468957402
 21
169.4933093594
 31
0.0
  0
ARC
  5
322
330
1F
100
AcDbEntity
  8
0
  6
Continuous
 62
     8
370
    15
100
AcDbCircle
 10
100.2092321418
 20
169.467188871
 30
0.0
 40
0.2264397664207153
100
AcDbArc
 50
278.6546048545
 51
6.6239813687
  0
LINE
  5
323
330
1F
100
AcDbEntity
  8
0
  6
Continuous
 62
     8
370
    15
100
AcDbLine
 10
100.4341603257
 20
174.5933211849
 30
0.0
 11
100.4341603257
 21
169.4933093594
 31
0.0
  0
LINE
  5
324
330
1F
100
AcDbEntity
  8
0
  6
Continuous
 62
     8
370
    15
100
AcDbLine
 10
100.9101630189
 20
169.4933093594
 30
0.0
 11
100.9101630189
 21
174.5933211849
 31
0.0
  0
LINE
  5
325
330
1F
100
AcDbEntity
  8
0
  6
Continuous
 62
     8
370
    15
100
AcDbLine
 10
100.4341603257
 20
169.4933093594
 30
0.0
 11
100.9101630189
 21
169.4933093594
 31
0.0
  0
LINE
  5
326
330
1F
100
AcDbEntity
  8
0
  6
Continuous
 62
     8
370
    15
100
AcDbLine
 10
101.3492406346
 20
175.7933116959
 30
0.0
 11
101.2526811101
 21
175.7933116959
 31
0.0
  0
LINE
  5
327
330
1F
100
AcDbEntity
  8
0
  6
Continuous
 62
     8
370
    15
100
AcDbLine
 10
101.2526811101
 20
175.0933147476
 30
0.0
 11
101.3492406346
 21
175.0933147476
 31
0.0
  0
SPLINE
  5
328
330
1F
100
AcDbEntity
  8
0
  6
Continuous
 62
     8
370
    15
100
AcDbSpline
210
0.0
220
0.0
230
1.0
 70
     8
 71
     3
 72
    12
 73
     8
 74
     0
 42
0.00000001
 43
0.00000001
 12
1.0
 22
0.0
 32
0.0
 13
1.0
 23
0.0
 33
0.0
 40
0.0
 40
0.0
 40
0.0
 40
0.0
 40
0.1818591874358668
 40
0.3965037843473523
 40
0.6005910443473509
 40
0.8002250526816134
 40
0.9999999999999999
 40
0.9999999999999999
 40
0.9999999999999999
 40
0.9999999999999999
 10
101.2526811100992
 20
175.0933147476297
 30
0.0
 10
101.2210515148272
 20
175.0895873008905
 30
0.0
 10
101.1520901695162
 20
175.0814604266924
 30
0.0
 10
101.0549162188324
 20
175.0123312245884
 30
0.0
 10
100.9746645548563
 20
174.8994726763278
 30
0.0
 10
100.9205886576242
 20
174.755077643616
 30
0.0
 10
100.9136390492398
 20
174.6472526871827
 30
0.0
 10
100.9101630188974
 20
174.5933211849313
 30
0.0
  0
ARC
  5
329
330
1F
100
AcDbEntity
  8
0
  6
Continuous
 62
     8
370
    15
100
AcDbCircle
 10
100.6851685783
 20
169.4672435245
 30
0.0
 40
0.2264992848333837
100
AcDbArc
 50
278.6616410362
 51
6.6083150281
  0
ARC
  5
32A
330
1F
100
AcDbEntity
  8
0
  6
Continuous
 62
     8
370
    15
100
AcDbCircle
 10
101.0276846751
 20
175.067219674
 30
0.0
 40
0.2265046327323258
100
AcDbArc
 50
278.6695710367
 51
6.6156039506
  0
LINE
  5
32B
330
1F
100
AcDbEntity
  8
0
  6
Continuous
 62
     8
370
    15
100
AcDbLine
 10
100.9101630189
 20
174.5933211849
 30
0.0
 11
100.9692610242
 21
174.5933211849
 31
0.0
  0
LINE
  5
32C
330
1F
100
AcDbEntity
  8
0
  6
Continuous
 62
     8
370
    15
100
AcDbLine
 10
100.9101630189
 20
169.4933093594
 30
0.0
 11
100.9692908265
 21
169.4933093594
 31
0.0
  0
LINE
  5
32D
330
1F
100
AcDbEntity
  8
0
  6
Continuous
 62
     8
370
    15
100
AcDbLine
 10
95.4510928132
 20
169.4933093594
 30
0.0
 11
95.4125882127
 21
169.4933093594
 31
0.0
  0
LINE
  5
32E
330
1F
100
AcDbEntity
  8
0
  6
Continuous
 62
     8
370
    15
100
AcDbLine
 10
95.7626760938
 20
175.7933116959
 30
0.0
 11
95.3802526929
 21
175.7933116959
 31
0.0
  0
LINE
  5
32F
330
1F
100
AcDbEntity
  8
0
  6
Continuous
 62
     8
370
    15
100
AcDbLine
 10
112.6887560823
 20
169.4933093594
 30
0.0
 11
112.6887560823
 21
173.6999965714
 31
0.0
  0
LINE
  5
330
330
1F
100
AcDbEntity
  8
0
  6
Continuous
 62
     8
370
    15
100
AcDbLine
 10
112.2127831914
 20
169.4933093594
 30
0.0
 11
112.6887560823
 21
169.4933093594
 31
0.0
  0
LINE
  5
331
330
1F
100
AcDbEntity
  8
0
  6
Continuous
 62
     8
370
    15
100
AcDbLine
 10
112.2127831914
 20
173.6433125542
 30
0.0
 11
112.2127831914
 21
169.4933093594
 31
0.0
  0
LINE
  5
332
330
1F
100
AcDbEntity
  8
0
  6
Continuous
 62
     8
370
    15
100
AcDbLine
 10
111.8072629907
 20
169.4933093594
 30
0.0
 11
111.8072629907
 21
173.6433125542
 31
0.0
  0
LINE
  5
333
330
1F
100
AcDbEntity
  8
0
  6
Continuous
 62
     8
370
    15
100
AcDbLine
 10
111.8072629907
 20
169.4933093594
 30
0.0
 11
112.2127831914
 21
169.4933093594
 31
0.0
  0
ARC
  5
334
330
1F
100
AcDbEntity
  8
0
  6
Continuous
 62
     8
370
    15
100
AcDbCircle
 10
111.9877887508
 20
169.4672435245
 30
0.0
 40
0.2264992848333837
100
AcDbArc
 50
278.6616410362
 51
6.6083150281
  0
LINE
  5
335
330
1F
100
AcDbEntity
  8
0
  6
Continuous
 62
     8
370
    15
100
AcDbLine
 10
109.8100305535
 20
169.4933093594
 30
0.0
 11
111.8072629907
 21
169.4933093594
 31
0.0
  0
ARC
  5
336
330
1F
100
AcDbEntity
  8
0
  6
Continuous
 62
     8
370
    15
100
AcDbCircle
 10
112.4637527381
 20
169.4672462537
 30
0.0
 40
0.2265078151782182
100
AcDbArc
 50
278.6712161615
 51
6.6073700616
  0
LINE
  5
337
330
1F
100
AcDbEntity
  8
0
  6
Continuous
 62
     8
370
    15
100
AcDbLine
 10
112.7478838899
 20
169.4933093594
 30
0.0
 11
112.6887560823
 21
169.4933093594
 31
0.0
  0
ENDSEC
  0
SECTION
  2
OBJECTS
  0
DICTIONARY
  5
C
330
0
100
AcDbDictionary
281
     1
  3
ACAD_GROUP
350
D
  3
ACAD_LAYOUT
350
1A
  3
ACAD_MLINESTYLE
350
17
  3
ACAD_PLOTSETTINGS
350
19
  3
ACAD_PLOTSTYLENAME
350
E
  0
DICTIONARY
  5
D
102
{ACAD_REACTORS
330
C
102
}
330
C
100
AcDbDictionary
281
     1
  0
DICTIONARY
  5
1A
102
{ACAD_REACTORS
330
C
102
}
330
C
100
AcDbDictionary
281
     1
  3
Layout1
350
1E
  3
Layout2
350
26
  3
Model
350
22
  0
DICTIONARY
  5
17
102
{ACAD_REACTORS
330
C
102
}
330
C
100
AcDbDictionary
281
     1
  3
Standard
350
18
  0
DICTIONARY
  5
19
102
{ACAD_REACTORS
330
C
102
}
330
C
100
AcDbDictionary
281
     1
  0
ACDBDICTIONARYWDFLT
  5
E
102
{ACAD_REACTORS
330
C
102
}
330
C
100
AcDbDictionary
281
     1
  3
Normal
350
F
100
AcDbDictionaryWithDefault
340
F
  0
LAYOUT
  5
1E
102
{ACAD_REACTORS
330
1A
102
}
330
1A
100
AcDbPlotSettings
  1

  2
none_device
  4

  6

 40
0.0
 41
0.0
 42
0.0
 43
0.0
 44
0.0
 45
0.0
 46
0.0
 47
0.0
 48
0.0
 49
0.0
140
0.0
141
0.0
142
1.0
143
1.0
 70
   688
 72
     0
 73
     0
 74
     5
  7

 75
    16
147
1.0
148
0.0
149
0.0
100
AcDbLayout
  1
Layout1
 70
     1
 71
     1
 10
0.0
 20
0.0
 11
420.0
 21
297.0
 12
0.0
 22
0.0
 32
0.0
 14
1.0000000000E+20
 24
1.0000000000E+20
 34
1.0000000000E+20
 15
-1.0000000000E+20
 25
-1.0000000000E+20
 35
-1.0000000000E+20
146
0.0
 13
0.0
 23
0.0
 33
0.0
 16
1.0
 26
0.0
 36
0.0
 17
0.0
 27
1.0
 37
0.0
 76
     0
330
1B
  0
LAYOUT
  5
26
102
{ACAD_REACTORS
330
1A
102
}
330
1A
100
AcDbPlotSettings
  1

  2
none_device
  4

  6

 40
0.0
 41
0.0
 42
0.0
 43
0.0
 44
0.0
 45
0.0
 46
0.0
 47
0.0
 48
0.0
 49
0.0
140
0.0
141
0.0
142
1.0
143
1.0
 70
   688
 72
     0
 73
     0
 74
     5
  7

 75
    16
147
1.0
148
0.0
149
0.0
100
AcDbLayout
  1
Layout2
 70
     1
 71
     2
 10
0.0
 20
0.0
 11
0.0
 21
0.0
 12
0.0
 22
0.0
 32
0.0
 14
0.0
 24
0.0
 34
0.0
 15
0.0
 25
0.0
 35
0.0
146
0.0
 13
0.0
 23
0.0
 33
0.0
 16
1.0
 26
0.0
 36
0.0
 17
0.0
 27
1.0
 37
0.0
 76
     0
330
23
  0
LAYOUT
  5
22
102
{ACAD_REACTORS
330
1A
102
}
330
1A
100
AcDbPlotSettings
  1

  2
none_device
  4

  6

 40
0.0
 41
0.0
 42
0.0
 43
0.0
 44
0.0
 45
0.0
 46
0.0
 47
0.0
 48
0.0
 49
0.0
140
0.0
141
0.0
142
1.0
143
1.0
 70
  1712
 72
     0
 73
     0
 74
     0
  7

 75
     0
147
1.0
148
0.0
149
0.0
100
AcDbLayout
  1
Model
 70
     1
 71
     0
 10
0.0
 20
0.0
 11
1000.0
 21
1000.0
 12
0.0
 22
0.0
 32
0.0
 14
0.0
 24
0.0
 34
0.0
 15
1000.0
 25
1000.0
 35
0.0
146
0.0
 13
0.0
 23
0.0
 33
0.0
 16
1.0
 26
0.0
 36
0.0
 17
0.0
 27
1.0
 37
0.0
 76
     0
330
1F
331
29
  0
MLINESTYLE
  5
18
102
{ACAD_REACTORS
330
17
102
}
330
17
100
AcDbMlineStyle
  2
Standard
 70
     0
  3

 62
   256
 51
90.0
 52
90.0
 71
     2
 49
0.5
 62
   256
  6
BYLAYER
 49
-0.5
 62
   256
  6
BYLAYER
  0
ACDBPLACEHOLDER
  5
F
102
{ACAD_REACTORS
330
E
102
}
330
E
  0
ENDSEC
  0
EOF
