  0
SECTION
  2
HEADER
  9
$ACADVER
  1
AC1015
  9
$ACADMAINTVER
 70
     6
  9
$DWGCODEPAGE
  3
ANSI_1252
  9
$INSBASE
 10
0.0
 20
0.0
 30
0.0
  9
$EXTMIN
 10
0.0
 20
0.0
 30
0.0
  9
$EXTMAX
 10
1000.0
 20
1000.0
 30
0.0
  9
$LIMMIN
 10
0.0
 20
0.0
  9
$LIMMAX
 10
1000.0
 20
1000.0
  9
$ORTHOMODE
 70
     0
  9
$REGENMODE
 70
     1
  9
$FILLMODE
 70
     1
  9
$QTEXTMODE
 70
     0
  9
$MIRRTEXT
 70
     1
  9
$LTSCALE
 40
1.0
  9
$ATTMODE
 70
     1
  9
$TEXTSIZE
 40
3.5
  9
$TRACEWID
 40
1.0
  9
$TEXTSTYLE
  7
Standard
  9
$CLAYER
  8
0
  9
$CELTYPE
  6
ByLayer
  9
$CECOLOR
 62
   256
  9
$CELTSCALE
 40
1.0
  9
$DISPSILH
 70
     0
  9
$DIMSCALE
 40
1.0
  9
$DIMASZ
 40
3.302
  9
$DIMEXO
 40
1.0
  9
$DIMDLI
 40
3.75
  9
$DIMRND
 40
0.0
  9
$DIMDLE
 40
0.0
  9
$DIMEXE
 40
1.0
  9
$DIMTP
 40
0.0
  9
$DIMTM
 40
0.0
  9
$DIMTXT
 40
3.5
  9
$DIMCEN
 40
2.5
  9
$DIMTSZ
 40
0.0
  9
$DIMTOL
 70
     0
  9
$DIMLIM
 70
     0
  9
$DIMTIH
 70
     1
  9
$DIMTOH
 70
     1
  9
$DIMSE1
 70
     0
  9
$DIMSE2
 70
     0
  9
$DIMTAD
 70
     1
  9
$DIMZIN
 70
     0
  9
$DIMBLK
  1

  9
$DIMASO
 70
     1
  9
$DIMSHO
 70
     1
  9
$DIMPOST
  1

  9
$DIMAPOST
  1

  9
$DIMALT
 70
     0
  9
$DIMALTD
 70
     3
  9
$DIMALTF
 40
0.0393700787
  9
$DIMLFAC
 40
1.0
  9
$DIMTOFL
 70
     1
  9
$DIMTVP
 40
0.0
  9
$DIMTIX
 70
     0
  9
$DIMSOXD
 70
     0
  9
$DIMSAH
 70
     0
  9
$DIMBLK1
  1

  9
$DIMBLK2
  1

  9
$DIMSTYLE
  2
ISO-25
  9
$DIMCLRD
 70
     0
  9
$DIMCLRE
 70
     0
  9
$DIMCLRT
 70
     0
  9
$DIMTFAC
 40
1.0
  9
$DIMGAP
 40
1.524
  9
$DIMJUST
 70
     0
  9
$DIMSD1
 70
     0
  9
$DIMSD2
 70
     0
  9
$DIMTOLJ
 70
     0
  9
$DIMTZIN
 70
     0
  9
$DIMALTZ
 70
     0
  9
$DIMALTTZ
 70
     0
  9
$DIMUPT
 70
     0
  9
$DIMDEC
 70
     1
  9
$DIMTDEC
 70
     1
  9
$DIMALTU
 70
     2
  9
$DIMALTTD
 70
     3
  9
$DIMTXSTY
  7
Standard
  9
$DIMAUNIT
 70
     0
  9
$DIMADEC
 70
     1
  9
$DIMALTRND
 40
0.0
  9
$DIMAZIN
 70
     0
  9
$DIMDSEP
 70
    44
  9
$DIMATFIT
 70
     3
  9
$DIMFRAC
 70
     0
  9
$DIMLDRBLK
  1

  9
$DIMLUNIT
 70
     2
  9
$DIMLWD
 70
    -2
  9
$DIMLWE
 70
    -2
  9
$DIMTMOVE
 70
     0
  9
$LUNITS
 70
     2
  9
$LUPREC
 70
     1
  9
$SKETCHINC
 40
1.0
  9
$FILLETRAD
 40
10.0
  9
$AUNITS
 70
     0
  9
$AUPREC
 70
     1
  9
$MENU
  1
.
  9
$ELEVATION
 40
0.0
  9
$PELEVATION
 40
0.0
  9
$THICKNESS
 40
0.0
  9
$LIMCHECK
 70
     0
  9
$CHAMFERA
 40
10.0
  9
$CHAMFERB
 40
10.0
  9
$CHAMFERC
 40
20.0
  9
$CHAMFERD
 40
0.0
  9
$SKPOLY
 70
     0
  9
$TDCREATE
 40
2457071.71417456
  9
$TDUCREATE
 40
2457071.71417456
  9
$TDUPDATE
 40
2457071.714175995
  9
$TDUUPDATE
 40
2457071.714175995
  9
$TDINDWG
 40
0.0000000116
  9
$TDUSRTIMER
 40
0.0000000116
  9
$USRTIMER
 70
     1
  9
$ANGBASE
 50
0.0
  9
$ANGDIR
 70
     0
  9
$PDMODE
 70
     0
  9
$PDSIZE
 40
-1.0
  9
$PLINEWID
 40
0.0
  9
$SPLFRAME
 70
     0
  9
$SPLINETYPE
 70
     6
  9
$SPLINESEGS
 70
     8
  9
$HANDSEED
  5
3A8
  9
$SURFTAB1
 70
     6
  9
$SURFTAB2
 70
     6
  9
$SURFTYPE
 70
     6
  9
$SURFU
 70
     6
  9
$SURFV
 70
     6
  9
$UCSBASE
  2

  9
$UCSNAME
  2

  9
$UCSORG
 10
0.0
 20
0.0
 30
0.0
  9
$UCSXDIR
 10
1.0
 20
0.0
 30
0.0
  9
$UCSYDIR
 10
0.0
 20
1.0
 30
0.0
  9
$UCSORTHOREF
  2

  9
$UCSORTHOVIEW
 70
     0
  9
$UCSORGTOP
 10
0.0
 20
0.0
 30
0.0
  9
$UCSORGBOTTOM
 10
0.0
 20
0.0
 30
0.0
  9
$UCSORGLEFT
 10
0.0
 20
0.0
 30
0.0
  9
$UCSORGRIGHT
 10
0.0
 20
0.0
 30
0.0
  9
$UCSORGFRONT
 10
0.0
 20
0.0
 30
0.0
  9
$UCSORGBACK
 10
0.0
 20
0.0
 30
0.0
  9
$PUCSBASE
  2

  9
$PUCSNAME
  2

  9
$PUCSORG
 10
0.0
 20
0.0
 30
0.0
  9
$PUCSXDIR
 10
1.0
 20
0.0
 30
0.0
  9
$PUCSYDIR
 10
0.0
 20
1.0
 30
0.0
  9
$PUCSORTHOREF
  2

  9
$PUCSORTHOVIEW
 70
     0
  9
$PUCSORGTOP
 10
0.0
 20
0.0
 30
0.0
  9
$PUCSORGBOTTOM
 10
0.0
 20
0.0
 30
0.0
  9
$PUCSORGLEFT
 10
0.0
 20
0.0
 30
0.0
  9
$PUCSORGRIGHT
 10
0.0
 20
0.0
 30
0.0
  9
$PUCSORGFRONT
 10
0.0
 20
0.0
 30
0.0
  9
$PUCSORGBACK
 10
0.0
 20
0.0
 30
0.0
  9
$USERI1
 70
     0
  9
$USERI2
 70
     0
  9
$USERI3
 70
     0
  9
$USERI4
 70
     0
  9
$USERI5
 70
     0
  9
$USERR1
 40
0.0
  9
$USERR2
 40
0.0
  9
$USERR3
 40
0.0
  9
$USERR4
 40
0.0
  9
$USERR5
 40
0.0
  9
$WORLDVIEW
 70
     1
  9
$SHADEDGE
 70
     3
  9
$SHADEDIF
 70
    70
  9
$TILEMODE
 70
     1
  9
$MAXACTVP
 70
    64
  9
$PINSBASE
 10
0.0
 20
0.0
 30
0.0
  9
$PLIMCHECK
 70
     0
  9
$PEXTMIN
 10
1.0000000000E+20
 20
1.0000000000E+20
 30
1.0000000000E+20
  9
$PEXTMAX
 10
-1.0000000000E+20
 20
-1.0000000000E+20
 30
-1.0000000000E+20
  9
$PLIMMIN
 10
0.0
 20
0.0
  9
$PLIMMAX
 10
420.0
 20
297.0
  9
$UNITMODE
 70
     0
  9
$VISRETAIN
 70
     1
  9
$PLINEGEN
 70
     0
  9
$PSLTSCALE
 70
     1
  9
$TREEDEPTH
 70
  3020
  9
$CMLSTYLE
  2
Standard
  9
$CMLJUST
 70
     0
  9
$CMLSCALE
 40
20.0
  9
$PROXYGRAPHICS
 70
     1
  9
$MEASUREMENT
 70
     1
  9
$CELWEIGHT
370
    -1
  9
$ENDCAPS
280
     0
  9
$JOINSTYLE
280
     0
  9
$LWDISPLAY
290
     1
  9
$INSUNITS
 70
     4
  9
$HYPERLINKBASE
  1

  9
$STYLESHEET
  1

  9
$XEDIT
290
     1
  9
$CEPSNTYPE
380
     0
  9
$PSTYLEMODE
290
     1
  9
$FINGERPRINTGUID
  2
{CE0A66E7-BD74-4D4C-82BF-ACC0A7C5EE48}
  9
$VERSIONGUID
  2
{FAEB1C32-E019-11D5-929B-00C0DF256EC4}
  9
$EXTNAMES
290
     1
  9
$PSVPSCALE
 40
0.0
  9
$OLESTARTUP
290
     0
  0
ENDSEC
  0
SECTION
  2
CLASSES
  0
CLASS
  1
ACDBDICTIONARYWDFLT
  2
AcDbDictionaryWithDefault
  3
ObjectDBX Classes
 90
        0
280
     0
281
     0
  0
CLASS
  1
VISUALSTYLE
  2
AcDbVisualStyle
  3
ObjectDBX Classes
 90
     4095
280
     0
281
     0
  0
CLASS
  1
MATERIAL
  2
AcDbMaterial
  3
ObjectDBX Classes
 90
     1153
280
     0
281
     0
  0
CLASS
  1
ACDBPLACEHOLDER
  2
AcDbPlaceHolder
  3
ObjectDBX Classes
 90
        0
280
     0
281
     0
  0
CLASS
  1
LAYOUT
  2
AcDbLayout
  3
ObjectDBX Classes
 90
        0
280
     0
281
     0
  0
ENDSEC
  0
SECTION
  2
TABLES
  0
TABLE
  2
VPORT
  5
8
330
0
100
AcDbSymbolTable
 70
     1
  0
VPORT
  5
29
330
8
100
AcDbSymbolTableRecord
100
AcDbViewportTableRecord
  2
*Active
 70
     0
 10
0.0
 20
0.0
 11
1.0
 21
1.0
 12
500.0
 22
500.0
 13
0.0
 23
0.0
 14
10.0
 24
10.0
 15
10.0
 25
10.0
 16
0.0
 26
0.0
 36
1.0
 17
0.0
 27
0.0
 37
0.0
 40
1000.0
 41
1.0
 42
50.0
 43
0.0
 44
0.0
 50
0.0
 51
0.0
 71
     0
 72
  2000
 73
     1
 74
     3
 75
     0
 76
     0
 77
     0
 78
     0
281
     0
 65
     1
110
0.0
120
0.0
130
0.0
111
1.0
121
0.0
131
0.0
112
0.0
122
1.0
132
0.0
 79
     0
146
0.0
  0
ENDTAB
  0
TABLE
  2
LTYPE
  5
5
330
0
100
AcDbSymbolTable
 70
     6
  0
LTYPE
  5
14
330
5
100
AcDbSymbolTableRecord
100
AcDbLinetypeTableRecord
  2
ByBlock
 70
     0
  3

 72
    65
 73
     0
 40
0.0
  0
LTYPE
  5
15
330
5
100
AcDbSymbolTableRecord
100
AcDbLinetypeTableRecord
  2
ByLayer
 70
     0
  3

 72
    65
 73
     0
 40
0.0
  0
LTYPE
  5
16
330
5
100
AcDbSymbolTableRecord
100
AcDbLinetypeTableRecord
  2
Continuous
 70
     0
  3
Solid line
 72
    65
 73
     0
 40
0.0
  0
LTYPE
  5
3F
330
5
100
AcDbSymbolTableRecord
100
AcDbLinetypeTableRecord
  2
HIDDEN
 70
     0
  3
Hidden __ __ __ __ __ __ __ __ __ __ __ __ __ __
 72
    65
 73
     2
 40
1.905
 49
1.27
 74
     0
 49
-0.635
 74
     0
  0
LTYPE
  5
40
330
5
100
AcDbSymbolTableRecord
100
AcDbLinetypeTableRecord
  2
PHANTOM
 70
     0
  3
Phantom ______  __  __  ______  __  __  ______
 72
    65
 73
     6
 40
12.7
 49
6.35
 74
     0
 49
-1.27
 74
     0
 49
1.27
 74
     0
 49
-1.27
 74
     0
 49
1.27
 74
     0
 49
-1.27
 74
     0
  0
LTYPE
  5
41
330
5
100
AcDbSymbolTableRecord
100
AcDbLinetypeTableRecord
  2
CENTER
 70
     0
  3
Center ____ _ ____ _ ____ _ ____ _ ____ _ ____
 72
    65
 73
     4
 40
10.16
 49
6.35
 74
     0
 49
-1.27
 74
     0
 49
1.27
 74
     0
 49
-1.27
 74
     0
  0
LTYPE
  5
42
330
5
100
AcDbSymbolTableRecord
100
AcDbLinetypeTableRecord
  2
CENTERX2
 70
     0
  3
Center (2x) ________  __  ________  __  _____
 72
    65
 73
     4
 40
20.32
 49
12.7
 74
     0
 49
-2.54
 74
     0
 49
2.54
 74
     0
 49
-2.54
 74
     0
  0
LTYPE
  5
43
330
5
100
AcDbSymbolTableRecord
100
AcDbLinetypeTableRecord
  2
DOT2
 70
     0
  3
Dot (.5x) ........................................
 72
    65
 73
     2
 40
0.635
 49
0.0
 74
     0
 49
-0.635
 74
     0
  0
ENDTAB
  0
TABLE
  2
LAYER
  5
2
330
0
100
AcDbSymbolTable
 70
     1
  0
LAYER
  5
10
330
2
100
AcDbSymbolTableRecord
100
AcDbLayerTableRecord
  2
0
 70
     0
 62
     7
  6
Continuous
370
    -3
390
F
  0
ENDTAB
  0
TABLE
  2
STYLE
  5
3
330
0
100
AcDbSymbolTable
 70
     1
  0
STYLE
  5
11
330
3
100
AcDbSymbolTableRecord
100
AcDbTextStyleTableRecord
  2
Standard
 70
     0
 40
0.0
 41
1.0
 50
0.0
 71
     0
 42
3.5
  3
txt
  4

  0
ENDTAB
  0
TABLE
  2
VIEW
  5
6
330
0
100
AcDbSymbolTable
 70
     0
  0
ENDTAB
  0
TABLE
  2
UCS
  5
7
330
0
100
AcDbSymbolTable
 70
     0
  0
ENDTAB
  0
TABLE
  2
APPID
  5
9
330
0
100
AcDbSymbolTable
 70
     1
  0
APPID
  5
12
330
9
100
AcDbSymbolTableRecord
100
AcDbRegAppTableRecord
  2
ACAD
 70
     0
  0
ENDTAB
  0
TABLE
  2
DIMSTYLE
  5
A
330
0
100
AcDbSymbolTable
 70
     1
100
AcDbDimStyleTable
  0
DIMSTYLE
105
27
330
A
100
AcDbSymbolTableRecord
100
AcDbDimStyleTableRecord
  2
ISO-25
 70
     0
 41
2.5
 42
0.625
 43
3.75
 44
1.25
 73
     0
 74
     0
 77
     1
 78
     8
140
2.5
141
2.5
143
0.0393700787
147
0.625
171
     3
172
     1
178
     0
271
     2
272
     2
274
     3
278
    44
283
     0
284
     8
340
11
  0
ENDTAB
  0
TABLE
  2
BLOCK_RECORD
  5
1
330
0
100
AcDbSymbolTable
 70
     1
  0
BLOCK_RECORD
  5
1F
330
1
100
AcDbSymbolTableRecord
100
AcDbBlockTableRecord
  2
*Model_Space
340
22
  0
BLOCK_RECORD
  5
1B
330
1
100
AcDbSymbolTableRecord
100
AcDbBlockTableRecord
  2
*Paper_Space
340
1E
  0
BLOCK_RECORD
  5
23
330
1
100
AcDbSymbolTableRecord
100
AcDbBlockTableRecord
  2
*Paper_Space0
340
26
  0
ENDTAB
  0
ENDSEC
  0
SECTION
  2
BLOCKS
  0
BLOCK
  5
20
330
1F
100
AcDbEntity
  8
0
100
AcDbBlockBegin
  2
*Model_Space
 70
     0
 10
0.0
 20
0.0
 30
0.0
  3
*Model_Space
  1

  0
ENDBLK
  5
21
330
1F
100
AcDbEntity
  8
0
100
AcDbBlockEnd
  0
BLOCK
  5
1C
330
1B
100
AcDbEntity
 67
     1
  8
0
100
AcDbBlockBegin
  2
*Paper_Space
 70
     0
 10
0.0
 20
0.0
 30
0.0
  3
*Paper_Space
  1

  0
ENDBLK
  5
1D
330
1B
100
AcDbEntity
 67
     1
  8
0
100
AcDbBlockEnd
  0
BLOCK
  5
24
330
23
100
AcDbEntity
  8
0
100
AcDbBlockBegin
  2
*Paper_Space0
 70
     0
 10
0.0
 20
0.0
 30
0.0
  3
*Paper_Space0
  1

  0
ENDBLK
  5
25
330
23
100
AcDbEntity
  8
0
100
AcDbBlockEnd
  0
ENDSEC
  0
SECTION
  2
ENTITIES
  0
LINE
  5
44
330
1F
100
AcDbEntity
  8
0
  6
Continuous
 62
     7
370
    15
100
AcDbLine
 10
294.9753720866
 20
68.3316359541
 30
0.0
 11
694.9753631459
 21
68.3316359541
 31
0.0
  0
LINE
  5
45
330
1F
100
AcDbEntity
  8
0
  6
Continuous
 62
     7
370
    15
100
AcDbLine
 10
294.9753720866
 20
68.3057675383
 30
0.0
 11
406.5264855133
 21
68.3057675383
 31
0.0
  0
LINE
  5
46
330
1F
100
AcDbEntity
  8
0
  6
Continuous
 62
     7
370
    15
100
AcDbLine
 10
433.4277231799
 20
68.3057675383
 30
0.0
 11
556.5264840232
 21
68.3057675383
 31
0.0
  0
LINE
  5
47
330
1F
100
AcDbEntity
  8
0
  6
Continuous
 62
     7
370
    15
100
AcDbLine
 10
583.4277216898
 20
68.3057675383
 30
0.0
 11
694.9753631459
 21
68.3057675383
 31
0.0
  0
ARC
  5
48
330
1F
100
AcDbEntity
  8
0
  6
Continuous
 62
     7
370
    15
100
AcDbCircle
 10
580.6101727186
 20
59.8774400473
 30
0.0
 40
1.000000000000119
100
AcDbArc
 50
286.1036910379
 51
349.3444562998
  0
ARC
  5
49
330
1F
100
AcDbEntity
  8
0
  6
Continuous
 62
     7
370
    15
100
AcDbCircle
 10
559.3405661977
 20
59.8774400473
 30
0.0
 40
0.9999999999999629
100
AcDbArc
 50
190.6555437001
 51
253.8963089623
  0
SPLINE
  5
4A
330
1F
100
AcDbEntity
  8
0
  6
Continuous
 62
     7
370
    15
100
AcDbSpline
210
0.0
220
0.0
230
1.0
 70
     8
 71
     3
 72
    17
 73
    13
 74
     0
 42
0.00000001
 43
0.00000001
 12
1.0
 22
0.0
 32
0.0
 13
1.0
 23
0.0
 33
0.0
 40
0.0
 40
0.0
 40
0.0
 40
0.0
 40
0.0568459599676424
 40
0.1651286409403948
 40
0.2731859716068598
 40
0.3810463914399058
 40
0.4887963924321625
 40
0.5965120504895511
 40
0.7042563140390774
 40
0.8120889243820075
 40
0.9200910845855805
 40
1.0
 40
1.0
 40
1.0
 40
1.0
 10
559.0631906496138
 20
58.91666507933929
 30
0.0
 10
559.4329632968455
 20
58.81455403648894
 30
0.0
 10
560.5070951213247
 20
58.5179373949461
 30
0.0
 10
562.4073052313212
 20
58.11867902450057
 30
0.0
 10
564.7747212703482
 20
57.76680499143294
 30
0.0
 10
567.2244170739733
 20
57.54930203371067
 30
0.0
 10
569.7152152791086
 20
57.46678269711686
 30
0.0
 10
572.2092724908009
 20
57.52091710868829
 30
0.0
 10
574.6687376996769
 20
57.71009336067468
 30
0.0
 10
577.0519969321894
 20
58.03420545056487
 30
0.0
 10
579.1365744440416
 20
58.44121570944971
 30
0.0
 10
580.3651153044376
 20
58.77480620115805
 30
0.0
 10
580.8875505434127
 20
58.91666507933929
 30
0.0
  0
SPLINE
  5
4B
330
1F
100
AcDbEntity
  8
0
  6
Continuous
 62
     7
370
    15
100
AcDbSpline
210
0.0
220
0.0
230
1.0
 70
     8
 71
     3
 72
     9
 73
     5
 74
     0
 42
0.00000001
 43
0.00000001
 12
1.0
 22
0.0
 32
0.0
 13
1.0
 23
0.0
 33
0.0
 40
0.0
 40
0.0
 40
0.0
 40
0.0
 40
0.7029898716593043
 40
1.0
 40
1.0
 40
1.0
 40
1.0
 10
581.593802254066
 20
59.6928963682492
 30
0.0
 10
581.9771451857489
 20
61.69060754976807
 30
0.0
 10
582.5224488197518
 20
64.53234291759574
 30
0.0
 10
583.2204178257547
 20
67.44166840260563
 30
0.0
 10
583.4277216898055
 20
68.30576753829315
 30
0.0
  0
SPLINE
  5
4C
330
1F
100
AcDbEntity
  8
0
  6
Continuous
 62
     7
370
    15
100
AcDbSpline
210
0.0
220
0.0
230
1.0
 70
     8
 71
     3
 72
     9
 73
     5
 74
     0
 42
0.00000001
 43
0.00000001
 12
1.0
 22
0.0
 32
0.0
 13
1.0
 23
0.0
 33
0.0
 40
0.0
 40
0.0
 40
0.0
 40
0.0
 40
0.622014399235646
 40
1.0
 40
1.0
 40
1.0
 40
1.0
 10
556.5264840231986
 20
68.30576753829315
 30
0.0
 10
556.9471307203765
 20
66.49948038636249
 30
0.0
 10
557.623395928537
 20
63.59554897552966
 30
0.0
 10
558.1334685265426
 20
60.77471689244008
 30
0.0
 10
558.3262686239333
 20
59.70848298285797
 30
0.0
  0
ARC
  5
4D
330
1F
100
AcDbEntity
  8
0
  6
Continuous
 62
     7
370
    15
100
AcDbCircle
 10
430.6101727186
 20
59.8774400473
 30
0.0
 40
1.000000000000007
100
AcDbArc
 50
286.1036910379
 51
349.3444562998
  0
ARC
  5
4E
330
1F
100
AcDbEntity
  8
0
  6
Continuous
 62
     7
370
    15
100
AcDbCircle
 10
409.3405661977
 20
59.8774400473
 30
0.0
 40
0.9999999999999787
100
AcDbArc
 50
190.6555437001
 51
253.8963089622
  0
SPLINE
  5
4F
330
1F
100
AcDbEntity
  8
0
  6
Continuous
 62
     7
370
    15
100
AcDbSpline
210
0.0
220
0.0
230
1.0
 70
     8
 71
     3
 72
    17
 73
    13
 74
     0
 42
0.00000001
 43
0.00000001
 12
1.0
 22
0.0
 32
0.0
 13
1.0
 23
0.0
 33
0.0
 40
0.0
 40
0.0
 40
0.0
 40
0.0
 40
0.0568460979690772
 40
0.165128636040803
 40
0.2731859684059131
 40
0.3810463899345087
 40
0.4887963926205792
 40
0.5965120523712418
 40
0.7042563176144917
 40
0.8120889296525343
 40
0.920090945098348
 40
1.0
 40
1.0
 40
1.0
 40
1.0
 10
409.0631921397299
 20
58.91666507933929
 30
0.0
 10
409.4329661094627
 20
58.81455409794345
 30
0.0
 10
410.5070991361231
 20
58.51793836379299
 30
0.0
 10
412.4073072824575
 20
58.11867846419205
 30
0.0
 10
414.7747228922136
 20
57.76680509962823
 30
0.0
 10
417.2244185306527
 20
57.54930200319164
 30
0.0
 10
419.7152167714732
 20
57.46678271118932
 30
0.0
 10
422.2092740053276
 20
57.52091708289658
 30
0.0
 10
424.6687390898338
 20
57.71009344982819
 30
0.0
 10
427.0519977196152
 20
58.03420497254314
 30
0.0
 10
429.1365736093693
 20
58.44121657824613
 30
0.0
 10
430.3651154507752
 20
58.77480628384579
 30
0.0
 10
430.8875520335288
 20
58.91666507933929
 30
0.0
  0
SPLINE
  5
50
330
1F
100
AcDbEntity
  8
0
  6
Continuous
 62
     7
370
    15
100
AcDbSpline
210
0.0
220
0.0
230
1.0
 70
     8
 71
     3
 72
     9
 73
     5
 74
     0
 42
0.00000001
 43
0.00000001
 12
1.0
 22
0.0
 32
0.0
 13
1.0
 23
0.0
 33
0.0
 40
0.0
 40
0.0
 40
0.0
 40
0.0
 40
0.702989860543229
 40
0.9999999999999999
 40
0.9999999999999999
 40
0.9999999999999999
 40
0.9999999999999999
 10
431.5938074694724
 20
59.6928963682492
 30
0.0
 10
431.9771487322992
 20
61.69060758812917
 30
0.0
 10
432.5224500009841
 20
64.5323430554603
 30
0.0
 10
433.2204192391557
 20
67.44166840924149
 30
0.0
 10
433.4277231799216
 20
68.30576753829315
 30
0.0
  0
SPLINE
  5
51
330
1F
100
AcDbEntity
  8
0
  6
Continuous
 62
     7
370
    15
100
AcDbSpline
210
0.0
220
0.0
230
1.0
 70
     8
 71
     3
 72
     9
 73
     5
 74
     0
 42
0.00000001
 43
0.00000001
 12
1.0
 22
0.0
 32
0.0
 13
1.0
 23
0.0
 33
0.0
 40
0.0
 40
0.0
 40
0.0
 40
0.0
 40
0.6220143623340283
 40
1.0
 40
1.0
 40
1.0
 40
1.0
 10
406.5264855133147
 20
68.30576753829315
 30
0.0
 10
406.9471299618557
 20
66.49948030103215
 30
0.0
 10
407.6233915950477
 20
63.59554858073702
 30
0.0
 10
408.1334684055668
 20
60.77471685968749
 30
0.0
 10
408.3262701140494
 20
59.70848298285797
 30
0.0
  0
ELLIPSE
  5
52
330
1F
100
AcDbEntity
  8
0
  6
Continuous
 62
     7
370
    15
100
AcDbEllipse
 10
691.467729783
 20
961.8271376492
 30
0.0
 11
1.42499721578065
 21
1.424997215780536
 31
0.0
210
0.0
220
0.0
230
1.0
 40
0.9924325091
 41
5.501585242055474
 42
7.064785372303792
  0
ELLIPSE
  5
53
330
1F
100
AcDbEntity
  8
0
  6
Continuous
 62
     7
370
    15
100
AcDbEllipse
 10
298.4830091332
 20
961.8271376492
 30
0.0
 11
-1.424997215780536
 21
1.424997215780536
 31
0.0
210
0.0
220
0.0
230
1.0
 40
0.9924325091
 41
5.501585242055484
 42
7.064785372303701
  0
LINE
  5
54
330
1F
100
AcDbEntity
  8
0
  6
Continuous
 62
     7
370
    15
100
AcDbLine
 10
693.4753675567
 20
899.8271594069
 30
0.0
 11
693.4753675567
 21
961.8423948309
 31
0.0
  0
LINE
  5
55
330
1F
100
AcDbEntity
  8
0
  6
Continuous
 62
     7
370
    15
100
AcDbLine
 10
691.4829779969
 20
963.8347694895
 30
0.0
 11
298.4677572356
 21
963.8347694895
 31
0.0
  0
LINE
  5
56
330
1F
100
AcDbEntity
  8
0
  6
Continuous
 62
     7
370
    15
100
AcDbLine
 10
296.4753676759
 20
961.8423948309
 30
0.0
 11
296.4753676759
 21
899.8271594069
 31
0.0
  0
LINE
  5
57
330
1F
100
AcDbEntity
  8
0
  6
Continuous
 62
     7
370
    15
100
AcDbLine
 10
679.4737745629
 20
942.1678850672
 30
0.0
 11
679.4737745629
 21
939.1042361281
 31
0.0
  0
LINE
  5
58
330
1F
100
AcDbEntity
  8
0
  6
Continuous
 62
     7
370
    15
100
AcDbLine
 10
679.4737745629
 20
922.5653181097
 30
0.0
 11
679.4737745629
 21
919.5016691706
 31
0.0
  0
LINE
  5
59
330
1F
100
AcDbEntity
  8
0
  6
Continuous
 62
     7
370
    15
100
AcDbLine
 10
585.4769629048
 20
946.6214249155
 30
0.0
 11
585.4769629048
 21
915.0481293223
 31
0.0
  0
LINE
  5
5A
330
1F
100
AcDbEntity
  8
0
  6
Continuous
 62
     7
370
    15
100
AcDbLine
 10
489.4737769471
 20
914.2361352465
 30
0.0
 11
489.4737769471
 21
947.4334189913
 31
0.0
  0
LINE
  5
5B
330
1F
100
AcDbEntity
  8
0
  6
Continuous
 62
     7
370
    15
100
AcDbLine
 10
415.4769648419
 20
946.9431409857
 30
0.0
 11
415.4769648419
 21
914.7264132521
 31
0.0
  0
LINE
  5
5C
330
1F
100
AcDbEntity
  8
0
  6
Continuous
 62
     7
370
    15
100
AcDbLine
 10
500.4769620107
 20
947.4334189913
 30
0.0
 11
500.4769620107
 21
914.2361352465
 31
0.0
  0
LINE
  5
5D
330
1F
100
AcDbEntity
  8
0
  6
Continuous
 62
     7
370
    15
100
AcDbLine
 10
310.4769606696
 20
942.1678850672
 30
0.0
 11
310.4769606696
 21
939.1042361281
 31
0.0
  0
LINE
  5
5E
330
1F
100
AcDbEntity
  8
0
  6
Continuous
 62
     7
370
    15
100
AcDbLine
 10
310.4769606696
 20
922.5653181097
 30
0.0
 11
310.4769606696
 21
919.5016691706
 31
0.0
  0
LINE
  5
5F
330
1F
100
AcDbEntity
  8
0
  6
Continuous
 62
     7
370
    15
100
AcDbLine
 10
574.4737778412
 20
914.7264132521
 30
0.0
 11
574.4737778412
 21
946.9431409857
 31
0.0
  0
LINE
  5
60
330
1F
100
AcDbEntity
  8
0
  6
Continuous
 62
     7
370
    15
100
AcDbLine
 10
404.4737760531
 20
915.0481293223
 30
0.0
 11
404.4737760531
 21
946.6214249155
 31
0.0
  0
ELLIPSE
  5
61
330
1F
100
AcDbEntity
  8
0
  6
Continuous
 62
     7
370
    15
100
AcDbEllipse
 10
691.467729783
 20
899.8424169993
 30
0.0
 11
1.42499721578065
 21
-1.424997215780422
 31
0.0
210
0.0
220
0.0
230
1.0
 40
0.9924325091
 41
5.501585242055374
 42
7.064785372303709
  0
ELLIPSE
  5
62
330
1F
100
AcDbEntity
  8
0
  6
Continuous
 62
     7
370
    15
100
AcDbEllipse
 10
298.4830091332
 20
899.8424169993
 30
0.0
 11
-1.424997215780536
 21
-1.424997215780422
 31
0.0
210
0.0
220
0.0
230
1.0
 40
0.9924325091
 41
5.501585242055477
 42
7.06478537230376
  0
LINE
  5
63
330
1F
100
AcDbEntity
  8
0
  6
Continuous
 62
     7
370
    15
100
AcDbLine
 10
298.4677572356
 20
897.8347847483
 30
0.0
 11
691.4829779969
 21
897.8347847483
 31
0.0
  0
SPLINE
  5
64
330
1F
100
AcDbEntity
  8
0
  6
Continuous
 62
     7
370
    15
100
AcDbSpline
210
0.0
220
0.0
230
1.0
 70
     8
 71
     3
 72
    19
 73
    15
 74
     0
 42
0.00000001
 43
0.00000001
 12
1.0
 22
0.0
 32
0.0
 13
1.0
 23
0.0
 33
0.0
 40
0.0
 40
0.0
 40
0.0
 40
0.0
 40
0.3243822592986701
 40
0.5392468181784117
 40
0.682225962982234
 40
0.7780898359527162
 40
0.8430815435845614
 40
0.8878405669567746
 40
0.9311137231210616
 40
0.9564453169168113
 40
0.97258384195537
 40
0.9849247893906067
 40
0.9973175540941693
 40
1.0
 40
1.0
 40
1.0
 40
1.0
 10
311.0893834935279
 20
922.1820304415068
 30
0.0
 10
311.0220692102423
 20
922.3221137120792
 30
0.0
 10
310.9101672426125
 20
922.5549854421781
 30
0.0
 10
310.7678736290976
 20
922.8007087841472
 30
0.0
 10
310.6727892194787
 20
922.9265850663606
 30
0.0
 10
310.6088391288587
 20
922.9768453534725
 30
0.0
 10
310.5654468191196
 20
922.9816923473127
 30
0.0
 10
310.5332324704299
 20
922.9571919730923
 30
0.0
 10
310.509564399158
 20
922.9099255096543
 30
0.0
 10
310.4927682869379
 20
922.835258939209
 30
0.0
 10
310.483473357834
 20
922.7569694572213
 30
0.0
 10
310.4784753550182
 20
922.6744140455312
 30
0.0
 10
310.4770419497552
 20
922.6082678449542
 30
0.0
 10
310.4769729476813
 20
922.5718060346081
 30
0.0
 10
310.4769606696219
 20
922.5653181097349
 30
0.0
  0
SPLINE
  5
65
330
1F
100
AcDbEntity
  8
0
  6
Continuous
 62
     7
370
    15
100
AcDbSpline
210
0.0
220
0.0
230
1.0
 70
     8
 71
     3
 72
    14
 73
    10
 74
     0
 42
0.00000001
 43
0.00000001
 12
1.0
 22
0.0
 32
0.0
 13
1.0
 23
0.0
 33
0.0
 40
0.0
 40
0.0
 40
0.0
 40
0.0
 40
0.0119836271142221
 40
0.0239896520347221
 40
0.0398801592832981
 40
0.0687356764189205
 40
0.1675500497094602
 40
0.641138284488657
 40
1.0
 40
1.0
 40
1.0
 40
1.0
 10
310.4769606696219
 20
939.104236128076
 30
0.0
 10
310.4771868116009
 20
939.0750642034457
 30
0.0
 10
310.4776395182258
 20
939.0166658308666
 30
0.0
 10
310.4820126824942
 20
938.9310095286745
 30
0.0
 10
310.4912721208187
 20
938.8410514666266
 30
0.0
 10
310.519824398282
 20
938.7123857916681
 30
0.0
 10
310.6479374317269
 20
938.6362947364872
 30
0.0
 10
310.8422309768015
 20
938.9871136927748
 30
0.0
 10
311.0149331387706
 20
939.3367840416564
 30
0.0
 10
311.0893834935279
 20
939.4875237963041
 30
0.0
  0
LINE
  5
66
330
1F
100
AcDbEntity
  8
0
  6
Continuous
 62
     7
370
    15
100
AcDbLine
 10
311.0893834935
 20
939.4875237963
 30
0.0
 11
312.1846486436
 21
937.7648899577
 31
0.0
  0
LINE
  5
67
330
1F
100
AcDbEntity
  8
0
  6
Continuous
 62
     7
370
    15
100
AcDbLine
 10
312.1846486436
 20
923.9046642802
 30
0.0
 11
311.0893834935
 21
922.1820304415
 31
0.0
  0
LINE
  5
68
330
1F
100
AcDbEntity
  8
0
  6
Continuous
 62
     7
370
    15
100
AcDbLine
 10
678.861351739
 20
922.1820304415
 30
0.0
 11
677.766086589
 21
923.9046642802
 31
0.0
  0
LINE
  5
69
330
1F
100
AcDbEntity
  8
0
  6
Continuous
 62
     7
370
    15
100
AcDbLine
 10
677.766086589
 20
937.7648899577
 30
0.0
 11
678.861351739
 21
939.4875237963
 31
0.0
  0
SPLINE
  5
6A
330
1F
100
AcDbEntity
  8
0
  6
Continuous
 62
     7
370
    15
100
AcDbSpline
210
0.0
220
0.0
230
1.0
 70
     8
 71
     3
 72
    19
 73
    15
 74
     0
 42
0.00000001
 43
0.00000001
 12
1.0
 22
0.0
 32
0.0
 13
1.0
 23
0.0
 33
0.0
 40
0.0
 40
0.0
 40
0.0
 40
0.0
 40
0.3243822361534888
 40
0.5392467797023082
 40
0.6822259143043451
 40
0.77808978043479
 40
0.8430816623459904
 40
0.8878406825245773
 40
0.9311138356012568
 40
0.9564452628218132
 40
0.9725837867088628
 40
0.9849248334794604
 40
0.9973175542855659
 40
1.0
 40
1.0
 40
1.0
 40
1.0
 10
678.8613517390341
 20
939.4875237963041
 30
0.0
 10
678.9286663802185
 20
939.3474405247376
 30
0.0
 10
679.0405689428125
 20
939.1145687929867
 30
0.0
 10
679.1828595551394
 20
938.8688454593513
 30
0.0
 10
679.277950284372
 20
938.742969159589
 30
0.0
 10
679.3418871528614
 20
938.6927088797021
 30
0.0
 10
679.3853077256265
 20
938.6878618357061
 30
0.0
 10
679.4175143867196
 20
938.7123623480466
 30
0.0
 10
679.4411933962341
 20
938.7596284034976
 30
0.0
 10
679.4579683946864
 20
938.8342954420679
 30
0.0
 10
679.4672529411425
 20
938.9125852731509
 30
0.0
 10
679.4722863409542
 20
938.9951395286523
 30
0.0
 10
679.4736921562771
 20
939.06128652368
 30
0.0
 10
679.4737621146787
 20
939.0977482072493
 30
0.0
 10
679.4737745629401
 20
939.104236128076
 30
0.0
  0
SPLINE
  5
6B
330
1F
100
AcDbEntity
  8
0
  6
Continuous
 62
     7
370
    15
100
AcDbSpline
210
0.0
220
0.0
230
1.0
 70
     8
 71
     3
 72
    14
 73
    10
 74
     0
 42
0.00000001
 43
0.00000001
 12
1.0
 22
0.0
 32
0.0
 13
1.0
 23
0.0
 33
0.0
 40
0.0
 40
0.0
 40
0.0
 40
0.0
 40
0.0127090502787382
 40
0.0254433398179132
 40
0.0421331550876735
 40
0.0735989512780006
 40
0.1869919718189344
 40
0.6362534527089202
 40
1.0
 40
1.0
 40
1.0
 40
1.0
 10
679.4737745629401
 20
922.5653181097349
 30
0.0
 10
679.4735213967132
 20
922.5962862321009
 30
0.0
 10
679.4730145614894
 20
922.6582839772985
 30
0.0
 10
679.4681173458923
 20
922.7472318270497
 30
0.0
 10
679.457878297345
 20
922.8392901045188
 30
0.0
 10
679.4253177018683
 20
922.9716795754512
 30
0.0
 10
679.2987558005748
 20
923.0093641886612
 30
0.0
 10
679.1055188383546
 20
922.6804634202489
 30
0.0
 10
678.9368262187523
 20
922.3361010343494
 30
0.0
 10
678.8613517390341
 20
922.1820304415068
 30
0.0
  0
ARC
  5
6C
330
1F
100
AcDbEntity
  8
0
  6
Continuous
 62
     7
370
    15
100
AcDbCircle
 10
304.9753694581
 20
930.8347773243
 30
0.0
 40
10.00000000000002
100
AcDbArc
 50
316.1311450389
 51
43.8688549611
  0
ARC
  5
6D
330
1F
100
AcDbEntity
  8
0
  6
Continuous
 62
     7
370
    15
100
AcDbCircle
 10
684.9753694581
 20
930.8347773243
 30
0.0
 40
9.999999999999934
100
AcDbArc
 50
136.1311450389
 51
223.8688549611
  0
ARC
  5
6E
330
1F
100
AcDbEntity
  8
0
  6
Continuous
 62
     7
370
    15
100
AcDbCircle
 10
494.9753694581
 20
6462.3764439909
 30
0.0
 40
5553.154087311349
100
AcDbArc
 50
270.1083239506
 51
270.7694911169
  0
ARC
  5
6F
330
1F
100
AcDbEntity
  8
0
  6
Continuous
 62
     7
370
    15
100
AcDbCircle
 10
494.9753694581
 20
-4600.7068893424
 30
0.0
 40
5553.154087311351
100
AcDbArc
 50
90.1083239506
 51
90.7694911169
  0
ARC
  5
70
330
1F
100
AcDbEntity
  8
0
  6
Continuous
 62
     7
370
    15
100
AcDbCircle
 10
494.9753694581
 20
6462.3764439909
 30
0.0
 40
5553.154087311349
100
AcDbArc
 50
269.2305088831
 51
269.8916760494
  0
ARC
  5
71
330
1F
100
AcDbEntity
  8
0
  6
Continuous
 62
     7
370
    15
100
AcDbCircle
 10
494.9753694581
 20
-4600.7068893424
 30
0.0
 40
5553.154087311351
100
AcDbArc
 50
89.2305088831
 51
89.8916760494
  0
SPLINE
  5
72
330
1F
100
AcDbEntity
  8
0
  6
Continuous
 62
     7
370
    15
100
AcDbSpline
210
0.0
220
0.0
230
1.0
 70
     8
 71
     3
 72
    12
 73
     8
 74
     0
 42
0.00000001
 43
0.00000001
 12
1.0
 22
0.0
 32
0.0
 13
1.0
 23
0.0
 33
0.0
 40
0.0
 40
0.0
 40
0.0
 40
0.0
 40
0.2154602913846399
 40
0.430944966965004
 40
0.6457528437022706
 40
0.8597528651899284
 40
1.0
 40
1.0
 40
1.0
 40
1.0
 10
489.4737769471258
 20
947.4334189913114
 30
0.0
 10
489.4184610328647
 20
947.9978294433489
 30
0.0
 10
489.3078229440979
 20
949.1267142232074
 30
0.0
 10
488.4434078488907
 20
950.6301072565369
 30
0.0
 10
487.1721122829189
 20
951.76053962814
 30
0.0
 10
485.7679361524499
 20
952.3550841240854
 30
0.0
 10
484.8427958256797
 20
952.4139525849384
 30
0.0
 10
484.4765309797377
 20
952.4372587225279
 30
0.0
  0
SPLINE
  5
73
330
1F
100
AcDbEntity
  8
0
  6
Continuous
 62
     7
370
    15
100
AcDbSpline
210
0.0
220
0.0
230
1.0
 70
     8
 71
     3
 72
    12
 73
     8
 74
     0
 42
0.00000001
 43
0.00000001
 12
1.0
 22
0.0
 32
0.0
 13
1.0
 23
0.0
 33
0.0
 40
0.0
 40
0.0
 40
0.0
 40
0.0
 40
0.2154602403888944
 40
0.4309448649677418
 40
0.6457526908636784
 40
0.8597526617012115
 40
1.0
 40
1.0
 40
1.0
 40
1.0
 10
500.4769620107264
 20
914.2361352464994
 30
0.0
 10
500.532277924972
 20
913.6717247945694
 30
0.0
 10
500.6429160137075
 20
912.5428400149259
 30
0.0
 10
501.5073311091492
 20
911.0394469799846
 30
0.0
 10
502.7786266742337
 20
909.90901461448
 30
0.0
 10
504.1828033916538
 20
909.3144698511624
 30
0.0
 10
505.1079443653124
 20
909.2556015954261
 30
0.0
 10
505.4742098407597
 20
909.232295515283
 30
0.0
  0
SPLINE
  5
74
330
1F
100
AcDbEntity
  8
0
  6
Continuous
 62
     7
370
    15
100
AcDbSpline
210
0.0
220
0.0
230
1.0
 70
     8
 71
     3
 72
    12
 73
     8
 74
     0
 42
0.00000001
 43
0.00000001
 12
1.0
 22
0.0
 32
0.0
 13
1.0
 23
0.0
 33
0.0
 40
0.0
 40
0.0
 40
0.0
 40
0.0
 40
0.213737229291009
 40
0.4274806035407288
 40
0.6411730743706586
 40
0.8553622819346945
 40
1.0
 40
1.0
 40
1.0
 40
1.0
 10
484.4765309797377
 20
909.232295515283
 30
0.0
 10
485.0365490664037
 20
909.2862201912584
 30
0.0
 10
486.1566013402905
 20
909.3940710935468
 30
0.0
 10
487.6506158762469
 20
910.2499171185999
 30
0.0
 10
488.7800562956536
 20
911.5121188386618
 30
0.0
 10
489.3858997399678
 20
912.921296219869
 30
0.0
 10
489.4485311649792
 20
913.858402035604
 30
0.0
 10
489.4737769471259
 20
914.2361352464994
 30
0.0
  0
SPLINE
  5
75
330
1F
100
AcDbEntity
  8
0
  6
Continuous
 62
     7
370
    15
100
AcDbSpline
210
0.0
220
0.0
230
1.0
 70
     8
 71
     3
 72
    12
 73
     8
 74
     0
 42
0.00000001
 43
0.00000001
 12
1.0
 22
0.0
 32
0.0
 13
1.0
 23
0.0
 33
0.0
 40
0.0
 40
0.0
 40
0.0
 40
0.0
 40
0.2137371841008208
 40
0.4274807216128124
 40
0.6411733059540814
 40
0.8553622857425871
 40
1.0
 40
1.0
 40
1.0
 40
1.0
 10
505.4742098407597
 20
952.4372587225279
 30
0.0
 10
504.9141917436257
 20
952.3833339799826
 30
0.0
 10
503.7941389026275
 20
952.2754828919608
 30
0.0
 10
502.3001237588592
 20
951.419637036884
 30
0.0
 10
501.1706794935582
 20
950.1574369496046
 30
0.0
 10
500.5648424984303
 20
948.7482570693717
 30
0.0
 10
500.5022087464632
 20
947.8111520963586
 30
0.0
 10
500.4769620107264
 20
947.4334189913114
 30
0.0
  0
SPLINE
  5
76
330
1F
100
AcDbEntity
  8
0
  6
Continuous
 62
     7
370
    15
100
AcDbSpline
210
0.0
220
0.0
230
1.0
 70
     8
 71
     3
 72
    12
 73
     8
 74
     0
 42
0.00000001
 43
0.00000001
 12
1.0
 22
0.0
 32
0.0
 13
1.0
 23
0.0
 33
0.0
 40
0.0
 40
0.0
 40
0.0
 40
0.0
 40
0.2175556476691351
 40
0.4351416127363561
 40
0.6520490598056323
 40
0.8681522980618367
 40
1.0
 40
1.0
 40
1.0
 40
1.0
 10
574.4737778411956
 20
946.9431409857115
 30
0.0
 10
574.4184612859101
 20
947.5075054046608
 30
0.0
 10
574.3078204667181
 20
948.636312889384
 30
0.0
 10
573.4434736121816
 20
950.1395375528166
 30
0.0
 10
572.1721951161269
 20
951.2702229836742
 30
0.0
 10
570.7920385288163
 20
951.8537786600004
 30
0.0
 10
569.893369785924
 20
951.9209367250396
 30
0.0
 10
569.5528407202811
 20
951.9463846704801
 30
0.0
  0
SPLINE
  5
77
330
1F
100
AcDbEntity
  8
0
  6
Continuous
 62
     7
370
    15
100
AcDbSpline
210
0.0
220
0.0
230
1.0
 70
     8
 71
     3
 72
    12
 73
     8
 74
     0
 42
0.00000001
 43
0.00000001
 12
1.0
 22
0.0
 32
0.0
 13
1.0
 23
0.0
 33
0.0
 40
0.0
 40
0.0
 40
0.0
 40
0.0
 40
0.2175554807139254
 40
0.4351413593962919
 40
0.6520487203500952
 40
0.8681518728101096
 40
1.0
 40
1.0
 40
1.0
 40
1.0
 10
415.4769648419471
 20
914.7264132520994
 30
0.0
 10
415.5322798531119
 20
914.1620487842631
 30
0.0
 10
415.6429176043389
 20
913.0332409926905
 30
0.0
 10
416.5072656112714
 20
911.5300167257752
 30
0.0
 10
417.7785437700609
 20
910.3993312603861
 30
0.0
 10
419.158701606223
 20
909.8157750284041
 30
0.0
 10
420.0573716414257
 20
909.7486174033138
 30
0.0
 10
420.3979019628615
 20
909.7231695673307
 30
0.0
  0
SPLINE
  5
78
330
1F
100
AcDbEntity
  8
0
  6
Continuous
 62
     7
370
    15
100
AcDbSpline
210
0.0
220
0.0
230
1.0
 70
     8
 71
     3
 72
    12
 73
     8
 74
     0
 42
0.00000001
 43
0.00000001
 12
1.0
 22
0.0
 32
0.0
 13
1.0
 23
0.0
 33
0.0
 40
0.0
 40
0.0
 40
0.0
 40
0.0
 40
0.2158351557496266
 40
0.431676339078906
 40
0.6474818446980558
 40
0.8638045447823014
 40
1.0
 40
1.0
 40
1.0
 40
1.0
 10
420.3979019628615
 20
951.9463846704801
 30
0.0
 10
419.8387668951934
 20
951.8838840634817
 30
0.0
 10
418.7204811450184
 20
951.7588811040445
 30
0.0
 10
417.2398063679823
 20
950.8801994841258
 30
0.0
 10
416.1294309337584
 20
949.6007615260322
 30
0.0
 10
415.5559948293082
 20
948.206671747667
 30
0.0
 10
415.4989890394992
 20
947.2952636677933
 30
0.0
 10
415.4769648419471
 20
946.9431409857115
 30
0.0
  0
SPLINE
  5
79
330
1F
100
AcDbEntity
  8
0
  6
Continuous
 62
     7
370
    15
100
AcDbSpline
210
0.0
220
0.0
230
1.0
 70
     8
 71
     3
 72
    12
 73
     8
 74
     0
 42
0.00000001
 43
0.00000001
 12
1.0
 22
0.0
 32
0.0
 13
1.0
 23
0.0
 33
0.0
 40
0.0
 40
0.0
 40
0.0
 40
0.0
 40
0.2158347740545521
 40
0.4316760485666254
 40
0.6474816453534972
 40
0.863804436823955
 40
1.0
 40
1.0
 40
1.0
 40
1.0
 10
569.5528407202811
 20
909.7231695673307
 30
0.0
 10
570.1119745119444
 20
909.7856703555002
 30
0.0
 10
571.2302589351222
 20
909.9106738142219
 30
0.0
 10
572.710932447812
 20
910.7893547571848
 30
0.0
 10
573.8213085518571
 20
912.0687926590218
 30
0.0
 10
574.3947425144327
 20
913.462882789695
 30
0.0
 10
574.4517521520413
 20
914.3742905957937
 30
0.0
 10
574.4737778411956
 20
914.7264132520994
 30
0.0
  0
ARC
  5
7A
330
1F
100
AcDbEntity
  8
0
  6
Continuous
 62
     7
370
    15
100
AcDbCircle
 10
320.2285609739
 20
922.5901954376
 30
0.0
 40
10.61242064468152
100
AcDbArc
 50
213.2125857976
 51
268.1932631805
  0
LINE
  5
7B
330
1F
100
AcDbEntity
  8
0
  6
Continuous
 62
     7
370
    15
100
AcDbLine
 10
311.3497365819
 20
916.7772600672
 30
0.0
 11
311.1423869239
 21
917.1118209383
 31
0.0
  0
ARC
  5
7C
330
1F
100
AcDbEntity
  8
0
  6
Continuous
 62
     7
370
    15
100
AcDbCircle
 10
669.7221779422
 20
939.0793592109
 30
0.0
 40
10.61242064468143
100
AcDbArc
 50
33.2125857976
 51
88.1932631805
  0
LINE
  5
7D
330
1F
100
AcDbEntity
  8
0
  6
Continuous
 62
     7
370
    15
100
AcDbLine
 10
678.6009986507
 20
944.8922941706
 30
0.0
 11
678.8083632098
 21
944.5577332995
 31
0.0
  0
ARC
  5
7E
330
1F
100
AcDbEntity
  8
0
  6
Continuous
 62
     7
370
    15
100
AcDbCircle
 10
669.7221779422
 20
922.5901954376
 30
0.0
 40
10.61242064468174
100
AcDbArc
 50
271.8067368195
 51
326.7874142024
  0
LINE
  5
7F
330
1F
100
AcDbEntity
  8
0
  6
Continuous
 62
     7
370
    15
100
AcDbLine
 10
678.8083632098
 20
917.1118209383
 30
0.0
 11
678.6009986507
 21
916.7772600672
 31
0.0
  0
ARC
  5
80
330
1F
100
AcDbEntity
  8
0
  6
Continuous
 62
     7
370
    15
100
AcDbCircle
 10
320.2285609739
 20
939.0793592109
 30
0.0
 40
10.61242064468158
100
AcDbArc
 50
91.8067368195
 51
146.7874142024
  0
LINE
  5
81
330
1F
100
AcDbEntity
  8
0
  6
Continuous
 62
     7
370
    15
100
AcDbLine
 10
311.1423869239
 20
944.5577332995
 30
0.0
 11
311.3497365819
 21
944.8922941706
 31
0.0
  0
SPLINE
  5
82
330
1F
100
AcDbEntity
  8
0
  6
Continuous
 62
     7
370
    15
100
AcDbSpline
210
0.0
220
0.0
230
1.0
 70
     8
 71
     3
 72
    12
 73
     8
 74
     0
 42
0.00000001
 43
0.00000001
 12
1.0
 22
0.0
 32
0.0
 13
1.0
 23
0.0
 33
0.0
 40
0.0
 40
0.0
 40
0.0
 40
0.0
 40
0.2116832788363296
 40
0.4233751870299233
 40
0.6349944281532105
 40
0.8470935146554952
 40
1.0
 40
1.0
 40
1.0
 40
1.0
 10
399.4002212391944
 20
910.0448856375059
 30
0.0
 10
399.9609957484276
 20
910.0902203076604
 30
0.0
 10
401.0825676271012
 20
910.1808914960566
 30
0.0
 10
402.5895344522764
 20
911.0137576729484
 30
0.0
 10
403.7378317934433
 20
912.2583817607775
 30
0.0
 10
404.3766207013524
 20
913.681984191238
 30
0.0
 10
404.4450922578923
 20
914.6447935675709
 30
0.0
 10
404.4737760530562
 20
915.0481293222746
 30
0.0
  0
SPLINE
  5
83
330
1F
100
AcDbEntity
  8
0
  6
Continuous
 62
     7
370
    15
100
AcDbSpline
210
0.0
220
0.0
230
1.0
 70
     8
 71
     3
 72
    12
 73
     8
 74
     0
 42
0.00000001
 43
0.00000001
 12
1.0
 22
0.0
 32
0.0
 13
1.0
 23
0.0
 33
0.0
 40
0.0
 40
0.0
 40
0.0
 40
0.0
 40
0.2134007393303496
 40
0.4268277113641376
 40
0.6395796854876826
 40
0.8515212908488314
 40
1.0
 40
1.0
 40
1.0
 40
1.0
 10
585.4769629047961
 20
915.0481293222746
 30
0.0
 10
585.5322807187664
 20
914.4836932157548
 30
0.0
 10
585.6429231467574
 20
913.3547516183023
 30
0.0
 10
586.5074018216759
 20
911.8512092088126
 30
0.0
 10
587.7787164009119
 20
910.7210256755789
 30
0.0
 10
589.2069130950333
 20
910.1154800505433
 30
0.0
 10
590.1585041203239
 20
910.0654825866718
 30
0.0
 10
590.5505214439482
 20
910.0448856375059
 30
0.0
  0
SPLINE
  5
84
330
1F
100
AcDbEntity
  8
0
  6
Continuous
 62
     7
370
    15
100
AcDbSpline
210
0.0
220
0.0
230
1.0
 70
     8
 71
     3
 72
    12
 73
     8
 74
     0
 42
0.00000001
 43
0.00000001
 12
1.0
 22
0.0
 32
0.0
 13
1.0
 23
0.0
 33
0.0
 40
0.0
 40
0.0
 40
0.0
 40
0.0
 40
0.213400703635185
 40
0.4268279476205479
 40
0.6395796122990872
 40
0.8515212606980664
 40
1.0
 40
1.0
 40
1.0
 40
1.0
 10
404.4737760530562
 20
946.6214249155363
 30
0.0
 10
404.4184601282439
 20
947.185861293253
 30
0.0
 10
404.3078213990544
 20
948.3148042468574
 30
0.0
 10
403.4433361943248
 20
949.8183425358924
 30
0.0
 10
402.1720264248003
 20
950.9485298643124
 30
0.0
 10
400.7438294200174
 20
951.5540740342785
 30
0.0
 10
399.7922385137754
 20
951.604071606502
 30
0.0
 10
399.4002212391943
 20
951.624668600305
 30
0.0
  0
SPLINE
  5
85
330
1F
100
AcDbEntity
  8
0
  6
Continuous
 62
     7
370
    15
100
AcDbSpline
210
0.0
220
0.0
230
1.0
 70
     8
 71
     3
 72
    12
 73
     8
 74
     0
 42
0.00000001
 43
0.00000001
 12
1.0
 22
0.0
 32
0.0
 13
1.0
 23
0.0
 33
0.0
 40
0.0
 40
0.0
 40
0.0
 40
0.0
 40
0.2116841224248681
 40
0.4233751091642409
 40
0.6349945812206773
 40
0.847093578777827
 40
1.0
 40
1.0
 40
1.0
 40
1.0
 10
590.5505214439482
 20
951.624668600305
 30
0.0
 10
589.9897440934601
 20
951.5793347723627
 30
0.0
 10
588.8681712080677
 20
951.4886656464308
 30
0.0
 10
587.3612072102717
 20
950.6557928608598
 30
0.0
 10
586.2129067234617
 20
949.411174142824
 30
0.0
 10
585.5741183921843
 20
947.9875698969857
 30
0.0
 10
585.5056467400191
 20
947.0247606260763
 30
0.0
 10
585.4769629047961
 20
946.6214249155363
 30
0.0
  0
ARC
  5
86
330
1F
100
AcDbEntity
  8
0
  6
Continuous
 62
     7
370
    15
100
AcDbCircle
 10
494.9753694581
 20
6462.3764439909
 30
0.0
 40
5553.154087311348
100
AcDbArc
 50
268.1932631805
 51
269.0138355523
  0
ARC
  5
87
330
1F
100
AcDbEntity
  8
0
  6
Continuous
 62
     7
370
    15
100
AcDbCircle
 10
494.9753694581
 20
-4600.7068893424
 30
0.0
 40
5553.15408731135
100
AcDbArc
 50
88.1932631805
 51
89.0138355523
  0
ARC
  5
88
330
1F
100
AcDbEntity
  8
0
  6
Continuous
 62
     7
370
    15
100
AcDbCircle
 10
494.9753694581
 20
-4600.7068893424
 30
0.0
 40
5553.154087311351
100
AcDbArc
 50
90.9861644477
 51
91.8067368195
  0
ARC
  5
89
330
1F
100
AcDbEntity
  8
0
  6
Continuous
 62
     7
370
    15
100
AcDbCircle
 10
494.9753694581
 20
6462.3764439909
 30
0.0
 40
5553.154087311349
100
AcDbArc
 50
270.9861644477
 51
271.8067368195
  0
SPLINE
  5
8A
330
1F
100
AcDbEntity
  8
0
  6
Continuous
 62
     7
370
    15
100
AcDbSpline
210
0.0
220
0.0
230
1.0
 70
     8
 71
     3
 72
    12
 73
     8
 74
     0
 42
0.00000001
 43
0.00000001
 12
1.0
 22
0.0
 32
0.0
 13
1.0
 23
0.0
 33
0.0
 40
0.0
 40
0.0
 40
0.0
 40
0.0
 40
0.2431800856920176
 40
0.4869783310761963
 40
0.7196850669284774
 40
0.9552606447444489
 40
1.0
 40
1.0
 40
1.0
 40
1.0
 10
678.8083632098288
 20
917.1118209383329
 30
0.0
 10
678.9081872406864
 20
917.303114360087
 30
0.0
 10
679.1080890534108
 20
917.6861874682596
 30
0.0
 10
679.2586646497437
 20
918.2121820164182
 30
0.0
 10
679.3221620618131
 20
918.5922603581497
 30
0.0
 10
679.3247883331886
 20
918.7381170655702
 30
0.0
 10
679.3156684911854
 20
918.7651939416122
 30
0.0
 10
679.3142129288764
 20
918.7695155165037
 30
0.0
  0
SPLINE
  5
8B
330
1F
100
AcDbEntity
  8
0
  6
Continuous
 62
     7
370
    15
100
AcDbSpline
210
0.0
220
0.0
230
1.0
 70
     8
 71
     3
 72
    15
 73
    11
 74
     0
 42
0.00000001
 43
0.00000001
 12
1.0
 22
0.0
 32
0.0
 13
1.0
 23
0.0
 33
0.0
 40
0.0
 40
0.0
 40
0.0
 40
0.0
 40
0.3098037050513534
 40
0.5224511318880025
 40
0.6700904925981727
 40
0.821334928706053
 40
0.8850185882986766
 40
0.9493328261551875
 40
0.9897448005220254
 40
1.0
 40
1.0
 40
1.0
 40
1.0
 10
679.3142129288764
 20
918.7695155165037
 30
0.0
 10
679.3325959183969
 20
918.8013977855345
 30
0.0
 10
679.3635968829623
 20
918.8551638550515
 30
0.0
 10
679.402815706114
 20
918.9593039276206
 30
0.0
 10
679.4320641745712
 20
919.0663448854605
 30
0.0
 10
679.4520521250031
 20
919.1708646846309
 30
0.0
 10
679.4654065973773
 20
919.2880348872534
 30
0.0
 10
679.4717647920584
 20
919.3817086621893
 30
0.0
 10
679.4736901580986
 20
919.4597279123307
 30
0.0
 10
679.4737603548841
 20
919.4946091047104
 30
0.0
 10
679.4737745629401
 20
919.5016691706022
 30
0.0
  0
SPLINE
  5
8C
330
1F
100
AcDbEntity
  8
0
  6
Continuous
 62
     7
370
    15
100
AcDbSpline
210
0.0
220
0.0
230
1.0
 70
     8
 71
     3
 72
    12
 73
     8
 74
     0
 42
0.00000001
 43
0.00000001
 12
1.0
 22
0.0
 32
0.0
 13
1.0
 23
0.0
 33
0.0
 40
0.0
 40
0.0
 40
0.0
 40
0.0
 40
0.2406690676207864
 40
0.4814824857630193
 40
0.7183654635331639
 40
0.9505631947579222
 40
1.0
 40
1.0
 40
1.0
 40
1.0
 10
679.3142129288764
 20
942.9000387213072
 30
0.0
 10
679.3188720317813
 20
942.9398673620482
 30
0.0
 10
679.3281930320671
 20
943.0195485322881
 30
0.0
 10
679.2742059361747
 20
943.3919821961666
 30
0.0
 10
679.135517239456
 20
943.8891164274381
 30
0.0
 10
678.954480356138
 20
944.302218874061
 30
0.0
 10
678.8301819660744
 20
944.5195789342566
 30
0.0
 10
678.8083632098288
 20
944.557733299478
 30
0.0
  0
SPLINE
  5
8D
330
1F
100
AcDbEntity
  8
0
  6
Continuous
 62
     7
370
    15
100
AcDbSpline
210
0.0
220
0.0
230
1.0
 70
     8
 71
     3
 72
    12
 73
     8
 74
     0
 42
0.00000001
 43
0.00000001
 12
1.0
 22
0.0
 32
0.0
 13
1.0
 23
0.0
 33
0.0
 40
0.0
 40
0.0
 40
0.0
 40
0.0
 40
0.0402754162752434
 40
0.0803760899084551
 40
0.1535263233113944
 40
0.357544049905274
 40
1.0
 40
1.0
 40
1.0
 40
1.0
 10
679.4737745629401
 20
942.1678850672087
 30
0.0
 10
679.4735260880544
 20
942.1957088430274
 30
0.0
 10
679.4730302163395
 20
942.2512356758608
 30
0.0
 10
679.4683450476567
 20
942.3448660024037
 30
0.0
 10
679.4542294196593
 20
942.4949534192026
 30
0.0
 10
679.4026069974728
 20
942.7464423528808
 30
0.0
 10
679.3523539493124
 20
942.8337636609997
 30
0.0
 10
679.3142129288764
 20
942.9000387213072
 30
0.0
  0
SPLINE
  5
8E
330
1F
100
AcDbEntity
  8
0
  6
Continuous
 62
     7
370
    15
100
AcDbSpline
210
0.0
220
0.0
230
1.0
 70
     8
 71
     3
 72
    15
 73
    11
 74
     0
 42
0.00000001
 43
0.00000001
 12
1.0
 22
0.0
 32
0.0
 13
1.0
 23
0.0
 33
0.0
 40
0.0
 40
0.0
 40
0.0
 40
0.0
 40
0.3098042606725514
 40
0.5224516431209326
 40
0.6700909730126933
 40
0.8213348142799938
 40
0.88501895226186
 40
0.9493328088127005
 40
0.9897447747438964
 40
1.0
 40
1.0
 40
1.0
 40
1.0
 10
310.6365372048468
 20
942.9000387213072
 30
0.0
 10
310.6181469807318
 20
942.8681565144617
 30
0.0
 10
310.5871338410628
 20
942.8143905936299
 30
0.0
 10
310.5479242247508
 20
942.7102501158622
 30
0.0
 10
310.5186600410105
 20
942.6032099542765
 30
0.0
 10
310.498715310662
 20
942.4986883278452
 30
0.0
 10
310.485321226981
 20
942.381520213375
 30
0.0
 10
310.4789782194616
 20
942.2878452046452
 30
0.0
 10
310.4770776671776
 20
942.2098262439451
 30
0.0
 10
310.476980364118
 20
942.1749451321247
 30
0.0
 10
310.4769606696219
 20
942.1678850672087
 30
0.0
  0
SPLINE
  5
8F
330
1F
100
AcDbEntity
  8
0
  6
Continuous
 62
     7
370
    15
100
AcDbSpline
210
0.0
220
0.0
230
1.0
 70
     8
 71
     3
 72
    12
 73
     8
 74
     0
 42
0.00000001
 43
0.00000001
 12
1.0
 22
0.0
 32
0.0
 13
1.0
 23
0.0
 33
0.0
 40
0.0
 40
0.0
 40
0.0
 40
0.0
 40
0.2431819756040994
 40
0.4869784429719009
 40
0.7196853601105131
 40
0.9552605342678844
 40
1.0
 40
1.0
 40
1.0
 40
1.0
 10
311.1423869238943
 20
944.557733299478
 30
0.0
 10
311.0425548473095
 20
944.3664406706706
 30
0.0
 10
310.8426384304237
 20
943.9833720394649
 30
0.0
 10
310.6920937757754
 20
943.4573693109413
 30
0.0
 10
310.6285757749172
 20
943.0772948728461
 30
0.0
 10
310.625922761946
 20
942.9314370099113
 30
0.0
 10
310.6350762649719
 20
942.9043602869565
 30
0.0
 10
310.6365372048468
 20
942.9000387213072
 30
0.0
  0
SPLINE
  5
90
330
1F
100
AcDbEntity
  8
0
  6
Continuous
 62
     7
370
    15
100
AcDbSpline
210
0.0
220
0.0
230
1.0
 70
     8
 71
     3
 72
    12
 73
     8
 74
     0
 42
0.00000001
 43
0.00000001
 12
1.0
 22
0.0
 32
0.0
 13
1.0
 23
0.0
 33
0.0
 40
0.0
 40
0.0
 40
0.0
 40
0.0
 40
0.2406684425047463
 40
0.4814812129834676
 40
0.718363553660952
 40
0.9505606603939393
 40
1.0
 40
1.0
 40
1.0
 40
1.0
 10
310.6365372048468
 20
918.7695155165037
 30
0.0
 10
310.6318719575241
 20
918.7296869632182
 30
0.0
 10
310.622538665147
 20
918.6500059716113
 30
0.0
 10
310.676528506312
 20
918.2775710365253
 30
0.0
 10
310.8152244466162
 20
917.7804414783146
 30
0.0
 10
310.9962393716841
 20
917.3673242873044
 30
0.0
 10
311.120562801524
 20
917.1499750932924
 30
0.0
 10
311.1423869238943
 20
917.1118209383329
 30
0.0
  0
SPLINE
  5
91
330
1F
100
AcDbEntity
  8
0
  6
Continuous
 62
     7
370
    15
100
AcDbSpline
210
0.0
220
0.0
230
1.0
 70
     8
 71
     3
 72
    12
 73
     8
 74
     0
 42
0.00000001
 43
0.00000001
 12
1.0
 22
0.0
 32
0.0
 13
1.0
 23
0.0
 33
0.0
 40
0.0
 40
0.0
 40
0.0
 40
0.0
 40
0.0403513506899732
 40
0.0805428435629817
 40
0.1538256668299603
 40
0.3585293527087512
 40
1.0
 40
1.0
 40
1.0
 40
1.0
 10
310.4769606696219
 20
919.5016691706022
 30
0.0
 10
310.4772141536876
 20
919.4737948706912
 30
0.0
 10
310.4777201176043
 20
919.4181566990128
 30
0.0
 10
310.4824244278898
 20
919.3243495810588
 30
0.0
 10
310.4965672238275
 20
919.1740993937982
 30
0.0
 10
310.5482499909252
 20
918.9229471636173
 30
0.0
 10
310.5984678690808
 20
918.8356750500493
 30
0.0
 10
310.6365372048468
 20
918.7695155165037
 30
0.0
  0
LINE
  5
92
330
1F
100
AcDbEntity
  8
0
  6
Continuous
 62
     7
370
    15
100
AcDbLine
 10
311.0095132695
 20
942.5270626566
 30
0.0
 11
310.6366862165
 21
942.8998897097
 31
0.0
  0
ELLIPSE
  5
93
330
1F
100
AcDbEntity
  8
0
  6
Continuous
 62
     7
370
    15
100
AcDbEllipse
 10
311.0018945274
 20
941.5308667949
 30
0.0
 11
0.0
 21
0.9999999999998863
 31
0.0
210
0.0
220
0.0
230
1.0
 40
0.0874886635
 41
4.712388980384691
 42
6.195918844579495
  0
LINE
  5
94
330
1F
100
AcDbEntity
  8
0
  6
Continuous
 62
     7
370
    15
100
AcDbLine
 10
311.0893834935
 20
939.4875237963
 30
0.0
 11
311.0893834935
 21
941.5308604262
 31
0.0
  0
ELLIPSE
  5
95
330
1F
100
AcDbEntity
  8
0
  6
Continuous
 62
     7
370
    15
100
AcDbEllipse
 10
310.6519398733
 20
944.8922809616
 30
0.0
 11
0.0
 21
2.0
 31
0.0
210
0.0
220
0.0
230
1.0
 40
0.0874886635
 41
3.053409736769535
 42
3.054326190990538
  0
LINE
  5
96
330
1F
100
AcDbEntity
  8
0
  6
Continuous
 62
     7
370
    15
100
AcDbLine
 10
678.941221963
 20
919.1424915812
 30
0.0
 11
679.3140490161
 21
918.7696645281
 31
0.0
  0
ELLIPSE
  5
97
330
1F
100
AcDbEntity
  8
0
  6
Continuous
 62
     7
370
    15
100
AcDbEllipse
 10
678.9488443888
 20
920.1386878536
 30
0.0
 11
0.0
 21
1.0
 31
0.0
210
0.0
220
0.0
230
1.0
 40
0.0874886635
 41
1.570796326794897
 42
3.054326190989599
  0
LINE
  5
98
330
1F
100
AcDbEntity
  8
0
  6
Continuous
 62
     7
370
    15
100
AcDbLine
 10
678.861351739
 20
920.1386938116
 30
0.0
 11
678.861351739
 21
922.1820304415
 31
0.0
  0
ELLIPSE
  5
99
330
1F
100
AcDbEntity
  8
0
  6
Continuous
 62
     7
370
    15
100
AcDbEllipse
 10
679.2987990429
 20
916.7772736869
 30
0.0
 11
0.0
 21
2.0
 31
0.0
210
0.0
220
0.0
230
1.0
 40
0.0874886635
 41
6.195002390609919
 42
6.19591884458014
  0
LINE
  5
9A
330
1F
100
AcDbEntity
  8
0
  6
Continuous
 62
     7
370
    15
100
AcDbLine
 10
678.861351739
 20
939.4875237963
 30
0.0
 11
678.861351739
 21
941.5308604262
 31
0.0
  0
ELLIPSE
  5
9B
330
1F
100
AcDbEntity
  8
0
  6
Continuous
 62
     7
370
    15
100
AcDbEllipse
 10
678.9488443888
 20
941.5308667949
 30
0.0
 11
0.0
 21
0.9999999999998863
 31
0.0
210
0.0
220
0.0
230
1.0
 40
0.0874886635
 41
0.0872664626001953
 42
1.570796326794897
  0
LINE
  5
9C
330
1F
100
AcDbEntity
  8
0
  6
Continuous
 62
     7
370
    15
100
AcDbLine
 10
678.941221963
 20
942.5270626566
 30
0.0
 11
679.3140490161
 21
942.8998897097
 31
0.0
  0
ELLIPSE
  5
9D
330
1F
100
AcDbEntity
  8
0
  6
Continuous
 62
     7
370
    15
100
AcDbEllipse
 10
679.2987990429
 20
944.8922809616
 30
0.0
 11
0.0
 21
2.0
 31
0.0
210
0.0
220
0.0
230
1.0
 40
0.0874886635
 41
3.228859116189562
 42
3.229775570159773
  0
LINE
  5
9E
330
1F
100
AcDbEntity
  8
0
  6
Continuous
 62
     7
370
    15
100
AcDbLine
 10
311.0893834935
 20
920.1386938116
 30
0.0
 11
311.0893834935
 21
922.1820304415
 31
0.0
  0
ELLIPSE
  5
9F
330
1F
100
AcDbEntity
  8
0
  6
Continuous
 62
     7
370
    15
100
AcDbEllipse
 10
311.0018945274
 20
920.1386878536
 30
0.0
 11
0.0
 21
1.0
 31
0.0
210
0.0
220
0.0
230
1.0
 40
0.0874886635
 41
3.228859116190202
 42
4.712388980384691
  0
LINE
  5
A0
330
1F
100
AcDbEntity
  8
0
  6
Continuous
 62
     7
370
    15
100
AcDbLine
 10
311.0095132695
 20
919.1424915812
 30
0.0
 11
310.6366862165
 21
918.7696645281
 31
0.0
  0
ELLIPSE
  5
A1
330
1F
100
AcDbEntity
  8
0
  6
Continuous
 62
     7
370
    15
100
AcDbEllipse
 10
310.6519398733
 20
916.7772736869
 30
0.0
 11
0.0
 21
2.0
 31
0.0
210
0.0
220
0.0
230
1.0
 40
0.0874886635
 41
0.0872664625992576
 42
0.0881829168205931
  0
ARC
  5
A2
330
1F
100
AcDbEntity
  8
0
  6
Continuous
 62
     7
370
    15
100
AcDbCircle
 10
589.9799538738
 20
448.4107083698
 30
0.0
 40
4.999999999999961
100
AcDbArc
 50
136.566970957
 51
224.4124865887
  0
LINE
  5
A3
330
1F
100
AcDbEntity
  8
0
  6
Continuous
 62
     7
370
    15
100
AcDbLine
 10
604.976365398
 20
471.5233290813
 30
0.0
 11
586.3490608142
 21
451.8482381723
 31
0.0
  0
ARC
  5
A4
330
1F
100
AcDbEntity
  8
0
  6
Continuous
 62
     7
370
    15
100
AcDbCircle
 10
494.9753694581
 20
355.3347773243
 30
0.0
 40
159.9999999999998
100
AcDbArc
 50
44.0594802535
 51
46.566970957
  0
LINE
  5
A5
330
1F
100
AcDbEntity
  8
0
  6
Continuous
 62
     7
370
    15
100
AcDbLine
 10
595.9552694665
 20
451.8130639813
 30
0.0
 11
609.9542920099
 21
466.599538388
 31
0.0
  0
ARC
  5
A6
330
1F
100
AcDbEntity
  8
0
  6
Continuous
 62
     7
370
    15
100
AcDbCircle
 10
599.5861584795
 20
448.3755362438
 30
0.0
 40
4.999999999999979
100
AcDbArc
 50
136.566970957
 51
221.6498706215
  0
ARC
  5
A7
330
1F
100
AcDbEntity
  8
0
  6
Continuous
 62
     7
370
    15
100
AcDbCircle
 10
494.9753694581
 20
355.3347773243
 30
0.0
 40
135.0
100
AcDbArc
 50
318.3501293785
 51
41.6498706215
  0
ARC
  5
A8
330
1F
100
AcDbEntity
  8
0
  6
Continuous
 62
     7
370
    15
100
AcDbCircle
 10
599.5861584795
 20
262.2940184047
 30
0.0
 40
4.999999999999941
100
AcDbArc
 50
138.3501293785
 51
223.433029043
  0
LINE
  5
A9
330
1F
100
AcDbEntity
  8
0
  6
Continuous
 62
     7
370
    15
100
AcDbLine
 10
609.9542920099
 20
244.0700302145
 30
0.0
 11
595.9552694665
 21
258.8564822695
 31
0.0
  0
ARC
  5
AA
330
1F
100
AcDbEntity
  8
0
  6
Continuous
 62
     7
370
    15
100
AcDbCircle
 10
494.9753694581
 20
355.3347773243
 30
0.0
 40
159.9999999999998
100
AcDbArc
 50
313.433029043
 51
315.9405197465
  0
LINE
  5
AB
330
1F
100
AcDbEntity
  8
0
  6
Continuous
 62
     7
370
    15
100
AcDbLine
 10
586.3490608142
 20
258.8213155291
 30
0.0
 11
604.976365398
 21
239.1462097189
 31
0.0
  0
ARC
  5
AC
330
1F
100
AcDbEntity
  8
0
  6
Continuous
 62
     7
370
    15
100
AcDbCircle
 10
589.9799538738
 20
262.2588462787
 30
0.0
 40
5.000000000000082
100
AcDbArc
 50
135.5875134113
 51
223.433029043
  0
ARC
  5
AD
330
1F
100
AcDbEntity
  8
0
  6
Continuous
 62
     7
370
    15
100
AcDbCircle
 10
494.9753694581
 20
355.3347773243
 30
0.0
 40
128.0
100
AcDbArc
 50
315.5875134113
 51
44.4124865887
  0
CIRCLE
  5
AE
330
1F
100
AcDbEntity
  8
0
  6
Continuous
 62
     7
370
    15
100
AcDbCircle
 10
494.9753694581
 20
642.3347773243
 30
0.0
 40
10.0
  0
LINE
  5
AF
330
1F
100
AcDbEntity
  8
0
  6
Continuous
 62
     7
370
    15
100
AcDbLine
 10
604.976365398
 20
758.5233370087
 30
0.0
 11
586.3490608142
 21
738.8482460997
 31
0.0
  0
ARC
  5
B0
330
1F
100
AcDbEntity
  8
0
  6
Continuous
 62
     7
370
    15
100
AcDbCircle
 10
494.9753694581
 20
642.3347773243
 30
0.0
 40
159.9999999999998
100
AcDbArc
 50
44.0594802535
 51
46.566970957
  0
LINE
  5
B1
330
1F
100
AcDbEntity
  8
0
  6
Continuous
 62
     7
370
    15
100
AcDbLine
 10
595.9552694665
 20
738.8130644581
 30
0.0
 11
609.9542920099
 21
753.5995463154
 31
0.0
  0
ARC
  5
B2
330
1F
100
AcDbEntity
  8
0
  6
Continuous
 62
     7
370
    15
100
AcDbCircle
 10
599.5861584795
 20
735.3755362438
 30
0.0
 40
5.000000000000052
100
AcDbArc
 50
136.566970957
 51
221.6498706215
  0
ARC
  5
B3
330
1F
100
AcDbEntity
  8
0
  6
Continuous
 62
     7
370
    15
100
AcDbCircle
 10
494.9753694581
 20
642.3347773243
 30
0.0
 40
135.0
100
AcDbArc
 50
318.3501293785
 51
41.6498706215
  0
ARC
  5
B4
330
1F
100
AcDbEntity
  8
0
  6
Continuous
 62
     7
370
    15
100
AcDbCircle
 10
494.9753694581
 20
642.3347773243
 30
0.0
 40
159.9999999999997
100
AcDbArc
 50
313.433029043
 51
315.9405197465
  0
LINE
  5
B5
330
1F
100
AcDbEntity
  8
0
  6
Continuous
 62
     7
370
    15
100
AcDbLine
 10
586.3490608142
 20
545.821315071
 30
0.0
 11
604.976365398
 21
526.1462232343
 31
0.0
  0
ARC
  5
B6
330
1F
100
AcDbEntity
  8
0
  6
Continuous
 62
     7
370
    15
100
AcDbCircle
 10
589.9799538738
 20
549.2588462787
 30
0.0
 40
5.000000000000001
100
AcDbArc
 50
135.5875134113
 51
223.433029043
  0
ARC
  5
B7
330
1F
100
AcDbEntity
  8
0
  6
Continuous
 62
     7
370
    15
100
AcDbCircle
 10
494.9753694581
 20
642.3347773243
 30
0.0
 40
128.0
100
AcDbArc
 50
315.5875134113
 51
44.4124865887
  0
ARC
  5
B8
330
1F
100
AcDbEntity
  8
0
  6
Continuous
 62
     7
370
    15
100
AcDbCircle
 10
589.9799538738
 20
735.4107083698
 30
0.0
 40
5.000000000000082
100
AcDbArc
 50
136.566970957
 51
224.4124865887
  0
ARC
  5
B9
330
1F
100
AcDbEntity
  8
0
  6
Continuous
 62
     7
370
    15
100
AcDbCircle
 10
599.5861584795
 20
549.2940184047
 30
0.0
 40
5.000000000000017
100
AcDbArc
 50
138.3501293785
 51
223.433029043
  0
LINE
  5
BA
330
1F
100
AcDbEntity
  8
0
  6
Continuous
 62
     7
370
    15
100
AcDbLine
 10
609.9542920099
 20
531.0700157902
 30
0.0
 11
595.9552694665
 21
545.856487192
 31
0.0
  0
ARC
  5
BB
330
1F
100
AcDbEntity
  8
0
  6
Continuous
 62
     7
370
    15
100
AcDbCircle
 10
535.1512308506
 20
600.5029693144
 30
0.0
 40
5.000000000000037
100
AcDbArc
 50
48.7886371786
 51
133.8432074607
  0
LINE
  5
BC
330
1F
100
AcDbEntity
  8
0
  6
Continuous
 62
     7
370
    15
100
AcDbLine
 10
558.9195322798
 20
586.3334903738
 30
0.0
 11
538.4454243438
 21
604.2643891892
 31
0.0
  0
ARC
  5
BD
330
1F
100
AcDbEntity
  8
0
  6
Continuous
 62
     7
370
    15
100
AcDbCircle
 10
494.9753694581
 20
642.3347773243
 30
0.0
 40
85.0000000000004
100
AcDbArc
 50
314.0648114194
 51
318.7886371786
  0
ARC
  5
BE
330
1F
100
AcDbEntity
  8
0
  6
Continuous
 62
     7
370
    15
100
AcDbCircle
 10
454.7995080657
 20
600.5029693144
 30
0.0
 40
5.000000000000037
100
AcDbArc
 50
46.1567925393
 51
131.2113628214
  0
ARC
  5
BF
330
1F
100
AcDbEntity
  8
0
  6
Continuous
 62
     7
370
    15
100
AcDbCircle
 10
494.9753694581
 20
642.3347773243
 30
0.0
 40
52.99999999999957
100
AcDbArc
 50
226.1567925393
 51
313.8432074607
  0
LINE
  5
C0
330
1F
100
AcDbEntity
  8
0
  6
Continuous
 62
     7
370
    15
100
AcDbLine
 10
538.4214521007
 20
594.9803920708
 30
0.0
 11
554.0904570924
 21
581.2577227375
 31
0.0
  0
ARC
  5
C1
330
1F
100
AcDbEntity
  8
0
  6
Continuous
 62
     7
370
    15
100
AcDbCircle
 10
494.9753694581
 20
642.3347773243
 30
0.0
 40
60.00000000000004
100
AcDbArc
 50
231.8500721364
 51
308.1499278636
  0
LINE
  5
C2
330
1F
100
AcDbEntity
  8
0
  6
Continuous
 62
     7
370
    15
100
AcDbLine
 10
435.8602781402
 20
581.2577227375
 30
0.0
 11
451.5292887198
 21
594.9803920708
 31
0.0
  0
LINE
  5
C3
330
1F
100
AcDbEntity
  8
0
  6
Continuous
 62
     7
370
    15
100
AcDbLine
 10
451.5053127514
 20
604.2643891892
 30
0.0
 11
431.031206678
 21
586.3334903738
 31
0.0
  0
ARC
  5
C4
330
1F
100
AcDbEntity
  8
0
  6
Continuous
 62
     7
370
    15
100
AcDbCircle
 10
454.8234797339
 20
591.2189700669
 30
0.0
 40
4.999999999999999
100
AcDbArc
 50
51.8500721364
 51
131.2113628214
  0
ARC
  5
C5
330
1F
100
AcDbEntity
  8
0
  6
Continuous
 62
     7
370
    15
100
AcDbCircle
 10
494.9753694581
 20
642.3347773243
 30
0.0
 40
85.00000000000028
100
AcDbArc
 50
221.2113628214
 51
225.9351885806
  0
ARC
  5
C6
330
1F
100
AcDbEntity
  8
0
  6
Continuous
 62
     7
370
    15
100
AcDbCircle
 10
535.1272591823
 20
591.2189700669
 30
0.0
 40
5.000000000000112
100
AcDbArc
 50
48.7886371786
 51
128.1499278636
  0
ARC
  5
C7
330
1F
100
AcDbEntity
  8
0
  6
Continuous
 62
     7
370
    15
100
AcDbCircle
 10
494.9753694581
 20
355.3347773243
 30
0.0
 40
128.0
100
AcDbArc
 50
135.5875134113
 51
224.4124865887
  0
ARC
  5
C8
330
1F
100
AcDbEntity
  8
0
  6
Continuous
 62
     7
370
    15
100
AcDbCircle
 10
399.9707850424
 20
262.2588462787
 30
0.0
 40
5.000000000000093
100
AcDbArc
 50
316.566970957
 51
44.4124865887
  0
LINE
  5
C9
330
1F
100
AcDbEntity
  8
0
  6
Continuous
 62
     7
370
    15
100
AcDbLine
 10
384.9743772851
 20
239.1462097189
 30
0.0
 11
403.6016781436
 21
258.8213155291
 31
0.0
  0
ARC
  5
CA
330
1F
100
AcDbEntity
  8
0
  6
Continuous
 62
     7
370
    15
100
AcDbCircle
 10
494.9753694581
 20
355.3347773243
 30
0.0
 40
159.9999999999998
100
AcDbArc
 50
224.0594802535
 51
226.566970957
  0
ARC
  5
CB
330
1F
100
AcDbEntity
  8
0
  6
Continuous
 62
     7
370
    15
100
AcDbCircle
 10
390.3645804367
 20
262.2940184047
 30
0.0
 40
5.000000000000144
100
AcDbArc
 50
316.5669709571
 51
41.6498706215
  0
LINE
  5
CC
330
1F
100
AcDbEntity
  8
0
  6
Continuous
 62
     7
370
    15
100
AcDbLine
 10
393.9954657661
 20
258.8564822695
 30
0.0
 11
379.9964506732
 21
244.0700302145
 31
0.0
  0
ARC
  5
CD
330
1F
100
AcDbEntity
  8
0
  6
Continuous
 62
     7
370
    15
100
AcDbCircle
 10
494.9753694581
 20
355.3347773243
 30
0.0
 40
134.9999999999999
100
AcDbArc
 50
138.3501293785
 51
221.6498706215
  0
ARC
  5
CE
330
1F
100
AcDbEntity
  8
0
  6
Continuous
 62
     7
370
    15
100
AcDbCircle
 10
390.3645804367
 20
448.3755362438
 30
0.0
 40
5.000000000000107
100
AcDbArc
 50
318.3501293785
 51
43.433029043
  0
LINE
  5
CF
330
1F
100
AcDbEntity
  8
0
  6
Continuous
 62
     7
370
    15
100
AcDbLine
 10
379.9964506732
 20
466.599538388
 30
0.0
 11
393.9954657661
 21
451.8130639813
 31
0.0
  0
LINE
  5
D0
330
1F
100
AcDbEntity
  8
0
  6
Continuous
 62
     7
370
    15
100
AcDbLine
 10
403.6016781436
 20
451.8482381723
 30
0.0
 11
384.9743772851
 21
471.5233290813
 31
0.0
  0
ARC
  5
D1
330
1F
100
AcDbEntity
  8
0
  6
Continuous
 62
     7
370
    15
100
AcDbCircle
 10
494.9753694581
 20
355.3347773243
 30
0.0
 40
159.9999999999997
100
AcDbArc
 50
133.433029043
 51
135.9405197465
  0
ARC
  5
D2
330
1F
100
AcDbEntity
  8
0
  6
Continuous
 62
     7
370
    15
100
AcDbCircle
 10
399.9707850424
 20
448.4107083698
 30
0.0
 40
5.000000000000081
100
AcDbArc
 50
315.5875134113
 51
43.433029043
  0
ARC
  5
D3
330
1F
100
AcDbEntity
  8
0
  6
Continuous
 62
     7
370
    15
100
AcDbCircle
 10
494.9753694581
 20
355.3347773243
 30
0.0
 40
59.99999999999999
100
AcDbArc
 50
51.8500721364
 51
128.1499278636
  0
ARC
  5
D4
330
1F
100
AcDbEntity
  8
0
  6
Continuous
 62
     7
370
    15
100
AcDbCircle
 10
535.1272591823
 20
406.4505845816
 30
0.0
 40
5.000000000000069
100
AcDbArc
 50
231.8500721364
 51
311.2113628214
  0
LINE
  5
D5
330
1F
100
AcDbEntity
  8
0
  6
Continuous
 62
     7
370
    15
100
AcDbLine
 10
554.0904570924
 20
416.4118239901
 30
0.0
 11
538.4214521007
 21
402.6891658327
 31
0.0
  0
ARC
  5
D6
330
1F
100
AcDbEntity
  8
0
  6
Continuous
 62
     7
370
    15
100
AcDbCircle
 10
494.9753694581
 20
355.3347773243
 30
0.0
 40
85.00000000000037
100
AcDbArc
 50
41.2113628214
 51
45.9351885806
  0
ARC
  5
D7
330
1F
100
AcDbEntity
  8
0
  6
Continuous
 62
     7
370
    15
100
AcDbCircle
 10
494.9753694581
 20
355.3347773243
 30
0.0
 40
52.9999999999996
100
AcDbArc
 50
46.1567925393
 51
133.8432074607
  0
ARC
  5
D8
330
1F
100
AcDbEntity
  8
0
  6
Continuous
 62
     7
370
    15
100
AcDbCircle
 10
454.7995080657
 20
397.1665853341
 30
0.0
 40
5.000000000000037
100
AcDbArc
 50
228.7886371786
 51
313.8432074607
  0
LINE
  5
D9
330
1F
100
AcDbEntity
  8
0
  6
Continuous
 62
     7
370
    15
100
AcDbLine
 10
431.031206678
 20
411.336071255
 30
0.0
 11
451.5053127514
 21
393.4051612637
 31
0.0
  0
ARC
  5
DA
330
1F
100
AcDbEntity
  8
0
  6
Continuous
 62
     7
370
    15
100
AcDbCircle
 10
494.9753694581
 20
355.3347773243
 30
0.0
 40
85.00000000000024
100
AcDbArc
 50
134.0648114194
 51
138.7886371786
  0
ARC
  5
DB
330
1F
100
AcDbEntity
  8
0
  6
Continuous
 62
     7
370
    15
100
AcDbCircle
 10
454.8234797339
 20
406.4505845816
 30
0.0
 40
5.000000000000021
100
AcDbArc
 50
228.7886371786
 51
308.1499278636
  0
LINE
  5
DC
330
1F
100
AcDbEntity
  8
0
  6
Continuous
 62
     7
370
    15
100
AcDbLine
 10
538.4454243438
 20
393.4051612637
 30
0.0
 11
558.9195322798
 21
411.336071255
 31
0.0
  0
ARC
  5
DD
330
1F
100
AcDbEntity
  8
0
  6
Continuous
 62
     7
370
    15
100
AcDbCircle
 10
535.1512308506
 20
397.1665853341
 30
0.0
 40
5.00000000000008
100
AcDbArc
 50
226.1567925393
 51
311.2113628214
  0
LINE
  5
DE
330
1F
100
AcDbEntity
  8
0
  6
Continuous
 62
     7
370
    15
100
AcDbLine
 10
451.5292887198
 20
402.6891658327
 30
0.0
 11
435.8602781402
 21
416.4118239901
 31
0.0
  0
LINE
  5
DF
330
1F
100
AcDbEntity
  8
0
  6
Continuous
 62
     7
370
    15
100
AcDbLine
 10
451.5292887198
 20
689.6891663096
 30
0.0
 11
435.8602781402
 21
703.4118244669
 31
0.0
  0
ARC
  5
E0
330
1F
100
AcDbEntity
  8
0
  6
Continuous
 62
     7
370
    15
100
AcDbCircle
 10
454.8234797339
 20
693.4505845816
 30
0.0
 40
4.999999999999999
100
AcDbArc
 50
228.7886371786
 51
308.1499278636
  0
ARC
  5
E1
330
1F
100
AcDbEntity
  8
0
  6
Continuous
 62
     7
370
    15
100
AcDbCircle
 10
494.9753694581
 20
642.3347773243
 30
0.0
 40
60.00000000000001
100
AcDbArc
 50
51.8500721364
 51
128.1499278636
  0
ARC
  5
E2
330
1F
100
AcDbEntity
  8
0
  6
Continuous
 62
     7
370
    15
100
AcDbCircle
 10
535.1272591823
 20
693.4505845816
 30
0.0
 40
5.000000000000037
100
AcDbArc
 50
231.8500721364
 51
311.2113628214
  0
LINE
  5
E3
330
1F
100
AcDbEntity
  8
0
  6
Continuous
 62
     7
370
    15
100
AcDbLine
 10
554.0904570924
 20
703.4118244669
 30
0.0
 11
538.4214521007
 21
689.6891663096
 31
0.0
  0
ARC
  5
E4
330
1F
100
AcDbEntity
  8
0
  6
Continuous
 62
     7
370
    15
100
AcDbCircle
 10
494.9753694581
 20
642.3347773243
 30
0.0
 40
85.0000000000004
100
AcDbArc
 50
41.2113628214
 51
45.9351885806
  0
LINE
  5
E5
330
1F
100
AcDbEntity
  8
0
  6
Continuous
 62
     7
370
    15
100
AcDbLine
 10
431.031206678
 20
698.3360568306
 30
0.0
 11
451.5053127514
 21
680.4051617405
 31
0.0
  0
ARC
  5
E6
330
1F
100
AcDbEntity
  8
0
  6
Continuous
 62
     7
370
    15
100
AcDbCircle
 10
494.9753694581
 20
642.3347773243
 30
0.0
 40
85.00000000000031
100
AcDbArc
 50
134.0648114194
 51
138.7886371786
  0
LINE
  5
E7
330
1F
100
AcDbEntity
  8
0
  6
Continuous
 62
     7
370
    15
100
AcDbLine
 10
538.4454243438
 20
680.4051617405
 30
0.0
 11
558.9195322798
 21
698.3360568306
 31
0.0
  0
ARC
  5
E8
330
1F
100
AcDbEntity
  8
0
  6
Continuous
 62
     7
370
    15
100
AcDbCircle
 10
494.9753694581
 20
642.3347773243
 30
0.0
 40
52.99999999999964
100
AcDbArc
 50
46.1567925393
 51
133.8432074607
  0
ARC
  5
E9
330
1F
100
AcDbEntity
  8
0
  6
Continuous
 62
     7
370
    15
100
AcDbCircle
 10
535.1512308506
 20
684.1665853341
 30
0.0
 40
4.999999999999918
100
AcDbArc
 50
226.1567925393
 51
311.2113628214
  0
ARC
  5
EA
330
1F
100
AcDbEntity
  8
0
  6
Continuous
 62
     7
370
    15
100
AcDbCircle
 10
454.7995080657
 20
684.1665853341
 30
0.0
 40
5.000000000000037
100
AcDbArc
 50
228.7886371786
 51
313.8432074607
  0
CIRCLE
  5
EB
330
1F
100
AcDbEntity
  8
0
  6
Continuous
 62
     7
370
    15
100
AcDbCircle
 10
494.9753694581
 20
355.3347773243
 30
0.0
 40
10.0
  0
ARC
  5
EC
330
1F
100
AcDbEntity
  8
0
  6
Continuous
 62
     7
370
    15
100
AcDbCircle
 10
535.1512308506
 20
313.5029693144
 30
0.0
 40
4.999999999999959
100
AcDbArc
 50
48.7886371786
 51
133.8432074607
  0
LINE
  5
ED
330
1F
100
AcDbEntity
  8
0
  6
Continuous
 62
     7
370
    15
100
AcDbLine
 10
558.9195322798
 20
299.333489897
 30
0.0
 11
538.4454243438
 21
317.2643849871
 31
0.0
  0
ARC
  5
EE
330
1F
100
AcDbEntity
  8
0
  6
Continuous
 62
     7
370
    15
100
AcDbCircle
 10
535.1272591823
 20
304.2189700669
 30
0.0
 40
4.999999999999994
100
AcDbArc
 50
48.7886371786
 51
128.1499278636
  0
ARC
  5
EF
330
1F
100
AcDbEntity
  8
0
  6
Continuous
 62
     7
370
    15
100
AcDbCircle
 10
494.9753694581
 20
355.3347773243
 30
0.0
 40
60.00000000000005
100
AcDbArc
 50
231.8500721364
 51
308.1499278636
  0
ARC
  5
F0
330
1F
100
AcDbEntity
  8
0
  6
Continuous
 62
     7
370
    15
100
AcDbCircle
 10
494.9753694581
 20
355.3347773243
 30
0.0
 40
85.00000000000027
100
AcDbArc
 50
221.2113628214
 51
225.9351885806
  0
LINE
  5
F1
330
1F
100
AcDbEntity
  8
0
  6
Continuous
 62
     7
370
    15
100
AcDbLine
 10
451.5053127514
 20
317.2643849871
 30
0.0
 11
431.031206678
 21
299.333489897
 31
0.0
  0
ARC
  5
F2
330
1F
100
AcDbEntity
  8
0
  6
Continuous
 62
     7
370
    15
100
AcDbCircle
 10
454.7995080657
 20
313.5029693144
 30
0.0
 40
5.00000000000008
100
AcDbArc
 50
46.1567925393
 51
131.2113628214
  0
ARC
  5
F3
330
1F
100
AcDbEntity
  8
0
  6
Continuous
 62
     7
370
    15
100
AcDbCircle
 10
494.9753694581
 20
355.3347773243
 30
0.0
 40
52.99999999999964
100
AcDbArc
 50
226.1567925393
 51
313.8432074607
  0
ARC
  5
F4
330
1F
100
AcDbEntity
  8
0
  6
Continuous
 62
     7
370
    15
100
AcDbCircle
 10
494.9753694581
 20
355.3347773243
 30
0.0
 40
85.00000000000037
100
AcDbArc
 50
314.0648114194
 51
318.7886371786
  0
LINE
  5
F5
330
1F
100
AcDbEntity
  8
0
  6
Continuous
 62
     7
370
    15
100
AcDbLine
 10
538.4214521007
 20
307.9803953192
 30
0.0
 11
554.0904570924
 21
294.2577371619
 31
0.0
  0
ARC
  5
F6
330
1F
100
AcDbEntity
  8
0
  6
Continuous
 62
     7
370
    15
100
AcDbCircle
 10
454.8234797339
 20
304.2189700669
 30
0.0
 40
4.999999999999999
100
AcDbArc
 50
51.8500721364
 51
131.2113628214
  0
LINE
  5
F7
330
1F
100
AcDbEntity
  8
0
  6
Continuous
 62
     7
370
    15
100
AcDbLine
 10
435.8602781402
 20
294.2577371619
 30
0.0
 11
451.5292887198
 21
307.9803953192
 31
0.0
  0
LINE
  5
F8
330
1F
100
AcDbEntity
  8
0
  6
Continuous
 62
     7
370
    15
100
AcDbLine
 10
403.6016781436
 20
738.8482460997
 30
0.0
 11
384.9743772851
 21
758.5233370087
 31
0.0
  0
ARC
  5
F9
330
1F
100
AcDbEntity
  8
0
  6
Continuous
 62
     7
370
    15
100
AcDbCircle
 10
494.9753694581
 20
642.3347773243
 30
0.0
 40
128.0
100
AcDbArc
 50
135.5875134113
 51
224.4124865887
  0
ARC
  5
FA
330
1F
100
AcDbEntity
  8
0
  6
Continuous
 62
     7
370
    15
100
AcDbCircle
 10
399.9707850424
 20
735.4107083698
 30
0.0
 40
5.000000000000082
100
AcDbArc
 50
315.5875134113
 51
43.433029043
  0
ARC
  5
FB
330
1F
100
AcDbEntity
  8
0
  6
Continuous
 62
     7
370
    15
100
AcDbCircle
 10
399.9707850424
 20
549.2588462787
 30
0.0
 40
5.000000000000052
100
AcDbArc
 50
316.566970957
 51
44.4124865887
  0
LINE
  5
FC
330
1F
100
AcDbEntity
  8
0
  6
Continuous
 62
     7
370
    15
100
AcDbLine
 10
384.9743772851
 20
526.1462232343
 30
0.0
 11
403.6016781436
 21
545.821315071
 31
0.0
  0
ARC
  5
FD
330
1F
100
AcDbEntity
  8
0
  6
Continuous
 62
     7
370
    15
100
AcDbCircle
 10
494.9753694581
 20
642.3347773243
 30
0.0
 40
159.9999999999997
100
AcDbArc
 50
224.0594802535
 51
226.566970957
  0
LINE
  5
FE
330
1F
100
AcDbEntity
  8
0
  6
Continuous
 62
     7
370
    15
100
AcDbLine
 10
393.9954657661
 20
545.856487192
 30
0.0
 11
379.9964506732
 21
531.0700157902
 31
0.0
  0
ARC
  5
FF
330
1F
100
AcDbEntity
  8
0
  6
Continuous
 62
     7
370
    15
100
AcDbCircle
 10
494.9753694581
 20
642.3347773243
 30
0.0
 40
159.9999999999998
100
AcDbArc
 50
133.433029043
 51
135.9405197465
  0
ARC
  5
100
330
1F
100
AcDbEntity
  8
0
  6
Continuous
 62
     7
370
    15
100
AcDbCircle
 10
390.3645804367
 20
549.2940184047
 30
0.0
 40
5.000000000000144
100
AcDbArc
 50
316.5669709571
 51
41.6498706215
  0
ARC
  5
101
330
1F
100
AcDbEntity
  8
0
  6
Continuous
 62
     7
370
    15
100
AcDbCircle
 10
494.9753694581
 20
642.3347773243
 30
0.0
 40
134.9999999999999
100
AcDbArc
 50
138.3501293785
 51
221.6498706215
  0
ARC
  5
102
330
1F
100
AcDbEntity
  8
0
  6
Continuous
 62
     7
370
    15
100
AcDbCircle
 10
390.3645804367
 20
735.3755362438
 30
0.0
 40
5.000000000000093
100
AcDbArc
 50
318.3501293785
 51
43.433029043
  0
LINE
  5
103
330
1F
100
AcDbEntity
  8
0
  6
Continuous
 62
     7
370
    15
100
AcDbLine
 10
379.9964506732
 20
753.5995463154
 30
0.0
 11
393.9954657661
 21
738.8130644581
 31
0.0
  0
LINE
  5
104
330
1F
100
AcDbEntity
  8
0
  6
Continuous
 62
     7
370
    15
100
AcDbLine
 10
322.9753692256
 20
143.3347830794
 30
0.0
 11
666.975366007
 21
143.3347830794
 31
0.0
  0
LINE
  5
105
330
1F
100
AcDbEntity
  8
0
  6
Continuous
 62
     7
370
    15
100
AcDbLine
 10
666.975366007
 20
143.3347830794
 30
0.0
 11
666.975366007
 21
854.3347785494
 31
0.0
  0
LINE
  5
106
330
1F
100
AcDbEntity
  8
0
  6
Continuous
 62
     7
370
    15
100
AcDbLine
 10
322.9753692256
 20
854.3347785494
 30
0.0
 11
322.9753692256
 21
143.3347830794
 31
0.0
  0
LINE
  5
107
330
1F
100
AcDbEntity
  8
0
  6
Continuous
 62
     7
370
    15
100
AcDbLine
 10
666.975366007
 20
854.3347785494
 30
0.0
 11
322.9753692256
 21
854.3347785494
 31
0.0
  0
LINE
  5
108
330
1F
100
AcDbEntity
  8
0
  6
Continuous
 62
     7
370
    15
100
AcDbLine
 10
694.9753631459
 20
859.5347771666
 30
0.0
 11
674.225362073
 21
859.5347771666
 31
0.0
  0
LINE
  5
109
330
1F
100
AcDbEntity
  8
0
  6
Continuous
 62
     7
370
    15
100
AcDbLine
 10
674.225362073
 20
138.1347844622
 30
0.0
 11
694.9753631459
 21
138.1347844622
 31
0.0
  0
LINE
  5
10A
330
1F
100
AcDbEntity
  8
0
  6
Continuous
 62
     7
370
    15
100
AcDbLine
 10
694.9753631459
 20
138.1347844622
 30
0.0
 11
694.9753631459
 21
859.5347771666
 31
0.0
  0
LINE
  5
10B
330
1F
100
AcDbEntity
  8
0
  6
Continuous
 62
     7
370
    15
100
AcDbLine
 10
670.0253654824
 20
138.1347844622
 30
0.0
 11
669.9753720866
 21
138.1347844622
 31
0.0
  0
LINE
  5
10C
330
1F
100
AcDbEntity
  8
0
  6
Continuous
 62
     7
370
    15
100
AcDbLine
 10
669.9753720866
 20
138.1347844622
 30
0.0
 11
669.9753720866
 21
859.5347771666
 31
0.0
  0
LINE
  5
10D
330
1F
100
AcDbEntity
  8
0
  6
Continuous
 62
     7
370
    15
100
AcDbLine
 10
669.9753720866
 20
859.5347771666
 30
0.0
 11
670.0253654824
 21
859.5347771666
 31
0.0
  0
LINE
  5
10E
330
1F
100
AcDbEntity
  8
0
  6
Continuous
 62
     7
370
    15
100
AcDbLine
 10
294.9753720866
 20
138.1347844622
 30
0.0
 11
315.7253731595
 21
138.1347844622
 31
0.0
  0
LINE
  5
10F
330
1F
100
AcDbEntity
  8
0
  6
Continuous
 62
     7
370
    15
100
AcDbLine
 10
294.9753720866
 20
859.5347771666
 30
0.0
 11
294.9753720866
 21
138.1347844622
 31
0.0
  0
LINE
  5
110
330
1F
100
AcDbEntity
  8
0
  6
Continuous
 62
     7
370
    15
100
AcDbLine
 10
315.7253731595
 20
859.5347771666
 30
0.0
 11
294.9753720866
 21
859.5347771666
 31
0.0
  0
LINE
  5
111
330
1F
100
AcDbEntity
  8
0
  6
Continuous
 62
     7
370
    15
100
AcDbLine
 10
319.9253697501
 20
859.5347771666
 30
0.0
 11
319.9753631459
 21
859.5347771666
 31
0.0
  0
LINE
  5
112
330
1F
100
AcDbEntity
  8
0
  6
Continuous
 62
     7
370
    15
100
AcDbLine
 10
319.9753631459
 20
859.5347771666
 30
0.0
 11
319.9753631459
 21
138.1347844622
 31
0.0
  0
LINE
  5
113
330
1F
100
AcDbEntity
  8
0
  6
Continuous
 62
     7
370
    15
100
AcDbLine
 10
319.9753631459
 20
138.1347844622
 30
0.0
 11
319.9253697501
 21
138.1347844622
 31
0.0
  0
LINE
  5
114
330
1F
100
AcDbEntity
  8
0
  6
Continuous
 62
     7
370
    15
100
AcDbLine
 10
694.9753631459
 20
897.5847730658
 30
0.0
 11
694.9753631459
 21
893.3347830794
 31
0.0
  0
LINE
  5
115
330
1F
100
AcDbEntity
  8
0
  6
Continuous
 62
     7
370
    15
100
AcDbLine
 10
694.9753631459
 20
893.3347830794
 30
0.0
 11
294.9753720866
 21
893.3347830794
 31
0.0
  0
LINE
  5
116
330
1F
100
AcDbEntity
  8
0
  6
Continuous
 62
     7
370
    15
100
AcDbLine
 10
294.9753720866
 20
893.3347830794
 30
0.0
 11
294.9753720866
 21
897.5847730658
 31
0.0
  0
LINE
  5
117
330
1F
100
AcDbEntity
  8
0
  6
Continuous
 62
     7
370
    15
100
AcDbLine
 10
294.9753720866
 20
897.5847730658
 30
0.0
 11
294.9753720866
 21
964.084781172
 31
0.0
  0
LINE
  5
118
330
1F
100
AcDbEntity
  8
0
  6
Continuous
 62
     7
370
    15
100
AcDbLine
 10
314.9753679143
 20
913.3691558859
 30
0.0
 11
314.9753679143
 21
948.3003983519
 31
0.0
  0
LINE
  5
119
330
1F
100
AcDbEntity
  8
0
  6
Continuous
 62
     7
370
    15
100
AcDbLine
 10
674.9753673183
 20
948.3003983519
 30
0.0
 11
674.9753673183
 21
913.3691558859
 31
0.0
  0
LINE
  5
11A
330
1F
100
AcDbEntity
  8
0
  6
Continuous
 62
     7
370
    15
100
AcDbLine
 10
694.9753631459
 20
964.084781172
 30
0.0
 11
694.9753631459
 21
897.5847730658
 31
0.0
  0
LINE
  5
11B
330
1F
100
AcDbEntity
  8
0
  6
Continuous
 62
     7
370
    15
100
AcDbLine
 10
694.9753631459
 20
968.3347711584
 30
0.0
 11
694.9753631459
 21
964.084781172
 31
0.0
  0
LINE
  5
11C
330
1F
100
AcDbEntity
  8
0
  6
Continuous
 62
     7
370
    15
100
AcDbLine
 10
294.9753720866
 20
964.084781172
 30
0.0
 11
294.9753720866
 21
968.3347711584
 31
0.0
  0
LINE
  5
11D
330
1F
100
AcDbEntity
  8
0
  6
Continuous
 62
     7
370
    15
100
AcDbLine
 10
294.9753720866
 20
968.3347711584
 30
0.0
 11
694.9753631459
 21
968.3347711584
 31
0.0
  0
LINE
  5
11E
330
1F
100
AcDbEntity
  8
0
  6
Continuous
 62
     7
370
    15
100
AcDbLine
 10
694.9753631459
 20
891.0847673437
 30
0.0
 11
694.9753631459
 21
893.3347830794
 31
0.0
  0
LINE
  5
11F
330
1F
100
AcDbEntity
  8
0
  6
Continuous
 62
     7
370
    15
100
AcDbLine
 10
294.9753720866
 20
893.3347830794
 30
0.0
 11
294.9753720866
 21
891.0847673437
 31
0.0
  0
LINE
  5
120
330
1F
100
AcDbEntity
  8
0
  6
Continuous
 62
     7
370
    15
100
AcDbLine
 10
294.9753720866
 20
859.5347771666
 30
0.0
 11
319.9253697501
 21
859.5347771666
 31
0.0
  0
LINE
  5
121
330
1F
100
AcDbEntity
  8
0
  6
Continuous
 62
     7
370
    15
100
AcDbLine
 10
294.9753720866
 20
891.0847673437
 30
0.0
 11
294.9753720866
 21
859.5347771666
 31
0.0
  0
LINE
  5
122
330
1F
100
AcDbEntity
  8
0
  6
Continuous
 62
     7
370
    15
100
AcDbLine
 10
694.9753631459
 20
859.5347771666
 30
0.0
 11
694.9753631459
 21
891.0847673437
 31
0.0
  0
LINE
  5
123
330
1F
100
AcDbEntity
  8
0
  6
Continuous
 62
     7
370
    15
100
AcDbLine
 10
670.0253654824
 20
859.5347771666
 30
0.0
 11
694.9753631459
 21
859.5347771666
 31
0.0
  0
LINE
  5
124
330
1F
100
AcDbEntity
  8
0
  6
Continuous
 62
     7
370
    15
100
AcDbLine
 10
670.0253654824
 20
859.5347771666
 30
0.0
 11
670.0253654824
 21
861.7847630999
 31
0.0
  0
ARC
  5
125
330
1F
100
AcDbEntity
  8
0
  6
Continuous
 62
     7
370
    15
100
AcDbCircle
 10
669.9003694581
 20
861.7847773243
 30
0.0
 40
0.125
100
AcDbArc
 50
0.0
 51
180.0
  0
ARC
  5
126
330
1F
100
AcDbEntity
  8
0
  6
Continuous
 62
     7
370
    15
100
AcDbCircle
 10
320.0503694581
 20
861.7847773243
 30
0.0
 40
0.1250000000000568
100
AcDbArc
 50
0.0
 51
180.0
  0
LINE
  5
127
330
1F
100
AcDbEntity
  8
0
  6
Continuous
 62
     7
370
    15
100
AcDbLine
 10
319.9253697501
 20
861.7847630999
 30
0.0
 11
319.9253697501
 21
859.5347771666
 31
0.0
  0
LINE
  5
128
330
1F
100
AcDbEntity
  8
0
  6
Continuous
 62
     7
370
    15
100
AcDbLine
 10
669.7753687011
 20
861.7847630999
 30
0.0
 11
669.7753687011
 21
857.5347731135
 31
0.0
  0
LINE
  5
129
330
1F
100
AcDbEntity
  8
0
  6
Continuous
 62
     7
370
    15
100
AcDbLine
 10
320.1753665315
 20
857.5347731135
 30
0.0
 11
669.7753687011
 21
857.5347731135
 31
0.0
  0
LINE
  5
12A
330
1F
100
AcDbEntity
  8
0
  6
Continuous
 62
     7
370
    15
100
AcDbLine
 10
320.1753665315
 20
857.5347731135
 30
0.0
 11
320.1753665315
 21
861.7847630999
 31
0.0
  0
LINE
  5
12B
330
1F
100
AcDbEntity
  8
0
  6
Continuous
 62
     7
370
    15
100
AcDbLine
 10
694.9753631459
 20
80.3316304705
 30
0.0
 11
694.9753631459
 21
68.3316359541
 31
0.0
  0
LINE
  5
12C
330
1F
100
AcDbEntity
  8
0
  6
Continuous
 62
     7
370
    15
100
AcDbLine
 10
294.9753720866
 20
68.3316359541
 30
0.0
 11
294.9753720866
 21
80.3316304705
 31
0.0
  0
LINE
  5
12D
330
1F
100
AcDbEntity
  8
0
  6
Continuous
 62
     7
370
    15
100
AcDbLine
 10
694.9753631459
 20
80.3316304705
 30
0.0
 11
694.9753631459
 21
138.1347844622
 31
0.0
  0
LINE
  5
12E
330
1F
100
AcDbEntity
  8
0
  6
Continuous
 62
     7
370
    15
100
AcDbLine
 10
294.9753720866
 20
138.1347844622
 30
0.0
 11
294.9753720866
 21
80.3316304705
 31
0.0
  0
LINE
  5
12F
330
1F
100
AcDbEntity
  8
0
  6
Continuous
 62
     7
370
    15
100
AcDbLine
 10
319.9253697501
 20
138.1347844622
 30
0.0
 11
294.9753720866
 21
138.1347844622
 31
0.0
  0
LINE
  5
130
330
1F
100
AcDbEntity
  8
0
  6
Continuous
 62
     7
370
    15
100
AcDbLine
 10
319.9253697501
 20
135.8847687266
 30
0.0
 11
319.9253697501
 21
138.1347844622
 31
0.0
  0
LINE
  5
131
330
1F
100
AcDbEntity
  8
0
  6
Continuous
 62
     7
370
    15
100
AcDbLine
 10
670.0253654824
 20
138.1347844622
 30
0.0
 11
670.0253654824
 21
135.8847687266
 31
0.0
  0
ARC
  5
132
330
1F
100
AcDbEntity
  8
0
  6
Continuous
 62
     7
370
    15
100
AcDbCircle
 10
669.9003694581
 20
135.8847773243
 30
0.0
 40
0.125
100
AcDbArc
 50
180.0
 51
0.0
  0
ARC
  5
133
330
1F
100
AcDbEntity
  8
0
  6
Continuous
 62
     7
370
    15
100
AcDbCircle
 10
320.0503694581
 20
135.8847773243
 30
0.0
 40
0.1250000000000568
100
AcDbArc
 50
180.0
 51
0.0
  0
LINE
  5
134
330
1F
100
AcDbEntity
  8
0
  6
Continuous
 62
     7
370
    15
100
AcDbLine
 10
694.9753631459
 20
138.1347844622
 30
0.0
 11
670.0253654824
 21
138.1347844622
 31
0.0
  0
LINE
  5
135
330
1F
100
AcDbEntity
  8
0
  6
Continuous
 62
     7
370
    15
100
AcDbLine
 10
320.1753665315
 20
140.1347885153
 30
0.0
 11
669.7753687011
 21
140.1347885153
 31
0.0
  0
LINE
  5
136
330
1F
100
AcDbEntity
  8
0
  6
Continuous
 62
     7
370
    15
100
AcDbLine
 10
320.1753665315
 20
135.8847687266
 30
0.0
 11
320.1753665315
 21
140.1347885153
 31
0.0
  0
LINE
  5
137
330
1F
100
AcDbEntity
  8
0
  6
Continuous
 62
     7
370
    15
100
AcDbLine
 10
669.7753687011
 20
140.1347885153
 30
0.0
 11
669.7753687011
 21
135.8847687266
 31
0.0
  0
LINE
  5
138
330
1F
100
AcDbEntity
  8
0
  6
Continuous
 62
     7
370
    15
100
AcDbLine
 10
694.9753631459
 20
68.3057675383
 30
0.0
 11
694.9753631459
 21
68.3316359541
 31
0.0
  0
LINE
  5
139
330
1F
100
AcDbEntity
  8
0
  6
Continuous
 62
     7
370
    15
100
AcDbLine
 10
294.9753720866
 20
68.3057675383
 30
0.0
 11
294.9753720866
 21
68.3316359541
 31
0.0
  0
LINE
  5
13A
330
1F
100
AcDbEntity
  8
0
  6
Continuous
 62
     7
370
    15
100
AcDbLine
 10
669.9753720866
 20
160.3458592913
 30
0.0
 11
666.975366007
 21
160.3458592913
 31
0.0
  0
LINE
  5
13B
330
1F
100
AcDbEntity
  8
0
  6
Continuous
 62
     7
370
    15
100
AcDbLine
 10
322.9753692256
 20
160.3458592913
 30
0.0
 11
319.9753631459
 21
160.3458592913
 31
0.0
  0
LINE
  5
13C
330
1F
100
AcDbEntity
  8
0
  6
Continuous
 62
     7
370
    15
100
AcDbLine
 10
570.7959104882
 20
951.7347881815
 30
0.0
 11
503.0547734903
 21
951.7347881815
 31
0.0
  0
LINE
  5
13D
330
1F
100
AcDbEntity
  8
0
  6
Continuous
 62
     7
370
    15
100
AcDbLine
 10
486.9968314277
 20
951.7347881815
 30
0.0
 11
419.2482401239
 21
951.7347881815
 31
0.0
  0
ARC
  5
13E
330
1F
100
AcDbEntity
  8
0
  6
Continuous
 62
     7
370
    15
100
AcDbCircle
 10
590.9320394964
 20
66.4416417678
 30
0.0
 40
11.28739576291353
100
AcDbArc
 50
170.4939880033
 51
197.838394009
  0
ARC
  5
13F
330
1F
100
AcDbEntity
  8
0
  6
Continuous
 62
     7
370
    15
100
AcDbCircle
 10
549.0245854692
 20
66.4385068423
 30
0.0
 40
11.28211125291767
100
AcDbArc
 50
340.8633275272
 51
9.5266487821
  0
LWPOLYLINE
  5
140
330
1F
100
AcDbEntity
  8
0
  6
Continuous
 62
     7
370
    15
100
AcDbPolyline
 90
        9
 70
   128
 43
0.0
 10
568.475371282
 20
58.3657989523
 10
568.5895514296
 20
58.1232080481
 10
568.914709668
 20
57.9175422213
 10
569.4013443397
 20
57.7801237128
 10
569.9753705965
 20
57.7318737528
 10
570.549393128
 20
57.7801237128
 10
571.0360277997
 20
57.9175422213
 10
571.3611897634
 20
58.1232080481
 10
571.4753699111
 20
58.3657989523
  0
LINE
  5
141
330
1F
100
AcDbEntity
  8
0
  6
Continuous
 62
     7
370
    15
100
AcDbLine
 10
568.475371282
 20
68.3316359541
 30
0.0
 11
568.475371282
 21
58.3657989523
 31
0.0
  0
LINE
  5
142
330
1F
100
AcDbEntity
  8
0
  6
Continuous
 62
     7
370
    15
100
AcDbLine
 10
571.4753699111
 20
58.3657989523
 30
0.0
 11
571.4753699111
 21
68.3316359541
 31
0.0
  0
LINE
  5
143
330
1F
100
AcDbEntity
  8
0
  6
Continuous
 62
     7
370
    15
100
AcDbLine
 10
558.3578106569
 20
59.6925387404
 30
0.0
 11
558.3546665119
 21
59.710896971
 31
0.0
  0
ARC
  5
144
330
1F
100
AcDbEntity
  8
0
  6
Continuous
 62
     7
370
    15
100
AcDbCircle
 10
440.9317429346
 20
66.4416200571
 30
0.0
 40
11.28710538957383
100
AcDbArc
 50
170.4936294387
 51
197.8387525737
  0
ARC
  5
145
330
1F
100
AcDbEntity
  8
0
  6
Continuous
 62
     7
370
    15
100
AcDbCircle
 10
399.0243539525
 20
66.4385335631
 30
0.0
 40
11.28233662393121
100
AcDbArc
 50
340.8635810361
 51
9.5263191131
  0
LWPOLYLINE
  5
146
330
1F
100
AcDbEntity
  8
0
  6
Continuous
 62
     7
370
    15
100
AcDbPolyline
 90
        9
 70
   128
 43
0.0
 10
418.4753690468
 20
58.3657989523
 10
418.5895491944
 20
58.1232080481
 10
418.9147074329
 20
57.9175422213
 10
419.4013421045
 20
57.7801237128
 10
419.9753720866
 20
57.7318737528
 10
420.5493946181
 20
57.7801237128
 10
421.0360292898
 20
57.9175422213
 10
421.3611875282
 20
58.1232080481
 10
421.4753676759
 20
58.3657989523
  0
LINE
  5
147
330
1F
100
AcDbEntity
  8
0
  6
Continuous
 62
     7
370
    15
100
AcDbLine
 10
418.4753690468
 20
68.3316359541
 30
0.0
 11
418.4753690468
 21
58.3657989523
 31
0.0
  0
LINE
  5
148
330
1F
100
AcDbEntity
  8
0
  6
Continuous
 62
     7
370
    15
100
AcDbLine
 10
421.4753676759
 20
58.3657989523
 30
0.0
 11
421.4753676759
 21
68.3316359541
 31
0.0
  0
LINE
  5
149
330
1F
100
AcDbEntity
  8
0
  6
Continuous
 62
     7
370
    15
100
AcDbLine
 10
408.3578084217
 20
59.6925387404
 30
0.0
 11
408.3546717273
 21
59.710896971
 31
0.0
  0
LINE
  5
14A
330
1F
100
AcDbEntity
  8
0
  6
Continuous
 62
     7
370
    15
100
AcDbLine
 10
669.9753720866
 20
160.8464489004
 30
0.0
 11
666.975366007
 21
160.8464489004
 31
0.0
  0
LINE
  5
14B
330
1F
100
AcDbEntity
  8
0
  6
Continuous
 62
     7
370
    15
100
AcDbLine
 10
322.9753692256
 20
160.8464489004
 30
0.0
 11
319.9753631459
 21
160.8464489004
 31
0.0
  0
LINE
  5
14C
330
1F
100
AcDbEntity
  8
0
  6
Continuous
 62
     7
370
    15
100
AcDbLine
 10
669.9753720866
 20
162.3464593909
 30
0.0
 11
666.975366007
 21
162.3464593909
 31
0.0
  0
LINE
  5
14D
330
1F
100
AcDbEntity
  8
0
  6
Continuous
 62
     7
370
    15
100
AcDbLine
 10
322.9753692256
 20
162.3464593909
 30
0.0
 11
319.9753631459
 21
162.3464593909
 31
0.0
  0
CIRCLE
  5
14E
330
1F
100
AcDbEntity
  8
0
  6
Continuous
 62
     7
370
    15
100
AcDbCircle
 10
614.9753694581
 20
927.8464476048
 30
0.0
 40
14.25000000000011
  0
ARC
  5
14F
330
1F
100
AcDbEntity
  8
0
  6
Continuous
 62
     7
370
    15
100
AcDbCircle
 10
494.9753694581
 20
924.8464476048
 30
0.0
 40
10.00000000000009
100
AcDbArc
 50
123.3779429051
 51
236.6220570949
  0
ARC
  5
150
330
1F
100
AcDbEntity
  8
0
  6
Continuous
 62
     7
370
    15
100
AcDbCircle
 10
494.9753694581
 20
924.8464476048
 30
0.0
 40
10.00000000000012
100
AcDbArc
 50
303.3779429052
 51
56.6220570948
  0
CIRCLE
  5
151
330
1F
100
AcDbEntity
  8
0
  6
Continuous
 62
     7
370
    15
100
AcDbCircle
 10
454.9753694581
 20
924.8464476048
 30
0.0
 40
9.999999999999886
  0
ARC
  5
152
330
1F
100
AcDbEntity
  8
0
  6
Continuous
 62
     7
370
    15
100
AcDbCircle
 10
414.9753694581
 20
924.8464476048
 30
0.0
 40
9.999999999999973
100
AcDbArc
 50
273.5221004432
 51
87.124876827
  0
CIRCLE
  5
153
330
1F
100
AcDbEntity
  8
0
  6
Continuous
 62
     7
370
    15
100
AcDbCircle
 10
374.9753694581
 20
924.8464476048
 30
0.0
 40
10.0
  0
CIRCLE
  5
154
330
1F
100
AcDbEntity
  8
0
  6
Continuous
 62
     7
370
    15
100
AcDbCircle
 10
334.9753694581
 20
924.8464476048
 30
0.0
 40
9.999999999999886
  0
CIRCLE
  5
155
330
1F
100
AcDbEntity
  8
0
  6
Continuous
 62
     7
370
    15
100
AcDbCircle
 10
534.9753694581
 20
924.8464476048
 30
0.0
 40
9.999999999999886
  0
ARC
  5
156
330
1F
100
AcDbEntity
  8
0
  6
Continuous
 62
     7
370
    15
100
AcDbCircle
 10
574.9753694581
 20
924.8464476048
 30
0.0
 40
10.00000000000011
100
AcDbArc
 50
92.8751231729
 51
267.1248768271
  0
CIRCLE
  5
157
330
1F
100
AcDbEntity
  8
0
  6
Continuous
 62
     7
370
    15
100
AcDbCircle
 10
654.9753694581
 20
924.8464476048
 30
0.0
 40
10.0
  0
LINE
  5
158
330
1F
100
AcDbEntity
  8
0
  6
Continuous
 62
     7
370
    15
100
AcDbLine
 10
664.910571705
 20
949.8464534304
 30
0.0
 11
586.7379103409
 21
949.8464534304
 31
0.0
  0
LINE
  5
159
330
1F
100
AcDbEntity
  8
0
  6
Continuous
 62
     7
370
    15
100
AcDbLine
 10
573.5031385528
 20
949.8464534304
 30
0.0
 11
501.1389181571
 21
949.8464534304
 31
0.0
  0
LINE
  5
15A
330
1F
100
AcDbEntity
  8
0
  6
Continuous
 62
     7
370
    15
100
AcDbLine
 10
488.7749311136
 20
949.8464534304
 30
0.0
 11
416.4631087886
 21
949.8464534304
 31
0.0
  0
LINE
  5
15B
330
1F
100
AcDbEntity
  8
0
  6
Continuous
 62
     7
370
    15
100
AcDbLine
 10
403.2743070828
 20
949.8464534304
 30
0.0
 11
325.0401784288
 21
949.8464534304
 31
0.0
  0
LINE
  5
15C
330
1F
100
AcDbEntity
  8
0
  6
Continuous
 62
     8
370
    15
100
AcDbLine
 10
682.8882862435
 20
959.6663186571
 30
0.0
 11
682.8882862435
 21
957.1765432379
 31
0.0
  0
ARC
  5
15D
330
1F
100
AcDbEntity
  8
0
  6
Continuous
 62
     8
370
    15
100
AcDbCircle
 10
682.4627180683
 20
959.7312479218
 30
0.0
 40
2.589908163200926
100
AcDbArc
 50
232.5953677284
 51
279.4576100559
  0
ARC
  5
15E
330
1F
100
AcDbEntity
  8
0
  6
Continuous
 62
     8
370
    15
100
AcDbCircle
 10
682.8922331546
 20
957.6635667466
 30
0.0
 40
2.002755799688498
100
AcDbArc
 50
90.1129151591
 51
179.7039739797
  0
LINE
  5
15F
330
1F
100
AcDbEntity
  8
0
  6
Continuous
 62
     8
370
    15
100
AcDbLine
 10
687.3145122634
 20
957.1765432379
 30
0.0
 11
687.3145122634
 21
959.6663186571
 31
0.0
  0
ARC
  5
160
330
1F
100
AcDbEntity
  8
0
  6
Continuous
 62
     8
370
    15
100
AcDbCircle
 10
687.2967018537
 20
957.6561188209
 30
0.0
 40
2.010278735026068
100
AcDbArc
 50
0.5071999236
 51
89.4923715606
  0
ARC
  5
161
330
1F
100
AcDbEntity
  8
0
  6
Continuous
 62
     8
370
    15
100
AcDbCircle
 10
687.6695488348
 20
959.9936073073
 30
0.0
 40
2.839348682047694
100
AcDbArc
 50
262.8168445259
 51
305.2163162622
  0
LINE
  5
162
330
1F
100
AcDbEntity
  8
0
  6
Continuous
 62
     8
370
    15
100
AcDbLine
 10
682.8882862435
 20
959.6663186571
 30
0.0
 11
687.3145122634
 21
959.6663186571
 31
0.0
  0
LINE
  5
163
330
1F
100
AcDbEntity
  8
0
  6
Continuous
 62
     8
370
    15
100
AcDbLine
 10
687.3145122634
 20
957.1765432379
 30
0.0
 11
682.8882862435
 21
957.1765432379
 31
0.0
  0
LINE
  5
164
330
1F
100
AcDbEntity
  8
0
  6
Continuous
 62
     8
370
    15
100
AcDbLine
 10
302.6362229692
 20
959.6663186571
 30
0.0
 11
302.6362229692
 21
957.1765432379
 31
0.0
  0
ARC
  5
165
330
1F
100
AcDbEntity
  8
0
  6
Continuous
 62
     8
370
    15
100
AcDbCircle
 10
302.2811863978
 20
959.9936073073
 30
0.0
 40
2.839348682047755
100
AcDbArc
 50
234.7836837378
 51
277.1831554741
  0
ARC
  5
166
330
1F
100
AcDbEntity
  8
0
  6
Continuous
 62
     8
370
    15
100
AcDbCircle
 10
302.654063716
 20
957.6560884839
 30
0.0
 40
2.010309339809475
100
AcDbArc
 50
90.5084853849
 51
179.491943131
  0
LINE
  5
167
330
1F
100
AcDbEntity
  8
0
  6
Continuous
 62
     8
370
    15
100
AcDbLine
 10
492.8882886277
 20
959.6663186571
 30
0.0
 11
492.8882886277
 21
957.1765432379
 31
0.0
  0
ARC
  5
168
330
1F
100
AcDbEntity
  8
0
  6
Continuous
 62
     8
370
    15
100
AcDbCircle
 10
492.462717987
 20
959.7312380136
 30
0.0
 40
2.589898794759546
100
AcDbArc
 50
232.595277907
 51
279.4576998773
  0
ARC
  5
169
330
1F
100
AcDbEntity
  8
0
  6
Continuous
 62
     8
370
    15
100
AcDbCircle
 10
492.8922168509
 20
957.6635854943
 30
0.0
 40
2.00273701529665
100
AcDbArc
 50
90.1123815808
 51
179.7045075579
  0
LINE
  5
16A
330
1F
100
AcDbEntity
  8
0
  6
Continuous
 62
     8
370
    15
100
AcDbLine
 10
302.6362229692
 20
959.6663186571
 30
0.0
 11
307.062448989
 21
959.6663186571
 31
0.0
  0
LINE
  5
16B
330
1F
100
AcDbEntity
  8
0
  6
Continuous
 62
     8
370
    15
100
AcDbLine
 10
307.062448989
 20
957.1765432379
 30
0.0
 11
307.062448989
 21
959.6663186571
 31
0.0
  0
LINE
  5
16C
330
1F
100
AcDbEntity
  8
0
  6
Continuous
 62
     8
370
    15
100
AcDbLine
 10
307.062448989
 20
957.1765432379
 30
0.0
 11
302.6362229692
 21
957.1765432379
 31
0.0
  0
LINE
  5
16D
330
1F
100
AcDbEntity
  8
0
  6
Continuous
 62
     8
370
    15
100
AcDbLine
 10
492.8882886277
 20
959.6663186571
 30
0.0
 11
497.0624503301
 21
959.6663186571
 31
0.0
  0
LINE
  5
16E
330
1F
100
AcDbEntity
  8
0
  6
Continuous
 62
     8
370
    15
100
AcDbLine
 10
497.0624503301
 20
957.1765432379
 30
0.0
 11
497.0624503301
 21
959.6663186571
 31
0.0
  0
LINE
  5
16F
330
1F
100
AcDbEntity
  8
0
  6
Continuous
 62
     8
370
    15
100
AcDbLine
 10
497.0624503301
 20
957.1765432379
 30
0.0
 11
492.8882886277
 21
957.1765432379
 31
0.0
  0
LINE
  5
170
330
1F
100
AcDbEntity
  8
0
  6
Continuous
 62
     8
370
    15
100
AcDbLine
 10
577.8882895218
 20
959.6663186571
 30
0.0
 11
577.8882895218
 21
957.1765432379
 31
0.0
  0
ARC
  5
171
330
1F
100
AcDbEntity
  8
0
  6
Continuous
 62
     8
370
    15
100
AcDbCircle
 10
577.462717644
 20
959.7312330424
 30
0.0
 40
2.589894094389162
100
AcDbArc
 50
232.5952328412
 51
279.4577449431
  0
ARC
  5
172
330
1F
100
AcDbEntity
  8
0
  6
Continuous
 62
     8
370
    15
100
AcDbCircle
 10
577.8922161785
 20
957.6635870658
 30
0.0
 40
2.002735440738637
100
AcDbArc
 50
90.1123368542
 51
179.7045522846
  0
LINE
  5
173
330
1F
100
AcDbEntity
  8
0
  6
Continuous
 62
     8
370
    15
100
AcDbLine
 10
582.0624512242
 20
957.1765432379
 30
0.0
 11
582.0624512242
 21
959.6663186571
 31
0.0
  0
ARC
  5
174
330
1F
100
AcDbEntity
  8
0
  6
Continuous
 62
     8
370
    15
100
AcDbCircle
 10
582.0585192387
 20
957.66358172
 30
0.0
 40
2.002740797019761
100
AcDbArc
 50
0.2955998647
 51
89.8875109966
  0
ARC
  5
175
330
1F
100
AcDbEntity
  8
0
  6
Continuous
 62
     8
370
    15
100
AcDbCircle
 10
582.48802033
 20
959.7312441819
 30
0.0
 40
2.589904627038473
100
AcDbArc
 50
260.5423560407
 51
307.404666175
  0
LINE
  5
176
330
1F
100
AcDbEntity
  8
0
  6
Continuous
 62
     8
370
    15
100
AcDbLine
 10
577.8882895218
 20
959.6663186571
 30
0.0
 11
582.0624512242
 21
959.6663186571
 31
0.0
  0
LINE
  5
177
330
1F
100
AcDbEntity
  8
0
  6
Continuous
 62
     8
370
    15
100
AcDbLine
 10
582.0624512242
 20
957.1765432379
 30
0.0
 11
577.8882895218
 21
957.1765432379
 31
0.0
  0
LINE
  5
178
330
1F
100
AcDbEntity
  8
0
  6
Continuous
 62
     8
370
    15
100
AcDbLine
 10
407.8882877337
 20
959.6663186571
 30
0.0
 11
412.0624531613
 21
959.6663186571
 31
0.0
  0
LINE
  5
179
330
1F
100
AcDbEntity
  8
0
  6
Continuous
 62
     8
370
    15
100
AcDbLine
 10
412.0624531613
 20
957.1765432379
 30
0.0
 11
412.0624531613
 21
959.6663186571
 31
0.0
  0
LINE
  5
17A
330
1F
100
AcDbEntity
  8
0
  6
Continuous
 62
     8
370
    15
100
AcDbLine
 10
412.0624531613
 20
957.1765432379
 30
0.0
 11
407.8882877337
 21
957.1765432379
 31
0.0
  0
LINE
  5
17B
330
1F
100
AcDbEntity
  8
0
  6
Continuous
 62
     8
370
    15
100
AcDbLine
 10
407.8882877337
 20
959.6663186571
 30
0.0
 11
407.8882877337
 21
957.1765432379
 31
0.0
  0
ARC
  5
17C
330
1F
100
AcDbEntity
  8
0
  6
Continuous
 62
     8
370
    15
100
AcDbCircle
 10
412.0585211759
 20
957.66358172
 30
0.0
 40
2.002740797019761
100
AcDbArc
 50
0.2955998647
 51
89.8875109966
  0
ARC
  5
17D
330
1F
100
AcDbEntity
  8
0
  6
Continuous
 62
     8
370
    15
100
AcDbCircle
 10
412.4880182667
 20
959.7312602585
 30
0.0
 40
2.589919827802159
100
AcDbArc
 50
260.5425017793
 51
307.4045204363
  0
ARC
  5
17E
330
1F
100
AcDbEntity
  8
0
  6
Continuous
 62
     8
370
    15
100
AcDbCircle
 10
407.4627195585
 20
959.7312479218
 30
0.0
 40
2.589908163200961
100
AcDbArc
 50
232.5953677284
 51
279.4576100559
  0
ARC
  5
17F
330
1F
100
AcDbEntity
  8
0
  6
Continuous
 62
     8
370
    15
100
AcDbCircle
 10
407.8922197191
 20
957.66358172
 30
0.0
 40
2.002740797019761
100
AcDbArc
 50
90.1124890034
 51
179.7044001353
  0
ARC
  5
180
330
1F
100
AcDbEntity
  8
0
  6
Continuous
 62
     8
370
    15
100
AcDbCircle
 10
497.0585210091
 20
957.6635843929
 30
0.0
 40
2.002738118871226
100
AcDbArc
 50
0.29552379
 51
89.8875870713
  0
ARC
  5
181
330
1F
100
AcDbEntity
  8
0
  6
Continuous
 62
     8
370
    15
100
AcDbCircle
 10
497.4880208219
 20
959.7312386121
 30
0.0
 40
2.589899360704793
100
AcDbArc
 50
260.5423055488
 51
307.4047166669
  0
ARC
  5
182
330
1F
100
AcDbEntity
  8
0
  6
Continuous
 62
     8
370
    15
100
AcDbCircle
 10
307.0585319289
 20
957.663596693
 30
0.0
 40
2.002725794717432
100
AcDbArc
 50
0.2951737099
 51
89.8879371514
  0
ARC
  5
183
330
1F
100
AcDbEntity
  8
0
  6
Continuous
 62
     8
370
    15
100
AcDbCircle
 10
307.4880171642
 20
959.7312479218
 30
0.0
 40
2.589908163200926
100
AcDbArc
 50
260.5423899441
 51
307.4046322716
  0
LINE
  5
184
330
1F
100
AcDbEntity
  8
0
  6
Continuous
 62
     8
370
    15
100
AcDbLine
 10
688.5480154859
 20
902.2647509596
 30
0.0
 11
687.3145122634
 21
957.1765432379
 31
0.0
  0
LINE
  5
185
330
1F
100
AcDbEntity
  8
0
  6
Continuous
 62
     8
370
    15
100
AcDbLine
 10
689.3069018231
 20
957.6739141962
 30
0.0
 11
690.5404050456
 21
902.7621219179
 31
0.0
  0
ARC
  5
186
330
1F
100
AcDbEntity
  8
0
  6
Continuous
 62
     8
370
    15
100
AcDbCircle
 10
688.9030520572
 20
905.081815029
 30
0.0
 40
2.839348682047694
100
AcDbArc
 50
262.8168445259
 51
305.2163162622
  0
LINE
  5
187
330
1F
100
AcDbEntity
  8
0
  6
Continuous
 62
     8
370
    15
100
AcDbLine
 10
299.4103301869
 20
902.7621219179
 30
0.0
 11
300.6438334094
 21
957.6739141962
 31
0.0
  0
LINE
  5
188
330
1F
100
AcDbEntity
  8
0
  6
Continuous
 62
     8
370
    15
100
AcDbLine
 10
302.6362229692
 20
957.1765432379
 30
0.0
 11
301.4027197467
 21
902.2647509596
 31
0.0
  0
ARC
  5
189
330
1F
100
AcDbEntity
  8
0
  6
Continuous
 62
     8
370
    15
100
AcDbCircle
 10
301.0476831753
 20
905.081815029
 30
0.0
 40
2.839348682047755
100
AcDbArc
 50
234.7836837378
 51
277.1831554741
  0
LINE
  5
18A
330
1F
100
AcDbEntity
  8
0
  6
Continuous
 62
     8
370
    15
100
AcDbLine
 10
680.3971548186
 20
902.7621219179
 30
0.0
 11
680.8895040856
 21
957.6739141962
 31
0.0
  0
LINE
  5
18B
330
1F
100
AcDbEntity
  8
0
  6
Continuous
 62
     8
370
    15
100
AcDbLine
 10
682.8882862435
 20
957.1765432379
 30
0.0
 11
682.3959369765
 21
902.2647509596
 31
0.0
  0
ARC
  5
18C
330
1F
100
AcDbEntity
  8
0
  6
Continuous
 62
     8
370
    15
100
AcDbCircle
 10
681.9702872378
 20
904.8191278646
 30
0.0
 40
2.589598245447084
100
AcDbArc
 50
232.5923959658
 51
279.4605818186
  0
LINE
  5
18D
330
1F
100
AcDbEntity
  8
0
  6
Continuous
 62
     8
370
    15
100
AcDbLine
 10
575.3971618222
 20
902.7621219179
 30
0.0
 11
575.8895073639
 21
957.6739141962
 31
0.0
  0
LINE
  5
18E
330
1F
100
AcDbEntity
  8
0
  6
Continuous
 62
     8
370
    15
100
AcDbLine
 10
577.8882895218
 20
957.1765432379
 30
0.0
 11
577.3959402548
 21
902.2647509596
 31
0.0
  0
ARC
  5
18F
330
1F
100
AcDbEntity
  8
0
  6
Continuous
 62
     8
370
    15
100
AcDbCircle
 10
576.970286719
 20
904.8191008228
 30
0.0
 40
2.589572195582112
100
AcDbArc
 50
232.5921647061
 51
279.460763032
  0
LINE
  5
190
330
1F
100
AcDbEntity
  8
0
  6
Continuous
 62
     8
370
    15
100
AcDbLine
 10
582.5547967659
 20
902.2647509596
 30
0.0
 11
582.0624512242
 21
957.1765432379
 31
0.0
  0
LINE
  5
191
330
1F
100
AcDbEntity
  8
0
  6
Continuous
 62
     8
370
    15
100
AcDbLine
 10
584.0612333821
 20
957.6739141962
 30
0.0
 11
584.5535789238
 21
902.7621219179
 31
0.0
  0
ARC
  5
192
330
1F
100
AcDbEntity
  8
0
  6
Continuous
 62
     8
370
    15
100
AcDbCircle
 10
582.9804489695
 20
904.8191179589
 30
0.0
 40
2.589588879669761
100
AcDbArc
 50
260.539328362
 51
307.4076938536
  0
LINE
  5
193
330
1F
100
AcDbEntity
  8
0
  6
Continuous
 62
     8
370
    15
100
AcDbLine
 10
307.554798256
 20
902.2647509596
 30
0.0
 11
307.062448989
 21
957.1765432379
 31
0.0
  0
LINE
  5
194
330
1F
100
AcDbEntity
  8
0
  6
Continuous
 62
     8
370
    15
100
AcDbLine
 10
309.0612311469
 20
957.6739141962
 30
0.0
 11
309.5535804139
 21
902.7621219179
 31
0.0
  0
ARC
  5
195
330
1F
100
AcDbEntity
  8
0
  6
Continuous
 62
     8
370
    15
100
AcDbCircle
 10
307.9804479948
 20
904.8191278646
 30
0.0
 40
2.5895982454471
100
AcDbArc
 50
260.5394181814
 51
307.4076040342
  0
LINE
  5
196
330
1F
100
AcDbEntity
  8
0
  6
Continuous
 62
     8
370
    15
100
AcDbLine
 10
497.5547977345
 20
902.2647509596
 30
0.0
 11
497.0624503301
 21
957.1765432379
 31
0.0
  0
LINE
  5
197
330
1F
100
AcDbEntity
  8
0
  6
Continuous
 62
     8
370
    15
100
AcDbLine
 10
499.061232488
 20
957.6739141962
 30
0.0
 11
499.5535780297
 21
902.7621219179
 31
0.0
  0
ARC
  5
198
330
1F
100
AcDbEntity
  8
0
  6
Continuous
 62
     8
370
    15
100
AcDbCircle
 10
497.9804506042
 20
904.8191093909
 30
0.0
 40
2.589580537609165
100
AcDbArc
 50
260.539282665
 51
307.4077645737
  0
LINE
  5
199
330
1F
100
AcDbEntity
  8
0
  6
Continuous
 62
     8
370
    15
100
AcDbLine
 10
412.5547949778
 20
902.2647509596
 30
0.0
 11
412.0624531613
 21
957.1765432379
 31
0.0
  0
LINE
  5
19A
330
1F
100
AcDbEntity
  8
0
  6
Continuous
 62
     8
370
    15
100
AcDbLine
 10
414.0612353192
 20
957.6739141962
 30
0.0
 11
414.5535771357
 21
902.7621219179
 31
0.0
  0
ARC
  5
19B
330
1F
100
AcDbEntity
  8
0
  6
Continuous
 62
     8
370
    15
100
AcDbCircle
 10
412.9804496463
 20
904.8191080534
 30
0.0
 40
2.589579513989112
100
AcDbArc
 50
260.5392385429
 51
307.4077836728
  0
LINE
  5
19C
330
1F
100
AcDbEntity
  8
0
  6
Continuous
 62
     8
370
    15
100
AcDbLine
 10
405.3971637593
 20
902.7621219179
 30
0.0
 11
405.8895055758
 21
957.6739141962
 31
0.0
  0
LINE
  5
19D
330
1F
100
AcDbEntity
  8
0
  6
Continuous
 62
     8
370
    15
100
AcDbLine
 10
407.8882877337
 20
957.1765432379
 30
0.0
 11
407.3959384667
 21
902.2647509596
 31
0.0
  0
ARC
  5
19E
330
1F
100
AcDbEntity
  8
0
  6
Continuous
 62
     8
370
    15
100
AcDbCircle
 10
406.9702860636
 20
904.8190935923
 30
0.0
 40
2.58956487719517
100
AcDbArc
 50
232.5921130849
 51
279.4607646068
  0
LINE
  5
19F
330
1F
100
AcDbEntity
  8
0
  6
Continuous
 62
     8
370
    15
100
AcDbLine
 10
490.3971609281
 20
902.7621219179
 30
0.0
 11
490.8895064698
 21
957.6739141962
 31
0.0
  0
LINE
  5
1A0
330
1F
100
AcDbEntity
  8
0
  6
Continuous
 62
     8
370
    15
100
AcDbLine
 10
492.8882886277
 20
957.1765432379
 30
0.0
 11
492.395943086
 21
902.2647509596
 31
0.0
  0
ARC
  5
1A1
330
1F
100
AcDbEntity
  8
0
  6
Continuous
 62
     8
370
    15
100
AcDbCircle
 10
491.970289646
 20
904.8191129903
 30
0.0
 40
2.589584181858517
100
AcDbArc
 50
232.5922610933
 51
279.460716691
  0
LINE
  5
1A2
330
1F
100
AcDbEntity
  8
0
  6
Continuous
 62
     8
370
    15
100
AcDbLine
 10
682.3959369765
 20
902.2647509596
 30
0.0
 11
688.5480154859
 21
902.2647509596
 31
0.0
  0
LINE
  5
1A3
330
1F
100
AcDbEntity
  8
0
  6
Continuous
 62
     8
370
    15
100
AcDbLine
 10
577.3959402548
 20
902.2647509596
 30
0.0
 11
582.5547967659
 21
902.2647509596
 31
0.0
  0
LINE
  5
1A4
330
1F
100
AcDbEntity
  8
0
  6
Continuous
 62
     8
370
    15
100
AcDbLine
 10
492.395943086
 20
902.2647509596
 30
0.0
 11
497.5547977345
 21
902.2647509596
 31
0.0
  0
LINE
  5
1A5
330
1F
100
AcDbEntity
  8
0
  6
Continuous
 62
     8
370
    15
100
AcDbLine
 10
301.4027197467
 20
902.2647509596
 30
0.0
 11
307.554798256
 21
902.2647509596
 31
0.0
  0
LINE
  5
1A6
330
1F
100
AcDbEntity
  8
0
  6
Continuous
 62
     8
370
    15
100
AcDbLine
 10
407.3959384667
 20
902.2647509596
 30
0.0
 11
412.5547949778
 21
902.2647509596
 31
0.0
  0
LINE
  5
1A7
330
1F
100
AcDbEntity
  8
0
  6
Continuous
 62
     8
370
    15
100
AcDbLine
 10
693.4753675567
 20
961.8423948309
 30
0.0
 11
689.3069018231
 21
957.6739141962
 31
0.0
  0
LINE
  5
1A8
330
1F
100
AcDbEntity
  8
0
  6
Continuous
 62
     8
370
    15
100
AcDbLine
 10
687.3145122634
 20
959.6663186571
 30
0.0
 11
691.4829779969
 21
963.8347694895
 31
0.0
  0
LINE
  5
1A9
330
1F
100
AcDbEntity
  8
0
  6
Continuous
 62
     8
370
    15
100
AcDbLine
 10
298.4677572356
 20
963.8347694895
 30
0.0
 11
302.6362229692
 21
959.6663186571
 31
0.0
  0
LINE
  5
1AA
330
1F
100
AcDbEntity
  8
0
  6
Continuous
 62
     8
370
    15
100
AcDbLine
 10
300.6438334094
 20
957.6739141962
 30
0.0
 11
296.4753676759
 21
961.8423948309
 31
0.0
  0
LINE
  5
1AB
330
1F
100
AcDbEntity
  8
0
  6
Continuous
 62
     8
370
    15
100
AcDbLine
 10
585.0290861534
 20
960.098750355
 30
0.0
 11
584.0612333821
 21
957.6739141962
 31
0.0
  0
LINE
  5
1AC
330
1F
100
AcDbEntity
  8
0
  6
Continuous
 62
     8
370
    15
100
AcDbLine
 10
582.0624512242
 20
959.6663186571
 30
0.0
 11
583.2662191795
 21
962.6821646712
 31
0.0
  0
ELLIPSE
  5
1AD
330
1F
100
AcDbEntity
  8
0
  6
Continuous
 62
     8
370
    15
100
AcDbEllipse
 10
583.2662188407
 20
960.6897850233
 30
0.0
 11
-1.109690935925073
 21
1.922939575916303
 31
0.0
210
0.0
220
0.0
230
1.0
 40
0.7129198498
 41
4.119172428088665
 42
5.602702292283985
  0
ELLIPSE
  5
1AE
330
1F
100
AcDbEntity
  8
0
  6
Continuous
 62
     8
370
    15
100
AcDbEllipse
 10
583.0217734543
 20
960.0773643786
 30
0.0
 11
0.7610715575459608
 21
1.906748745414802
 31
0.0
210
0.0
220
0.0
230
1.0
 40
0.974171213
 41
5.093682409055038
 42
5.177907175407832
  0
LINE
  5
1AF
330
1F
100
AcDbEntity
  8
0
  6
Continuous
 62
     8
370
    15
100
AcDbLine
 10
575.8895073639
 20
957.6739141962
 30
0.0
 11
574.9216545926
 21
960.098750355
 31
0.0
  0
ELLIPSE
  5
1B0
330
1F
100
AcDbEntity
  8
0
  6
Continuous
 62
     8
370
    15
100
AcDbEllipse
 10
576.928965462
 20
960.0773643786
 30
0.0
 11
-0.7610715575460745
 21
1.906748745414802
 31
0.0
210
0.0
220
0.0
230
1.0
 40
0.974171213
 41
1.10527813177167
 42
1.189502898124573
  0
ELLIPSE
  5
1B1
330
1F
100
AcDbEntity
  8
0
  6
Continuous
 62
     8
370
    15
100
AcDbEllipse
 10
576.6845200755
 20
960.6897850233
 30
0.0
 11
1.109690935925073
 21
1.922939575916303
 31
0.0
210
0.0
220
0.0
230
1.0
 40
0.7129198498
 41
0.6804830148956166
 42
2.164012879090877
  0
LINE
  5
1B2
330
1F
100
AcDbEntity
  8
0
  6
Continuous
 62
     8
370
    15
100
AcDbLine
 10
576.6845215665
 20
962.6821646712
 30
0.0
 11
577.8882895218
 21
959.6663186571
 31
0.0
  0
LINE
  5
1B3
330
1F
100
AcDbEntity
  8
0
  6
Continuous
 62
     8
370
    15
100
AcDbLine
 10
680.8895040856
 20
957.6739141962
 30
0.0
 11
679.9081732141
 21
960.1325163863
 31
0.0
  0
ELLIPSE
  5
1B4
330
1F
100
AcDbEntity
  8
0
  6
Continuous
 62
     8
370
    15
100
AcDbEllipse
 10
681.9149971542
 20
960.1123598441
 30
0.0
 11
-0.7597615360953114
 21
1.903466686411093
 31
0.0
210
0.0
220
0.0
230
1.0
 40
0.975850931
 41
1.105278131771583
 42
1.189502898124406
  0
ELLIPSE
  5
1B5
330
1F
100
AcDbEntity
  8
0
  6
Continuous
 62
     8
370
    15
100
AcDbEllipse
 10
681.6845200755
 20
960.6897850233
 30
0.0
 11
1.112262432352963
 21
1.905223154642613
 31
0.0
210
0.0
220
0.0
230
1.0
 40
0.7275157428
 41
0.6762342302552322
 42
2.159764094450437
  0
LINE
  5
1B6
330
1F
100
AcDbEntity
  8
0
  6
Continuous
 62
     8
370
    15
100
AcDbLine
 10
681.6845257388
 20
962.6821646712
 30
0.0
 11
682.8882862435
 21
959.6663186571
 31
0.0
  0
LINE
  5
1B7
330
1F
100
AcDbEntity
  8
0
  6
Continuous
 62
     8
370
    15
100
AcDbLine
 10
310.0425620185
 20
960.1325163863
 30
0.0
 11
309.0612311469
 21
957.6739141962
 31
0.0
  0
LINE
  5
1B8
330
1F
100
AcDbEntity
  8
0
  6
Continuous
 62
     8
370
    15
100
AcDbLine
 10
307.062448989
 20
959.6663186571
 30
0.0
 11
308.2662243949
 21
962.6821646712
 31
0.0
  0
ELLIPSE
  5
1B9
330
1F
100
AcDbEntity
  8
0
  6
Continuous
 62
     8
370
    15
100
AcDbEllipse
 10
308.2662188407
 20
960.6897850233
 30
0.0
 11
-1.112262432352963
 21
1.905223154642613
 31
0.0
210
0.0
220
0.0
230
1.0
 40
0.7275157428
 41
4.123421212729174
 42
5.606951076924306
  0
ELLIPSE
  5
1BA
330
1F
100
AcDbEntity
  8
0
  6
Continuous
 62
     8
370
    15
100
AcDbEllipse
 10
308.0357417621
 20
960.1123598441
 30
0.0
 11
0.7597615360952545
 21
1.903466686411093
 31
0.0
210
0.0
220
0.0
230
1.0
 40
0.975850931
 41
5.093682409055154
 42
5.177907175407974
  0
LINE
  5
1BB
330
1F
100
AcDbEntity
  8
0
  6
Continuous
 62
     8
370
    15
100
AcDbLine
 10
500.0290852593
 20
960.098750355
 30
0.0
 11
499.061232488
 21
957.6739141962
 31
0.0
  0
LINE
  5
1BC
330
1F
100
AcDbEntity
  8
0
  6
Continuous
 62
     8
370
    15
100
AcDbLine
 10
497.0624503301
 20
959.6663186571
 30
0.0
 11
498.2662182854
 21
962.6821646712
 31
0.0
  0
ELLIPSE
  5
1BD
330
1F
100
AcDbEntity
  8
0
  6
Continuous
 62
     8
370
    15
100
AcDbEllipse
 10
498.2662188407
 20
960.6897850233
 30
0.0
 11
-1.109690935924959
 21
1.922939575916303
 31
0.0
210
0.0
220
0.0
230
1.0
 40
0.7129198498
 41
4.119172428088737
 42
5.602702292284002
  0
ELLIPSE
  5
1BE
330
1F
100
AcDbEntity
  8
0
  6
Continuous
 62
     8
370
    15
100
AcDbEllipse
 10
498.0217734543
 20
960.0773643786
 30
0.0
 11
0.7610715575461312
 21
1.906748745414802
 31
0.0
210
0.0
220
0.0
230
1.0
 40
0.974171213
 41
5.093682409055048
 42
5.177907175407896
  0
LINE
  5
1BF
330
1F
100
AcDbEntity
  8
0
  6
Continuous
 62
     8
370
    15
100
AcDbLine
 10
490.8895064698
 20
957.6739141962
 30
0.0
 11
489.9216536985
 21
960.098750355
 31
0.0
  0
ELLIPSE
  5
1C0
330
1F
100
AcDbEntity
  8
0
  6
Continuous
 62
     8
370
    15
100
AcDbEllipse
 10
491.928965462
 20
960.0773643786
 30
0.0
 11
-0.7610715575460745
 21
1.906748745414802
 31
0.0
210
0.0
220
0.0
230
1.0
 40
0.974171213
 41
1.105278131771668
 42
1.189502898124573
  0
ELLIPSE
  5
1C1
330
1F
100
AcDbEntity
  8
0
  6
Continuous
 62
     8
370
    15
100
AcDbEllipse
 10
491.6845200755
 20
960.6897850233
 30
0.0
 11
1.109690935925016
 21
1.922939575916303
 31
0.0
210
0.0
220
0.0
230
1.0
 40
0.7129198498
 41
0.6804830148956157
 42
2.164012879090841
  0
LINE
  5
1C2
330
1F
100
AcDbEntity
  8
0
  6
Continuous
 62
     8
370
    15
100
AcDbLine
 10
491.6845206724
 20
962.6821646712
 30
0.0
 11
492.8882886277
 21
959.6663186571
 31
0.0
  0
LINE
  5
1C3
330
1F
100
AcDbEntity
  8
0
  6
Continuous
 62
     8
370
    15
100
AcDbLine
 10
415.0290880905
 20
960.098750355
 30
0.0
 11
414.0612353192
 21
957.6739141962
 31
0.0
  0
LINE
  5
1C4
330
1F
100
AcDbEntity
  8
0
  6
Continuous
 62
     8
370
    15
100
AcDbLine
 10
412.0624531613
 20
959.6663186571
 30
0.0
 11
413.2662211166
 21
962.6821646712
 31
0.0
  0
ELLIPSE
  5
1C5
330
1F
100
AcDbEntity
  8
0
  6
Continuous
 62
     8
370
    15
100
AcDbEllipse
 10
413.2662188407
 20
960.6897850233
 30
0.0
 11
-1.109690935925016
 21
1.922939575916303
 31
0.0
210
0.0
220
0.0
230
1.0
 40
0.7129198498
 41
4.119172428088701
 42
5.602702292283986
  0
ELLIPSE
  5
1C6
330
1F
100
AcDbEntity
  8
0
  6
Continuous
 62
     8
370
    15
100
AcDbEllipse
 10
413.0217734543
 20
960.0773643786
 30
0.0
 11
0.7610715575461312
 21
1.906748745414802
 31
0.0
210
0.0
220
0.0
230
1.0
 40
0.974171213
 41
5.093682409055104
 42
5.177907175407896
  0
LINE
  5
1C7
330
1F
100
AcDbEntity
  8
0
  6
Continuous
 62
     8
370
    15
100
AcDbLine
 10
405.8895055758
 20
957.6739141962
 30
0.0
 11
404.9216528045
 21
960.098750355
 31
0.0
  0
ELLIPSE
  5
1C8
330
1F
100
AcDbEntity
  8
0
  6
Continuous
 62
     8
370
    15
100
AcDbEllipse
 10
406.928965462
 20
960.0773643786
 30
0.0
 11
-0.7610715575460745
 21
1.906748745414802
 31
0.0
210
0.0
220
0.0
230
1.0
 40
0.974171213
 41
1.10527813177167
 42
1.189502898124573
  0
ELLIPSE
  5
1C9
330
1F
100
AcDbEntity
  8
0
  6
Continuous
 62
     8
370
    15
100
AcDbEllipse
 10
406.6845200755
 20
960.6897850233
 30
0.0
 11
1.109690935925016
 21
1.922939575916303
 31
0.0
210
0.0
220
0.0
230
1.0
 40
0.7129198498
 41
0.680483014895648
 42
2.164012879090834
  0
LINE
  5
1CA
330
1F
100
AcDbEntity
  8
0
  6
Continuous
 62
     8
370
    15
100
AcDbLine
 10
406.6845197784
 20
962.6821646712
 30
0.0
 11
407.8882877337
 21
959.6663186571
 31
0.0
  0
LINE
  5
1CB
330
1F
100
AcDbEntity
  8
0
  6
Continuous
 62
     8
370
    15
100
AcDbLine
 10
690.5404050456
 20
902.7621219179
 30
0.0
 11
693.4753675567
 21
899.8271594069
 31
0.0
  0
LINE
  5
1CC
330
1F
100
AcDbEntity
  8
0
  6
Continuous
 62
     8
370
    15
100
AcDbLine
 10
498.2662182854
 20
962.6821646712
 30
0.0
 11
576.6845215665
 21
962.6821646712
 31
0.0
  0
LINE
  5
1CD
330
1F
100
AcDbEntity
  8
0
  6
Continuous
 62
     8
370
    15
100
AcDbLine
 10
413.2662211166
 20
962.6821646712
 30
0.0
 11
491.6845206724
 21
962.6821646712
 31
0.0
  0
LINE
  5
1CE
330
1F
100
AcDbEntity
  8
0
  6
Continuous
 62
     8
370
    15
100
AcDbLine
 10
308.2662243949
 20
962.6821646712
 30
0.0
 11
406.6845197784
 21
962.6821646712
 31
0.0
  0
LINE
  5
1CF
330
1F
100
AcDbEntity
  8
0
  6
Continuous
 62
     8
370
    15
100
AcDbLine
 10
583.2662191795
 20
962.6821646712
 30
0.0
 11
681.6845257388
 21
962.6821646712
 31
0.0
  0
LINE
  5
1D0
330
1F
100
AcDbEntity
  8
0
  6
Continuous
 62
     8
370
    15
100
AcDbLine
 10
296.4753676759
 20
899.8271594069
 30
0.0
 11
299.4103301869
 21
902.7621219179
 31
0.0
  0
SPLINE
  5
1D1
330
1F
100
AcDbEntity
  8
0
  6
Continuous
 62
     8
370
    15
100
AcDbSpline
210
0.0
220
0.0
230
1.0
 70
     8
 71
     3
 72
    20
 73
    16
 74
     0
 42
0.00000001
 43
0.00000001
 12
1.0
 22
0.0
 32
0.0
 13
1.0
 23
0.0
 33
0.0
 40
0.0
 40
0.0
 40
0.0
 40
0.0
 40
0.1417108183773203
 40
0.2832674414255738
 40
0.3506865574111651
 40
0.4177602982055865
 40
0.4612596171470098
 40
0.4857332484862935
 40
0.5103258678235403
 40
0.5391526848752364
 40
0.5748151612182117
 40
0.6709084976166687
 40
0.7675160586486538
 40
0.9142521926798476
 40
1.0
 40
1.0
 40
1.0
 40
1.0
 10
679.4737745629401
 20
939.104236128076
 30
0.0
 10
679.524218376054
 20
938.5784893485861
 30
0.0
 10
679.6250511144445
 20
937.5275678538893
 30
0.0
 10
679.7463679728044
 20
935.9650559519279
 30
0.0
 10
679.838236071884
 20
934.5279208209323
 30
0.0
 10
679.8927379379186
 20
933.3763574566003
 30
0.0
 10
679.9268396619926
 20
932.2548936150952
 30
0.0
 10
679.9403984862817
 20
931.3117112183678
 30
0.0
 10
679.9414029607973
 20
930.4455908416904
 30
0.0
 10
679.9289105468638
 20
929.5230912416989
 30
0.0
 10
679.8900515551358
 20
928.160113738288
 30
0.0
 10
679.8170782574884
 20
926.7655021566692
 30
0.0
 10
679.7025158915669
 20
925.1054600371612
 30
0.0
 10
679.5869741623027
 20
923.749395909108
 30
0.0
 10
679.5042762884134
 20
922.88436885001
 30
0.0
 10
679.4737745629401
 20
922.5653181097349
 30
0.0
  0
LINE
  5
1D2
330
1F
100
AcDbEntity
  8
0
  6
Continuous
 62
     8
370
    15
100
AcDbLine
 10
679.5616169082
 20
942.4437055609
 30
0.0
 11
679.4737745629
 21
942.1678850672
 31
0.0
  0
SPLINE
  5
1D3
330
1F
100
AcDbEntity
  8
0
  6
Continuous
 62
     8
370
    15
100
AcDbSpline
210
0.0
220
0.0
230
1.0
 70
     8
 71
     3
 72
    11
 73
     7
 74
     0
 42
0.00000001
 43
0.00000001
 12
1.0
 22
0.0
 32
0.0
 13
1.0
 23
0.0
 33
0.0
 40
0.0
 40
0.0
 40
0.0
 40
0.0
 40
0.1094822364606305
 40
0.5346631767404462
 40
0.8121004211578445
 40
0.9999999999999999
 40
0.9999999999999999
 40
0.9999999999999999
 40
0.9999999999999999
 10
679.7504295216651
 20
947.5731620809873
 30
0.0
 10
679.7465619165511
 20
947.3128563788259
 30
0.0
 10
679.7276742311735
 20
946.0416376118317
 30
0.0
 10
679.6831438933732
 20
944.3399003195274
 30
0.0
 10
679.6194154371265
 20
942.8397613258137
 30
0.0
 10
679.5782423124145
 20
942.5576286539624
 30
0.0
 10
679.5616169081778
 20
942.4437055609068
 30
0.0
  0
SPLINE
  5
1D4
330
1F
100
AcDbEntity
  8
0
  6
Continuous
 62
     8
370
    15
100
AcDbSpline
210
0.0
220
0.0
230
1.0
 70
     8
 71
     3
 72
     9
 73
     5
 74
     0
 42
0.00000001
 43
0.00000001
 12
1.0
 22
0.0
 32
0.0
 13
1.0
 23
0.0
 33
0.0
 40
0.0
 40
0.0
 40
0.0
 40
0.0
 40
0.3274211379995935
 40
1.0
 40
1.0
 40
1.0
 40
1.0
 10
679.8758376942725
 20
954.7011921427091
 30
0.0
 10
679.8600048854257
 20
953.9555445666446
 30
0.0
 10
679.8116487867834
 20
951.6782096926038
 30
0.0
 10
679.7750470656274
 20
949.2238873853694
 30
0.0
 10
679.7504295216651
 20
947.5731620809873
 30
0.0
  0
SPLINE
  5
1D5
330
1F
100
AcDbEntity
  8
0
  6
Continuous
 62
     8
370
    15
100
AcDbSpline
210
0.0
220
0.0
230
1.0
 70
     8
 71
     3
 72
    10
 73
     6
 74
     0
 42
0.00000001
 43
0.00000001
 12
1.0
 22
0.0
 32
0.0
 13
1.0
 23
0.0
 33
0.0
 40
0.0
 40
0.0
 40
0.0
 40
0.0
 40
0.2828264459277444
 40
0.674945778067315
 40
1.0
 40
1.0
 40
1.0
 40
1.0
 10
679.9081732140631
 20
958.0724010488829
 30
0.0
 10
679.9076364645115
 20
957.7393405479047
 30
0.0
 10
679.9063555487802
 20
956.9445146671823
 30
0.0
 10
679.8957899627962
 20
955.7895240730312
 30
0.0
 10
679.8820604886271
 20
955.0406255151063
 30
0.0
 10
679.8758376942725
 20
954.7011921427091
 30
0.0
  0
LINE
  5
1D6
330
1F
100
AcDbEntity
  8
0
  6
Continuous
 62
     8
370
    15
100
AcDbLine
 10
679.9081732141
 20
960.1325163863
 30
0.0
 11
679.9081732141
 21
958.0724010489
 31
0.0
  0
LINE
  5
1D7
330
1F
100
AcDbEntity
  8
0
  6
Continuous
 62
     8
370
    15
100
AcDbLine
 10
679.9081732141
 20
901.5370378516
 30
0.0
 11
680.3971548186
 21
902.7621219179
 31
0.0
  0
LINE
  5
1D8
330
1F
100
AcDbEntity
  8
0
  6
Continuous
 62
     8
370
    15
100
AcDbLine
 10
679.9081732141
 20
903.5971531889
 30
0.0
 11
679.9081732141
 21
901.5370378516
 31
0.0
  0
SPLINE
  5
1D9
330
1F
100
AcDbEntity
  8
0
  6
Continuous
 62
     8
370
    15
100
AcDbSpline
210
0.0
220
0.0
230
1.0
 70
     8
 71
     3
 72
    10
 73
     6
 74
     0
 42
0.00000001
 43
0.00000001
 12
1.0
 22
0.0
 32
0.0
 13
1.0
 23
0.0
 33
0.0
 40
0.0
 40
0.0
 40
0.0
 40
0.0
 40
0.3250544567149916
 40
0.7169430763003544
 40
0.9999999999999999
 40
0.9999999999999999
 40
0.9999999999999999
 40
0.9999999999999999
 10
679.8758376942725
 20
906.9683620951017
 30
0.0
 10
679.8820617154507
 20
906.6289294015994
 30
0.0
 10
679.8957894733642
 20
905.8802735550198
 30
0.0
 10
679.9063366156247
 20
904.7253077370879
 30
0.0
 10
679.907630562116
 20
903.9304842260233
 30
0.0
 10
679.9081732140631
 20
903.597153188928
 30
0.0
  0
SPLINE
  5
1DA
330
1F
100
AcDbEntity
  8
0
  6
Continuous
 62
     8
370
    15
100
AcDbSpline
210
0.0
220
0.0
230
1.0
 70
     8
 71
     3
 72
     9
 73
     5
 74
     0
 42
0.00000001
 43
0.00000001
 12
1.0
 22
0.0
 32
0.0
 13
1.0
 23
0.0
 33
0.0
 40
0.0
 40
0.0
 40
0.0
 40
0.0
 40
0.5030419226440839
 40
1.0
 40
1.0
 40
1.0
 40
1.0
 10
679.7504295216651
 20
914.0963921568235
 30
0.0
 10
679.7684087890548
 20
912.8570973767811
 30
0.0
 10
679.8041498805632
 20
910.3934959864071
 30
0.0
 10
679.8520388727759
 20
908.1054333191108
 30
0.0
 10
679.8758376942725
 20
906.9683620951017
 30
0.0
  0
SPLINE
  5
1DB
330
1F
100
AcDbEntity
  8
0
  6
Continuous
 62
     8
370
    15
100
AcDbSpline
210
0.0
220
0.0
230
1.0
 70
     8
 71
     3
 72
    11
 73
     7
 74
     0
 42
0.00000001
 43
0.00000001
 12
1.0
 22
0.0
 32
0.0
 13
1.0
 23
0.0
 33
0.0
 40
0.0
 40
0.0
 40
0.0
 40
0.0
 40
0.0700440921185997
 40
0.2640899979060754
 40
0.5676778054196796
 40
0.9999999999999999
 40
0.9999999999999999
 40
0.9999999999999999
 40
0.9999999999999999
 10
679.5616169081778
 20
919.2258486769041
 30
0.0
 10
679.5678691043013
 20
919.198057144586
 30
0.0
 10
679.5914420054727
 20
919.0932736362314
 30
0.0
 10
679.6381368225948
 20
918.4259842372721
 30
0.0
 10
679.7019060688858
 20
916.805921187016
 30
0.0
 10
679.7324726757112
 20
915.0990948215392
 30
0.0
 10
679.7504295216651
 20
914.0963921568235
 30
0.0
  0
LINE
  5
1DC
330
1F
100
AcDbEntity
  8
0
  6
Continuous
 62
     8
370
    15
100
AcDbLine
 10
679.4737745629
 20
919.5016691706
 30
0.0
 11
679.5616169082
 21
919.2258486769
 31
0.0
  0
SPLINE
  5
1DD
330
1F
100
AcDbEntity
  8
0
  6
Continuous
 62
     8
370
    15
100
AcDbSpline
210
0.0
220
0.0
230
1.0
 70
     8
 71
     3
 72
     9
 73
     5
 74
     0
 42
0.00000001
 43
0.00000001
 12
1.0
 22
0.0
 32
0.0
 13
1.0
 23
0.0
 33
0.0
 40
0.0
 40
0.0
 40
0.0
 40
0.0
 40
0.4999993374277559
 40
1.0
 40
1.0
 40
1.0
 40
1.0
 10
585.195975433454
 20
949.6174821874937
 30
0.0
 10
585.1767594419465
 20
950.335750916751
 30
0.0
 10
585.1383274080033
 20
951.7722902788877
 30
0.0
 10
585.0996533834558
 20
953.2035489295915
 30
0.0
 10
585.0803163455577
 20
953.919179203256
 30
0.0
  0
SPLINE
  5
1DE
330
1F
100
AcDbEntity
  8
0
  6
Continuous
 62
     8
370
    15
100
AcDbSpline
210
0.0
220
0.0
230
1.0
 70
     8
 71
     3
 72
    10
 73
     6
 74
     0
 42
0.00000001
 43
0.00000001
 12
1.0
 22
0.0
 32
0.0
 13
1.0
 23
0.0
 33
0.0
 40
0.0
 40
0.0
 40
0.0
 40
0.0
 40
0.1874601056144252
 40
0.5937295401811421
 40
1.0
 40
1.0
 40
1.0
 40
1.0
 10
585.3688400791735
 20
946.8942055723509
 30
0.0
 10
585.3563244717503
 20
946.9434704865072
 30
0.0
 10
585.3166846464333
 20
947.0995038714946
 30
0.0
 10
585.2525576436443
 20
947.8858870995571
 30
0.0
 10
585.2148361860495
 20
949.040283339314
 30
0.0
 10
585.195975433454
 20
949.6174821874937
 30
0.0
  0
LINE
  5
1DF
330
1F
100
AcDbEntity
  8
0
  6
Continuous
 62
     8
370
    15
100
AcDbLine
 10
585.4769629048
 20
946.6214249155
 30
0.0
 11
585.3688400792
 21
946.8942055724
 31
0.0
  0
LINE
  5
1E0
330
1F
100
AcDbEntity
  8
0
  6
Continuous
 62
     8
370
    15
100
AcDbLine
 10
585.3688400792
 20
914.7753486655
 30
0.0
 11
585.4769629048
 21
915.0481293223
 31
0.0
  0
SPLINE
  5
1E1
330
1F
100
AcDbEntity
  8
0
  6
Continuous
 62
     8
370
    15
100
AcDbSpline
210
0.0
220
0.0
230
1.0
 70
     8
 71
     3
 72
    10
 73
     6
 74
     0
 42
0.00000001
 43
0.00000001
 12
1.0
 22
0.0
 32
0.0
 13
1.0
 23
0.0
 33
0.0
 40
0.0
 40
0.0
 40
0.0
 40
0.0
 40
0.1873460965120423
 40
0.5936714937095329
 40
0.9999999999999999
 40
0.9999999999999999
 40
0.9999999999999999
 40
0.9999999999999999
 10
585.195975433454
 20
912.0520720503172
 30
0.0
 10
585.2041269062056
 20
912.3283282131769
 30
0.0
 10
585.2299576926188
 20
913.2037422832046
 30
0.0
 10
585.2874921234611
 20
914.3340988696679
 30
0.0
 10
585.341724024775
 20
914.6282650250508
 30
0.0
 10
585.3688400791735
 20
914.77534866546
 30
0.0
  0
SPLINE
  5
1E2
330
1F
100
AcDbEntity
  8
0
  6
Continuous
 62
     8
370
    15
100
AcDbSpline
210
0.0
220
0.0
230
1.0
 70
     8
 71
     3
 72
     9
 73
     5
 74
     0
 42
0.00000001
 43
0.00000001
 12
1.0
 22
0.0
 32
0.0
 13
1.0
 23
0.0
 33
0.0
 40
0.0
 40
0.0
 40
0.0
 40
0.0
 40
0.5000006625722441
 40
1.0
 40
1.0
 40
1.0
 40
1.0
 10
585.0803163455577
 20
907.7503750345548
 30
0.0
 10
585.0996533834557
 20
908.466005308219
 30
0.0
 10
585.1383274080033
 20
909.897263958923
 30
0.0
 10
585.1767594419465
 20
911.3338033210598
 30
0.0
 10
585.195975433454
 20
912.0520720503172
 30
0.0
  0
SPLINE
  5
1E3
330
1F
100
AcDbEntity
  8
0
  6
Continuous
 62
     8
370
    15
100
AcDbSpline
210
0.0
220
0.0
230
1.0
 70
     8
 71
     3
 72
     9
 73
     5
 74
     0
 42
0.00000001
 43
0.00000001
 12
1.0
 22
0.0
 32
0.0
 13
1.0
 23
0.0
 33
0.0
 40
0.0
 40
0.0
 40
0.0
 40
0.0
 40
0.4884628363951086
 40
1.0
 40
1.0
 40
1.0
 40
1.0
 10
585.0290861533732
 20
903.4623572847685
 30
0.0
 10
585.0312900103507
 20
904.2199785330276
 30
0.0
 10
585.0358018315441
 20
905.7710100380048
 30
0.0
 10
585.0652516625408
 20
907.0805147225136
 30
0.0
 10
585.0803163455577
 20
907.7503750345548
 30
0.0
  0
LINE
  5
1E4
330
1F
100
AcDbEntity
  8
0
  6
Continuous
 62
     8
370
    15
100
AcDbLine
 10
585.0290861534
 20
901.5708038828
 30
0.0
 11
585.0290861534
 21
903.4623572848
 31
0.0
  0
LINE
  5
1E5
330
1F
100
AcDbEntity
  8
0
  6
Continuous
 62
     8
370
    15
100
AcDbLine
 10
584.5535789238
 20
902.7621219179
 30
0.0
 11
585.0290861534
 21
901.5708038828
 31
0.0
  0
LINE
  5
1E6
330
1F
100
AcDbEntity
  8
0
  6
Continuous
 62
     8
370
    15
100
AcDbLine
 10
585.0290861534
 20
958.207196953
 30
0.0
 11
585.0290861534
 21
960.098750355
 31
0.0
  0
SPLINE
  5
1E7
330
1F
100
AcDbEntity
  8
0
  6
Continuous
 62
     8
370
    15
100
AcDbSpline
210
0.0
220
0.0
230
1.0
 70
     8
 71
     3
 72
     9
 73
     5
 74
     0
 42
0.00000001
 43
0.00000001
 12
1.0
 22
0.0
 32
0.0
 13
1.0
 23
0.0
 33
0.0
 40
0.0
 40
0.0
 40
0.0
 40
0.0
 40
0.4999547266657923
 40
1.0
 40
1.0
 40
1.0
 40
1.0
 10
585.0803163455577
 20
953.919179203256
 30
0.0
 10
585.0655530093468
 20
954.5727156032522
 30
0.0
 10
585.0360236631412
 20
955.8799067650491
 30
0.0
 10
585.031398796218
 20
957.4313867299306
 30
0.0
 10
585.0290861533732
 20
958.2071969530424
 30
0.0
  0
LINE
  5
1E8
330
1F
100
AcDbEntity
  8
0
  6
Continuous
 62
     8
370
    15
100
AcDbLine
 10
489.9216536985
 20
901.5708038828
 30
0.0
 11
490.3971609281
 21
902.7621219179
 31
0.0
  0
LINE
  5
1E9
330
1F
100
AcDbEntity
  8
0
  6
Continuous
 62
     8
370
    15
100
AcDbLine
 10
489.9216536985
 20
903.3938417456
 30
0.0
 11
489.9216536985
 21
901.5708038828
 31
0.0
  0
SPLINE
  5
1EA
330
1F
100
AcDbEntity
  8
0
  6
Continuous
 62
     8
370
    15
100
AcDbSpline
210
0.0
220
0.0
230
1.0
 70
     8
 71
     3
 72
    10
 73
     6
 74
     0
 42
0.00000001
 43
0.00000001
 12
1.0
 22
0.0
 32
0.0
 13
1.0
 23
0.0
 33
0.0
 40
0.0
 40
0.0
 40
0.0
 40
0.0
 40
0.0642636848319787
 40
0.5321364938052094
 40
1.0
 40
1.0
 40
1.0
 40
1.0
 10
489.8609202908129
 20
908.011592390283
 30
0.0
 10
489.8633518125697
 20
907.9297568739293
 30
0.0
 10
489.8834860682639
 20
907.2521165416803
 30
0.0
 10
489.9135849373977
 20
905.751475627905
 30
0.0
 10
489.9189641293245
 20
904.179714497726
 30
0.0
 10
489.9216536985488
 20
903.3938417455992
 30
0.0
  0
LWPOLYLINE
  5
1EB
330
1F
100
AcDbEntity
  8
0
  6
Continuous
 62
     8
370
    15
100
AcDbPolyline
 90
        3
 70
   128
 43
0.0
 10
489.7512067662
 20
911.5913579485
 10
489.8060616659
 20
909.8014304659
 10
489.8609202908
 20
908.0115923903
  0
SPLINE
  5
1EC
330
1F
100
AcDbEntity
  8
0
  6
Continuous
 62
     8
370
    15
100
AcDbSpline
210
0.0
220
0.0
230
1.0
 70
     8
 71
     3
 72
    10
 73
     6
 74
     0
 42
0.00000001
 43
0.00000001
 12
1.0
 22
0.0
 32
0.0
 13
1.0
 23
0.0
 33
0.0
 40
0.0
 40
0.0
 40
0.0
 40
0.0
 40
0.1162279041408744
 40
0.5581094000256839
 40
1.0
 40
1.0
 40
1.0
 40
1.0
 10
489.5887803839296
 20
913.9477679750761
 30
0.0
 10
489.5959229593548
 20
913.9239230321183
 30
0.0
 10
489.6302205621087
 20
913.8094231028105
 30
0.0
 10
489.6907562385506
 20
913.2106465200623
 30
0.0
 10
489.731056451956
 20
912.131124512567
 30
0.0
 10
489.7512067662329
 20
911.5913579485258
 30
0.0
  0
LINE
  5
1ED
330
1F
100
AcDbEntity
  8
0
  6
Continuous
 62
     8
370
    15
100
AcDbLine
 10
489.4737769471
 20
914.2361352465
 30
0.0
 11
489.5887803839
 21
913.9477679751
 31
0.0
  0
LINE
  5
1EE
330
1F
100
AcDbEntity
  8
0
  6
Continuous
 62
     8
370
    15
100
AcDbLine
 10
489.5887803839
 20
947.7217862627
 30
0.0
 11
489.4737769471
 21
947.4334189913
 31
0.0
  0
SPLINE
  5
1EF
330
1F
100
AcDbEntity
  8
0
  6
Continuous
 62
     8
370
    15
100
AcDbSpline
210
0.0
220
0.0
230
1.0
 70
     8
 71
     3
 72
    10
 73
     6
 74
     0
 42
0.00000001
 43
0.00000001
 12
1.0
 22
0.0
 32
0.0
 13
1.0
 23
0.0
 33
0.0
 40
0.0
 40
0.0
 40
0.0
 40
0.0
 40
0.1158843100561
 40
0.5579457275571658
 40
1.0
 40
1.0
 40
1.0
 40
1.0
 10
489.7512067662329
 20
950.0781962892851
 30
0.0
 10
489.7463228889819
 20
949.9277818331308
 30
0.0
 10
489.7228085888596
 20
949.2035845441842
 30
0.0
 10
489.6701421198146
 20
948.1597119756824
 30
0.0
 10
489.6159008164394
 20
947.8677607139074
 30
0.0
 10
489.5887803839297
 20
947.7217862627348
 30
0.0
  0
LWPOLYLINE
  5
1F0
330
1F
100
AcDbEntity
  8
0
  6
Continuous
 62
     8
370
    15
100
AcDbPolyline
 90
        3
 70
   128
 43
0.0
 10
489.8609202908
 20
953.6579618475
 10
489.8060616659
 20
951.8681237719
 10
489.7512067662
 20
950.0781962893
  0
SPLINE
  5
1F1
330
1F
100
AcDbEntity
  8
0
  6
Continuous
 62
     8
370
    15
100
AcDbSpline
210
0.0
220
0.0
230
1.0
 70
     8
 71
     3
 72
     9
 73
     5
 74
     0
 42
0.00000001
 43
0.00000001
 12
1.0
 22
0.0
 32
0.0
 13
1.0
 23
0.0
 33
0.0
 40
0.0
 40
0.0
 40
0.0
 40
0.0
 40
0.4999671577159856
 40
1.0
 40
1.0
 40
1.0
 40
1.0
 10
489.9216536985487
 20
958.2757124922117
 30
0.0
 10
489.9188705633585
 20
957.4268957090135
 30
0.0
 10
489.9133039273358
 20
955.7291506269647
 30
0.0
 10
489.878382267592
 20
954.3483883389315
 30
0.0
 10
489.8609202908129
 20
953.6579618475279
 30
0.0
  0
LINE
  5
1F2
330
1F
100
AcDbEntity
  8
0
  6
Continuous
 62
     8
370
    15
100
AcDbLine
 10
489.9216536985
 20
960.098750355
 30
0.0
 11
489.9216536985
 21
958.2757124922
 31
0.0
  0
SPLINE
  5
1F3
330
1F
100
AcDbEntity
  8
0
  6
Continuous
 62
     8
370
    15
100
AcDbSpline
210
0.0
220
0.0
230
1.0
 70
     8
 71
     3
 72
     9
 73
     5
 74
     0
 42
0.00000001
 43
0.00000001
 12
1.0
 22
0.0
 32
0.0
 13
1.0
 23
0.0
 33
0.0
 40
0.0
 40
0.0
 40
0.0
 40
0.0
 40
0.5000008107525113
 40
1.0
 40
1.0
 40
1.0
 40
1.0
 10
415.0837157474608
 20
907.8480670473417
 30
0.0
 10
415.1026675256636
 20
908.5175657414644
 30
0.0
 10
415.1405710206086
 20
909.8565609585223
 30
0.0
 10
415.1783554903566
 20
911.1985429286458
 30
0.0
 10
415.1972476945967
 20
911.8695328256925
 30
0.0
  0
SPLINE
  5
1F4
330
1F
100
AcDbEntity
  8
0
  6
Continuous
 62
     8
370
    15
100
AcDbSpline
210
0.0
220
0.0
230
1.0
 70
     8
 71
     3
 72
    10
 73
     6
 74
     0
 42
0.00000001
 43
0.00000001
 12
1.0
 22
0.0
 32
0.0
 13
1.0
 23
0.0
 33
0.0
 40
0.0
 40
0.0
 40
0.0
 40
0.0
 40
0.0783462311583776
 40
0.5727126621318934
 40
1.0
 40
1.0
 40
1.0
 40
1.0
 10
415.0290880905242
 20
903.4375319502195
 30
0.0
 10
415.0291635101709
 20
903.5615625701665
 30
0.0
 10
415.0297148294372
 20
904.4682291128383
 30
0.0
 10
415.0415443910721
 20
906.0698823814095
 30
0.0
 10
415.0703576501236
 20
907.2848135529046
 30
0.0
 10
415.0837157474608
 20
907.8480670473417
 30
0.0
  0
LINE
  5
1F5
330
1F
100
AcDbEntity
  8
0
  6
Continuous
 62
     8
370
    15
100
AcDbLine
 10
415.0290880905
 20
901.5708038828
 30
0.0
 11
415.0290880905
 21
903.4375319502
 31
0.0
  0
LINE
  5
1F6
330
1F
100
AcDbEntity
  8
0
  6
Continuous
 62
     8
370
    15
100
AcDbLine
 10
414.5535771357
 20
902.7621219179
 30
0.0
 11
415.0290880905
 21
901.5708038828
 31
0.0
  0
LINE
  5
1F7
330
1F
100
AcDbEntity
  8
0
  6
Continuous
 62
     8
370
    15
100
AcDbLine
 10
415.0290880905
 20
958.2320222876
 30
0.0
 11
415.0290880905
 21
960.098750355
 31
0.0
  0
SPLINE
  5
1F8
330
1F
100
AcDbEntity
  8
0
  6
Continuous
 62
     8
370
    15
100
AcDbSpline
210
0.0
220
0.0
230
1.0
 70
     8
 71
     3
 72
     9
 73
     5
 74
     0
 42
0.00000001
 43
0.00000001
 12
1.0
 22
0.0
 32
0.0
 13
1.0
 23
0.0
 33
0.0
 40
0.0
 40
0.0
 40
0.0
 40
0.0
 40
0.4999639103727584
 40
0.9999999999999999
 40
0.9999999999999999
 40
0.9999999999999999
 40
0.9999999999999999
 10
415.0837157474608
 20
953.8214871904692
 30
0.0
 10
415.0679838368748
 20
954.4891560378753
 30
0.0
 10
415.0365177445038
 20
955.8245901233245
 30
0.0
 10
415.0315647610183
 20
957.4295062856182
 30
0.0
 10
415.0290880905242
 20
958.2320222875913
 30
0.0
  0
SPLINE
  5
1F9
330
1F
100
AcDbEntity
  8
0
  6
Continuous
 62
     8
370
    15
100
AcDbSpline
210
0.0
220
0.0
230
1.0
 70
     8
 71
     3
 72
     9
 73
     5
 74
     0
 42
0.00000001
 43
0.00000001
 12
1.0
 22
0.0
 32
0.0
 13
1.0
 23
0.0
 33
0.0
 40
0.0
 40
0.0
 40
0.0
 40
0.0
 40
0.4999991892474888
 40
1.0
 40
1.0
 40
1.0
 40
1.0
 10
415.1972476945967
 20
949.8000214121183
 30
0.0
 10
415.1783554903566
 20
950.4710113091647
 30
0.0
 10
415.1405710206085
 20
951.8129932792884
 30
0.0
 10
415.1026675256637
 20
953.1519884963465
 30
0.0
 10
415.0837157474608
 20
953.8214871904692
 30
0.0
  0
SPLINE
  5
1FA
330
1F
100
AcDbEntity
  8
0
  6
Continuous
 62
     8
370
    15
100
AcDbSpline
210
0.0
220
0.0
230
1.0
 70
     8
 71
     3
 72
    10
 73
     6
 74
     0
 42
0.00000001
 43
0.00000001
 12
1.0
 22
0.0
 32
0.0
 13
1.0
 23
0.0
 33
0.0
 40
0.0
 40
0.0
 40
0.0
 40
0.0
 40
0.1633742198669678
 40
0.5816819370281952
 40
1.0
 40
1.0
 40
1.0
 40
1.0
 10
415.3663237200827
 20
947.2188720724424
 30
0.0
 10
415.3557418482172
 20
947.2580200059109
 30
0.0
 10
415.3180658689277
 20
947.3974033540866
 30
0.0
 10
415.2552150524321
 20
948.111953459207
 30
0.0
 10
415.2165703065036
 20
949.2373274556464
 30
0.0
 10
415.1972476945967
 20
949.8000214121183
 30
0.0
  0
LINE
  5
1FB
330
1F
100
AcDbEntity
  8
0
  6
Continuous
 62
     8
370
    15
100
AcDbLine
 10
415.4769648419
 20
946.9431409857
 30
0.0
 11
415.3663237201
 21
947.2188720724
 31
0.0
  0
LINE
  5
1FC
330
1F
100
AcDbEntity
  8
0
  6
Continuous
 62
     8
370
    15
100
AcDbLine
 10
415.3663237201
 20
914.4506821654
 30
0.0
 11
415.4769648419
 21
914.7264132521
 31
0.0
  0
SPLINE
  5
1FD
330
1F
100
AcDbEntity
  8
0
  6
Continuous
 62
     8
370
    15
100
AcDbSpline
210
0.0
220
0.0
230
1.0
 70
     8
 71
     3
 72
    10
 73
     6
 74
     0
 42
0.00000001
 43
0.00000001
 12
1.0
 22
0.0
 32
0.0
 13
1.0
 23
0.0
 33
0.0
 40
0.0
 40
0.0
 40
0.0
 40
0.0
 40
0.1628582062056669
 40
0.5814347782085602
 40
1.0
 40
1.0
 40
1.0
 40
1.0
 10
415.1972476945967
 20
911.8695328256925
 30
0.0
 10
415.2042593377533
 20
912.0986895655435
 30
0.0
 10
415.2292922377135
 20
912.9168227214624
 30
0.0
 10
415.2850432793171
 20
914.0131456142356
 30
0.0
 10
415.3392304847227
 20
914.3048379666072
 30
0.0
 10
415.3663237200827
 20
914.4506821653684
 30
0.0
  0
LWPOLYLINE
  5
1FE
330
1F
100
AcDbEntity
  8
0
  6
Continuous
 62
     8
370
    15
100
AcDbPolyline
 90
        3
 70
   128
 43
0.0
 10
500.089818667
 20
908.0115923903
 10
500.144677292
 20
909.8014304659
 10
500.1995340543
 20
911.5913579485
  0
SPLINE
  5
1FF
330
1F
100
AcDbEntity
  8
0
  6
Continuous
 62
     8
370
    15
100
AcDbSpline
210
0.0
220
0.0
230
1.0
 70
     8
 71
     3
 72
    10
 73
     6
 74
     0
 42
0.00000001
 43
0.00000001
 12
1.0
 22
0.0
 32
0.0
 13
1.0
 23
0.0
 33
0.0
 40
0.0
 40
0.0
 40
0.0
 40
0.0
 40
0.1278236798515534
 40
0.5955825536208613
 40
1.0
 40
1.0
 40
1.0
 40
1.0
 10
500.0290852593035
 20
903.3938417455992
 30
0.0
 10
500.0293076789065
 20
903.6076682780298
 30
0.0
 10
500.0303440223705
 20
904.6039731283116
 30
0.0
 10
500.0453082115945
 20
906.2806173479515
 30
0.0
 10
500.0757180148192
 20
907.4632296105791
 30
0.0
 10
500.0898186670394
 20
908.011592390283
 30
0.0
  0
LINE
  5
200
330
1F
100
AcDbEntity
  8
0
  6
Continuous
 62
     8
370
    15
100
AcDbLine
 10
500.0290852593
 20
901.5708038828
 30
0.0
 11
500.0290852593
 21
903.3938417456
 31
0.0
  0
LINE
  5
201
330
1F
100
AcDbEntity
  8
0
  6
Continuous
 62
     8
370
    15
100
AcDbLine
 10
499.5535780297
 20
902.7621219179
 30
0.0
 11
500.0290852593
 21
901.5708038828
 31
0.0
  0
LINE
  5
202
330
1F
100
AcDbEntity
  8
0
  6
Continuous
 62
     8
370
    15
100
AcDbLine
 10
500.0290852593
 20
958.2757124922
 30
0.0
 11
500.0290852593
 21
960.098750355
 31
0.0
  0
SPLINE
  5
203
330
1F
100
AcDbEntity
  8
0
  6
Continuous
 62
     8
370
    15
100
AcDbSpline
210
0.0
220
0.0
230
1.0
 70
     8
 71
     3
 72
     9
 73
     5
 74
     0
 42
0.00000001
 43
0.00000001
 12
1.0
 22
0.0
 32
0.0
 13
1.0
 23
0.0
 33
0.0
 40
0.0
 40
0.0
 40
0.0
 40
0.0
 40
0.4999568911269558
 40
1.0
 40
1.0
 40
1.0
 40
1.0
 10
500.0898186670394
 20
953.6579618475279
 30
0.0
 10
500.0723594585721
 20
954.3482760040183
 30
0.0
 10
500.0374380307906
 20
955.7290233619244
 30
0.0
 10
500.0318696764963
 20
957.4267673235632
 30
0.0
 10
500.0290852593035
 20
958.2757124922117
 30
0.0
  0
LWPOLYLINE
  5
204
330
1F
100
AcDbEntity
  8
0
  6
Continuous
 62
     8
370
    15
100
AcDbPolyline
 90
        3
 70
   128
 43
0.0
 10
500.1995340543
 20
950.0781962893
 10
500.144677292
 20
951.8681237719
 10
500.089818667
 20
953.6579618475
  0
SPLINE
  5
205
330
1F
100
AcDbEntity
  8
0
  6
Continuous
 62
     8
370
    15
100
AcDbSpline
210
0.0
220
0.0
230
1.0
 70
     8
 71
     3
 72
    10
 73
     6
 74
     0
 42
0.00000001
 43
0.00000001
 12
1.0
 22
0.0
 32
0.0
 13
1.0
 23
0.0
 33
0.0
 40
0.0
 40
0.0
 40
0.0
 40
0.0
 40
0.1162444379544847
 40
0.5581220861687749
 40
1.0
 40
1.0
 40
1.0
 40
1.0
 10
500.3619585739226
 20
947.7217862627348
 30
0.0
 10
500.354815406598
 20
947.7456295221165
 30
0.0
 10
500.3205190607318
 20
947.8601076846971
 30
0.0
 10
500.2599832018095
 20
948.4589461970838
 30
0.0
 10
500.2196837741503
 20
949.5384461504017
 30
0.0
 10
500.1995340542645
 20
950.0781962892851
 30
0.0
  0
LINE
  5
206
330
1F
100
AcDbEntity
  8
0
  6
Continuous
 62
     8
370
    15
100
AcDbLine
 10
500.4769620107
 20
947.4334189913
 30
0.0
 11
500.3619585739
 21
947.7217862627
 31
0.0
  0
LINE
  5
207
330
1F
100
AcDbEntity
  8
0
  6
Continuous
 62
     8
370
    15
100
AcDbLine
 10
500.3619585739
 20
913.9477679751
 30
0.0
 11
500.4769620107
 21
914.2361352465
 31
0.0
  0
SPLINE
  5
208
330
1F
100
AcDbEntity
  8
0
  6
Continuous
 62
     8
370
    15
100
AcDbSpline
210
0.0
220
0.0
230
1.0
 70
     8
 71
     3
 72
    10
 73
     6
 74
     0
 42
0.00000001
 43
0.00000001
 12
1.0
 22
0.0
 32
0.0
 13
1.0
 23
0.0
 33
0.0
 40
0.0
 40
0.0
 40
0.0
 40
0.0
 40
0.1158565511087201
 40
0.5579284737691987
 40
1.0
 40
1.0
 40
1.0
 40
1.0
 10
500.1995340542645
 20
911.5913579485258
 30
0.0
 10
500.204415306471
 20
911.7417420344951
 30
0.0
 10
500.2279218718536
 20
912.4659441858727
 30
0.0
 10
500.2805981450022
 20
913.5098225042799
 30
0.0
 10
500.3348384390558
 20
913.801786195114
 30
0.0
 10
500.3619585739226
 20
913.9477679750761
 30
0.0
  0
SPLINE
  5
209
330
1F
100
AcDbEntity
  8
0
  6
Continuous
 62
     8
370
    15
100
AcDbSpline
210
0.0
220
0.0
230
1.0
 70
     8
 71
     3
 72
     9
 73
     5
 74
     0
 42
0.00000001
 43
0.00000001
 12
1.0
 22
0.0
 32
0.0
 13
1.0
 23
0.0
 33
0.0
 40
0.0
 40
0.0
 40
0.0
 40
0.0
 40
0.6725788308356627
 40
1.0
 40
1.0
 40
1.0
 40
1.0
 10
310.2003057108969
 20
947.5731620809873
 30
0.0
 10
310.1756982339865
 20
949.2238874576459
 30
0.0
 10
310.1391114789739
 20
951.6782099860661
 30
0.0
 10
310.0907365229493
 20
953.9555445855634
 30
0.0
 10
310.0748975382895
 20
954.7011921427091
 30
0.0
  0
SPLINE
  5
20A
330
1F
100
AcDbEntity
  8
0
  6
Continuous
 62
     8
370
    15
100
AcDbSpline
210
0.0
220
0.0
230
1.0
 70
     8
 71
     3
 72
    11
 73
     7
 74
     0
 42
0.00000001
 43
0.00000001
 12
1.0
 22
0.0
 32
0.0
 13
1.0
 23
0.0
 33
0.0
 40
0.0
 40
0.0
 40
0.0
 40
0.0
 40
0.070044087829511
 40
0.2640900429688808
 40
0.567677831892551
 40
0.9999999999999999
 40
0.9999999999999999
 40
0.9999999999999999
 40
0.9999999999999999
 10
310.3891332255454
 20
942.4437055609068
 30
0.0
 10
310.382881340132
 20
942.471497098504
 30
0.0
 10
310.3593096049776
 20
942.5762806510592
 30
0.0
 10
310.3125888187898
 20
943.2435697833257
 30
0.0
 10
310.2488333924525
 20
944.8636330995097
 30
0.0
 10
310.2182641217742
 20
946.5704594342994
 30
0.0
 10
310.2003057108969
 20
947.5731620809873
 30
0.0
  0
LINE
  5
20B
330
1F
100
AcDbEntity
  8
0
  6
Continuous
 62
     8
370
    15
100
AcDbLine
 10
310.4769606696
 20
942.1678850672
 30
0.0
 11
310.3891332255
 21
942.4437055609
 31
0.0
  0
SPLINE
  5
20C
330
1F
100
AcDbEntity
  8
0
  6
Continuous
 62
     8
370
    15
100
AcDbSpline
210
0.0
220
0.0
230
1.0
 70
     8
 71
     3
 72
    20
 73
    16
 74
     0
 42
0.00000001
 43
0.00000001
 12
1.0
 22
0.0
 32
0.0
 13
1.0
 23
0.0
 33
0.0
 40
0.0
 40
0.0
 40
0.0
 40
0.0
 40
0.0857478074915672
 40
0.2324839418160951
 40
0.3290914888578182
 40
0.425184838257854
 40
0.4608473146721208
 40
0.4896741317814433
 40
0.5142667511678523
 40
0.5387403825560602
 40
0.582239701584441
 40
0.6493134425129469
 40
0.7167325725435825
 40
0.8582891813393916
 40
1.0
 40
1.0
 40
1.0
 40
1.0
 10
310.4769606696219
 20
922.5653181097349
 30
0.0
 10
310.446459422806
 20
922.884368857428
 30
0.0
 10
310.3637628466778
 20
923.7493959366379
 30
0.0
 10
310.2482080174027
 20
925.1054598031527
 30
0.0
 10
310.1336832516844
 20
926.7655024834131
 30
0.0
 10
310.0606813041135
 20
928.1601135957704
 30
0.0
 10
310.0218249796799
 20
929.5230912458205
 30
0.0
 10
310.0093322057327
 20
930.4455908409373
 30
0.0
 10
310.0103367817815
 20
931.3117112182834
 30
0.0
 10
310.0238954589618
 20
932.2548936164309
 30
0.0
 10
310.0579982154937
 20
933.3763574440103
 30
0.0
 10
310.1124937432083
 20
934.5279209856502
 30
0.0
 10
310.2043966468822
 20
935.9650555974861
 30
0.0
 10
310.3256747157851
 20
937.5275680437547
 30
0.0
 10
310.4265137195346
 20
938.5784893939156
 30
0.0
 10
310.4769606696219
 20
939.104236128076
 30
0.0
  0
LINE
  5
20D
330
1F
100
AcDbEntity
  8
0
  6
Continuous
 62
     8
370
    15
100
AcDbLine
 10
310.3891332255
 20
919.2258486769
 30
0.0
 11
310.4769606696
 21
919.5016691706
 31
0.0
  0
SPLINE
  5
20E
330
1F
100
AcDbEntity
  8
0
  6
Continuous
 62
     8
370
    15
100
AcDbSpline
210
0.0
220
0.0
230
1.0
 70
     8
 71
     3
 72
    11
 73
     7
 74
     0
 42
0.00000001
 43
0.00000001
 12
1.0
 22
0.0
 32
0.0
 13
1.0
 23
0.0
 33
0.0
 40
0.0
 40
0.0
 40
0.0
 40
0.0
 40
0.1094822591914301
 40
0.5346631420970754
 40
0.8121004290512889
 40
1.0
 40
1.0
 40
1.0
 40
1.0
 10
310.2003057108969
 20
914.0963921568235
 30
0.0
 10
310.2041791602272
 20
914.3566978477853
 30
0.0
 10
310.2230953810375
 20
915.6279162137865
 30
0.0
 10
310.2675737316951
 20
917.3296543657407
 30
0.0
 10
310.3313388778229
 20
918.8297927996991
 30
0.0
 10
310.3725090253926
 20
919.1119255609973
 30
0.0
 10
310.3891332255454
 20
919.2258486769041
 30
0.0
  0
SPLINE
  5
20F
330
1F
100
AcDbEntity
  8
0
  6
Continuous
 62
     8
370
    15
100
AcDbSpline
210
0.0
220
0.0
230
1.0
 70
     8
 71
     3
 72
     9
 73
     5
 74
     0
 42
0.00000001
 43
0.00000001
 12
1.0
 22
0.0
 32
0.0
 13
1.0
 23
0.0
 33
0.0
 40
0.0
 40
0.0
 40
0.0
 40
0.0
 40
0.3274211691643373
 40
1.0
 40
1.0
 40
1.0
 40
1.0
 10
310.0748975382895
 20
906.9683620951017
 30
0.0
 10
310.0907365229493
 20
907.7140096522473
 30
0.0
 10
310.1391114789739
 20
909.9913442517444
 30
0.0
 10
310.1756982339865
 20
912.4456667801649
 30
0.0
 10
310.2003057108969
 20
914.0963921568235
 30
0.0
  0
SPLINE
  5
210
330
1F
100
AcDbEntity
  8
0
  6
Continuous
 62
     8
370
    15
100
AcDbSpline
210
0.0
220
0.0
230
1.0
 70
     8
 71
     3
 72
    10
 73
     6
 74
     0
 42
0.00000001
 43
0.00000001
 12
1.0
 22
0.0
 32
0.0
 13
1.0
 23
0.0
 33
0.0
 40
0.0
 40
0.0
 40
0.0
 40
0.0
 40
0.1356270371117057
 40
0.6770533148347635
 40
0.9999999999999999
 40
0.9999999999999999
 40
0.9999999999999999
 40
0.9999999999999999
 10
310.0425620184989
 20
903.597153188928
 30
0.0
 10
310.0426947366391
 20
903.7566318367129
 30
0.0
 10
310.0433572686736
 20
904.5527529452145
 30
0.0
 10
310.0521680979612
 20
905.7300996032122
 30
0.0
 10
310.0687152120543
 20
906.6315591391534
 30
0.0
 10
310.0748975382895
 20
906.9683620951017
 30
0.0
  0
LINE
  5
211
330
1F
100
AcDbEntity
  8
0
  6
Continuous
 62
     8
370
    15
100
AcDbLine
 10
310.0425620185
 20
901.5370378516
 30
0.0
 11
310.0425620185
 21
903.5971531889
 31
0.0
  0
LINE
  5
212
330
1F
100
AcDbEntity
  8
0
  6
Continuous
 62
     8
370
    15
100
AcDbLine
 10
309.5535804139
 20
902.7621219179
 30
0.0
 11
310.0425620185
 21
901.5370378516
 31
0.0
  0
LINE
  5
213
330
1F
100
AcDbEntity
  8
0
  6
Continuous
 62
     8
370
    15
100
AcDbLine
 10
310.0425620185
 20
958.0724010489
 30
0.0
 11
310.0425620185
 21
960.1325163863
 31
0.0
  0
SPLINE
  5
214
330
1F
100
AcDbEntity
  8
0
  6
Continuous
 62
     8
370
    15
100
AcDbSpline
210
0.0
220
0.0
230
1.0
 70
     8
 71
     3
 72
     9
 73
     5
 74
     0
 42
0.00000001
 43
0.00000001
 12
1.0
 22
0.0
 32
0.0
 13
1.0
 23
0.0
 33
0.0
 40
0.0
 40
0.0
 40
0.0
 40
0.0
 40
0.3235175881115582
 40
1.0
 40
1.0
 40
1.0
 40
1.0
 10
310.0748975382895
 20
954.7011921427091
 30
0.0
 10
310.0685856696155
 20
955.0382875999605
 30
0.0
 10
310.0490755443363
 20
956.0802570929305
 30
0.0
 10
310.0451903107119
 20
957.2685451070638
 30
0.0
 10
310.0425620184989
 20
958.0724010488829
 30
0.0
  0
LINE
  5
215
330
1F
100
AcDbEntity
  8
0
  6
Continuous
 62
     8
370
    15
100
AcDbLine
 10
574.9216545926
 20
901.5708038828
 30
0.0
 11
575.3971618222
 21
902.7621219179
 31
0.0
  0
LINE
  5
216
330
1F
100
AcDbEntity
  8
0
  6
Continuous
 62
     8
370
    15
100
AcDbLine
 10
574.9216545926
 20
903.4375319502
 30
0.0
 11
574.9216545926
 21
901.5708038828
 31
0.0
  0
SPLINE
  5
217
330
1F
100
AcDbEntity
  8
0
  6
Continuous
 62
     8
370
    15
100
AcDbSpline
210
0.0
220
0.0
230
1.0
 70
     8
 71
     3
 72
     9
 73
     5
 74
     0
 42
0.00000001
 43
0.00000001
 12
1.0
 22
0.0
 32
0.0
 13
1.0
 23
0.0
 33
0.0
 40
0.0
 40
0.0
 40
0.0
 40
0.0
 40
0.5052964791903207
 40
1.0
 40
1.0
 40
1.0
 40
1.0
 10
574.8670269356818
 20
907.8480670473417
 30
0.0
 10
574.8829032078038
 20
907.1726850404832
 30
0.0
 10
574.9143229242987
 20
905.8360796322276
 30
0.0
 10
574.919228023014
 20
904.2313816780079
 30
0.0
 10
574.9216545926184
 20
903.4375319502195
 30
0.0
  0
SPLINE
  5
218
330
1F
100
AcDbEntity
  8
0
  6
Continuous
 62
     8
370
    15
100
AcDbSpline
210
0.0
220
0.0
230
1.0
 70
     8
 71
     3
 72
     9
 73
     5
 74
     0
 42
0.00000001
 43
0.00000001
 12
1.0
 22
0.0
 32
0.0
 13
1.0
 23
0.0
 33
0.0
 40
0.0
 40
0.0
 40
0.0
 40
0.0
 40
0.4999991655269647
 40
1.0
 40
1.0
 40
1.0
 40
1.0
 10
574.7534912632556
 20
911.8695328256925
 30
0.0
 10
574.7723812948631
 20
911.1985429127711
 30
0.0
 10
574.8101614211312
 20
909.8565608472325
 30
0.0
 10
574.8480717430748
 20
908.5175657255421
 30
0.0
 10
574.8670269356818
 20
907.8480670473417
 30
0.0
  0
SPLINE
  5
219
330
1F
100
AcDbEntity
  8
0
  6
Continuous
 62
     8
370
    15
100
AcDbSpline
210
0.0
220
0.0
230
1.0
 70
     8
 71
     3
 72
    10
 73
     6
 74
     0
 42
0.00000001
 43
0.00000001
 12
1.0
 22
0.0
 32
0.0
 13
1.0
 23
0.0
 33
0.0
 40
0.0
 40
0.0
 40
0.0
 40
0.0
 40
0.1633256143163985
 40
0.58165845476849
 40
1.0
 40
1.0
 40
1.0
 40
1.0
 10
574.5844152377696
 20
914.4506821653684
 30
0.0
 10
574.5949947335596
 20
914.4115498775001
 30
0.0
 10
574.6326719417499
 20
914.2721863968342
 30
0.0
 10
574.6955193915314
 20
913.5576734643018
 30
0.0
 10
574.7341671719835
 20
912.4322502748719
 30
0.0
 10
574.7534912632556
 20
911.8695328256925
 30
0.0
  0
LINE
  5
21A
330
1F
100
AcDbEntity
  8
0
  6
Continuous
 62
     8
370
    15
100
AcDbLine
 10
574.4737778412
 20
914.7264132521
 30
0.0
 11
574.5844152378
 21
914.4506821654
 31
0.0
  0
LINE
  5
21B
330
1F
100
AcDbEntity
  8
0
  6
Continuous
 62
     8
370
    15
100
AcDbLine
 10
574.5844152378
 20
947.2188720724
 30
0.0
 11
574.4737778412
 21
946.9431409857
 31
0.0
  0
SPLINE
  5
21C
330
1F
100
AcDbEntity
  8
0
  6
Continuous
 62
     8
370
    15
100
AcDbSpline
210
0.0
220
0.0
230
1.0
 70
     8
 71
     3
 72
    10
 73
     6
 74
     0
 42
0.00000001
 43
0.00000001
 12
1.0
 22
0.0
 32
0.0
 13
1.0
 23
0.0
 33
0.0
 40
0.0
 40
0.0
 40
0.0
 40
0.0
 40
0.1629181014440558
 40
0.5814634158196086
 40
1.0
 40
1.0
 40
1.0
 40
1.0
 10
574.7534912632556
 20
949.8000214121183
 30
0.0
 10
574.7464759034664
 20
949.5707805559671
 30
0.0
 10
574.7214377092446
 20
948.7526076821025
 30
0.0
 10
574.6656878234982
 20
947.6563777888884
 30
0.0
 10
574.6115059113189
 20
947.3647062972792
 30
0.0
 10
574.5844152377696
 20
947.2188720724424
 30
0.0
  0
SPLINE
  5
21D
330
1F
100
AcDbEntity
  8
0
  6
Continuous
 62
     8
370
    15
100
AcDbSpline
210
0.0
220
0.0
230
1.0
 70
     8
 71
     3
 72
     9
 73
     5
 74
     0
 42
0.00000001
 43
0.00000001
 12
1.0
 22
0.0
 32
0.0
 13
1.0
 23
0.0
 33
0.0
 40
0.0
 40
0.0
 40
0.0
 40
0.0
 40
0.5000008344730353
 40
1.0
 40
1.0
 40
1.0
 40
1.0
 10
574.8670269356818
 20
953.8214871904692
 30
0.0
 10
574.8480717430748
 20
953.1519885122685
 30
0.0
 10
574.8101614211312
 20
951.8129933905783
 30
0.0
 10
574.7723812948631
 20
950.4710113250396
 30
0.0
 10
574.7534912632556
 20
949.8000214121183
 30
0.0
  0
SPLINE
  5
21E
330
1F
100
AcDbEntity
  8
0
  6
Continuous
 62
     8
370
    15
100
AcDbSpline
210
0.0
220
0.0
230
1.0
 70
     8
 71
     3
 72
     9
 73
     5
 74
     0
 42
0.00000001
 43
0.00000001
 12
1.0
 22
0.0
 32
0.0
 13
1.0
 23
0.0
 33
0.0
 40
0.0
 40
0.0
 40
0.0
 40
0.0
 40
0.4999362591552576
 40
1.0
 40
1.0
 40
1.0
 40
1.0
 10
574.9216545926184
 20
958.2320222875913
 30
0.0
 10
574.9191761312153
 20
957.429665385462
 30
0.0
 10
574.9142185764117
 20
955.8247469834942
 30
0.0
 10
574.8827588194393
 20
954.4892972032754
 30
0.0
 10
574.8670269356818
 20
953.8214871904692
 30
0.0
  0
LINE
  5
21F
330
1F
100
AcDbEntity
  8
0
  6
Continuous
 62
     8
370
    15
100
AcDbLine
 10
574.9216545926
 20
960.098750355
 30
0.0
 11
574.9216545926
 21
958.2320222876
 31
0.0
  0
LINE
  5
220
330
1F
100
AcDbEntity
  8
0
  6
Continuous
 62
     8
370
    15
100
AcDbLine
 10
404.5818988787
 20
946.8942055724
 30
0.0
 11
404.4737760531
 21
946.6214249155
 31
0.0
  0
SPLINE
  5
221
330
1F
100
AcDbEntity
  8
0
  6
Continuous
 62
     8
370
    15
100
AcDbSpline
210
0.0
220
0.0
230
1.0
 70
     8
 71
     3
 72
    10
 73
     6
 74
     0
 42
0.00000001
 43
0.00000001
 12
1.0
 22
0.0
 32
0.0
 13
1.0
 23
0.0
 33
0.0
 40
0.0
 40
0.0
 40
0.0
 40
0.0
 40
0.1873460837624318
 40
0.5936714671855374
 40
1.0
 40
1.0
 40
1.0
 40
1.0
 10
404.754759799108
 20
949.6174821874937
 30
0.0
 10
404.7466096341863
 20
949.3412260236167
 30
0.0
 10
404.7207829914847
 20
948.4658119299019
 30
0.0
 10
404.6632521847984
 20
947.3354553207444
 30
0.0
 10
404.6090167174474
 20
947.0412892018229
 30
0.0
 10
404.5818988786788
 20
946.8942055723509
 30
0.0
  0
SPLINE
  5
222
330
1F
100
AcDbEntity
  8
0
  6
Continuous
 62
     8
370
    15
100
AcDbSpline
210
0.0
220
0.0
230
1.0
 70
     8
 71
     3
 72
     9
 73
     5
 74
     0
 42
0.00000001
 43
0.00000001
 12
1.0
 22
0.0
 32
0.0
 13
1.0
 23
0.0
 33
0.0
 40
0.0
 40
0.0
 40
0.0
 40
0.0
 40
0.499996307692065
 40
1.0
 40
1.0
 40
1.0
 40
1.0
 10
404.8704226122946
 20
953.919179203256
 30
0.0
 10
404.8510858012361
 20
953.2035607008307
 30
0.0
 10
404.8124118935272
 20
951.772313126767
 30
0.0
 10
404.7739772585227
 20
950.335762703376
 30
0.0
 10
404.754759799108
 20
949.6174821874937
 30
0.0
  0
SPLINE
  5
223
330
1F
100
AcDbEntity
  8
0
  6
Continuous
 62
     8
370
    15
100
AcDbSpline
210
0.0
220
0.0
230
1.0
 70
     8
 71
     3
 72
     9
 73
     5
 74
     0
 42
0.00000001
 43
0.00000001
 12
1.0
 22
0.0
 32
0.0
 13
1.0
 23
0.0
 33
0.0
 40
0.0
 40
0.0
 40
0.0
 40
0.0
 40
0.5000129351357316
 40
1.0
 40
1.0
 40
1.0
 40
1.0
 10
404.9216528044791
 20
958.2071969530424
 30
0.0
 10
404.9193396170181
 20
957.4314407582907
 30
0.0
 10
404.9147133617785
 20
955.8799685057961
 30
0.0
 10
404.8851859408285
 20
954.5727643648607
 30
0.0
 10
404.8704226122946
 20
953.919179203256
 30
0.0
  0
LINE
  5
224
330
1F
100
AcDbEntity
  8
0
  6
Continuous
 62
     8
370
    15
100
AcDbLine
 10
404.9216528045
 20
960.098750355
 30
0.0
 11
404.9216528045
 21
958.207196953
 31
0.0
  0
LINE
  5
225
330
1F
100
AcDbEntity
  8
0
  6
Continuous
 62
     8
370
    15
100
AcDbLine
 10
404.9216528045
 20
901.5708038828
 30
0.0
 11
405.3971637593
 21
902.7621219179
 31
0.0
  0
LINE
  5
226
330
1F
100
AcDbEntity
  8
0
  6
Continuous
 62
     8
370
    15
100
AcDbLine
 10
404.9216528045
 20
903.4623572848
 30
0.0
 11
404.9216528045
 21
901.5708038828
 31
0.0
  0
SPLINE
  5
227
330
1F
100
AcDbEntity
  8
0
  6
Continuous
 62
     8
370
    15
100
AcDbSpline
210
0.0
220
0.0
230
1.0
 70
     8
 71
     3
 72
     9
 73
     5
 74
     0
 42
0.00000001
 43
0.00000001
 12
1.0
 22
0.0
 32
0.0
 13
1.0
 23
0.0
 33
0.0
 40
0.0
 40
0.0
 40
0.0
 40
0.0
 40
0.4887195968852173
 40
0.9999999999999999
 40
0.9999999999999999
 40
0.9999999999999999
 40
0.9999999999999999
 10
404.8704226122946
 20
907.7503750345548
 30
0.0
 10
404.8848928031482
 20
907.1126263409458
 30
0.0
 10
404.9145011735631
 20
905.807688504048
 30
0.0
 10
404.9192333403412
 20
904.2558049393264
 30
0.0
 10
404.9216528044791
 20
903.4623572847685
 30
0.0
  0
SPLINE
  5
228
330
1F
100
AcDbEntity
  8
0
  6
Continuous
 62
     8
370
    15
100
AcDbSpline
210
0.0
220
0.0
230
1.0
 70
     8
 71
     3
 72
     9
 73
     5
 74
     0
 42
0.00000001
 43
0.00000001
 12
1.0
 22
0.0
 32
0.0
 13
1.0
 23
0.0
 33
0.0
 40
0.0
 40
0.0
 40
0.0
 40
0.0
 40
0.5000036923079351
 40
1.0
 40
1.0
 40
1.0
 40
1.0
 10
404.754759799108
 20
912.0520720503172
 30
0.0
 10
404.7739772585227
 20
911.3337915344348
 30
0.0
 10
404.8124118935271
 20
909.8972411110435
 30
0.0
 10
404.8510858012361
 20
908.4659935369798
 30
0.0
 10
404.8704226122946
 20
907.7503750345548
 30
0.0
  0
SPLINE
  5
229
330
1F
100
AcDbEntity
  8
0
  6
Continuous
 62
     8
370
    15
100
AcDbSpline
210
0.0
220
0.0
230
1.0
 70
     8
 71
     3
 72
    10
 73
     6
 74
     0
 42
0.00000001
 43
0.00000001
 12
1.0
 22
0.0
 32
0.0
 13
1.0
 23
0.0
 33
0.0
 40
0.0
 40
0.0
 40
0.0
 40
0.0
 40
0.1874662060092038
 40
0.5937292226182163
 40
1.0
 40
1.0
 40
1.0
 40
1.0
 10
404.5818988786788
 20
914.77534866546
 30
0.0
 10
404.5944157870983
 20
914.7260726413782
 30
0.0
 10
404.6340584217027
 20
914.5700092308329
 30
0.0
 10
404.6981873627266
 20
913.7836692407426
 30
0.0
 10
404.7359022002386
 20
912.6292747891238
 30
0.0
 10
404.754759799108
 20
912.0520720503172
 30
0.0
  0
LINE
  5
22A
330
1F
100
AcDbEntity
  8
0
  6
Continuous
 62
     8
370
    15
100
AcDbLine
 10
404.4737760531
 20
915.0481293223
 30
0.0
 11
404.5818988787
 21
914.7753486655
 31
0.0
  0
ARC
  5
22B
330
1F
100
AcDbEntity
  8
0
  6
Continuous
 62
     8
370
    15
100
AcDbCircle
 10
688.5301918104
 20
902.779960628
 30
0.0
 40
2.010292384383233
100
AcDbArc
 50
270.5080030991
 51
359.4915683819
  0
LINE
  5
22C
330
1F
100
AcDbEntity
  8
0
  6
Continuous
 62
     8
370
    15
100
AcDbLine
 10
688.5480154859
 20
902.2647509596
 30
0.0
 11
688.5480154859
 21
900.7697472594
 31
0.0
  0
LINE
  5
22D
330
1F
100
AcDbEntity
  8
0
  6
Continuous
 62
     8
370
    15
100
AcDbLine
 10
301.4027197467
 20
900.7697472594
 30
0.0
 11
301.4027197467
 21
902.2647509596
 31
0.0
  0
ARC
  5
22E
330
1F
100
AcDbEntity
  8
0
  6
Continuous
 62
     8
370
    15
100
AcDbCircle
 10
301.4205434222
 20
902.779960628
 30
0.0
 40
2.010292384383233
100
AcDbArc
 50
180.5084316181
 51
269.4919969009
  0
LINE
  5
22F
330
1F
100
AcDbEntity
  8
0
  6
Continuous
 62
     8
370
    15
100
AcDbLine
 10
682.3959369765
 20
900.7697472594
 30
0.0
 11
682.3959369765
 21
902.2647509596
 31
0.0
  0
ARC
  5
230
330
1F
100
AcDbEntity
  8
0
  6
Continuous
 62
     8
370
    15
100
AcDbCircle
 10
682.3998543906
 20
902.7724697331
 30
0.0
 40
2.002726305009968
100
AcDbArc
 50
180.2960408367
 51
269.887927055
  0
ARC
  5
231
330
1F
100
AcDbEntity
  8
0
  6
Continuous
 62
     8
370
    15
100
AcDbCircle
 10
582.550898039
 20
902.7724509858
 30
0.0
 40
2.002707521306909
100
AcDbArc
 50
270.1115393708
 51
359.7044927375
  0
LINE
  5
232
330
1F
100
AcDbEntity
  8
0
  6
Continuous
 62
     8
370
    15
100
AcDbLine
 10
582.5547967659
 20
902.2647509596
 30
0.0
 11
582.5547967659
 21
900.7697472594
 31
0.0
  0
ARC
  5
233
330
1F
100
AcDbEntity
  8
0
  6
Continuous
 62
     8
370
    15
100
AcDbCircle
 10
412.550900013
 20
902.7724472116
 30
0.0
 40
2.002703739775713
100
AcDbArc
 50
270.1114319499
 51
359.7046001584
  0
LINE
  5
234
330
1F
100
AcDbEntity
  8
0
  6
Continuous
 62
     8
370
    15
100
AcDbLine
 10
412.5547949778
 20
902.2647509596
 30
0.0
 11
412.5547949778
 21
900.7697472594
 31
0.0
  0
LINE
  5
235
330
1F
100
AcDbEntity
  8
0
  6
Continuous
 62
     8
370
    15
100
AcDbLine
 10
407.3959384667
 20
900.7697472594
 30
0.0
 11
407.3959384667
 21
902.2647509596
 31
0.0
  0
ARC
  5
236
330
1F
100
AcDbEntity
  8
0
  6
Continuous
 62
     8
370
    15
100
AcDbCircle
 10
407.3998335142
 20
902.7724398055
 30
0.0
 40
2.002696333905299
100
AcDbArc
 50
180.2951890493
 51
269.8885652697
  0
ARC
  5
237
330
1F
100
AcDbEntity
  8
0
  6
Continuous
 62
     8
370
    15
100
AcDbCircle
 10
497.5508989869
 20
902.7724491343
 30
0.0
 40
2.002705669834759
100
AcDbArc
 50
270.111540066
 51
359.7045454354
  0
LINE
  5
238
330
1F
100
AcDbEntity
  8
0
  6
Continuous
 62
     8
370
    15
100
AcDbLine
 10
497.5547977345
 20
902.2647509596
 30
0.0
 11
497.5547977345
 21
900.7697472594
 31
0.0
  0
ARC
  5
239
330
1F
100
AcDbEntity
  8
0
  6
Continuous
 62
     8
370
    15
100
AcDbCircle
 10
307.5509021566
 20
902.7724483499
 30
0.0
 40
2.002704880269681
100
AcDbArc
 50
270.1114643477
 51
359.7045677606
  0
LINE
  5
23A
330
1F
100
AcDbEntity
  8
0
  6
Continuous
 62
     8
370
    15
100
AcDbLine
 10
307.554798256
 20
902.2647509596
 30
0.0
 11
307.554798256
 21
900.7697472594
 31
0.0
  0
LINE
  5
23B
330
1F
100
AcDbEntity
  8
0
  6
Continuous
 62
     8
370
    15
100
AcDbLine
 10
492.395943086
 20
900.7697472594
 30
0.0
 11
492.395943086
 21
902.2647509596
 31
0.0
  0
ARC
  5
23C
330
1F
100
AcDbEntity
  8
0
  6
Continuous
 62
     8
370
    15
100
AcDbCircle
 10
492.3998402464
 20
902.7724494143
 30
0.0
 40
2.002705946742202
100
AcDbArc
 50
180.2954625344
 51
269.8885053573
  0
LINE
  5
23D
330
1F
100
AcDbEntity
  8
0
  6
Continuous
 62
     8
370
    15
100
AcDbLine
 10
577.3959402548
 20
900.7697472594
 30
0.0
 11
577.3959402548
 21
902.2647509596
 31
0.0
  0
ARC
  5
23E
330
1F
100
AcDbEntity
  8
0
  6
Continuous
 62
     8
370
    15
100
AcDbCircle
 10
577.3998390231
 20
902.7724472828
 30
0.0
 40
2.002703818366341
100
AcDbArc
 50
180.2954018668
 51
269.8884592387
  0
LINE
  5
23F
330
1F
100
AcDbEntity
  8
0
  6
Continuous
 62
     8
370
    15
100
AcDbLine
 10
688.5480154859
 20
900.7697472594
 30
0.0
 11
682.3959369765
 21
900.7697472594
 31
0.0
  0
LINE
  5
240
330
1F
100
AcDbEntity
  8
0
  6
Continuous
 62
     8
370
    15
100
AcDbLine
 10
497.5547977345
 20
900.7697472594
 30
0.0
 11
492.395943086
 21
900.7697472594
 31
0.0
  0
LINE
  5
241
330
1F
100
AcDbEntity
  8
0
  6
Continuous
 62
     8
370
    15
100
AcDbLine
 10
307.554798256
 20
900.7697472594
 30
0.0
 11
301.4027197467
 21
900.7697472594
 31
0.0
  0
LINE
  5
242
330
1F
100
AcDbEntity
  8
0
  6
Continuous
 62
     8
370
    15
100
AcDbLine
 10
412.5547949778
 20
900.7697472594
 30
0.0
 11
407.3959384667
 21
900.7697472594
 31
0.0
  0
LINE
  5
243
330
1F
100
AcDbEntity
  8
0
  6
Continuous
 62
     8
370
    15
100
AcDbLine
 10
582.5547967659
 20
900.7697472594
 30
0.0
 11
577.3959402548
 21
900.7697472594
 31
0.0
  0
LINE
  5
244
330
1F
100
AcDbEntity
  8
0
  6
Continuous
 62
     8
370
    15
100
AcDbLine
 10
691.4829779969
 20
897.8347847483
 30
0.0
 11
688.5480154859
 21
900.7697472594
 31
0.0
  0
LINE
  5
245
330
1F
100
AcDbEntity
  8
0
  6
Continuous
 62
     8
370
    15
100
AcDbLine
 10
301.4027197467
 20
900.7697472594
 30
0.0
 11
298.4677572356
 21
897.8347847483
 31
0.0
  0
LINE
  5
246
330
1F
100
AcDbEntity
  8
0
  6
Continuous
 62
     8
370
    15
100
AcDbLine
 10
682.3959369765
 20
900.7697472594
 30
0.0
 11
681.6845257388
 21
898.9873895666
 31
0.0
  0
ELLIPSE
  5
247
330
1F
100
AcDbEntity
  8
0
  6
Continuous
 62
     8
370
    15
100
AcDbEllipse
 10
681.6845200755
 20
900.9797696252
 30
0.0
 11
-1.112262432352963
 21
1.905223154642727
 31
0.0
210
0.0
220
0.0
230
1.0
 40
0.7275157428
 41
0.981828559139344
 42
2.465358423334505
  0
ELLIPSE
  5
248
330
1F
100
AcDbEntity
  8
0
  6
Continuous
 62
     8
370
    15
100
AcDbEllipse
 10
681.9149971542
 20
901.5571948044
 30
0.0
 11
0.7597615360951978
 21
1.903466686410979
 31
0.0
210
0.0
220
0.0
230
1.0
 40
0.975850931
 41
1.952089755465364
 42
2.036314521818193
  0
ELLIPSE
  5
249
330
1F
100
AcDbEntity
  8
0
  6
Continuous
 62
     8
370
    15
100
AcDbEllipse
 10
413.0217734543
 20
901.5921902699
 30
0.0
 11
-0.7610715575460745
 21
1.906748745414802
 31
0.0
210
0.0
220
0.0
230
1.0
 40
0.974171213
 41
4.246870785361413
 42
4.331095551714261
  0
ELLIPSE
  5
24A
330
1F
100
AcDbEntity
  8
0
  6
Continuous
 62
     8
370
    15
100
AcDbEllipse
 10
413.2662188407
 20
900.9797696252
 30
0.0
 11
1.109690935925016
 21
1.922939575916417
 31
0.0
210
0.0
220
0.0
230
1.0
 40
0.7129198498
 41
3.8220756684854
 42
5.30560553268062
  0
LINE
  5
24B
330
1F
100
AcDbEntity
  8
0
  6
Continuous
 62
     8
370
    15
100
AcDbLine
 10
413.2662211166
 20
898.9873895666
 30
0.0
 11
412.5547949778
 21
900.7697472594
 31
0.0
  0
ELLIPSE
  5
24C
330
1F
100
AcDbEntity
  8
0
  6
Continuous
 62
     8
370
    15
100
AcDbEllipse
 10
583.0217734543
 20
901.5921902699
 30
0.0
 11
-0.7610715575461882
 21
1.906748745414802
 31
0.0
210
0.0
220
0.0
230
1.0
 40
0.974171213
 41
4.246870785361371
 42
4.331095551714219
  0
ELLIPSE
  5
24D
330
1F
100
AcDbEntity
  8
0
  6
Continuous
 62
     8
370
    15
100
AcDbEllipse
 10
583.2662188407
 20
900.9797696252
 30
0.0
 11
1.109690935925073
 21
1.922939575916416
 31
0.0
210
0.0
220
0.0
230
1.0
 40
0.7129198498
 41
3.822075668485431
 42
5.305605532680628
  0
LINE
  5
24E
330
1F
100
AcDbEntity
  8
0
  6
Continuous
 62
     8
370
    15
100
AcDbLine
 10
583.2662191795
 20
898.9873895666
 30
0.0
 11
582.5547967659
 21
900.7697472594
 31
0.0
  0
ELLIPSE
  5
24F
330
1F
100
AcDbEntity
  8
0
  6
Continuous
 62
     8
370
    15
100
AcDbEllipse
 10
308.0357417621
 20
901.5571948044
 30
0.0
 11
-0.7597615360951409
 21
1.903466686410979
 31
0.0
210
0.0
220
0.0
230
1.0
 40
0.975850931
 41
4.246870785361434
 42
4.331095551714258
  0
ELLIPSE
  5
250
330
1F
100
AcDbEntity
  8
0
  6
Continuous
 62
     8
370
    15
100
AcDbEllipse
 10
308.2662188407
 20
900.9797696252
 30
0.0
 11
1.11226243235302
 21
1.905223154642727
 31
0.0
210
0.0
220
0.0
230
1.0
 40
0.7275157428
 41
3.817826883845111
 42
5.301356748040273
  0
LINE
  5
251
330
1F
100
AcDbEntity
  8
0
  6
Continuous
 62
     8
370
    15
100
AcDbLine
 10
308.2662243949
 20
898.9873895666
 30
0.0
 11
307.554798256
 21
900.7697472594
 31
0.0
  0
LINE
  5
252
330
1F
100
AcDbEntity
  8
0
  6
Continuous
 62
     8
370
    15
100
AcDbLine
 10
407.3959384667
 20
900.7697472594
 30
0.0
 11
406.6845197784
 21
898.9873895666
 31
0.0
  0
ELLIPSE
  5
253
330
1F
100
AcDbEntity
  8
0
  6
Continuous
 62
     8
370
    15
100
AcDbEllipse
 10
406.6845200755
 20
900.9797696252
 30
0.0
 11
-1.109690935925016
 21
1.922939575916417
 31
0.0
210
0.0
220
0.0
230
1.0
 40
0.7129198498
 41
0.9775797744990202
 42
2.461109638694167
  0
ELLIPSE
  5
254
330
1F
100
AcDbEntity
  8
0
  6
Continuous
 62
     8
370
    15
100
AcDbEllipse
 10
406.928965462
 20
901.5921902699
 30
0.0
 11
0.7610715575460745
 21
1.906748745414802
 31
0.0
210
0.0
220
0.0
230
1.0
 40
0.974171213
 41
1.952089755465331
 42
2.036314521818178
  0
ELLIPSE
  5
255
330
1F
100
AcDbEntity
  8
0
  6
Continuous
 62
     8
370
    15
100
AcDbEllipse
 10
498.0217734543
 20
901.5921902699
 30
0.0
 11
-0.7610715575460745
 21
1.906748745414802
 31
0.0
210
0.0
220
0.0
230
1.0
 40
0.974171213
 41
4.246870785361469
 42
4.331095551714262
  0
ELLIPSE
  5
256
330
1F
100
AcDbEntity
  8
0
  6
Continuous
 62
     8
370
    15
100
AcDbEllipse
 10
498.2662188407
 20
900.9797696252
 30
0.0
 11
1.109690935925016
 21
1.922939575916417
 31
0.0
210
0.0
220
0.0
230
1.0
 40
0.7129198498
 41
3.8220756684854
 42
5.305605532680676
  0
LINE
  5
257
330
1F
100
AcDbEntity
  8
0
  6
Continuous
 62
     8
370
    15
100
AcDbLine
 10
498.2662182854
 20
898.9873895666
 30
0.0
 11
497.5547977345
 21
900.7697472594
 31
0.0
  0
LINE
  5
258
330
1F
100
AcDbEntity
  8
0
  6
Continuous
 62
     8
370
    15
100
AcDbLine
 10
492.395943086
 20
900.7697472594
 30
0.0
 11
491.6845206724
 21
898.9873895666
 31
0.0
  0
ELLIPSE
  5
259
330
1F
100
AcDbEntity
  8
0
  6
Continuous
 62
     8
370
    15
100
AcDbEllipse
 10
491.6845200755
 20
900.9797696252
 30
0.0
 11
-1.109690935925073
 21
1.922939575916416
 31
0.0
210
0.0
220
0.0
230
1.0
 40
0.7129198498
 41
0.9775797744989485
 42
2.461109638694104
  0
ELLIPSE
  5
25A
330
1F
100
AcDbEntity
  8
0
  6
Continuous
 62
     8
370
    15
100
AcDbEllipse
 10
491.928965462
 20
901.5921902699
 30
0.0
 11
0.7610715575460745
 21
1.906748745414802
 31
0.0
210
0.0
220
0.0
230
1.0
 40
0.974171213
 41
1.952089755465331
 42
2.036314521818123
  0
LINE
  5
25B
330
1F
100
AcDbEntity
  8
0
  6
Continuous
 62
     8
370
    15
100
AcDbLine
 10
577.3959402548
 20
900.7697472594
 30
0.0
 11
576.6845215665
 21
898.9873895666
 31
0.0
  0
ELLIPSE
  5
25C
330
1F
100
AcDbEntity
  8
0
  6
Continuous
 62
     8
370
    15
100
AcDbEllipse
 10
576.6845200755
 20
900.9797696252
 30
0.0
 11
-1.109690935925073
 21
1.922939575916416
 31
0.0
210
0.0
220
0.0
230
1.0
 40
0.7129198498
 41
0.9775797744989766
 42
2.461109638694166
  0
ELLIPSE
  5
25D
330
1F
100
AcDbEntity
  8
0
  6
Continuous
 62
     8
370
    15
100
AcDbEllipse
 10
576.928965462
 20
901.5921902699
 30
0.0
 11
0.7610715575460745
 21
1.906748745414802
 31
0.0
210
0.0
220
0.0
230
1.0
 40
0.974171213
 41
1.952089755465331
 42
2.036314521818178
  0
LINE
  5
25E
330
1F
100
AcDbEntity
  8
0
  6
Continuous
 62
     8
370
    15
100
AcDbLine
 10
406.6845197784
 20
898.9873895666
 30
0.0
 11
308.2662243949
 21
898.9873895666
 31
0.0
  0
LINE
  5
25F
330
1F
100
AcDbEntity
  8
0
  6
Continuous
 62
     8
370
    15
100
AcDbLine
 10
491.6845206724
 20
898.9873895666
 30
0.0
 11
413.2662211166
 21
898.9873895666
 31
0.0
  0
LINE
  5
260
330
1F
100
AcDbEntity
  8
0
  6
Continuous
 62
     8
370
    15
100
AcDbLine
 10
576.6845215665
 20
898.9873895666
 30
0.0
 11
498.2662182854
 21
898.9873895666
 31
0.0
  0
LINE
  5
261
330
1F
100
AcDbEntity
  8
0
  6
Continuous
 62
     8
370
    15
100
AcDbLine
 10
681.6845257388
 20
898.9873895666
 30
0.0
 11
583.2662191795
 21
898.9873895666
 31
0.0
  0
SPLINE
  5
262
330
1F
100
AcDbEntity
  8
0
  6
Continuous
 62
     8
370
    15
100
AcDbSpline
210
0.0
220
0.0
230
1.0
 70
     8
 71
     3
 72
    23
 73
    19
 74
     0
 42
0.00000001
 43
0.00000001
 12
1.0
 22
0.0
 32
0.0
 13
1.0
 23
0.0
 33
0.0
 40
0.0
 40
0.0
 40
0.0
 40
0.0
 40
0.181188483959211
 40
0.3623057228199528
 40
0.4566905998580844
 40
0.4824160494047742
 40
0.4917240994207577
 40
0.4940641391664659
 40
0.4992697236341614
 40
0.5041381672656852
 40
0.5092050358599307
 40
0.5176721400413472
 40
0.5384411484666383
 40
0.6043433347588593
 40
0.6752932326634389
 40
0.7859482400445632
 40
0.9582988245869224
 40
1.0
 40
1.0
 40
1.0
 40
1.0
 10
312.1846486435981
 20
937.7648899576506
 30
0.0
 10
311.9772928124351
 20
937.1060484696395
 30
0.0
 10
311.5626626844668
 20
935.7886245565873
 30
0.0
 10
310.9238507467003
 20
933.9324519791011
 30
0.0
 10
310.433373180514
 20
932.5634361665605
 30
0.0
 10
310.222687189217
 20
931.6464596319978
 30
0.0
 10
310.1744511239718
 20
931.2514437818134
 30
0.0
 10
310.1599784046588
 20
931.0413829947457
 30
0.0
 10
310.1539531828463
 20
930.869853827765
 30
0.0
 10
310.1578980624278
 20
930.656173324099
 30
0.0
 10
310.1736584535783
 20
930.423357766186
 30
0.0
 10
310.2180436234006
 20
930.0661814951754
 30
0.0
 10
310.3699601803377
 20
929.353903950114
 30
0.0
 10
310.6306715364518
 20
928.5634336243364
 30
0.0
 10
311.010415898707
 20
927.4709934211461
 30
0.0
 10
311.5045045226391
 20
926.0675821163122
 30
0.0
 10
311.9000816695547
 20
924.8462249692374
 30
0.0
 10
312.1382492648999
 20
924.0581881777479
 30
0.0
 10
312.1846486435981
 20
923.9046642801603
 30
0.0
  0
SPLINE
  5
263
330
1F
100
AcDbEntity
  8
0
  6
Continuous
 62
     8
370
    15
100
AcDbSpline
210
0.0
220
0.0
230
1.0
 70
     8
 71
     3
 72
    23
 73
    19
 74
     0
 42
0.00000001
 43
0.00000001
 12
1.0
 22
0.0
 32
0.0
 13
1.0
 23
0.0
 33
0.0
 40
0.0
 40
0.0
 40
0.0
 40
0.0
 40
0.0417010824364905
 40
0.2140512827074484
 40
0.3247060792069312
 40
0.3956557796085563
 40
0.4615578604134425
 40
0.4823267834076705
 40
0.4912086377875727
 40
0.4958592521183068
 40
0.5010571288169483
 40
0.5059327445249172
 40
0.5113136146904955
 40
0.5175947035412211
 40
0.5433201352638978
 40
0.637704801862308
 40
0.7815066738333672
 40
1.0
 40
1.0
 40
1.0
 40
1.0
 10
677.766086588964
 20
923.9046642801603
 30
0.0
 10
677.8124861774619
 20
924.0581884690304
 30
0.0
 10
678.0506548497069
 20
924.8462267556694
 30
0.0
 10
678.4462085179917
 20
926.0675513795877
 30
0.0
 10
678.9403615592314
 20
927.4710521113336
 30
0.0
 10
679.3200237870426
 20
928.5633015802475
 30
0.0
 10
679.5808614888368
 20
929.354234288812
 30
0.0
 10
679.7333113081899
 20
930.0690140135679
 30
0.0
 10
679.7776392340005
 20
930.4282027264297
 30
0.0
 10
679.7932280772019
 20
930.6661507770829
 30
0.0
 10
679.796731111375
 20
930.8750724982319
 30
0.0
 10
679.7889545966133
 20
931.0870543371267
 30
0.0
 10
679.772293406773
 20
931.2852986737948
 30
0.0
 10
679.7233788533173
 20
931.6662086653309
 30
0.0
 10
679.5169680015083
 20
932.5658459202326
 30
0.0
 10
679.0877861720262
 20
933.7652900505817
 30
0.0
 10
678.4352050426411
 20
935.6215709025333
 30
0.0
 10
678.0178097384847
 20
936.9585708074059
 30
0.0
 10
677.766086588964
 20
937.7648899576506
 30
0.0
  0
SPLINE
  5
264
330
1F
100
AcDbEntity
  8
0
  6
Continuous
 62
     8
370
    15
100
AcDbSpline
210
0.0
220
0.0
230
1.0
 70
     8
 71
     3
 72
     9
 73
     5
 74
     0
 42
0.00000001
 43
0.00000001
 12
1.0
 22
0.0
 32
0.0
 13
1.0
 23
0.0
 33
0.0
 40
0.0
 40
0.0
 40
0.0
 40
0.0
 40
0.4996495908883993
 40
1.0
 40
1.0
 40
1.0
 40
1.0
 10
505.0260406540484
 20
958.2757124922117
 30
0.0
 10
505.0289345946296
 20
958.0330751008883
 30
0.0
 10
505.0347265348892
 20
957.5474599903229
 30
0.0
 10
505.0697879828517
 20
957.1534878178057
 30
0.0
 10
505.0873309926839
 20
956.9563636801084
 30
0.0
  0
LWPOLYLINE
  5
265
330
1F
100
AcDbEntity
  8
0
  6
Continuous
 62
     8
370
    15
100
AcDbPolyline
 90
        9
 70
   128
 43
0.0
 10
505.0873309927
 20
956.9563636801
 10
504.1281395213
 20
956.878520014
 10
503.2045785891
 20
956.6809902212
 10
502.3509692954
 20
956.3711056731
 10
501.5990380751
 20
955.9603998682
 10
500.9767339187
 20
955.4641017935
 10
500.5071815656
 20
954.9006888888
 10
500.2078358637
 20
954.2910823843
 10
500.089818667
 20
953.6579618475
  0
LINE
  5
266
330
1F
100
AcDbEntity
  8
0
  6
Continuous
 62
     8
370
    15
100
AcDbLine
 10
505.026040654
 20
958.2757124922
 30
0.0
 11
500.0290852593
 21
958.2757124922
 31
0.0
  0
SPLINE
  5
267
330
1F
100
AcDbEntity
  8
0
  6
Continuous
 62
     8
370
    15
100
AcDbSpline
210
0.0
220
0.0
230
1.0
 70
     8
 71
     3
 72
     9
 73
     5
 74
     0
 42
0.00000001
 43
0.00000001
 12
1.0
 22
0.0
 32
0.0
 13
1.0
 23
0.0
 33
0.0
 40
0.0
 40
0.0
 40
0.0
 40
0.0
 40
0.5004342887582788
 40
1.0
 40
1.0
 40
1.0
 40
1.0
 10
484.8634061025233
 20
956.9563636801084
 30
0.0
 10
484.880953577374
 20
957.1535264141569
 30
0.0
 10
484.9160180708448
 20
957.5475096772496
 30
0.0
 10
484.9218065687372
 20
958.0331188169511
 30
0.0
 10
484.9246983038038
 20
958.2757124922117
 30
0.0
  0
LINE
  5
268
330
1F
100
AcDbEntity
  8
0
  6
Continuous
 62
     8
370
    15
100
AcDbLine
 10
484.9246983038
 20
958.2757124922
 30
0.0
 11
489.9216536985
 21
958.2757124922
 31
0.0
  0
LWPOLYLINE
  5
269
330
1F
100
AcDbEntity
  8
0
  6
Continuous
 62
     8
370
    15
100
AcDbPolyline
 90
        9
 70
   128
 43
0.0
 10
484.8634061025
 20
956.9563636801
 10
485.8225975739
 20
956.878520014
 10
486.7461603688
 20
956.6809902212
 10
487.5997696625
 20
956.3711056731
 10
488.3517008828
 20
955.9603998682
 10
488.9740069018
 20
955.4641017935
 10
489.4435573922
 20
954.9006888888
 10
489.7429030942
 20
954.2910823843
 10
489.8609202908
 20
953.6579618475
  0
LINE
  5
26A
330
1F
100
AcDbEntity
  8
0
  6
Continuous
 62
     8
370
    15
100
AcDbLine
 10
574.9216545926
 20
903.4375319502
 30
0.0
 11
569.9246991979
 21
903.4375319502
 31
0.0
  0
SPLINE
  5
26B
330
1F
100
AcDbEntity
  8
0
  6
Continuous
 62
     8
370
    15
100
AcDbSpline
210
0.0
220
0.0
230
1.0
 70
     8
 71
     3
 72
     9
 73
     5
 74
     0
 42
0.00000001
 43
0.00000001
 12
1.0
 22
0.0
 32
0.0
 13
1.0
 23
0.0
 33
0.0
 40
0.0
 40
0.0
 40
0.0
 40
0.0
 40
0.4943801808624644
 40
1.0
 40
1.0
 40
1.0
 40
1.0
 10
569.9246991978736
 20
903.4375319502195
 30
0.0
 10
569.9229059534596
 20
903.6644083087007
 30
0.0
 10
569.9192786955653
 20
904.1233190160135
 30
0.0
 10
569.8889493900034
 20
904.5047861861613
 30
0.0
 10
569.8736142920108
 20
904.6976635477384
 30
0.0
  0
LWPOLYLINE
  5
26C
330
1F
100
AcDbEntity
  8
0
  6
Continuous
 62
     8
370
    15
100
AcDbPolyline
 90
        9
 70
   128
 43
0.0
 10
574.8670269357
 20
907.8480670473
 10
574.7484025167
 20
907.2439441702
 10
574.4488705503
 20
906.6622624419
 10
573.9795324014
 20
906.124539139
 10
573.3577963518
 20
905.6507120154
 10
572.606718223
 20
905.2583942435
 10
571.7541520105
 20
904.9621293566
 10
570.8317142533
 20
904.7728548071
 10
569.873614292
 20
904.6976635477
  0
LINE
  5
26D
330
1F
100
AcDbEntity
  8
0
  6
Continuous
 62
     8
370
    15
100
AcDbLine
 10
415.0290880905
 20
958.2320222876
 30
0.0
 11
420.0260434853
 21
958.2320222876
 31
0.0
  0
SPLINE
  5
26E
330
1F
100
AcDbEntity
  8
0
  6
Continuous
 62
     8
370
    15
100
AcDbSpline
210
0.0
220
0.0
230
1.0
 70
     8
 71
     3
 72
     9
 73
     5
 74
     0
 42
0.00000001
 43
0.00000001
 12
1.0
 22
0.0
 32
0.0
 13
1.0
 23
0.0
 33
0.0
 40
0.0
 40
0.0
 40
0.0
 40
0.0
 40
0.4997076262967715
 40
1.0
 40
1.0
 40
1.0
 40
1.0
 10
420.026043485269
 20
958.2320222875913
 30
0.0
 10
420.0278826584196
 20
958.0026693998514
 30
0.0
 10
420.0315631568825
 20
957.5436952404224
 30
0.0
 10
420.0619315769036
 20
957.162586359214
 30
0.0
 10
420.0771246658416
 20
956.9719204923948
 30
0.0
  0
LWPOLYLINE
  5
26F
330
1F
100
AcDbEntity
  8
0
  6
Continuous
 62
     8
370
    15
100
AcDbPolyline
 90
        9
 70
   128
 43
0.0
 10
415.0837157475
 20
953.8214871905
 10
415.2023364411
 20
954.4256100676
 10
415.5018721329
 20
955.007291796
 10
415.9712065564
 20
955.5450150988
 10
416.5929426061
 20
956.0188422224
 10
417.3440207349
 20
956.4111599943
 10
418.1965906726
 20
956.7074248812
 10
419.1190247046
 20
956.8966994307
 10
420.0771246658
 20
956.9719204924
  0
SPLINE
  5
270
330
1F
100
AcDbEntity
  8
0
  6
Continuous
 62
     8
370
    15
100
AcDbSpline
210
0.0
220
0.0
230
1.0
 70
     8
 71
     3
 72
     9
 73
     5
 74
     0
 42
0.00000001
 43
0.00000001
 12
1.0
 22
0.0
 32
0.0
 13
1.0
 23
0.0
 33
0.0
 40
0.0
 40
0.0
 40
0.0
 40
0.0
 40
0.5003811449305697
 40
1.0
 40
1.0
 40
1.0
 40
1.0
 10
569.8736142920108
 20
956.9719204923948
 30
0.0
 10
569.8888089672512
 20
957.162625015092
 30
0.0
 10
569.9191751698836
 20
957.5437435377012
 30
0.0
 10
569.922858791206
 20
958.0027126601307
 30
0.0
 10
569.9246991978736
 20
958.2320222875913
 30
0.0
  0
LINE
  5
271
330
1F
100
AcDbEntity
  8
0
  6
Continuous
 62
     8
370
    15
100
AcDbLine
 10
569.9246991979
 20
958.2320222876
 30
0.0
 11
574.9216545926
 21
958.2320222876
 31
0.0
  0
LWPOLYLINE
  5
272
330
1F
100
AcDbEntity
  8
0
  6
Continuous
 62
     8
370
    15
100
AcDbPolyline
 90
        9
 70
   128
 43
0.0
 10
569.873614292
 20
956.9719204924
 10
570.8317142533
 20
956.8966994307
 10
571.7541520105
 20
956.7074248812
 10
572.606718223
 20
956.4111599943
 10
573.3577963518
 20
956.0188422224
 10
573.9795324014
 20
955.5450150988
 10
574.4488705503
 20
955.007291796
 10
574.7484025167
 20
954.4256100676
 10
574.8670269357
 20
953.8214871905
  0
LWPOLYLINE
  5
273
330
1F
100
AcDbEntity
  8
0
  6
Continuous
 62
     8
370
    15
100
AcDbPolyline
 90
        9
 70
   128
 43
0.0
 10
500.089818667
 20
908.0115923903
 10
500.2078358637
 20
907.3784718535
 10
500.5071815656
 20
906.768865349
 10
500.9767339187
 20
906.2054524443
 10
501.5990380751
 20
905.7091543696
 10
502.3509692954
 20
905.2984485648
 10
503.2045785891
 20
904.9885640166
 10
504.1281395213
 20
904.7910342238
 10
505.0873309927
 20
904.71322036
  0
SPLINE
  5
274
330
1F
100
AcDbEntity
  8
0
  6
Continuous
 62
     8
370
    15
100
AcDbSpline
210
0.0
220
0.0
230
1.0
 70
     8
 71
     3
 72
    10
 73
     6
 74
     0
 42
0.00000001
 43
0.00000001
 12
1.0
 22
0.0
 32
0.0
 13
1.0
 23
0.0
 33
0.0
 40
0.0
 40
0.0
 40
0.0
 40
0.0
 40
0.4048369562309918
 40
0.8723067405310521
 40
1.0
 40
1.0
 40
1.0
 40
1.0
 10
505.0873309926839
 20
904.7132203600248
 30
0.0
 10
505.0731663338426
 20
904.556606863818
 30
0.0
 10
505.0426455842065
 20
904.2191500029844
 30
0.0
 10
505.027442745256
 20
903.7396965585851
 30
0.0
 10
505.0262883348053
 20
903.4549373301231
 30
0.0
 10
505.0260406540484
 20
903.3938417455992
 30
0.0
  0
LINE
  5
275
330
1F
100
AcDbEntity
  8
0
  6
Continuous
 62
     8
370
    15
100
AcDbLine
 10
500.0290852593
 20
903.3938417456
 30
0.0
 11
505.026040654
 21
903.3938417456
 31
0.0
  0
LWPOLYLINE
  5
276
330
1F
100
AcDbEntity
  8
0
  6
Continuous
 62
     8
370
    15
100
AcDbPolyline
 90
        9
 70
   128
 43
0.0
 10
415.0837157475
 20
907.8480670473
 10
415.2023364411
 20
907.2439441702
 10
415.5018721329
 20
906.6622624419
 10
415.9712065564
 20
906.124539139
 10
416.5929426061
 20
905.6507120154
 10
417.3440207349
 20
905.2583942435
 10
418.1965906726
 20
904.9621293566
 10
419.1190247046
 20
904.7728548071
 10
420.0771246658
 20
904.6976635477
  0
SPLINE
  5
277
330
1F
100
AcDbEntity
  8
0
  6
Continuous
 62
     8
370
    15
100
AcDbSpline
210
0.0
220
0.0
230
1.0
 70
     8
 71
     3
 72
    10
 73
     6
 74
     0
 42
0.00000001
 43
0.00000001
 12
1.0
 22
0.0
 32
0.0
 13
1.0
 23
0.0
 33
0.0
 40
0.0
 40
0.0
 40
0.0
 40
0.0
 40
0.4276143410901949
 40
0.921720820139711
 40
1.0
 40
1.0
 40
1.0
 40
1.0
 10
420.0771246658415
 20
904.6976635477384
 30
0.0
 10
420.064218854219
 20
904.5368080866716
 30
0.0
 10
420.0364004343713
 20
904.1900848520852
 30
0.0
 10
420.0258452234936
 20
903.7320784206273
 30
0.0
 10
420.0260196330977
 20
903.4729677917779
 30
0.0
 10
420.026043485269
 20
903.4375319502195
 30
0.0
  0
LINE
  5
278
330
1F
100
AcDbEntity
  8
0
  6
Continuous
 62
     8
370
    15
100
AcDbLine
 10
415.0290880905
 20
903.4375319502
 30
0.0
 11
420.0260434853
 21
903.4375319502
 31
0.0
  0
LWPOLYLINE
  5
279
330
1F
100
AcDbEntity
  8
0
  6
Continuous
 62
     8
370
    15
100
AcDbPolyline
 90
        9
 70
   128
 43
0.0
 10
585.0803163456
 20
907.7503750346
 10
585.1995479869
 20
907.1627030394
 10
585.499910693
 20
906.5968463442
 10
585.970250945
 20
906.0738155863
 10
586.593108307
 20
905.6130716822
 10
587.3453487264
 20
905.2316615603
 10
588.1990362512
 20
904.9438009283
 10
589.1224761115
 20
904.7601590178
 10
590.0813658343
 20
904.6875605604
  0
SPLINE
  5
27A
330
1F
100
AcDbEntity
  8
0
  6
Continuous
 62
     8
370
    15
100
AcDbSpline
210
0.0
220
0.0
230
1.0
 70
     8
 71
     3
 72
     9
 73
     5
 74
     0
 42
0.00000001
 43
0.00000001
 12
1.0
 22
0.0
 32
0.0
 13
1.0
 23
0.0
 33
0.0
 40
0.0
 40
0.0
 40
0.0
 40
0.0
 40
0.511908134475055
 40
1.0
 40
1.0
 40
1.0
 40
1.0
 10
590.0813658343405
 20
904.687560560449
 30
0.0
 10
590.0656608742659
 20
904.4962457704912
 30
0.0
 10
590.0349816194989
 20
904.122517015128
 30
0.0
 10
590.0289713745145
 20
903.6788886709016
 30
0.0
 10
590.0260378228278
 20
903.4623572847685
 30
0.0
  0
LINE
  5
27B
330
1F
100
AcDbEntity
  8
0
  6
Continuous
 62
     8
370
    15
100
AcDbLine
 10
585.0290861534
 20
903.4623572848
 30
0.0
 11
590.0260378228
 21
903.4623572848
 31
0.0
  0
SPLINE
  5
27C
330
1F
100
AcDbEntity
  8
0
  6
Continuous
 62
     8
370
    15
100
AcDbSpline
210
0.0
220
0.0
230
1.0
 70
     8
 71
     3
 72
     9
 73
     5
 74
     0
 42
0.00000001
 43
0.00000001
 12
1.0
 22
0.0
 32
0.0
 13
1.0
 23
0.0
 33
0.0
 40
0.0
 40
0.0
 40
0.0
 40
0.0
 40
0.5109041812322322
 40
0.9999999999999999
 40
0.9999999999999999
 40
0.9999999999999999
 40
0.9999999999999999
 10
399.9246974097342
 20
903.4623572847685
 30
0.0
 10
399.9215129637785
 20
903.6891313302256
 30
0.0
 10
399.915280002545
 20
904.1329993856999
 30
0.0
 10
399.8844488070337
 20
904.5054140871313
 30
0.0
 10
399.8693693982215
 20
904.687560560449
 30
0.0
  0
LWPOLYLINE
  5
27D
330
1F
100
AcDbEntity
  8
0
  6
Continuous
 62
     8
370
    15
100
AcDbPolyline
 90
        9
 70
   128
 43
0.0
 10
399.8693693982
 20
904.6875605604
 10
400.8282665716
 20
904.7601590178
 10
401.7516989814
 20
904.9438009283
 10
402.6053939568
 20
905.2316615603
 10
403.3576269256
 20
905.6130716822
 10
403.9804880129
 20
906.0738155863
 10
404.4508282648
 20
906.5968463442
 10
404.751190971
 20
907.1627030394
 10
404.8704226123
 20
907.7503750346
  0
LINE
  5
27E
330
1F
100
AcDbEntity
  8
0
  6
Continuous
 62
     8
370
    15
100
AcDbLine
 10
399.9246974097
 20
903.4623572848
 30
0.0
 11
404.9216528045
 21
903.4623572848
 31
0.0
  0
LINE
  5
27F
330
1F
100
AcDbEntity
  8
0
  6
Continuous
 62
     8
370
    15
100
AcDbLine
 10
489.9216536985
 20
903.3938417456
 30
0.0
 11
484.9246983038
 21
903.3938417456
 31
0.0
  0
SPLINE
  5
280
330
1F
100
AcDbEntity
  8
0
  6
Continuous
 62
     8
370
    15
100
AcDbSpline
210
0.0
220
0.0
230
1.0
 70
     8
 71
     3
 72
    10
 73
     6
 74
     0
 42
0.00000001
 43
0.00000001
 12
1.0
 22
0.0
 32
0.0
 13
1.0
 23
0.0
 33
0.0
 40
0.0
 40
0.0
 40
0.0
 40
0.0
 40
0.4674688482464362
 40
0.9356143692630822
 40
1.0
 40
1.0
 40
1.0
 40
1.0
 10
484.9246983038039
 20
903.3938417455992
 30
0.0
 10
484.9219133797946
 20
903.6184346255695
 30
0.0
 10
484.9163395005295
 20
904.0679454892833
 30
0.0
 10
484.8860383399673
 20
904.4964248425975
 30
0.0
 10
484.8658472985587
 20
904.6898360013671
 30
0.0
 10
484.8634061025233
 20
904.7132203600248
 30
0.0
  0
LWPOLYLINE
  5
281
330
1F
100
AcDbEntity
  8
0
  6
Continuous
 62
     8
370
    15
100
AcDbPolyline
 90
        9
 70
   128
 43
0.0
 10
489.8609202908
 20
908.0115923903
 10
489.7429030942
 20
907.3784718535
 10
489.4435573922
 20
906.768865349
 10
488.9740069018
 20
906.2054524443
 10
488.3517008828
 20
905.7091543696
 10
487.5997696625
 20
905.2984485648
 10
486.7461603688
 20
904.9885640166
 10
485.8225975739
 20
904.7910342238
 10
484.8634061025
 20
904.71322036
  0
LINE
  5
282
330
1F
100
AcDbEntity
  8
0
  6
Continuous
 62
     8
370
    15
100
AcDbLine
 10
585.0290861534
 20
958.207196953
 30
0.0
 11
590.0260378228
 21
958.207196953
 31
0.0
  0
SPLINE
  5
283
330
1F
100
AcDbEntity
  8
0
  6
Continuous
 62
     8
370
    15
100
AcDbSpline
210
0.0
220
0.0
230
1.0
 70
     8
 71
     3
 72
     9
 73
     5
 74
     0
 42
0.00000001
 43
0.00000001
 12
1.0
 22
0.0
 32
0.0
 13
1.0
 23
0.0
 33
0.0
 40
0.0
 40
0.0
 40
0.0
 40
0.0
 40
0.4996746275517711
 40
1.0
 40
1.0
 40
1.0
 40
1.0
 10
590.0260378228278
 20
958.2071969530424
 30
0.0
 10
590.0290994720783
 20
957.9854660155593
 30
0.0
 10
590.0352267578792
 20
957.5417153721268
 30
0.0
 10
590.065979471463
 20
957.1686484994046
 30
0.0
 10
590.0813658343405
 20
956.9819936773619
 30
0.0
  0
LWPOLYLINE
  5
284
330
1F
100
AcDbEntity
  8
0
  6
Continuous
 62
     8
370
    15
100
AcDbPolyline
 90
        9
 70
   128
 43
0.0
 10
585.0803163456
 20
953.9191792033
 10
585.1995479869
 20
954.5068511984
 10
585.499910693
 20
955.0727078936
 10
585.970250945
 20
955.5957386515
 10
586.593108307
 20
956.0565123579
 10
587.3453487264
 20
956.4378926775
 10
588.1990362512
 20
956.7257533095
 10
589.1224761115
 20
956.90939522
 10
590.0813658343
 20
956.9819936774
  0
LWPOLYLINE
  5
285
330
1F
100
AcDbEntity
  8
0
  6
Continuous
 62
     8
370
    15
100
AcDbPolyline
 90
        9
 70
   128
 43
0.0
 10
404.8704226123
 20
953.9191792033
 10
404.751190971
 20
954.5068511984
 10
404.4508282648
 20
955.0727078936
 10
403.9804880129
 20
955.5957386515
 10
403.3576269256
 20
956.0565123579
 10
402.6053939568
 20
956.4378926775
 10
401.7516989814
 20
956.7257533095
 10
400.8282665716
 20
956.90939522
 10
399.8693693982
 20
956.9819936774
  0
SPLINE
  5
286
330
1F
100
AcDbEntity
  8
0
  6
Continuous
 62
     8
370
    15
100
AcDbSpline
210
0.0
220
0.0
230
1.0
 70
     8
 71
     3
 72
     9
 73
     5
 74
     0
 42
0.00000001
 43
0.00000001
 12
1.0
 22
0.0
 32
0.0
 13
1.0
 23
0.0
 33
0.0
 40
0.0
 40
0.0
 40
0.0
 40
0.0
 40
0.5003539863170245
 40
1.0
 40
1.0
 40
1.0
 40
1.0
 10
399.8693693982215
 20
956.9819936773619
 30
0.0
 10
399.8847594591125
 20
957.1686568812617
 30
0.0
 10
399.9155178048276
 20
957.5417191711695
 30
0.0
 10
399.9216389859749
 20
957.9854757482556
 30
0.0
 10
399.9246974097342
 20
958.2071969530424
 30
0.0
  0
LINE
  5
287
330
1F
100
AcDbEntity
  8
0
  6
Continuous
 62
     8
370
    15
100
AcDbLine
 10
404.9216528045
 20
958.207196953
 30
0.0
 11
399.9246974097
 21
958.207196953
 31
0.0
  0
LINE
  5
288
330
1F
100
AcDbEntity
  8
0
  6
Continuous
 62
     8
370
    15
100
AcDbLine
 10
310.0425620185
 20
958.0724010489
 30
0.0
 11
314.6397639619
 21
958.0724010489
 31
0.0
  0
SPLINE
  5
289
330
1F
100
AcDbEntity
  8
0
  6
Continuous
 62
     8
370
    15
100
AcDbSpline
210
0.0
220
0.0
230
1.0
 70
     8
 71
     3
 72
    10
 73
     6
 74
     0
 42
0.00000001
 43
0.00000001
 12
1.0
 22
0.0
 32
0.0
 13
1.0
 23
0.0
 33
0.0
 40
0.0
 40
0.0
 40
0.0
 40
0.0
 40
0.0486236020370589
 40
0.6765736771976837
 40
1.0
 40
1.0
 40
1.0
 40
1.0
 10
314.6397639618964
 20
958.0724010488829
 30
0.0
 10
314.6397157842054
 20
958.0550817651607
 30
0.0
 10
314.6390454151611
 20
957.8140923899758
 30
0.0
 10
314.6453014385672
 20
957.4529224505866
 30
0.0
 10
314.6623536639196
 20
957.1528711499701
 30
0.0
 10
314.6681506739707
 20
957.0508668443998
 30
0.0
  0
LWPOLYLINE
  5
28A
330
1F
100
AcDbEntity
  8
0
  6
Continuous
 62
     8
370
    15
100
AcDbPolyline
 90
        9
 70
   128
 43
0.0
 10
310.0748975383
 20
954.7011921427
 10
310.1862092124
 20
955.1509091875
 10
310.463221799
 20
955.5840263388
 10
310.8956982003
 20
955.984509947
 10
311.4676643716
 20
956.3376078627
 10
312.1580053674
 20
956.6302368662
 10
312.9412103997
 20
956.8516383192
 10
313.7883563148
 20
956.9935867808
 10
314.668150674
 20
957.0508668444
  0
LWPOLYLINE
  5
28B
330
1F
100
AcDbEntity
  8
0
  6
Continuous
 62
     8
370
    15
100
AcDbPolyline
 90
        9
 70
   128
 43
0.0
 10
574.9274883972
 20
901.398784878
 10
574.7970473574
 20
901.3878176234
 10
574.4901393162
 20
901.3619790099
 10
574.0179438697
 20
901.3222227118
 10
573.3976457821
 20
901.270009043
 10
572.6518277632
 20
901.207245352
 10
571.8076360034
 20
901.1361668131
 10
570.8958041476
 20
901.059425833
 10
569.9495282577
 20
900.9797642252
  0
ELLIPSE
  5
28C
330
1F
100
AcDbEntity
  8
0
  6
Continuous
 62
     8
370
    15
100
AcDbEllipse
 10
576.928965462
 20
901.5921902699
 30
0.0
 11
-2.60643701293543
 21
-6.530030527538655
 31
0.0
210
0.0
220
0.0
230
1.0
 40
0.9955924488
 41
5.093682409055101
 42
5.177907175407945
  0
LINE
  5
28D
330
1F
100
AcDbEntity
  8
0
  6
Continuous
 62
     8
370
    15
100
AcDbLine
 10
574.9216545926
 20
901.5708038828
 30
0.0
 11
569.9246991979
 21
901.5708038828
 31
0.0
  0
ELLIPSE
  5
28E
330
1F
100
AcDbEntity
  8
0
  6
Continuous
 62
     8
370
    15
100
AcDbEllipse
 10
576.928965462
 20
960.0773643786
 30
0.0
 11
-2.60643701293543
 21
6.530030527538543
 31
0.0
210
0.0
220
0.0
230
1.0
 40
0.9955924488
 41
1.105278131771649
 42
1.189502898124513
  0
LWPOLYLINE
  5
28F
330
1F
100
AcDbEntity
  8
0
  6
Continuous
 62
     8
370
    15
100
AcDbPolyline
 90
        9
 70
   128
 43
0.0
 10
569.9495282577
 20
960.6897900126
 10
570.8958041476
 20
960.6101284048
 10
571.8076360034
 20
960.5333874247
 10
572.6518277632
 20
960.4623088858
 10
573.3976457821
 20
960.3995451948
 10
574.0179438697
 20
960.347331526
 10
574.4901393162
 20
960.307575228
 10
574.7970473574
 20
960.2817366144
 10
574.9274883972
 20
960.2707693598
  0
LINE
  5
290
330
1F
100
AcDbEntity
  8
0
  6
Continuous
 62
     8
370
    15
100
AcDbLine
 10
569.9246991979
 20
960.098750355
 30
0.0
 11
574.9216545926
 21
960.098750355
 31
0.0
  0
LINE
  5
291
330
1F
100
AcDbEntity
  8
0
  6
Continuous
 62
     8
370
    15
100
AcDbLine
 10
420.0260434853
 20
903.4375319502
 30
0.0
 11
420.0260434853
 21
901.5708038828
 31
0.0
  0
LINE
  5
292
330
1F
100
AcDbEntity
  8
0
  6
Continuous
 62
     8
370
    15
100
AcDbLine
 10
415.0290880905
 20
901.5708038828
 30
0.0
 11
420.0260434853
 21
901.5708038828
 31
0.0
  0
LINE
  5
293
330
1F
100
AcDbEntity
  8
0
  6
Continuous
 62
     8
370
    15
100
AcDbLine
 10
500.0290852593
 20
901.5708038828
 30
0.0
 11
505.026040654
 21
901.5708038828
 31
0.0
  0
ELLIPSE
  5
294
330
1F
100
AcDbEntity
  8
0
  6
Continuous
 62
     8
370
    15
100
AcDbEllipse
 10
498.0217734543
 20
901.5921902699
 30
0.0
 11
-2.60643701293543
 21
6.530030527538429
 31
0.0
210
0.0
220
0.0
230
1.0
 40
0.9955924488
 41
4.246870785361433
 42
4.331095551714279
  0
LWPOLYLINE
  5
295
330
1F
100
AcDbEntity
  8
0
  6
Continuous
 62
     8
370
    15
100
AcDbPolyline
 90
        9
 70
   128
 43
0.0
 10
500.0232495921
 20
901.398784878
 10
500.1536924945
 20
901.3878176234
 10
500.4605986731
 20
901.3619790099
 10
500.9327941196
 20
901.3222227118
 10
501.5530940698
 20
901.270009043
 10
502.2989120887
 20
901.207245352
 10
503.1431038486
 20
901.1361668131
 10
504.0549338417
 20
901.059425833
 10
505.0012115942
 20
900.9797642252
  0
LINE
  5
296
330
1F
100
AcDbEntity
  8
0
  6
Continuous
 62
     8
370
    15
100
AcDbLine
 10
569.9246991979
 20
901.5708038828
 30
0.0
 11
569.9246991979
 21
903.4375319502
 31
0.0
  0
ELLIPSE
  5
297
330
1F
100
AcDbEntity
  8
0
  6
Continuous
 62
     8
370
    15
100
AcDbEllipse
 10
498.0217734543
 20
960.0773643786
 30
0.0
 11
-2.60643701293543
 21
-6.530030527538429
 31
0.0
210
0.0
220
0.0
230
1.0
 40
0.9955924488
 41
1.952089755465286
 42
2.036314521818148
  0
LINE
  5
298
330
1F
100
AcDbEntity
  8
0
  6
Continuous
 62
     8
370
    15
100
AcDbLine
 10
505.026040654
 20
960.098750355
 30
0.0
 11
500.0290852593
 21
960.098750355
 31
0.0
  0
LWPOLYLINE
  5
299
330
1F
100
AcDbEntity
  8
0
  6
Continuous
 62
     8
370
    15
100
AcDbPolyline
 90
        9
 70
   128
 43
0.0
 10
505.0012115942
 20
960.6897900126
 10
504.0549338417
 20
960.6101284048
 10
503.1431038486
 20
960.5333874247
 10
502.2989120887
 20
960.4623088858
 10
501.5530940698
 20
960.3995451948
 10
500.9327941196
 20
960.347331526
 10
500.4605986731
 20
960.307575228
 10
500.1536924945
 20
960.2817366144
 10
500.0232495921
 20
960.2707693598
  0
ELLIPSE
  5
29A
330
1F
100
AcDbEntity
  8
0
  6
Continuous
 62
     8
370
    15
100
AcDbEllipse
 10
413.0217734543
 20
901.5921902699
 30
0.0
 11
-2.606437012935487
 21
6.530030527538429
 31
0.0
210
0.0
220
0.0
230
1.0
 40
0.9955924488
 41
4.246870785361427
 42
4.331095551714289
  0
LWPOLYLINE
  5
29B
330
1F
100
AcDbEntity
  8
0
  6
Continuous
 62
     8
370
    15
100
AcDbPolyline
 90
        9
 70
   128
 43
0.0
 10
415.0232468353
 20
901.398784878
 10
415.1536916004
 20
901.3878176234
 10
415.4605959164
 20
901.3619790099
 10
415.9327913629
 20
901.3222227118
 10
416.553096901
 20
901.270009043
 10
417.29891492
 20
901.207245352
 10
418.1431029545
 20
901.1361668131
 10
419.0549348103
 20
901.059425833
 10
420.0012107001
 20
900.9797642252
  0
LINE
  5
29C
330
1F
100
AcDbEntity
  8
0
  6
Continuous
 62
     8
370
    15
100
AcDbLine
 10
569.9246991979
 20
958.2320222876
 30
0.0
 11
569.9246991979
 21
960.098750355
 31
0.0
  0
LINE
  5
29D
330
1F
100
AcDbEntity
  8
0
  6
Continuous
 62
     8
370
    15
100
AcDbLine
 10
590.0260378228
 20
903.4623572848
 30
0.0
 11
590.0260378228
 21
901.5708038828
 31
0.0
  0
LINE
  5
29E
330
1F
100
AcDbEntity
  8
0
  6
Continuous
 62
     8
370
    15
100
AcDbLine
 10
585.0290861534
 20
901.5708038828
 30
0.0
 11
590.0260378228
 21
901.5708038828
 31
0.0
  0
LWPOLYLINE
  5
29F
330
1F
100
AcDbEntity
  8
0
  6
Continuous
 62
     8
370
    15
100
AcDbPolyline
 90
        9
 70
   128
 43
0.0
 10
585.0232486235
 20
960.2707693598
 10
585.1536933886
 20
960.2817366144
 10
585.4605977045
 20
960.307575228
 10
585.9327968763
 20
960.347331526
 10
586.5530949639
 20
960.3995451948
 10
587.2989092575
 20
960.4623088858
 10
588.1431047426
 20
960.5333874247
 10
589.0549365984
 20
960.6101284048
 10
590.0012124883
 20
960.6897900126
  0
ELLIPSE
  5
2A0
330
1F
100
AcDbEntity
  8
0
  6
Continuous
 62
     8
370
    15
100
AcDbEllipse
 10
583.0217734543
 20
960.0773643786
 30
0.0
 11
-2.606437012935544
 21
-6.53003052753843
 31
0.0
210
0.0
220
0.0
230
1.0
 40
0.9955924488
 41
1.952089755465337
 42
2.036314521818167
  0
LINE
  5
2A1
330
1F
100
AcDbEntity
  8
0
  6
Continuous
 62
     8
370
    15
100
AcDbLine
 10
585.0290861534
 20
960.098750355
 30
0.0
 11
590.0260378228
 21
960.098750355
 31
0.0
  0
LWPOLYLINE
  5
2A2
330
1F
100
AcDbEntity
  8
0
  6
Continuous
 62
     8
370
    15
100
AcDbPolyline
 90
        9
 70
   128
 43
0.0
 10
415.0232468353
 20
960.2707693598
 10
415.1536916004
 20
960.2817366144
 10
415.4605959164
 20
960.307575228
 10
415.9327913629
 20
960.347331526
 10
416.553096901
 20
960.3995451948
 10
417.29891492
 20
960.4623088858
 10
418.1431029545
 20
960.5333874247
 10
419.0549348103
 20
960.6101284048
 10
420.0012107001
 20
960.6897900126
  0
ELLIPSE
  5
2A3
330
1F
100
AcDbEntity
  8
0
  6
Continuous
 62
     8
370
    15
100
AcDbEllipse
 10
413.0217734543
 20
960.0773643786
 30
0.0
 11
-2.606437012935487
 21
-6.530030527538429
 31
0.0
210
0.0
220
0.0
230
1.0
 40
0.9955924488
 41
1.952089755465306
 42
2.036314521818151
  0
LINE
  5
2A4
330
1F
100
AcDbEntity
  8
0
  6
Continuous
 62
     8
370
    15
100
AcDbLine
 10
415.0290880905
 20
960.098750355
 30
0.0
 11
420.0260434853
 21
960.098750355
 31
0.0
  0
ELLIPSE
  5
2A5
330
1F
100
AcDbEntity
  8
0
  6
Continuous
 62
     8
370
    15
100
AcDbEllipse
 10
491.928965462
 20
960.0773643786
 30
0.0
 11
-2.60643701293543
 21
6.530030527538543
 31
0.0
210
0.0
220
0.0
230
1.0
 40
0.9955924488
 41
1.105278131771654
 42
1.189502898124515
  0
LWPOLYLINE
  5
2A6
330
1F
100
AcDbEntity
  8
0
  6
Continuous
 62
     8
370
    15
100
AcDbPolyline
 90
        9
 70
   128
 43
0.0
 10
484.9495273636
 20
960.6897900126
 10
485.8958069788
 20
960.6101284048
 10
486.8076351093
 20
960.5333874247
 10
487.6518268691
 20
960.4623088858
 10
488.397644888
 20
960.3995451948
 10
489.0179429756
 20
960.347331526
 10
489.4901421474
 20
960.307575228
 10
489.7970464634
 20
960.2817366144
 10
489.9274912284
 20
960.2707693598
  0
LINE
  5
2A7
330
1F
100
AcDbEntity
  8
0
  6
Continuous
 62
     8
370
    15
100
AcDbLine
 10
484.9246983038
 20
960.098750355
 30
0.0
 11
489.9216536985
 21
960.098750355
 31
0.0
  0
LINE
  5
2A8
330
1F
100
AcDbEntity
  8
0
  6
Continuous
 62
     8
370
    15
100
AcDbLine
 10
399.9246974097
 20
901.5708038828
 30
0.0
 11
399.9246974097
 21
903.4623572848
 31
0.0
  0
LINE
  5
2A9
330
1F
100
AcDbEntity
  8
0
  6
Continuous
 62
     8
370
    15
100
AcDbLine
 10
399.9246974097
 20
901.5708038828
 30
0.0
 11
404.9216528045
 21
901.5708038828
 31
0.0
  0
ELLIPSE
  5
2AA
330
1F
100
AcDbEntity
  8
0
  6
Continuous
 62
     8
370
    15
100
AcDbEllipse
 10
406.928965462
 20
901.5921902699
 30
0.0
 11
-2.60643701293543
 21
-6.530030527538655
 31
0.0
210
0.0
220
0.0
230
1.0
 40
0.9955924488
 41
5.093682409055101
 42
5.177907175407945
  0
LWPOLYLINE
  5
2AB
330
1F
100
AcDbEntity
  8
0
  6
Continuous
 62
     8
370
    15
100
AcDbPolyline
 90
        9
 70
   128
 43
0.0
 10
399.9495301949
 20
900.9797642252
 10
400.8958060847
 20
901.059425833
 10
401.8076379405
 20
901.1361668131
 10
402.651825975
 20
901.207245352
 10
403.397643994
 20
901.270009043
 10
404.0179420816
 20
901.3222227118
 10
404.490137528
 20
901.3619790099
 10
404.7970492946
 20
901.3878176234
 10
404.9274866091
 20
901.398784878
  0
LINE
  5
2AC
330
1F
100
AcDbEntity
  8
0
  6
Continuous
 62
     8
370
    15
100
AcDbLine
 10
484.9246983038
 20
958.2757124922
 30
0.0
 11
484.9246983038
 21
960.098750355
 31
0.0
  0
LINE
  5
2AD
330
1F
100
AcDbEntity
  8
0
  6
Continuous
 62
     8
370
    15
100
AcDbLine
 10
399.9246974097
 20
958.207196953
 30
0.0
 11
399.9246974097
 21
960.098750355
 31
0.0
  0
LINE
  5
2AE
330
1F
100
AcDbEntity
  8
0
  6
Continuous
 62
     8
370
    15
100
AcDbLine
 10
404.9216528045
 20
960.098750355
 30
0.0
 11
399.9246974097
 21
960.098750355
 31
0.0
  0
LINE
  5
2AF
330
1F
100
AcDbEntity
  8
0
  6
Continuous
 62
     8
370
    15
100
AcDbLine
 10
505.026040654
 20
960.098750355
 30
0.0
 11
505.026040654
 21
958.2757124922
 31
0.0
  0
ELLIPSE
  5
2B0
330
1F
100
AcDbEntity
  8
0
  6
Continuous
 62
     8
370
    15
100
AcDbEllipse
 10
583.0217734543
 20
901.5921902699
 30
0.0
 11
-2.606437012935544
 21
6.53003052753843
 31
0.0
210
0.0
220
0.0
230
1.0
 40
0.9955924488
 41
4.24687078536143
 42
4.331095551714274
  0
LWPOLYLINE
  5
2B1
330
1F
100
AcDbEntity
  8
0
  6
Continuous
 62
     8
370
    15
100
AcDbPolyline
 90
        9
 70
   128
 43
0.0
 10
585.0232486235
 20
901.398784878
 10
585.1536933886
 20
901.3878176234
 10
585.4605977045
 20
901.3619790099
 10
585.9327968763
 20
901.3222227118
 10
586.5530949639
 20
901.270009043
 10
587.2989092575
 20
901.207245352
 10
588.1431047426
 20
901.1361668131
 10
589.0549365984
 20
901.059425833
 10
590.0012124883
 20
900.9797642252
  0
ELLIPSE
  5
2B2
330
1F
100
AcDbEntity
  8
0
  6
Continuous
 62
     8
370
    15
100
AcDbEllipse
 10
406.928965462
 20
960.0773643786
 30
0.0
 11
-2.60643701293543
 21
6.530030527538543
 31
0.0
210
0.0
220
0.0
230
1.0
 40
0.9955924488
 41
1.105278131771658
 42
1.189502898124518
  0
LWPOLYLINE
  5
2B3
330
1F
100
AcDbEntity
  8
0
  6
Continuous
 62
     8
370
    15
100
AcDbPolyline
 90
        9
 70
   128
 43
0.0
 10
404.9274866091
 20
960.2707693598
 10
404.7970492946
 20
960.2817366144
 10
404.490137528
 20
960.307575228
 10
404.0179420816
 20
960.347331526
 10
403.397643994
 20
960.3995451948
 10
402.651825975
 20
960.4623088858
 10
401.8076379405
 20
960.5333874247
 10
400.8958060847
 20
960.6101284048
 10
399.9495301949
 20
960.6897900126
  0
LINE
  5
2B4
330
1F
100
AcDbEntity
  8
0
  6
Continuous
 62
     8
370
    15
100
AcDbLine
 10
590.0260378228
 20
960.098750355
 30
0.0
 11
590.0260378228
 21
958.207196953
 31
0.0
  0
LWPOLYLINE
  5
2B5
330
1F
100
AcDbEntity
  8
0
  6
Continuous
 62
     8
370
    15
100
AcDbPolyline
 90
        9
 70
   128
 43
0.0
 10
489.9274912284
 20
901.398784878
 10
489.7970464634
 20
901.3878176234
 10
489.4901421474
 20
901.3619790099
 10
489.0179429756
 20
901.3222227118
 10
488.397644888
 20
901.270009043
 10
487.6518268691
 20
901.207245352
 10
486.8076351093
 20
901.1361668131
 10
485.8958069788
 20
901.059425833
 10
484.9495273636
 20
900.9797642252
  0
ELLIPSE
  5
2B6
330
1F
100
AcDbEntity
  8
0
  6
Continuous
 62
     8
370
    15
100
AcDbEllipse
 10
491.928965462
 20
901.5921902699
 30
0.0
 11
-2.606437012935487
 21
-6.530030527538656
 31
0.0
210
0.0
220
0.0
230
1.0
 40
0.9955924488
 41
5.093682409055107
 42
5.177907175407951
  0
LINE
  5
2B7
330
1F
100
AcDbEntity
  8
0
  6
Continuous
 62
     8
370
    15
100
AcDbLine
 10
489.9216536985
 20
901.5708038828
 30
0.0
 11
484.9246983038
 21
901.5708038828
 31
0.0
  0
LINE
  5
2B8
330
1F
100
AcDbEntity
  8
0
  6
Continuous
 62
     8
370
    15
100
AcDbLine
 10
505.026040654
 20
903.3938417456
 30
0.0
 11
505.026040654
 21
901.5708038828
 31
0.0
  0
LINE
  5
2B9
330
1F
100
AcDbEntity
  8
0
  6
Continuous
 62
     8
370
    15
100
AcDbLine
 10
420.0260434853
 20
960.098750355
 30
0.0
 11
420.0260434853
 21
958.2320222876
 31
0.0
  0
LINE
  5
2BA
330
1F
100
AcDbEntity
  8
0
  6
Continuous
 62
     8
370
    15
100
AcDbLine
 10
484.9246983038
 20
901.5708038828
 30
0.0
 11
484.9246983038
 21
903.3938417456
 31
0.0
  0
ELLIPSE
  5
2BB
330
1F
100
AcDbEntity
  8
0
  6
Continuous
 62
     8
370
    15
100
AcDbEllipse
 10
576.6845200755
 20
960.6897850233
 30
0.0
 11
6.760485546893847
 21
0.190870206325485
 31
0.0
210
0.0
220
0.0
230
1.0
 40
0.294486438
 41
1.562482221002527
 42
3.046012085197736
  0
ELLIPSE
  5
2BC
330
1F
100
AcDbEntity
  8
0
  6
Continuous
 62
     8
370
    15
100
AcDbEllipse
 10
406.6845200755
 20
960.6897850233
 30
0.0
 11
6.760485546893904
 21
0.190870206325485
 31
0.0
210
0.0
220
0.0
230
1.0
 40
0.294486438
 41
1.562482221002536
 42
3.046012085197737
  0
ELLIPSE
  5
2BD
330
1F
100
AcDbEntity
  8
0
  6
Continuous
 62
     8
370
    15
100
AcDbEllipse
 10
576.6845200755
 20
900.9797696252
 30
0.0
 11
6.760485546893846
 21
-0.1908702063253713
 31
0.0
210
0.0
220
0.0
230
1.0
 40
0.294486438
 41
3.237173221981846
 42
4.720703086177058
  0
ELLIPSE
  5
2BE
330
1F
100
AcDbEntity
  8
0
  6
Continuous
 62
     8
370
    15
100
AcDbEllipse
 10
498.2662188407
 20
900.9797696252
 30
0.0
 11
6.760485546893846
 21
0.1908702063255987
 31
0.0
210
0.0
220
0.0
230
1.0
 40
0.294486438
 41
4.70407487459232
 42
6.187604738787514
  0
ELLIPSE
  5
2BF
330
1F
100
AcDbEntity
  8
0
  6
Continuous
 62
     8
370
    15
100
AcDbEllipse
 10
491.6845200755
 20
960.6897850233
 30
0.0
 11
6.760485546893904
 21
0.190870206325485
 31
0.0
210
0.0
220
0.0
230
1.0
 40
0.294486438
 41
1.562482221002527
 42
3.046012085197737
  0
ELLIPSE
  5
2C0
330
1F
100
AcDbEntity
  8
0
  6
Continuous
 62
     8
370
    15
100
AcDbEllipse
 10
413.2662188407
 20
900.9797696252
 30
0.0
 11
6.760485546893904
 21
0.1908702063255987
 31
0.0
210
0.0
220
0.0
230
1.0
 40
0.294486438
 41
4.70407487459232
 42
6.187604738787513
  0
ELLIPSE
  5
2C1
330
1F
100
AcDbEntity
  8
0
  6
Continuous
 62
     8
370
    15
100
AcDbEllipse
 10
406.6845200755
 20
900.9797696252
 30
0.0
 11
6.760485546893904
 21
-0.1908702063253713
 31
0.0
210
0.0
220
0.0
230
1.0
 40
0.294486438
 41
3.237173221981845
 42
4.720703086177058
  0
ELLIPSE
  5
2C2
330
1F
100
AcDbEntity
  8
0
  6
Continuous
 62
     8
370
    15
100
AcDbEllipse
 10
491.6845200755
 20
900.9797696252
 30
0.0
 11
6.760485546893846
 21
-0.1908702063253713
 31
0.0
210
0.0
220
0.0
230
1.0
 40
0.294486438
 41
3.237173221981846
 42
4.72070308617705
  0
ELLIPSE
  5
2C3
330
1F
100
AcDbEntity
  8
0
  6
Continuous
 62
     8
370
    15
100
AcDbEllipse
 10
583.2662188407
 20
960.6897850233
 30
0.0
 11
6.760485546893847
 21
-0.190870206325485
 31
0.0
210
0.0
220
0.0
230
1.0
 40
0.294486438
 41
0.0955805683920566
 42
1.579110432587266
  0
ELLIPSE
  5
2C4
330
1F
100
AcDbEntity
  8
0
  6
Continuous
 62
     8
370
    15
100
AcDbEllipse
 10
413.2662188407
 20
960.6897850233
 30
0.0
 11
6.760485546893904
 21
-0.190870206325485
 31
0.0
210
0.0
220
0.0
230
1.0
 40
0.294486438
 41
0.0955805683920567
 42
1.579110432587266
  0
ELLIPSE
  5
2C5
330
1F
100
AcDbEntity
  8
0
  6
Continuous
 62
     8
370
    15
100
AcDbEllipse
 10
583.2662188407
 20
900.9797696252
 30
0.0
 11
6.760485546893846
 21
0.1908702063255987
 31
0.0
210
0.0
220
0.0
230
1.0
 40
0.294486438
 41
4.70407487459232
 42
6.187604738787514
  0
ELLIPSE
  5
2C6
330
1F
100
AcDbEntity
  8
0
  6
Continuous
 62
     8
370
    15
100
AcDbEllipse
 10
498.2662188407
 20
960.6897850233
 30
0.0
 11
6.760485546893904
 21
-0.190870206325485
 31
0.0
210
0.0
220
0.0
230
1.0
 40
0.294486438
 41
0.0955805683920568
 42
1.579110432587266
  0
SPLINE
  5
2C7
330
1F
100
AcDbEntity
  8
0
  6
Continuous
 62
     8
370
    15
100
AcDbSpline
210
0.0
220
0.0
230
1.0
 70
     8
 71
     3
 72
    10
 73
     6
 74
     0
 42
0.00000001
 43
0.00000001
 12
1.0
 22
0.0
 32
0.0
 13
1.0
 23
0.0
 33
0.0
 40
0.0
 40
0.0
 40
0.0
 40
0.0
 40
0.3231102343969192
 40
0.8644269008600369
 40
1.0
 40
1.0
 40
1.0
 40
1.0
 10
314.6681506739707
 20
904.618687393411
 30
0.0
 10
314.6623590991881
 20
904.5166503441073
 30
0.0
 10
314.6468647183006
 20
904.243667439474
 30
0.0
 10
314.6394273713332
 20
903.886757085104
 30
0.0
 10
314.6397077960976
 20
903.645478471758
 30
0.0
 10
314.6397639618964
 20
903.597153188928
 30
0.0
  0
LINE
  5
2C8
330
1F
100
AcDbEntity
  8
0
  6
Continuous
 62
     8
370
    15
100
AcDbLine
 10
314.6397639619
 20
903.5971531889
 30
0.0
 11
310.0425620185
 21
903.5971531889
 31
0.0
  0
LWPOLYLINE
  5
2C9
330
1F
100
AcDbEntity
  8
0
  6
Continuous
 62
     8
370
    15
100
AcDbPolyline
 90
        9
 70
   128
 43
0.0
 10
314.668150674
 20
904.6186873934
 10
313.7883563148
 20
904.675967457
 10
312.9412103997
 20
904.8179159186
 10
312.1580053674
 20
905.0393173716
 10
311.4676643716
 20
905.3319463751
 10
310.8956982003
 20
905.6850442908
 10
310.463221799
 20
906.085527899
 10
310.1862092124
 20
906.5186450503
 10
310.0748975383
 20
906.9683620951
  0
LWPOLYLINE
  5
2CA
330
1F
100
AcDbEntity
  8
0
  6
Continuous
 62
     8
370
    15
100
AcDbPolyline
 90
        9
 70
   128
 43
0.0
 10
679.8758376943
 20
954.7011921427
 10
679.7645260202
 20
955.1509091875
 10
679.4875283347
 20
955.5840263388
 10
679.0550519334
 20
955.984509947
 10
678.483070861
 20
956.3376078627
 10
677.7927298652
 20
956.6302368662
 10
677.0095248328
 20
956.8516383192
 10
676.1623789178
 20
956.9935867808
 10
675.2825994598
 20
957.0508668444
  0
SPLINE
  5
2CB
330
1F
100
AcDbEntity
  8
0
  6
Continuous
 62
     8
370
    15
100
AcDbSpline
210
0.0
220
0.0
230
1.0
 70
     8
 71
     3
 72
    10
 73
     6
 74
     0
 42
0.00000001
 43
0.00000001
 12
1.0
 22
0.0
 32
0.0
 13
1.0
 23
0.0
 33
0.0
 40
0.0
 40
0.0
 40
0.0
 40
0.0
 40
0.325209527410094
 40
0.7172611036964716
 40
1.0
 40
1.0
 40
1.0
 40
1.0
 10
675.2825994597525
 20
957.0508668443998
 30
0.0
 10
675.288421056553
 20
957.1536990860039
 30
0.0
 10
675.3012607939977
 20
957.3804992283488
 30
0.0
 10
675.3104665981784
 20
957.7305703811971
 30
0.0
 10
675.3108222511717
 20
957.9714654234662
 30
0.0
 10
675.3109712706656
 20
958.0724010488829
 30
0.0
  0
LINE
  5
2CC
330
1F
100
AcDbEntity
  8
0
  6
Continuous
 62
     8
370
    15
100
AcDbLine
 10
679.9081732141
 20
958.0724010489
 30
0.0
 11
675.3109712707
 21
958.0724010489
 31
0.0
  0
SPLINE
  5
2CD
330
1F
100
AcDbEntity
  8
0
  6
Continuous
 62
     8
370
    15
100
AcDbSpline
210
0.0
220
0.0
230
1.0
 70
     8
 71
     3
 72
    10
 73
     6
 74
     0
 42
0.00000001
 43
0.00000001
 12
1.0
 22
0.0
 32
0.0
 13
1.0
 23
0.0
 33
0.0
 40
0.0
 40
0.0
 40
0.0
 40
0.0
 40
0.2829624392202583
 40
0.6747910481719426
 40
1.0
 40
1.0
 40
1.0
 40
1.0
 10
675.3109712706656
 20
903.597153188928
 30
0.0
 10
675.310823315734
 20
903.698169314672
 30
0.0
 10
675.3104704821085
 20
903.9390662250923
 30
0.0
 10
675.3012556406794
 20
904.2891247896124
 30
0.0
 10
675.288420690115
 20
904.5158549946967
 30
0.0
 10
675.2825994597525
 20
904.618687393411
 30
0.0
  0
LWPOLYLINE
  5
2CE
330
1F
100
AcDbEntity
  8
0
  6
Continuous
 62
     8
370
    15
100
AcDbPolyline
 90
        9
 70
   128
 43
0.0
 10
675.2825994598
 20
904.6186873934
 10
676.1623789178
 20
904.675967457
 10
677.0095248328
 20
904.8179159186
 10
677.7927298652
 20
905.0393173716
 10
678.483070861
 20
905.3319463751
 10
679.0550519334
 20
905.6850442908
 10
679.4875283347
 20
906.085527899
 10
679.7645260202
 20
906.5186450503
 10
679.8758376943
 20
906.9683620951
  0
LINE
  5
2CF
330
1F
100
AcDbEntity
  8
0
  6
Continuous
 62
     8
370
    15
100
AcDbLine
 10
675.3109712707
 20
903.5971531889
 30
0.0
 11
679.9081732141
 21
903.5971531889
 31
0.0
  0
ELLIPSE
  5
2D0
330
1F
100
AcDbEntity
  8
0
  6
Continuous
 62
     8
370
    15
100
AcDbEllipse
 10
681.9149971542
 20
901.5571948044
 30
0.0
 11
-2.45749775505351
 21
-6.156885925964843
 31
0.0
210
0.0
220
0.0
230
1.0
 40
0.9955924488
 41
5.093682409055139
 42
5.177907175407985
  0
LINE
  5
2D1
330
1F
100
AcDbEntity
  8
0
  6
Continuous
 62
     8
370
    15
100
AcDbLine
 10
675.3109712707
 20
901.5370378516
 30
0.0
 11
679.9081732141
 21
901.5370378516
 31
0.0
  0
LWPOLYLINE
  5
2D2
330
1F
100
AcDbEntity
  8
0
  6
Continuous
 62
     8
370
    15
100
AcDbPolyline
 90
        9
 70
   128
 43
0.0
 10
675.3343809949
 20
900.9797642252
 10
676.2049664365
 20
901.053048136
 10
677.0438422071
 20
901.12367964
 10
677.8205056296
 20
901.189036133
 10
678.5066593991
 20
901.2467930338
 10
679.0773291694
 20
901.2948343775
 10
679.5117427217
 20
901.3314018271
 10
679.7941048251
 20
901.3551840803
 10
679.9141038762
 20
901.3652870676
  0
LWPOLYLINE
  5
2D3
330
1F
100
AcDbEntity
  8
0
  6
Continuous
 62
     8
370
    15
100
AcDbPolyline
 90
        9
 70
   128
 43
0.0
 10
310.0366313563
 20
960.3042671702
 10
310.1566304074
 20
960.3143701575
 10
310.4389925109
 20
960.3381524107
 10
310.8734060632
 20
960.3747198603
 10
311.4440907346
 20
960.422761204
 10
312.1302445041
 20
960.4805181048
 10
312.9068930255
 20
960.5458745978
 10
313.7457836972
 20
960.6165061018
 10
314.6163542377
 20
960.6897900126
  0
ELLIPSE
  5
2D4
330
1F
100
AcDbEntity
  8
0
  6
Continuous
 62
     8
370
    15
100
AcDbEllipse
 10
308.0357417621
 20
960.1123598441
 30
0.0
 11
-2.457497755053339
 21
-6.156885925964843
 31
0.0
210
0.0
220
0.0
230
1.0
 40
0.9955924488
 41
1.952089755465292
 42
2.036314521818138
  0
LINE
  5
2D5
330
1F
100
AcDbEntity
  8
0
  6
Continuous
 62
     8
370
    15
100
AcDbLine
 10
310.0425620185
 20
960.1325163863
 30
0.0
 11
314.6397639619
 21
960.1325163863
 31
0.0
  0
LINE
  5
2D6
330
1F
100
AcDbEntity
  8
0
  6
Continuous
 62
     8
370
    15
100
AcDbLine
 10
675.3109712707
 20
958.0724010489
 30
0.0
 11
675.3109712707
 21
960.1325163863
 31
0.0
  0
LINE
  5
2D7
330
1F
100
AcDbEntity
  8
0
  6
Continuous
 62
     8
370
    15
100
AcDbLine
 10
679.9081732141
 20
960.1325163863
 30
0.0
 11
675.3109712707
 21
960.1325163863
 31
0.0
  0
LINE
  5
2D8
330
1F
100
AcDbEntity
  8
0
  6
Continuous
 62
     8
370
    15
100
AcDbLine
 10
675.3109712707
 20
901.5370378516
 30
0.0
 11
675.3109712707
 21
903.5971531889
 31
0.0
  0
ELLIPSE
  5
2D9
330
1F
100
AcDbEntity
  8
0
  6
Continuous
 62
     8
370
    15
100
AcDbEllipse
 10
681.9149971542
 20
960.1123598441
 30
0.0
 11
-2.45749775505351
 21
6.156885925964843
 31
0.0
210
0.0
220
0.0
230
1.0
 40
0.9955924488
 41
1.105278131771646
 42
1.189502898124472
  0
LWPOLYLINE
  5
2DA
330
1F
100
AcDbEntity
  8
0
  6
Continuous
 62
     8
370
    15
100
AcDbPolyline
 90
        9
 70
   128
 43
0.0
 10
679.9141038762
 20
960.3042671702
 10
679.7941048251
 20
960.3143701575
 10
679.5117427217
 20
960.3381524107
 10
679.0773291694
 20
960.3747198603
 10
678.5066593991
 20
960.422761204
 10
677.8205056296
 20
960.4805181048
 10
677.0438422071
 20
960.5458745978
 10
676.2049664365
 20
960.6165061018
 10
675.3343809949
 20
960.6897900126
  0
LINE
  5
2DB
330
1F
100
AcDbEntity
  8
0
  6
Continuous
 62
     8
370
    15
100
AcDbLine
 10
314.6397639619
 20
960.1325163863
 30
0.0
 11
314.6397639619
 21
958.0724010489
 31
0.0
  0
ELLIPSE
  5
2DC
330
1F
100
AcDbEntity
  8
0
  6
Continuous
 62
     8
370
    15
100
AcDbEllipse
 10
308.0357417621
 20
901.5571948044
 30
0.0
 11
-2.457497755053339
 21
6.156885925964843
 31
0.0
210
0.0
220
0.0
230
1.0
 40
0.9955924488
 41
4.246870785361445
 42
4.331095551714292
  0
LWPOLYLINE
  5
2DD
330
1F
100
AcDbEntity
  8
0
  6
Continuous
 62
     8
370
    15
100
AcDbPolyline
 90
        9
 70
   128
 43
0.0
 10
314.6163542377
 20
900.9797642252
 10
313.7457836972
 20
901.053048136
 10
312.9068930255
 20
901.12367964
 10
312.1302445041
 20
901.189036133
 10
311.4440907346
 20
901.2467930338
 10
310.8734060632
 20
901.2948343775
 10
310.4389925109
 20
901.3314018271
 10
310.1566304074
 20
901.3551840803
 10
310.0366313563
 20
901.3652870676
  0
LINE
  5
2DE
330
1F
100
AcDbEntity
  8
0
  6
Continuous
 62
     8
370
    15
100
AcDbLine
 10
314.6397639619
 20
901.5370378516
 30
0.0
 11
310.0425620185
 21
901.5370378516
 31
0.0
  0
LINE
  5
2DF
330
1F
100
AcDbEntity
  8
0
  6
Continuous
 62
     8
370
    15
100
AcDbLine
 10
314.6397639619
 20
903.5971531889
 30
0.0
 11
314.6397639619
 21
901.5370378516
 31
0.0
  0
ELLIPSE
  5
2E0
330
1F
100
AcDbEntity
  8
0
  6
Continuous
 62
     8
370
    15
100
AcDbEllipse
 10
681.6845200755
 20
960.6897850233
 30
0.0
 11
6.37410695495214
 21
0.1931586225252886
 31
0.0
210
0.0
220
0.0
230
1.0
 40
0.3123026642
 41
1.561332702798126
 42
3.044862566993324
  0
ELLIPSE
  5
2E1
330
1F
100
AcDbEntity
  8
0
  6
Continuous
 62
     8
370
    15
100
AcDbEllipse
 10
681.6845200755
 20
900.9797696252
 30
0.0
 11
6.374106954952141
 21
-0.1931586225251749
 31
0.0
210
0.0
220
0.0
230
1.0
 40
0.3123026642
 41
3.238322740186251
 42
4.721852604381442
  0
ELLIPSE
  5
2E2
330
1F
100
AcDbEntity
  8
0
  6
Continuous
 62
     8
370
    15
100
AcDbEllipse
 10
308.2662188407
 20
960.6897850233
 30
0.0
 11
6.374106954952083
 21
-0.1931586225252886
 31
0.0
210
0.0
220
0.0
230
1.0
 40
0.3123026642
 41
0.09673008659647
 42
1.58025995079165
  0
ELLIPSE
  5
2E3
330
1F
100
AcDbEntity
  8
0
  6
Continuous
 62
     8
370
    15
100
AcDbEllipse
 10
308.2662188407
 20
900.9797696252
 30
0.0
 11
6.374106954952083
 21
0.1931586225254023
 31
0.0
210
0.0
220
0.0
230
1.0
 40
0.3123026642
 41
4.702925356387935
 42
6.186455220583104
  0
LWPOLYLINE
  5
2E4
330
1F
100
AcDbEntity
  8
0
  6
Continuous
 62
     8
370
    15
100
AcDbPolyline
 90
        9
 70
   128
 43
0.0
 10
310.2003057109
 20
947.573162081
 10
310.2881629573
 20
947.8514263651
 10
310.4999531613
 20
948.1220612547
 10
310.8298648702
 20
948.3775863669
 10
311.2688232766
 20
948.6109981558
 10
311.8047584401
 20
948.8158891222
 10
312.4229480134
 20
948.9866266272
 10
313.1064046727
 20
949.1185317061
 10
313.8363380538
 20
949.2079386732
  0
SPLINE
  5
2E5
330
1F
100
AcDbEntity
  8
0
  6
Continuous
 62
     8
370
    15
100
AcDbSpline
210
0.0
220
0.0
230
1.0
 70
     8
 71
     3
 72
     9
 73
     5
 74
     0
 42
0.00000001
 43
0.00000001
 12
1.0
 22
0.0
 32
0.0
 13
1.0
 23
0.0
 33
0.0
 40
0.0
 40
0.0
 40
0.0
 40
0.0
 40
0.9999678300405584
 40
1.0
 40
1.0
 40
1.0
 40
1.0
 10
314.6681506739707
 20
957.0508668443998
 30
0.0
 10
314.6788421428073
 20
956.4680761049493
 30
0.0
 10
314.6895339555991
 20
955.8852666165411
 30
0.0
 10
314.6895338402875
 20
955.2676647525589
 30
0.0
 10
314.6895338402838
 20
955.2676448843321
 30
0.0
  0
SPLINE
  5
2E6
330
1F
100
AcDbEntity
  8
0
  6
Continuous
 62
     8
370
    15
100
AcDbSpline
210
0.0
220
0.0
230
1.0
 70
     8
 71
     3
 72
    11
 73
     7
 74
     0
 42
0.00000001
 43
0.00000001
 12
1.0
 22
0.0
 32
0.0
 13
1.0
 23
0.0
 33
0.0
 40
0.0
 40
0.0
 40
0.0
 40
0.0
 40
0.0000101496082199
 40
0.1017573917068196
 40
0.5490889711848198
 40
1.0
 40
1.0
 40
1.0
 40
1.0
 10
314.6895338402838
 20
955.2676448843321
 30
0.0
 10
314.6895288732018
 20
955.2676250160912
 30
0.0
 10
314.6397301717653
 20
955.06843108435
 30
0.0
 10
314.4170466816353
 20
954.0357256928174
 30
0.0
 10
314.1267774566878
 20
952.0115436664099
 30
0.0
 10
313.9334080437325
 20
950.144953092571
 30
0.0
 10
313.8363380538077
 20
949.207938673242
 30
0.0
  0
SPLINE
  5
2E7
330
1F
100
AcDbEntity
  8
0
  6
Continuous
 62
     8
370
    15
100
AcDbSpline
210
0.0
220
0.0
230
1.0
 70
     8
 71
     3
 72
    11
 73
     7
 74
     0
 42
0.00000001
 43
0.00000001
 12
1.0
 22
0.0
 32
0.0
 13
1.0
 23
0.0
 33
0.0
 40
0.0
 40
0.0
 40
0.0
 40
0.0
 40
0.4478074516712947
 40
0.8982424796179478
 40
0.9999898503789456
 40
1.0
 40
1.0
 40
1.0
 40
1.0
 10
313.8363380538077
 20
912.4616155645689
 30
0.0
 10
313.9327309934722
 20
911.531015682541
 30
0.0
 10
314.1260824725929
 20
909.6643554864119
 30
0.0
 10
314.4157935554634
 20
907.6396820625208
 30
0.0
 10
314.6397301715342
 20
906.6011231533721
 30
0.0
 10
314.6895288732018
 20
906.4019292217196
 30
0.0
 10
314.6895338402838
 20
906.4019093534788
 30
0.0
  0
SPLINE
  5
2E8
330
1F
100
AcDbEntity
  8
0
  6
Continuous
 62
     8
370
    15
100
AcDbSpline
210
0.0
220
0.0
230
1.0
 70
     8
 71
     3
 72
     9
 73
     5
 74
     0
 42
0.00000001
 43
0.00000001
 12
1.0
 22
0.0
 32
0.0
 13
1.0
 23
0.0
 33
0.0
 40
0.0
 40
0.0
 40
0.0
 40
0.0
 40
0.0000321699594415
 40
1.0
 40
1.0
 40
1.0
 40
1.0
 10
314.6895338402838
 20
906.4019093534788
 30
0.0
 10
314.6895338402875
 20
906.4018894852517
 30
0.0
 10
314.6895339549644
 20
905.7842876209128
 30
0.0
 10
314.67884214249
 20
905.2014781326831
 30
0.0
 10
314.6681506739707
 20
904.618687393411
 30
0.0
  0
LWPOLYLINE
  5
2E9
330
1F
100
AcDbEntity
  8
0
  6
Continuous
 62
     8
370
    15
100
AcDbPolyline
 90
        9
 70
   128
 43
0.0
 10
313.8363380538
 20
912.4616155646
 10
313.1064046727
 20
912.5510225317
 10
312.4229480134
 20
912.6829276106
 10
311.8047584401
 20
912.8536651156
 10
311.2688232766
 20
913.058556082
 10
310.8298648702
 20
913.2919678709
 10
310.4999531613
 20
913.5474929831
 10
310.2881629573
 20
913.8181278727
 10
310.2003057109
 20
914.0963921568
  0
SPLINE
  5
2EA
330
1F
100
AcDbEntity
  8
0
  6
Continuous
 62
     8
370
    15
100
AcDbSpline
210
0.0
220
0.0
230
1.0
 70
     8
 71
     3
 72
     9
 73
     5
 74
     0
 42
0.00000001
 43
0.00000001
 12
1.0
 22
0.0
 32
0.0
 13
1.0
 23
0.0
 33
0.0
 40
0.0
 40
0.0
 40
0.0
 40
0.0
 40
0.9999678300405584
 40
1.0
 40
1.0
 40
1.0
 40
1.0
 10
675.2825994597525
 20
904.618687393411
 30
0.0
 10
675.2719079913825
 20
905.2014781330126
 30
0.0
 10
675.2612161790574
 20
905.784287621572
 30
0.0
 10
675.2612162934357
 20
906.4018894852517
 30
0.0
 10
675.2612162934394
 20
906.4019093534788
 30
0.0
  0
SPLINE
  5
2EB
330
1F
100
AcDbEntity
  8
0
  6
Continuous
 62
     8
370
    15
100
AcDbSpline
210
0.0
220
0.0
230
1.0
 70
     8
 71
     3
 72
    10
 73
     6
 74
     0
 42
0.00000001
 43
0.00000001
 12
1.0
 22
0.0
 32
0.0
 13
1.0
 23
0.0
 33
0.0
 40
0.0
 40
0.0
 40
0.0
 40
0.0
 40
0.0000099067747969
 40
0.3355541156890756
 40
1.0
 40
1.0
 40
1.0
 40
1.0
 10
675.2612162934394
 20
906.4019093534788
 30
0.0
 10
675.2612162933775
 20
906.4019292217046
 30
0.0
 10
675.2612141985092
 20
907.074889402748
 30
0.0
 10
675.8956185241537
 20
908.9682492892545
 30
0.0
 10
676.0270603399774
 20
911.0670573626611
 30
0.0
 10
676.1143971787543
 20
912.4616155645689
 30
0.0
  0
LWPOLYLINE
  5
2EC
330
1F
100
AcDbEntity
  8
0
  6
Continuous
 62
     8
370
    15
100
AcDbPolyline
 90
        9
 70
   128
 43
0.0
 10
676.1143971788
 20
912.4616155646
 10
676.8443305598
 20
912.5510225317
 10
677.5277872192
 20
912.6829276106
 10
678.1459767924
 20
912.8536651156
 10
678.6819119559
 20
913.058556082
 10
679.1208703624
 20
913.2919678709
 10
679.4507820712
 20
913.5474929831
 10
679.6625722753
 20
913.8181278727
 10
679.7504295217
 20
914.0963921568
  0
LWPOLYLINE
  5
2ED
330
1F
100
AcDbEntity
  8
0
  6
Continuous
 62
     8
370
    15
100
AcDbPolyline
 90
        9
 70
   128
 43
0.0
 10
679.7504295217
 20
947.573162081
 10
679.6625722753
 20
947.8514263651
 10
679.4507820712
 20
948.1220612547
 10
679.1208703624
 20
948.3775863669
 10
678.6819119559
 20
948.6109981558
 10
678.1459767924
 20
948.8158891222
 10
677.5277872192
 20
948.9866266272
 10
676.8443305598
 20
949.1185317061
 10
676.1143971788
 20
949.2079386732
  0
SPLINE
  5
2EE
330
1F
100
AcDbEntity
  8
0
  6
Continuous
 62
     8
370
    15
100
AcDbSpline
210
0.0
220
0.0
230
1.0
 70
     8
 71
     3
 72
    11
 73
     7
 74
     0
 42
0.00000001
 43
0.00000001
 12
1.0
 22
0.0
 32
0.0
 13
1.0
 23
0.0
 33
0.0
 40
0.0
 40
0.0
 40
0.0
 40
0.0
 40
0.44780756120732
 40
0.8982426993327173
 40
0.9999900949816498
 40
1.0
 40
1.0
 40
1.0
 40
1.0
 10
676.1143971787543
 20
949.207938673242
 30
0.0
 10
676.0049250051802
 20
950.1372465809051
 30
0.0
 10
675.7853383139061
 20
952.0013152474543
 30
0.0
 10
675.6421762360212
 20
954.0404648676525
 30
0.0
 10
675.2612140153346
 20
955.0635122260136
 30
0.0
 10
675.2612162932177
 20
955.2676250160679
 30
0.0
 10
675.2612162934394
 20
955.2676448843321
 30
0.0
  0
SPLINE
  5
2EF
330
1F
100
AcDbEntity
  8
0
  6
Continuous
 62
     8
370
    15
100
AcDbSpline
210
0.0
220
0.0
230
1.0
 70
     8
 71
     3
 72
     9
 73
     5
 74
     0
 42
0.00000001
 43
0.00000001
 12
1.0
 22
0.0
 32
0.0
 13
1.0
 23
0.0
 33
0.0
 40
0.0
 40
0.0
 40
0.0
 40
0.0
 40
0.0000321699594415
 40
1.0
 40
1.0
 40
1.0
 40
1.0
 10
675.2612162934394
 20
955.2676448843321
 30
0.0
 10
675.2612162934357
 20
955.2676647525589
 30
0.0
 10
675.2612161786567
 20
955.8852666167865
 30
0.0
 10
675.2719079911822
 20
956.4680761050719
 30
0.0
 10
675.2825994597525
 20
957.0508668443998
 30
0.0
  0
SPLINE
  5
2F0
330
1F
100
AcDbEntity
  8
0
  6
Continuous
 62
     8
370
    15
100
AcDbSpline
210
0.0
220
0.0
230
1.0
 70
     8
 71
     3
 72
     9
 73
     5
 74
     0
 42
0.00000001
 43
0.00000001
 12
1.0
 22
0.0
 32
0.0
 13
1.0
 23
0.0
 33
0.0
 40
0.0
 40
0.0
 40
0.0
 40
0.0
 40
0.4999238547794348
 40
1.0
 40
1.0
 40
1.0
 40
1.0
 10
399.8693693982215
 20
904.687560560449
 30
0.0
 10
399.8445011720912
 20
905.4072001273346
 30
0.0
 10
399.7947571442906
 20
906.8466984829452
 30
0.0
 10
399.7445740074159
 20
908.2915282220209
 30
0.0
 10
399.7194786177726
 20
909.0140531084379
 30
0.0
  0
LWPOLYLINE
  5
2F1
330
1F
100
AcDbEntity
  8
0
  6
Continuous
 62
     8
370
    15
100
AcDbPolyline
 90
        9
 70
   128
 43
0.0
 10
399.7194786178
 20
909.0140531084
 10
400.6831069099
 20
909.0826878569
 10
401.612075101
 20
909.2625448725
 10
402.4715815292
 20
909.5468888304
 10
403.229447137
 20
909.9250803015
 10
403.857270311
 20
910.3829631827
 10
404.3315370189
 20
910.9033415339
 10
404.6344850765
 20
911.4667246363
 10
404.7547597991
 20
912.0520720503
  0
LWPOLYLINE
  5
2F2
330
1F
100
AcDbEntity
  8
0
  6
Continuous
 62
     8
370
    15
100
AcDbPolyline
 90
        9
 70
   128
 43
0.0
 10
404.7547597991
 20
949.6174821875
 10
404.6344850765
 20
950.2028296015
 10
404.3315370189
 20
950.7662127039
 10
403.857270311
 20
951.2865910551
 10
403.229447137
 20
951.7444739363
 10
402.4715815292
 20
952.1226654074
 10
401.612075101
 20
952.4070093653
 10
400.6831069099
 20
952.5868663809
 10
399.7194786178
 20
952.6555011294
  0
SPLINE
  5
2F3
330
1F
100
AcDbEntity
  8
0
  6
Continuous
 62
     8
370
    15
100
AcDbSpline
210
0.0
220
0.0
230
1.0
 70
     8
 71
     3
 72
     9
 73
     5
 74
     0
 42
0.00000001
 43
0.00000001
 12
1.0
 22
0.0
 32
0.0
 13
1.0
 23
0.0
 33
0.0
 40
0.0
 40
0.0
 40
0.0
 40
0.0
 40
0.5000761452205651
 40
1.0
 40
1.0
 40
1.0
 40
1.0
 10
399.7194786177726
 20
952.655501129373
 30
0.0
 10
399.7445740074159
 20
953.3780260157898
 30
0.0
 10
399.7947571442906
 20
954.8228557548655
 30
0.0
 10
399.8445011720912
 20
956.2623541104762
 30
0.0
 10
399.8693693982215
 20
956.9819936773619
 30
0.0
  0
SPLINE
  5
2F4
330
1F
100
AcDbEntity
  8
0
  6
Continuous
 62
     8
370
    15
100
AcDbSpline
210
0.0
220
0.0
230
1.0
 70
     8
 71
     3
 72
     9
 73
     5
 74
     0
 42
0.00000001
 43
0.00000001
 12
1.0
 22
0.0
 32
0.0
 13
1.0
 23
0.0
 33
0.0
 40
0.0
 40
0.0
 40
0.0
 40
0.0
 40
0.499931522165863
 40
1.0
 40
1.0
 40
1.0
 40
1.0
 10
590.0813658343405
 20
956.9819936773619
 30
0.0
 10
590.1062369721798
 20
956.2623447515981
 30
0.0
 10
590.1559860612782
 20
954.8228497530714
 30
0.0
 10
590.2061691063885
 20
953.3780166299676
 30
0.0
 10
590.23126406537
 20
952.655501129373
 30
0.0
  0
LWPOLYLINE
  5
2F5
330
1F
100
AcDbEntity
  8
0
  6
Continuous
 62
     8
370
    15
100
AcDbPolyline
 90
        9
 70
   128
 43
0.0
 10
585.1959754335
 20
949.6174821875
 10
585.3162576066
 20
950.2028296015
 10
585.6192056643
 20
950.7662127039
 10
586.0934723722
 20
951.2865910551
 10
586.7212955462
 20
951.7444739363
 10
587.4791537033
 20
952.1226654074
 10
588.3386675821
 20
952.4070093653
 10
589.2676357733
 20
952.5868663809
 10
590.2312640654
 20
952.6555011294
  0
LWPOLYLINE
  5
2F6
330
1F
100
AcDbEntity
  8
0
  6
Continuous
 62
     8
370
    15
100
AcDbPolyline
 90
        9
 70
   128
 43
0.0
 10
585.1959754335
 20
912.0520720503
 10
585.3162576066
 20
911.4667246363
 10
585.6192056643
 20
910.9033415339
 10
586.0934723722
 20
910.3829631827
 10
586.7212955462
 20
909.9250803015
 10
587.4791537033
 20
909.5468888304
 10
588.3386675821
 20
909.2625448725
 10
589.2676357733
 20
909.0826878569
 10
590.2312640654
 20
909.0140531084
  0
SPLINE
  5
2F7
330
1F
100
AcDbEntity
  8
0
  6
Continuous
 62
     8
370
    15
100
AcDbSpline
210
0.0
220
0.0
230
1.0
 70
     8
 71
     3
 72
     9
 73
     5
 74
     0
 42
0.00000001
 43
0.00000001
 12
1.0
 22
0.0
 32
0.0
 13
1.0
 23
0.0
 33
0.0
 40
0.0
 40
0.0
 40
0.0
 40
0.0
 40
0.5000684778341371
 40
1.0
 40
1.0
 40
1.0
 40
1.0
 10
590.23126406537
 20
909.0140531084379
 30
0.0
 10
590.2061691063885
 20
908.2915376078429
 30
0.0
 10
590.1559860612782
 20
906.8467044847391
 30
0.0
 10
590.1062369721798
 20
905.4072094862125
 30
0.0
 10
590.0813658343405
 20
904.687560560449
 30
0.0
  0
LWPOLYLINE
  5
2F8
330
1F
100
AcDbEntity
  8
0
  6
Continuous
 62
     8
370
    15
100
AcDbPolyline
 90
        9
 70
   128
 43
0.0
 10
415.1972476946
 20
911.8695328257
 10
415.315197836
 20
911.2702677271
 10
415.6127889262
 20
910.6930861494
 10
416.0790760623
 20
910.1592073462
 10
416.6968931066
 20
909.6883306525
 10
417.4434710847
 20
909.2977414152
 10
418.2913471566
 20
909.0018639586
 10
419.2092735873
 20
908.8115463278
 10
420.163476895
 20
908.7338516733
  0
SPLINE
  5
2F9
330
1F
100
AcDbEntity
  8
0
  6
Continuous
 62
     8
370
    15
100
AcDbSpline
210
0.0
220
0.0
230
1.0
 70
     8
 71
     3
 72
     9
 73
     5
 74
     0
 42
0.00000001
 43
0.00000001
 12
1.0
 22
0.0
 32
0.0
 13
1.0
 23
0.0
 33
0.0
 40
0.0
 40
0.0
 40
0.0
 40
0.0
 40
0.5000431582826658
 40
1.0
 40
1.0
 40
1.0
 40
1.0
 10
420.1634768949599
 20
908.7338516733488
 30
0.0
 10
420.1492605767367
 20
908.0603481768676
 30
0.0
 10
420.1208303942859
 20
906.7134574428875
 30
0.0
 10
420.0916924036259
 20
905.369556179141
 30
0.0
 10
420.0771246658415
 20
904.6976635477384
 30
0.0
  0
SPLINE
  5
2FA
330
1F
100
AcDbEntity
  8
0
  6
Continuous
 62
     8
370
    15
100
AcDbSpline
210
0.0
220
0.0
230
1.0
 70
     8
 71
     3
 72
     9
 73
     5
 74
     0
 42
0.00000001
 43
0.00000001
 12
1.0
 22
0.0
 32
0.0
 13
1.0
 23
0.0
 33
0.0
 40
0.0
 40
0.0
 40
0.0
 40
0.0
 40
0.4999546081987809
 40
1.0
 40
1.0
 40
1.0
 40
1.0
 10
420.0771246658416
 20
956.9719204923948
 30
0.0
 10
420.0916924352381
 20
956.3000288394067
 30
0.0
 10
420.1208306193005
 20
954.9561235288651
 30
0.0
 10
420.1492606094145
 20
953.6092169782726
 30
0.0
 10
420.1634768949599
 20
952.9357025644621
 30
0.0
  0
LWPOLYLINE
  5
2FB
330
1F
100
AcDbEntity
  8
0
  6
Continuous
 62
     8
370
    15
100
AcDbPolyline
 90
        9
 70
   128
 43
0.0
 10
415.1972476946
 20
949.8000214121
 10
415.315197836
 20
950.3992865107
 10
415.6127889262
 20
950.9764680884
 10
416.0790760623
 20
951.5103468916
 10
416.6968931066
 20
951.9812235854
 10
417.4434710847
 20
952.3718128226
 10
418.2913471566
 20
952.6676902792
 10
419.2092735873
 20
952.85800791
 10
420.163476895
 20
952.9357025645
  0
SPLINE
  5
2FC
330
1F
100
AcDbEntity
  8
0
  6
Continuous
 62
     8
370
    15
100
AcDbSpline
210
0.0
220
0.0
230
1.0
 70
     8
 71
     3
 72
     9
 73
     5
 74
     0
 42
0.00000001
 43
0.00000001
 12
1.0
 22
0.0
 32
0.0
 13
1.0
 23
0.0
 33
0.0
 40
0.0
 40
0.0
 40
0.0
 40
0.0
 40
0.4999523656559546
 40
1.0
 40
1.0
 40
1.0
 40
1.0
 10
569.8736142920108
 20
904.6976635477384
 30
0.0
 10
569.8590483534017
 20
905.3695442938497
 30
0.0
 10
569.8299137005636
 20
906.7134338166641
 30
0.0
 10
569.801480178391
 20
908.0603362819102
 30
0.0
 10
569.7872620628924
 20
908.7338516733488
 30
0.0
  0
LWPOLYLINE
  5
2FD
330
1F
100
AcDbEntity
  8
0
  6
Continuous
 62
     8
370
    15
100
AcDbPolyline
 90
        9
 70
   128
 43
0.0
 10
574.7534912633
 20
911.8695328257
 10
574.6355448471
 20
911.2702677271
 10
574.3379463063
 20
910.6930861494
 10
573.8716591703
 20
910.1592073462
 10
573.2538495766
 20
909.6883306525
 10
572.5072641479
 20
909.2977414152
 10
571.6593955265
 20
909.0018639586
 10
570.7414616452
 20
908.8115463278
 10
569.7872620629
 20
908.7338516733
  0
SPLINE
  5
2FE
330
1F
100
AcDbEntity
  8
0
  6
Continuous
 62
     8
370
    15
100
AcDbSpline
210
0.0
220
0.0
230
1.0
 70
     8
 71
     3
 72
     9
 73
     5
 74
     0
 42
0.00000001
 43
0.00000001
 12
1.0
 22
0.0
 32
0.0
 13
1.0
 23
0.0
 33
0.0
 40
0.0
 40
0.0
 40
0.0
 40
0.0
 40
0.5000454037395918
 40
1.0
 40
1.0
 40
1.0
 40
1.0
 10
569.7872620628924
 20
952.9357025644621
 30
0.0
 10
569.8014802110212
 20
953.6092169702522
 30
0.0
 10
569.8299139252846
 20
954.9561234726482
 30
0.0
 10
569.8590483849777
 20
956.3000288313652
 30
0.0
 10
569.8736142920108
 20
956.9719204923948
 30
0.0
  0
LWPOLYLINE
  5
2FF
330
1F
100
AcDbEntity
  8
0
  6
Continuous
 62
     8
370
    15
100
AcDbPolyline
 90
        9
 70
   128
 43
0.0
 10
569.7872620629
 20
952.9357025645
 10
570.7414616452
 20
952.85800791
 10
571.6593955265
 20
952.6676902792
 10
572.5072641479
 20
952.3718128226
 10
573.2538495766
 20
951.9812235854
 10
573.8716591703
 20
951.5103468916
 10
574.3379463063
 20
950.9764680884
 10
574.6355448471
 20
950.3992865107
 10
574.7534912633
 20
949.8000214121
  0
LWPOLYLINE
  5
300
330
1F
100
AcDbEntity
  8
0
  6
Continuous
 62
     8
370
    15
100
AcDbPolyline
 90
        3
 70
   128
 43
0.0
 10
505.0873309927
 20
956.9563636801
 10
505.1440224604
 20
955.1663169882
 10
505.2008182363
 20
953.376240494
  0
LWPOLYLINE
  5
301
330
1F
100
AcDbEntity
  8
0
  6
Continuous
 62
     8
370
    15
100
AcDbPolyline
 90
        9
 70
   128
 43
0.0
 10
505.2008182363
 20
953.376240494
 10
504.2410959111
 20
953.2988140604
 10
503.3169165807
 20
953.1015822909
 10
502.4626609491
 20
952.7918765566
 10
501.710109468
 20
952.3812303564
 10
501.0872576939
 20
951.8849024794
 10
500.6172787951
 20
951.321340563
 10
500.3176536964
 20
950.7115552447
 10
500.1995340543
 20
950.0781962893
  0
LWPOLYLINE
  5
302
330
1F
100
AcDbEntity
  8
0
  6
Continuous
 62
     8
370
    15
100
AcDbPolyline
 90
        9
 70
   128
 43
0.0
 10
500.1995340543
 20
911.5913579485
 10
500.3176536964
 20
910.9579989931
 10
500.6172787951
 20
910.3482136748
 10
501.0872576939
 20
909.7846517584
 10
501.710109468
 20
909.2883238814
 10
502.4626609491
 20
908.8776776812
 10
503.3169165807
 20
908.5679719469
 10
504.2410959111
 20
908.3707401774
 10
505.2008182363
 20
908.2933137438
  0
LWPOLYLINE
  5
303
330
1F
100
AcDbEntity
  8
0
  6
Continuous
 62
     8
370
    15
100
AcDbPolyline
 90
        3
 70
   128
 43
0.0
 10
505.2008182363
 20
908.2933137438
 10
505.1440224604
 20
906.5032372496
 10
505.0873309927
 20
904.71322036
  0
LWPOLYLINE
  5
304
330
1F
100
AcDbEntity
  8
0
  6
Continuous
 62
     8
370
    15
100
AcDbPolyline
 90
        3
 70
   128
 43
0.0
 10
484.8634061025
 20
904.71322036
 10
484.8067146348
 20
906.5032372496
 10
484.7499188589
 20
908.2933137438
  0
LWPOLYLINE
  5
305
330
1F
100
AcDbEntity
  8
0
  6
Continuous
 62
     8
370
    15
100
AcDbPolyline
 90
        9
 70
   128
 43
0.0
 10
489.7512067662
 20
911.5913579485
 10
489.6330852614
 20
910.9579989931
 10
489.3334601627
 20
910.3482136748
 10
488.863481264
 20
909.7846517584
 10
488.2406313525
 20
909.2883238814
 10
487.4880780088
 20
908.8776776812
 10
486.6338205145
 20
908.5679719469
 10
485.7096430467
 20
908.3707401774
 10
484.7499188589
 20
908.2933137438
  0
LWPOLYLINE
  5
306
330
1F
100
AcDbEntity
  8
0
  6
Continuous
 62
     8
370
    15
100
AcDbPolyline
 90
        3
 70
   128
 43
0.0
 10
484.7499188589
 20
953.376240494
 10
484.8067146348
 20
955.1663169882
 10
484.8634061025
 20
956.9563636801
  0
LWPOLYLINE
  5
307
330
1F
100
AcDbEntity
  8
0
  6
Continuous
 62
     8
370
    15
100
AcDbPolyline
 90
        9
 70
   128
 43
0.0
 10
484.7499188589
 20
953.376240494
 10
485.7096430467
 20
953.2988140604
 10
486.6338205145
 20
953.1015822909
 10
487.4880780088
 20
952.7918765566
 10
488.2406313525
 20
952.3812303564
 10
488.863481264
 20
951.8849024794
 10
489.3334601627
 20
951.321340563
 10
489.6330852614
 20
950.7115552447
 10
489.7512067662
 20
950.0781962893
  0
SPLINE
  5
308
330
1F
100
AcDbEntity
  8
0
  6
Continuous
 62
     8
370
    15
100
AcDbSpline
210
0.0
220
0.0
230
1.0
 70
     8
 71
     3
 72
    10
 73
     6
 74
     0
 42
0.00000001
 43
0.00000001
 12
1.0
 22
0.0
 32
0.0
 13
1.0
 23
0.0
 33
0.0
 40
0.0
 40
0.0
 40
0.0
 40
0.0
 40
0.2022451823183609
 40
0.9055197165196673
 40
1.0
 40
1.0
 40
1.0
 40
1.0
 10
505.0260406540484
 20
958.2757124922117
 30
0.0
 10
509.4011886482513
 20
958.2746754729536
 30
0.0
 10
528.9901980181057
 20
958.2700323888818
 30
0.0
 10
550.623085712298
 20
958.2532861811875
 30
0.0
 10
567.8808187101298
 20
958.2342739572379
 30
0.0
 10
569.9246991978736
 20
958.2320222875913
 30
0.0
  0
SPLINE
  5
309
330
1F
100
AcDbEntity
  8
0
  6
Continuous
 62
     8
370
    15
100
AcDbSpline
210
0.0
220
0.0
230
1.0
 70
     8
 71
     3
 72
    10
 73
     6
 74
     0
 42
0.00000001
 43
0.00000001
 12
1.0
 22
0.0
 32
0.0
 13
1.0
 23
0.0
 33
0.0
 40
0.0
 40
0.0
 40
0.0
 40
0.0
 40
0.0938762486698603
 40
0.7983578684596946
 40
1.0
 40
1.0
 40
1.0
 40
1.0
 10
569.8736142920108
 20
956.9719204923948
 30
0.0
 10
567.8463175678887
 20
956.971063117896
 30
0.0
 10
550.6054465878686
 20
956.9637716923557
 30
0.0
 10
529.0100168140272
 20
956.9581650260178
 30
0.0
 10
509.4418804834889
 20
956.9566915717995
 30
0.0
 10
505.0873309926839
 20
956.9563636801084
 30
0.0
  0
SPLINE
  5
30A
330
1F
100
AcDbEntity
  8
0
  6
Continuous
 62
     8
370
    15
100
AcDbSpline
210
0.0
220
0.0
230
1.0
 70
     8
 71
     3
 72
    10
 73
     6
 74
     0
 42
0.00000001
 43
0.00000001
 12
1.0
 22
0.0
 32
0.0
 13
1.0
 23
0.0
 33
0.0
 40
0.0
 40
0.0
 40
0.0
 40
0.0
 40
0.1906733006514881
 40
0.8951548686412758
 40
1.0
 40
1.0
 40
1.0
 40
1.0
 10
484.8634061025233
 20
956.9563636801084
 30
0.0
 10
480.7457333967661
 20
956.9566693580397
 30
0.0
 10
461.4144753892961
 20
956.9581044257059
 30
0.0
 10
439.8190459571754
 20
956.9635448664708
 30
0.0
 10
422.3412989288597
 20
956.9709599031809
 30
0.0
 10
420.0771246658415
 20
956.9719204923948
 30
0.0
  0
SPLINE
  5
30B
330
1F
100
AcDbEntity
  8
0
  6
Continuous
 62
     8
370
    15
100
AcDbSpline
210
0.0
220
0.0
230
1.0
 70
     8
 71
     3
 72
    10
 73
     6
 74
     0
 42
0.00000001
 43
0.00000001
 12
1.0
 22
0.0
 32
0.0
 13
1.0
 23
0.0
 33
0.0
 40
0.0
 40
0.0
 40
0.0
 40
0.0
 40
0.1054302316970656
 40
0.8087048875153767
 40
1.0
 40
1.0
 40
1.0
 40
1.0
 10
420.026043485269
 20
958.2320222875913
 30
0.0
 10
422.3068027577799
 20
958.234518524389
 30
0.0
 10
439.8014164111514
 20
958.2536659630906
 30
0.0
 10
461.4343029802416
 20
958.2702320145149
 30
0.0
 10
480.7864322126582
 20
958.2747470050539
 30
0.0
 10
484.9246983038039
 20
958.2757124922117
 30
0.0
  0
SPLINE
  5
30C
330
1F
100
AcDbEntity
  8
0
  6
Continuous
 62
     8
370
    15
100
AcDbSpline
210
0.0
220
0.0
230
1.0
 70
     8
 71
     3
 72
    10
 73
     6
 74
     0
 42
0.00000001
 43
0.00000001
 12
1.0
 22
0.0
 32
0.0
 13
1.0
 23
0.0
 33
0.0
 40
0.0
 40
0.0
 40
0.0
 40
0.0
 40
0.1906733168016164
 40
0.895154871830615
 40
0.9999999999999999
 40
0.9999999999999999
 40
0.9999999999999999
 40
0.9999999999999999
 10
505.0873309926839
 20
904.7132203600248
 30
0.0
 10
509.2050041644088
 20
904.712904481832
 30
0.0
 10
528.5362627909677
 20
904.7114215270698
 30
0.0
 10
550.1316928151027
 20
904.7059472505676
 30
0.0
 10
567.6094400286855
 20
904.6986135944079
 30
0.0
 10
569.8736142920108
 20
904.6976635477384
 30
0.0
  0
SPLINE
  5
30D
330
1F
100
AcDbEntity
  8
0
  6
Continuous
 62
     8
370
    15
100
AcDbSpline
210
0.0
220
0.0
230
1.0
 70
     8
 71
     3
 72
    10
 73
     6
 74
     0
 42
0.00000001
 43
0.00000001
 12
1.0
 22
0.0
 32
0.0
 13
1.0
 23
0.0
 33
0.0
 40
0.0
 40
0.0
 40
0.0
 40
0.0
 40
0.1054303404484131
 40
0.8087048697952025
 40
1.0
 40
1.0
 40
1.0
 40
1.0
 10
569.9246991978736
 20
903.4375319502195
 30
0.0
 10
567.6439374418356
 20
903.4350357135874
 30
0.0
 10
550.14932316756
 20
903.4158882963261
 30
0.0
 10
528.5164353567318
 20
903.3993222199128
 30
0.0
 10
509.1643073660762
 20
903.3948072323311
 30
0.0
 10
505.0260406540484
 20
903.3938417455992
 30
0.0
  0
SPLINE
  5
30E
330
1F
100
AcDbEntity
  8
0
  6
Continuous
 62
     8
370
    15
100
AcDbSpline
210
0.0
220
0.0
230
1.0
 70
     8
 71
     3
 72
    10
 73
     6
 74
     0
 42
0.00000001
 43
0.00000001
 12
1.0
 22
0.0
 32
0.0
 13
1.0
 23
0.0
 33
0.0
 40
0.0
 40
0.0
 40
0.0
 40
0.0
 40
0.2022452226613128
 40
0.9055198263830232
 40
1.0
 40
1.0
 40
1.0
 40
1.0
 10
484.9246983038039
 20
903.3938417455992
 30
0.0
 10
480.5495496869419
 20
903.3948769476751
 30
0.0
 10
460.9605390600984
 20
903.3995118952498
 30
0.0
 10
439.3276527204399
 20
903.4163698008196
 30
0.0
 10
422.0699214903536
 20
903.4352910566664
 30
0.0
 10
420.026043485269
 20
903.4375319502195
 30
0.0
  0
SPLINE
  5
30F
330
1F
100
AcDbEntity
  8
0
  6
Continuous
 62
     8
370
    15
100
AcDbSpline
210
0.0
220
0.0
230
1.0
 70
     8
 71
     3
 72
    10
 73
     6
 74
     0
 42
0.00000001
 43
0.00000001
 12
1.0
 22
0.0
 32
0.0
 13
1.0
 23
0.0
 33
0.0
 40
0.0
 40
0.0
 40
0.0
 40
0.0
 40
0.0938761936912199
 40
0.7983578841538158
 40
1.0
 40
1.0
 40
1.0
 40
1.0
 10
420.0771246658416
 20
904.6976635477384
 30
0.0
 10
422.1044201484804
 20
904.6985104107692
 30
0.0
 10
439.3452910065145
 20
904.7057124473122
 30
0.0
 10
460.9407201268741
 20
904.7113640547278
 30
0.0
 10
480.5088570769765
 20
904.7128824643373
 30
0.0
 10
484.8634061025232
 20
904.7132203600248
 30
0.0
  0
SPLINE
  5
310
330
1F
100
AcDbEntity
  8
0
  6
Continuous
 62
     8
370
    15
100
AcDbSpline
210
0.0
220
0.0
230
1.0
 70
     8
 71
     3
 72
    10
 73
     6
 74
     0
 42
0.00000001
 43
0.00000001
 12
1.0
 22
0.0
 32
0.0
 13
1.0
 23
0.0
 33
0.0
 40
0.0
 40
0.0
 40
0.0
 40
0.0
 40
0.2275731850578455
 40
0.6248746022925967
 40
1.0
 40
1.0
 40
1.0
 40
1.0
 10
399.9246974097342
 20
903.4623572847685
 30
0.0
 10
393.4551742297535
 20
903.4713561120676
 30
0.0
 10
375.6910394830098
 20
903.4960652561977
 30
0.0
 10
347.2627297876425
 20
903.54213369568
 30
0.0
 10
325.3039436784102
 20
903.579167768257
 30
0.0
 10
314.6397639618964
 20
903.597153188928
 30
0.0
  0
SPLINE
  5
311
330
1F
100
AcDbEntity
  8
0
  6
Continuous
 62
     8
370
    15
100
AcDbSpline
210
0.0
220
0.0
230
1.0
 70
     8
 71
     3
 72
    11
 73
     7
 74
     0
 42
0.00000001
 43
0.00000001
 12
1.0
 22
0.0
 32
0.0
 13
1.0
 23
0.0
 33
0.0
 40
0.0
 40
0.0
 40
0.0
 40
0.0
 40
0.029531339879567
 40
0.2173217907779071
 40
0.9684834577554253
 40
1.0
 40
1.0
 40
1.0
 40
1.0
 10
314.6681506739706
 20
904.618687393411
 30
0.0
 10
315.5068525979601
 20
904.6195332192846
 30
0.0
 10
321.6788788180231
 20
904.625757670809
 30
0.0
 10
349.1841981243203
 20
904.6524636335769
 30
0.0
 10
376.7458985540236
 20
904.6745460795112
 30
0.0
 10
398.974286441239
 20
904.6870567848626
 30
0.0
 10
399.8693693982215
 20
904.687560560449
 30
0.0
  0
SPLINE
  5
312
330
1F
100
AcDbEntity
  8
0
  6
Continuous
 62
     8
370
    15
100
AcDbSpline
210
0.0
220
0.0
230
1.0
 70
     8
 71
     3
 72
    10
 73
     6
 74
     0
 42
0.00000001
 43
0.00000001
 12
1.0
 22
0.0
 32
0.0
 13
1.0
 23
0.0
 33
0.0
 40
0.0
 40
0.0
 40
0.0
 40
0.0
 40
0.218785869232904
 40
0.7544762805117873
 40
1.0
 40
1.0
 40
1.0
 40
1.0
 10
590.0813658343405
 20
904.687560560449
 30
0.0
 10
596.2949764965387
 20
904.6838332369894
 30
0.0
 10
617.7224200393986
 20
904.670979677708
 30
0.0
 10
646.1228266604662
 20
904.6474630631627
 30
0.0
 10
668.3096259053718
 20
904.625568516442
 30
0.0
 10
675.2825994597525
 20
904.618687393411
 30
0.0
  0
LWPOLYLINE
  5
313
330
1F
100
AcDbEntity
  8
0
  6
Continuous
 62
     8
370
    15
100
AcDbPolyline
 90
        3
 70
   128
 43
0.0
 10
675.3109712707
 20
903.5971531889
 10
654.3654818641
 20
903.5619268439
 10
590.0260378228
 20
903.4623572848
  0
SPLINE
  5
314
330
1F
100
AcDbEntity
  8
0
  6
Continuous
 62
     8
370
    15
100
AcDbSpline
210
0.0
220
0.0
230
1.0
 70
     8
 71
     3
 72
    10
 73
     6
 74
     0
 42
0.00000001
 43
0.00000001
 12
1.0
 22
0.0
 32
0.0
 13
1.0
 23
0.0
 33
0.0
 40
0.0
 40
0.0
 40
0.0
 40
0.0
 40
0.218785907497054
 40
0.7544764124645209
 40
1.0
 40
1.0
 40
1.0
 40
1.0
 10
399.8693693982215
 20
956.9819936773619
 30
0.0
 10
393.6557587360243
 20
956.9857210010728
 30
0.0
 10
372.2283151931675
 20
956.9985745612208
 30
0.0
 10
343.8279135390969
 20
957.0220911609156
 30
0.0
 10
321.6411192612945
 20
957.0439857206424
 30
0.0
 10
314.6681506739707
 20
957.0508668443998
 30
0.0
  0
LWPOLYLINE
  5
315
330
1F
100
AcDbEntity
  8
0
  6
Continuous
 62
     8
370
    15
100
AcDbPolyline
 90
        3
 70
   128
 43
0.0
 10
314.6397639619
 20
958.0724010489
 10
335.5852533685
 20
958.1076273939
 10
399.9246974097
 20
958.207196953
  0
SPLINE
  5
316
330
1F
100
AcDbEntity
  8
0
  6
Continuous
 62
     8
370
    15
100
AcDbSpline
210
0.0
220
0.0
230
1.0
 70
     8
 71
     3
 72
    10
 73
     6
 74
     0
 42
0.00000001
 43
0.00000001
 12
1.0
 22
0.0
 32
0.0
 13
1.0
 23
0.0
 33
0.0
 40
0.0
 40
0.0
 40
0.0
 40
0.0
 40
0.2275731850578455
 40
0.6248746022925967
 40
1.0
 40
1.0
 40
1.0
 40
1.0
 10
590.0260378228278
 20
958.2071969530424
 30
0.0
 10
596.4955610028086
 20
958.198198125743
 30
0.0
 10
614.2596957495522
 20
958.1734889816129
 30
0.0
 10
642.6880054449196
 20
958.127420542131
 30
0.0
 10
664.6467915541517
 20
958.0903864695537
 30
0.0
 10
675.3109712706656
 20
958.0724010488829
 30
0.0
  0
SPLINE
  5
317
330
1F
100
AcDbEntity
  8
0
  6
Continuous
 62
     8
370
    15
100
AcDbSpline
210
0.0
220
0.0
230
1.0
 70
     8
 71
     3
 72
    11
 73
     7
 74
     0
 42
0.00000001
 43
0.00000001
 12
1.0
 22
0.0
 32
0.0
 13
1.0
 23
0.0
 33
0.0
 40
0.0
 40
0.0
 40
0.0
 40
0.0
 40
0.0295315096078597
 40
0.2173219276629418
 40
0.9684834632674517
 40
1.0
 40
1.0
 40
1.0
 40
1.0
 10
675.2825994597525
 20
957.0508668443998
 30
0.0
 10
674.443892568708
 20
957.0500210188694
 30
0.0
 10
668.2718613814678
 20
957.0437966017247
 30
0.0
 10
640.7665371084363
 20
957.0170905497264
 30
0.0
 10
613.2048366785361
 20
956.9950081589293
 30
0.0
 10
590.9764487913229
 20
956.9824974529723
 30
0.0
 10
590.0813658343405
 20
956.9819936773619
 30
0.0
  0
SPLINE
  5
318
330
1F
100
AcDbEntity
  8
0
  6
Continuous
 62
     8
370
    15
100
AcDbSpline
210
0.0
220
0.0
230
1.0
 70
     8
 71
     3
 72
    10
 73
     6
 74
     0
 42
0.00000001
 43
0.00000001
 12
1.0
 22
0.0
 32
0.0
 13
1.0
 23
0.0
 33
0.0
 40
0.0
 40
0.0
 40
0.0
 40
0.0
 40
0.4060765544854685
 40
0.8125502995247318
 40
1.0
 40
1.0
 40
1.0
 40
1.0
 10
399.7194786177726
 20
909.0140531084379
 30
0.0
 10
399.6919546790702
 20
909.1793796816627
 30
0.0
 10
399.6368798800215
 20
909.5101945369144
 30
0.0
 10
399.5580710614111
 20
909.7356215348658
 30
0.0
 10
399.5134039971551
 20
909.7808406521133
 30
0.0
 10
399.4993065105529
 20
909.7951123735746
 30
0.0
  0
ARC
  5
319
330
1F
100
AcDbEntity
  8
0
  6
Continuous
 62
     8
370
    15
100
AcDbCircle
 10
399.5749054627
 20
914.8016038799
 30
0.0
 40
5.007062252859873
100
AcDbArc
 50
269.1348888306
 51
359.6995603824
  0
ARC
  5
31A
330
1F
100
AcDbEntity
  8
0
  6
Continuous
 62
     8
370
    15
100
AcDbCircle
 10
399.5749054627
 20
946.867950358
 30
0.0
 40
5.007062252860049
100
AcDbArc
 50
0.3004396176
 51
90.8651111694
  0
SPLINE
  5
31B
330
1F
100
AcDbEntity
  8
0
  6
Continuous
 62
     8
370
    15
100
AcDbSpline
210
0.0
220
0.0
230
1.0
 70
     8
 71
     3
 72
    10
 73
     6
 74
     0
 42
0.00000001
 43
0.00000001
 12
1.0
 22
0.0
 32
0.0
 13
1.0
 23
0.0
 33
0.0
 40
0.0
 40
0.0
 40
0.0
 40
0.0
 40
0.406430059516078
 40
0.8128627158966627
 40
1.0
 40
1.0
 40
1.0
 40
1.0
 10
399.4993065105529
 20
951.8744418642362
 30
0.0
 10
399.5303545538767
 20
951.9168951739589
 30
0.0
 10
399.5924508389044
 20
952.0018020646579
 30
0.0
 10
399.6684545365281
 20
952.3254329673337
 30
0.0
 10
399.7072480303164
 20
952.5763830458355
 30
0.0
 10
399.7194786177726
 20
952.655501129373
 30
0.0
  0
ARC
  5
31C
330
1F
100
AcDbEntity
  8
0
  6
Continuous
 62
     8
370
    15
100
AcDbCircle
 10
590.3758364557
 20
914.8016069578
 30
0.0
 40
5.007065229525182
100
AcDbArc
 50
180.3004746605
 51
270.8650341402
  0
SPLINE
  5
31D
330
1F
100
AcDbEntity
  8
0
  6
Continuous
 62
     8
370
    15
100
AcDbSpline
210
0.0
220
0.0
230
1.0
 70
     8
 71
     3
 72
    10
 73
     6
 74
     0
 42
0.00000001
 43
0.00000001
 12
1.0
 22
0.0
 32
0.0
 13
1.0
 23
0.0
 33
0.0
 40
0.0
 40
0.0
 40
0.0
 40
0.0
 40
0.4064302756773405
 40
0.8128631482205688
 40
1.0
 40
1.0
 40
1.0
 40
1.0
 10
590.4514287220092
 20
909.7951123735746
 30
0.0
 10
590.4203811766114
 20
909.7526590170144
 30
0.0
 10
590.3582858874394
 20
909.6677520326402
 30
0.0
 10
590.2822761046108
 20
909.3441218782957
 30
0.0
 10
590.2434917482391
 20
909.0931712206103
 30
0.0
 10
590.23126406537
 20
909.0140531084379
 30
0.0
  0
SPLINE
  5
31E
330
1F
100
AcDbEntity
  8
0
  6
Continuous
 62
     8
370
    15
100
AcDbSpline
210
0.0
220
0.0
230
1.0
 70
     8
 71
     3
 72
    10
 73
     6
 74
     0
 42
0.00000001
 43
0.00000001
 12
1.0
 22
0.0
 32
0.0
 13
1.0
 23
0.0
 33
0.0
 40
0.0
 40
0.0
 40
0.0
 40
0.0
 40
0.4060767286327498
 40
0.812567382157805
 40
1.0
 40
1.0
 40
1.0
 40
1.0
 10
590.23126406537
 20
952.655501129373
 30
0.0
 10
590.2587855817195
 20
952.4901732654334
 30
0.0
 10
590.3138566678377
 20
952.1593490144318
 30
0.0
 10
590.3926588101828
 20
951.9339417575068
 30
0.0
 10
590.4373309228166
 20
951.8887147722811
 30
0.0
 10
590.4514287220092
 20
951.8744418642362
 30
0.0
  0
ARC
  5
31F
330
1F
100
AcDbEntity
  8
0
  6
Continuous
 62
     8
370
    15
100
AcDbCircle
 10
590.3758364557
 20
946.86794728
 30
0.0
 40
5.007065229525467
100
AcDbArc
 50
89.1349658598
 51
179.6995253394
  0
SPLINE
  5
320
330
1F
100
AcDbEntity
  8
0
  6
Continuous
 62
     8
370
    15
100
AcDbSpline
210
0.0
220
0.0
230
1.0
 70
     8
 71
     3
 72
    10
 73
     6
 74
     0
 42
0.00000001
 43
0.00000001
 12
1.0
 22
0.0
 32
0.0
 13
1.0
 23
0.0
 33
0.0
 40
0.0
 40
0.0
 40
0.0
 40
0.0
 40
0.4177285326449964
 40
0.8363243806402149
 40
0.9999999999999999
 40
0.9999999999999999
 40
0.9999999999999999
 40
0.9999999999999999
 10
569.7872620628924
 20
908.7338516733488
 30
0.0
 10
569.7747069108322
 20
908.8945871018282
 30
0.0
 10
569.7495705388819
 20
909.2163916882155
 30
0.0
 10
569.6977991807018
 20
909.4196094332365
 30
0.0
 10
569.6639543053219
 20
909.4590819800217
 30
0.0
 10
569.654440562591
 20
909.4701776525816
 30
0.0
  0
ARC
  5
321
330
1F
100
AcDbEntity
  8
0
  6
Continuous
 62
     8
370
    15
100
AcDbCircle
 10
569.5778274864
 20
914.4762444499
 30
0.0
 40
5.006653008011604
100
AcDbArc
 50
270.8767887936
 51
359.7074657702
  0
SPLINE
  5
322
330
1F
100
AcDbEntity
  8
0
  6
Continuous
 62
     8
370
    15
100
AcDbSpline
210
0.0
220
0.0
230
1.0
 70
     8
 71
     3
 72
    10
 73
     6
 74
     0
 42
0.00000001
 43
0.00000001
 12
1.0
 22
0.0
 32
0.0
 13
1.0
 23
0.0
 33
0.0
 40
0.0
 40
0.0
 40
0.0
 40
0.0
 40
0.4191676633133001
 40
0.8373989878379239
 40
1.0
 40
1.0
 40
1.0
 40
1.0
 10
569.654440562591
 20
952.1993765852293
 30
0.0
 10
569.67834805923
 20
952.2407661740033
 30
0.0
 10
569.7261096478244
 20
952.3234528952842
 30
0.0
 10
569.7675590294517
 20
952.6363311492099
 30
0.0
 10
569.782952687768
 20
952.8702251478143
 30
0.0
 10
569.7872620628924
 20
952.9357025644621
 30
0.0
  0
ARC
  5
323
330
1F
100
AcDbEntity
  8
0
  6
Continuous
 62
     8
370
    15
100
AcDbCircle
 10
569.5778274864
 20
947.1933097879
 30
0.0
 40
5.00665300801171
100
AcDbArc
 50
0.2925342298
 51
89.1232112064
  0
SPLINE
  5
324
330
1F
100
AcDbEntity
  8
0
  6
Continuous
 62
     8
370
    15
100
AcDbSpline
210
0.0
220
0.0
230
1.0
 70
     8
 71
     3
 72
    10
 73
     6
 74
     0
 42
0.00000001
 43
0.00000001
 12
1.0
 22
0.0
 32
0.0
 13
1.0
 23
0.0
 33
0.0
 40
0.0
 40
0.0
 40
0.0
 40
0.0
 40
0.4177016891220753
 40
0.8362692730037327
 40
1.0
 40
1.0
 40
1.0
 40
1.0
 10
420.1634768949599
 20
952.9357025644621
 30
0.0
 10
420.1760313290858
 20
952.7749844845014
 30
0.0
 10
420.2011662226544
 20
952.4532151563244
 30
0.0
 10
420.2529316214489
 20
952.2499189751213
 30
0.0
 10
420.2867807048721
 20
952.2104691055213
 30
0.0
 10
420.2962983952613
 20
952.1993765852293
 30
0.0
  0
ARC
  5
325
330
1F
100
AcDbEntity
  8
0
  6
Continuous
 62
     8
370
    15
100
AcDbCircle
 10
420.3729098155
 20
947.1933114271
 30
0.0
 40
5.006651343711799
100
AcDbArc
 50
90.8767701322
 51
179.7074844316
  0
ARC
  5
326
330
1F
100
AcDbEntity
  8
0
  6
Continuous
 62
     8
370
    15
100
AcDbCircle
 10
420.3729098155
 20
914.4762428107
 30
0.0
 40
5.006651343711686
100
AcDbArc
 50
180.2925155684
 51
269.1232298678
  0
SPLINE
  5
327
330
1F
100
AcDbEntity
  8
0
  6
Continuous
 62
     8
370
    15
100
AcDbSpline
210
0.0
220
0.0
230
1.0
 70
     8
 71
     3
 72
    10
 73
     6
 74
     0
 42
0.00000001
 43
0.00000001
 12
1.0
 22
0.0
 32
0.0
 13
1.0
 23
0.0
 33
0.0
 40
0.0
 40
0.0
 40
0.0
 40
0.0
 40
0.4191850444889227
 40
0.8374516336157489
 40
0.9999999999999999
 40
0.9999999999999999
 40
0.9999999999999999
 40
0.9999999999999999
 10
420.2962983952613
 20
909.4701776525816
 30
0.0
 10
420.2723890058977
 20
909.4287920254532
 30
0.0
 10
420.2246226138364
 20
909.3461114491716
 30
0.0
 10
420.1831800764971
 20
909.0331943938597
 30
0.0
 10
420.1677853130337
 20
908.7993077817885
 30
0.0
 10
420.1634768949599
 20
908.7338516733488
 30
0.0
  0
LINE
  5
328
330
1F
100
AcDbEntity
  8
0
  6
Continuous
 62
     8
370
    15
100
AcDbLine
 10
590.0012124883
 20
900.9797642252
 30
0.0
 11
675.3343809949
 21
900.9797642252
 31
0.0
  0
LINE
  5
329
330
1F
100
AcDbEntity
  8
0
  6
Continuous
 62
     8
370
    15
100
AcDbLine
 10
420.0012107001
 20
900.9797642252
 30
0.0
 11
484.9495273636
 21
900.9797642252
 31
0.0
  0
LINE
  5
32A
330
1F
100
AcDbEntity
  8
0
  6
Continuous
 62
     8
370
    15
100
AcDbLine
 10
314.6163542377
 20
900.9797642252
 30
0.0
 11
399.9495301949
 21
900.9797642252
 31
0.0
  0
LINE
  5
32B
330
1F
100
AcDbEntity
  8
0
  6
Continuous
 62
     8
370
    15
100
AcDbLine
 10
484.9495273636
 20
960.6897900126
 30
0.0
 11
420.0012107001
 21
960.6897900126
 31
0.0
  0
LINE
  5
32C
330
1F
100
AcDbEntity
  8
0
  6
Continuous
 62
     8
370
    15
100
AcDbLine
 10
675.3343809949
 20
960.6897900126
 30
0.0
 11
590.0012124883
 21
960.6897900126
 31
0.0
  0
LINE
  5
32D
330
1F
100
AcDbEntity
  8
0
  6
Continuous
 62
     8
370
    15
100
AcDbLine
 10
399.9495301949
 20
960.6897900126
 30
0.0
 11
314.6163542377
 21
960.6897900126
 31
0.0
  0
LINE
  5
32E
330
1F
100
AcDbEntity
  8
0
  6
Continuous
 62
     8
370
    15
100
AcDbLine
 10
505.0012115942
 20
900.9797642252
 30
0.0
 11
569.9495282577
 21
900.9797642252
 31
0.0
  0
LINE
  5
32F
330
1F
100
AcDbEntity
  8
0
  6
Continuous
 62
     8
370
    15
100
AcDbLine
 10
569.9495282577
 20
960.6897900126
 30
0.0
 11
505.0012115942
 21
960.6897900126
 31
0.0
  0
ARC
  5
330
330
1F
100
AcDbEntity
  8
0
  6
Continuous
 62
     8
370
    15
100
AcDbCircle
 10
505.36875982
 20
913.9736847221
 30
0.0
 40
5.006868322148439
100
AcDbArc
 50
180.2965779718
 51
269.9939901934
  0
SPLINE
  5
331
330
1F
100
AcDbEntity
  8
0
  6
Continuous
 62
     8
370
    15
100
AcDbSpline
210
0.0
220
0.0
230
1.0
 70
     8
 71
     3
 72
    10
 73
     6
 74
     0
 42
0.00000001
 43
0.00000001
 12
1.0
 22
0.0
 32
0.0
 13
1.0
 23
0.0
 33
0.0
 40
0.0
 40
0.0
 40
0.0
 40
0.0
 40
0.4425318854963349
 40
0.8843759688318514
 40
1.0
 40
1.0
 40
1.0
 40
1.0
 10
505.3682346449942
 20
908.9668164274534
 30
0.0
 10
505.3406156380571
 20
908.9250977338023
 30
0.0
 10
505.2854205508358
 20
908.8417251874951
 30
0.0
 10
505.2307270485446
 20
908.543493840047
 30
0.0
 10
505.2059559837564
 20
908.3362897782698
 30
0.0
 10
505.2008182363362
 20
908.2933137438139
 30
0.0
  0
SPLINE
  5
332
330
1F
100
AcDbEntity
  8
0
  6
Continuous
 62
     8
370
    15
100
AcDbSpline
210
0.0
220
0.0
230
1.0
 70
     8
 71
     3
 72
    10
 73
     6
 74
     0
 42
0.00000001
 43
0.00000001
 12
1.0
 22
0.0
 32
0.0
 13
1.0
 23
0.0
 33
0.0
 40
0.0
 40
0.0
 40
0.0
 40
0.0
 40
0.4413988841663515
 40
0.8836132768732429
 40
1.0
 40
1.0
 40
1.0
 40
1.0
 10
505.2008182363362
 20
953.376240493997
 30
0.0
 10
505.2219268313443
 20
953.2219625292942
 30
0.0
 10
505.2641830206422
 20
952.9131215629247
 30
0.0
 10
505.3261481570602
 20
952.7423006254598
 30
0.0
 10
505.360977761039
 20
952.7095595427526
 30
0.0
 10
505.3682346449942
 20
952.7027378103575
 30
0.0
  0
ARC
  5
333
330
1F
100
AcDbEntity
  8
0
  6
Continuous
 62
     8
370
    15
100
AcDbCircle
 10
505.36875982
 20
947.6958695158
 30
0.0
 40
5.006868322148416
100
AcDbArc
 50
90.0060098066
 51
179.7034220282
  0
SPLINE
  5
334
330
1F
100
AcDbEntity
  8
0
  6
Continuous
 62
     8
370
    15
100
AcDbSpline
210
0.0
220
0.0
230
1.0
 70
     8
 71
     3
 72
    10
 73
     6
 74
     0
 42
0.00000001
 43
0.00000001
 12
1.0
 22
0.0
 32
0.0
 13
1.0
 23
0.0
 33
0.0
 40
0.0
 40
0.0
 40
0.0
 40
0.0
 40
0.4413993782267587
 40
0.883632765047515
 40
0.9999999999999999
 40
0.9999999999999999
 40
0.9999999999999999
 40
0.9999999999999999
 10
484.749918858871
 20
908.2933137438139
 30
0.0
 10
484.7288105633128
 20
908.4475930691079
 30
0.0
 10
484.6865540888147
 20
908.756443225053
 30
0.0
 10
484.6245853297615
 20
908.9272448003871
 30
0.0
 10
484.5897592532708
 20
908.9599941161708
 30
0.0
 10
484.582504312858
 20
908.9668164274534
 30
0.0
  0
ARC
  5
335
330
1F
100
AcDbEntity
  8
0
  6
Continuous
 62
     8
370
    15
100
AcDbCircle
 10
484.5819817909
 20
913.9736820555
 30
0.0
 40
5.006865655304204
100
AcDbArc
 50
270.0059794495
 51
359.7034523854
  0
SPLINE
  5
336
330
1F
100
AcDbEntity
  8
0
  6
Continuous
 62
     8
370
    15
100
AcDbSpline
210
0.0
220
0.0
230
1.0
 70
     8
 71
     3
 72
    10
 73
     6
 74
     0
 42
0.00000001
 43
0.00000001
 12
1.0
 22
0.0
 32
0.0
 13
1.0
 23
0.0
 33
0.0
 40
0.0
 40
0.0
 40
0.0
 40
0.0
 40
0.4425063659836358
 40
0.8843488402492841
 40
1.0
 40
1.0
 40
1.0
 40
1.0
 10
484.5825043128581
 20
952.7027378103575
 30
0.0
 10
484.6101218487776
 20
952.7444456504172
 30
0.0
 10
484.6653154860637
 20
952.8277987563198
 30
0.0
 10
484.7200117160784
 20
953.1260407392073
 30
0.0
 10
484.7447805947399
 20
953.3332543607331
 30
0.0
 10
484.749918858871
 20
953.376240493997
 30
0.0
  0
ARC
  5
337
330
1F
100
AcDbEntity
  8
0
  6
Continuous
 62
     8
370
    15
100
AcDbCircle
 10
484.5819817909
 20
947.6958721823
 30
0.0
 40
5.006865655304257
100
AcDbArc
 50
0.2965476146
 51
89.9940205505
  0
SPLINE
  5
338
330
1F
100
AcDbEntity
  8
0
  6
Continuous
 62
     8
370
    15
100
AcDbSpline
210
0.0
220
0.0
230
1.0
 70
     8
 71
     3
 72
    13
 73
     9
 74
     0
 42
0.00000001
 43
0.00000001
 12
1.0
 22
0.0
 32
0.0
 13
1.0
 23
0.0
 33
0.0
 40
0.0
 40
0.0
 40
0.0
 40
0.0
 40
0.4595504158821241
 40
0.8017004257426928
 40
0.8794353378875286
 40
0.9641604070404924
 40
0.9874528265734624
 40
1.0
 40
1.0
 40
1.0
 40
1.0
 10
676.1143971787543
 20
912.4616155645689
 30
0.0
 10
676.5933183654554
 20
913.1140552588521
 30
0.0
 10
677.4288117215833
 20
914.2522572114591
 30
0.0
 10
678.2334065102108
 20
915.5648240485518
 30
0.0
 10
678.6225574463413
 20
916.3121669010517
 30
0.0
 10
678.752709401721
 20
916.5833001223982
 30
0.0
 10
678.810968689381
 20
916.720374129832
 30
0.0
 10
678.8183983321568
 20
916.7429070115703
 30
0.0
 10
678.8209993945212
 20
916.7507956049284
 30
0.0
  0
ARC
  5
339
330
1F
100
AcDbEntity
  8
0
  6
Continuous
 62
     8
370
    15
100
AcDbCircle
 10
674.9913788185
 20
919.2450795233
 30
0.0
 40
4.570278549739654
100
AcDbArc
 50
326.9232551974
 51
359.7589097522
  0
ARC
  5
33A
330
1F
100
AcDbEntity
  8
0
  6
Continuous
 62
     8
370
    15
100
AcDbCircle
 10
674.9913788185
 20
942.4244747145
 30
0.0
 40
4.570278549739768
100
AcDbArc
 50
0.2410902478
 51
33.0767448026
  0
SPLINE
  5
33B
330
1F
100
AcDbEntity
  8
0
  6
Continuous
 62
     8
370
    15
100
AcDbSpline
210
0.0
220
0.0
230
1.0
 70
     8
 71
     3
 72
    12
 73
     8
 74
     0
 42
0.00000001
 43
0.00000001
 12
1.0
 22
0.0
 32
0.0
 13
1.0
 23
0.0
 33
0.0
 40
0.0
 40
0.0
 40
0.0
 40
0.0
 40
0.0234812468992404
 40
0.0616213460128157
 40
0.2040189941018355
 40
0.7688823761973965
 40
1.0
 40
1.0
 40
1.0
 40
1.0
 10
678.8209993945212
 20
944.9187586328825
 30
0.0
 10
678.8147514703936
 20
944.9361594686841
 30
0.0
 10
678.7983551735452
 20
944.981824118796
 30
0.0
 10
678.6736949384591
 20
945.2569421206163
 30
0.0
 10
678.1056812159256
 20
946.3720577434323
 30
0.0
 10
677.1847427968074
 20
947.746586783987
 30
0.0
 10
676.3552462352504
 20
948.8791054274197
 30
0.0
 10
676.1143971787543
 20
949.207938673242
 30
0.0
  0
SPLINE
  5
33C
330
1F
100
AcDbEntity
  8
0
  6
Continuous
 62
     8
370
    15
100
AcDbSpline
210
0.0
220
0.0
230
1.0
 70
     8
 71
     3
 72
    13
 73
     9
 74
     0
 42
0.00000001
 43
0.00000001
 12
1.0
 22
0.0
 32
0.0
 13
1.0
 23
0.0
 33
0.0
 40
0.0
 40
0.0
 40
0.0
 40
0.0
 40
0.4595506354767548
 40
0.8017008088325626
 40
0.8794345805416128
 40
0.9641606951607833
 40
0.9874524534259324
 40
1.0
 40
1.0
 40
1.0
 40
1.0
 10
313.8363380538077
 20
949.207938673242
 30
0.0
 10
313.3574246384322
 20
948.5554966140172
 30
0.0
 10
312.5219448396306
 20
947.4172905356941
 30
0.0
 10
311.7172881669249
 20
946.1047446163507
 30
0.0
 10
311.3282106464951
 20
945.3573796402494
 30
0.0
 10
311.1979936175114
 20
945.0862602758253
 30
0.0
 10
311.1397908028895
 20
944.949178554487
 30
0.0
 10
311.1323432641505
 20
944.9266470441339
 30
0.0
 10
311.1297358380408
 20
944.9187586328825
 30
0.0
  0
ARC
  5
33D
330
1F
100
AcDbEntity
  8
0
  6
Continuous
 62
     8
370
    15
100
AcDbCircle
 10
314.9593037228
 20
942.4245179964
 30
0.0
 40
4.570210775922577
100
AcDbArc
 50
146.9233493582
 51
179.7594487983
  0
SPLINE
  5
33E
330
1F
100
AcDbEntity
  8
0
  6
Continuous
 62
     8
370
    15
100
AcDbSpline
210
0.0
220
0.0
230
1.0
 70
     8
 71
     3
 72
    12
 73
     8
 74
     0
 42
0.00000001
 43
0.00000001
 12
1.0
 22
0.0
 32
0.0
 13
1.0
 23
0.0
 33
0.0
 40
0.0
 40
0.0
 40
0.0
 40
0.0
 40
0.0234812576694242
 40
0.0616213742767844
 40
0.2040202177323109
 40
0.76888385891473
 40
0.9999999999999999
 40
0.9999999999999999
 40
0.9999999999999999
 40
0.9999999999999999
 10
311.1297358380408
 20
916.7507956049284
 30
0.0
 10
311.1359837781558
 20
916.7333947758287
 30
0.0
 10
311.1523801169593
 20
916.687730143305
 30
0.0
 10
311.2770400878408
 20
916.4126102173968
 30
0.0
 10
311.8450897144166
 20
915.2975066109909
 30
0.0
 10
312.7660100505752
 20
913.9229735600583
 30
0.0
 10
313.5954938715087
 20
912.7904489412597
 30
0.0
 10
313.8363380538077
 20
912.4616155645689
 30
0.0
  0
ARC
  5
33F
330
1F
100
AcDbEntity
  8
0
  6
Continuous
 62
     8
370
    15
100
AcDbCircle
 10
314.9593037228
 20
919.2450362414
 30
0.0
 40
4.57021077592253
100
AcDbArc
 50
180.2405512017
 51
213.0766506418
  0
SPLINE
  5
340
330
1F
100
AcDbEntity
  8
0
  6
Continuous
 62
     8
370
    15
100
AcDbSpline
210
0.0
220
0.0
230
1.0
 70
     8
 71
     3
 72
     9
 73
     5
 74
     0
 42
0.00000001
 43
0.00000001
 12
1.0
 22
0.0
 32
0.0
 13
1.0
 23
0.0
 33
0.0
 40
0.0
 40
0.0
 40
0.0
 40
0.0
 40
0.9999566086020544
 40
1.0
 40
1.0
 40
1.0
 40
1.0
 10
319.8488969908805
 20
910.780317547067
 30
0.0
 10
319.3939475346398
 20
910.8387292541972
 30
0.0
 10
318.9389783366497
 20
910.8971434960031
 30
0.0
 10
318.4810945696304
 20
910.8971426508634
 30
0.0
 10
318.4810747014136
 20
910.8971426508268
 30
0.0
  0
SPLINE
  5
341
330
1F
100
AcDbEntity
  8
0
  6
Continuous
 62
     8
370
    15
100
AcDbSpline
210
0.0
220
0.0
230
1.0
 70
     8
 71
     3
 72
     9
 73
     5
 74
     0
 42
0.00000001
 43
0.00000001
 12
1.0
 22
0.0
 32
0.0
 13
1.0
 23
0.0
 33
0.0
 40
0.0
 40
0.0
 40
0.0
 40
0.0
 40
0.6503363813893689
 40
1.0
 40
1.0
 40
1.0
 40
1.0
 10
399.7194786177726
 20
909.0140531084379
 30
0.0
 10
382.4033764306953
 20
909.3171306913218
 30
0.0
 10
355.7769986320502
 20
909.7831627196033
 30
0.0
 10
329.1569570559464
 20
910.521980017272
 30
0.0
 10
319.8488969908805
 20
910.780317547067
 30
0.0
  0
SPLINE
  5
342
330
1F
100
AcDbEntity
  8
0
  6
Continuous
 62
     8
370
    15
100
AcDbSpline
210
0.0
220
0.0
230
1.0
 70
     8
 71
     3
 72
    10
 73
     6
 74
     0
 42
0.00000001
 43
0.00000001
 12
1.0
 22
0.0
 32
0.0
 13
1.0
 23
0.0
 33
0.0
 40
0.0
 40
0.0
 40
0.0
 40
0.0
 40
0.0000120794030305
 40
0.5538288146935162
 40
1.0
 40
1.0
 40
1.0
 40
1.0
 10
318.4810747014136
 20
910.8971426508268
 30
0.0
 10
318.4810548331976
 20
910.8971426507861
 30
0.0
 10
317.5701165617459
 20
910.8971407899016
 30
0.0
 10
315.9377463653851
 20
911.3590950987805
 30
0.0
 10
314.4846677108709
 20
912.1214642900394
 30
0.0
 10
313.8363380538077
 20
912.4616155645689
 30
0.0
  0
SPLINE
  5
343
330
1F
100
AcDbEntity
  8
0
  6
Continuous
 62
     8
370
    15
100
AcDbSpline
210
0.0
220
0.0
230
1.0
 70
     8
 71
     3
 72
     9
 73
     5
 74
     0
 42
0.00000001
 43
0.00000001
 12
1.0
 22
0.0
 32
0.0
 13
1.0
 23
0.0
 33
0.0
 40
0.0
 40
0.0
 40
0.0
 40
0.0
 40
0.6188876525123268
 40
1.0
 40
1.0
 40
1.0
 40
1.0
 10
319.8488969908805
 20
950.8892366907438
 30
0.0
 10
336.3242162009947
 20
951.3308302700549
 30
0.0
 10
362.9450724149359
 20
952.044358125262
 30
0.0
 10
389.5717304632341
 20
952.4868586975164
 30
0.0
 10
399.7194786177726
 20
952.655501129373
 30
0.0
  0
SPLINE
  5
344
330
1F
100
AcDbEntity
  8
0
  6
Continuous
 62
     8
370
    15
100
AcDbSpline
210
0.0
220
0.0
230
1.0
 70
     8
 71
     3
 72
     9
 73
     5
 74
     0
 42
0.00000001
 43
0.00000001
 12
1.0
 22
0.0
 32
0.0
 13
1.0
 23
0.0
 33
0.0
 40
0.0
 40
0.0
 40
0.0
 40
0.0
 40
0.0000433913979457
 40
1.0
 40
1.0
 40
1.0
 40
1.0
 10
318.4810747014136
 20
950.772411586984
 30
0.0
 10
318.4810945696304
 20
950.7724115869472
 30
0.0
 10
318.938978336894
 20
950.7724107416518
 30
0.0
 10
319.393947534762
 20
950.8308249835355
 30
0.0
 10
319.8488969908805
 20
950.8892366907438
 30
0.0
  0
SPLINE
  5
345
330
1F
100
AcDbEntity
  8
0
  6
Continuous
 62
     8
370
    15
100
AcDbSpline
210
0.0
220
0.0
230
1.0
 70
     8
 71
     3
 72
    10
 73
     6
 74
     0
 42
0.00000001
 43
0.00000001
 12
1.0
 22
0.0
 32
0.0
 13
1.0
 23
0.0
 33
0.0
 40
0.0
 40
0.0
 40
0.0
 40
0.0
 40
0.4654171910116389
 40
0.9999879212456549
 40
0.9999999999999999
 40
0.9999999999999999
 40
0.9999999999999999
 40
0.9999999999999999
 10
313.8363380538077
 20
949.207938673242
 30
0.0
 10
314.5137328891051
 20
949.561113768867
 30
0.0
 10
315.9691725812646
 20
950.3199401219335
 30
0.0
 10
317.6017251909328
 20
950.7724134086565
 30
0.0
 10
318.4810548331976
 20
950.7724115870251
 30
0.0
 10
318.4810747014135
 20
950.772411586984
 30
0.0
  0
SPLINE
  5
346
330
1F
100
AcDbEntity
  8
0
  6
Continuous
 62
     8
370
    15
100
AcDbSpline
210
0.0
220
0.0
230
1.0
 70
     8
 71
     3
 72
     9
 73
     5
 74
     0
 42
0.00000001
 43
0.00000001
 12
1.0
 22
0.0
 32
0.0
 13
1.0
 23
0.0
 33
0.0
 40
0.0
 40
0.0
 40
0.0
 40
0.0
 40
0.9999566086020544
 40
1.0
 40
1.0
 40
1.0
 40
1.0
 10
670.1018382416815
 20
950.8892366907438
 30
0.0
 10
670.5567876979202
 20
950.8308249840225
 30
0.0
 10
671.0117568959083
 20
950.7724107426259
 30
0.0
 10
671.4696406629317
 20
950.7724115869471
 30
0.0
 10
671.4696605311484
 20
950.772411586984
 30
0.0
  0
SPLINE
  5
347
330
1F
100
AcDbEntity
  8
0
  6
Continuous
 62
     8
370
    15
100
AcDbSpline
210
0.0
220
0.0
230
1.0
 70
     8
 71
     3
 72
     9
 73
     5
 74
     0
 42
0.00000001
 43
0.00000001
 12
1.0
 22
0.0
 32
0.0
 13
1.0
 23
0.0
 33
0.0
 40
0.0
 40
0.0
 40
0.0
 40
0.0
 40
0.6503364420178892
 40
1.0
 40
1.0
 40
1.0
 40
1.0
 10
590.23126406537
 20
952.655501129373
 30
0.0
 10
607.5473662535995
 20
952.3524235899368
 30
0.0
 10
634.1737415717355
 20
951.8863916719106
 30
0.0
 10
660.7937806603379
 20
951.1475742271707
 30
0.0
 10
670.1018382416815
 20
950.8892366907438
 30
0.0
  0
SPLINE
  5
348
330
1F
100
AcDbEntity
  8
0
  6
Continuous
 62
     8
370
    15
100
AcDbSpline
210
0.0
220
0.0
230
1.0
 70
     8
 71
     3
 72
    10
 73
     6
 74
     0
 42
0.00000001
 43
0.00000001
 12
1.0
 22
0.0
 32
0.0
 13
1.0
 23
0.0
 33
0.0
 40
0.0
 40
0.0
 40
0.0
 40
0.0
 40
0.000012079400288
 40
0.5538316328236921
 40
1.0
 40
1.0
 40
1.0
 40
1.0
 10
671.4696605311484
 20
950.772411586984
 30
0.0
 10
671.4696803993644
 20
950.7724115870245
 30
0.0
 10
672.3806235132653
 20
950.7724134457767
 30
0.0
 10
674.0129963867196
 20
950.3104659279453
 30
0.0
 10
675.4660726732426
 20
949.5480905566561
 30
0.0
 10
676.1143971787543
 20
949.207938673242
 30
0.0
  0
SPLINE
  5
349
330
1F
100
AcDbEntity
  8
0
  6
Continuous
 62
     8
370
    15
100
AcDbSpline
210
0.0
220
0.0
230
1.0
 70
     8
 71
     3
 72
     9
 73
     5
 74
     0
 42
0.00000001
 43
0.00000001
 12
1.0
 22
0.0
 32
0.0
 13
1.0
 23
0.0
 33
0.0
 40
0.0
 40
0.0
 40
0.0
 40
0.0
 40
0.6188877102201225
 40
1.0
 40
1.0
 40
1.0
 40
1.0
 10
670.1018382416815
 20
910.780317547067
 30
0.0
 10
653.6265190312295
 20
910.3387239868761
 30
0.0
 10
627.0056652989875
 20
909.6251962290964
 30
0.0
 10
600.3790097361161
 20
909.1826955539659
 30
0.0
 10
590.23126406537
 20
909.0140531084379
 30
0.0
  0
SPLINE
  5
34A
330
1F
100
AcDbEntity
  8
0
  6
Continuous
 62
     8
370
    15
100
AcDbSpline
210
0.0
220
0.0
230
1.0
 70
     8
 71
     3
 72
     9
 73
     5
 74
     0
 42
0.00000001
 43
0.00000001
 12
1.0
 22
0.0
 32
0.0
 13
1.0
 23
0.0
 33
0.0
 40
0.0
 40
0.0
 40
0.0
 40
0.0
 40
0.0000433913979457
 40
1.0
 40
1.0
 40
1.0
 40
1.0
 10
671.4696605311484
 20
910.8971426508268
 30
0.0
 10
671.4696406629317
 20
910.8971426508634
 30
0.0
 10
671.0117568956023
 20
910.8971434952236
 30
0.0
 10
670.5567876977672
 20
910.8387292538075
 30
0.0
 10
670.1018382416815
 20
910.780317547067
 30
0.0
  0
SPLINE
  5
34B
330
1F
100
AcDbEntity
  8
0
  6
Continuous
 62
     8
370
    15
100
AcDbSpline
210
0.0
220
0.0
230
1.0
 70
     8
 71
     3
 72
    10
 73
     6
 74
     0
 42
0.00000001
 43
0.00000001
 12
1.0
 22
0.0
 32
0.0
 13
1.0
 23
0.0
 33
0.0
 40
0.0
 40
0.0
 40
0.0
 40
0.0
 40
0.4654123593582393
 40
0.9999879212326181
 40
1.0
 40
1.0
 40
1.0
 40
1.0
 10
676.1143971787543
 20
912.4616155645689
 30
0.0
 10
675.437005605353
 20
912.1084554576753
 30
0.0
 10
673.9815578121741
 20
911.3496534317865
 30
0.0
 10
672.349017040253
 20
910.8971408285224
 30
0.0
 10
671.4696803993645
 20
910.8971426507854
 30
0.0
 10
671.4696605311484
 20
910.8971426508268
 30
0.0
  0
SPLINE
  5
34C
330
1F
100
AcDbEntity
  8
0
  6
Continuous
 62
     8
370
    15
100
AcDbSpline
210
0.0
220
0.0
230
1.0
 70
     8
 71
     3
 72
     9
 73
     5
 74
     0
 42
0.00000001
 43
0.00000001
 12
1.0
 22
0.0
 32
0.0
 13
1.0
 23
0.0
 33
0.0
 40
0.0
 40
0.0
 40
0.0
 40
0.0
 40
0.8425272847424364
 40
1.0
 40
1.0
 40
1.0
 40
1.0
 10
420.1634768949598
 20
952.9357025644621
 30
0.0
 10
438.3018084591865
 20
953.113887581013
 30
0.0
 10
459.830288180495
 20
953.325376300462
 30
0.0
 10
481.3596342721053
 20
953.3693204840826
 30
0.0
 10
484.749918858871
 20
953.376240493997
 30
0.0
  0
SPLINE
  5
34D
330
1F
100
AcDbEntity
  8
0
  6
Continuous
 62
     8
370
    15
100
AcDbSpline
210
0.0
220
0.0
230
1.0
 70
     8
 71
     3
 72
     9
 73
     5
 74
     0
 42
0.00000001
 43
0.00000001
 12
1.0
 22
0.0
 32
0.0
 13
1.0
 23
0.0
 33
0.0
 40
0.0
 40
0.0
 40
0.0
 40
0.0
 40
0.8425272589371836
 40
1.0
 40
1.0
 40
1.0
 40
1.0
 10
569.7872620628924
 20
908.7338516733488
 30
0.0
 10
551.648930411826
 20
908.5557031637333
 30
0.0
 10
530.1204499280643
 20
908.3442577680788
 30
0.0
 10
508.5911034409527
 20
908.3002446155806
 30
0.0
 10
505.2008182363362
 20
908.2933137438139
 30
0.0
  0
SPLINE
  5
34E
330
1F
100
AcDbEntity
  8
0
  6
Continuous
 62
     8
370
    15
100
AcDbSpline
210
0.0
220
0.0
230
1.0
 70
     8
 71
     3
 72
     9
 73
     5
 74
     0
 42
0.00000001
 43
0.00000001
 12
1.0
 22
0.0
 32
0.0
 13
1.0
 23
0.0
 33
0.0
 40
0.0
 40
0.0
 40
0.0
 40
0.0
 40
0.8234426570872316
 40
1.0
 40
1.0
 40
1.0
 40
1.0
 10
484.749918858871
 20
908.2933137438139
 30
0.0
 10
467.0217032581604
 20
908.3599449308641
 30
0.0
 10
445.4923163019141
 20
908.4408627537103
 30
0.0
 10
423.9643903070379
 20
908.689884972137
 30
0.0
 10
420.1634768949599
 20
908.7338516733488
 30
0.0
  0
SPLINE
  5
34F
330
1F
100
AcDbEntity
  8
0
  6
Continuous
 62
     8
370
    15
100
AcDbSpline
210
0.0
220
0.0
230
1.0
 70
     8
 71
     3
 72
     9
 73
     5
 74
     0
 42
0.00000001
 43
0.00000001
 12
1.0
 22
0.0
 32
0.0
 13
1.0
 23
0.0
 33
0.0
 40
0.0
 40
0.0
 40
0.0
 40
0.0
 40
0.8234426621788464
 40
1.0
 40
1.0
 40
1.0
 40
1.0
 10
505.2008182363362
 20
953.376240493997
 30
0.0
 10
522.9290344579513
 20
953.3096093100208
 30
0.0
 10
544.458422035109
 20
953.2286914914083
 30
0.0
 10
565.9863486508143
 20
952.9796692656925
 30
0.0
 10
569.7872620628924
 20
952.9357025644621
 30
0.0
  0
SPLINE
  5
350
330
1F
100
AcDbEntity
  8
0
  6
Continuous
 62
     8
370
    15
100
AcDbSpline
210
0.0
220
0.0
230
1.0
 70
     8
 71
     3
 72
     9
 73
     5
 74
     0
 42
0.00000001
 43
0.00000001
 12
1.0
 22
0.0
 32
0.0
 13
1.0
 23
0.0
 33
0.0
 40
0.0
 40
0.0
 40
0.0
 40
0.0
 40
0.1555426106357913
 40
1.0
 40
1.0
 40
1.0
 40
1.0
 10
505.3682346449942
 20
908.9668164274534
 30
0.0
 10
508.7014276830275
 20
908.9747411463555
 30
0.0
 10
530.1308805153328
 20
909.0256900076989
 30
0.0
 10
551.5591662947523
 20
909.2666755937287
 30
0.0
 10
569.654440562591
 20
909.4701776525816
 30
0.0
  0
SPLINE
  5
351
330
1F
100
AcDbEntity
  8
0
  6
Continuous
 62
     8
370
    15
100
AcDbSpline
210
0.0
220
0.0
230
1.0
 70
     8
 71
     3
 72
     9
 73
     5
 74
     0
 42
0.00000001
 43
0.00000001
 12
1.0
 22
0.0
 32
0.0
 13
1.0
 23
0.0
 33
0.0
 40
0.0
 40
0.0
 40
0.0
 40
0.0
 40
0.1555426106357913
 40
1.0
 40
1.0
 40
1.0
 40
1.0
 10
484.5825043128581
 20
952.7027378103575
 30
0.0
 10
481.2493112748247
 20
952.694813091455
 30
0.0
 10
459.8198584425194
 20
952.6438642301117
 30
0.0
 10
438.3915726631
 20
952.4028786440822
 30
0.0
 10
420.2962983952613
 20
952.1993765852293
 30
0.0
  0
SPLINE
  5
352
330
1F
100
AcDbEntity
  8
0
  6
Continuous
 62
     8
370
    15
100
AcDbSpline
210
0.0
220
0.0
230
1.0
 70
     8
 71
     3
 72
     9
 73
     5
 74
     0
 42
0.00000001
 43
0.00000001
 12
1.0
 22
0.0
 32
0.0
 13
1.0
 23
0.0
 33
0.0
 40
0.0
 40
0.0
 40
0.0
 40
0.0
 40
0.1755082724423933
 40
1.0
 40
1.0
 40
1.0
 40
1.0
 10
420.2962983952613
 20
909.4701776525816
 30
0.0
 10
424.0570111381585
 20
909.4204870859966
 30
0.0
 10
445.4845637575463
 20
909.1373632999007
 30
0.0
 10
466.9140610606944
 20
909.0438869251541
 30
0.0
 10
484.582504312858
 20
908.9668164274534
 30
0.0
  0
SPLINE
  5
353
330
1F
100
AcDbEntity
  8
0
  6
Continuous
 62
     8
370
    15
100
AcDbSpline
210
0.0
220
0.0
230
1.0
 70
     8
 71
     3
 72
     9
 73
     5
 74
     0
 42
0.00000001
 43
0.00000001
 12
1.0
 22
0.0
 32
0.0
 13
1.0
 23
0.0
 33
0.0
 40
0.0
 40
0.0
 40
0.0
 40
0.0
 40
0.1755082724423933
 40
1.0
 40
1.0
 40
1.0
 40
1.0
 10
569.654440562591
 20
952.1993765852293
 30
0.0
 10
565.8937278196938
 20
952.2490671518142
 30
0.0
 10
544.466175200306
 20
952.5321909379101
 30
0.0
 10
523.0366778971579
 20
952.6256673126566
 30
0.0
 10
505.3682346449942
 20
952.7027378103575
 30
0.0
  0
ARC
  5
354
330
1F
100
AcDbEntity
  8
0
  6
Continuous
 62
     8
370
    15
100
AcDbCircle
 10
377.6033653005
 20
909.0326943431
 30
0.0
 40
57.78090339025047
100
AcDbArc
 50
177.2901699695
 51
178.2667853752
  0
SPLINE
  5
355
330
1F
100
AcDbEntity
  8
0
  6
Continuous
 62
     8
370
    15
100
AcDbSpline
210
0.0
220
0.0
230
1.0
 70
     8
 71
     3
 72
     9
 73
     5
 74
     0
 42
0.00000001
 43
0.00000001
 12
1.0
 22
0.0
 32
0.0
 13
1.0
 23
0.0
 33
0.0
 40
0.0
 40
0.0
 40
0.0
 40
0.0
 40
0.3507129081283937
 40
1.0
 40
1.0
 40
1.0
 40
1.0
 10
319.8870737658591
 20
911.7644498369535
 30
0.0
 10
329.1926535304047
 20
911.4790275284026
 30
0.0
 10
355.7259790763777
 20
910.6651929020297
 30
0.0
 10
382.2667357765962
 20
910.1376434336908
 30
0.0
 10
399.4993065105529
 20
909.7951123735746
 30
0.0
  0
ARC
  5
356
330
1F
100
AcDbEntity
  8
0
  6
Continuous
 62
     8
370
    15
100
AcDbCircle
 10
612.347369932
 20
952.6368598947
 30
0.0
 40
57.78090339025042
100
AcDbArc
 50
357.2901699695
 51
358.2667853752
  0
SPLINE
  5
357
330
1F
100
AcDbEntity
  8
0
  6
Continuous
 62
     8
370
    15
100
AcDbSpline
210
0.0
220
0.0
230
1.0
 70
     8
 71
     3
 72
     9
 73
     5
 74
     0
 42
0.00000001
 43
0.00000001
 12
1.0
 22
0.0
 32
0.0
 13
1.0
 23
0.0
 33
0.0
 40
0.0
 40
0.0
 40
0.0
 40
0.0
 40
0.3507129081283937
 40
1.0
 40
1.0
 40
1.0
 40
1.0
 10
670.0636614667029
 20
949.9051044008573
 30
0.0
 10
660.7580817021574
 20
950.1905267094081
 30
0.0
 10
634.2247561561842
 20
951.004361335781
 30
0.0
 10
607.6839994559658
 20
951.5319108041198
 30
0.0
 10
590.4514287220092
 20
951.8744418642362
 30
0.0
  0
ARC
  5
358
330
1F
100
AcDbEntity
  8
0
  6
Continuous
 62
     8
370
    15
100
AcDbCircle
 10
377.6033653005
 20
952.6368598947
 30
0.0
 40
57.78090339025047
100
AcDbArc
 50
181.7332146248
 51
182.7098300305
  0
SPLINE
  5
359
330
1F
100
AcDbEntity
  8
0
  6
Continuous
 62
     8
370
    15
100
AcDbSpline
210
0.0
220
0.0
230
1.0
 70
     8
 71
     3
 72
     9
 73
     5
 74
     0
 42
0.00000001
 43
0.00000001
 12
1.0
 22
0.0
 32
0.0
 13
1.0
 23
0.0
 33
0.0
 40
0.0
 40
0.0
 40
0.0
 40
0.0
 40
0.3792546260990332
 40
1.0
 40
1.0
 40
1.0
 40
1.0
 10
399.4993065105529
 20
951.8744418642362
 30
0.0
 10
389.4334575158873
 20
951.6842064149018
 30
0.0
 10
362.8923205014185
 20
951.1826029109681
 30
0.0
 10
336.3580804979748
 20
950.3943862480162
 30
0.0
 10
319.8870737658591
 20
949.9051044008573
 30
0.0
  0
ARC
  5
35A
330
1F
100
AcDbEntity
  8
0
  6
Continuous
 62
     8
370
    15
100
AcDbCircle
 10
612.347369932
 20
909.0326943431
 30
0.0
 40
57.78090339025042
100
AcDbArc
 50
1.7332146248
 51
2.7098300305
  0
SPLINE
  5
35B
330
1F
100
AcDbEntity
  8
0
  6
Continuous
 62
     8
370
    15
100
AcDbSpline
210
0.0
220
0.0
230
1.0
 70
     8
 71
     3
 72
     9
 73
     5
 74
     0
 42
0.00000001
 43
0.00000001
 12
1.0
 22
0.0
 32
0.0
 13
1.0
 23
0.0
 33
0.0
 40
0.0
 40
0.0
 40
0.0
 40
0.0
 40
0.3792546260990332
 40
1.0
 40
1.0
 40
1.0
 40
1.0
 10
590.4514287220092
 20
909.7951123735746
 30
0.0
 10
600.5172777166747
 20
909.9853478229089
 30
0.0
 10
627.0584147311436
 20
910.4869513268428
 30
0.0
 10
653.5926547345872
 20
911.2751679897945
 30
0.0
 10
670.0636614667029
 20
911.7644498369535
 30
0.0
  0
SPLINE
  5
35C
330
1F
100
AcDbEntity
  8
0
  6
Continuous
 62
     8
370
    15
100
AcDbSpline
210
0.0
220
0.0
230
1.0
 70
     8
 71
     3
 72
    11
 73
     7
 74
     0
 42
0.00000001
 43
0.00000001
 12
1.0
 22
0.0
 32
0.0
 13
1.0
 23
0.0
 33
0.0
 40
0.0
 40
0.0
 40
0.0
 40
0.0
 40
0.2966949776447524
 40
0.6454635867882712
 40
0.8201481938327922
 40
1.0
 40
1.0
 40
1.0
 40
1.0
 10
311.1297358380408
 20
916.7507956049284
 30
0.0
 10
311.7639802082335
 20
915.9261350454642
 30
0.0
 10
313.1437866658106
 20
914.1320758172964
 30
0.0
 10
315.6869185183663
 20
912.6622211461397
 30
0.0
 10
318.0295140909557
 20
911.9252300070859
 30
0.0
 10
319.2619000616501
 20
911.8185614414866
 30
0.0
 10
319.8870737658591
 20
911.7644498369535
 30
0.0
  0
SPLINE
  5
35D
330
1F
100
AcDbEntity
  8
0
  6
Continuous
 62
     8
370
    15
100
AcDbSpline
210
0.0
220
0.0
230
1.0
 70
     8
 71
     3
 72
    11
 73
     7
 74
     0
 42
0.00000001
 43
0.00000001
 12
1.0
 22
0.0
 32
0.0
 13
1.0
 23
0.0
 33
0.0
 40
0.0
 40
0.0
 40
0.0
 40
0.0
 40
0.2966949350501708
 40
0.645462274753535
 40
0.8201482196529544
 40
1.0
 40
1.0
 40
1.0
 40
1.0
 10
678.8209993945212
 20
944.9187586328825
 30
0.0
 10
678.1867546471203
 20
945.7434184291893
 30
0.0
 10
676.8069499755691
 20
947.5374726078765
 30
0.0
 10
674.2638249326413
 20
949.0073407246864
 30
0.0
 10
671.9212252581929
 20
949.7443219525137
 30
0.0
 10
670.6888349618984
 20
949.8509921675884
 30
0.0
 10
670.0636614667029
 20
949.9051044008573
 30
0.0
  0
SPLINE
  5
35E
330
1F
100
AcDbEntity
  8
0
  6
Continuous
 62
     8
370
    15
100
AcDbSpline
210
0.0
220
0.0
230
1.0
 70
     8
 71
     3
 72
    11
 73
     7
 74
     0
 42
0.00000001
 43
0.00000001
 12
1.0
 22
0.0
 32
0.0
 13
1.0
 23
0.0
 33
0.0
 40
0.0
 40
0.0
 40
0.0
 40
0.0
 40
0.1705927576400356
 40
0.3461532918929598
 40
0.690371018401607
 40
1.0
 40
1.0
 40
1.0
 40
1.0
 10
319.8870737658591
 20
949.9051044008573
 30
0.0
 10
319.29410672097
 20
949.8553021909254
 30
0.0
 10
318.0909050293397
 20
949.7542474969869
 30
0.0
 10
315.7859426445182
 20
949.0503431909762
 30
0.0
 10
313.1998145910111
 20
947.5914430805811
 30
0.0
 10
311.794990169789
 20
945.7776703548044
 30
0.0
 10
311.1297358380408
 20
944.9187586328825
 30
0.0
  0
SPLINE
  5
35F
330
1F
100
AcDbEntity
  8
0
  6
Continuous
 62
     8
370
    15
100
AcDbSpline
210
0.0
220
0.0
230
1.0
 70
     8
 71
     3
 72
    11
 73
     7
 74
     0
 42
0.00000001
 43
0.00000001
 12
1.0
 22
0.0
 32
0.0
 13
1.0
 23
0.0
 33
0.0
 40
0.0
 40
0.0
 40
0.0
 40
0.0
 40
0.1705927338607351
 40
0.3461546099587112
 40
0.6903710615614732
 40
1.0
 40
1.0
 40
1.0
 40
1.0
 10
670.0636614667029
 20
911.7644498369535
 30
0.0
 10
670.6566283269965
 20
911.8142526159455
 30
0.0
 10
671.8598343932696
 20
911.915308863458
 30
0.0
 10
674.1648006701126
 20
912.6192035785987
 30
0.0
 10
676.7509220608458
 20
914.0781170787961
 30
0.0
 10
678.1557446717276
 20
915.8918846922323
 30
0.0
 10
678.8209993945212
 20
916.7507956049284
 30
0.0
  0
LINE
  5
360
330
1F
100
AcDbEntity
  8
0
  6
Continuous
 62
     8
370
    15
100
AcDbLine
 10
505.4742098408
 20
909.2322955153
 30
0.0
 11
505.368234645
 21
908.9668164275
 31
0.0
  0
LINE
  5
361
330
1F
100
AcDbEntity
  8
0
  6
Continuous
 62
     8
370
    15
100
AcDbLine
 10
569.6544405626
 20
909.4701776526
 30
0.0
 11
569.5528407203
 21
909.7231695673
 31
0.0
  0
LINE
  5
362
330
1F
100
AcDbEntity
  8
0
  6
Continuous
 62
     8
370
    15
100
AcDbLine
 10
484.4765309797
 20
952.4372587225
 30
0.0
 11
484.5825043129
 21
952.7027378104
 31
0.0
  0
LINE
  5
363
330
1F
100
AcDbEntity
  8
0
  6
Continuous
 62
     8
370
    15
100
AcDbLine
 10
420.2962983953
 20
952.1993765852
 30
0.0
 11
420.3979019629
 21
951.9463846705
 31
0.0
  0
LINE
  5
364
330
1F
100
AcDbEntity
  8
0
  6
Continuous
 62
     8
370
    15
100
AcDbLine
 10
484.5825043129
 20
908.9668164275
 30
0.0
 11
484.4765309797
 21
909.2322955153
 31
0.0
  0
LINE
  5
365
330
1F
100
AcDbEntity
  8
0
  6
Continuous
 62
     8
370
    15
100
AcDbLine
 10
420.3979019629
 20
909.7231695673
 30
0.0
 11
420.2962983953
 21
909.4701776526
 31
0.0
  0
LINE
  5
366
330
1F
100
AcDbEntity
  8
0
  6
Continuous
 62
     8
370
    15
100
AcDbLine
 10
569.5528407203
 20
951.9463846705
 30
0.0
 11
569.6544405626
 21
952.1993765852
 31
0.0
  0
LINE
  5
367
330
1F
100
AcDbEntity
  8
0
  6
Continuous
 62
     8
370
    15
100
AcDbLine
 10
505.368234645
 20
952.7027378104
 30
0.0
 11
505.4742098408
 21
952.4372587225
 31
0.0
  0
LINE
  5
368
330
1F
100
AcDbEntity
  8
0
  6
Continuous
 62
     8
370
    15
100
AcDbLine
 10
319.8870737659
 20
911.764449837
 30
0.0
 11
319.8939730035
 21
911.9830498717
 31
0.0
  0
LINE
  5
369
330
1F
100
AcDbEntity
  8
0
  6
Continuous
 62
     8
370
    15
100
AcDbLine
 10
311.1423869239
 20
917.1118209383
 30
0.0
 11
311.129735838
 21
916.7507956049
 31
0.0
  0
LINE
  5
36A
330
1F
100
AcDbEntity
  8
0
  6
Continuous
 62
     8
370
    15
100
AcDbLine
 10
670.0636614667
 20
949.9051044009
 30
0.0
 11
670.0567622291
 21
949.6865043661
 31
0.0
  0
LINE
  5
36B
330
1F
100
AcDbEntity
  8
0
  6
Continuous
 62
     8
370
    15
100
AcDbLine
 10
678.8083632098
 20
944.5577332995
 30
0.0
 11
678.8209993945
 21
944.9187586329
 31
0.0
  0
LINE
  5
36C
330
1F
100
AcDbEntity
  8
0
  6
Continuous
 62
     8
370
    15
100
AcDbLine
 10
670.0636614667
 20
911.764449837
 30
0.0
 11
670.0567622291
 21
911.9830498717
 31
0.0
  0
LINE
  5
36D
330
1F
100
AcDbEntity
  8
0
  6
Continuous
 62
     8
370
    15
100
AcDbLine
 10
678.8209993945
 20
916.7507956049
 30
0.0
 11
678.8083632098
 21
917.1118209383
 31
0.0
  0
LINE
  5
36E
330
1F
100
AcDbEntity
  8
0
  6
Continuous
 62
     8
370
    15
100
AcDbLine
 10
319.8870737659
 20
949.9051044009
 30
0.0
 11
319.8939730035
 21
949.6865043661
 31
0.0
  0
LINE
  5
36F
330
1F
100
AcDbEntity
  8
0
  6
Continuous
 62
     8
370
    15
100
AcDbLine
 10
311.129735838
 20
944.9187586329
 30
0.0
 11
311.1423869239
 21
944.5577332995
 31
0.0
  0
LINE
  5
370
330
1F
100
AcDbEntity
  8
0
  6
Continuous
 62
     8
370
    15
100
AcDbLine
 10
399.4993065106
 20
909.7951123736
 30
0.0
 11
399.4002212392
 21
910.0448856375
 31
0.0
  0
LINE
  5
371
330
1F
100
AcDbEntity
  8
0
  6
Continuous
 62
     8
370
    15
100
AcDbLine
 10
590.5505214439
 20
910.0448856375
 30
0.0
 11
590.451428722
 21
909.7951123736
 31
0.0
  0
LINE
  5
372
330
1F
100
AcDbEntity
  8
0
  6
Continuous
 62
     8
370
    15
100
AcDbLine
 10
399.4002212392
 20
951.6246686003
 30
0.0
 11
399.4993065106
 21
951.8744418642
 31
0.0
  0
LINE
  5
373
330
1F
100
AcDbEntity
  8
0
  6
Continuous
 62
     8
370
    15
100
AcDbLine
 10
590.451428722
 20
951.8744418642
 30
0.0
 11
590.5505214439
 21
951.6246686003
 31
0.0
  0
LINE
  5
374
330
1F
100
AcDbEntity
  8
0
  6
Continuous
 62
     8
370
    15
100
AcDbLine
 10
674.225362073
 20
859.5347771666
 30
0.0
 11
674.225362073
 21
138.1347844622
 31
0.0
  0
LINE
  5
375
330
1F
100
AcDbEntity
  8
0
  6
Continuous
 62
     8
370
    15
100
AcDbLine
 10
315.7253731595
 20
138.1347844622
 30
0.0
 11
315.7253731595
 21
859.5347771666
 31
0.0
  0
LINE
  5
376
330
1F
100
AcDbEntity
  8
0
  6
Continuous
 62
     8
370
    15
100
AcDbLine
 10
294.9753720866
 20
897.5847730658
 30
0.0
 11
694.9753631459
 21
897.5847730658
 31
0.0
  0
LINE
  5
377
330
1F
100
AcDbEntity
  8
0
  6
Continuous
 62
     8
370
    15
100
AcDbLine
 10
694.9753631459
 20
964.084781172
 30
0.0
 11
294.9753720866
 21
964.084781172
 31
0.0
  0
LINE
  5
378
330
1F
100
AcDbEntity
  8
0
  6
Continuous
 62
     8
370
    15
100
AcDbLine
 10
294.9753720866
 20
891.0847673437
 30
0.0
 11
694.9753631459
 21
891.0847673437
 31
0.0
  0
LINE
  5
379
330
1F
100
AcDbEntity
  8
0
  6
Continuous
 62
     8
370
    15
100
AcDbLine
 10
320.1753665315
 20
861.7847630999
 30
0.0
 11
669.7753687011
 21
861.7847630999
 31
0.0
  0
LINE
  5
37A
330
1F
100
AcDbEntity
  8
0
  6
Continuous
 62
     8
370
    15
100
AcDbLine
 10
294.9753720866
 20
80.3316304705
 30
0.0
 11
694.9753631459
 21
80.3316304705
 31
0.0
  0
LINE
  5
37B
330
1F
100
AcDbEntity
  8
0
  6
Continuous
 62
     8
370
    15
100
AcDbLine
 10
669.7753687011
 20
135.8847687266
 30
0.0
 11
320.1753665315
 21
135.8847687266
 31
0.0
  0
LINE
  5
37C
330
1F
100
AcDbEntity
  8
0
  6
Continuous
 62
     8
370
    15
100
AcDbLine
 10
338.2369597064
 20
950.2347776911
 30
0.0
 11
402.8369207488
 21
950.2347776911
 31
0.0
  0
LINE
  5
37D
330
1F
100
AcDbEntity
  8
0
  6
Continuous
 62
     8
370
    15
100
AcDbLine
 10
416.7998005258
 20
950.2347776911
 30
0.0
 11
488.5596987413
 21
950.2347776911
 31
0.0
  0
LINE
  5
37E
330
1F
100
AcDbEntity
  8
0
  6
Continuous
 62
     8
370
    15
100
AcDbLine
 10
501.3619270729
 20
950.2347776911
 30
0.0
 11
573.1989499734
 21
950.2347776911
 31
0.0
  0
LINE
  5
37F
330
1F
100
AcDbEntity
  8
0
  6
Continuous
 62
     8
370
    15
100
AcDbLine
 10
587.0959852444
 20
950.2347776911
 30
0.0
 11
651.7137904273
 21
950.2347776911
 31
0.0
  0
LINE
  5
380
330
1F
100
AcDbEntity
  8
0
  6
Continuous
 62
     8
370
    15
100
AcDbLine
 10
581.5785397397
 20
59.9668095133
 30
0.0
 11
583.363996874
 21
68.3316359541
 31
0.0
  0
LWPOLYLINE
  5
381
330
1F
100
AcDbEntity
  8
0
  6
Continuous
 62
     8
370
    15
100
AcDbPolyline
 90
        3
 70
   128
 43
0.0
 10
580.1872928248
 20
62.9839370272
 10
580.7334725367
 20
61.5627834818
 10
581.5785397397
 20
59.9668095133
  0
LWPOLYLINE
  5
382
330
1F
100
AcDbEntity
  8
0
  6
Continuous
 62
     8
370
    15
100
AcDbPolyline
 90
        3
 70
   128
 43
0.0
 10
558.372197728
 20
59.9668095133
 10
559.2172686564
 20
61.5627834818
 10
559.6832391428
 20
62.7399752161
  0
LINE
  5
383
330
1F
100
AcDbEntity
  8
0
  6
Continuous
 62
     8
370
    15
100
AcDbLine
 10
556.5867405938
 20
68.3316359541
 30
0.0
 11
558.372197728
 21
59.9668095133
 31
0.0
  0
ARC
  5
384
330
1F
100
AcDbEntity
  8
0
  6
Continuous
 62
     8
370
    15
100
AcDbCircle
 10
590.7241610594
 20
65.5439167628
 30
0.0
 40
12.06209361333759
100
AcDbArc
 50
166.6373311695
 51
213.0186133072
  0
ARC
  5
385
330
1F
100
AcDbEntity
  8
0
  6
Continuous
 62
     8
370
    15
100
AcDbCircle
 10
569.9753687339
 20
98.4553500705
 30
0.0
 40
40.89133905794873
100
AcDbArc
 50
254.9255033359
 51
285.0744966641
  0
ARC
  5
386
330
1F
100
AcDbEntity
  8
0
  6
Continuous
 62
     8
370
    15
100
AcDbCircle
 10
549.2266256526
 20
65.5439082321
 30
0.0
 40
12.06204767384136
100
AcDbArc
 50
326.9812932072
 51
13.3627623161
  0
ARC
  5
387
330
1F
100
AcDbEntity
  8
0
  6
Continuous
 62
     8
370
    15
100
AcDbCircle
 10
570.5200163631
 20
58.7696814249
 30
0.0
 40
0.9566227733273922
100
AcDbArc
 50
2.9517846559
 51
92.6751391888
  0
LINE
  5
388
330
1F
100
AcDbEntity
  8
0
  6
Continuous
 62
     8
370
    15
100
AcDbLine
 10
570.4753678845
 20
59.7252616904
 30
0.0
 11
570.4753678845
 21
68.3316359541
 31
0.0
  0
LINE
  5
389
330
1F
100
AcDbEntity
  8
0
  6
Continuous
 62
     8
370
    15
100
AcDbLine
 10
569.4753695832
 20
68.3316359541
 30
0.0
 11
569.4753695832
 21
59.7252616904
 31
0.0
  0
ARC
  5
38A
330
1F
100
AcDbEntity
  8
0
  6
Continuous
 62
     8
370
    15
100
AcDbCircle
 10
569.4307176355
 20
58.7696891795
 30
0.0
 40
0.9566151890838537
100
AcDbArc
 50
87.3246315749
 51
177.0486569953
  0
LWPOLYLINE
  5
38B
330
1F
100
AcDbEntity
  8
0
  6
Continuous
 62
     8
370
    15
100
AcDbPolyline
 90
        9
 70
   128
 43
0.0
 10
569.4753695832
 20
59.7252616904
 10
569.5134308742
 20
59.6444079897
 10
569.6218144702
 20
59.5758328459
 10
569.7840285109
 20
59.5300266764
 10
569.9753705965
 20
59.5139632246
 10
570.1667126821
 20
59.5300266764
 10
570.3289229976
 20
59.5758328459
 10
570.4373103188
 20
59.6444079897
 10
570.4753678845
 20
59.7252616904
  0
ARC
  5
38C
330
1F
100
AcDbEntity
  8
0
  6
Continuous
 62
     8
370
    15
100
AcDbCircle
 10
580.5092765335
 20
60.0380148166
 30
0.0
 40
1.07163146618143
100
AcDbArc
 50
275.4025195443
 51
356.1901348403
  0
ARC
  5
38D
330
1F
100
AcDbEntity
  8
0
  6
Continuous
 62
     8
370
    15
100
AcDbCircle
 10
559.4414655248
 20
60.0380192814
 30
0.0
 40
1.071636343294372
100
AcDbArc
 50
183.8100870333
 51
264.597258582
  0
ARC
  5
38E
330
1F
100
AcDbEntity
  8
0
  6
Continuous
 62
     8
370
    15
100
AcDbCircle
 10
580.8086943064
 20
59.248541669
 30
0.0
 40
0.3411163685896608
100
AcDbArc
 50
234.410378776
 51
283.366027527
  0
ARC
  5
38F
330
1F
100
AcDbEntity
  8
0
  6
Continuous
 62
     8
370
    15
100
AcDbCircle
 10
581.0139471842
 20
59.7996728112
 30
0.0
 40
0.5888118807815003
100
AcDbArc
 50
349.5166623937
 51
16.4903684275
  0
ARC
  5
390
330
1F
100
AcDbEntity
  8
0
  6
Continuous
 62
     8
370
    15
100
AcDbCircle
 10
558.9380994318
 20
59.7994858209
 30
0.0
 40
0.5901202897652748
100
AcDbArc
 50
163.5283031113
 51
188.6338800132
  0
ARC
  5
391
330
1F
100
AcDbEntity
  8
0
  6
Continuous
 62
     8
370
    15
100
AcDbCircle
 10
559.1420455339
 20
59.2485349815
 30
0.0
 40
0.3411095494693494
100
AcDbArc
 50
256.6339338617
 51
305.5899508827
  0
LWPOLYLINE
  5
392
330
1F
100
AcDbEntity
  8
0
  6
Continuous
 62
     8
370
    15
100
AcDbPolyline
 90
        9
 70
   128
 43
0.0
 10
571.4753699111
 20
58.8189432642
 10
571.3611897634
 20
58.57635236
 10
571.0360277997
 20
58.3706865332
 10
570.549393128
 20
58.2332680247
 10
569.9753705965
 20
58.1850180647
 10
569.4013443397
 20
58.2332680247
 10
568.914709668
 20
58.3706865332
 10
568.5895514296
 20
58.57635236
 10
568.475371282
 20
58.8189432642
  0
LINE
  5
393
330
1F
100
AcDbEntity
  8
0
  6
Continuous
 62
     8
370
    15
100
AcDbLine
 10
431.5785412298
 20
59.9668095133
 30
0.0
 11
433.3639983641
 21
68.3316359541
 31
0.0
  0
LWPOLYLINE
  5
394
330
1F
100
AcDbEntity
  8
0
  6
Continuous
 62
     8
370
    15
100
AcDbPolyline
 90
        3
 70
   128
 43
0.0
 10
430.187294315
 20
62.9839370272
 10
430.7334740268
 20
61.5627834818
 10
431.5785412298
 20
59.9668095133
  0
LWPOLYLINE
  5
395
330
1F
100
AcDbEntity
  8
0
  6
Continuous
 62
     8
370
    15
100
AcDbPolyline
 90
        3
 70
   128
 43
0.0
 10
408.3721954928
 20
59.9668095133
 10
409.2172701465
 20
61.5627834818
 10
409.6832369076
 20
62.7399752161
  0
LINE
  5
396
330
1F
100
AcDbEntity
  8
0
  6
Continuous
 62
     8
370
    15
100
AcDbLine
 10
406.5867383586
 20
68.3316359541
 30
0.0
 11
408.3721954928
 21
59.9668095133
 31
0.0
  0
ARC
  5
397
330
1F
100
AcDbEntity
  8
0
  6
Continuous
 62
     8
370
    15
100
AcDbCircle
 10
440.7241379651
 20
65.543912504
 30
0.0
 40
12.06207067879897
100
AcDbArc
 50
166.6372844985
 51
213.0186599783
  0
ARC
  5
398
330
1F
100
AcDbEntity
  8
0
  6
Continuous
 62
     8
370
    15
100
AcDbCircle
 10
419.9753720866
 20
98.455339225
 30
0.0
 40
40.89132810124207
100
AcDbArc
 50
254.9255019038
 51
285.0744980962
  0
ARC
  5
399
330
1F
100
AcDbEntity
  8
0
  6
Continuous
 62
     8
370
    15
100
AcDbCircle
 10
399.2265915762
 20
65.5439056977
 30
0.0
 40
12.06207923875944
100
AcDbArc
 50
326.9814050034
 51
13.3627390728
  0
ARC
  5
39A
330
1F
100
AcDbEntity
  8
0
  6
Continuous
 62
     8
370
    15
100
AcDbCircle
 10
420.5200235966
 20
58.7696915052
 30
0.0
 40
0.9566127981987317
100
AcDbArc
 50
2.9512109069
 51
92.6752881071
  0
LINE
  5
39B
330
1F
100
AcDbEntity
  8
0
  6
Continuous
 62
     8
370
    15
100
AcDbLine
 10
420.4753730999
 20
59.7252616904
 30
0.0
 11
420.4753730999
 21
68.3316359541
 31
0.0
  0
LINE
  5
39C
330
1F
100
AcDbEntity
  8
0
  6
Continuous
 62
     8
370
    15
100
AcDbLine
 10
419.4753710734
 20
68.3316359541
 30
0.0
 11
419.4753710734
 21
59.7252616904
 31
0.0
  0
ARC
  5
39D
330
1F
100
AcDbEntity
  8
0
  6
Continuous
 62
     8
370
    15
100
AcDbCircle
 10
419.4307245807
 20
58.7696792337
 30
0.0
 40
0.9566248694634577
100
AcDbArc
 50
87.3249857516
 51
177.0480904036
  0
LWPOLYLINE
  5
39E
330
1F
100
AcDbEntity
  8
0
  6
Continuous
 62
     8
370
    15
100
AcDbPolyline
 90
        9
 70
   128
 43
0.0
 10
419.4753710734
 20
59.7252616904
 10
419.513428639
 20
59.6444079897
 10
419.6218196856
 20
59.5758328459
 10
419.7840262757
 20
59.5300266764
 10
419.9753720866
 20
59.5139632246
 10
420.1667104469
 20
59.5300266764
 10
420.3289244877
 20
59.5758328459
 10
420.4373080836
 20
59.6444079897
 10
420.4753730999
 20
59.7252616904
  0
ARC
  5
39F
330
1F
100
AcDbEntity
  8
0
  6
Continuous
 62
     8
370
    15
100
AcDbCircle
 10
430.5092706873
 20
60.0380219518
 30
0.0
 40
1.071639260417231
100
AcDbArc
 50
275.4028741249
 51
356.1897802598
  0
ARC
  5
3A0
330
1F
100
AcDbEntity
  8
0
  6
Continuous
 62
     8
370
    15
100
AcDbCircle
 10
409.4414642841
 20
60.0380210037
 30
0.0
 40
1.071637450068578
100
AcDbArc
 50
183.8101753794
 51
264.5976108957
  0
ARC
  5
3A1
330
1F
100
AcDbEntity
  8
0
  6
Continuous
 62
     8
370
    15
100
AcDbCircle
 10
430.8086942739
 20
59.2485339168
 30
0.0
 40
0.3411091783639097
100
AcDbArc
 50
234.4098289425
 51
283.3665773604
  0
ARC
  5
3A2
330
1F
100
AcDbEntity
  8
0
  6
Continuous
 62
     8
370
    15
100
AcDbCircle
 10
431.0139580848
 20
59.7996811688
 30
0.0
 40
0.5888004850648286
100
AcDbArc
 50
349.5156301168
 51
16.4898485335
  0
ARC
  5
3A3
330
1F
100
AcDbEntity
  8
0
  6
Continuous
 62
     8
370
    15
100
AcDbCircle
 10
408.9378717095
 20
59.7995182471
 30
0.0
 40
0.5898948633576637
100
AcDbArc
 50
163.5251134421
 51
188.6403902987
  0
ARC
  5
3A4
330
1F
100
AcDbEntity
  8
0
  6
Continuous
 62
     8
370
    15
100
AcDbCircle
 10
409.1420468542
 20
59.2485494214
 30
0.0
 40
0.3411235589414162
100
AcDbArc
 50
256.6345222905
 51
305.5890714065
  0
LWPOLYLINE
  5
3A5
330
1F
100
AcDbEntity
  8
0
  6
Continuous
 62
     8
370
    15
100
AcDbPolyline
 90
        9
 70
   128
 43
0.0
 10
421.4753676759
 20
58.8189432642
 10
421.3611875282
 20
58.57635236
 10
421.0360292898
 20
58.3706865332
 10
420.5493946181
 20
58.2332680247
 10
419.9753720866
 20
58.1850180647
 10
419.4013421045
 20
58.2332680247
 10
418.9147074329
 20
58.3706865332
 10
418.5895491944
 20
58.57635236
 10
418.4753690468
 20
58.8189432642
  0
LINE
  5
3A6
330
1F
100
AcDbEntity
  8
0
  6
Continuous
 62
     8
370
    15
100
AcDbLine
 10
669.9753720866
 20
163.5964581988
 30
0.0
 11
666.975366007
 21
163.5964581988
 31
0.0
  0
LINE
  5
3A7
330
1F
100
AcDbEntity
  8
0
  6
Continuous
 62
     8
370
    15
100
AcDbLine
 10
322.9753692256
 20
163.5964581988
 30
0.0
 11
319.9753631459
 21
163.5964581988
 31
0.0
  0
ENDSEC
  0
SECTION
  2
OBJECTS
  0
DICTIONARY
  5
C
330
0
100
AcDbDictionary
281
     1
  3
ACAD_GROUP
350
D
  3
ACAD_LAYOUT
350
1A
  3
ACAD_MLINESTYLE
350
17
  3
ACAD_PLOTSETTINGS
350
19
  3
ACAD_PLOTSTYLENAME
350
E
  0
DICTIONARY
  5
D
102
{ACAD_REACTORS
330
C
102
}
330
C
100
AcDbDictionary
281
     1
  0
DICTIONARY
  5
1A
102
{ACAD_REACTORS
330
C
102
}
330
C
100
AcDbDictionary
281
     1
  3
Layout1
350
1E
  3
Layout2
350
26
  3
Model
350
22
  0
DICTIONARY
  5
17
102
{ACAD_REACTORS
330
C
102
}
330
C
100
AcDbDictionary
281
     1
  3
Standard
350
18
  0
DICTIONARY
  5
19
102
{ACAD_REACTORS
330
C
102
}
330
C
100
AcDbDictionary
281
     1
  0
ACDBDICTIONARYWDFLT
  5
E
102
{ACAD_REACTORS
330
C
102
}
330
C
100
AcDbDictionary
281
     1
  3
Normal
350
F
100
AcDbDictionaryWithDefault
340
F
  0
LAYOUT
  5
1E
102
{ACAD_REACTORS
330
1A
102
}
330
1A
100
AcDbPlotSettings
  1

  2
none_device
  4

  6

 40
0.0
 41
0.0
 42
0.0
 43
0.0
 44
0.0
 45
0.0
 46
0.0
 47
0.0
 48
0.0
 49
0.0
140
0.0
141
0.0
142
1.0
143
1.0
 70
   688
 72
     0
 73
     0
 74
     5
  7

 75
    16
147
1.0
148
0.0
149
0.0
100
AcDbLayout
  1
Layout1
 70
     1
 71
     1
 10
0.0
 20
0.0
 11
420.0
 21
297.0
 12
0.0
 22
0.0
 32
0.0
 14
1.0000000000E+20
 24
1.0000000000E+20
 34
1.0000000000E+20
 15
-1.0000000000E+20
 25
-1.0000000000E+20
 35
-1.0000000000E+20
146
0.0
 13
0.0
 23
0.0
 33
0.0
 16
1.0
 26
0.0
 36
0.0
 17
0.0
 27
1.0
 37
0.0
 76
     0
330
1B
  0
LAYOUT
  5
26
102
{ACAD_REACTORS
330
1A
102
}
330
1A
100
AcDbPlotSettings
  1

  2
none_device
  4

  6

 40
0.0
 41
0.0
 42
0.0
 43
0.0
 44
0.0
 45
0.0
 46
0.0
 47
0.0
 48
0.0
 49
0.0
140
0.0
141
0.0
142
1.0
143
1.0
 70
   688
 72
     0
 73
     0
 74
     5
  7

 75
    16
147
1.0
148
0.0
149
0.0
100
AcDbLayout
  1
Layout2
 70
     1
 71
     2
 10
0.0
 20
0.0
 11
0.0
 21
0.0
 12
0.0
 22
0.0
 32
0.0
 14
0.0
 24
0.0
 34
0.0
 15
0.0
 25
0.0
 35
0.0
146
0.0
 13
0.0
 23
0.0
 33
0.0
 16
1.0
 26
0.0
 36
0.0
 17
0.0
 27
1.0
 37
0.0
 76
     0
330
23
  0
LAYOUT
  5
22
102
{ACAD_REACTORS
330
1A
102
}
330
1A
100
AcDbPlotSettings
  1

  2
none_device
  4

  6

 40
0.0
 41
0.0
 42
0.0
 43
0.0
 44
0.0
 45
0.0
 46
0.0
 47
0.0
 48
0.0
 49
0.0
140
0.0
141
0.0
142
1.0
143
1.0
 70
  1712
 72
     0
 73
     0
 74
     0
  7

 75
     0
147
1.0
148
0.0
149
0.0
100
AcDbLayout
  1
Model
 70
     1
 71
     0
 10
0.0
 20
0.0
 11
1000.0
 21
1000.0
 12
0.0
 22
0.0
 32
0.0
 14
0.0
 24
0.0
 34
0.0
 15
1000.0
 25
1000.0
 35
0.0
146
0.0
 13
0.0
 23
0.0
 33
0.0
 16
1.0
 26
0.0
 36
0.0
 17
0.0
 27
1.0
 37
0.0
 76
     0
330
1F
331
29
  0
MLINESTYLE
  5
18
102
{ACAD_REACTORS
330
17
102
}
330
17
100
AcDbMlineStyle
  2
Standard
 70
     0
  3

 62
   256
 51
90.0
 52
90.0
 71
     2
 49
0.5
 62
   256
  6
BYLAYER
 49
-0.5
 62
   256
  6
BYLAYER
  0
ACDBPLACEHOLDER
  5
F
102
{ACAD_REACTORS
330
E
102
}
330
E
  0
ENDSEC
  0
EOF
