  0
SECTION
  2
HEADER
  9
$ACADVER
  1
AC1015
  9
$ACADMAINTVER
 70
     6
  9
$DWGCODEPAGE
  3
ANSI_1252
  9
$INSBASE
 10
0.0
 20
0.0
 30
0.0
  9
$EXTMIN
 10
0.0
 20
0.0
 30
0.0
  9
$EXTMAX
 10
1000.0
 20
1000.0
 30
0.0
  9
$LIMMIN
 10
0.0
 20
0.0
  9
$LIMMAX
 10
1000.0
 20
1000.0
  9
$ORTHOMODE
 70
     0
  9
$REGENMODE
 70
     1
  9
$FILLMODE
 70
     1
  9
$QTEXTMODE
 70
     0
  9
$MIRRTEXT
 70
     1
  9
$LTSCALE
 40
1.0
  9
$ATTMODE
 70
     1
  9
$TEXTSIZE
 40
3.5
  9
$TRACEWID
 40
1.0
  9
$TEXTSTYLE
  7
Standard
  9
$CLAYER
  8
0
  9
$CELTYPE
  6
ByLayer
  9
$CECOLOR
 62
   256
  9
$CELTSCALE
 40
1.0
  9
$DISPSILH
 70
     0
  9
$DIMSCALE
 40
1.0
  9
$DIMASZ
 40
3.302
  9
$DIMEXO
 40
1.0
  9
$DIMDLI
 40
3.75
  9
$DIMRND
 40
0.0
  9
$DIMDLE
 40
0.0
  9
$DIMEXE
 40
1.0
  9
$DIMTP
 40
0.0
  9
$DIMTM
 40
0.0
  9
$DIMTXT
 40
3.5
  9
$DIMCEN
 40
2.5
  9
$DIMTSZ
 40
0.0
  9
$DIMTOL
 70
     0
  9
$DIMLIM
 70
     0
  9
$DIMTIH
 70
     1
  9
$DIMTOH
 70
     1
  9
$DIMSE1
 70
     0
  9
$DIMSE2
 70
     0
  9
$DIMTAD
 70
     1
  9
$DIMZIN
 70
     0
  9
$DIMBLK
  1

  9
$DIMASO
 70
     1
  9
$DIMSHO
 70
     1
  9
$DIMPOST
  1

  9
$DIMAPOST
  1

  9
$DIMALT
 70
     0
  9
$DIMALTD
 70
     3
  9
$DIMALTF
 40
0.0393700787
  9
$DIMLFAC
 40
1.0
  9
$DIMTOFL
 70
     1
  9
$DIMTVP
 40
0.0
  9
$DIMTIX
 70
     0
  9
$DIMSOXD
 70
     0
  9
$DIMSAH
 70
     0
  9
$DIMBLK1
  1

  9
$DIMBLK2
  1

  9
$DIMSTYLE
  2
ISO-25
  9
$DIMCLRD
 70
     0
  9
$DIMCLRE
 70
     0
  9
$DIMCLRT
 70
     0
  9
$DIMTFAC
 40
1.0
  9
$DIMGAP
 40
1.524
  9
$DIMJUST
 70
     0
  9
$DIMSD1
 70
     0
  9
$DIMSD2
 70
     0
  9
$DIMTOLJ
 70
     0
  9
$DIMTZIN
 70
     0
  9
$DIMALTZ
 70
     0
  9
$DIMALTTZ
 70
     0
  9
$DIMUPT
 70
     0
  9
$DIMDEC
 70
     3
  9
$DIMTDEC
 70
     3
  9
$DIMALTU
 70
     2
  9
$DIMALTTD
 70
     3
  9
$DIMTXSTY
  7
Standard
  9
$DIMAUNIT
 70
     0
  9
$DIMADEC
 70
     2
  9
$DIMALTRND
 40
0.0
  9
$DIMAZIN
 70
     0
  9
$DIMDSEP
 70
    44
  9
$DIMATFIT
 70
     3
  9
$DIMFRAC
 70
     0
  9
$DIMLDRBLK
  1

  9
$DIMLUNIT
 70
     2
  9
$DIMLWD
 70
    -2
  9
$DIMLWE
 70
    -2
  9
$DIMTMOVE
 70
     0
  9
$LUNITS
 70
     2
  9
$LUPREC
 70
     8
  9
$SKETCHINC
 40
1.0
  9
$FILLETRAD
 40
10.0
  9
$AUNITS
 70
     0
  9
$AUPREC
 70
     8
  9
$MENU
  1
.
  9
$ELEVATION
 40
0.0
  9
$PELEVATION
 40
0.0
  9
$THICKNESS
 40
0.0
  9
$LIMCHECK
 70
     0
  9
$CHAMFERA
 40
10.0
  9
$CHAMFERB
 40
10.0
  9
$CHAMFERC
 40
20.0
  9
$CHAMFERD
 40
0.0
  9
$SKPOLY
 70
     0
  9
$TDCREATE
 40
2457053.568694491
  9
$TDUCREATE
 40
2457053.568694491
  9
$TDUPDATE
 40
2457053.568695023
  9
$TDUUPDATE
 40
2457053.568695023
  9
$TDINDWG
 40
0.0000000116
  9
$TDUSRTIMER
 40
0.0000000116
  9
$USRTIMER
 70
     1
  9
$ANGBASE
 50
0.0
  9
$ANGDIR
 70
     0
  9
$PDMODE
 70
     0
  9
$PDSIZE
 40
-1.0
  9
$PLINEWID
 40
0.0
  9
$SPLFRAME
 70
     0
  9
$SPLINETYPE
 70
     6
  9
$SPLINESEGS
 70
     8
  9
$HANDSEED
  5
22F
  9
$SURFTAB1
 70
     6
  9
$SURFTAB2
 70
     6
  9
$SURFTYPE
 70
     6
  9
$SURFU
 70
     6
  9
$SURFV
 70
     6
  9
$UCSBASE
  2

  9
$UCSNAME
  2

  9
$UCSORG
 10
0.0
 20
0.0
 30
0.0
  9
$UCSXDIR
 10
1.0
 20
0.0
 30
0.0
  9
$UCSYDIR
 10
0.0
 20
1.0
 30
0.0
  9
$UCSORTHOREF
  2

  9
$UCSORTHOVIEW
 70
     0
  9
$UCSORGTOP
 10
0.0
 20
0.0
 30
0.0
  9
$UCSORGBOTTOM
 10
0.0
 20
0.0
 30
0.0
  9
$UCSORGLEFT
 10
0.0
 20
0.0
 30
0.0
  9
$UCSORGRIGHT
 10
0.0
 20
0.0
 30
0.0
  9
$UCSORGFRONT
 10
0.0
 20
0.0
 30
0.0
  9
$UCSORGBACK
 10
0.0
 20
0.0
 30
0.0
  9
$PUCSBASE
  2

  9
$PUCSNAME
  2

  9
$PUCSORG
 10
0.0
 20
0.0
 30
0.0
  9
$PUCSXDIR
 10
1.0
 20
0.0
 30
0.0
  9
$PUCSYDIR
 10
0.0
 20
1.0
 30
0.0
  9
$PUCSORTHOREF
  2

  9
$PUCSORTHOVIEW
 70
     0
  9
$PUCSORGTOP
 10
0.0
 20
0.0
 30
0.0
  9
$PUCSORGBOTTOM
 10
0.0
 20
0.0
 30
0.0
  9
$PUCSORGLEFT
 10
0.0
 20
0.0
 30
0.0
  9
$PUCSORGRIGHT
 10
0.0
 20
0.0
 30
0.0
  9
$PUCSORGFRONT
 10
0.0
 20
0.0
 30
0.0
  9
$PUCSORGBACK
 10
0.0
 20
0.0
 30
0.0
  9
$USERI1
 70
     0
  9
$USERI2
 70
     0
  9
$USERI3
 70
     0
  9
$USERI4
 70
     0
  9
$USERI5
 70
     0
  9
$USERR1
 40
0.0
  9
$USERR2
 40
0.0
  9
$USERR3
 40
0.0
  9
$USERR4
 40
0.0
  9
$USERR5
 40
0.0
  9
$WORLDVIEW
 70
     1
  9
$SHADEDGE
 70
     3
  9
$SHADEDIF
 70
    70
  9
$TILEMODE
 70
     1
  9
$MAXACTVP
 70
    64
  9
$PINSBASE
 10
0.0
 20
0.0
 30
0.0
  9
$PLIMCHECK
 70
     0
  9
$PEXTMIN
 10
1.0000000000E+20
 20
1.0000000000E+20
 30
1.0000000000E+20
  9
$PEXTMAX
 10
-1.0000000000E+20
 20
-1.0000000000E+20
 30
-1.0000000000E+20
  9
$PLIMMIN
 10
0.0
 20
0.0
  9
$PLIMMAX
 10
420.0
 20
297.0
  9
$UNITMODE
 70
     0
  9
$VISRETAIN
 70
     1
  9
$PLINEGEN
 70
     0
  9
$PSLTSCALE
 70
     1
  9
$TREEDEPTH
 70
  3020
  9
$CMLSTYLE
  2
Standard
  9
$CMLJUST
 70
     0
  9
$CMLSCALE
 40
20.0
  9
$PROXYGRAPHICS
 70
     1
  9
$MEASUREMENT
 70
     1
  9
$CELWEIGHT
370
    -1
  9
$ENDCAPS
280
     0
  9
$JOINSTYLE
280
     0
  9
$LWDISPLAY
290
     1
  9
$INSUNITS
 70
     4
  9
$HYPERLINKBASE
  1

  9
$STYLESHEET
  1

  9
$XEDIT
290
     1
  9
$CEPSNTYPE
380
     0
  9
$PSTYLEMODE
290
     1
  9
$FINGERPRINTGUID
  2
{9304025B-D73A-4AAF-8825-56FEBF12107C}
  9
$VERSIONGUID
  2
{FAEB1C32-E019-11D5-929B-00C0DF256EC4}
  9
$EXTNAMES
290
     1
  9
$PSVPSCALE
 40
0.0
  9
$OLESTARTUP
290
     0
  0
ENDSEC
  0
SECTION
  2
CLASSES
  0
CLASS
  1
ACDBDICTIONARYWDFLT
  2
AcDbDictionaryWithDefault
  3
ObjectDBX Classes
 90
        0
280
     0
281
     0
  0
CLASS
  1
VISUALSTYLE
  2
AcDbVisualStyle
  3
ObjectDBX Classes
 90
     4095
280
     0
281
     0
  0
CLASS
  1
MATERIAL
  2
AcDbMaterial
  3
ObjectDBX Classes
 90
     1153
280
     0
281
     0
  0
CLASS
  1
ACDBPLACEHOLDER
  2
AcDbPlaceHolder
  3
ObjectDBX Classes
 90
        0
280
     0
281
     0
  0
CLASS
  1
LAYOUT
  2
AcDbLayout
  3
ObjectDBX Classes
 90
        0
280
     0
281
     0
  0
ENDSEC
  0
SECTION
  2
TABLES
  0
TABLE
  2
VPORT
  5
8
330
0
100
AcDbSymbolTable
 70
     1
  0
VPORT
  5
29
330
8
100
AcDbSymbolTableRecord
100
AcDbViewportTableRecord
  2
*Active
 70
     0
 10
0.0
 20
0.0
 11
1.0
 21
1.0
 12
500.0
 22
500.0
 13
0.0
 23
0.0
 14
10.0
 24
10.0
 15
10.0
 25
10.0
 16
0.0
 26
0.0
 36
1.0
 17
0.0
 27
0.0
 37
0.0
 40
1000.0
 41
1.0
 42
50.0
 43
0.0
 44
0.0
 50
0.0
 51
0.0
 71
     0
 72
  2000
 73
     1
 74
     3
 75
     0
 76
     0
 77
     0
 78
     0
281
     0
 65
     1
110
0.0
120
0.0
130
0.0
111
1.0
121
0.0
131
0.0
112
0.0
122
1.0
132
0.0
 79
     0
146
0.0
  0
ENDTAB
  0
TABLE
  2
LTYPE
  5
5
330
0
100
AcDbSymbolTable
 70
     6
  0
LTYPE
  5
14
330
5
100
AcDbSymbolTableRecord
100
AcDbLinetypeTableRecord
  2
ByBlock
 70
     0
  3

 72
    65
 73
     0
 40
0.0
  0
LTYPE
  5
15
330
5
100
AcDbSymbolTableRecord
100
AcDbLinetypeTableRecord
  2
ByLayer
 70
     0
  3

 72
    65
 73
     0
 40
0.0
  0
LTYPE
  5
16
330
5
100
AcDbSymbolTableRecord
100
AcDbLinetypeTableRecord
  2
Continuous
 70
     0
  3
Solid line
 72
    65
 73
     0
 40
0.0
  0
LTYPE
  5
3F
330
5
100
AcDbSymbolTableRecord
100
AcDbLinetypeTableRecord
  2
HIDDEN
 70
     0
  3
Hidden __ __ __ __ __ __ __ __ __ __ __ __ __ __
 72
    65
 73
     2
 40
1.905
 49
1.27
 74
     0
 49
-0.635
 74
     0
  0
LTYPE
  5
40
330
5
100
AcDbSymbolTableRecord
100
AcDbLinetypeTableRecord
  2
PHANTOM
 70
     0
  3
Phantom ______  __  __  ______  __  __  ______
 72
    65
 73
     6
 40
12.7
 49
6.35
 74
     0
 49
-1.27
 74
     0
 49
1.27
 74
     0
 49
-1.27
 74
     0
 49
1.27
 74
     0
 49
-1.27
 74
     0
  0
LTYPE
  5
41
330
5
100
AcDbSymbolTableRecord
100
AcDbLinetypeTableRecord
  2
CENTER
 70
     0
  3
Center ____ _ ____ _ ____ _ ____ _ ____ _ ____
 72
    65
 73
     4
 40
10.16
 49
6.35
 74
     0
 49
-1.27
 74
     0
 49
1.27
 74
     0
 49
-1.27
 74
     0
  0
LTYPE
  5
42
330
5
100
AcDbSymbolTableRecord
100
AcDbLinetypeTableRecord
  2
CENTERX2
 70
     0
  3
Center (2x) ________  __  ________  __  _____
 72
    65
 73
     4
 40
20.32
 49
12.7
 74
     0
 49
-2.54
 74
     0
 49
2.54
 74
     0
 49
-2.54
 74
     0
  0
LTYPE
  5
43
330
5
100
AcDbSymbolTableRecord
100
AcDbLinetypeTableRecord
  2
DOT2
 70
     0
  3
Dot (.5x) ........................................
 72
    65
 73
     2
 40
0.635
 49
0.0
 74
     0
 49
-0.635
 74
     0
  0
ENDTAB
  0
TABLE
  2
LAYER
  5
2
330
0
100
AcDbSymbolTable
 70
     1
  0
LAYER
  5
10
330
2
100
AcDbSymbolTableRecord
100
AcDbLayerTableRecord
  2
0
 70
     0
 62
     7
  6
Continuous
370
    -3
390
F
  0
ENDTAB
  0
TABLE
  2
STYLE
  5
3
330
0
100
AcDbSymbolTable
 70
     1
  0
STYLE
  5
11
330
3
100
AcDbSymbolTableRecord
100
AcDbTextStyleTableRecord
  2
Standard
 70
     0
 40
0.0
 41
1.0
 50
0.0
 71
     0
 42
3.5
  3
txt
  4

  0
ENDTAB
  0
TABLE
  2
VIEW
  5
6
330
0
100
AcDbSymbolTable
 70
     0
  0
ENDTAB
  0
TABLE
  2
UCS
  5
7
330
0
100
AcDbSymbolTable
 70
     0
  0
ENDTAB
  0
TABLE
  2
APPID
  5
9
330
0
100
AcDbSymbolTable
 70
     1
  0
APPID
  5
12
330
9
100
AcDbSymbolTableRecord
100
AcDbRegAppTableRecord
  2
ACAD
 70
     0
  0
ENDTAB
  0
TABLE
  2
DIMSTYLE
  5
A
330
0
100
AcDbSymbolTable
 70
     1
100
AcDbDimStyleTable
  0
DIMSTYLE
105
27
330
A
100
AcDbSymbolTableRecord
100
AcDbDimStyleTableRecord
  2
ISO-25
 70
     0
 41
2.5
 42
0.625
 43
3.75
 44
1.25
 73
     0
 74
     0
 77
     1
 78
     8
140
2.5
141
2.5
143
0.0393700787
147
0.625
171
     3
172
     1
178
     0
271
     2
272
     2
274
     3
278
    44
283
     0
284
     8
340
11
  0
ENDTAB
  0
TABLE
  2
BLOCK_RECORD
  5
1
330
0
100
AcDbSymbolTable
 70
     1
  0
BLOCK_RECORD
  5
1F
330
1
100
AcDbSymbolTableRecord
100
AcDbBlockTableRecord
  2
*Model_Space
340
22
  0
BLOCK_RECORD
  5
1B
330
1
100
AcDbSymbolTableRecord
100
AcDbBlockTableRecord
  2
*Paper_Space
340
1E
  0
BLOCK_RECORD
  5
23
330
1
100
AcDbSymbolTableRecord
100
AcDbBlockTableRecord
  2
*Paper_Space0
340
26
  0
ENDTAB
  0
ENDSEC
  0
SECTION
  2
BLOCKS
  0
BLOCK
  5
20
330
1F
100
AcDbEntity
  8
0
100
AcDbBlockBegin
  2
*Model_Space
 70
     0
 10
0.0
 20
0.0
 30
0.0
  3
*Model_Space
  1

  0
ENDBLK
  5
21
330
1F
100
AcDbEntity
  8
0
100
AcDbBlockEnd
  0
BLOCK
  5
1C
330
1B
100
AcDbEntity
 67
     1
  8
0
100
AcDbBlockBegin
  2
*Paper_Space
 70
     0
 10
0.0
 20
0.0
 30
0.0
  3
*Paper_Space
  1

  0
ENDBLK
  5
1D
330
1B
100
AcDbEntity
 67
     1
  8
0
100
AcDbBlockEnd
  0
BLOCK
  5
24
330
23
100
AcDbEntity
  8
0
100
AcDbBlockBegin
  2
*Paper_Space0
 70
     0
 10
0.0
 20
0.0
 30
0.0
  3
*Paper_Space0
  1

  0
ENDBLK
  5
25
330
23
100
AcDbEntity
  8
0
100
AcDbBlockEnd
  0
ENDSEC
  0
SECTION
  2
ENTITIES
  0
LINE
  5
44
330
1F
100
AcDbEntity
  8
0
  6
Continuous
 62
     7
100
AcDbLine
 10
874.8305839564
 20
700.4368171021
 30
0.0
 11
941.8305839564
 21
700.4368171021
 31
0.0
  0
LINE
  5
45
330
1F
100
AcDbEntity
  8
0
  6
Continuous
 62
     7
100
AcDbLine
 10
941.8305839564
 20
700.4368171021
 30
0.0
 11
967.1044590284
 21
754.6368171021
 31
0.0
  0
LINE
  5
46
330
1F
100
AcDbEntity
  8
0
  6
Continuous
 62
     7
100
AcDbLine
 10
967.1044590284
 20
754.6368171021
 30
0.0
 11
908.6986152559
 21
879.8885532706
 31
0.0
  0
ARC
  5
47
330
1F
100
AcDbEntity
  8
0
  6
Continuous
 62
     7
370
    15
100
AcDbCircle
 10
233.3558998729
 20
51.9368171021
 30
0.0
 40
2.000000000000028
100
AcDbArc
 50
270.0
 51
0.0
  0
ARC
  5
48
330
1F
100
AcDbEntity
  8
0
  6
Continuous
 62
     7
370
    15
100
AcDbCircle
 10
180.3558998729
 20
51.9368171021
 30
0.0
 40
2.0
100
AcDbArc
 50
180.0
 51
270.0
  0
LINE
  5
49
330
1F
100
AcDbEntity
  8
0
  6
Continuous
 62
     7
370
    15
100
AcDbLine
 10
235.3558991923
 20
51.9368163656
 30
0.0
 11
235.3558991923
 21
55.9368244718
 31
0.0
  0
LINE
  5
4A
330
1F
100
AcDbEntity
  8
0
  6
Continuous
 62
     7
370
    15
100
AcDbLine
 10
178.3558991625
 20
55.9368244718
 30
0.0
 11
178.3558991625
 21
51.9368163656
 31
0.0
  0
ARC
  5
4B
330
1F
100
AcDbEntity
  8
0
  6
Continuous
 62
     7
370
    15
100
AcDbCircle
 10
812.3558653306
 20
51.9368171021
 30
0.0
 40
2.0
100
AcDbArc
 50
270.0
 51
0.0
  0
ARC
  5
4C
330
1F
100
AcDbEntity
  8
0
  6
Continuous
 62
     7
370
    15
100
AcDbCircle
 10
759.3558653306
 20
51.9368171021
 30
0.0
 40
2.0
100
AcDbArc
 50
180.0
 51
270.0
  0
LINE
  5
4D
330
1F
100
AcDbEntity
  8
0
  6
Continuous
 62
     7
370
    15
100
AcDbLine
 10
814.355835773
 20
51.9368163656
 30
0.0
 11
814.355835773
 21
55.9368244718
 31
0.0
  0
LINE
  5
4E
330
1F
100
AcDbEntity
  8
0
  6
Continuous
 62
     7
370
    15
100
AcDbLine
 10
757.3558543696
 20
55.9368244718
 30
0.0
 11
757.3558543696
 21
51.9368163656
 31
0.0
  0
LINE
  5
4F
330
1F
100
AcDbEntity
  8
0
  6
Continuous
 62
     7
370
    15
100
AcDbLine
 10
235.1559032574
 20
55.9368244718
 30
0.0
 11
235.1559032574
 21
123.9368132661
 31
0.0
  0
LINE
  5
50
330
1F
100
AcDbEntity
  8
0
  6
Continuous
 62
     7
370
    15
100
AcDbLine
 10
178.5558988228
 20
123.9368132661
 30
0.0
 11
178.5558988228
 21
55.9368244718
 31
0.0
  0
LINE
  5
51
330
1F
100
AcDbEntity
  8
0
  6
Continuous
 62
     7
370
    15
100
AcDbLine
 10
814.1558621898
 20
55.9368244718
 30
0.0
 11
814.1558621898
 21
123.9368132661
 31
0.0
  0
LINE
  5
52
330
1F
100
AcDbEntity
  8
0
  6
Continuous
 62
     7
370
    15
100
AcDbLine
 10
757.5558875575
 20
123.9368132661
 30
0.0
 11
757.5558875575
 21
55.9368244718
 31
0.0
  0
ARC
  5
53
330
1F
100
AcDbEntity
  8
0
  6
Continuous
 62
     7
370
    15
100
AcDbCircle
 10
240.2558998729
 20
216.4368171021
 30
0.0
 40
1.5
100
AcDbArc
 50
90.0
 51
180.0
  0
ARC
  5
54
330
1F
100
AcDbEntity
  8
0
  6
Continuous
 62
     7
370
    15
100
AcDbCircle
 10
173.4558998729
 20
216.4368171021
 30
0.0
 40
1.499999999999943
100
AcDbArc
 50
0.0
 51
90.0
  0
ARC
  5
55
330
1F
100
AcDbEntity
  8
0
  6
Continuous
 62
     7
370
    15
100
AcDbCircle
 10
234.0558998729
 20
129.9693830478
 30
0.0
 40
4.7
100
AcDbArc
 50
350.5402980318
 51
0.0
  0
ARC
  5
56
330
1F
100
AcDbEntity
  8
0
  6
Continuous
 62
     7
370
    15
100
AcDbCircle
 10
179.6558998729
 20
129.9693830478
 30
0.0
 40
4.700000000000045
100
AcDbArc
 50
180.0
 51
189.4597019682
  0
LINE
  5
57
330
1F
100
AcDbEntity
  8
0
  6
Continuous
 62
     7
370
    15
100
AcDbLine
 10
238.7558971419
 20
129.9693844627
 30
0.0
 11
238.7558971419
 21
216.4368181835
 31
0.0
  0
LINE
  5
58
330
1F
100
AcDbEntity
  8
0
  6
Continuous
 62
     7
370
    15
100
AcDbLine
 10
174.9559012129
 20
216.4368181835
 30
0.0
 11
174.9559012129
 21
129.9693844627
 31
0.0
  0
LINE
  5
59
330
1F
100
AcDbEntity
  8
0
  6
Continuous
 62
     7
370
    15
100
AcDbLine
 10
175.0198122933
 20
129.1969231676
 30
0.0
 11
175.8962501659
 21
123.9368132661
 31
0.0
  0
LINE
  5
5A
330
1F
100
AcDbEntity
  8
0
  6
Continuous
 62
     7
370
    15
100
AcDbLine
 10
237.8155519142
 20
123.9368132661
 30
0.0
 11
238.6919860616
 21
129.1969231676
 31
0.0
  0
ARC
  5
5B
330
1F
100
AcDbEntity
  8
0
  6
Continuous
 62
     7
370
    15
100
AcDbCircle
 10
819.2558653306
 20
216.4368171021
 30
0.0
 40
1.499999999999943
100
AcDbArc
 50
90.0
 51
180.0
  0
ARC
  5
5C
330
1F
100
AcDbEntity
  8
0
  6
Continuous
 62
     7
370
    15
100
AcDbCircle
 10
752.4558653306
 20
216.4368171021
 30
0.0
 40
1.5
100
AcDbArc
 50
0.0
 51
90.0
  0
ARC
  5
5D
330
1F
100
AcDbEntity
  8
0
  6
Continuous
 62
     7
370
    15
100
AcDbCircle
 10
813.0558653306
 20
129.9693830478
 30
0.0
 40
4.700000000000045
100
AcDbArc
 50
350.5402980318
 51
0.0
  0
ARC
  5
5E
330
1F
100
AcDbEntity
  8
0
  6
Continuous
 62
     7
370
    15
100
AcDbCircle
 10
758.6558653306
 20
129.9693830478
 30
0.0
 40
4.699999999999932
100
AcDbArc
 50
180.0
 51
189.4597019682
  0
LINE
  5
5F
330
1F
100
AcDbEntity
  8
0
  6
Continuous
 62
     7
370
    15
100
AcDbLine
 10
817.7558635249
 20
129.9693844627
 30
0.0
 11
817.7558635249
 21
216.4368181835
 31
0.0
  0
LINE
  5
60
330
1F
100
AcDbEntity
  8
0
  6
Continuous
 62
     7
370
    15
100
AcDbLine
 10
753.9558862224
 20
216.4368181835
 30
0.0
 11
753.9558862224
 21
129.9693844627
 31
0.0
  0
LINE
  5
61
330
1F
100
AcDbEntity
  8
0
  6
Continuous
 62
     7
370
    15
100
AcDbLine
 10
754.0197824016
 20
129.1969231676
 30
0.0
 11
754.8962090983
 21
123.9368132661
 31
0.0
  0
LINE
  5
62
330
1F
100
AcDbEntity
  8
0
  6
Continuous
 62
     7
370
    15
100
AcDbLine
 10
816.8155406489
 20
123.9368132661
 30
0.0
 11
817.6919673457
 21
129.1969231676
 31
0.0
  0
SPLINE
  5
63
330
1F
100
AcDbEntity
  8
0
  6
Continuous
 62
     7
370
    15
100
AcDbSpline
210
0.0
220
0.0
230
1.0
 70
     8
 71
     3
 72
    12
 73
     8
 74
     0
 42
0.00000001
 43
0.00000001
 12
1.0
 22
0.0
 32
0.0
 13
1.0
 23
0.0
 33
0.0
 40
0.0
 40
0.0
 40
0.0
 40
0.0
 40
0.3205295406520747
 40
0.6002817927957952
 40
0.8264876611545775
 40
0.9994771017261538
 40
1.0
 40
1.0
 40
1.0
 40
1.0
 10
148.1202286555805
 20
208.2271910618275
 30
0.0
 10
148.1178229333725
 20
208.1821541306306
 30
0.0
 10
148.1133175413358
 20
208.0978097992285
 30
0.0
 10
148.0976041798519
 20
208.0053472457017
 30
0.0
 10
148.0859302461483
 20
207.958182667572
 30
0.0
 10
148.0780296854604
 20
207.942842496163
 30
0.0
 10
148.0800954656776
 20
207.9461489227263
 30
0.0
 10
148.0801016911306
 20
207.9461588870018
 30
0.0
  0
SPLINE
  5
64
330
1F
100
AcDbEntity
  8
0
  6
Continuous
 62
     7
370
    15
100
AcDbSpline
210
0.0
220
0.0
230
1.0
 70
     8
 71
     3
 72
     9
 73
     5
 74
     0
 42
0.00000001
 43
0.00000001
 12
1.0
 22
0.0
 32
0.0
 13
1.0
 23
0.0
 33
0.0
 40
0.0
 40
0.0
 40
0.0
 40
0.0
 40
0.9978610726568323
 40
1.0
 40
1.0
 40
1.0
 40
1.0
 10
148.1200014128723
 20
208.2867957066029
 30
0.0
 10
148.1206967492649
 20
208.2663233693133
 30
0.0
 10
148.1213935761196
 20
208.2458071493197
 30
0.0
 10
148.1202311419427
 20
208.227230795299
 30
0.0
 10
148.1202286555805
 20
208.2271910618275
 30
0.0
  0
ARC
  5
65
330
1F
100
AcDbEntity
  8
0
  6
Continuous
 62
     7
370
    15
100
AcDbCircle
 10
148.3711936407
 20
213.3868171021
 30
0.0
 40
0.2500000000000284
100
AcDbArc
 50
90.0
 51
180.0
  0
LINE
  5
66
330
1F
100
AcDbEntity
  8
0
  6
Continuous
 62
     7
370
    15
100
AcDbLine
 10
148.1211935058
 20
213.386818708
 30
0.0
 11
148.1211935058
 21
208.2868180583
 31
0.0
  0
ARC
  5
67
330
1F
100
AcDbEntity
  8
0
  6
Continuous
 62
     7
370
    15
100
AcDbCircle
 10
154.3852151624
 20
213.3868171021
 30
0.0
 40
0.2500000000000284
100
AcDbArc
 50
0.0
 51
90.0
  0
LINE
  5
68
330
1F
100
AcDbEntity
  8
0
  6
Continuous
 62
     7
370
    15
100
AcDbLine
 10
154.6352156326
 20
208.2868180583
 30
0.0
 11
154.6352156326
 21
213.386818708
 31
0.0
  0
ARC
  5
69
330
1F
100
AcDbEntity
  8
0
  6
Continuous
 62
     7
370
    15
100
AcDbCircle
 10
157.8058653306
 20
207.7868171021
 30
0.0
 40
0.2499999999999716
100
AcDbArc
 50
0.0
 51
90.0
  0
ARC
  5
6A
330
1F
100
AcDbEntity
  8
0
  6
Continuous
 62
     7
370
    15
100
AcDbCircle
 10
157.8058653306
 20
207.0868171021
 30
0.0
 40
0.2499999999999716
100
AcDbArc
 50
270.0
 51
0.0
  0
LINE
  5
6B
330
1F
100
AcDbEntity
  8
0
  6
Continuous
 62
     7
370
    15
100
AcDbLine
 10
158.0558647289
 20
207.0868163715
 30
0.0
 11
158.0558647289
 21
207.7868170451
 31
0.0
  0
LINE
  5
6C
330
1F
100
AcDbEntity
  8
0
  6
Continuous
 62
     7
370
    15
100
AcDbLine
 10
144.0765154436
 20
209.4562388371
 30
0.0
 11
144.0765154436
 21
209.2368155132
 31
0.0
  0
ARC
  5
6D
330
1F
100
AcDbEntity
  8
0
  6
Continuous
 62
     7
370
    15
100
AcDbCircle
 10
140.6058653306
 20
207.7868171021
 30
0.0
 40
1.450000000000017
100
AcDbArc
 50
90.0
 51
180.0
  0
LINE
  5
6E
330
1F
100
AcDbEntity
  8
0
  6
Continuous
 62
     7
370
    15
100
AcDbLine
 10
139.15586517
 20
207.7868170451
 30
0.0
 11
139.15586517
 21
202.6868163954
 31
0.0
  0
ARC
  5
6F
330
1F
100
AcDbEntity
  8
0
  6
Continuous
 62
     7
370
    15
100
AcDbCircle
 10
139.4058653306
 20
202.6868171021
 30
0.0
 40
0.25
100
AcDbArc
 50
180.0
 51
270.0
  0
SPLINE
  5
70
330
1F
100
AcDbEntity
  8
0
  6
Continuous
 62
     7
370
    15
100
AcDbSpline
210
0.0
220
0.0
230
1.0
 70
     8
 71
     3
 72
    13
 73
     9
 74
     0
 42
0.00000001
 43
0.00000001
 12
1.0
 22
0.0
 32
0.0
 13
1.0
 23
0.0
 33
0.0
 40
0.0
 40
0.0
 40
0.0
 40
0.0
 40
0.0788287277249939
 40
0.2640259492139468
 40
0.4645555515547034
 40
0.6977913557554043
 40
0.9720677011523924
 40
1.0
 40
1.0
 40
1.0
 40
1.0
 10
142.0817128270306
 20
207.7869213531941
 30
0.0
 10
142.0810690819734
 20
207.7983536586847
 30
0.0
 10
142.0789129467079
 20
207.8366445888566
 30
0.0
 10
142.1029813022519
 20
207.9008920339493
 30
0.0
 10
142.1529495109404
 20
207.9700381861157
 30
0.0
 10
142.2310444067168
 20
208.0201921028051
 30
0.0
 10
142.2983876231424
 20
208.0401849822775
 30
0.0
 10
142.3360626298176
 20
208.0360419182321
 30
0.0
 10
142.3395448252001
 20
208.0356589864224
 30
0.0
  0
LINE
  5
71
330
1F
100
AcDbEntity
  8
0
  6
Continuous
 62
     7
370
    15
100
AcDbLine
 10
142.0787242129
 20
202.6868163954
 30
0.0
 11
142.0787242129
 21
207.7868170451
 31
0.0
  0
ARC
  5
72
330
1F
100
AcDbEntity
  8
0
  6
Continuous
 62
     7
370
    15
100
AcDbCircle
 10
141.82872428
 20
202.6868171021
 30
0.0
 40
0.2500000000000284
100
AcDbArc
 50
270.0
 51
0.0
  0
ARC
  5
73
330
1F
100
AcDbEntity
  8
0
  6
Continuous
 62
     7
370
    15
100
AcDbCircle
 10
158.1058653306
 20
207.7868171021
 30
0.0
 40
1.44999999999996
100
AcDbArc
 50
0.0
 51
90.0
  0
ARC
  5
74
330
1F
100
AcDbEntity
  8
0
  6
Continuous
 62
     7
370
    15
100
AcDbCircle
 10
158.5983306794
 20
202.6868171021
 30
0.0
 40
0.2500000000000284
100
AcDbArc
 50
180.0
 51
270.0
  0
LINE
  5
75
330
1F
100
AcDbEntity
  8
0
  6
Continuous
 62
     7
370
    15
100
AcDbLine
 10
158.3483298197
 20
207.7868170451
 30
0.0
 11
158.3483298197
 21
202.6868163954
 31
0.0
  0
ARC
  5
76
330
1F
100
AcDbEntity
  8
0
  6
Continuous
 62
     7
370
    15
100
AcDbCircle
 10
159.3058653306
 20
202.6868171021
 30
0.0
 40
0.25
100
AcDbArc
 50
270.0
 51
0.0
  0
LINE
  5
77
330
1F
100
AcDbEntity
  8
0
  6
Continuous
 62
     7
370
    15
100
AcDbLine
 10
159.5558640435
 20
202.6868163954
 30
0.0
 11
159.5558640435
 21
207.7868170451
 31
0.0
  0
LINE
  5
78
330
1F
100
AcDbEntity
  8
0
  6
Continuous
 62
     7
370
    15
100
AcDbLine
 10
156.6330068632
 20
206.8368158649
 30
0.0
 11
156.6330068632
 21
202.6868163954
 31
0.0
  0
ARC
  5
79
330
1F
100
AcDbEntity
  8
0
  6
Continuous
 62
     7
370
    15
100
AcDbCircle
 10
156.8830063812
 20
202.6868171021
 30
0.0
 40
0.2500000000000284
100
AcDbArc
 50
180.0
 51
270.0
  0
LINE
  5
7A
330
1F
100
AcDbEntity
  8
0
  6
Continuous
 62
     7
370
    15
100
AcDbLine
 10
154.3558654263
 20
214.6868183623
 30
0.0
 11
154.6056498661
 21
214.8310318004
 31
0.0
  0
LINE
  5
7B
330
1F
100
AcDbEntity
  8
0
  6
Continuous
 62
     7
370
    15
100
AcDbLine
 10
144.10608121
 20
214.8310318004
 30
0.0
 11
144.3558656498
 21
214.6868183623
 31
0.0
  0
LINE
  5
7C
330
1F
100
AcDbEntity
  8
0
  6
Continuous
 62
     7
370
    15
100
AcDbLine
 10
154.3674566671
 20
206.8301252435
 30
0.0
 11
154.3558654263
 21
206.8368158649
 31
0.0
  0
LINE
  5
7D
330
1F
100
AcDbEntity
  8
0
  6
Continuous
 62
     7
370
    15
100
AcDbLine
 10
154.3558654263
 20
201.6368172477
 30
0.0
 11
154.3674566671
 21
201.6435078691
 31
0.0
  0
LINE
  5
7E
330
1F
100
AcDbEntity
  8
0
  6
Continuous
 62
     7
370
    15
100
AcDbLine
 10
144.3558656498
 20
206.8368158649
 30
0.0
 11
144.3442744091
 21
206.8301252435
 31
0.0
  0
LINE
  5
7F
330
1F
100
AcDbEntity
  8
0
  6
Continuous
 62
     7
370
    15
100
AcDbLine
 10
144.3442744091
 20
201.6435078691
 30
0.0
 11
144.3558656498
 21
201.6368172477
 31
0.0
  0
LINE
  5
80
330
1F
100
AcDbEntity
  8
0
  6
Continuous
 62
     7
370
    15
100
AcDbLine
 10
144.3558656498
 20
214.4368178557
 30
0.0
 11
144.1672951802
 21
214.3279462467
 31
0.0
  0
LINE
  5
81
330
1F
100
AcDbEntity
  8
0
  6
Continuous
 62
     7
370
    15
100
AcDbLine
 10
144.1672951802
 20
209.3456871222
 30
0.0
 11
144.3558656498
 21
209.2368155132
 31
0.0
  0
LINE
  5
82
330
1F
100
AcDbEntity
  8
0
  6
Continuous
 62
     7
370
    15
100
AcDbLine
 10
154.5444358959
 20
214.3279462467
 30
0.0
 11
154.3558654263
 21
214.4368178557
 31
0.0
  0
LINE
  5
83
330
1F
100
AcDbEntity
  8
0
  6
Continuous
 62
     7
370
    15
100
AcDbLine
 10
146.3558659776
 20
214.6868183623
 30
0.0
 11
146.3558659776
 21
214.4368178557
 31
0.0
  0
LINE
  5
84
330
1F
100
AcDbEntity
  8
0
  6
Continuous
 62
     7
370
    15
100
AcDbLine
 10
152.3558650985
 20
214.4368178557
 30
0.0
 11
152.3558650985
 21
214.6868183623
 31
0.0
  0
LINE
  5
85
330
1F
100
AcDbEntity
  8
0
  6
Continuous
 62
     7
370
    15
100
AcDbLine
 10
113.814780943
 20
967.6368198703
 30
0.0
 11
113.814780943
 21
977.1368465732
 31
0.0
  0
LINE
  5
86
330
1F
100
AcDbEntity
  8
0
  6
Continuous
 62
     7
370
    15
100
AcDbLine
 10
94.814781554
 20
977.1368465732
 30
0.0
 11
94.814781554
 21
967.6368198703
 31
0.0
  0
ARC
  5
87
330
1F
100
AcDbEntity
  8
0
  6
Continuous
 62
     7
370
    15
100
AcDbCircle
 10
96.8147808765
 20
977.1368171021
 30
0.0
 40
2.0
100
AcDbArc
 50
90.0
 51
180.0
  0
ARC
  5
88
330
1F
100
AcDbEntity
  8
0
  6
Continuous
 62
     7
370
    15
100
AcDbCircle
 10
111.8147808765
 20
977.1368171021
 30
0.0
 40
2.0
100
AcDbArc
 50
0.0
 51
90.0
  0
LINE
  5
89
330
1F
100
AcDbEntity
  8
0
  6
Continuous
 62
     7
370
    15
100
AcDbLine
 10
206.8559010401
 20
49.9368123125
 30
0.0
 11
180.3558994904
 21
49.9368123125
 31
0.0
  0
LINE
  5
8A
330
1F
100
AcDbEntity
  8
0
  6
Continuous
 62
     7
370
    15
100
AcDbLine
 10
233.3559025898
 20
49.9368123125
 30
0.0
 11
206.8559010401
 21
49.9368123125
 31
0.0
  0
LINE
  5
8B
330
1F
100
AcDbEntity
  8
0
  6
Continuous
 62
     7
370
    15
100
AcDbLine
 10
206.8559010401
 20
55.9368244718
 30
0.0
 11
178.3558991625
 21
55.9368244718
 31
0.0
  0
LINE
  5
8C
330
1F
100
AcDbEntity
  8
0
  6
Continuous
 62
     7
370
    15
100
AcDbLine
 10
235.3558991923
 20
55.9368244718
 30
0.0
 11
206.8559010401
 21
55.9368244718
 31
0.0
  0
LINE
  5
8D
330
1F
100
AcDbEntity
  8
0
  6
Continuous
 62
     7
370
    15
100
AcDbLine
 10
812.3558615222
 20
49.9368123125
 30
0.0
 11
759.3558882251
 21
49.9368123125
 31
0.0
  0
LINE
  5
8E
330
1F
100
AcDbEntity
  8
0
  6
Continuous
 62
     7
370
    15
100
AcDbLine
 10
814.355835773
 20
55.9368244718
 30
0.0
 11
757.3558543696
 21
55.9368244718
 31
0.0
  0
LINE
  5
8F
330
1F
100
AcDbEntity
  8
0
  6
Continuous
 62
     7
370
    15
100
AcDbLine
 10
251.8558953776
 20
217.9368174981
 30
0.0
 11
251.8558953776
 21
219.6368164729
 31
0.0
  0
LINE
  5
90
330
1F
100
AcDbEntity
  8
0
  6
Continuous
 62
     7
370
    15
100
AcDbLine
 10
161.8558992519
 20
217.9368174981
 30
0.0
 11
161.8558992519
 21
219.6368164729
 31
0.0
  0
LINE
  5
91
330
1F
100
AcDbEntity
  8
0
  6
Continuous
 62
     7
370
    15
100
AcDbLine
 10
161.8558992519
 20
217.9368174981
 30
0.0
 11
251.8558953776
 21
217.9368174981
 31
0.0
  0
LINE
  5
92
330
1F
100
AcDbEntity
  8
0
  6
Continuous
 62
     7
370
    15
100
AcDbLine
 10
206.8559010401
 20
123.9368132661
 30
0.0
 11
175.8962501659
 21
123.9368132661
 31
0.0
  0
LINE
  5
93
330
1F
100
AcDbEntity
  8
0
  6
Continuous
 62
     7
370
    15
100
AcDbLine
 10
237.8155519142
 20
123.9368132661
 30
0.0
 11
206.8559010401
 21
123.9368132661
 31
0.0
  0
LINE
  5
94
330
1F
100
AcDbEntity
  8
0
  6
Continuous
 62
     7
370
    15
100
AcDbLine
 10
740.8558581843
 20
217.9368174981
 30
0.0
 11
740.8558581843
 21
219.6368164729
 31
0.0
  0
LINE
  5
95
330
1F
100
AcDbEntity
  8
0
  6
Continuous
 62
     7
370
    15
100
AcDbLine
 10
830.8558915629
 20
217.9368174981
 30
0.0
 11
830.8558915629
 21
219.6368164729
 31
0.0
  0
LINE
  5
96
330
1F
100
AcDbEntity
  8
0
  6
Continuous
 62
     7
370
    15
100
AcDbLine
 10
740.8558581843
 20
217.9368174981
 30
0.0
 11
830.8558915629
 21
217.9368174981
 31
0.0
  0
LINE
  5
97
330
1F
100
AcDbEntity
  8
0
  6
Continuous
 62
     7
370
    15
100
AcDbLine
 10
816.8155406489
 20
123.9368132661
 30
0.0
 11
754.8962090983
 21
123.9368132661
 31
0.0
  0
LINE
  5
98
330
1F
100
AcDbEntity
  8
0
  6
Continuous
 62
     7
370
    15
100
AcDbLine
 10
874.4558547511
 20
219.6368164729
 30
0.0
 11
874.3558381572
 21
219.6368164729
 31
0.0
  0
LINE
  5
99
330
1F
100
AcDbEntity
  8
0
  6
Continuous
 62
     7
370
    15
100
AcDbLine
 10
874.3558381572
 20
219.6368164729
 30
0.0
 11
874.3558381572
 21
223.1868169616
 31
0.0
  0
LINE
  5
9A
330
1F
100
AcDbEntity
  8
0
  6
Continuous
 62
     7
370
    15
100
AcDbLine
 10
874.3558381572
 20
231.9368179302
 30
0.0
 11
874.3558381572
 21
247.3368171483
 31
0.0
  0
LWPOLYLINE
  5
9B
330
1F
100
AcDbEntity
  8
0
  6
Continuous
 62
     7
370
    15
100
AcDbPolyline
 90
        3
 70
   128
 43
0.0
 10
874.4558547511
 20
248.9890882858
 10
874.1336916461
 20
249.2491972513
 10
873.9558909907
 20
249.3567180933
  0
ARC
  5
9C
330
1F
100
AcDbEntity
  8
0
  6
Continuous
 62
     7
370
    15
100
AcDbCircle
 10
872.8558653306
 20
247.3368171021
 30
0.0
 40
1.5
100
AcDbArc
 50
0.0
 51
42.8334280661
  0
LINE
  5
9D
330
1F
100
AcDbEntity
  8
0
  6
Continuous
 62
     7
370
    15
100
AcDbLine
 10
875.2558682933
 20
219.6368164729
 30
0.0
 11
874.4558547511
 21
219.6368164729
 31
0.0
  0
LINE
  5
9E
330
1F
100
AcDbEntity
  8
0
  6
Continuous
 62
     7
370
    15
100
AcDbLine
 10
874.4558547511
 20
221.9368162911
 30
0.0
 11
875.2558682933
 21
221.9368162911
 31
0.0
  0
LINE
  5
9F
330
1F
100
AcDbEntity
  8
0
  6
Continuous
 62
     7
370
    15
100
AcDbLine
 10
875.2558682933
 20
221.9368162911
 30
0.0
 11
875.2558682933
 21
219.6368164729
 31
0.0
  0
LINE
  5
A0
330
1F
100
AcDbEntity
  8
0
  6
Continuous
 62
     7
370
    15
100
AcDbLine
 10
874.4558547511
 20
219.6368164729
 30
0.0
 11
874.4558547511
 21
221.9368162911
 31
0.0
  0
LINE
  5
A1
330
1F
100
AcDbEntity
  8
0
  6
Continuous
 62
     7
370
    15
100
AcDbLine
 10
875.2558682933
 20
696.7368088077
 30
0.0
 11
874.4558547511
 21
696.7368088077
 31
0.0
  0
LINE
  5
A2
330
1F
100
AcDbEntity
  8
0
  6
Continuous
 62
     7
370
    15
100
AcDbLine
 10
875.2558682933
 20
221.9368162911
 30
0.0
 11
875.2558682933
 21
696.7368088077
 31
0.0
  0
LINE
  5
A3
330
1F
100
AcDbEntity
  8
0
  6
Continuous
 62
     7
370
    15
100
AcDbLine
 10
874.4558547511
 20
221.9368162911
 30
0.0
 11
874.4558547511
 21
696.7368088077
 31
0.0
  0
LINE
  5
A4
330
1F
100
AcDbEntity
  8
0
  6
Continuous
 62
     7
370
    15
100
AcDbLine
 10
874.4558547511
 20
698.7368128608
 30
0.0
 11
875.2558682933
 21
698.7368128608
 31
0.0
  0
LINE
  5
A5
330
1F
100
AcDbEntity
  8
0
  6
Continuous
 62
     7
370
    15
100
AcDbLine
 10
875.2558682933
 20
698.7368128608
 30
0.0
 11
875.2558682933
 21
696.7368088077
 31
0.0
  0
LINE
  5
A6
330
1F
100
AcDbEntity
  8
0
  6
Continuous
 62
     7
370
    15
100
AcDbLine
 10
874.4558547511
 20
696.7368088077
 30
0.0
 11
874.4558547511
 21
698.7368128608
 31
0.0
  0
LINE
  5
A7
330
1F
100
AcDbEntity
  8
0
  6
Continuous
 62
     7
370
    15
100
AcDbLine
 10
874.4558547511
 20
698.7368128608
 30
0.0
 11
873.9558909907
 21
698.7368128608
 31
0.0
  0
SPLINE
  5
A8
330
1F
100
AcDbEntity
  8
0
  6
Continuous
 62
     7
370
    15
100
AcDbSpline
210
0.0
220
0.0
230
1.0
 70
     8
 71
     3
 72
    10
 73
     6
 74
     0
 42
0.00000001
 43
0.00000001
 12
1.0
 22
0.0
 32
0.0
 13
1.0
 23
0.0
 33
0.0
 40
0.0
 40
0.0
 40
0.0
 40
0.0
 40
0.4008926868287299
 40
0.8260885750246783
 40
1.0
 40
1.0
 40
1.0
 40
1.0
 10
873.9558909907379
 20
250.063435494316
 30
0.0
 10
874.070945808194
 20
250.0064076021076
 30
0.0
 10
874.3080303780173
 20
249.8888946322809
 30
0.0
 10
874.4409523951995
 20
249.7463128632163
 30
0.0
 10
874.4525020640124
 20
249.6614511133968
 30
0.0
 10
874.4558547511139
 20
249.6368170828774
 30
0.0
  0
LWPOLYLINE
  5
A9
330
1F
100
AcDbEntity
  8
0
  6
Continuous
 62
     7
370
    15
100
AcDbPolyline
 90
        8
 70
   128
 43
0.0
 10
944.2493175044
 20
898.3030877422
 10
944.3247173801
 20
898.1413207363
 10
944.3919514194
 20
897.9971371006
 10
944.4502447619
 20
897.8722057651
 10
944.4988225474
 20
897.7678976367
 10
944.5372675433
 20
897.6855836223
 10
944.5649837031
 20
897.6260385822
 10
944.5774410739
 20
897.5993357013
  0
LINE
  5
AA
330
1F
100
AcDbEntity
  8
0
  6
Continuous
 62
     7
370
    15
100
AcDbLine
 10
925.5510424151
 20
888.7011967014
 30
0.0
 11
909.1940973773
 21
881.0738287281
 31
0.0
  0
LINE
  5
AB
330
1F
100
AcDbEntity
  8
0
  6
Continuous
 62
     7
370
    15
100
AcDbLine
 10
905.2765820994
 20
881.7848525356
 30
0.0
 11
943.6153625026
 21
899.6625504802
 31
0.0
  0
SPLINE
  5
AC
330
1F
100
AcDbEntity
  8
0
  6
Continuous
 62
     7
370
    15
100
AcDbSpline
210
0.0
220
0.0
230
1.0
 70
     8
 71
     3
 72
    11
 73
     7
 74
     0
 42
0.00000001
 43
0.00000001
 12
1.0
 22
0.0
 32
0.0
 13
1.0
 23
0.0
 33
0.0
 40
0.0
 40
0.0
 40
0.0
 40
0.0
 40
0.2889706696993127
 40
0.5779548067002124
 40
0.8674366805920936
 40
1.0
 40
1.0
 40
1.0
 40
1.0
 10
909.194097377304
 20
881.073828728053
 30
0.0
 10
908.890579595925
 20
880.9835632470783
 30
0.0
 10
908.2835298879065
 20
880.8030280783621
 30
0.0
 10
907.1350081668389
 20
881.0424409212596
 30
0.0
 10
906.1004376545961
 20
881.4341685498812
 30
0.0
 10
905.4735012317692
 20
881.7010315480854
 30
0.0
 10
905.2765820994415
 20
881.7848525355786
 30
0.0
  0
SPLINE
  5
AD
330
1F
100
AcDbEntity
  8
0
  6
Continuous
 62
     7
370
    15
100
AcDbSpline
210
0.0
220
0.0
230
1.0
 70
     8
 71
     3
 72
    11
 73
     7
 74
     0
 42
0.00000001
 43
0.00000001
 12
1.0
 22
0.0
 32
0.0
 13
1.0
 23
0.0
 33
0.0
 40
0.0
 40
0.0
 40
0.0
 40
0.0
 40
0.2888122323656499
 40
0.5776182399770645
 40
0.8669351447453666
 40
1.0
 40
1.0
 40
1.0
 40
1.0
 10
905.2765820994415
 20
881.7848525355786
 30
0.0
 10
905.7242911706751
 20
881.6486587935917
 30
0.0
 10
906.619699663693
 20
881.3762742449946
 30
0.0
 10
907.7668163181453
 20
880.8761596692246
 30
0.0
 10
908.4416973023274
 20
880.3399611348357
 30
0.0
 10
908.6630753072617
 20
879.9409266921891
 30
0.0
 10
908.7328170313873
 20
879.8152170489758
 30
0.0
  0
LINE
  5
AE
330
1F
100
AcDbEntity
  8
0
  6
Continuous
 62
     7
370
    15
100
AcDbLine
 10
908.7328170314
 20
879.815217049
 30
0.0
 11
909.2268799319
 21
878.7556848834
 31
0.0
  0
LWPOLYLINE
  5
AF
330
1F
100
AcDbEntity
  8
0
  6
Continuous
 62
     7
370
    15
100
AcDbPolyline
 90
        9
 70
   128
 43
0.0
 10
965.1337717547
 20
758.8630280803
 10
965.1217316165
 20
758.8573656391
 10
965.0857304111
 20
758.8406167339
 10
965.0261853709
 20
758.8128409694
 10
964.9438713565
 20
758.7744555782
 10
964.8395632281
 20
758.725818188
 10
964.7146318927
 20
758.6675844501
 10
964.570448257
 20
758.6003504108
 10
964.4087408557
 20
758.5248909305
  0
LINE
  5
B0
330
1F
100
AcDbEntity
  8
0
  6
Continuous
 62
     7
370
    15
100
AcDbLine
 10
963.0492781177
 20
757.8909955333
 30
0.0
 11
905.2765820994
 21
881.7848525356
 31
0.0
  0
CIRCLE
  5
B1
330
1F
100
AcDbEntity
  8
0
  6
Continuous
 62
     7
370
    15
100
AcDbCircle
 10
144.4147580211
 20
927.6368171021
 30
0.0
 40
6.34766310537168
  0
CIRCLE
  5
B2
330
1F
100
AcDbEntity
  8
0
  6
Continuous
 62
     7
370
    15
100
AcDbCircle
 10
914.4147580211
 20
927.6368171021
 30
0.0
 40
6.34766310537168
  0
LINE
  5
B3
330
1F
100
AcDbEntity
  8
0
  6
Continuous
 62
     7
370
    15
100
AcDbLine
 10
961.7933486476
 20
934.3826732944
 30
0.0
 11
963.1528113856
 21
933.7487182926
 31
0.0
  0
LINE
  5
B4
330
1F
100
AcDbEntity
  8
0
  6
Continuous
 62
     7
370
    15
100
AcDbLine
 10
947.3397587314
 20
903.386946709
 30
0.0
 11
961.7933486476
 21
934.3826732944
 31
0.0
  0
LINE
  5
B5
330
1F
100
AcDbEntity
  8
0
  6
Continuous
 62
     7
370
    15
100
AcDbLine
 10
948.6992214694
 20
902.7529917072
 30
0.0
 11
947.3397587314
 21
903.386946709
 31
0.0
  0
ARC
  5
B6
330
1F
100
AcDbEntity
  8
0
  6
Continuous
 62
     7
370
    15
100
AcDbCircle
 10
940.3612134696
 20
906.6410907855
 30
0.0
 40
9.200000000000102
100
AcDbArc
 50
295.0
 51
335.0
  0
LINE
  5
B7
330
1F
100
AcDbEntity
  8
0
  6
Continuous
 62
     7
370
    15
100
AcDbLine
 10
943.6153625026
 20
899.6625504802
 30
0.0
 11
944.2493175044
 21
898.3030877422
 31
0.0
  0
LINE
  5
B8
330
1F
100
AcDbEntity
  8
0
  6
Continuous
 62
     7
370
    15
100
AcDbLine
 10
964.4087408557
 20
758.5248909305
 30
0.0
 11
963.0492781177
 21
757.8909955333
 31
0.0
  0
ARC
  5
B9
330
1F
100
AcDbEntity
  8
0
  6
Continuous
 62
     7
370
    15
100
AcDbCircle
 10
956.0706798388
 20
754.6368171021
 30
0.0
 40
9.199999999999946
100
AcDbArc
 50
335.0
 51
25.0
  0
LINE
  5
BA
330
1F
100
AcDbEntity
  8
0
  6
Continuous
 62
     7
370
    15
100
AcDbLine
 10
963.0492781177
 20
751.382645161
 30
0.0
 11
964.4087408557
 21
750.7487497638
 31
0.0
  0
LINE
  5
BB
330
1F
100
AcDbEntity
  8
0
  6
Continuous
 62
     7
370
    15
100
AcDbLine
 10
942.4384687915
 20
707.1826420139
 30
0.0
 11
963.0492781177
 21
751.382645161
 31
0.0
  0
LINE
  5
BC
330
1F
100
AcDbEntity
  8
0
  6
Continuous
 62
     7
370
    15
100
AcDbLine
 10
943.7979315295
 20
706.5487168144
 30
0.0
 11
942.4384687915
 21
707.1826420139
 31
0.0
  0
ARC
  5
BD
330
1F
100
AcDbEntity
  8
0
  6
Continuous
 62
     7
370
    15
100
AcDbCircle
 10
935.4598813484
 20
710.4368171021
 30
0.0
 40
9.199999999999951
100
AcDbArc
 50
270.0
 51
335.0
  0
LINE
  5
BE
330
1F
100
AcDbEntity
  8
0
  6
Continuous
 62
     7
370
    15
100
AcDbLine
 10
935.4598973765
 20
702.7368209671
 30
0.0
 11
935.4598973765
 21
701.2368104766
 31
0.0
  0
LINE
  5
BF
330
1F
100
AcDbEntity
  8
0
  6
Continuous
 62
     7
370
    15
100
AcDbLine
 10
871.6558669581
 20
702.7368209671
 30
0.0
 11
935.4598973765
 21
702.7368209671
 31
0.0
  0
LINE
  5
C0
330
1F
100
AcDbEntity
  8
0
  6
Continuous
 62
     7
370
    15
100
AcDbLine
 10
871.6558669581
 20
221.9368162911
 30
0.0
 11
871.6558669581
 21
702.7368209671
 31
0.0
  0
LINE
  5
C1
330
1F
100
AcDbEntity
  8
0
  6
Continuous
 62
     7
370
    15
100
AcDbLine
 10
130.967535533
 20
221.9368162911
 30
0.0
 11
871.6558669581
 21
221.9368162911
 31
0.0
  0
LINE
  5
C2
330
1F
100
AcDbEntity
  8
0
  6
Continuous
 62
     7
370
    15
100
AcDbLine
 10
130.967535533
 20
702.7368209671
 30
0.0
 11
130.967535533
 21
221.9368162911
 31
0.0
  0
LINE
  5
C3
330
1F
100
AcDbEntity
  8
0
  6
Continuous
 62
     7
370
    15
100
AcDbLine
 10
69.1675362065
 20
702.7368209671
 30
0.0
 11
130.967535533
 21
702.7368209671
 31
0.0
  0
LINE
  5
C4
330
1F
100
AcDbEntity
  8
0
  6
Continuous
 62
     7
370
    15
100
AcDbLine
 10
69.1675362065
 20
945.3368149112
 30
0.0
 11
69.1675362065
 21
702.7368209671
 31
0.0
  0
LINE
  5
C5
330
1F
100
AcDbEntity
  8
0
  6
Continuous
 62
     7
370
    15
100
AcDbLine
 10
954.8147772327
 20
945.3368149112
 30
0.0
 11
69.1675362065
 21
945.3368149112
 31
0.0
  0
LINE
  5
C6
330
1F
100
AcDbEntity
  8
0
  6
Continuous
 62
     7
370
    15
100
AcDbLine
 10
954.8147772327
 20
946.8368254016
 30
0.0
 11
954.8147772327
 21
945.3368149112
 31
0.0
  0
ARC
  5
C7
330
1F
100
AcDbEntity
  8
0
  6
Continuous
 62
     7
370
    15
100
AcDbCircle
 10
954.8147580211
 20
937.6368171021
 30
0.0
 40
9.199999999999738
100
AcDbArc
 50
335.0
 51
90.0
  0
CIRCLE
  5
C8
330
1F
100
AcDbEntity
  8
0
  6
Continuous
 62
     7
370
    15
100
AcDbCircle
 10
534.4147580211
 20
927.6368171021
 30
0.0
 40
6.34766310537168
  0
LWPOLYLINE
  5
C9
330
1F
100
AcDbEntity
  8
0
  6
Continuous
 62
     7
370
    15
100
AcDbPolyline
 90
        9
 70
   128
 43
0.0
 10
964.4087408557
 20
750.7487497638
 10
964.570448257
 20
750.6732902835
 10
964.7146318927
 20
750.6060562442
 10
964.8395632281
 20
750.547792704
 10
964.9438713565
 20
750.4991851161
 10
965.0261853709
 20
750.4607997249
 10
965.0857304111
 20
750.4330239604
 10
965.1217316165
 20
750.4162452529
 10
965.1337717547
 20
750.4106424163
  0
LWPOLYLINE
  5
CA
330
1F
100
AcDbEntity
  8
0
  6
Continuous
 62
     7
370
    15
100
AcDbPolyline
 90
        9
 70
   128
 43
0.0
 10
944.5229624286
 20
706.2106392692
 10
944.5109222903
 20
706.2162421058
 10
944.4749210849
 20
706.2330208133
 10
944.4154356494
 20
706.2607965778
 10
944.3330620303
 20
706.299181969
 10
944.2288135066
 20
706.3478193592
 10
944.1038821712
 20
706.4060530971
 10
943.9596985354
 20
706.4732871364
 10
943.7979315295
 20
706.5487168144
  0
SPLINE
  5
CB
330
1F
100
AcDbEntity
  8
0
  6
Continuous
 62
     7
370
    15
100
AcDbSpline
210
0.0
220
0.0
230
1.0
 70
     8
 71
     3
 72
    11
 73
     7
 74
     0
 42
0.00000001
 43
0.00000001
 12
1.0
 22
0.0
 32
0.0
 13
1.0
 23
0.0
 33
0.0
 40
0.0
 40
0.0
 40
0.0
 40
0.0
 40
0.2889763911338544
 40
0.5779502832052276
 40
0.8674396069854925
 40
1.0
 40
1.0
 40
1.0
 40
1.0
 10
871.6558669581451
 20
702.7368209670514
 30
0.0
 10
872.0042538835166
 20
702.4235799210672
 30
0.0
 10
872.7010247214162
 20
701.7971005380019
 30
0.0
 10
873.5296339242052
 20
700.857338699507
 30
0.0
 10
873.9139795823185
 20
700.0853052083249
 30
0.0
 10
873.9458735159865
 20
699.6298657787833
 30
0.0
 10
873.9558909907379
 20
699.4868181060284
 30
0.0
  0
LINE
  5
CC
330
1F
100
AcDbEntity
  8
0
  6
Continuous
 62
     7
370
    15
100
AcDbLine
 10
873.9558909907
 20
220.4438875775
 30
0.0
 11
873.9558909907
 21
699.486818106
 31
0.0
  0
SPLINE
  5
CD
330
1F
100
AcDbEntity
  8
0
  6
Continuous
 62
     7
370
    15
100
AcDbSpline
210
0.0
220
0.0
230
1.0
 70
     8
 71
     3
 72
    12
 73
     8
 74
     0
 42
0.00000001
 43
0.00000001
 12
1.0
 22
0.0
 32
0.0
 13
1.0
 23
0.0
 33
0.0
 40
0.0
 40
0.0
 40
0.0
 40
0.0
 40
0.2096786798487272
 40
0.4420427450834492
 40
0.6744289644947851
 40
0.9068152141715008
 40
0.9999999999999999
 40
0.9999999999999999
 40
0.9999999999999999
 40
0.9999999999999999
 10
873.955890990738
 20
220.4438875775069
 30
0.0
 10
873.9315461858164
 20
220.5481734960521
 30
0.0
 10
873.8802226826167
 20
220.7680281505193
 30
0.0
 10
873.4593024375458
 20
221.1039901551036
 30
0.0
 10
872.8075140763608
 20
221.4508955112913
 30
0.0
 10
872.1580732513391
 20
221.7292832796705
 30
0.0
 10
871.7676217887383
 20
221.8906344394148
 30
0.0
 10
871.6558669581452
 20
221.936816291067
 30
0.0
  0
LINE
  5
CE
330
1F
100
AcDbEntity
  8
0
  6
Continuous
 62
     7
370
    15
100
AcDbLine
 10
935.4598973765
 20
701.2368104766
 30
0.0
 11
935.4598973765
 21
700.4368267368
 31
0.0
  0
SPLINE
  5
CF
330
1F
100
AcDbEntity
  8
0
  6
Continuous
 62
     7
370
    15
100
AcDbSpline
210
0.0
220
0.0
230
1.0
 70
     8
 71
     3
 72
    11
 73
     7
 74
     0
 42
0.00000001
 43
0.00000001
 12
1.0
 22
0.0
 32
0.0
 13
1.0
 23
0.0
 33
0.0
 40
0.0
 40
0.0
 40
0.0
 40
0.0
 40
0.2999422511483193
 40
0.5998768377491484
 40
0.9004898376070103
 40
1.0
 40
1.0
 40
1.0
 40
1.0
 10
875.1751039996185
 20
700.436826736781
 30
0.0
 10
874.8230529374148
 20
700.4869340857236
 30
0.0
 10
874.1189598091128
 20
700.5871475031954
 30
0.0
 10
873.0628551100698
 20
701.3408037866718
 30
0.0
 10
872.2393979921328
 20
702.1372431013597
 30
0.0
 10
871.7720867238997
 20
702.6174052118577
 30
0.0
 10
871.6558669581451
 20
702.7368209670514
 30
0.0
  0
LWPOLYLINE
  5
D0
330
1F
100
AcDbEntity
  8
0
  6
Continuous
 62
     7
370
    15
100
AcDbPolyline
 90
        9
 70
   128
 43
0.0
 10
963.1528113856
 20
933.7487182926
 10
963.3145783916
 20
933.6733184169
 10
963.4587024226
 20
933.6060843776
 10
963.5836933627
 20
933.547791035
 10
963.6879418864
 20
933.4992132495
 10
963.7702559009
 20
933.4607682537
 10
963.829800941
 20
933.4330520938
 10
963.8658021464
 20
933.416243584
 10
963.8778422847
 20
933.4106407474
  0
LWPOLYLINE
  5
D1
330
1F
100
AcDbEntity
  8
0
  6
Continuous
 62
     7
370
    15
100
AcDbPolyline
 90
        9
 70
   128
 43
0.0
 10
949.4243119731
 20
902.414914162
 10
949.4122718349
 20
902.4205169986
 10
949.3762706294
 20
902.4373255084
 10
949.3167255893
 20
902.4650416683
 10
949.2343519702
 20
902.5034866641
 10
949.1301034465
 20
902.5520644496
 10
949.005172111
 20
902.6103577922
 10
948.8609884753
 20
902.6775918315
 10
948.6992214694
 20
902.7529917072
  0
SPLINE
  5
D2
330
1F
100
AcDbEntity
  8
0
  6
Continuous
 62
     7
370
    15
100
AcDbSpline
210
0.0
220
0.0
230
1.0
 70
     8
 71
     3
 72
    12
 73
     8
 74
     0
 42
0.00000001
 43
0.00000001
 12
1.0
 22
0.0
 32
0.0
 13
1.0
 23
0.0
 33
0.0
 40
0.0
 40
0.0
 40
0.0
 40
0.0
 40
0.2096810200808306
 40
0.4420429654299982
 40
0.6744335270779647
 40
0.906821258591696
 40
1.0
 40
1.0
 40
1.0
 40
1.0
 10
871.6558669581451
 20
221.936816291067
 30
0.0
 10
871.7601492508455
 20
221.6844859462804
 30
0.0
 10
871.9799939172318
 20
221.1525310090406
 30
0.0
 10
872.3159407539221
 20
220.431141558643
 30
0.0
 10
872.662854283163
 20
219.887793144656
 30
0.0
 10
872.9412317847721
 20
219.6591680382879
 30
0.0
 10
873.102600086483
 20
219.6417901195172
 30
0.0
 10
873.1487844958344
 20
219.6368164728611
 30
0.0
  0
SPLINE
  5
D3
330
1F
100
AcDbEntity
  8
0
  6
Continuous
 62
     7
370
    15
100
AcDbSpline
210
0.0
220
0.0
230
1.0
 70
     8
 71
     3
 72
    11
 73
     7
 74
     0
 42
0.00000001
 43
0.00000001
 12
1.0
 22
0.0
 32
0.0
 13
1.0
 23
0.0
 33
0.0
 40
0.0
 40
0.0
 40
0.0
 40
0.0
 40
0.2543231140159932
 40
0.5088734848285255
 40
0.7634110089288849
 40
1.0
 40
1.0
 40
1.0
 40
1.0
 10
871.6558669581451
 20
221.936816291067
 30
0.0
 10
871.7824461069819
 20
221.7368402463738
 30
0.0
 10
872.035717512628
 20
221.3367094633778
 30
0.0
 10
872.4156972763255
 20
220.8351059540856
 30
0.0
 10
872.78686939591
 20
220.4990190934287
 30
0.0
 10
873.0311215800245
 20
220.4570396266571
 30
0.0
 10
873.1487844958343
 20
220.4368169765204
 30
0.0
  0
LINE
  5
D4
330
1F
100
AcDbEntity
  8
0
  6
Continuous
 62
     7
370
    15
100
AcDbLine
 10
873.1487844958
 20
219.6368164729
 30
0.0
 11
873.1487844958
 21
220.4368169765
 31
0.0
  0
LINE
  5
D5
330
1F
100
AcDbEntity
  8
0
  6
Continuous
 62
     7
370
    15
100
AcDbLine
 10
873.9558909907
 20
220.4438875775
 30
0.0
 11
873.1558774486
 21
220.4438875775
 31
0.0
  0
SPLINE
  5
D6
330
1F
100
AcDbEntity
  8
0
  6
Continuous
 62
     7
370
    15
100
AcDbSpline
210
0.0
220
0.0
230
1.0
 70
     8
 71
     3
 72
    11
 73
     7
 74
     0
 42
0.00000001
 43
0.00000001
 12
1.0
 22
0.0
 32
0.0
 13
1.0
 23
0.0
 33
0.0
 40
0.0
 40
0.0
 40
0.0
 40
0.0
 40
0.2543208093918657
 40
0.5088689361341581
 40
0.7634177676135078
 40
1.0
 40
1.0
 40
1.0
 40
1.0
 10
873.1558774485626
 20
220.4438875775069
 30
0.0
 10
873.1325288749883
 20
220.5704688892743
 30
0.0
 10
873.0858108583888
 20
220.8237446538788
 30
0.0
 10
872.7268779878983
 20
221.2036875567319
 30
0.0
 10
872.2276631696662
 20
221.5749078481204
 30
0.0
 10
871.8417599806974
 20
221.8191585434447
 30
0.0
 10
871.6558669581451
 20
221.936816291067
 30
0.0
  0
LINE
  5
D7
330
1F
100
AcDbEntity
  8
0
  6
Continuous
 62
     7
370
    15
100
AcDbLine
 10
873.1487844958
 20
219.6368164729
 30
0.0
 11
129.4746065866
 21
219.6368164729
 31
0.0
  0
SPLINE
  5
D8
330
1F
100
AcDbEntity
  8
0
  6
Continuous
 62
     7
370
    15
100
AcDbSpline
210
0.0
220
0.0
230
1.0
 70
     8
 71
     3
 72
    12
 73
     8
 74
     0
 42
0.00000001
 43
0.00000001
 12
1.0
 22
0.0
 32
0.0
 13
1.0
 23
0.0
 33
0.0
 40
0.0
 40
0.0
 40
0.0
 40
0.0
 40
0.2096792259336918
 40
0.442044516544791
 40
0.6744328330573442
 40
0.9068209741546308
 40
1.0
 40
1.0
 40
1.0
 40
1.0
 10
129.4746065865644
 20
219.6368164728611
 30
0.0
 10
129.5788925321516
 20
219.6611573444244
 30
0.0
 10
129.7987475520957
 20
219.7124726273503
 30
0.0
 10
130.1347085675788
 20
220.133398883
 30
0.0
 10
130.4816168959215
 20
220.7851905191876
 30
0.0
 10
130.7599921768953
 20
221.4346306967886
 30
0.0
 10
130.9213531722044
 20
221.8250704047178
 30
0.0
 10
130.9675355329551
 20
221.936816291067
 30
0.0
  0
CIRCLE
  5
D9
330
1F
100
AcDbEntity
  8
0
  6
Continuous
 62
     7
370
    15
100
AcDbCircle
 10
534.4147580211
 20
927.6368171021
 30
0.0
 40
4.700000000000045
  0
CIRCLE
  5
DA
330
1F
100
AcDbEntity
  8
0
  6
Continuous
 62
     7
370
    15
100
AcDbCircle
 10
914.4147580211
 20
927.6368171021
 30
0.0
 40
4.700000000000045
  0
SPLINE
  5
DB
330
1F
100
AcDbEntity
  8
0
  6
Continuous
 62
     7
370
    15
100
AcDbSpline
210
0.0
220
0.0
230
1.0
 70
     8
 71
     3
 72
    11
 73
     7
 74
     0
 42
0.00000001
 43
0.00000001
 12
1.0
 22
0.0
 32
0.0
 13
1.0
 23
0.0
 33
0.0
 40
0.0
 40
0.0
 40
0.0
 40
0.0
 40
0.2889754336017212
 40
0.5779517496042034
 40
0.8674419091966842
 40
1.0
 40
1.0
 40
1.0
 40
1.0
 10
130.9675355329551
 20
702.7368209670514
 30
0.0
 10
130.6542936353624
 20
702.3884354404855
 30
0.0
 10
130.0278088836771
 20
701.6916633235415
 30
0.0
 10
129.0880682000083
 20
700.8630294519613
 30
0.0
 10
128.3160167272711
 20
700.4786431054526
 30
0.0
 10
127.8605803188496
 20
700.4468213898956
 30
0.0
 10
127.7175355823153
 20
700.436826736781
 30
0.0
  0
LINE
  5
DC
330
1F
100
AcDbEntity
  8
0
  6
Continuous
 62
     7
370
    15
100
AcDbLine
 10
67.6746074929
 20
700.4368267368
 30
0.0
 11
127.7175355823
 21
700.4368267368
 31
0.0
  0
SPLINE
  5
DD
330
1F
100
AcDbEntity
  8
0
  6
Continuous
 62
     7
370
    15
100
AcDbSpline
210
0.0
220
0.0
230
1.0
 70
     8
 71
     3
 72
    12
 73
     8
 74
     0
 42
0.00000001
 43
0.00000001
 12
1.0
 22
0.0
 32
0.0
 13
1.0
 23
0.0
 33
0.0
 40
0.0
 40
0.0
 40
0.0
 40
0.0
 40
0.209678103878322
 40
0.4420426313706439
 40
0.6744351160499539
 40
0.9068218280437553
 40
0.9999999999999999
 40
0.9999999999999999
 40
0.9999999999999999
 40
0.9999999999999999
 10
67.67460749292754
 20
700.436826736781
 30
0.0
 10
67.77889361492146
 20
700.46115953787
 30
0.0
 10
67.99874924566673
 20
700.5124578624113
 30
0.0
 10
68.33471175438844
 20
700.933387450219
 30
0.0
 10
68.68161410221984
 20
701.5852004546599
 30
0.0
 10
68.95998912133084
 20
702.2346400111792
 30
0.0
 10
69.121353093199
 20
702.6250762997681
 30
0.0
 10
69.16753620648764
 20
702.7368209670514
 30
0.0
  0
SPLINE
  5
DE
330
1F
100
AcDbEntity
  8
0
  6
Continuous
 62
     7
370
    15
100
AcDbSpline
210
0.0
220
0.0
230
1.0
 70
     8
 71
     3
 72
    12
 73
     8
 74
     0
 42
0.00000001
 43
0.00000001
 12
1.0
 22
0.0
 32
0.0
 13
1.0
 23
0.0
 33
0.0
 40
0.0
 40
0.0
 40
0.0
 40
0.0
 40
0.2096823031476713
 40
0.4420473444876294
 40
0.6744323704540258
 40
0.90682187718314
 40
1.0
 40
1.0
 40
1.0
 40
1.0
 10
69.16753620648764
 20
945.3368149112196
 30
0.0
 10
69.06325072651742
 20
945.5891452114939
 30
0.0
 10
68.84339850819748
 20
946.121102069539
 30
0.0
 10
68.50743310495066
 20
946.842498919462
 30
0.0
 10
68.16052292535751
 20
947.3858070209341
 30
0.0
 10
67.88214983436657
 20
947.6144683370409
 30
0.0
 10
67.72078922891217
 20
947.6318610995393
 30
0.0
 10
67.67460749292754
 20
947.6368389438122
 30
0.0
  0
LINE
  5
DF
330
1F
100
AcDbEntity
  8
0
  6
Continuous
 62
     7
370
    15
100
AcDbLine
 10
67.6746074929
 20
947.6368389438
 30
0.0
 11
71.064781852
 21
947.6368389438
 31
0.0
  0
LINE
  5
E0
330
1F
100
AcDbEntity
  8
0
  6
Continuous
 62
     7
370
    15
100
AcDbLine
 10
81.8147812858
 20
947.6368389438
 30
0.0
 11
144.0647807791
 21
947.6368389438
 31
0.0
  0
LINE
  5
E1
330
1F
100
AcDbEntity
  8
0
  6
Continuous
 62
     7
370
    15
100
AcDbLine
 10
954.8147772327
 20
947.6368389438
 30
0.0
 11
954.8147772327
 21
946.8368254016
 31
0.0
  0
SPLINE
  5
E2
330
1F
100
AcDbEntity
  8
0
  6
Continuous
 62
     7
370
    15
100
AcDbSpline
210
0.0
220
0.0
230
1.0
 70
     8
 71
     3
 72
    11
 73
     7
 74
     0
 42
0.00000001
 43
0.00000001
 12
1.0
 22
0.0
 32
0.0
 13
1.0
 23
0.0
 33
0.0
 40
0.0
 40
0.0
 40
0.0
 40
0.0
 40
0.2543304566064274
 40
0.5088651641083919
 40
0.7634146026197952
 40
1.0
 40
1.0
 40
1.0
 40
1.0
 10
69.16753620648764
 20
945.3368149112194
 30
0.0
 10
69.04095744359601
 20
945.5368042167536
 30
0.0
 10
68.78769826335107
 20
945.9369434377436
 30
0.0
 10
68.40772188694267
 20
946.4385191548441
 30
0.0
 10
68.03651527362808
 20
946.7746427503564
 30
0.0
 10
67.7922654776823
 20
946.8166095184023
 30
0.0
 10
67.67460749292754
 20
946.8368254016369
 30
0.0
  0
LINE
  5
E3
330
1F
100
AcDbEntity
  8
0
  6
Continuous
 62
     7
370
    15
100
AcDbLine
 10
67.6746074929
 20
947.6368389438
 30
0.0
 11
67.6746074929
 21
946.8368254016
 31
0.0
  0
LINE
  5
E4
330
1F
100
AcDbEntity
  8
0
  6
Continuous
 62
     7
370
    15
100
AcDbLine
 10
67.6746074929
 20
700.4368267368
 30
0.0
 11
67.6746074929
 21
701.2368104766
 31
0.0
  0
SPLINE
  5
E5
330
1F
100
AcDbEntity
  8
0
  6
Continuous
 62
     7
370
    15
100
AcDbSpline
210
0.0
220
0.0
230
1.0
 70
     8
 71
     3
 72
    11
 73
     7
 74
     0
 42
0.00000001
 43
0.00000001
 12
1.0
 22
0.0
 32
0.0
 13
1.0
 23
0.0
 33
0.0
 40
0.0
 40
0.0
 40
0.0
 40
0.0
 40
0.2543201221204593
 40
0.5088682828194911
 40
0.7634084542509209
 40
0.9999999999999999
 40
0.9999999999999999
 40
0.9999999999999999
 40
0.9999999999999999
 10
67.67460749292754
 20
701.2368104766339
 30
0.0
 10
67.8011882482783
 20
701.2601587586918
 30
0.0
 10
68.05446325882913
 20
701.3068762582684
 30
0.0
 10
68.43439972144245
 20
701.6658105072949
 30
0.0
 10
68.80563864941574
 20
702.1650015631806
 30
0.0
 10
69.04987897771392
 20
702.5509156325064
 30
0.0
 10
69.16753620648764
 20
702.7368209670514
 30
0.0
  0
SPLINE
  5
E6
330
1F
100
AcDbEntity
  8
0
  6
Continuous
 62
     7
370
    15
100
AcDbSpline
210
0.0
220
0.0
230
1.0
 70
     8
 71
     3
 72
    12
 73
     8
 74
     0
 42
0.00000001
 43
0.00000001
 12
1.0
 22
0.0
 32
0.0
 13
1.0
 23
0.0
 33
0.0
 40
0.0
 40
0.0
 40
0.0
 40
0.0
 40
0.2096818826884196
 40
0.4420451784117447
 40
0.6744350707564716
 40
0.9068219404488793
 40
1.0
 40
1.0
 40
1.0
 40
1.0
 10
130.9675355329551
 20
221.936816291067
 30
0.0
 10
130.7152046115867
 20
221.8325317086725
 30
0.0
 10
130.1832479841233
 20
221.612682019042
 30
0.0
 10
129.4618634902444
 20
221.2767118568675
 30
0.0
 10
128.9185112280777
 20
220.9298085016918
 30
0.0
 10
128.689886155723
 20
220.6514315700801
 30
0.0
 10
128.6725090107209
 20
220.4900699543274
 30
0.0
 10
128.667535598334
 20
220.4438875775069
 30
0.0
  0
LINE
  5
E7
330
1F
100
AcDbEntity
  8
0
  6
Continuous
 62
     7
370
    15
100
AcDbLine
 10
128.6675355983
 20
699.486818106
 30
0.0
 11
128.6675355983
 21
220.4438875775
 31
0.0
  0
SPLINE
  5
E8
330
1F
100
AcDbEntity
  8
0
  6
Continuous
 62
     7
370
    15
100
AcDbSpline
210
0.0
220
0.0
230
1.0
 70
     8
 71
     3
 72
    11
 73
     7
 74
     0
 42
0.00000001
 43
0.00000001
 12
1.0
 22
0.0
 32
0.0
 13
1.0
 23
0.0
 33
0.0
 40
0.0
 40
0.0
 40
0.0
 40
0.0
 40
0.2889750182547157
 40
0.577952336667088
 40
0.8674404574100973
 40
1.0
 40
1.0
 40
1.0
 40
1.0
 10
128.667535598334
 20
699.4868181060284
 30
0.0
 10
128.7139957132107
 20
699.8000608977629
 30
0.0
 10
128.8069163127732
 20
700.4265489745543
 30
0.0
 10
129.5092487389493
 20
701.3662899928328
 30
0.0
 10
130.3015577055972
 20
702.1383334824262
 30
0.0
 10
130.8083567209476
 20
702.5937733716354
 30
0.0
 10
130.9675355329551
 20
702.7368209670514
 30
0.0
  0
SPLINE
  5
E9
330
1F
100
AcDbEntity
  8
0
  6
Continuous
 62
     7
370
    15
100
AcDbSpline
210
0.0
220
0.0
230
1.0
 70
     8
 71
     3
 72
    12
 73
     8
 74
     0
 42
0.00000001
 43
0.00000001
 12
1.0
 22
0.0
 32
0.0
 13
1.0
 23
0.0
 33
0.0
 40
0.0
 40
0.0
 40
0.0
 40
0.0
 40
0.2096807717770342
 40
0.4420448965434011
 40
0.6744346998279278
 40
0.9068215304421693
 40
1.0
 40
1.0
 40
1.0
 40
1.0
 10
69.16753620648764
 20
702.7368209670514
 30
0.0
 10
68.91520432373682
 20
702.632541205732
 30
0.0
 10
68.38324319034412
 20
702.4127006551972
 30
0.0
 10
67.66186584144901
 20
702.076709480406
 30
0.0
 10
67.11850912531541
 20
701.7298065683619
 30
0.0
 10
66.88988958349485
 20
701.4514259704736
 30
0.0
 10
66.87250895207275
 20
701.2900579791719
 30
0.0
 10
66.86753452563666
 20
701.2438736270398
 30
0.0
  0
LINE
  5
EA
330
1F
100
AcDbEntity
  8
0
  6
Continuous
 62
     7
370
    15
100
AcDbLine
 10
66.8675345256
 20
946.8297324489
 30
0.0
 11
66.8675345256
 21
701.243873627
 31
0.0
  0
SPLINE
  5
EB
330
1F
100
AcDbEntity
  8
0
  6
Continuous
 62
     7
370
    15
100
AcDbSpline
210
0.0
220
0.0
230
1.0
 70
     8
 71
     3
 72
    12
 73
     8
 74
     0
 42
0.00000001
 43
0.00000001
 12
1.0
 22
0.0
 32
0.0
 13
1.0
 23
0.0
 33
0.0
 40
0.0
 40
0.0
 40
0.0
 40
0.0
 40
0.2096784156359408
 40
0.4420420764625878
 40
0.6744314537545775
 40
0.9068203388507643
 40
1.0
 40
1.0
 40
1.0
 40
1.0
 10
66.86753452563666
 20
946.8297324489087
 30
0.0
 10
66.89187612285325
 20
946.7254495228021
 30
0.0
 10
66.94319285064037
 20
946.5056012324773
 30
0.0
 10
67.364119507552
 20
946.1696620982722
 30
0.0
 10
68.0159100307336
 20
945.8227426161981
 30
0.0
 10
68.6653518735691
 20
945.544367025478
 30
0.0
 10
69.05579037653663
 20
945.3829993135307
 30
0.0
 10
69.16753620648764
 20
945.3368149112196
 30
0.0
  0
LINE
  5
EC
330
1F
100
AcDbEntity
  8
0
  6
Continuous
 62
     7
370
    15
100
AcDbLine
 10
129.4746065866
 20
219.6368164729
 30
0.0
 11
129.4746065866
 21
220.4368169765
 31
0.0
  0
SPLINE
  5
ED
330
1F
100
AcDbEntity
  8
0
  6
Continuous
 62
     7
370
    15
100
AcDbSpline
210
0.0
220
0.0
230
1.0
 70
     8
 71
     3
 72
    11
 73
     7
 74
     0
 42
0.00000001
 43
0.00000001
 12
1.0
 22
0.0
 32
0.0
 13
1.0
 23
0.0
 33
0.0
 40
0.0
 40
0.0
 40
0.0
 40
0.0
 40
0.2543216720954852
 40
0.5088651553556595
 40
0.7634127481942339
 40
1.0
 40
1.0
 40
1.0
 40
1.0
 10
129.4746065865644
 20
220.4368169765204
 30
0.0
 10
129.6011873767693
 20
220.4601707859163
 30
0.0
 10
129.8544593568642
 20
220.5068987731479
 30
0.0
 10
130.2344091020454
 20
220.8657910649777
 30
0.0
 10
130.6056304304384
 20
221.365009668245
 30
0.0
 10
130.8498777978986
 20
221.7509181877694
 30
0.0
 10
130.9675355329551
 20
221.936816291067
 30
0.0
  0
CIRCLE
  5
EE
330
1F
100
AcDbEntity
  8
0
  6
Continuous
 62
     7
370
    15
100
AcDbCircle
 10
144.4147580211
 20
927.6368171021
 30
0.0
 40
4.700000000000045
  0
LINE
  5
EF
330
1F
100
AcDbEntity
  8
0
  6
Continuous
 62
     7
370
    15
100
AcDbLine
 10
66.8675345256
 20
946.8297324489
 30
0.0
 11
67.6675368919
 21
946.8297324489
 31
0.0
  0
SPLINE
  5
F0
330
1F
100
AcDbEntity
  8
0
  6
Continuous
 62
     7
370
    15
100
AcDbSpline
210
0.0
220
0.0
230
1.0
 70
     8
 71
     3
 72
    11
 73
     7
 74
     0
 42
0.00000001
 43
0.00000001
 12
1.0
 22
0.0
 32
0.0
 13
1.0
 23
0.0
 33
0.0
 40
0.0
 40
0.0
 40
0.0
 40
0.0
 40
0.2543224649367455
 40
0.5088587563203714
 40
0.7634110906162344
 40
1.0
 40
1.0
 40
1.0
 40
1.0
 10
67.66753689194105
 20
946.8297324489087
 30
0.0
 10
67.69088927141264
 20
946.7031477279901
 30
0.0
 10
67.73761366431275
 20
946.4498718576424
 30
0.0
 10
68.09652099840302
 20
946.0699747561215
 30
0.0
 10
68.5957254709601
 20
945.6987225571211
 30
0.0
 10
68.98163752175823
 20
945.454472994894
 30
0.0
 10
69.16753620648764
 20
945.3368149112194
 30
0.0
  0
SPLINE
  5
F1
330
1F
100
AcDbEntity
  8
0
  6
Continuous
 62
     7
370
    15
100
AcDbSpline
210
0.0
220
0.0
230
1.0
 70
     8
 71
     3
 72
    11
 73
     7
 74
     0
 42
0.00000001
 43
0.00000001
 12
1.0
 22
0.0
 32
0.0
 13
1.0
 23
0.0
 33
0.0
 40
0.0
 40
0.0
 40
0.0
 40
0.0
 40
0.2543215538688853
 40
0.5088650578242648
 40
0.7634125647508646
 40
0.9999999999999999
 40
0.9999999999999999
 40
0.9999999999999999
 40
0.9999999999999999
 10
69.16753620648764
 20
702.7368209670514
 30
0.0
 10
68.96756180740682
 20
702.6102380742933
 30
0.0
 10
68.56743848870423
 20
702.3569618180617
 30
0.0
 10
68.06580513969618
 20
701.9770351704097
 30
0.0
 10
67.729744347155
 20
701.6057795355863
 30
0.0
 10
67.6877609536698
 20
701.3615316699429
 30
0.0
 10
67.66753689194105
 20
701.2438736270399
 30
0.0
  0
LINE
  5
F2
330
1F
100
AcDbEntity
  8
0
  6
Continuous
 62
     7
370
    15
100
AcDbLine
 10
66.8675345256
 20
701.243873627
 30
0.0
 11
67.6675368919
 21
701.243873627
 31
0.0
  0
SPLINE
  5
F3
330
1F
100
AcDbEntity
  8
0
  6
Continuous
 62
     7
370
    15
100
AcDbSpline
210
0.0
220
0.0
230
1.0
 70
     8
 71
     3
 72
    11
 73
     7
 74
     0
 42
0.00000001
 43
0.00000001
 12
1.0
 22
0.0
 32
0.0
 13
1.0
 23
0.0
 33
0.0
 40
0.0
 40
0.0
 40
0.0
 40
0.0
 40
0.2543222412747281
 40
0.5088677010416294
 40
0.7634126182044244
 40
1.0
 40
1.0
 40
1.0
 40
1.0
 10
130.9675355329551
 20
221.936816291067
 30
0.0
 10
130.7675604700004
 20
221.810235195572
 30
0.0
 10
130.3674348260874
 20
221.5569619044236
 30
0.0
 10
129.8658116143388
 20
221.1770204555858
 30
0.0
 10
129.5297436789299
 20
220.805790065572
 30
0.0
 10
129.4877598808299
 20
220.5615449178002
 30
0.0
 10
129.4675355199166
 20
220.4438875775069
 30
0.0
  0
LINE
  5
F4
330
1F
100
AcDbEntity
  8
0
  6
Continuous
 62
     7
370
    15
100
AcDbLine
 10
128.6675355983
 20
220.4438875775
 30
0.0
 11
129.4675355199
 21
220.4438875775
 31
0.0
  0
CIRCLE
  5
F5
330
1F
100
AcDbEntity
  8
0
  6
Continuous
 62
     7
370
    15
100
AcDbCircle
 10
534.4147580211
 20
927.6368171021
 30
0.0
 40
2.700000000000045
  0
CIRCLE
  5
F6
330
1F
100
AcDbEntity
  8
0
  6
Continuous
 62
     7
370
    15
100
AcDbCircle
 10
144.4147580211
 20
927.6368171021
 30
0.0
 40
2.700000000000045
  0
CIRCLE
  5
F7
330
1F
100
AcDbEntity
  8
0
  6
Continuous
 62
     7
370
    15
100
AcDbCircle
 10
914.4147580211
 20
927.6368171021
 30
0.0
 40
2.700000000000045
  0
LINE
  5
F8
330
1F
100
AcDbEntity
  8
0
  6
Continuous
 62
     7
370
    15
100
AcDbLine
 10
935.5564569011
 20
701.2373171161
 30
0.0
 11
935.5564569011
 21
701.2368104766
 31
0.0
  0
LINE
  5
F9
330
1F
100
AcDbEntity
  8
0
  6
Continuous
 62
     7
370
    15
100
AcDbLine
 10
935.4598973765
 20
701.2368104766
 30
0.0
 11
935.5564569011
 21
701.2368104766
 31
0.0
  0
LINE
  5
FA
330
1F
100
AcDbEntity
  8
0
  6
Continuous
 62
     7
370
    15
100
AcDbLine
 10
943.7979315295
 20
706.5487168144
 30
0.0
 11
943.7571023479
 21
706.4612171958
 31
0.0
  0
LINE
  5
FB
330
1F
100
AcDbEntity
  8
0
  6
Continuous
 62
     7
370
    15
100
AcDbLine
 10
943.7571023479
 20
706.4612171958
 30
0.0
 11
943.7566255107
 21
706.4614258121
 31
0.0
  0
LWPOLYLINE
  5
FC
330
1F
100
AcDbEntity
  8
0
  6
Continuous
 62
     7
370
    15
100
AcDbPolyline
 90
        3
 70
   128
 43
0.0
 10
129.1432699542
 20
700.7700465034
 10
129.1165253966
 20
700.79746464
 10
129.0071466825
 20
700.8965871643
  0
LINE
  5
FD
330
1F
100
AcDbEntity
  8
0
  6
Continuous
 62
     7
370
    15
100
AcDbLine
 10
873.1558774486
 20
220.4438875775
 30
0.0
 11
873.1558774486
 21
220.9152541469
 31
0.0
  0
LINE
  5
FE
330
1F
100
AcDbEntity
  8
0
  6
Continuous
 62
     7
370
    15
100
AcDbLine
 10
872.8558872714
 20
220.4368169765
 30
0.0
 11
873.1487844958
 21
220.4368169765
 31
0.0
  0
LINE
  5
FF
330
1F
100
AcDbEntity
  8
0
  6
Continuous
 62
     7
370
    15
100
AcDbLine
 10
872.8558872714
 20
220.4368169765
 30
0.0
 11
872.8558872714
 21
221.0292182277
 31
0.0
  0
LINE
  5
100
330
1F
100
AcDbEntity
  8
0
  6
Continuous
 62
     7
370
    15
100
AcDbLine
 10
872.8558872714
 20
220.7373268317
 30
0.0
 11
873.0193232074
 21
220.827871875
 31
0.0
  0
ARC
  5
101
330
1F
100
AcDbEntity
  8
0
  6
Continuous
 62
     7
370
    15
100
AcDbCircle
 10
871.6058653306
 20
223.1868171021
 30
0.0
 40
2.75
100
AcDbArc
 50
328.7095547861
 51
0.0
  0
LINE
  5
102
330
1F
100
AcDbEntity
  8
0
  6
Continuous
 62
     7
370
    15
100
AcDbLine
 10
874.3558381572
 20
229.9368176024
 30
0.0
 11
874.3558381572
 21
223.1868169616
 31
0.0
  0
LINE
  5
103
330
1F
100
AcDbEntity
  8
0
  6
Continuous
 62
     7
370
    15
100
AcDbLine
 10
874.3558381572
 20
231.9368179302
 30
0.0
 11
873.9558909907
 21
231.9368179302
 31
0.0
  0
LINE
  5
104
330
1F
100
AcDbEntity
  8
0
  6
Continuous
 62
     7
370
    15
100
AcDbLine
 10
874.3558381572
 20
231.9368179302
 30
0.0
 11
874.3558381572
 21
229.9368176024
 31
0.0
  0
SPLINE
  5
105
330
1F
100
AcDbEntity
  8
0
  6
Continuous
 62
     7
370
    15
100
AcDbSpline
210
0.0
220
0.0
230
1.0
 70
     8
 71
     3
 72
    12
 73
     8
 74
     0
 42
0.00000001
 43
0.00000001
 12
1.0
 22
0.0
 32
0.0
 13
1.0
 23
0.0
 33
0.0
 40
0.0
 40
0.0
 40
0.0
 40
0.0
 40
0.2028207776046243
 40
0.4049466697235119
 40
0.6098292795960573
 40
0.8226919046576291
 40
1.0
 40
1.0
 40
1.0
 40
1.0
 10
148.5140067412891
 20
208.2868180583447
 30
0.0
 10
148.5112445083504
 20
208.1296762698419
 30
0.0
 10
148.5057295061758
 20
207.8159310772627
 30
0.0
 10
148.4631507461958
 20
207.3955377338085
 30
0.0
 10
148.400751100861
 20
207.068457012576
 30
0.0
 10
148.3270330208787
 20
206.8702455280348
 30
0.0
 10
148.2765220404698
 20
206.8472609242246
 30
0.0
 10
148.2535679712333
 20
206.8368158648938
 30
0.0
  0
LINE
  5
106
330
1F
100
AcDbEntity
  8
0
  6
Continuous
 62
     7
370
    15
100
AcDbLine
 10
148.5140067413
 20
208.2868180583
 30
0.0
 11
154.5115806981
 21
208.2868180583
 31
0.0
  0
SPLINE
  5
107
330
1F
100
AcDbEntity
  8
0
  6
Continuous
 62
     7
370
    15
100
AcDbSpline
210
0.0
220
0.0
230
1.0
 70
     8
 71
     3
 72
    12
 73
     8
 74
     0
 42
0.00000001
 43
0.00000001
 12
1.0
 22
0.0
 32
0.0
 13
1.0
 23
0.0
 33
0.0
 40
0.0
 40
0.0
 40
0.0
 40
0.0
 40
0.2289431198074595
 40
0.4594211056100961
 40
0.6825353697817498
 40
0.8947169785494622
 40
1.0
 40
1.0
 40
1.0
 40
1.0
 10
154.1041419729032
 20
206.8368158648938
 30
0.0
 10
154.1529283220226
 20
206.8541513763575
 30
0.0
 10
154.25082809062
 20
206.8889386189253
 30
0.0
 10
154.377073277417
 20
207.1628071253313
 30
0.0
 10
154.46698802802
 20
207.5598423763132
 30
0.0
 10
154.5070457450127
 20
207.9607196852612
 30
0.0
 10
154.5104512925321
 20
208.2056050181946
 30
0.0
 10
154.5115806981363
 20
208.2868180583447
 30
0.0
  0
LINE
  5
108
330
1F
100
AcDbEntity
  8
0
  6
Continuous
 62
     7
370
    15
100
AcDbLine
 10
154.1041419729
 20
206.8368158649
 30
0.0
 11
148.2535679712
 21
206.8368158649
 31
0.0
  0
LINE
  5
109
330
1F
100
AcDbEntity
  8
0
  6
Continuous
 62
     7
370
    15
100
AcDbLine
 10
148.5346411243
 20
213.6368154894
 30
0.0
 11
154.3852151259
 21
213.6368154894
 31
0.0
  0
LWPOLYLINE
  5
10A
330
1F
100
AcDbEntity
  8
0
  6
Continuous
 62
     7
370
    15
100
AcDbPolyline
 90
        9
 70
   128
 43
0.0
 10
154.3852151259
 20
213.6368154894
 10
154.4098672345
 20
213.6320135902
 10
154.4335731193
 20
213.6177867065
 10
154.4554200842
 20
213.5946861814
 10
154.474569939
 20
213.5635949086
 10
154.4902850761
 20
213.5257087062
 10
154.5019619986
 20
213.4824878882
 10
154.5091518089
 20
213.4355902086
 10
154.5115806981
 20
213.386818708
  0
LINE
  5
10B
330
1F
100
AcDbEntity
  8
0
  6
Continuous
 62
     7
370
    15
100
AcDbLine
 10
154.5115806981
 20
213.386818708
 30
0.0
 11
148.5140067413
 21
213.386818708
 31
0.0
  0
ARC
  5
10C
330
1F
100
AcDbEntity
  8
0
  6
Continuous
 62
     7
370
    15
100
AcDbCircle
 10
149.2867964779
 20
213.4488836865
 30
0.0
 40
0.7752780394981807
100
AcDbArc
 50
165.9714306517
 51
184.5917341869
  0
LINE
  5
10D
330
1F
100
AcDbEntity
  8
0
  6
Continuous
 62
     7
370
    15
100
AcDbLine
 10
148.5140067413
 20
213.386818708
 30
0.0
 11
148.5140067413
 21
208.2868180583
 31
0.0
  0
LINE
  5
10E
330
1F
100
AcDbEntity
  8
0
  6
Continuous
 62
     7
370
    15
100
AcDbLine
 10
154.5115806981
 20
208.2868180583
 30
0.0
 11
154.5115806981
 21
213.386818708
 31
0.0
  0
SPLINE
  5
10F
330
1F
100
AcDbEntity
  8
0
  6
Continuous
 62
     7
370
    15
100
AcDbSpline
210
0.0
220
0.0
230
1.0
 70
     8
 71
     3
 72
    12
 73
     8
 74
     0
 42
0.00000001
 43
0.00000001
 12
1.0
 22
0.0
 32
0.0
 13
1.0
 23
0.0
 33
0.0
 40
0.0
 40
0.0
 40
0.0
 40
0.0
 40
0.1789613442066756
 40
0.392900086959237
 40
0.5976985336341634
 40
0.7987835226441835
 40
1.0
 40
1.0
 40
1.0
 40
1.0
 10
148.0097942873277
 20
207.0868163715332
 30
0.0
 10
148.0354008909219
 20
207.0954277031249
 30
0.0
 10
148.0916188234785
 20
207.1143334223807
 30
0.0
 10
148.1712630643471
 20
207.2778739529392
 30
0.0
 10
148.237570561595
 20
207.5484444309485
 30
0.0
 10
148.2822315634129
 20
207.8965741285402
 30
0.0
 10
148.2879881875364
 20
208.1567084076183
 30
0.0
 10
148.2908674403467
 20
208.2868180583447
 30
0.0
  0
LINE
  5
110
330
1F
100
AcDbEntity
  8
0
  6
Continuous
 62
     7
370
    15
100
AcDbLine
 10
148.2908674403
 20
208.2868180583
 30
0.0
 11
148.5140067413
 21
208.2868180583
 31
0.0
  0
ARC
  5
111
330
1F
100
AcDbEntity
  8
0
  6
Continuous
 62
     7
370
    15
100
AcDbCircle
 10
148.2567236152
 20
207.0837441409
 30
0.0
 40
0.246948439115641
100
AcDbArc
 50
179.2871775563
 51
269.2678228517
  0
LINE
  5
112
330
1F
100
AcDbEntity
  8
0
  6
Continuous
 62
     7
370
    15
100
AcDbLine
 10
148.2908674403
 20
208.2868180583
 30
0.0
 11
148.2908674403
 21
213.386818708
 31
0.0
  0
LINE
  5
113
330
1F
100
AcDbEntity
  8
0
  6
Continuous
 62
     7
370
    15
100
AcDbLine
 10
148.2908674403
 20
213.386818708
 30
0.0
 11
148.5140067413
 21
213.386818708
 31
0.0
  0
ARC
  5
114
330
1F
100
AcDbEntity
  8
0
  6
Continuous
 62
     7
370
    15
100
AcDbCircle
 10
148.5377892752
 20
213.3898945656
 30
0.0
 40
0.2469409918377883
100
AcDbArc
 50
90.7304605452
 51
180.7136855399
  0
LINE
  5
115
330
1F
100
AcDbEntity
  8
0
  6
Continuous
 62
     7
370
    15
100
AcDbLine
 10
148.1274203285
 20
213.386818708
 30
0.0
 11
148.1274203285
 21
208.2868180583
 31
0.0
  0
LINE
  5
116
330
1F
100
AcDbEntity
  8
0
  6
Continuous
 62
     7
370
    15
100
AcDbLine
 10
148.2908674403
 20
213.386818708
 30
0.0
 11
148.1274203285
 21
213.386818708
 31
0.0
  0
LINE
  5
117
330
1F
100
AcDbEntity
  8
0
  6
Continuous
 62
     7
370
    15
100
AcDbLine
 10
147.9766410663
 20
207.0868163715
 30
0.0
 11
148.0097942873
 21
207.0868163715
 31
0.0
  0
LINE
  5
118
330
1F
100
AcDbEntity
  8
0
  6
Continuous
 62
     7
370
    15
100
AcDbLine
 10
147.9766410663
 20
207.7868170451
 30
0.0
 11
147.9766410663
 21
207.0868163715
 31
0.0
  0
LINE
  5
119
330
1F
100
AcDbEntity
  8
0
  6
Continuous
 62
     7
370
    15
100
AcDbLine
 10
148.0097942873
 20
207.7868170451
 30
0.0
 11
147.9766410663
 21
207.7868170451
 31
0.0
  0
SPLINE
  5
11A
330
1F
100
AcDbEntity
  8
0
  6
Continuous
 62
     7
370
    15
100
AcDbSpline
210
0.0
220
0.0
230
1.0
 70
     8
 71
     3
 72
    12
 73
     8
 74
     0
 42
0.00000001
 43
0.00000001
 12
1.0
 22
0.0
 32
0.0
 13
1.0
 23
0.0
 33
0.0
 40
0.0
 40
0.0
 40
0.0
 40
0.0
 40
0.181859314196079
 40
0.3964975241608587
 40
0.6005820277268993
 40
0.8002128268097007
 40
0.9999999999999999
 40
0.9999999999999999
 40
0.9999999999999999
 40
0.9999999999999999
 10
148.0097942873277
 20
207.7868170450657
 30
0.0
 10
148.0206593776176
 20
207.790534152917
 30
0.0
 10
148.0443479163035
 20
207.79863835185
 30
0.0
 10
148.0777019750598
 20
207.8677937763225
 30
0.0
 10
148.1052769757594
 20
207.9806337876919
 30
0.0
 10
148.1238270168876
 20
208.125054254612
 30
0.0
 10
148.1262222453824
 20
208.2328827186419
 30
0.0
 10
148.1274203285017
 20
208.2868180583447
 30
0.0
  0
ARC
  5
11B
330
1F
100
AcDbEntity
  8
0
  6
Continuous
 62
     7
370
    15
100
AcDbCircle
 10
148.3743421634
 20
213.3898945656
 30
0.0
 40
0.2469409918377883
100
AcDbArc
 50
90.7304605452
 51
180.7136855399
  0
LINE
  5
11C
330
1F
100
AcDbEntity
  8
0
  6
Continuous
 62
     7
370
    15
100
AcDbLine
 10
148.3711940124
 20
213.6368154894
 30
0.0
 11
148.5346411243
 21
213.6368154894
 31
0.0
  0
SPLINE
  5
11D
330
1F
100
AcDbEntity
  8
0
  6
Continuous
 62
     7
370
    15
100
AcDbSpline
210
0.0
220
0.0
230
1.0
 70
     8
 71
     3
 72
    13
 73
     9
 74
     0
 42
0.00000001
 43
0.00000001
 12
1.0
 22
0.0
 32
0.0
 13
1.0
 23
0.0
 33
0.0
 40
0.0
 40
0.0
 40
0.0
 40
0.0
 40
0.1695384281190136
 40
0.3386443210798122
 40
0.5184763039178905
 40
0.727720470336999
 40
0.9924568917168007
 40
1.0
 40
1.0
 40
1.0
 40
1.0
 10
147.9766410663166
 20
207.0868163715332
 30
0.0
 10
147.9784130553915
 20
207.0622056255035
 30
0.0
 10
147.9819525127519
 20
207.0130469216452
 30
0.0
 10
148.0088192400812
 20
206.94691272973
 30
0.0
 10
148.0493752384731
 20
206.8912377494449
 30
0.0
 10
148.107728056928
 20
206.8485213035641
 30
0.0
 10
148.1552109091168
 20
206.8369391089677
 30
0.0
 10
148.1818338391764
 20
206.8368191871532
 30
0.0
 10
148.1825713887253
 20
206.8368158648938
 30
0.0
  0
LINE
  5
11E
330
1F
100
AcDbEntity
  8
0
  6
Continuous
 62
     7
370
    15
100
AcDbLine
 10
148.1825713887
 20
206.8368158649
 30
0.0
 11
142.0787242129
 21
206.8368158649
 31
0.0
  0
SPLINE
  5
11F
330
1F
100
AcDbEntity
  8
0
  6
Continuous
 62
     7
370
    15
100
AcDbSpline
210
0.0
220
0.0
230
1.0
 70
     8
 71
     3
 72
    11
 73
     7
 74
     0
 42
0.00000001
 43
0.00000001
 12
1.0
 22
0.0
 32
0.0
 13
1.0
 23
0.0
 33
0.0
 40
0.0
 40
0.0
 40
0.0
 40
0.0
 40
0.2660914723887272
 40
0.5206454891196655
 40
0.7600166155827639
 40
1.0
 40
1.0
 40
1.0
 40
1.0
 10
148.0980482771434
 20
208.0135009597271
 30
0.0
 10
148.0809670076638
 20
208.0026202548798
 30
0.0
 10
148.0475450951794
 20
207.9813306214827
 30
0.0
 10
148.0088889331737
 20
207.9264628542974
 30
0.0
 10
147.9819354873176
 20
207.860649481275
 30
0.0
 10
147.9784073754165
 20
207.8114488044059
 30
0.0
 10
147.9766410663166
 20
207.7868170450657
 30
0.0
  0
LINE
  5
120
330
1F
100
AcDbEntity
  8
0
  6
Continuous
 62
     7
370
    15
100
AcDbLine
 10
142.6437036022
 20
208.0368175517
 30
0.0
 11
148.1825713887
 21
208.0368175517
 31
0.0
  0
LINE
  5
121
330
1F
100
AcDbEntity
  8
0
  6
Continuous
 62
     7
370
    15
100
AcDbLine
 10
154.5115806981
 20
208.2868180583
 30
0.0
 11
154.6352156326
 21
208.2868180583
 31
0.0
  0
LINE
  5
122
330
1F
100
AcDbEntity
  8
0
  6
Continuous
 62
     7
370
    15
100
AcDbLine
 10
148.2535679712
 20
206.8368158649
 30
0.0
 11
148.1825713887
 21
206.8368158649
 31
0.0
  0
LINE
  5
123
330
1F
100
AcDbEntity
  8
0
  6
Continuous
 62
     7
370
    15
100
AcDbLine
 10
154.5831714644
 20
208.0368175517
 30
0.0
 11
157.783352293
 21
208.0368175517
 31
0.0
  0
LINE
  5
124
330
1F
100
AcDbEntity
  8
0
  6
Continuous
 62
     7
370
    15
100
AcDbLine
 10
157.8058660849
 20
206.8368158649
 30
0.0
 11
154.0331453904
 21
206.8368158649
 31
0.0
  0
SPLINE
  5
125
330
1F
100
AcDbEntity
  8
0
  6
Continuous
 62
     7
370
    15
100
AcDbSpline
210
0.0
220
0.0
230
1.0
 70
     8
 71
     3
 72
    13
 73
     9
 74
     0
 42
0.00000001
 43
0.00000001
 12
1.0
 22
0.0
 32
0.0
 13
1.0
 23
0.0
 33
0.0
 40
0.0
 40
0.0
 40
0.0
 40
0.0
 40
0.1695446176028561
 40
0.3386497426668871
 40
0.5184752958077916
 40
0.7277184306062654
 40
0.992452613484257
 40
1.0
 40
1.0
 40
1.0
 40
1.0
 10
158.0183380171098
 20
208.2868180583447
 30
0.0
 10
158.016336089691
 20
208.2622060599109
 30
0.0
 10
158.0123374242374
 20
208.2130458621176
 30
0.0
 10
157.9819285579779
 20
208.146910391067
 30
0.0
 10
157.9358788643785
 20
208.09124130175
 30
0.0
 10
157.8693528309236
 20
208.0485157977967
 30
0.0
 10
157.8148652452913
 20
208.0369406972474
 30
0.0
 10
157.7842022423393
 20
208.0368208731163
 30
0.0
 10
157.7833522930183
 20
208.0368175517052
 30
0.0
  0
LINE
  5
126
330
1F
100
AcDbEntity
  8
0
  6
Continuous
 62
     7
370
    15
100
AcDbLine
 10
157.783352293
 20
208.0368175517
 30
0.0
 11
154.5385797396
 21
208.0368175517
 31
0.0
  0
LINE
  5
127
330
1F
100
AcDbEntity
  8
0
  6
Continuous
 62
     7
370
    15
100
AcDbLine
 10
148.0843932256
 20
208.0368175517
 30
0.0
 11
142.6437036022
 21
208.0368175517
 31
0.0
  0
SPLINE
  5
128
330
1F
100
AcDbEntity
  8
0
  6
Continuous
 62
     7
370
    15
100
AcDbSpline
210
0.0
220
0.0
230
1.0
 70
     8
 71
     3
 72
    13
 73
     9
 74
     0
 42
0.00000001
 43
0.00000001
 12
1.0
 22
0.0
 32
0.0
 13
1.0
 23
0.0
 33
0.0
 40
0.0
 40
0.0
 40
0.0
 40
0.0
 40
0.1695455702285785
 40
0.3386459623614126
 40
0.5184782938326421
 40
0.7277236820481321
 40
0.9924449488427627
 40
1.0
 40
1.0
 40
1.0
 40
1.0
 10
142.5516609921493
 20
208.2868180583447
 30
0.0
 10
142.5524358518118
 20
208.2622063311082
 30
0.0
 10
142.5539835365771
 20
208.2130474999801
 30
0.0
 10
142.565773392053
 20
208.146907724767
 30
0.0
 10
142.5836990799186
 20
208.0912425516983
 30
0.0
 10
142.6097327809699
 20
208.0485167368631
 30
0.0
 10
142.6312163049274
 20
208.0369404391157
 30
0.0
 10
142.643366462835
 20
208.0368208694915
 30
0.0
 10
142.6437036021986
 20
208.0368175517052
 30
0.0
  0
LINE
  5
129
330
1F
100
AcDbEntity
  8
0
  6
Continuous
 62
     7
370
    15
100
AcDbLine
 10
142.6437036022
 20
209.2368155132
 30
0.0
 11
148.1211935058
 21
209.2368155132
 31
0.0
  0
LINE
  5
12A
330
1F
100
AcDbEntity
  8
0
  6
Continuous
 62
     7
370
    15
100
AcDbLine
 10
154.6434187218
 20
209.2368155132
 30
0.0
 11
157.783352293
 21
209.2368155132
 31
0.0
  0
SPLINE
  5
12B
330
1F
100
AcDbEntity
  8
0
  6
Continuous
 62
     7
370
    15
100
AcDbSpline
210
0.0
220
0.0
230
1.0
 70
     8
 71
     3
 72
    13
 73
     9
 74
     0
 42
0.00000001
 43
0.00000001
 12
1.0
 22
0.0
 32
0.0
 13
1.0
 23
0.0
 33
0.0
 40
0.0
 40
0.0
 40
0.0
 40
0.0
 40
0.0075473903926766
 40
0.2722843437919324
 40
0.4815246430982981
 40
0.6613570077433003
 40
0.8304629872853865
 40
1.0
 40
1.0
 40
1.0
 40
1.0
 10
157.7833522930183
 20
209.2368155132264
 30
0.0
 10
157.7842022426145
 20
209.2368134546622
 30
0.0
 10
157.8148655521856
 20
209.2367391886239
 30
0.0
 10
157.8693512222231
 20
209.2250989717794
 30
0.0
 10
157.9358807884668
 20
209.1823998542148
 30
0.0
 10
157.9819275994022
 20
209.1267217017933
 30
0.0
 10
158.0123370524354
 20
209.0605887120478
 30
0.0
 10
158.0163359988991
 20
209.0114295822526
 30
0.0
 10
158.0183380171098
 20
208.9868187318772
 30
0.0
  0
SPLINE
  5
12C
330
1F
100
AcDbEntity
  8
0
  6
Continuous
 62
     7
370
    15
100
AcDbSpline
210
0.0
220
0.0
230
1.0
 70
     8
 71
     3
 72
    13
 73
     9
 74
     0
 42
0.00000001
 43
0.00000001
 12
1.0
 22
0.0
 32
0.0
 13
1.0
 23
0.0
 33
0.0
 40
0.0
 40
0.0
 40
0.0
 40
0.0
 40
0.0075550551078649
 40
0.2722790924318426
 40
0.4815216452186289
 40
0.6613607880008197
 40
0.8304620345913332
 40
1.0
 40
1.0
 40
1.0
 40
1.0
 10
142.6437036021986
 20
209.2368155132264
 30
0.0
 10
142.6433664627268
 20
209.2368134583097
 30
0.0
 10
142.6312161834665
 20
209.2367394004993
 30
0.0
 10
142.6097334117171
 20
209.2250980487394
 30
0.0
 10
142.5836983286214
 20
209.1823986013612
 30
0.0
 10
142.5657737652723
 20
209.1267243688655
 30
0.0
 10
142.5539836802834
 20
209.060587074029
 30
0.0
 10
142.5524358868869
 20
209.0114293110137
 30
0.0
 10
142.5516609921493
 20
208.9868187318772
 30
0.0
  0
LINE
  5
12D
330
1F
100
AcDbEntity
  8
0
  6
Continuous
 62
     7
370
    15
100
AcDbLine
 10
158.0183380171
 20
208.2868180583
 30
0.0
 11
158.0183380171
 21
208.9868187319
 31
0.0
  0
LINE
  5
12E
330
1F
100
AcDbEntity
  8
0
  6
Continuous
 62
     7
370
    15
100
AcDbLine
 10
142.5516609921
 20
208.2868180583
 30
0.0
 11
142.5516609921
 21
208.9868187319
 31
0.0
  0
SPLINE
  5
12F
330
1F
100
AcDbEntity
  8
0
  6
Continuous
 62
     7
370
    15
100
AcDbSpline
210
0.0
220
0.0
230
1.0
 70
     8
 71
     3
 72
    12
 73
     8
 74
     0
 42
0.00000001
 43
0.00000001
 12
1.0
 22
0.0
 32
0.0
 13
1.0
 23
0.0
 33
0.0
 40
0.0
 40
0.0
 40
0.0
 40
0.0
 40
0.2028194993333158
 40
0.4049471519424662
 40
0.6098307646585975
 40
0.822693526915072
 40
1.0
 40
1.0
 40
1.0
 40
1.0
 10
140.9156503974833
 20
207.7868170450657
 30
0.0
 10
140.9302485393172
 20
207.943957444945
 30
0.0
 10
140.9593950266062
 20
208.2577022160119
 30
0.0
 10
141.1856387509354
 20
208.67809731207
 30
0.0
 10
141.521310107057
 20
209.005178520483
 30
0.0
 10
141.9240956988295
 20
209.2033843315632
 30
0.0
 10
142.2079528174831
 20
209.2263700178091
 30
0.0
 10
142.3369473665394
 20
209.2368155132264
 30
0.0
  0
LINE
  5
130
330
1F
100
AcDbEntity
  8
0
  6
Continuous
 62
     7
370
    15
100
AcDbLine
 10
140.9156503975
 20
207.7868170451
 30
0.0
 11
139.1572267636
 21
207.7868170451
 31
0.0
  0
LINE
  5
131
330
1F
100
AcDbEntity
  8
0
  6
Continuous
 62
     7
370
    15
100
AcDbLine
 10
140.6058655008
 20
209.2368155132
 30
0.0
 11
142.3369473665
 21
209.2368155132
 31
0.0
  0
SPLINE
  5
132
330
1F
100
AcDbEntity
  8
0
  6
Continuous
 62
     7
370
    15
100
AcDbSpline
210
0.0
220
0.0
230
1.0
 70
     8
 71
     3
 72
    12
 73
     8
 74
     0
 42
0.00000001
 43
0.00000001
 12
1.0
 22
0.0
 32
0.0
 13
1.0
 23
0.0
 33
0.0
 40
0.0
 40
0.0
 40
0.0
 40
0.0
 40
0.1789614301076281
 40
0.3929005024549209
 40
0.5976983963976288
 40
0.7987827830543589
 40
1.0
 40
1.0
 40
1.0
 40
1.0
 10
142.4084198548832
 20
208.9868187318772
 30
0.0
 10
142.2977809618398
 20
208.9782054950477
 30
0.0
 10
142.0548790324037
 20
208.9592955820232
 30
0.0
 10
141.7107605657971
 20
208.7957633210983
 30
0.0
 10
141.4242709209902
 20
208.5251904514977
 30
0.0
 10
141.2312983749185
 20
208.1770596068965
 30
0.0
 10
141.2064289412325
 20
207.9169265288993
 30
0.0
 10
141.1939901187458
 20
207.7868170450657
 30
0.0
  0
LINE
  5
133
330
1F
100
AcDbEntity
  8
0
  6
Continuous
 62
     7
370
    15
100
AcDbLine
 10
141.1939901187
 20
207.7868170451
 30
0.0
 11
140.9156503975
 21
207.7868170451
 31
0.0
  0
LWPOLYLINE
  5
134
330
1F
100
AcDbEntity
  8
0
  6
Continuous
 62
     7
370
    15
100
AcDbPolyline
 90
        9
 70
   128
 43
0.0
 10
142.4084198549
 20
208.9868187319
 10
142.4070461541
 20
209.0355902325
 10
142.4029790684
 20
209.082487912
 10
142.3963741287
 20
209.1257087301
 10
142.3874855861
 20
209.1635949324
 10
142.3766552358
 20
209.1946862052
 10
142.3642984479
 20
209.2177867304
 10
142.3508911281
 20
209.232013614
 10
142.3369473665
 20
209.2368155132
  0
LINE
  5
135
330
1F
100
AcDbEntity
  8
0
  6
Continuous
 62
     7
370
    15
100
AcDbLine
 10
141.1939901187
 20
207.7868170451
 30
0.0
 11
141.1939901187
 21
202.6868163954
 31
0.0
  0
LINE
  5
136
330
1F
100
AcDbEntity
  8
0
  6
Continuous
 62
     7
370
    15
100
AcDbLine
 10
141.1939901187
 20
202.6868163954
 30
0.0
 11
140.9156503975
 21
202.6868163954
 31
0.0
  0
LINE
  5
137
330
1F
100
AcDbEntity
  8
0
  6
Continuous
 62
     7
370
    15
100
AcDbLine
 10
140.9156503975
 20
202.6868163954
 30
0.0
 11
140.9156503975
 21
207.7868170451
 31
0.0
  0
LWPOLYLINE
  5
138
330
1F
100
AcDbEntity
  8
0
  6
Continuous
 62
     7
370
    15
100
AcDbPolyline
 90
        9
 70
   128
 43
0.0
 10
141.1939901187
 20
202.6868163954
 10
141.1926164179
 20
202.6380448948
 10
141.1885493323
 20
202.5911472152
 10
141.1819443926
 20
202.5479263972
 10
141.1730558499
 20
202.5100401948
 10
141.1622254997
 20
202.478948922
 10
141.1498687118
 20
202.4558483969
 10
141.136461392
 20
202.4416215132
 10
141.1225176304
 20
202.4368158887
  0
ARC
  5
139
330
1F
100
AcDbEntity
  8
0
  6
Continuous
 62
     7
370
    15
100
AcDbCircle
 10
141.1463366489
 20
202.6671135305
 30
0.0
 40
0.2315261312545973
100
AcDbArc
 50
175.1182269323
 51
264.0950590288
  0
LINE
  5
13A
330
1F
100
AcDbEntity
  8
0
  6
Continuous
 62
     7
370
    15
100
AcDbLine
 10
139.1572267636
 20
202.6868163954
 30
0.0
 11
140.9156503975
 21
202.6868163954
 31
0.0
  0
LINE
  5
13B
330
1F
100
AcDbEntity
  8
0
  6
Continuous
 62
     7
370
    15
100
AcDbLine
 10
141.1225176304
 20
202.4368158887
 30
0.0
 11
139.4071937426
 21
202.4368158887
 31
0.0
  0
LINE
  5
13C
330
1F
100
AcDbEntity
  8
0
  6
Continuous
 62
     7
370
    15
100
AcDbLine
 10
141.9001961946
 20
202.6868163954
 30
0.0
 11
141.9001961946
 21
207.7868170451
 31
0.0
  0
LINE
  5
13D
330
1F
100
AcDbEntity
  8
0
  6
Continuous
 62
     7
370
    15
100
AcDbLine
 10
141.1939901187
 20
202.6868163954
 30
0.0
 11
141.9001961946
 21
202.6868163954
 31
0.0
  0
LINE
  5
13E
330
1F
100
AcDbEntity
  8
0
  6
Continuous
 62
     7
370
    15
100
AcDbLine
 10
142.5516609921
 20
208.9868187319
 30
0.0
 11
142.4084198549
 21
208.9868187319
 31
0.0
  0
LINE
  5
13F
330
1F
100
AcDbEntity
  8
0
  6
Continuous
 62
     7
370
    15
100
AcDbLine
 10
142.4084198549
 20
208.2868180583
 30
0.0
 11
142.5516609921
 21
208.2868180583
 31
0.0
  0
SPLINE
  5
140
330
1F
100
AcDbEntity
  8
0
  6
Continuous
 62
     7
370
    15
100
AcDbSpline
210
0.0
220
0.0
230
1.0
 70
     8
 71
     3
 72
    12
 73
     8
 74
     0
 42
0.00000001
 43
0.00000001
 12
1.0
 22
0.0
 32
0.0
 13
1.0
 23
0.0
 33
0.0
 40
0.0
 40
0.0
 40
0.0
 40
0.0
 40
0.1818626147357951
 40
0.3964961589689604
 40
0.6005855652780935
 40
0.8002108081584973
 40
1.0
 40
1.0
 40
1.0
 40
1.0
 10
142.4084198548832
 20
208.2868180583447
 30
0.0
 10
142.361476634183
 20
208.2830993252605
 30
0.0
 10
142.2591312086305
 20
208.2749917579835
 30
0.0
 10
142.1150062986135
 20
208.2058413250066
 30
0.0
 10
141.995875394519
 20
208.0929992955103
 30
0.0
 10
141.9157157786229
 20
207.948578604485
 30
0.0
 10
141.9053708047148
 20
207.8407523181427
 30
0.0
 10
141.9001961945929
 20
207.7868170450657
 30
0.0
  0
LWPOLYLINE
  5
141
330
1F
100
AcDbEntity
  8
0
  6
Continuous
 62
     7
370
    15
100
AcDbPolyline
 90
        9
 70
   128
 43
0.0
 10
141.9001961946
 20
202.6868163954
 10
141.8988224938
 20
202.6380448948
 10
141.8947554081
 20
202.5911472152
 10
141.8881513997
 20
202.5479263972
 10
141.8792628571
 20
202.5100401948
 10
141.8684315755
 20
202.478948922
 10
141.8560757189
 20
202.4558483969
 10
141.8426674678
 20
202.4416215132
 10
141.8287246376
 20
202.4368158887
  0
LINE
  5
142
330
1F
100
AcDbEntity
  8
0
  6
Continuous
 62
     7
370
    15
100
AcDbLine
 10
141.8287246376
 20
202.4368158887
 30
0.0
 11
141.1225176304
 21
202.4368158887
 31
0.0
  0
LWPOLYLINE
  5
143
330
1F
100
AcDbEntity
  8
0
  6
Continuous
 62
     7
370
    15
100
AcDbPolyline
 90
        9
 70
   128
 43
0.0
 10
142.4084198549
 20
208.2868180583
 10
142.4070461541
 20
208.2380428325
 10
142.4029790684
 20
208.1911451529
 10
142.3963741287
 20
208.1479243349
 10
142.3874855861
 20
208.1100418578
 10
142.3766552358
 20
208.078950585
 10
142.3642984479
 20
208.0558463345
 10
142.3508911281
 20
208.0416194509
 10
142.3369473665
 20
208.0368175517
  0
LINE
  5
144
330
1F
100
AcDbEntity
  8
0
  6
Continuous
 62
     7
370
    15
100
AcDbLine
 10
142.6437036022
 20
208.0368175517
 30
0.0
 11
142.3369473665
 21
208.0368175517
 31
0.0
  0
LINE
  5
145
330
1F
100
AcDbEntity
  8
0
  6
Continuous
 62
     7
370
    15
100
AcDbLine
 10
142.3369473665
 20
209.2368155132
 30
0.0
 11
142.6437036022
 21
209.2368155132
 31
0.0
  0
LINE
  5
146
330
1F
100
AcDbEntity
  8
0
  6
Continuous
 62
     7
370
    15
100
AcDbLine
 10
158.0183380171
 20
208.2868180583
 30
0.0
 11
158.1615772917
 21
208.2868180583
 31
0.0
  0
LWPOLYLINE
  5
147
330
1F
100
AcDbEntity
  8
0
  6
Continuous
 62
     7
370
    15
100
AcDbPolyline
 90
        9
 70
   128
 43
0.0
 10
158.0901075974
 20
208.0368175517
 10
158.1040513589
 20
208.0416194509
 10
158.1174586787
 20
208.0558463345
 10
158.1298154666
 20
208.078950585
 10
158.1406448855
 20
208.1100418578
 10
158.1495334282
 20
208.1479243349
 10
158.1561383679
 20
208.1911451529
 10
158.1602063849
 20
208.2380428325
 10
158.1615772917
 20
208.2868180583
  0
LINE
  5
148
330
1F
100
AcDbEntity
  8
0
  6
Continuous
 62
     7
370
    15
100
AcDbLine
 10
158.0901075974
 20
208.0368175517
 30
0.0
 11
157.783352293
 21
208.0368175517
 31
0.0
  0
LWPOLYLINE
  5
149
330
1F
100
AcDbEntity
  8
0
  6
Continuous
 62
     7
370
    15
100
AcDbPolyline
 90
        9
 70
   128
 43
0.0
 10
158.0901075974
 20
209.2368155132
 10
158.1040513589
 20
209.232013614
 10
158.1174586787
 20
209.2177867304
 10
158.1298154666
 20
209.1946862052
 10
158.1406448855
 20
209.1635949324
 10
158.1495334282
 20
209.1257087301
 10
158.1561383679
 20
209.082487912
 10
158.1602063849
 20
209.0355902325
 10
158.1615772917
 20
208.9868187319
  0
LINE
  5
14A
330
1F
100
AcDbEntity
  8
0
  6
Continuous
 62
     7
370
    15
100
AcDbLine
 10
158.1615772917
 20
208.9868187319
 30
0.0
 11
158.0183380171
 21
208.9868187319
 31
0.0
  0
LINE
  5
14B
330
1F
100
AcDbEntity
  8
0
  6
Continuous
 62
     7
370
    15
100
AcDbLine
 10
157.783352293
 20
209.2368155132
 30
0.0
 11
158.0901075974
 21
209.2368155132
 31
0.0
  0
SPLINE
  5
14C
330
1F
100
AcDbEntity
  8
0
  6
Continuous
 62
     7
370
    15
100
AcDbSpline
210
0.0
220
0.0
230
1.0
 70
     8
 71
     3
 72
    12
 73
     8
 74
     0
 42
0.00000001
 43
0.00000001
 12
1.0
 22
0.0
 32
0.0
 13
1.0
 23
0.0
 33
0.0
 40
0.0
 40
0.0
 40
0.0
 40
0.0
 40
0.1044203838572117
 40
0.3151718499768906
 40
0.537746492562171
 40
0.7690276448304133
 40
1.0
 40
1.0
 40
1.0
 40
1.0
 10
159.3760070278682
 20
207.7868170450657
 30
0.0
 10
159.3725782407833
 20
207.8540368801866
 30
0.0
 10
159.3622291391153
 20
208.0569263832471
 30
0.0
 10
159.2402400198591
 20
208.3892827921102
 30
0.0
 10
158.9685715646222
 20
208.7179299268229
 30
0.0
 10
158.5909347214769
 20
208.9439900951103
 30
0.0
 10
158.3046326826319
 20
208.9725488789528
 30
0.0
 10
158.1615772917309
 20
208.9868187318772
 30
0.0
  0
LINE
  5
14D
330
1F
100
AcDbEntity
  8
0
  6
Continuous
 62
     7
370
    15
100
AcDbLine
 10
159.3760070279
 20
202.6868163954
 30
0.0
 11
159.3760070279
 21
207.7868170451
 31
0.0
  0
LINE
  5
14E
330
1F
100
AcDbEntity
  8
0
  6
Continuous
 62
     7
370
    15
100
AcDbLine
 10
158.669803746
 20
202.6868163954
 30
0.0
 11
159.3760070279
 21
202.6868163954
 31
0.0
  0
LINE
  5
14F
330
1F
100
AcDbEntity
  8
0
  6
Continuous
 62
     7
370
    15
100
AcDbLine
 10
158.669803746
 20
207.7868170451
 30
0.0
 11
158.669803746
 21
202.6868163954
 31
0.0
  0
SPLINE
  5
150
330
1F
100
AcDbEntity
  8
0
  6
Continuous
 62
     7
370
    15
100
AcDbSpline
210
0.0
220
0.0
230
1.0
 70
     8
 71
     3
 72
    12
 73
     8
 74
     0
 42
0.00000001
 43
0.00000001
 12
1.0
 22
0.0
 32
0.0
 13
1.0
 23
0.0
 33
0.0
 40
0.0
 40
0.0
 40
0.0
 40
0.0
 40
0.1009222705144716
 40
0.3119738000562108
 40
0.5359618123502725
 40
0.768120243066807
 40
1.0
 40
1.0
 40
1.0
 40
1.0
 10
158.6698037459888
 20
207.7868170450657
 30
0.0
 10
158.6684509453499
 20
207.813938313467
 30
0.0
 10
158.6642691294443
 20
207.8977763516161
 30
0.0
 10
158.6138121674095
 20
208.0362467237279
 30
0.0
 10
158.4998811902756
 20
208.1739677489998
 30
0.0
 10
158.3415128823313
 20
208.2687693677898
 30
0.0
 10
158.2215318040938
 20
208.2808042373024
 30
0.0
 10
158.1615772917309
 20
208.2868180583447
 30
0.0
  0
SPLINE
  5
151
330
1F
100
AcDbEntity
  8
0
  6
Continuous
 62
     7
370
    15
100
AcDbSpline
210
0.0
220
0.0
230
1.0
 70
     8
 71
     3
 72
    12
 73
     8
 74
     0
 42
0.00000001
 43
0.00000001
 12
1.0
 22
0.0
 32
0.0
 13
1.0
 23
0.0
 33
0.0
 40
0.0
 40
0.0
 40
0.0
 40
0.0
 40
0.228943897575715
 40
0.4594208116311707
 40
0.6825347511294478
 40
0.8947169836157258
 40
1.0
 40
1.0
 40
1.0
 40
1.0
 10
158.0901075973549
 20
209.2368155132264
 30
0.0
 10
158.2625739275147
 20
209.2194817992004
 30
0.0
 10
158.6086614285142
 20
209.1846983039828
 30
0.0
 10
159.0638933639352
 20
208.9108272589212
 30
0.0
 10
159.3911061910731
 20
208.5137914973407
 30
0.0
 10
159.5378820169925
 20
208.1129161142684
 30
0.0
 10
159.5503646257218
 20
207.8680301367979
 30
0.0
 10
159.554504312519
 20
207.7868170450657
 30
0.0
  0
LINE
  5
152
330
1F
100
AcDbEntity
  8
0
  6
Continuous
 62
     7
370
    15
100
AcDbLine
 10
159.5545043125
 20
207.7868170451
 30
0.0
 11
159.3760070279
 21
207.7868170451
 31
0.0
  0
SPLINE
  5
153
330
1F
100
AcDbEntity
  8
0
  6
Continuous
 62
     7
370
    15
100
AcDbSpline
210
0.0
220
0.0
230
1.0
 70
     8
 71
     3
 72
    12
 73
     8
 74
     0
 42
0.00000001
 43
0.00000001
 12
1.0
 22
0.0
 32
0.0
 13
1.0
 23
0.0
 33
0.0
 40
0.0
 40
0.0
 40
0.0
 40
0.0
 40
0.2476972865257005
 40
0.4874498025569663
 40
0.7077619995624216
 40
0.9064872875590606
 40
1.0
 40
1.0
 40
1.0
 40
1.0
 10
158.0901075973549
 20
208.0368175517052
 30
0.0
 10
158.1205115673656
 20
208.0338996943975
 30
0.0
 10
158.1803443147751
 20
208.0281575686419
 30
0.0
 10
158.2606104102337
 20
207.9818791961676
 30
0.0
 10
158.3191996411625
 20
207.9133190363015
 30
0.0
 10
158.3456978878106
 20
207.8428414190654
 30
0.0
 10
158.3478470152298
 20
207.8003983321525
 30
0.0
 10
158.3485347106495
 20
207.7868170450657
 30
0.0
  0
LINE
  5
154
330
1F
100
AcDbEntity
  8
0
  6
Continuous
 62
     7
370
    15
100
AcDbLine
 10
158.0901075974
 20
209.2368155132
 30
0.0
 11
158.1058655753
 21
209.2368155132
 31
0.0
  0
LWPOLYLINE
  5
155
330
1F
100
AcDbEntity
  8
0
  6
Continuous
 62
     7
370
    15
100
AcDbPolyline
 90
        9
 70
   128
 43
0.0
 10
158.5983303263
 20
202.4368158887
 10
158.6122740879
 20
202.4416215132
 10
158.6256814077
 20
202.4558483969
 10
158.6380381956
 20
202.478948922
 10
158.6488676145
 20
202.5100401948
 10
158.6577561572
 20
202.5479263972
 10
158.6643610969
 20
202.5911472152
 10
158.6684291139
 20
202.6380448948
 10
158.669803746
 20
202.6868163954
  0
LINE
  5
156
330
1F
100
AcDbEntity
  8
0
  6
Continuous
 62
     7
370
    15
100
AcDbLine
 10
159.3045373335
 20
202.4368158887
 30
0.0
 11
158.5983303263
 21
202.4368158887
 31
0.0
  0
LWPOLYLINE
  5
157
330
1F
100
AcDbEntity
  8
0
  6
Continuous
 62
     7
370
    15
100
AcDbPolyline
 90
        9
 70
   128
 43
0.0
 10
159.3045373335
 20
202.4368158887
 10
159.3184810951
 20
202.4416215132
 10
159.3318884149
 20
202.4558483969
 10
159.3442452028
 20
202.478948922
 10
159.3550746217
 20
202.5100401948
 10
159.3639631643
 20
202.5479263972
 10
159.370568104
 20
202.5911472152
 10
159.374636121
 20
202.6380448948
 10
159.3760070279
 20
202.6868163954
  0
LINE
  5
158
330
1F
100
AcDbEntity
  8
0
  6
Continuous
 62
     7
370
    15
100
AcDbLine
 10
158.5983303263
 20
202.4368158887
 30
0.0
 11
156.8830055072
 21
202.4368158887
 31
0.0
  0
ARC
  5
159
330
1F
100
AcDbEntity
  8
0
  6
Continuous
 62
     7
370
    15
100
AcDbCircle
 10
156.9089573707
 20
202.6657067376
 30
0.0
 40
0.2303573743044301
100
AcDbArc
 50
174.7421108107
 51
263.5313739013
  0
LINE
  5
15A
330
1F
100
AcDbEntity
  8
0
  6
Continuous
 62
     7
370
    15
100
AcDbLine
 10
159.5545043125
 20
207.7868170451
 30
0.0
 11
159.5545043125
 21
202.6868163954
 31
0.0
  0
LINE
  5
15B
330
1F
100
AcDbEntity
  8
0
  6
Continuous
 62
     7
370
    15
100
AcDbLine
 10
159.5545043125
 20
202.6868163954
 30
0.0
 11
159.3760070279
 21
202.6868163954
 31
0.0
  0
ARC
  5
15C
330
1F
100
AcDbEntity
  8
0
  6
Continuous
 62
     7
370
    15
100
AcDbCircle
 10
159.3045159514
 20
202.6868042493
 30
0.0
 40
0.2499883614616127
100
AcDbArc
 50
270.0049006536
 51
0.0027838089
  0
LINE
  5
15D
330
1F
100
AcDbEntity
  8
0
  6
Continuous
 62
     7
370
    15
100
AcDbLine
 10
145.352231793
 20
219.4402347665
 30
0.0
 11
146.5857257023
 21
219.6368164729
 31
0.0
  0
LINE
  5
15E
330
1F
100
AcDbEntity
  8
0
  6
Continuous
 62
     7
370
    15
100
AcDbLine
 10
149.8044920042
 20
219.6368164729
 30
0.0
 11
150.9565734192
 21
219.4402347665
 31
0.0
  0
LINE
  5
15F
330
1F
100
AcDbEntity
  8
0
  6
Continuous
 62
     7
370
    15
100
AcDbLine
 10
150.9565734192
 20
219.4402347665
 30
0.0
 11
150.9565734192
 21
215.1333987127
 31
0.0
  0
SPLINE
  5
160
330
1F
100
AcDbEntity
  8
0
  6
Continuous
 62
     7
370
    15
100
AcDbSpline
210
0.0
220
0.0
230
1.0
 70
     8
 71
     3
 72
     9
 73
     5
 74
     0
 42
0.00000001
 43
0.00000001
 12
1.0
 22
0.0
 32
0.0
 13
1.0
 23
0.0
 33
0.0
 40
0.0
 40
0.0
 40
0.0
 40
0.0
 40
0.0702007384306966
 40
1.0
 40
1.0
 40
1.0
 40
1.0
 10
148.1544026061334
 20
214.6868183623284
 30
0.0
 10
148.220830863834
 20
214.6872640600723
 30
0.0
 10
149.1670923873666
 20
214.6936129639988
 30
0.0
 10
150.0943810787278
 20
214.9215049305296
 30
0.0
 10
150.9565734192171
 20
215.1333987127274
 30
0.0
  0
LINE
  5
161
330
1F
100
AcDbEntity
  8
0
  6
Continuous
 62
     7
370
    15
100
AcDbLine
 10
145.352231793
 20
215.1333987127
 30
0.0
 11
148.1544026061
 21
214.6868183623
 31
0.0
  0
LINE
  5
162
330
1F
100
AcDbEntity
  8
0
  6
Continuous
 62
     7
370
    15
100
AcDbLine
 10
145.352231793
 20
219.4402347665
 30
0.0
 11
145.352231793
 21
215.1333987127
 31
0.0
  0
SPLINE
  5
163
330
1F
100
AcDbEntity
  8
0
  6
Continuous
 62
     7
370
    15
100
AcDbSpline
210
0.0
220
0.0
230
1.0
 70
     8
 71
     3
 72
     9
 73
     5
 74
     0
 42
0.00000001
 43
0.00000001
 12
1.0
 22
0.0
 32
0.0
 13
1.0
 23
0.0
 33
0.0
 40
0.0
 40
0.0
 40
0.0
 40
0.0
 40
0.2686330935773041
 40
1.0
 40
1.0
 40
1.0
 40
1.0
 10
152.9583898260631
 20
214.6868183623284
 30
0.0
 10
152.7763689876143
 20
214.6934464337299
 30
0.0
 10
152.0987873984476
 20
214.7181197579033
 30
0.0
 10
151.4390693600622
 20
214.9579758815727
 30
0.0
 10
150.9565734192171
 20
215.1333987127274
 30
0.0
  0
LINE
  5
164
330
1F
100
AcDbEntity
  8
0
  6
Continuous
 62
     7
370
    15
100
AcDbLine
 10
152.9583898261
 20
214.6868183623
 30
0.0
 11
148.1544026061
 21
214.6868183623
 31
0.0
  0
LINE
  5
165
330
1F
100
AcDbEntity
  8
0
  6
Continuous
 62
     7
370
    15
100
AcDbLine
 10
151.6531971171
 20
219.6368164729
 30
0.0
 11
150.9565734192
 21
219.4402347665
 31
0.0
  0
SPLINE
  5
166
330
1F
100
AcDbEntity
  8
0
  6
Continuous
 62
     7
370
    15
100
AcDbSpline
210
0.0
220
0.0
230
1.0
 70
     8
 71
     3
 72
     9
 73
     5
 74
     0
 42
0.00000001
 43
0.00000001
 12
1.0
 22
0.0
 32
0.0
 13
1.0
 23
0.0
 33
0.0
 40
0.0
 40
0.0
 40
0.0
 40
0.0
 40
0.0702001801416472
 40
1.0
 40
1.0
 40
1.0
 40
1.0
 10
144.5518773868122
 20
214.6868183623284
 30
0.0
 10
144.5708505020873
 20
214.6872640663223
 30
0.0
 10
144.8411221059036
 20
214.6936131097729
 30
0.0
 10
145.1059732484349
 20
214.9215049348362
 30
0.0
 10
145.3522317930498
 20
215.1333987127274
 30
0.0
  0
LINE
  5
167
330
1F
100
AcDbEntity
  8
0
  6
Continuous
 62
     7
370
    15
100
AcDbLine
 10
148.1544026061
 20
214.6868183623
 30
0.0
 11
144.5518773868
 21
214.6868183623
 31
0.0
  0
LINE
  5
168
330
1F
100
AcDbEntity
  8
0
  6
Continuous
 62
     7
370
    15
100
AcDbLine
 10
145.0231750383
 20
219.6368164729
 30
0.0
 11
145.352231793
 21
219.4402347665
 31
0.0
  0
SPLINE
  5
169
330
1F
100
AcDbEntity
  8
0
  6
Continuous
 62
     7
370
    15
100
AcDbSpline
210
0.0
220
0.0
230
1.0
 70
     8
 71
     3
 72
     9
 73
     5
 74
     0
 42
0.00000001
 43
0.00000001
 12
1.0
 22
0.0
 32
0.0
 13
1.0
 23
0.0
 33
0.0
 40
0.0
 40
0.0
 40
0.0
 40
0.0
 40
0.9250472769146778
 40
1.0
 40
1.0
 40
1.0
 40
1.0
 10
154.9602080955543
 20
219.4402347664565
 30
0.0
 10
154.7936039841665
 20
219.5187906640633
 30
0.0
 10
154.6135006364289
 20
219.6037116184483
 30
0.0
 10
154.4263375455829
 20
219.6345081862432
 30
0.0
 10
154.4123091622629
 20
219.6368164728611
 30
0.0
  0
LINE
  5
16A
330
1F
100
AcDbEntity
  8
0
  6
Continuous
 62
     7
370
    15
100
AcDbLine
 10
154.9602080956
 20
219.4402347665
 30
0.0
 11
154.9602080956
 21
215.1333987127
 31
0.0
  0
SPLINE
  5
16B
330
1F
100
AcDbEntity
  8
0
  6
Continuous
 62
     7
370
    15
100
AcDbSpline
210
0.0
220
0.0
230
1.0
 70
     8
 71
     3
 72
     9
 73
     5
 74
     0
 42
0.00000001
 43
0.00000001
 12
1.0
 22
0.0
 32
0.0
 13
1.0
 23
0.0
 33
0.0
 40
0.0
 40
0.0
 40
0.0
 40
0.0
 40
0.2575505057900218
 40
0.9999999999999999
 40
0.9999999999999999
 40
0.9999999999999999
 40
0.9999999999999999
 10
154.9602080955543
 20
215.1333987127274
 30
0.0
 10
154.7921520082214
 20
215.0659833590403
 30
0.0
 10
154.1396349928989
 20
214.8042275007852
 30
0.0
 10
153.4617128087777
 20
214.7368458413185
 30
0.0
 10
152.9583898260631
 20
214.6868183623284
 30
0.0
  0
LINE
  5
16C
330
1F
100
AcDbEntity
  8
0
  6
Continuous
 62
     7
370
    15
100
AcDbLine
 10
143.7515229806
 20
219.4402347665
 30
0.0
 11
144.151727192
 21
219.6635417055
 31
0.0
  0
LINE
  5
16D
330
1F
100
AcDbEntity
  8
0
  6
Continuous
 62
     7
370
    15
100
AcDbLine
 10
143.7515229806
 20
215.1333987127
 30
0.0
 11
144.5518773868
 21
214.6868183623
 31
0.0
  0
LINE
  5
16E
330
1F
100
AcDbEntity
  8
0
  6
Continuous
 62
     7
370
    15
100
AcDbLine
 10
143.7515229806
 20
219.4402347665
 30
0.0
 11
143.7515229806
 21
215.1333987127
 31
0.0
  0
LINE
  5
16F
330
1F
100
AcDbEntity
  8
0
  6
Continuous
 62
     7
370
    15
100
AcDbLine
 10
154.9602080956
 20
215.1333987127
 30
0.0
 11
154.5600020214
 21
214.9100936364
 31
0.0
  0
LINE
  5
170
330
1F
100
AcDbEntity
  8
0
  6
Continuous
 62
     7
370
    15
100
AcDbLine
 10
154.3558654263
 20
214.6868183623
 30
0.0
 11
152.9583898261
 21
214.6868183623
 31
0.0
  0
LINE
  5
171
330
1F
100
AcDbEntity
  8
0
  6
Continuous
 62
     7
370
    15
100
AcDbLine
 10
154.9602080956
 20
219.4402347665
 30
0.0
 11
154.5600020214
 21
219.6635417055
 31
0.0
  0
LINE
  5
172
330
1F
100
AcDbEntity
  8
0
  6
Continuous
 62
     7
370
    15
100
AcDbLine
 10
144.5518773868
 20
214.6868183623
 30
0.0
 11
144.3558656498
 21
214.6868183623
 31
0.0
  0
LINE
  5
173
330
1F
100
AcDbEntity
  8
0
  6
Continuous
 62
     7
370
    15
100
AcDbLine
 10
144.5636474415
 20
206.3902355145
 30
0.0
 11
147.1559763774
 21
206.8368158649
 31
0.0
  0
SPLINE
  5
174
330
1F
100
AcDbEntity
  8
0
  6
Continuous
 62
     7
370
    15
100
AcDbSpline
210
0.0
220
0.0
230
1.0
 70
     8
 71
     3
 72
     9
 73
     5
 74
     0
 42
0.00000001
 43
0.00000001
 12
1.0
 22
0.0
 32
0.0
 13
1.0
 23
0.0
 33
0.0
 40
0.0
 40
0.0
 40
0.0
 40
0.0
 40
0.0702005740977501
 40
1.0
 40
1.0
 40
1.0
 40
1.0
 10
147.1559763773718
 20
206.8368158648938
 30
0.0
 10
147.2174296488583
 20
206.8363701653102
 30
0.0
 10
148.0928252175743
 20
206.8300212203147
 30
0.0
 10
148.9506751116066
 20
206.602129295425
 30
0.0
 10
149.7483034505882
 20
206.3902355144947
 30
0.0
  0
LINE
  5
175
330
1F
100
AcDbEntity
  8
0
  6
Continuous
 62
     7
370
    15
100
AcDbLine
 10
149.7483034506
 20
206.3902355145
 30
0.0
 11
149.7483034506
 21
202.0833975981
 31
0.0
  0
SPLINE
  5
176
330
1F
100
AcDbEntity
  8
0
  6
Continuous
 62
     7
370
    15
100
AcDbSpline
210
0.0
220
0.0
230
1.0
 70
     8
 71
     3
 72
     9
 73
     5
 74
     0
 42
0.00000001
 43
0.00000001
 12
1.0
 22
0.0
 32
0.0
 13
1.0
 23
0.0
 33
0.0
 40
0.0
 40
0.0
 40
0.0
 40
0.0
 40
0.0702005740977501
 40
1.0
 40
1.0
 40
1.0
 40
1.0
 10
147.1559763773718
 20
201.6368172477215
 30
0.0
 10
147.2174296488583
 20
201.6372629473051
 30
0.0
 10
148.0928252175743
 20
201.6436118923005
 30
0.0
 10
148.9506751116066
 20
201.8715038171903
 30
0.0
 10
149.7483034505882
 20
202.0833975981205
 30
0.0
  0
LINE
  5
177
330
1F
100
AcDbEntity
  8
0
  6
Continuous
 62
     7
370
    15
100
AcDbLine
 10
144.5636474415
 20
202.0833975981
 30
0.0
 11
147.1559763774
 21
201.6368172477
 31
0.0
  0
LINE
  5
178
330
1F
100
AcDbEntity
  8
0
  6
Continuous
 62
     7
370
    15
100
AcDbLine
 10
144.5636474415
 20
206.3902355145
 30
0.0
 11
144.5636474415
 21
202.0833975981
 31
0.0
  0
LINE
  5
179
330
1F
100
AcDbEntity
  8
0
  6
Continuous
 62
     7
370
    15
100
AcDbLine
 10
149.7483034506
 20
202.0833975981
 30
0.0
 11
152.1444120332
 21
201.6368172477
 31
0.0
  0
LINE
  5
17A
330
1F
100
AcDbEntity
  8
0
  6
Continuous
 62
     7
370
    15
100
AcDbLine
 10
152.1444120332
 20
201.6368172477
 30
0.0
 11
147.1559763774
 21
201.6368172477
 31
0.0
  0
LINE
  5
17B
330
1F
100
AcDbEntity
  8
0
  6
Continuous
 62
     7
370
    15
100
AcDbLine
 10
149.7483034506
 20
206.3902355145
 30
0.0
 11
152.1444120332
 21
206.8368158649
 31
0.0
  0
SPLINE
  5
17C
330
1F
100
AcDbEntity
  8
0
  6
Continuous
 62
     7
370
    15
100
AcDbSpline
210
0.0
220
0.0
230
1.0
 70
     8
 71
     3
 72
     9
 73
     5
 74
     0
 42
0.00000001
 43
0.00000001
 12
1.0
 22
0.0
 32
0.0
 13
1.0
 23
0.0
 33
0.0
 40
0.0
 40
0.0
 40
0.0
 40
0.0
 40
0.0702013971056361
 40
0.9999999999999999
 40
0.9999999999999999
 40
0.9999999999999999
 40
0.9999999999999999
 10
152.144412033204
 20
206.8368158648938
 30
0.0
 10
152.2012139430414
 20
206.8363701745239
 30
0.0
 10
153.0103418547242
 20
206.8300214352072
 30
0.0
 10
153.8032633330591
 20
206.6021293017727
 30
0.0
 10
154.5405206158199
 20
206.3902355144947
 30
0.0
  0
LINE
  5
17D
330
1F
100
AcDbEntity
  8
0
  6
Continuous
 62
     7
370
    15
100
AcDbLine
 10
154.5405206158
 20
206.3902355145
 30
0.0
 11
154.5405206158
 21
202.0833975981
 31
0.0
  0
SPLINE
  5
17E
330
1F
100
AcDbEntity
  8
0
  6
Continuous
 62
     7
370
    15
100
AcDbSpline
210
0.0
220
0.0
230
1.0
 70
     8
 71
     3
 72
     9
 73
     5
 74
     0
 42
0.00000001
 43
0.00000001
 12
1.0
 22
0.0
 32
0.0
 13
1.0
 23
0.0
 33
0.0
 40
0.0
 40
0.0
 40
0.0
 40
0.0
 40
0.0702013971056361
 40
0.9999999999999999
 40
0.9999999999999999
 40
0.9999999999999999
 40
0.9999999999999999
 10
152.144412033204
 20
201.6368172477215
 30
0.0
 10
152.2012139430414
 20
201.6372629380914
 30
0.0
 10
153.0103418547242
 20
201.6436116774082
 30
0.0
 10
153.8032633330591
 20
201.8715038108426
 30
0.0
 10
154.5405206158199
 20
202.0833975981205
 30
0.0
  0
SPLINE
  5
17F
330
1F
100
AcDbEntity
  8
0
  6
Continuous
 62
     7
370
    15
100
AcDbSpline
210
0.0
220
0.0
230
1.0
 70
     8
 71
     3
 72
     9
 73
     5
 74
     0
 42
0.00000001
 43
0.00000001
 12
1.0
 22
0.0
 32
0.0
 13
1.0
 23
0.0
 33
0.0
 40
0.0
 40
0.0
 40
0.0
 40
0.0
 40
0.2686346634184169
 40
1.0
 40
1.0
 40
1.0
 40
1.0
 10
144.3674289509096
 20
201.6368172477215
 30
0.0
 10
144.3852711930168
 20
201.6434467046639
 30
0.0
 10
144.4516894351011
 20
201.6681250423663
 30
0.0
 10
144.5163540116891
 20
201.9079776875476
 30
0.0
 10
144.5636474415102
 20
202.0833975981205
 30
0.0
  0
LINE
  5
180
330
1F
100
AcDbEntity
  8
0
  6
Continuous
 62
     7
370
    15
100
AcDbLine
 10
147.1559763774
 20
201.6368172477
 30
0.0
 11
144.3674289509
 21
201.6368172477
 31
0.0
  0
SPLINE
  5
181
330
1F
100
AcDbEntity
  8
0
  6
Continuous
 62
     7
370
    15
100
AcDbSpline
210
0.0
220
0.0
230
1.0
 70
     8
 71
     3
 72
     9
 73
     5
 74
     0
 42
0.00000001
 43
0.00000001
 12
1.0
 22
0.0
 32
0.0
 13
1.0
 23
0.0
 33
0.0
 40
0.0
 40
0.0
 40
0.0
 40
0.0
 40
0.2686345558544969
 40
1.0
 40
1.0
 40
1.0
 40
1.0
 10
144.3674289509096
 20
206.8368158648938
 30
0.0
 10
144.3852711942857
 20
206.8301878719937
 30
0.0
 10
144.4516894676883
 20
206.8055149743502
 30
0.0
 10
144.5163540214372
 20
206.5656583564076
 30
0.0
 10
144.5636474415102
 20
206.3902355144947
 30
0.0
  0
SPLINE
  5
182
330
1F
100
AcDbEntity
  8
0
  6
Continuous
 62
     7
370
    15
100
AcDbSpline
210
0.0
220
0.0
230
1.0
 70
     8
 71
     3
 72
     9
 73
     5
 74
     0
 42
0.00000001
 43
0.00000001
 12
1.0
 22
0.0
 32
0.0
 13
1.0
 23
0.0
 33
0.0
 40
0.0
 40
0.0
 40
0.0
 40
0.0
 40
0.1723357533819328
 40
1.0
 40
1.0
 40
1.0
 40
1.0
 10
154.3674287273922
 20
206.821478844735
 30
0.0
 10
154.3775346285183
 20
206.8166693909886
 30
0.0
 10
154.4361753976436
 20
206.7887619274936
 30
0.0
 10
154.4932675130961
 20
206.570709616334
 30
0.0
 10
154.5405206158199
 20
206.3902355144947
 30
0.0
  0
SPLINE
  5
183
330
1F
100
AcDbEntity
  8
0
  6
Continuous
 62
     7
370
    15
100
AcDbSpline
210
0.0
220
0.0
230
1.0
 70
     8
 71
     3
 72
     9
 73
     5
 74
     0
 42
0.00000001
 43
0.00000001
 12
1.0
 22
0.0
 32
0.0
 13
1.0
 23
0.0
 33
0.0
 40
0.0
 40
0.0
 40
0.0
 40
0.0
 40
0.2686346204174231
 40
1.0
 40
1.0
 40
1.0
 40
1.0
 10
154.3443021252193
 20
201.6368172477215
 30
0.0
 10
154.3621436329254
 20
201.6434467069724
 30
0.0
 10
154.4285591518125
 20
201.6681250572184
 30
0.0
 10
154.49322572383
 20
201.9079776878643
 30
0.0
 10
154.5405206158199
 20
202.0833975981205
 30
0.0
  0
LINE
  5
184
330
1F
100
AcDbEntity
  8
0
  6
Continuous
 62
     7
370
    15
100
AcDbLine
 10
152.1444120332
 20
201.6368172477
 30
0.0
 11
154.3459859564
 21
201.6368172477
 31
0.0
  0
LINE
  5
185
330
1F
100
AcDbEntity
  8
0
  6
Continuous
 62
     7
370
    15
100
AcDbLine
 10
144.1712104603
 20
206.3902355145
 30
0.0
 11
144.2207940742
 21
206.5795882951
 31
0.0
  0
SPLINE
  5
186
330
1F
100
AcDbEntity
  8
0
  6
Continuous
 62
     7
370
    15
100
AcDbSpline
210
0.0
220
0.0
230
1.0
 70
     8
 71
     3
 72
     9
 73
     5
 74
     0
 42
0.00000001
 43
0.00000001
 12
1.0
 22
0.0
 32
0.0
 13
1.0
 23
0.0
 33
0.0
 40
0.0
 40
0.0
 40
0.0
 40
0.0
 40
0.2575517375693364
 40
1.0
 40
1.0
 40
1.0
 40
1.0
 10
144.171210460309
 20
202.0833975981205
 30
0.0
 10
144.1876832446814
 20
202.0159822485521
 30
0.0
 10
144.2516423719921
 20
201.754227658175
 30
0.0
 10
144.318092883846
 20
201.6868452210691
 30
0.0
 10
144.3674289509096
 20
201.6368172477215
 30
0.0
  0
LINE
  5
187
330
1F
100
AcDbEntity
  8
0
  6
Continuous
 62
     7
370
    15
100
AcDbLine
 10
144.1712104603
 20
206.3902355145
 30
0.0
 11
144.1712104603
 21
202.0833975981
 31
0.0
  0
LINE
  5
188
330
1F
100
AcDbEntity
  8
0
  6
Continuous
 62
     7
370
    15
100
AcDbLine
 10
147.8135106041
 20
213.99023378
 30
0.0
 11
150.6082420125
 21
214.4368178557
 31
0.0
  0
SPLINE
  5
189
330
1F
100
AcDbEntity
  8
0
  6
Continuous
 62
     7
370
    15
100
AcDbSpline
210
0.0
220
0.0
230
1.0
 70
     8
 71
     3
 72
     9
 73
     5
 74
     0
 42
0.00000001
 43
0.00000001
 12
1.0
 22
0.0
 32
0.0
 13
1.0
 23
0.0
 33
0.0
 40
0.0
 40
0.0
 40
0.0
 40
0.0
 40
0.0702004861837064
 40
1.0
 40
1.0
 40
1.0
 40
1.0
 10
150.6082420125045
 20
214.4368178556889
 30
0.0
 10
150.6744932210669
 20
214.4363708697715
 30
0.0
 10
151.6182360947127
 20
214.4300035931082
 30
0.0
 10
152.5430655657156
 20
214.2021199140212
 30
0.0
 10
153.402971558217
 20
213.9902337799996
 30
0.0
  0
LINE
  5
18A
330
1F
100
AcDbEntity
  8
0
  6
Continuous
 62
     7
370
    15
100
AcDbLine
 10
153.4029715582
 20
213.99023378
 30
0.0
 11
153.4029715582
 21
213.6368154894
 31
0.0
  0
LINE
  5
18B
330
1F
100
AcDbEntity
  8
0
  6
Continuous
 62
     7
370
    15
100
AcDbLine
 10
147.8135106041
 20
209.6833995889
 30
0.0
 11
148.1211935058
 21
209.6342332076
 31
0.0
  0
LINE
  5
18C
330
1F
100
AcDbEntity
  8
0
  6
Continuous
 62
     7
370
    15
100
AcDbLine
 10
147.8135106041
 20
213.99023378
 30
0.0
 11
147.8135106041
 21
209.6833995889
 31
0.0
  0
SPLINE
  5
18D
330
1F
100
AcDbEntity
  8
0
  6
Continuous
 62
     7
370
    15
100
AcDbSpline
210
0.0
220
0.0
230
1.0
 70
     8
 71
     3
 72
     9
 73
     5
 74
     0
 42
0.00000001
 43
0.00000001
 12
1.0
 22
0.0
 32
0.0
 13
1.0
 23
0.0
 33
0.0
 40
0.0
 40
0.0
 40
0.0
 40
0.0
 40
0.0701999331639173
 40
1.0
 40
1.0
 40
1.0
 40
1.0
 10
145.7899571284094
 20
209.2368155132264
 30
0.0
 10
145.8379272362505
 20
209.2372625053345
 30
0.0
 10
146.5212627563728
 20
209.2436299203449
 30
0.0
 10
147.1908905950187
 20
209.4715134592297
 30
0.0
 10
147.8135106041469
 20
209.6833995889157
 30
0.0
  0
LINE
  5
18E
330
1F
100
AcDbEntity
  8
0
  6
Continuous
 62
     7
370
    15
100
AcDbLine
 10
145.7899571284
 20
214.4368178557
 30
0.0
 11
150.6082420125
 21
214.4368178557
 31
0.0
  0
SPLINE
  5
18F
330
1F
100
AcDbEntity
  8
0
  6
Continuous
 62
     7
370
    15
100
AcDbSpline
210
0.0
220
0.0
230
1.0
 70
     8
 71
     3
 72
     9
 73
     5
 74
     0
 42
0.00000001
 43
0.00000001
 12
1.0
 22
0.0
 32
0.0
 13
1.0
 23
0.0
 33
0.0
 40
0.0
 40
0.0
 40
0.0
 40
0.0
 40
0.0701999331639173
 40
1.0
 40
1.0
 40
1.0
 40
1.0
 10
145.7899571284094
 20
214.4368178556889
 30
0.0
 10
145.8379272362505
 20
214.4363708635807
 30
0.0
 10
146.5212627563728
 20
214.4300034485705
 30
0.0
 10
147.1908905950187
 20
214.2021199096856
 30
0.0
 10
147.8135106041469
 20
213.9902337799996
 30
0.0
  0
LINE
  5
190
330
1F
100
AcDbEntity
  8
0
  6
Continuous
 62
     7
370
    15
100
AcDbLine
 10
143.7664036527
 20
213.99023378
 30
0.0
 11
145.7899571284
 21
214.4368178557
 31
0.0
  0
LINE
  5
191
330
1F
100
AcDbEntity
  8
0
  6
Continuous
 62
     7
370
    15
100
AcDbLine
 10
143.7664036527
 20
209.6833995889
 30
0.0
 11
145.7899571284
 21
209.2368155132
 31
0.0
  0
LINE
  5
192
330
1F
100
AcDbEntity
  8
0
  6
Continuous
 62
     7
370
    15
100
AcDbLine
 10
143.7664036527
 20
213.99023378
 30
0.0
 11
143.7664036527
 21
209.6833995889
 31
0.0
  0
SPLINE
  5
193
330
1F
100
AcDbEntity
  8
0
  6
Continuous
 62
     7
370
    15
100
AcDbSpline
210
0.0
220
0.0
230
1.0
 70
     8
 71
     3
 72
     9
 73
     5
 74
     0
 42
0.00000001
 43
0.00000001
 12
1.0
 22
0.0
 32
0.0
 13
1.0
 23
0.0
 33
0.0
 40
0.0
 40
0.0
 40
0.0
 40
0.0
 40
0.2686324691455919
 40
1.0
 40
1.0
 40
1.0
 40
1.0
 10
154.1741494908371
 20
214.4368178556889
 30
0.0
 10
154.1040279435358
 20
214.4301883422129
 30
0.0
 10
153.8429964028427
 20
214.4055095924809
 30
0.0
 10
153.58884768122
 20
214.1656553702659
 30
0.0
 10
153.402971558217
 20
213.9902337799996
 30
0.0
  0
LINE
  5
194
330
1F
100
AcDbEntity
  8
0
  6
Continuous
 62
     7
370
    15
100
AcDbLine
 10
154.1741494908
 20
214.4368178557
 30
0.0
 11
150.6082420125
 21
214.4368178557
 31
0.0
  0
SPLINE
  5
195
330
1F
100
AcDbEntity
  8
0
  6
Continuous
 62
     7
370
    15
100
AcDbSpline
210
0.0
220
0.0
230
1.0
 70
     8
 71
     3
 72
     9
 73
     5
 74
     0
 42
0.00000001
 43
0.00000001
 12
1.0
 22
0.0
 32
0.0
 13
1.0
 23
0.0
 33
0.0
 40
0.0
 40
0.0
 40
0.0
 40
0.0
 40
0.2575512079451419
 40
1.0
 40
1.0
 40
1.0
 40
1.0
 10
154.945325560812
 20
213.9902337799996
 30
0.0
 10
154.8805841166618
 20
214.0576490758675
 30
0.0
 10
154.6292110220965
 20
214.3194039960085
 30
0.0
 10
154.3680489533262
 20
214.3867883921616
 30
0.0
 10
154.1741494908371
 20
214.4368178556889
 30
0.0
  0
LINE
  5
196
330
1F
100
AcDbEntity
  8
0
  6
Continuous
 62
     7
370
    15
100
AcDbLine
 10
154.9453255608
 20
213.99023378
 30
0.0
 11
154.9453255608
 21
209.6833995889
 31
0.0
  0
SPLINE
  5
197
330
1F
100
AcDbEntity
  8
0
  6
Continuous
 62
     7
370
    15
100
AcDbSpline
210
0.0
220
0.0
230
1.0
 70
     8
 71
     3
 72
     9
 73
     5
 74
     0
 42
0.00000001
 43
0.00000001
 12
1.0
 22
0.0
 32
0.0
 13
1.0
 23
0.0
 33
0.0
 40
0.0
 40
0.0
 40
0.0
 40
0.0
 40
0.4836698138369739
 40
1.0
 40
1.0
 40
1.0
 40
1.0
 10
154.945325560812
 20
209.6833995889157
 30
0.0
 10
154.880774200252
 20
209.6122112391753
 30
0.0
 10
154.7473125726846
 20
209.4650274627564
 30
0.0
 10
154.6086376535557
 20
209.4213430111457
 30
0.0
 10
154.5370356067457
 20
209.3987874101132
 30
0.0
  0
LINE
  5
198
330
1F
100
AcDbEntity
  8
0
  6
Continuous
 62
     7
370
    15
100
AcDbLine
 10
144.1762451901
 20
214.2904474746
 30
0.0
 11
143.7664036527
 21
213.99023378
 31
0.0
  0
LINE
  5
199
330
1F
100
AcDbEntity
  8
0
  6
Continuous
 62
     7
370
    15
100
AcDbLine
 10
144.3558656498
 20
214.4368178557
 30
0.0
 11
145.7899571284
 21
214.4368178557
 31
0.0
  0
LINE
  5
19A
330
1F
100
AcDbEntity
  8
0
  6
Continuous
 62
     7
370
    15
100
AcDbLine
 10
144.1762451901
 20
209.3831858943
 30
0.0
 11
143.7664036527
 21
209.6833995889
 31
0.0
  0
LINE
  5
19B
330
1F
100
AcDbEntity
  8
0
  6
Continuous
 62
     7
370
    15
100
AcDbLine
 10
154.1741494908
 20
214.4368178557
 30
0.0
 11
154.3558654263
 21
214.4368178557
 31
0.0
  0
CIRCLE
  5
19C
330
1F
100
AcDbEntity
  8
0
  6
Continuous
 62
     7
370
    15
100
AcDbCircle
 10
914.4147580212
 20
927.6368171021
 30
0.0
 40
2.524999999999966
  0
CIRCLE
  5
19D
330
1F
100
AcDbEntity
  8
0
  6
Continuous
 62
     7
370
    15
100
AcDbCircle
 10
914.4147580212
 20
927.6368171021
 30
0.0
 40
2.099999999999913
  0
LINE
  5
19E
330
1F
100
AcDbEntity
  8
0
  6
Continuous
 62
     7
370
    15
100
AcDbLine
 10
876.8305634036
 20
700.4368267368
 30
0.0
 11
876.8305634036
 21
699.6368131946
 31
0.0
  0
LINE
  5
19F
330
1F
100
AcDbEntity
  8
0
  6
Continuous
 62
     7
370
    15
100
AcDbLine
 10
876.8305634036
 20
699.6368131946
 30
0.0
 11
874.8305891528
 21
699.6368131946
 31
0.0
  0
LINE
  5
1A0
330
1F
100
AcDbEntity
  8
0
  6
Continuous
 62
     7
370
    15
100
AcDbLine
 10
874.8305891528
 20
699.6368131946
 30
0.0
 11
874.8305891528
 21
700.4368267368
 31
0.0
  0
LINE
  5
1A1
330
1F
100
AcDbEntity
  8
0
  6
Continuous
 62
     7
370
    15
100
AcDbLine
 10
874.8305891528
 20
700.4368267368
 30
0.0
 11
876.8305634036
 21
700.4368267368
 31
0.0
  0
LINE
  5
1A2
330
1F
100
AcDbEntity
  8
0
  6
Continuous
 62
     7
370
    15
100
AcDbLine
 10
965.1337717547
 20
758.8630280803
 30
0.0
 11
965.8588026538
 21
759.2011056255
 31
0.0
  0
LINE
  5
1A3
330
1F
100
AcDbEntity
  8
0
  6
Continuous
 62
     7
370
    15
100
AcDbLine
 10
965.1337717547
 20
758.8630280803
 30
0.0
 11
909.2268799319
 21
878.7556848834
 31
0.0
  0
LINE
  5
1A4
330
1F
100
AcDbEntity
  8
0
  6
Continuous
 62
     7
370
    15
100
AcDbLine
 10
909.951910831
 20
879.0937624286
 30
0.0
 11
909.2268799319
 21
878.7556848834
 31
0.0
  0
LINE
  5
1A5
330
1F
100
AcDbEntity
  8
0
  6
Continuous
 62
     7
370
    15
100
AcDbLine
 10
965.8588026538
 20
759.2011056255
 30
0.0
 11
909.951910831
 21
879.0937624286
 31
0.0
  0
LINE
  5
1A6
330
1F
100
AcDbEntity
  8
0
  6
Continuous
 62
     7
370
    15
100
AcDbLine
 10
935.4598973765
 20
699.6368131946
 30
0.0
 11
935.4598973765
 21
700.4368267368
 31
0.0
  0
LINE
  5
1A7
330
1F
100
AcDbEntity
  8
0
  6
Continuous
 62
     7
370
    15
100
AcDbLine
 10
876.8305634036
 20
699.6368131946
 30
0.0
 11
935.4598973765
 21
699.6368131946
 31
0.0
  0
LINE
  5
1A8
330
1F
100
AcDbEntity
  8
0
  6
Continuous
 62
     7
370
    15
100
AcDbLine
 10
876.8305634036
 20
700.4368267368
 30
0.0
 11
935.4598973765
 21
700.4368267368
 31
0.0
  0
ARC
  5
1A9
330
1F
100
AcDbEntity
  8
0
  6
Continuous
 62
     7
370
    15
100
AcDbCircle
 10
911.0848190465
 20
879.6220359734
 30
0.0
 40
2.050000000000112
100
AcDbArc
 50
115.0
 51
205.0
  0
LINE
  5
1AA
330
1F
100
AcDbEntity
  8
0
  6
Continuous
 62
     7
370
    15
100
AcDbLine
 10
910.5565403476
 20
880.7549438785
 30
0.0
 11
910.2184628024
 21
881.4799747776
 31
0.0
  0
ARC
  5
1AB
330
1F
100
AcDbEntity
  8
0
  6
Continuous
 62
     7
370
    15
100
AcDbCircle
 10
911.0848190465
 20
879.6220359734
 30
0.0
 40
1.250000000000032
100
AcDbArc
 50
115.0
 51
205.0
  0
LINE
  5
1AC
330
1F
100
AcDbEntity
  8
0
  6
Continuous
 62
     7
370
    15
100
AcDbLine
 10
965.8588026538
 20
750.0725350688
 30
0.0
 11
965.1337717547
 21
750.4106424163
 31
0.0
  0
LINE
  5
1AD
330
1F
100
AcDbEntity
  8
0
  6
Continuous
 62
     7
370
    15
100
AcDbLine
 10
945.2479933276
 20
705.8725319217
 30
0.0
 11
965.8588026538
 21
750.0725350688
 31
0.0
  0
LINE
  5
1AE
330
1F
100
AcDbEntity
  8
0
  6
Continuous
 62
     7
370
    15
100
AcDbLine
 10
944.5229624286
 20
706.2106392692
 30
0.0
 11
945.2479933276
 21
705.8725319217
 31
0.0
  0
LINE
  5
1AF
330
1F
100
AcDbEntity
  8
0
  6
Continuous
 62
     7
370
    15
100
AcDbLine
 10
944.5229624286
 20
706.2106392692
 30
0.0
 11
965.1337717547
 21
750.4106424163
 31
0.0
  0
ARC
  5
1B0
330
1F
100
AcDbEntity
  8
0
  6
Continuous
 62
     7
370
    15
100
AcDbCircle
 10
956.0706798388
 20
754.6368171021
 30
0.0
 40
10.80000000000001
100
AcDbArc
 50
335.0
 51
25.0
  0
ARC
  5
1B1
330
1F
100
AcDbEntity
  8
0
  6
Continuous
 62
     7
370
    15
100
AcDbCircle
 10
956.0706798388
 20
754.6368171021
 30
0.0
 40
10.00000000000003
100
AcDbArc
 50
335.0
 51
25.0
  0
LINE
  5
1B2
330
1F
100
AcDbEntity
  8
0
  6
Continuous
 62
     7
370
    15
100
AcDbLine
 10
924.4928215518
 20
888.1362042736
 30
0.0
 11
924.830899097
 21
887.4111733745
 31
0.0
  0
LINE
  5
1B3
330
1F
100
AcDbEntity
  8
0
  6
Continuous
 62
     7
370
    15
100
AcDbLine
 10
923.0182622447
 20
886.5659199069
 30
0.0
 11
922.6801846995
 21
887.290950806
 31
0.0
  0
LWPOLYLINE
  5
1B4
330
1F
100
AcDbEntity
  8
0
  6
Continuous
 62
     7
370
    15
100
AcDbPolyline
 90
        9
 70
   128
 43
0.0
 10
922.6801846995
 20
887.290950806
 10
923.033819057
 20
887.4558768581
 10
923.3738635554
 20
887.6144252132
 10
923.687205173
 20
887.7605758022
 10
923.9619229808
 20
887.8886661838
 10
924.1873477473
 20
887.9937491725
 10
924.3548367991
 20
888.0718908618
 10
924.4579528346
 20
888.1199918102
 10
924.4928215518
 20
888.1362042736
  0
LWPOLYLINE
  5
1B5
330
1F
100
AcDbEntity
  8
0
  6
Continuous
 62
     7
370
    15
100
AcDbPolyline
 90
        9
 70
   128
 43
0.0
 10
924.830899097
 20
887.4111733745
 10
924.7960899844
 20
887.3949013065
 10
924.6929143443
 20
887.3468003581
 10
924.5254252925
 20
887.2687182735
 10
924.300000526
 20
887.1635756801
 10
924.0253423228
 20
887.0354852985
 10
923.7119411006
 20
886.8893943141
 10
923.3718966022
 20
886.730845959
 10
923.0182622447
 20
886.5659199069
  0
LINE
  5
1B6
330
1F
100
AcDbEntity
  8
0
  6
Continuous
 62
     7
370
    15
100
AcDbLine
 10
910.2184628024
 20
881.4799747776
 30
0.0
 11
922.6801846995
 21
887.290950806
 31
0.0
  0
LINE
  5
1B7
330
1F
100
AcDbEntity
  8
0
  6
Continuous
 62
     7
370
    15
100
AcDbLine
 10
910.5565403476
 20
880.7549438785
 30
0.0
 11
923.0182622447
 21
886.5659199069
 31
0.0
  0
ARC
  5
1B8
330
1F
100
AcDbEntity
  8
0
  6
Continuous
 62
     7
370
    15
100
AcDbCircle
 10
935.4598813484
 20
710.4368171021
 30
0.0
 40
10.80000000000018
100
AcDbArc
 50
270.0
 51
335.0
  0
ARC
  5
1B9
330
1F
100
AcDbEntity
  8
0
  6
Continuous
 62
     7
370
    15
100
AcDbCircle
 10
935.4598813484
 20
710.4368171021
 30
0.0
 40
10.00000000000011
100
AcDbArc
 50
270.0
 51
335.0
  0
LINE
  5
1BA
330
1F
100
AcDbEntity
  8
0
  6
Continuous
 62
     7
370
    15
100
AcDbLine
 10
909.0839479938
 20
880.068238766
 30
0.0
 11
908.6986039653
 21
879.888530762
 31
0.0
  0
LINE
  5
1BB
330
1F
100
AcDbEntity
  8
0
  6
Continuous
 62
     7
370
    15
100
AcDbLine
 10
908.6986039653
 20
879.888530762
 30
0.0
 11
908.7328170314
 21
879.815217049
 31
0.0
  0
CIRCLE
  5
1BC
330
1F
100
AcDbEntity
  8
0
  6
Continuous
 62
     7
370
    15
100
AcDbCircle
 10
144.4147580212
 20
927.6368171021
 30
0.0
 40
2.525000000000006
  0
CIRCLE
  5
1BD
330
1F
100
AcDbEntity
  8
0
  6
Continuous
 62
     7
370
    15
100
AcDbCircle
 10
144.4147580212
 20
927.6368171021
 30
0.0
 40
2.099999999999994
  0
CIRCLE
  5
1BE
330
1F
100
AcDbEntity
  8
0
  6
Continuous
 62
     7
370
    15
100
AcDbCircle
 10
534.4147580212
 20
927.6368171021
 30
0.0
 40
2.524999999999977
  0
CIRCLE
  5
1BF
330
1F
100
AcDbEntity
  8
0
  6
Continuous
 62
     7
370
    15
100
AcDbCircle
 10
534.4147580212
 20
927.6368171021
 30
0.0
 40
2.100000000000023
  0
ARC
  5
1C0
330
1F
100
AcDbEntity
  8
0
  6
Continuous
 62
     7
370
    15
100
AcDbCircle
 10
144.0647808765
 20
951.8868171021
 30
0.0
 40
4.249999999999972
100
AcDbArc
 50
180.0
 51
270.0
  0
LINE
  5
1C1
330
1F
100
AcDbEntity
  8
0
  6
Continuous
 62
     7
370
    15
100
AcDbLine
 10
139.8147805482
 20
951.8868289302
 30
0.0
 11
141.814780876
 21
951.8868289302
 31
0.0
  0
ARC
  5
1C2
330
1F
100
AcDbEntity
  8
0
  6
Continuous
 62
     7
370
    15
100
AcDbCircle
 10
144.0647808765
 20
951.8868171021
 30
0.0
 40
2.249999999999972
100
AcDbArc
 50
180.0
 51
270.0
  0
LINE
  5
1C3
330
1F
100
AcDbEntity
  8
0
  6
Continuous
 62
     7
370
    15
100
AcDbLine
 10
144.0647807791
 20
949.6368131946
 30
0.0
 11
144.0647807791
 21
947.6368389438
 31
0.0
  0
LINE
  5
1C4
330
1F
100
AcDbEntity
  8
0
  6
Continuous
 62
     7
370
    15
100
AcDbLine
 10
949.4397495761
 20
902.4480543445
 30
0.0
 11
951.2523864284
 21
901.6028604816
 31
0.0
  0
LINE
  5
1C5
330
1F
100
AcDbEntity
  8
0
  6
Continuous
 62
     7
370
    15
100
AcDbLine
 10
963.8778422847
 20
933.4106407474
 30
0.0
 11
949.4397495761
 21
902.4480543445
 31
0.0
  0
LINE
  5
1C6
330
1F
100
AcDbEntity
  8
0
  6
Continuous
 62
     7
370
    15
100
AcDbLine
 10
965.6904791369
 20
932.5653872798
 30
0.0
 11
963.8778422847
 21
933.4106407474
 31
0.0
  0
LINE
  5
1C7
330
1F
100
AcDbEntity
  8
0
  6
Continuous
 62
     7
370
    15
100
AcDbLine
 10
965.6904791369
 20
932.5653872798
 30
0.0
 11
951.2523864284
 21
901.6028604816
 31
0.0
  0
LINE
  5
1C8
330
1F
100
AcDbEntity
  8
0
  6
Continuous
 62
     7
370
    15
100
AcDbLine
 10
71.064781852
 20
949.6368131946
 30
0.0
 11
71.064781852
 21
947.6368389438
 31
0.0
  0
LINE
  5
1C9
330
1F
100
AcDbEntity
  8
0
  6
Continuous
 62
     7
370
    15
100
AcDbLine
 10
79.8147809579
 20
949.6368131946
 30
0.0
 11
71.064781852
 21
949.6368131946
 31
0.0
  0
LINE
  5
1CA
330
1F
100
AcDbEntity
  8
0
  6
Continuous
 62
     7
370
    15
100
AcDbLine
 10
79.8147809579
 20
947.6368389438
 30
0.0
 11
79.8147809579
 21
949.6368131946
 31
0.0
  0
LINE
  5
1CB
330
1F
100
AcDbEntity
  8
0
  6
Continuous
 62
     7
370
    15
100
AcDbLine
 10
79.8147809579
 20
947.6368389438
 30
0.0
 11
71.064781852
 21
947.6368389438
 31
0.0
  0
LINE
  5
1CC
330
1F
100
AcDbEntity
  8
0
  6
Continuous
 62
     7
370
    15
100
AcDbLine
 10
945.4480861201
 20
895.7985601734
 30
0.0
 11
944.6028922572
 21
897.6111970256
 31
0.0
  0
LINE
  5
1CD
330
1F
100
AcDbEntity
  8
0
  6
Continuous
 62
     7
370
    15
100
AcDbLine
 10
945.4480861201
 20
895.7985601734
 30
0.0
 11
928.1989191546
 21
887.7551517795
 31
0.0
  0
LINE
  5
1CE
330
1F
100
AcDbEntity
  8
0
  6
Continuous
 62
     7
370
    15
100
AcDbLine
 10
927.3536656871
 20
889.5677886318
 30
0.0
 11
928.1989191546
 21
887.7551517795
 31
0.0
  0
LINE
  5
1CF
330
1F
100
AcDbEntity
  8
0
  6
Continuous
 62
     7
370
    15
100
AcDbLine
 10
944.6028922572
 20
897.6111970256
 30
0.0
 11
927.3536656871
 21
889.5677886318
 31
0.0
  0
ARC
  5
1D0
330
1F
100
AcDbEntity
  8
0
  6
Continuous
 62
     7
370
    15
100
AcDbCircle
 10
954.8147580211
 20
937.6368171021
 30
0.0
 40
10.00000000000011
100
AcDbArc
 50
335.0
 51
90.0
  0
LINE
  5
1D1
330
1F
100
AcDbEntity
  8
0
  6
Continuous
 62
     7
370
    15
100
AcDbLine
 10
954.8147772327
 20
947.6368389438
 30
0.0
 11
954.8147772327
 21
949.6368131946
 31
0.0
  0
ARC
  5
1D2
330
1F
100
AcDbEntity
  8
0
  6
Continuous
 62
     7
370
    15
100
AcDbCircle
 10
954.8147580211
 20
937.6368171021
 30
0.0
 40
12.00000000000011
100
AcDbArc
 50
335.0
 51
90.0
  0
LINE
  5
1D3
330
1F
100
AcDbEntity
  8
0
  6
Continuous
 62
     7
370
    15
100
AcDbLine
 10
79.8147809579
 20
949.6368131946
 30
0.0
 11
81.8147812858
 21
949.6368131946
 31
0.0
  0
LINE
  5
1D4
330
1F
100
AcDbEntity
  8
0
  6
Continuous
 62
     7
370
    15
100
AcDbLine
 10
81.8147812858
 20
949.6368131946
 30
0.0
 11
81.8147812858
 21
947.6368389438
 31
0.0
  0
LINE
  5
1D5
330
1F
100
AcDbEntity
  8
0
  6
Continuous
 62
     7
370
    15
100
AcDbLine
 10
81.8147812858
 20
947.6368389438
 30
0.0
 11
79.8147809579
 21
947.6368389438
 31
0.0
  0
ARC
  5
1D6
330
1F
100
AcDbEntity
  8
0
  6
Continuous
 62
     7
370
    15
100
AcDbCircle
 10
71.0647808765
 20
963.3868171021
 30
0.0
 40
2.25
100
AcDbArc
 50
90.0
 51
180.0
  0
LINE
  5
1D7
330
1F
100
AcDbEntity
  8
0
  6
Continuous
 62
     7
370
    15
100
AcDbLine
 10
68.8147810175
 20
963.3868298839
 30
0.0
 11
66.8147806897
 21
963.3868298839
 31
0.0
  0
ARC
  5
1D8
330
1F
100
AcDbEntity
  8
0
  6
Continuous
 62
     7
370
    15
100
AcDbCircle
 10
71.0647808765
 20
963.3868171021
 30
0.0
 40
4.25
100
AcDbArc
 50
90.0
 51
180.0
  0
LINE
  5
1D9
330
1F
100
AcDbEntity
  8
0
  6
Continuous
 62
     7
370
    15
100
AcDbLine
 10
71.064781852
 20
967.6368198703
 30
0.0
 11
71.064781852
 21
965.6368456195
 31
0.0
  0
LINE
  5
1DA
330
1F
100
AcDbEntity
  8
0
  6
Continuous
 62
     7
370
    15
100
AcDbLine
 10
137.564780645
 20
965.6368456195
 30
0.0
 11
137.564780645
 21
967.6368198703
 31
0.0
  0
LINE
  5
1DB
330
1F
100
AcDbEntity
  8
0
  6
Continuous
 62
     7
370
    15
100
AcDbLine
 10
71.064781852
 20
965.6368456195
 30
0.0
 11
137.564780645
 21
965.6368456195
 31
0.0
  0
LINE
  5
1DC
330
1F
100
AcDbEntity
  8
0
  6
Continuous
 62
     7
370
    15
100
AcDbLine
 10
71.064781852
 20
967.6368198703
 30
0.0
 11
137.564780645
 21
967.6368198703
 31
0.0
  0
ARC
  5
1DD
330
1F
100
AcDbEntity
  8
0
  6
Continuous
 62
     7
370
    15
100
AcDbCircle
 10
71.0647808765
 20
951.8868171021
 30
0.0
 40
2.249999999999972
100
AcDbArc
 50
180.0
 51
270.0
  0
ARC
  5
1DE
330
1F
100
AcDbEntity
  8
0
  6
Continuous
 62
     7
370
    15
100
AcDbCircle
 10
71.0647808765
 20
951.8868171021
 30
0.0
 40
4.249999999999972
100
AcDbArc
 50
180.0
 51
270.0
  0
LINE
  5
1DF
330
1F
100
AcDbEntity
  8
0
  6
Continuous
 62
     7
370
    15
100
AcDbLine
 10
66.8147806897
 20
951.8868289302
 30
0.0
 11
68.8147810175
 21
951.8868289302
 31
0.0
  0
LINE
  5
1E0
330
1F
100
AcDbEntity
  8
0
  6
Continuous
 62
     7
370
    15
100
AcDbLine
 10
68.8147810175
 20
951.8868289302
 30
0.0
 11
68.8147810175
 21
963.3868298839
 31
0.0
  0
LINE
  5
1E1
330
1F
100
AcDbEntity
  8
0
  6
Continuous
 62
     7
370
    15
100
AcDbLine
 10
66.8147806897
 20
951.8868289302
 30
0.0
 11
66.8147806897
 21
963.3868298839
 31
0.0
  0
LINE
  5
1E2
330
1F
100
AcDbEntity
  8
0
  6
Continuous
 62
     7
370
    15
100
AcDbLine
 10
926.3862823024
 20
886.9098983119
 30
0.0
 11
925.5410884395
 21
888.7225351642
 31
0.0
  0
LWPOLYLINE
  5
1E3
330
1F
100
AcDbEntity
  8
0
  6
Continuous
 62
     7
370
    15
100
AcDbPolyline
 90
        9
 70
   128
 43
0.0
 10
925.5410884395
 20
888.7225351642
 10
925.575897552
 20
888.7387476276
 10
925.6790731921
 20
888.7868485759
 10
925.8465622439
 20
888.8649902652
 10
926.0719870105
 20
888.970073254
 10
926.3466452136
 20
889.0981636356
 10
926.6600464358
 20
889.2443142246
 10
927.0000909343
 20
889.4028625797
 10
927.3536656871
 20
889.5677886318
  0
LWPOLYLINE
  5
1E4
330
1F
100
AcDbEntity
  8
0
  6
Continuous
 62
     7
370
    15
100
AcDbPolyline
 90
        9
 70
   128
 43
0.0
 10
928.1989191546
 20
887.7551517795
 10
927.8452847972
 20
887.5902257274
 10
927.5052402988
 20
887.4316773723
 10
927.1918986812
 20
887.285586388
 10
926.917240478
 20
887.1574960063
 10
926.6918157115
 20
887.052353413
 10
926.524267055
 20
886.9742713283
 10
926.4211510196
 20
886.92617038
 10
926.3862823024
 20
886.9098983119
  0
LINE
  5
1E5
330
1F
100
AcDbEntity
  8
0
  6
Continuous
 62
     7
370
    15
100
AcDbLine
 10
144.0647807791
 20
949.6368131946
 30
0.0
 11
954.8147772327
 21
949.6368131946
 31
0.0
  0
LINE
  5
1E6
330
1F
100
AcDbEntity
  8
0
  6
Continuous
 62
     7
370
    15
100
AcDbLine
 10
144.0647807791
 20
947.6368389438
 30
0.0
 11
954.8147772327
 21
947.6368389438
 31
0.0
  0
ARC
  5
1E7
330
1F
100
AcDbEntity
  8
0
  6
Continuous
 62
     7
370
    15
100
AcDbCircle
 10
137.5647808765
 20
963.3868171021
 30
0.0
 40
4.250000000000114
100
AcDbArc
 50
0.0
 51
90.0
  0
LINE
  5
1E8
330
1F
100
AcDbEntity
  8
0
  6
Continuous
 62
     7
370
    15
100
AcDbLine
 10
141.814780876
 20
963.3868298839
 30
0.0
 11
139.8147805482
 21
963.3868298839
 31
0.0
  0
ARC
  5
1E9
330
1F
100
AcDbEntity
  8
0
  6
Continuous
 62
     7
370
    15
100
AcDbCircle
 10
137.5647808765
 20
963.3868171021
 30
0.0
 40
2.250000000000114
100
AcDbArc
 50
0.0
 51
90.0
  0
LINE
  5
1EA
330
1F
100
AcDbEntity
  8
0
  6
Continuous
 62
     7
370
    15
100
AcDbLine
 10
141.814780876
 20
963.3868298839
 30
0.0
 11
141.814780876
 21
951.8868289302
 31
0.0
  0
LINE
  5
1EB
330
1F
100
AcDbEntity
  8
0
  6
Continuous
 62
     7
370
    15
100
AcDbLine
 10
139.8147805482
 20
963.3868298839
 30
0.0
 11
139.8147805482
 21
951.8868289302
 31
0.0
  0
ARC
  5
1EC
330
1F
100
AcDbEntity
  8
0
  6
Continuous
 62
     7
370
    15
100
AcDbCircle
 10
940.376681298
 20
906.6742616505
 30
0.0
 40
11.99999999999995
100
AcDbArc
 50
295.0
 51
335.0
  0
ARC
  5
1ED
330
1F
100
AcDbEntity
  8
0
  6
Continuous
 62
     7
370
    15
100
AcDbCircle
 10
940.376681298
 20
906.6742616505
 30
0.0
 40
9.999999999999872
100
AcDbArc
 50
295.0
 51
335.0
  0
LWPOLYLINE
  5
1EE
330
1F
100
AcDbEntity
  8
0
  6
Continuous
 62
     7
370
    15
100
AcDbPolyline
 90
        9
 70
   128
 43
0.0
 10
926.3862823024
 20
886.9098983119
 10
926.3514731898
 20
886.8936858486
 10
926.2483571544
 20
886.8455849002
 10
926.0808084979
 20
886.7674432109
 10
925.8553837314
 20
886.6623602222
 10
925.5807255282
 20
886.5342698406
 10
925.267324306
 20
886.3881192516
 10
924.9273394122
 20
886.2295708965
 10
924.5737050548
 20
886.0646448444
  0
LINE
  5
1EF
330
1F
100
AcDbEntity
  8
0
  6
Continuous
 62
     7
370
    15
100
AcDbLine
 10
924.5737050548
 20
886.0646448444
 30
0.0
 11
913.6980031505
 21
880.9932432483
 31
0.0
  0
LINE
  5
1F0
330
1F
100
AcDbEntity
  8
0
  6
Continuous
 62
     7
370
    15
100
AcDbLine
 10
911.8853662982
 20
880.1479897808
 30
0.0
 11
911.4155624881
 21
881.1554870914
 31
0.0
  0
LINE
  5
1F1
330
1F
100
AcDbEntity
  8
0
  6
Continuous
 62
     7
370
    15
100
AcDbLine
 10
911.0774849429
 20
881.8805179904
 30
0.0
 11
911.0500668063
 21
881.9392881702
 31
0.0
  0
LWPOLYLINE
  5
1F2
330
1F
100
AcDbEntity
  8
0
  6
Continuous
 62
     7
370
    15
100
AcDbPolyline
 90
        9
 70
   128
 43
0.0
 10
913.6980031505
 20
880.9932432483
 10
913.344368793
 20
880.8283768009
 10
913.0043242946
 20
880.6697688411
 10
912.690982677
 20
880.5236778568
 10
912.4162648692
 20
880.3955874752
 10
912.1908401027
 20
880.2904448818
 10
912.0233510509
 20
880.2123627971
 10
911.9202350154
 20
880.1642618488
 10
911.8853662982
 20
880.1479897808
  0
LINE
  5
1F3
330
1F
100
AcDbEntity
  8
0
  6
Continuous
 62
     7
370
    15
100
AcDbLine
 10
137.5631741136
 20
947.836812527
 30
0.0
 11
81.9131736531
 21
947.836812527
 31
0.0
  0
LINE
  5
1F4
330
1F
100
AcDbEntity
  8
0
  6
Continuous
 62
     7
370
    15
100
AcDbLine
 10
81.9131736531
 20
947.836812527
 30
0.0
 11
81.9131736531
 21
949.8368463825
 31
0.0
  0
LINE
  5
1F5
330
1F
100
AcDbEntity
  8
0
  6
Continuous
 62
     7
370
    15
100
AcDbLine
 10
81.9131736531
 20
950.1368365596
 30
0.0
 11
137.5631741136
 21
950.1368365596
 31
0.0
  0
LINE
  5
1F6
330
1F
100
AcDbEntity
  8
0
  6
Continuous
 62
     7
370
    15
100
AcDbLine
 10
81.9131736531
 20
949.8368463825
 30
0.0
 11
71.0631725266
 21
949.8368463825
 31
0.0
  0
ARC
  5
1F7
330
1F
100
AcDbEntity
  8
0
  6
Continuous
 62
     7
370
    15
100
AcDbCircle
 10
71.0631738208
 20
951.9868171021
 30
0.0
 40
2.149999999999977
100
AcDbArc
 50
180.0
 51
270.0
  0
LINE
  5
1F8
330
1F
100
AcDbEntity
  8
0
  6
Continuous
 62
     7
370
    15
100
AcDbLine
 10
68.9131733849
 20
951.9868455242
 30
0.0
 11
68.9131733849
 21
963.4868464778
 31
0.0
  0
ARC
  5
1F9
330
1F
100
AcDbEntity
  8
0
  6
Continuous
 62
     7
370
    15
100
AcDbCircle
 10
71.0631738208
 20
963.4868171021
 30
0.0
 40
2.149999999999977
100
AcDbArc
 50
90.0
 51
180.0
  0
LINE
  5
1FA
330
1F
100
AcDbEntity
  8
0
  6
Continuous
 62
     7
370
    15
100
AcDbLine
 10
71.0631725266
 20
965.6368456195
 30
0.0
 11
71.064781852
 21
965.6368456195
 31
0.0
  0
LINE
  5
1FB
330
1F
100
AcDbEntity
  8
0
  6
Continuous
 62
     7
370
    15
100
AcDbLine
 10
71.064781852
 20
965.6368456195
 30
0.0
 11
71.064781852
 21
963.3368215869
 31
0.0
  0
LINE
  5
1FC
330
1F
100
AcDbEntity
  8
0
  6
Continuous
 62
     7
370
    15
100
AcDbLine
 10
137.5631741136
 20
963.3368215869
 30
0.0
 11
71.064781852
 21
963.3368215869
 31
0.0
  0
LINE
  5
1FD
330
1F
100
AcDbEntity
  8
0
  6
Continuous
 62
     7
370
    15
100
AcDbLine
 10
137.5631741136
 20
963.3368215869
 30
0.0
 11
137.5631741136
 21
965.6368456195
 31
0.0
  0
ARC
  5
1FE
330
1F
100
AcDbEntity
  8
0
  6
Continuous
 62
     7
370
    15
100
AcDbCircle
 10
137.5631738208
 20
963.4868171021
 30
0.0
 40
2.150000000000006
100
AcDbArc
 50
359.9999999959
 51
90.0
  0
LINE
  5
1FF
330
1F
100
AcDbEntity
  8
0
  6
Continuous
 62
     7
370
    15
100
AcDbLine
 10
139.7131741866
 20
963.4868464778
 30
0.0
 11
139.7131741866
 21
951.9868455242
 31
0.0
  0
ARC
  5
200
330
1F
100
AcDbEntity
  8
0
  6
Continuous
 62
     7
370
    15
100
AcDbCircle
 10
144.0631738208
 20
951.9868171017
 30
0.0
 40
4.349999999999937
100
AcDbArc
 50
179.999999996
 51
252.5584061437
  0
LINE
  5
201
330
1F
100
AcDbEntity
  8
0
  6
Continuous
 62
     7
370
    15
100
AcDbLine
 10
142.7593328878
 20
947.836812527
 30
0.0
 11
137.5631741136
 21
947.836812527
 31
0.0
  0
LINE
  5
202
330
1F
100
AcDbEntity
  8
0
  6
Continuous
 62
     7
370
    15
100
AcDbLine
 10
81.9131736531
 20
950.1368365596
 30
0.0
 11
81.9131736531
 21
949.8368463825
 31
0.0
  0
LINE
  5
203
330
1F
100
AcDbEntity
  8
0
  6
Continuous
 62
     7
370
    15
100
AcDbLine
 10
137.5631741136
 20
947.836812527
 30
0.0
 11
137.5631741136
 21
950.1368365596
 31
0.0
  0
LINE
  5
204
330
1F
100
AcDbEntity
  8
0
  6
Continuous
 62
     7
370
    15
100
AcDbLine
 10
96.8147818818
 20
979.136820824
 30
0.0
 11
111.8147806152
 21
979.136820824
 31
0.0
  0
LINE
  5
205
330
1F
100
AcDbEntity
  8
0
  6
Continuous
 62
     8
370
    15
100
AcDbLine
 10
206.8559010401
 20
51.9368163656
 30
0.0
 11
178.3558991625
 21
51.9368163656
 31
0.0
  0
LINE
  5
206
330
1F
100
AcDbEntity
  8
0
  6
Continuous
 62
     8
370
    15
100
AcDbLine
 10
235.3558991923
 20
51.9368163656
 30
0.0
 11
206.8559010401
 21
51.9368163656
 31
0.0
  0
LINE
  5
207
330
1F
100
AcDbEntity
  8
0
  6
Continuous
 62
     8
370
    15
100
AcDbLine
 10
814.355835773
 20
51.9368163656
 30
0.0
 11
757.3558543696
 21
51.9368163656
 31
0.0
  0
LINE
  5
208
330
1F
100
AcDbEntity
  8
0
  6
Continuous
 62
     8
370
    15
100
AcDbLine
 10
206.8559010401
 20
216.4368181835
 30
0.0
 11
174.9559012129
 21
216.4368181835
 31
0.0
  0
LINE
  5
209
330
1F
100
AcDbEntity
  8
0
  6
Continuous
 62
     8
370
    15
100
AcDbLine
 10
238.7558971419
 20
216.4368181835
 30
0.0
 11
206.8559010401
 21
216.4368181835
 31
0.0
  0
LINE
  5
20A
330
1F
100
AcDbEntity
  8
0
  6
Continuous
 62
     8
370
    15
100
AcDbLine
 10
206.8559010401
 20
129.1969231676
 30
0.0
 11
175.0198122933
 21
129.1969231676
 31
0.0
  0
LINE
  5
20B
330
1F
100
AcDbEntity
  8
0
  6
Continuous
 62
     8
370
    15
100
AcDbLine
 10
238.6919860616
 20
129.1969231676
 30
0.0
 11
206.8559010401
 21
129.1969231676
 31
0.0
  0
LINE
  5
20C
330
1F
100
AcDbEntity
  8
0
  6
Continuous
 62
     8
370
    15
100
AcDbLine
 10
206.8559010401
 20
129.9693844627
 30
0.0
 11
174.9559012129
 21
129.9693844627
 31
0.0
  0
LINE
  5
20D
330
1F
100
AcDbEntity
  8
0
  6
Continuous
 62
     8
370
    15
100
AcDbLine
 10
238.7558971419
 20
129.9693844627
 30
0.0
 11
206.8559010401
 21
129.9693844627
 31
0.0
  0
LINE
  5
20E
330
1F
100
AcDbEntity
  8
0
  6
Continuous
 62
     8
370
    15
100
AcDbLine
 10
817.7558635249
 20
216.4368181835
 30
0.0
 11
753.9558862224
 21
216.4368181835
 31
0.0
  0
LINE
  5
20F
330
1F
100
AcDbEntity
  8
0
  6
Continuous
 62
     8
370
    15
100
AcDbLine
 10
817.6919673457
 20
129.1969231676
 30
0.0
 11
754.0197824016
 21
129.1969231676
 31
0.0
  0
LINE
  5
210
330
1F
100
AcDbEntity
  8
0
  6
Continuous
 62
     8
370
    15
100
AcDbLine
 10
817.7558635249
 20
129.9693844627
 30
0.0
 11
753.9558862224
 21
129.9693844627
 31
0.0
  0
LINE
  5
211
330
1F
100
AcDbEntity
  8
0
  6
Continuous
 62
     8
370
    15
100
AcDbLine
 10
874.3558381572
 20
247.3368171483
 30
0.0
 11
874.4558547511
 21
247.3368171483
 31
0.0
  0
LINE
  5
212
330
1F
100
AcDbEntity
  8
0
  6
Continuous
 62
     8
370
    15
100
AcDbLine
 10
873.9558909907
 20
223.1868169616
 30
0.0
 11
874.3558381572
 21
223.1868169616
 31
0.0
  0
LINE
  5
213
330
1F
100
AcDbEntity
  8
0
  6
Continuous
 62
     8
370
    15
100
AcDbLine
 10
874.3558381572
 20
229.9368176024
 30
0.0
 11
873.9558909907
 21
229.9368176024
 31
0.0
  0
LINE
  5
214
330
1F
100
AcDbEntity
  8
0
  6
Continuous
 62
     8
370
    15
100
AcDbLine
 10
142.0787242129
 20
207.0868163715
 30
0.0
 11
147.9766410663
 21
207.0868163715
 31
0.0
  0
LINE
  5
215
330
1F
100
AcDbEntity
  8
0
  6
Continuous
 62
     8
370
    15
100
AcDbLine
 10
147.9766410663
 20
207.7868170451
 30
0.0
 11
142.0787242129
 21
207.7868170451
 31
0.0
  0
ARC
  5
216
330
1F
100
AcDbEntity
  8
0
  6
Continuous
 62
     8
370
    15
100
AcDbCircle
 10
148.2633133281
 20
207.7872910163
 30
0.0
 40
0.253519483843604
100
AcDbArc
 50
139.4496259023
 51
180.1071182587
  0
LINE
  5
217
330
1F
100
AcDbEntity
  8
0
  6
Continuous
 62
     8
370
    15
100
AcDbLine
 10
148.1274203285
 20
208.2868180583
 30
0.0
 11
148.1211935058
 21
208.2868180583
 31
0.0
  0
LINE
  5
218
330
1F
100
AcDbEntity
  8
0
  6
Continuous
 62
     8
370
    15
100
AcDbLine
 10
148.1274203285
 20
213.386818708
 30
0.0
 11
148.1211935058
 21
213.386818708
 31
0.0
  0
LINE
  5
219
330
1F
100
AcDbEntity
  8
0
  6
Continuous
 62
     8
370
    15
100
AcDbLine
 10
154.5115806981
 20
213.386818708
 30
0.0
 11
154.6352156326
 21
213.386818708
 31
0.0
  0
LINE
  5
21A
330
1F
100
AcDbEntity
  8
0
  6
Continuous
 62
     8
370
    15
100
AcDbLine
 10
158.0558647289
 20
207.7868170451
 30
0.0
 11
154.3147642984
 21
207.7868170451
 31
0.0
  0
LINE
  5
21B
330
1F
100
AcDbEntity
  8
0
  6
Continuous
 62
     8
370
    15
100
AcDbLine
 10
154.3147642984
 20
207.0868163715
 30
0.0
 11
158.0558647289
 21
207.0868163715
 31
0.0
  0
LINE
  5
21C
330
1F
100
AcDbEntity
  8
0
  6
Continuous
 62
     8
370
    15
100
AcDbLine
 10
144.0827422663
 20
209.4516790818
 30
0.0
 11
144.0827422663
 21
209.2368155132
 31
0.0
  0
LINE
  5
21D
330
1F
100
AcDbEntity
  8
0
  6
Continuous
 62
     8
370
    15
100
AcDbLine
 10
144.2461893781
 20
209.2368155132
 30
0.0
 11
144.2461893781
 21
209.3001379977
 31
0.0
  0
LINE
  5
21E
330
1F
100
AcDbEntity
  8
0
  6
Continuous
 62
     8
370
    15
100
AcDbLine
 10
142.5516609921
 20
208.2868180583
 30
0.0
 11
148.1021647229
 21
208.2868180583
 31
0.0
  0
LINE
  5
21F
330
1F
100
AcDbEntity
  8
0
  6
Continuous
 62
     8
370
    15
100
AcDbLine
 10
154.5115806981
 20
208.2868180583
 30
0.0
 11
158.0183380171
 21
208.2868180583
 31
0.0
  0
LINE
  5
220
330
1F
100
AcDbEntity
  8
0
  6
Continuous
 62
     8
370
    15
100
AcDbLine
 10
158.0183380171
 20
208.9868187319
 30
0.0
 11
154.6352156326
 21
208.9868187319
 31
0.0
  0
LINE
  5
221
330
1F
100
AcDbEntity
  8
0
  6
Continuous
 62
     8
370
    15
100
AcDbLine
 10
148.1211935058
 20
208.9868187319
 30
0.0
 11
142.5516609921
 21
208.9868187319
 31
0.0
  0
LINE
  5
222
330
1F
100
AcDbEntity
  8
0
  6
Continuous
 62
     8
370
    15
100
AcDbLine
 10
141.9001961946
 20
207.7868170451
 30
0.0
 11
142.0787204876
 21
207.7868170451
 31
0.0
  0
LINE
  5
223
330
1F
100
AcDbEntity
  8
0
  6
Continuous
 62
     8
370
    15
100
AcDbLine
 10
141.9001961946
 20
202.6868163954
 30
0.0
 11
142.0787242129
 21
202.6868163954
 31
0.0
  0
LINE
  5
224
330
1F
100
AcDbEntity
  8
0
  6
Continuous
 62
     8
370
    15
100
AcDbLine
 10
158.3483298197
 20
207.7868170451
 30
0.0
 11
158.669803746
 21
207.7868170451
 31
0.0
  0
LINE
  5
225
330
1F
100
AcDbEntity
  8
0
  6
Continuous
 62
     8
370
    15
100
AcDbLine
 10
158.3483298197
 20
202.6868163954
 30
0.0
 11
158.669803746
 21
202.6868163954
 31
0.0
  0
LINE
  5
226
330
1F
100
AcDbEntity
  8
0
  6
Continuous
 62
     8
370
    15
100
AcDbLine
 10
158.3483298197
 20
207.7868170451
 30
0.0
 11
158.0558647289
 21
207.7868170451
 31
0.0
  0
LINE
  5
227
330
1F
100
AcDbEntity
  8
0
  6
Continuous
 62
     8
370
    15
100
AcDbLine
 10
156.6795692667
 20
202.6868163954
 30
0.0
 11
158.3483298197
 21
202.6868163954
 31
0.0
  0
LINE
  5
228
330
1F
100
AcDbEntity
  8
0
  6
Continuous
 62
     8
370
    15
100
AcDbLine
 10
156.6795692667
 20
206.8368158649
 30
0.0
 11
156.6795692667
 21
202.6868163954
 31
0.0
  0
LINE
  5
229
330
1F
100
AcDbEntity
  8
0
  6
Continuous
 62
     8
370
    15
100
AcDbLine
 10
156.6330068632
 20
202.6868163954
 30
0.0
 11
156.6795692667
 21
202.6868163954
 31
0.0
  0
LINE
  5
22A
330
1F
100
AcDbEntity
  8
0
  6
Continuous
 62
     8
370
    15
100
AcDbLine
 10
924.5737050548
 20
886.0646448444
 30
0.0
 11
924.1039012446
 21
887.072142155
 31
0.0
  0
LINE
  5
22B
330
1F
100
AcDbEntity
  8
0
  6
Continuous
 62
     8
370
    15
100
AcDbLine
 10
923.7658236995
 20
887.7971730541
 30
0.0
 11
923.7384055629
 21
887.8559432338
 31
0.0
  0
LINE
  5
22C
330
1F
100
AcDbEntity
  8
0
  6
Continuous
 62
     8
370
    15
100
AcDbLine
 10
912.8627036586
 20
882.7845416378
 30
0.0
 11
912.8901217952
 21
882.725771458
 31
0.0
  0
LINE
  5
22D
330
1F
100
AcDbEntity
  8
0
  6
Continuous
 62
     8
370
    15
100
AcDbLine
 10
913.2281993403
 20
882.000740559
 30
0.0
 11
913.6980031505
 21
880.9932432483
 31
0.0
  0
LINE
  5
22E
330
1F
100
AcDbEntity
  8
0
  6
Continuous
 62
     8
370
    15
100
AcDbLine
 10
113.814780943
 20
977.1368465732
 30
0.0
 11
94.814781554
 21
977.1368465732
 31
0.0
  0
ENDSEC
  0
SECTION
  2
OBJECTS
  0
DICTIONARY
  5
C
330
0
100
AcDbDictionary
281
     1
  3
ACAD_GROUP
350
D
  3
ACAD_LAYOUT
350
1A
  3
ACAD_MLINESTYLE
350
17
  3
ACAD_PLOTSETTINGS
350
19
  3
ACAD_PLOTSTYLENAME
350
E
  0
DICTIONARY
  5
D
102
{ACAD_REACTORS
330
C
102
}
330
C
100
AcDbDictionary
281
     1
  0
DICTIONARY
  5
1A
102
{ACAD_REACTORS
330
C
102
}
330
C
100
AcDbDictionary
281
     1
  3
Layout1
350
1E
  3
Layout2
350
26
  3
Model
350
22
  0
DICTIONARY
  5
17
102
{ACAD_REACTORS
330
C
102
}
330
C
100
AcDbDictionary
281
     1
  3
Standard
350
18
  0
DICTIONARY
  5
19
102
{ACAD_REACTORS
330
C
102
}
330
C
100
AcDbDictionary
281
     1
  0
ACDBDICTIONARYWDFLT
  5
E
102
{ACAD_REACTORS
330
C
102
}
330
C
100
AcDbDictionary
281
     1
  3
Normal
350
F
100
AcDbDictionaryWithDefault
340
F
  0
LAYOUT
  5
1E
102
{ACAD_REACTORS
330
1A
102
}
330
1A
100
AcDbPlotSettings
  1

  2
none_device
  4

  6

 40
0.0
 41
0.0
 42
0.0
 43
0.0
 44
0.0
 45
0.0
 46
0.0
 47
0.0
 48
0.0
 49
0.0
140
0.0
141
0.0
142
1.0
143
1.0
 70
   688
 72
     0
 73
     0
 74
     5
  7

 75
    16
147
1.0
148
0.0
149
0.0
100
AcDbLayout
  1
Layout1
 70
     1
 71
     1
 10
0.0
 20
0.0
 11
420.0
 21
297.0
 12
0.0
 22
0.0
 32
0.0
 14
1.0000000000E+20
 24
1.0000000000E+20
 34
1.0000000000E+20
 15
-1.0000000000E+20
 25
-1.0000000000E+20
 35
-1.0000000000E+20
146
0.0
 13
0.0
 23
0.0
 33
0.0
 16
1.0
 26
0.0
 36
0.0
 17
0.0
 27
1.0
 37
0.0
 76
     0
330
1B
  0
LAYOUT
  5
26
102
{ACAD_REACTORS
330
1A
102
}
330
1A
100
AcDbPlotSettings
  1

  2
none_device
  4

  6

 40
0.0
 41
0.0
 42
0.0
 43
0.0
 44
0.0
 45
0.0
 46
0.0
 47
0.0
 48
0.0
 49
0.0
140
0.0
141
0.0
142
1.0
143
1.0
 70
   688
 72
     0
 73
     0
 74
     5
  7

 75
    16
147
1.0
148
0.0
149
0.0
100
AcDbLayout
  1
Layout2
 70
     1
 71
     2
 10
0.0
 20
0.0
 11
0.0
 21
0.0
 12
0.0
 22
0.0
 32
0.0
 14
0.0
 24
0.0
 34
0.0
 15
0.0
 25
0.0
 35
0.0
146
0.0
 13
0.0
 23
0.0
 33
0.0
 16
1.0
 26
0.0
 36
0.0
 17
0.0
 27
1.0
 37
0.0
 76
     0
330
23
  0
LAYOUT
  5
22
102
{ACAD_REACTORS
330
1A
102
}
330
1A
100
AcDbPlotSettings
  1

  2
none_device
  4

  6

 40
0.0
 41
0.0
 42
0.0
 43
0.0
 44
0.0
 45
0.0
 46
0.0
 47
0.0
 48
0.0
 49
0.0
140
0.0
141
0.0
142
1.0
143
1.0
 70
  1712
 72
     0
 73
     0
 74
     0
  7

 75
     0
147
1.0
148
0.0
149
0.0
100
AcDbLayout
  1
Model
 70
     1
 71
     0
 10
0.0
 20
0.0
 11
1000.0
 21
1000.0
 12
0.0
 22
0.0
 32
0.0
 14
0.0
 24
0.0
 34
0.0
 15
1000.0
 25
1000.0
 35
0.0
146
0.0
 13
0.0
 23
0.0
 33
0.0
 16
1.0
 26
0.0
 36
0.0
 17
0.0
 27
1.0
 37
0.0
 76
     0
330
1F
331
29
  0
MLINESTYLE
  5
18
102
{ACAD_REACTORS
330
17
102
}
330
17
100
AcDbMlineStyle
  2
Standard
 70
     0
  3

 62
   256
 51
90.0
 52
90.0
 71
     2
 49
0.5
 62
   256
  6
BYLAYER
 49
-0.5
 62
   256
  6
BYLAYER
  0
ACDBPLACEHOLDER
  5
F
102
{ACAD_REACTORS
330
E
102
}
330
E
  0
ENDSEC
  0
EOF
