  0
SECTION
  2
HEADER
  9
$ACADVER
  1
AC1015
  9
$ACADMAINTVER
 70
     6
  9
$DWGCODEPAGE
  3
ANSI_1252
  9
$INSBASE
 10
0.0
 20
0.0
 30
0.0
  9
$EXTMIN
 10
0.0
 20
0.0
 30
0.0
  9
$EXTMAX
 10
1000.0
 20
1000.0
 30
0.0
  9
$LIMMIN
 10
0.0
 20
0.0
  9
$LIMMAX
 10
1000.0
 20
1000.0
  9
$ORTHOMODE
 70
     0
  9
$REGENMODE
 70
     1
  9
$FILLMODE
 70
     1
  9
$QTEXTMODE
 70
     0
  9
$MIRRTEXT
 70
     1
  9
$LTSCALE
 40
1.0
  9
$ATTMODE
 70
     1
  9
$TEXTSIZE
 40
3.5
  9
$TRACEWID
 40
1.0
  9
$TEXTSTYLE
  7
Standard
  9
$CLAYER
  8
0
  9
$CELTYPE
  6
ByLayer
  9
$CECOLOR
 62
   256
  9
$CELTSCALE
 40
1.0
  9
$DISPSILH
 70
     0
  9
$DIMSCALE
 40
1.0
  9
$DIMASZ
 40
3.302
  9
$DIMEXO
 40
1.0
  9
$DIMDLI
 40
3.75
  9
$DIMRND
 40
0.0
  9
$DIMDLE
 40
0.0
  9
$DIMEXE
 40
1.0
  9
$DIMTP
 40
0.0
  9
$DIMTM
 40
0.0
  9
$DIMTXT
 40
3.5
  9
$DIMCEN
 40
2.5
  9
$DIMTSZ
 40
0.0
  9
$DIMTOL
 70
     0
  9
$DIMLIM
 70
     0
  9
$DIMTIH
 70
     1
  9
$DIMTOH
 70
     1
  9
$DIMSE1
 70
     0
  9
$DIMSE2
 70
     0
  9
$DIMTAD
 70
     1
  9
$DIMZIN
 70
     0
  9
$DIMBLK
  1

  9
$DIMASO
 70
     1
  9
$DIMSHO
 70
     1
  9
$DIMPOST
  1

  9
$DIMAPOST
  1

  9
$DIMALT
 70
     0
  9
$DIMALTD
 70
     3
  9
$DIMALTF
 40
0.0393700787
  9
$DIMLFAC
 40
1.0
  9
$DIMTOFL
 70
     1
  9
$DIMTVP
 40
0.0
  9
$DIMTIX
 70
     0
  9
$DIMSOXD
 70
     0
  9
$DIMSAH
 70
     0
  9
$DIMBLK1
  1

  9
$DIMBLK2
  1

  9
$DIMSTYLE
  2
ISO-25
  9
$DIMCLRD
 70
     0
  9
$DIMCLRE
 70
     0
  9
$DIMCLRT
 70
     0
  9
$DIMTFAC
 40
1.0
  9
$DIMGAP
 40
1.524
  9
$DIMJUST
 70
     0
  9
$DIMSD1
 70
     0
  9
$DIMSD2
 70
     0
  9
$DIMTOLJ
 70
     0
  9
$DIMTZIN
 70
     0
  9
$DIMALTZ
 70
     0
  9
$DIMALTTZ
 70
     0
  9
$DIMUPT
 70
     0
  9
$DIMDEC
 70
     3
  9
$DIMTDEC
 70
     3
  9
$DIMALTU
 70
     2
  9
$DIMALTTD
 70
     3
  9
$DIMTXSTY
  7
Standard
  9
$DIMAUNIT
 70
     0
  9
$DIMADEC
 70
     2
  9
$DIMALTRND
 40
0.0
  9
$DIMAZIN
 70
     0
  9
$DIMDSEP
 70
    44
  9
$DIMATFIT
 70
     3
  9
$DIMFRAC
 70
     0
  9
$DIMLDRBLK
  1

  9
$DIMLUNIT
 70
     2
  9
$DIMLWD
 70
    -2
  9
$DIMLWE
 70
    -2
  9
$DIMTMOVE
 70
     0
  9
$LUNITS
 70
     2
  9
$LUPREC
 70
     8
  9
$SKETCHINC
 40
1.0
  9
$FILLETRAD
 40
10.0
  9
$AUNITS
 70
     0
  9
$AUPREC
 70
     8
  9
$MENU
  1
.
  9
$ELEVATION
 40
0.0
  9
$PELEVATION
 40
0.0
  9
$THICKNESS
 40
0.0
  9
$LIMCHECK
 70
     0
  9
$CHAMFERA
 40
10.0
  9
$CHAMFERB
 40
10.0
  9
$CHAMFERC
 40
20.0
  9
$CHAMFERD
 40
0.0
  9
$SKPOLY
 70
     0
  9
$TDCREATE
 40
2457053.614414803
  9
$TDUCREATE
 40
2457053.614414803
  9
$TDUPDATE
 40
2457053.614415335
  9
$TDUUPDATE
 40
2457053.614415335
  9
$TDINDWG
 40
0.0000000116
  9
$TDUSRTIMER
 40
0.0000000116
  9
$USRTIMER
 70
     1
  9
$ANGBASE
 50
0.0
  9
$ANGDIR
 70
     0
  9
$PDMODE
 70
     0
  9
$PDSIZE
 40
-1.0
  9
$PLINEWID
 40
0.0
  9
$SPLFRAME
 70
     0
  9
$SPLINETYPE
 70
     6
  9
$SPLINESEGS
 70
     8
  9
$HANDSEED
  5
2A3
  9
$SURFTAB1
 70
     6
  9
$SURFTAB2
 70
     6
  9
$SURFTYPE
 70
     6
  9
$SURFU
 70
     6
  9
$SURFV
 70
     6
  9
$UCSBASE
  2

  9
$UCSNAME
  2

  9
$UCSORG
 10
0.0
 20
0.0
 30
0.0
  9
$UCSXDIR
 10
1.0
 20
0.0
 30
0.0
  9
$UCSYDIR
 10
0.0
 20
1.0
 30
0.0
  9
$UCSORTHOREF
  2

  9
$UCSORTHOVIEW
 70
     0
  9
$UCSORGTOP
 10
0.0
 20
0.0
 30
0.0
  9
$UCSORGBOTTOM
 10
0.0
 20
0.0
 30
0.0
  9
$UCSORGLEFT
 10
0.0
 20
0.0
 30
0.0
  9
$UCSORGRIGHT
 10
0.0
 20
0.0
 30
0.0
  9
$UCSORGFRONT
 10
0.0
 20
0.0
 30
0.0
  9
$UCSORGBACK
 10
0.0
 20
0.0
 30
0.0
  9
$PUCSBASE
  2

  9
$PUCSNAME
  2

  9
$PUCSORG
 10
0.0
 20
0.0
 30
0.0
  9
$PUCSXDIR
 10
1.0
 20
0.0
 30
0.0
  9
$PUCSYDIR
 10
0.0
 20
1.0
 30
0.0
  9
$PUCSORTHOREF
  2

  9
$PUCSORTHOVIEW
 70
     0
  9
$PUCSORGTOP
 10
0.0
 20
0.0
 30
0.0
  9
$PUCSORGBOTTOM
 10
0.0
 20
0.0
 30
0.0
  9
$PUCSORGLEFT
 10
0.0
 20
0.0
 30
0.0
  9
$PUCSORGRIGHT
 10
0.0
 20
0.0
 30
0.0
  9
$PUCSORGFRONT
 10
0.0
 20
0.0
 30
0.0
  9
$PUCSORGBACK
 10
0.0
 20
0.0
 30
0.0
  9
$USERI1
 70
     0
  9
$USERI2
 70
     0
  9
$USERI3
 70
     0
  9
$USERI4
 70
     0
  9
$USERI5
 70
     0
  9
$USERR1
 40
0.0
  9
$USERR2
 40
0.0
  9
$USERR3
 40
0.0
  9
$USERR4
 40
0.0
  9
$USERR5
 40
0.0
  9
$WORLDVIEW
 70
     1
  9
$SHADEDGE
 70
     3
  9
$SHADEDIF
 70
    70
  9
$TILEMODE
 70
     1
  9
$MAXACTVP
 70
    64
  9
$PINSBASE
 10
0.0
 20
0.0
 30
0.0
  9
$PLIMCHECK
 70
     0
  9
$PEXTMIN
 10
1.0000000000E+20
 20
1.0000000000E+20
 30
1.0000000000E+20
  9
$PEXTMAX
 10
-1.0000000000E+20
 20
-1.0000000000E+20
 30
-1.0000000000E+20
  9
$PLIMMIN
 10
0.0
 20
0.0
  9
$PLIMMAX
 10
420.0
 20
297.0
  9
$UNITMODE
 70
     0
  9
$VISRETAIN
 70
     1
  9
$PLINEGEN
 70
     0
  9
$PSLTSCALE
 70
     1
  9
$TREEDEPTH
 70
  3020
  9
$CMLSTYLE
  2
Standard
  9
$CMLJUST
 70
     0
  9
$CMLSCALE
 40
20.0
  9
$PROXYGRAPHICS
 70
     1
  9
$MEASUREMENT
 70
     1
  9
$CELWEIGHT
370
    -1
  9
$ENDCAPS
280
     0
  9
$JOINSTYLE
280
     0
  9
$LWDISPLAY
290
     1
  9
$INSUNITS
 70
     4
  9
$HYPERLINKBASE
  1

  9
$STYLESHEET
  1

  9
$XEDIT
290
     1
  9
$CEPSNTYPE
380
     0
  9
$PSTYLEMODE
290
     1
  9
$FINGERPRINTGUID
  2
{82B02604-2101-45A1-A016-BF1B4B719083}
  9
$VERSIONGUID
  2
{FAEB1C32-E019-11D5-929B-00C0DF256EC4}
  9
$EXTNAMES
290
     1
  9
$PSVPSCALE
 40
0.0
  9
$OLESTARTUP
290
     0
  0
ENDSEC
  0
SECTION
  2
CLASSES
  0
CLASS
  1
ACDBDICTIONARYWDFLT
  2
AcDbDictionaryWithDefault
  3
ObjectDBX Classes
 90
        0
280
     0
281
     0
  0
CLASS
  1
VISUALSTYLE
  2
AcDbVisualStyle
  3
ObjectDBX Classes
 90
     4095
280
     0
281
     0
  0
CLASS
  1
MATERIAL
  2
AcDbMaterial
  3
ObjectDBX Classes
 90
     1153
280
     0
281
     0
  0
CLASS
  1
ACDBPLACEHOLDER
  2
AcDbPlaceHolder
  3
ObjectDBX Classes
 90
        0
280
     0
281
     0
  0
CLASS
  1
LAYOUT
  2
AcDbLayout
  3
ObjectDBX Classes
 90
        0
280
     0
281
     0
  0
ENDSEC
  0
SECTION
  2
TABLES
  0
TABLE
  2
VPORT
  5
8
330
0
100
AcDbSymbolTable
 70
     1
  0
VPORT
  5
29
330
8
100
AcDbSymbolTableRecord
100
AcDbViewportTableRecord
  2
*Active
 70
     0
 10
0.0
 20
0.0
 11
1.0
 21
1.0
 12
500.0
 22
500.0
 13
0.0
 23
0.0
 14
10.0
 24
10.0
 15
10.0
 25
10.0
 16
0.0
 26
0.0
 36
1.0
 17
0.0
 27
0.0
 37
0.0
 40
1000.0
 41
1.0
 42
50.0
 43
0.0
 44
0.0
 50
0.0
 51
0.0
 71
     0
 72
  2000
 73
     1
 74
     3
 75
     0
 76
     0
 77
     0
 78
     0
281
     0
 65
     1
110
0.0
120
0.0
130
0.0
111
1.0
121
0.0
131
0.0
112
0.0
122
1.0
132
0.0
 79
     0
146
0.0
  0
ENDTAB
  0
TABLE
  2
LTYPE
  5
5
330
0
100
AcDbSymbolTable
 70
     6
  0
LTYPE
  5
14
330
5
100
AcDbSymbolTableRecord
100
AcDbLinetypeTableRecord
  2
ByBlock
 70
     0
  3

 72
    65
 73
     0
 40
0.0
  0
LTYPE
  5
15
330
5
100
AcDbSymbolTableRecord
100
AcDbLinetypeTableRecord
  2
ByLayer
 70
     0
  3

 72
    65
 73
     0
 40
0.0
  0
LTYPE
  5
16
330
5
100
AcDbSymbolTableRecord
100
AcDbLinetypeTableRecord
  2
Continuous
 70
     0
  3
Solid line
 72
    65
 73
     0
 40
0.0
  0
LTYPE
  5
3F
330
5
100
AcDbSymbolTableRecord
100
AcDbLinetypeTableRecord
  2
HIDDEN
 70
     0
  3
Hidden __ __ __ __ __ __ __ __ __ __ __ __ __ __
 72
    65
 73
     2
 40
1.905
 49
1.27
 74
     0
 49
-0.635
 74
     0
  0
LTYPE
  5
40
330
5
100
AcDbSymbolTableRecord
100
AcDbLinetypeTableRecord
  2
PHANTOM
 70
     0
  3
Phantom ______  __  __  ______  __  __  ______
 72
    65
 73
     6
 40
12.7
 49
6.35
 74
     0
 49
-1.27
 74
     0
 49
1.27
 74
     0
 49
-1.27
 74
     0
 49
1.27
 74
     0
 49
-1.27
 74
     0
  0
LTYPE
  5
41
330
5
100
AcDbSymbolTableRecord
100
AcDbLinetypeTableRecord
  2
CENTER
 70
     0
  3
Center ____ _ ____ _ ____ _ ____ _ ____ _ ____
 72
    65
 73
     4
 40
10.16
 49
6.35
 74
     0
 49
-1.27
 74
     0
 49
1.27
 74
     0
 49
-1.27
 74
     0
  0
LTYPE
  5
42
330
5
100
AcDbSymbolTableRecord
100
AcDbLinetypeTableRecord
  2
CENTERX2
 70
     0
  3
Center (2x) ________  __  ________  __  _____
 72
    65
 73
     4
 40
20.32
 49
12.7
 74
     0
 49
-2.54
 74
     0
 49
2.54
 74
     0
 49
-2.54
 74
     0
  0
LTYPE
  5
43
330
5
100
AcDbSymbolTableRecord
100
AcDbLinetypeTableRecord
  2
DOT2
 70
     0
  3
Dot (.5x) ........................................
 72
    65
 73
     2
 40
0.635
 49
0.0
 74
     0
 49
-0.635
 74
     0
  0
ENDTAB
  0
TABLE
  2
LAYER
  5
2
330
0
100
AcDbSymbolTable
 70
     1
  0
LAYER
  5
10
330
2
100
AcDbSymbolTableRecord
100
AcDbLayerTableRecord
  2
0
 70
     0
 62
     7
  6
Continuous
370
    -3
390
F
  0
ENDTAB
  0
TABLE
  2
STYLE
  5
3
330
0
100
AcDbSymbolTable
 70
     1
  0
STYLE
  5
11
330
3
100
AcDbSymbolTableRecord
100
AcDbTextStyleTableRecord
  2
Standard
 70
     0
 40
0.0
 41
1.0
 50
0.0
 71
     0
 42
3.5
  3
txt
  4

  0
ENDTAB
  0
TABLE
  2
VIEW
  5
6
330
0
100
AcDbSymbolTable
 70
     0
  0
ENDTAB
  0
TABLE
  2
UCS
  5
7
330
0
100
AcDbSymbolTable
 70
     0
  0
ENDTAB
  0
TABLE
  2
APPID
  5
9
330
0
100
AcDbSymbolTable
 70
     1
  0
APPID
  5
12
330
9
100
AcDbSymbolTableRecord
100
AcDbRegAppTableRecord
  2
ACAD
 70
     0
  0
ENDTAB
  0
TABLE
  2
DIMSTYLE
  5
A
330
0
100
AcDbSymbolTable
 70
     1
100
AcDbDimStyleTable
  0
DIMSTYLE
105
27
330
A
100
AcDbSymbolTableRecord
100
AcDbDimStyleTableRecord
  2
ISO-25
 70
     0
 41
2.5
 42
0.625
 43
3.75
 44
1.25
 73
     0
 74
     0
 77
     1
 78
     8
140
2.5
141
2.5
143
0.0393700787
147
0.625
171
     3
172
     1
178
     0
271
     2
272
     2
274
     3
278
    44
283
     0
284
     8
340
11
  0
ENDTAB
  0
TABLE
  2
BLOCK_RECORD
  5
1
330
0
100
AcDbSymbolTable
 70
     1
  0
BLOCK_RECORD
  5
1F
330
1
100
AcDbSymbolTableRecord
100
AcDbBlockTableRecord
  2
*Model_Space
340
22
  0
BLOCK_RECORD
  5
1B
330
1
100
AcDbSymbolTableRecord
100
AcDbBlockTableRecord
  2
*Paper_Space
340
1E
  0
BLOCK_RECORD
  5
23
330
1
100
AcDbSymbolTableRecord
100
AcDbBlockTableRecord
  2
*Paper_Space0
340
26
  0
ENDTAB
  0
ENDSEC
  0
SECTION
  2
BLOCKS
  0
BLOCK
  5
20
330
1F
100
AcDbEntity
  8
0
100
AcDbBlockBegin
  2
*Model_Space
 70
     0
 10
0.0
 20
0.0
 30
0.0
  3
*Model_Space
  1

  0
ENDBLK
  5
21
330
1F
100
AcDbEntity
  8
0
100
AcDbBlockEnd
  0
BLOCK
  5
1C
330
1B
100
AcDbEntity
 67
     1
  8
0
100
AcDbBlockBegin
  2
*Paper_Space
 70
     0
 10
0.0
 20
0.0
 30
0.0
  3
*Paper_Space
  1

  0
ENDBLK
  5
1D
330
1B
100
AcDbEntity
 67
     1
  8
0
100
AcDbBlockEnd
  0
BLOCK
  5
24
330
23
100
AcDbEntity
  8
0
100
AcDbBlockBegin
  2
*Paper_Space0
 70
     0
 10
0.0
 20
0.0
 30
0.0
  3
*Paper_Space0
  1

  0
ENDBLK
  5
25
330
23
100
AcDbEntity
  8
0
100
AcDbBlockEnd
  0
ENDSEC
  0
SECTION
  2
ENTITIES
  0
LINE
  5
44
330
1F
100
AcDbEntity
  8
0
  6
Continuous
 62
     7
100
AcDbLine
 10
866.3507739802
 20
699.225415677
 30
0.0
 11
933.3507739802
 21
699.225415677
 31
0.0
  0
LINE
  5
45
330
1F
100
AcDbEntity
  8
0
  6
Continuous
 62
     7
100
AcDbLine
 10
933.3507739802
 20
699.225415677
 30
0.0
 11
958.6246490522
 21
753.425415677
 31
0.0
  0
LINE
  5
46
330
1F
100
AcDbEntity
  8
0
  6
Continuous
 62
     7
100
AcDbLine
 10
958.6246490522
 20
753.425415677
 30
0.0
 11
900.2188052796
 21
878.6771518454
 31
0.0
  0
LINE
  5
47
330
1F
100
AcDbEntity
  8
0
  6
Continuous
 62
     7
370
    15
100
AcDbLine
 10
872.9089903728
 20
474.1571630957
 30
0.0
 11
866.7760553544
 21
474.1571630957
 31
0.0
  0
LINE
  5
48
330
1F
100
AcDbEntity
  8
0
  6
Continuous
 62
     7
370
    15
100
AcDbLine
 10
866.7760553544
 20
454.1571630957
 30
0.0
 11
872.9089903728
 21
454.1571630957
 31
0.0
  0
ARC
  5
49
330
1F
100
AcDbEntity
  8
0
  6
Continuous
 62
     7
370
    15
100
AcDbCircle
 10
803.8760553544
 20
50.725415677
 30
0.0
 40
2.0
100
AcDbArc
 50
270.0
 51
0.0
  0
ARC
  5
4A
330
1F
100
AcDbEntity
  8
0
  6
Continuous
 62
     7
370
    15
100
AcDbCircle
 10
750.8760553544
 20
50.725415677
 30
0.0
 40
2.0
100
AcDbArc
 50
180.0
 51
270.0
  0
LINE
  5
4B
330
1F
100
AcDbEntity
  8
0
  6
Continuous
 62
     7
370
    15
100
AcDbLine
 10
805.8760553544
 20
50.725415677
 30
0.0
 11
805.8760553544
 21
54.725415677
 31
0.0
  0
LINE
  5
4C
330
1F
100
AcDbEntity
  8
0
  6
Continuous
 62
     7
370
    15
100
AcDbLine
 10
748.8760553544
 20
54.725415677
 30
0.0
 11
748.8760553544
 21
50.725415677
 31
0.0
  0
ARC
  5
4D
330
1F
100
AcDbEntity
  8
0
  6
Continuous
 62
     7
370
    15
100
AcDbCircle
 10
224.8760898967
 20
50.725415677
 30
0.0
 40
2.0
100
AcDbArc
 50
270.0
 51
0.0
  0
ARC
  5
4E
330
1F
100
AcDbEntity
  8
0
  6
Continuous
 62
     7
370
    15
100
AcDbCircle
 10
171.8760898967
 20
50.725415677
 30
0.0
 40
2.0
100
AcDbArc
 50
180.0
 51
270.0
  0
LINE
  5
4F
330
1F
100
AcDbEntity
  8
0
  6
Continuous
 62
     7
370
    15
100
AcDbLine
 10
226.8760898967
 20
50.725415677
 30
0.0
 11
226.8760898967
 21
54.725415677
 31
0.0
  0
LINE
  5
50
330
1F
100
AcDbEntity
  8
0
  6
Continuous
 62
     7
370
    15
100
AcDbLine
 10
169.8760898967
 20
54.725415677
 30
0.0
 11
169.8760898967
 21
50.725415677
 31
0.0
  0
LINE
  5
51
330
1F
100
AcDbEntity
  8
0
  6
Continuous
 62
     7
370
    15
100
AcDbLine
 10
226.6760898967
 20
54.725415677
 30
0.0
 11
226.6760898967
 21
122.725415677
 31
0.0
  0
LINE
  5
52
330
1F
100
AcDbEntity
  8
0
  6
Continuous
 62
     7
370
    15
100
AcDbLine
 10
170.0760898967
 20
122.725415677
 30
0.0
 11
170.0760898967
 21
54.725415677
 31
0.0
  0
LINE
  5
53
330
1F
100
AcDbEntity
  8
0
  6
Continuous
 62
     7
370
    15
100
AcDbLine
 10
805.6760553544
 20
54.725415677
 30
0.0
 11
805.6760553544
 21
122.725415677
 31
0.0
  0
LINE
  5
54
330
1F
100
AcDbEntity
  8
0
  6
Continuous
 62
     7
370
    15
100
AcDbLine
 10
749.0760553544
 20
122.725415677
 30
0.0
 11
749.0760553544
 21
54.725415677
 31
0.0
  0
ARC
  5
55
330
1F
100
AcDbEntity
  8
0
  6
Continuous
 62
     7
370
    15
100
AcDbCircle
 10
231.7760898967
 20
215.225415677
 30
0.0
 40
1.5
100
AcDbArc
 50
90.0
 51
180.0
  0
ARC
  5
56
330
1F
100
AcDbEntity
  8
0
  6
Continuous
 62
     7
370
    15
100
AcDbCircle
 10
164.9760898967
 20
215.225415677
 30
0.0
 40
1.5
100
AcDbArc
 50
0.0
 51
90.0
  0
LINE
  5
57
330
1F
100
AcDbEntity
  8
0
  6
Continuous
 62
     7
370
    15
100
AcDbLine
 10
230.2760898967
 20
128.7579816226
 30
0.0
 11
230.2760898967
 21
215.225415677
 31
0.0
  0
LINE
  5
58
330
1F
100
AcDbEntity
  8
0
  6
Continuous
 62
     7
370
    15
100
AcDbLine
 10
166.4760898967
 20
215.225415677
 30
0.0
 11
166.4760898967
 21
128.7579816226
 31
0.0
  0
ARC
  5
59
330
1F
100
AcDbEntity
  8
0
  6
Continuous
 62
     7
370
    15
100
AcDbCircle
 10
225.5760898967
 20
128.7579816226
 30
0.0
 40
4.699999999999989
100
AcDbArc
 50
350.5402980318
 51
0.0
  0
ARC
  5
5A
330
1F
100
AcDbEntity
  8
0
  6
Continuous
 62
     7
370
    15
100
AcDbCircle
 10
171.1760898967
 20
128.7579816226
 30
0.0
 40
4.700000000000033
100
AcDbArc
 50
180.0
 51
189.4597019682
  0
LINE
  5
5B
330
1F
100
AcDbEntity
  8
0
  6
Continuous
 62
     7
370
    15
100
AcDbLine
 10
166.5400031237
 20
127.9855183981
 30
0.0
 11
167.4164396763
 21
122.725415677
 31
0.0
  0
LINE
  5
5C
330
1F
100
AcDbEntity
  8
0
  6
Continuous
 62
     7
370
    15
100
AcDbLine
 10
229.335740117
 20
122.725415677
 30
0.0
 11
230.2121766697
 21
127.9855183981
 31
0.0
  0
ARC
  5
5D
330
1F
100
AcDbEntity
  8
0
  6
Continuous
 62
     7
370
    15
100
AcDbCircle
 10
810.7760553544
 20
215.225415677
 30
0.0
 40
1.499999999999943
100
AcDbArc
 50
90.0
 51
180.0
  0
ARC
  5
5E
330
1F
100
AcDbEntity
  8
0
  6
Continuous
 62
     7
370
    15
100
AcDbCircle
 10
743.9760553544
 20
215.225415677
 30
0.0
 40
1.5
100
AcDbArc
 50
0.0
 51
90.0
  0
LINE
  5
5F
330
1F
100
AcDbEntity
  8
0
  6
Continuous
 62
     7
370
    15
100
AcDbLine
 10
809.2760553544
 20
128.7579816226
 30
0.0
 11
809.2760553544
 21
215.225415677
 31
0.0
  0
LINE
  5
60
330
1F
100
AcDbEntity
  8
0
  6
Continuous
 62
     7
370
    15
100
AcDbLine
 10
745.4760553544
 20
215.225415677
 30
0.0
 11
745.4760553544
 21
128.7579816226
 31
0.0
  0
ARC
  5
61
330
1F
100
AcDbEntity
  8
0
  6
Continuous
 62
     7
370
    15
100
AcDbCircle
 10
804.5760553544
 20
128.7579816226
 30
0.0
 40
4.700000000000045
100
AcDbArc
 50
350.5402980318
 51
0.0
  0
ARC
  5
62
330
1F
100
AcDbEntity
  8
0
  6
Continuous
 62
     7
370
    15
100
AcDbCircle
 10
750.1760553544
 20
128.7579816226
 30
0.0
 40
4.700000000000045
100
AcDbArc
 50
180.0
 51
189.4597019682
  0
LINE
  5
63
330
1F
100
AcDbEntity
  8
0
  6
Continuous
 62
     7
370
    15
100
AcDbLine
 10
745.5399685814
 20
127.9855183981
 30
0.0
 11
746.416405134
 21
122.725415677
 31
0.0
  0
LINE
  5
64
330
1F
100
AcDbEntity
  8
0
  6
Continuous
 62
     7
370
    15
100
AcDbLine
 10
808.3357055747
 20
122.725415677
 30
0.0
 11
809.2121421274
 21
127.9855183981
 31
0.0
  0
ARC
  5
65
330
1F
100
AcDbEntity
  8
0
  6
Continuous
 62
     7
370
    15
100
AcDbCircle
 10
132.1260553544
 20
206.575415677
 30
0.0
 40
1.449999999999989
100
AcDbArc
 50
90.0
 51
180.0
  0
LINE
  5
66
330
1F
100
AcDbEntity
  8
0
  6
Continuous
 62
     7
370
    15
100
AcDbLine
 10
130.6760553544
 20
206.575415677
 30
0.0
 11
130.6760553544
 21
201.475415677
 31
0.0
  0
ARC
  5
67
330
1F
100
AcDbEntity
  8
0
  6
Continuous
 62
     7
370
    15
100
AcDbCircle
 10
130.9260553544
 20
201.475415677
 30
0.0
 40
0.2500000000000284
100
AcDbArc
 50
180.0
 51
270.0
  0
SPLINE
  5
68
330
1F
100
AcDbEntity
  8
0
  6
Continuous
 62
     7
370
    15
100
AcDbSpline
210
0.0
220
0.0
230
1.0
 70
     8
 71
     3
 72
    13
 73
     9
 74
     0
 42
0.00000001
 43
0.00000001
 12
1.0
 22
0.0
 32
0.0
 13
1.0
 23
0.0
 33
0.0
 40
0.0
 40
0.0
 40
0.0
 40
0.0
 40
0.0788346960325913
 40
0.2640312053489557
 40
0.4645628929676635
 40
0.6977919718993617
 40
0.9720667793451664
 40
1.0
 40
1.0
 40
1.0
 40
1.0
 10
133.6019031057861
 20
206.5755184192489
 30
0.0
 10
133.6012593844846
 20
206.586951607771
 30
0.0
 10
133.5991034490945
 20
206.6252433587183
 30
0.0
 10
133.6231709066687
 20
206.6894932006959
 30
0.0
 10
133.6731383230659
 20
206.7586360116414
 30
0.0
 10
133.7512351705921
 20
206.8087951981837
 30
0.0
 10
133.8185796375238
 20
206.8287736438836
 30
0.0
 10
133.8562525758307
 20
206.8246405319235
 30
0.0
 10
133.8597347020504
 20
206.8242585065713
 30
0.0
  0
LINE
  5
69
330
1F
100
AcDbEntity
  8
0
  6
Continuous
 62
     7
370
    15
100
AcDbLine
 10
133.5989143038
 20
201.475415677
 30
0.0
 11
133.5989143038
 21
206.575415677
 31
0.0
  0
ARC
  5
6A
330
1F
100
AcDbEntity
  8
0
  6
Continuous
 62
     7
370
    15
100
AcDbCircle
 10
133.3489143038
 20
201.475415677
 30
0.0
 40
0.2500000000000284
100
AcDbArc
 50
270.0
 51
0.0
  0
ARC
  5
6B
330
1F
100
AcDbEntity
  8
0
  6
Continuous
 62
     7
370
    15
100
AcDbCircle
 10
149.6260553544
 20
206.575415677
 30
0.0
 40
1.450000000000017
100
AcDbArc
 50
0.0
 51
90.0
  0
ARC
  5
6C
330
1F
100
AcDbEntity
  8
0
  6
Continuous
 62
     7
370
    15
100
AcDbCircle
 10
150.1185207032
 20
201.475415677
 30
0.0
 40
0.2500000000000284
100
AcDbArc
 50
180.0
 51
270.0
  0
LINE
  5
6D
330
1F
100
AcDbEntity
  8
0
  6
Continuous
 62
     7
370
    15
100
AcDbLine
 10
149.8685207032
 20
206.575415677
 30
0.0
 11
149.8685207032
 21
201.475415677
 31
0.0
  0
ARC
  5
6E
330
1F
100
AcDbEntity
  8
0
  6
Continuous
 62
     7
370
    15
100
AcDbCircle
 10
150.8260553544
 20
201.475415677
 30
0.0
 40
0.2500000000000284
100
AcDbArc
 50
270.0
 51
0.0
  0
LINE
  5
6F
330
1F
100
AcDbEntity
  8
0
  6
Continuous
 62
     7
370
    15
100
AcDbLine
 10
151.0760553544
 20
201.475415677
 30
0.0
 11
151.0760553544
 21
206.575415677
 31
0.0
  0
LINE
  5
70
330
1F
100
AcDbEntity
  8
0
  6
Continuous
 62
     7
370
    15
100
AcDbLine
 10
148.153196405
 20
205.625415677
 30
0.0
 11
148.153196405
 21
201.475415677
 31
0.0
  0
ARC
  5
71
330
1F
100
AcDbEntity
  8
0
  6
Continuous
 62
     7
370
    15
100
AcDbCircle
 10
148.403196405
 20
201.475415677
 30
0.0
 40
0.2500000000000284
100
AcDbArc
 50
180.0
 51
270.0
  0
SPLINE
  5
72
330
1F
100
AcDbEntity
  8
0
  6
Continuous
 62
     7
370
    15
100
AcDbSpline
210
0.0
220
0.0
230
1.0
 70
     8
 71
     3
 72
    12
 73
     8
 74
     0
 42
0.00000001
 43
0.00000001
 12
1.0
 22
0.0
 32
0.0
 13
1.0
 23
0.0
 33
0.0
 40
0.0
 40
0.0
 40
0.0
 40
0.0
 40
0.3205323546132829
 40
0.6002856112241056
 40
0.8264946228135095
 40
0.9994871092391295
 40
1.0
 40
1.0
 40
1.0
 40
1.0
 10
139.6404182697123
 20
207.0157890302192
 30
0.0
 10
139.638014225287
 20
206.970758321884
 30
0.0
 10
139.633511986257
 20
206.8864258484602
 30
0.0
 10
139.6177763936932
 20
206.7938880658032
 30
0.0
 10
139.6061667488584
 20
206.746936243367
 30
0.0
 10
139.5981429932189
 20
206.7311858756789
 30
0.0
 10
139.6002862099561
 20
206.7347477876444
 30
0.0
 10
139.6002925454143
 20
206.7347583168381
 30
0.0
  0
SPLINE
  5
73
330
1F
100
AcDbEntity
  8
0
  6
Continuous
 62
     7
370
    15
100
AcDbSpline
210
0.0
220
0.0
230
1.0
 70
     8
 71
     3
 72
     9
 73
     5
 74
     0
 42
0.00000001
 43
0.00000001
 12
1.0
 22
0.0
 32
0.0
 13
1.0
 23
0.0
 33
0.0
 40
0.0
 40
0.0
 40
0.0
 40
0.0
 40
0.997840785007372
 40
1.0
 40
1.0
 40
1.0
 40
1.0
 10
139.6401921207991
 20
207.075394819997
 30
0.0
 10
139.6409647844837
 20
207.0549630600133
 30
0.0
 10
139.6417391201254
 20
207.0344870880038
 30
0.0
 10
139.6404211155676
 20
207.0158293163595
 30
0.0
 10
139.6404182697123
 20
207.0157890302192
 30
0.0
  0
LINE
  5
74
330
1F
100
AcDbEntity
  8
0
  6
Continuous
 62
     7
370
    15
100
AcDbLine
 10
139.6413836645
 20
212.175415677
 30
0.0
 11
139.6413836645
 21
207.075415677
 31
0.0
  0
ARC
  5
75
330
1F
100
AcDbEntity
  8
0
  6
Continuous
 62
     7
370
    15
100
AcDbCircle
 10
139.8913836645
 20
212.175415677
 30
0.0
 40
0.2500000000000284
100
AcDbArc
 50
90.0
 51
180.0
  0
ARC
  5
76
330
1F
100
AcDbEntity
  8
0
  6
Continuous
 62
     7
370
    15
100
AcDbCircle
 10
145.9054051861
 20
212.175415677
 30
0.0
 40
0.2500000000000284
100
AcDbArc
 50
0.0
 51
90.0
  0
LINE
  5
77
330
1F
100
AcDbEntity
  8
0
  6
Continuous
 62
     7
370
    15
100
AcDbLine
 10
146.1554051861
 20
207.075415677
 30
0.0
 11
146.1554051861
 21
212.175415677
 31
0.0
  0
ARC
  5
78
330
1F
100
AcDbEntity
  8
0
  6
Continuous
 62
     7
370
    15
100
AcDbCircle
 10
149.3260553544
 20
206.575415677
 30
0.0
 40
0.2499999999999716
100
AcDbArc
 50
0.0
 51
90.0
  0
ARC
  5
79
330
1F
100
AcDbEntity
  8
0
  6
Continuous
 62
     7
370
    15
100
AcDbCircle
 10
149.3260553544
 20
205.875415677
 30
0.0
 40
0.2499999999999716
100
AcDbArc
 50
270.0
 51
0.0
  0
LINE
  5
7A
330
1F
100
AcDbEntity
  8
0
  6
Continuous
 62
     7
370
    15
100
AcDbLine
 10
149.5760553544
 20
205.875415677
 30
0.0
 11
149.5760553544
 21
206.575415677
 31
0.0
  0
LINE
  5
7B
330
1F
100
AcDbEntity
  8
0
  6
Continuous
 62
     7
370
    15
100
AcDbLine
 10
135.5967055226
 20
208.244836857
 30
0.0
 11
135.5967055226
 21
208.025415677
 31
0.0
  0
LINE
  5
7C
330
1F
100
AcDbEntity
  8
0
  6
Continuous
 62
     7
370
    15
100
AcDbLine
 10
145.8760553544
 20
200.425415677
 30
0.0
 11
145.8876460774
 21
200.432107584
 31
0.0
  0
LINE
  5
7D
330
1F
100
AcDbEntity
  8
0
  6
Continuous
 62
     7
370
    15
100
AcDbLine
 10
135.8760553544
 20
205.625415677
 30
0.0
 11
135.8644646313
 21
205.6187237699
 31
0.0
  0
LINE
  5
7E
330
1F
100
AcDbEntity
  8
0
  6
Continuous
 62
     7
370
    15
100
AcDbLine
 10
135.6874857201
 20
208.1342864061
 30
0.0
 11
135.8760553544
 21
208.025415677
 31
0.0
  0
LINE
  5
7F
330
1F
100
AcDbEntity
  8
0
  6
Continuous
 62
     7
370
    15
100
AcDbLine
 10
135.8760553544
 20
213.225415677
 30
0.0
 11
135.6874857201
 21
213.1165449478
 31
0.0
  0
LINE
  5
80
330
1F
100
AcDbEntity
  8
0
  6
Continuous
 62
     7
370
    15
100
AcDbLine
 10
146.0646249886
 20
213.1165449478
 30
0.0
 11
145.8760553544
 21
213.225415677
 31
0.0
  0
LINE
  5
81
330
1F
100
AcDbEntity
  8
0
  6
Continuous
 62
     7
370
    15
100
AcDbLine
 10
145.8760553544
 20
213.475415677
 30
0.0
 11
146.125839531
 21
213.6196286386
 31
0.0
  0
LINE
  5
82
330
1F
100
AcDbEntity
  8
0
  6
Continuous
 62
     7
370
    15
100
AcDbLine
 10
135.6262711778
 20
213.6196286386
 30
0.0
 11
135.8760553544
 21
213.475415677
 31
0.0
  0
LINE
  5
83
330
1F
100
AcDbEntity
  8
0
  6
Continuous
 62
     7
370
    15
100
AcDbLine
 10
137.8760553544
 20
213.475415677
 30
0.0
 11
137.8760553544
 21
213.225415677
 31
0.0
  0
LINE
  5
84
330
1F
100
AcDbEntity
  8
0
  6
Continuous
 62
     7
370
    15
100
AcDbLine
 10
143.8760553544
 20
213.225415677
 30
0.0
 11
143.8760553544
 21
213.475415677
 31
0.0
  0
ARC
  5
85
330
1F
100
AcDbEntity
  8
0
  6
Continuous
 62
     7
370
    15
100
AcDbCircle
 10
88.3349709003
 20
975.925415677
 30
0.0
 40
2.000000000000014
100
AcDbArc
 50
90.0
 51
180.0
  0
ARC
  5
86
330
1F
100
AcDbEntity
  8
0
  6
Continuous
 62
     7
370
    15
100
AcDbCircle
 10
103.3349709003
 20
975.925415677
 30
0.0
 40
2.000000000000014
100
AcDbArc
 50
0.0
 51
90.0
  0
LINE
  5
87
330
1F
100
AcDbEntity
  8
0
  6
Continuous
 62
     7
370
    15
100
AcDbLine
 10
105.3349709003
 20
966.425415677
 30
0.0
 11
105.3349709003
 21
975.925415677
 31
0.0
  0
LINE
  5
88
330
1F
100
AcDbEntity
  8
0
  6
Continuous
 62
     7
370
    15
100
AcDbLine
 10
86.3349709003
 20
975.925415677
 30
0.0
 11
86.3349709003
 21
966.425415677
 31
0.0
  0
LINE
  5
89
330
1F
100
AcDbEntity
  8
0
  6
Continuous
 62
     7
370
    15
100
AcDbLine
 10
869.7920284592
 20
691.925415677
 30
0.0
 11
866.7920314724
 21
691.925415677
 31
0.0
  0
LINE
  5
8A
330
1F
100
AcDbEntity
  8
0
  6
Continuous
 62
     7
370
    15
100
AcDbLine
 10
869.7920284592
 20
691.925415677
 30
0.0
 11
869.7920284592
 21
633.425415677
 31
0.0
  0
LINE
  5
8B
330
1F
100
AcDbEntity
  8
0
  6
Continuous
 62
     7
370
    15
100
AcDbLine
 10
866.7920314724
 20
633.425415677
 30
0.0
 11
869.7920284592
 21
633.425415677
 31
0.0
  0
LINE
  5
8C
330
1F
100
AcDbEntity
  8
0
  6
Continuous
 62
     7
370
    15
100
AcDbLine
 10
866.7920314724
 20
691.925415677
 30
0.0
 11
866.7920314724
 21
633.425415677
 31
0.0
  0
ARC
  5
8D
330
1F
100
AcDbEntity
  8
0
  6
Continuous
 62
     7
370
    15
100
AcDbCircle
 10
514.0122360302
 20
632.9254166813
 30
0.0
 40
352.7801497693447
100
AcDbArc
 50
359.7563808909
 51
0.0812059347
  0
LINE
  5
8E
330
1F
100
AcDbEntity
  8
0
  6
Continuous
 62
     7
370
    15
100
AcDbLine
 10
866.7891968259
 20
631.425415677
 30
0.0
 11
866.7891049517
 21
631.425415677
 31
0.0
  0
ARC
  5
8F
330
1F
100
AcDbEntity
  8
0
  6
Continuous
 62
     7
370
    15
100
AcDbCircle
 10
873.7565969897
 20
691.9254186025
 30
0.0
 40
6.999998404465108
100
AcDbArc
 50
111.786821142
 51
175.7270809188
  0
ARC
  5
90
330
1F
100
AcDbEntity
  8
0
  6
Continuous
 62
     7
370
    15
100
AcDbCircle
 10
873.7920313447
 20
691.9254175307
 30
0.0
 40
6.999999872267235
100
AcDbArc
 50
111.786827563
 51
180.0000151729
  0
ARC
  5
91
330
1F
100
AcDbEntity
  8
0
  6
Continuous
 62
     7
370
    15
100
AcDbCircle
 10
517.0122329915
 20
632.9254166814
 30
0.0
 40
352.7801497948002
100
AcDbArc
 50
359.756380891
 51
0.0812059347
  0
LINE
  5
92
330
1F
100
AcDbEntity
  8
0
  6
Continuous
 62
     7
370
    15
100
AcDbLine
 10
869.7891938127
 20
631.425415677
 30
0.0
 11
866.7891968259
 21
631.425415677
 31
0.0
  0
ARC
  5
93
330
1F
100
AcDbEntity
  8
0
  6
Continuous
 62
     7
370
    15
100
AcDbCircle
 10
873.7920264504
 20
691.9254176858
 30
0.0
 40
3.999997991195237
100
AcDbArc
 50
90.0000287741
 51
180.000028774
  0
LINE
  5
94
330
1F
100
AcDbEntity
  8
0
  6
Continuous
 62
     7
370
    15
100
AcDbLine
 10
873.7920244416
 20
695.925415677
 30
0.0
 11
894.7920033491
 21
695.925415677
 31
0.0
  0
LINE
  5
95
330
1F
100
AcDbEntity
  8
0
  6
Continuous
 62
     7
370
    15
100
AcDbLine
 10
896.7891666938
 20
698.425415677
 30
0.0
 11
896.7891666938
 21
695.925415677
 31
0.0
  0
LINE
  5
96
330
1F
100
AcDbEntity
  8
0
  6
Continuous
 62
     7
370
    15
100
AcDbLine
 10
896.7891666938
 20
695.925415677
 30
0.0
 11
894.7920033491
 21
695.925415677
 31
0.0
  0
LINE
  5
97
330
1F
100
AcDbEntity
  8
0
  6
Continuous
 62
     7
370
    15
100
AcDbLine
 10
870.8829782565
 20
633.925415677
 30
0.0
 11
872.9089903728
 21
633.925415677
 31
0.0
  0
LINE
  5
98
330
1F
100
AcDbEntity
  8
0
  6
Continuous
 62
     7
370
    15
100
AcDbLine
 10
872.9089903728
 20
651.425415677
 30
0.0
 11
870.8829782565
 21
651.425415677
 31
0.0
  0
ARC
  5
99
330
1F
100
AcDbEntity
  8
0
  6
Continuous
 62
     7
370
    15
100
AcDbCircle
 10
890.0552092279
 20
244.4612268201
 30
0.0
 40
1.650001004834541
100
AcDbArc
 50
270.0632328581
 51
89.9367671419
  0
ARC
  5
9A
330
1F
100
AcDbEntity
  8
0
  6
Continuous
 62
     7
370
    15
100
AcDbCircle
 10
900.8694859363
 20
258.9623566791
 30
0.0
 40
1.648870529090742
100
AcDbArc
 50
359.9607390873
 51
89.9606852078
  0
ARC
  5
9B
330
1F
100
AcDbEntity
  8
0
  6
Continuous
 62
     7
370
    15
100
AcDbCircle
 10
900.8694859363
 20
258.960096961
 30
0.0
 40
1.648870529090799
100
AcDbArc
 50
270.0393147922
 51
0.0392609126
  0
ARC
  5
9C
330
1F
100
AcDbEntity
  8
0
  6
Continuous
 62
     7
370
    15
100
AcDbCircle
 10
880.8968952412
 20
258.9623566791
 30
0.0
 40
1.648870529090948
100
AcDbArc
 50
359.9607390873
 51
89.9606852078
  0
ARC
  5
9D
330
1F
100
AcDbEntity
  8
0
  6
Continuous
 62
     7
370
    15
100
AcDbCircle
 10
880.8968952412
 20
258.960096961
 30
0.0
 40
1.648870529090948
100
AcDbArc
 50
270.0393147922
 51
0.0392609126
  0
ARC
  5
9E
330
1F
100
AcDbEntity
  8
0
  6
Continuous
 62
     7
370
    15
100
AcDbCircle
 10
880.7397657233
 20
258.9623077523
 30
0.0
 40
1.648992145421507
100
AcDbArc
 50
359.9624419902
 51
86.3169832355
  0
ARC
  5
9F
330
1F
100
AcDbEntity
  8
0
  6
Continuous
 62
     7
370
    15
100
AcDbCircle
 10
880.7397657236
 20
258.9601458876
 30
0.0
 40
1.64899214511117
100
AcDbArc
 50
273.6830075699
 51
0.0375580141
  0
ARC
  5
A0
330
1F
100
AcDbEntity
  8
0
  6
Continuous
 62
     7
370
    15
100
AcDbCircle
 10
889.8980576145
 20
244.4612268201
 30
0.0
 40
1.650116683837756
100
AcDbArc
 50
273.7052469075
 51
86.2947530926
  0
ARC
  5
A1
330
1F
100
AcDbEntity
  8
0
  6
Continuous
 62
     7
370
    15
100
AcDbCircle
 10
900.7123564197
 20
258.9623077529
 30
0.0
 40
1.64899214417795
100
AcDbArc
 50
359.9624419728
 51
86.3170200812
  0
ARC
  5
A2
330
1F
100
AcDbEntity
  8
0
  6
Continuous
 62
     7
370
    15
100
AcDbCircle
 10
900.7123564193
 20
258.9601458874
 30
0.0
 40
1.648992144488417
100
AcDbArc
 50
273.6829891135
 51
0.0375580229
  0
ARC
  5
A3
330
1F
100
AcDbEntity
  8
0
  6
Continuous
 62
     7
370
    15
100
AcDbCircle
 10
890.0555113472
 20
643.425415677
 30
0.0
 40
1.650000699068519
100
AcDbArc
 50
270.0527418581
 51
89.9472581419
  0
ARC
  5
A4
330
1F
100
AcDbEntity
  8
0
  6
Continuous
 62
     7
370
    15
100
AcDbCircle
 10
900.8694859362
 20
657.926545536
 30
0.0
 40
1.648870529090856
100
AcDbArc
 50
359.9607390874
 51
89.9606852078
  0
ARC
  5
A5
330
1F
100
AcDbEntity
  8
0
  6
Continuous
 62
     7
370
    15
100
AcDbCircle
 10
900.8694859362
 20
657.9242858179
 30
0.0
 40
1.648870529090742
100
AcDbArc
 50
270.0393147922
 51
0.0392609127
  0
ARC
  5
A6
330
1F
100
AcDbEntity
  8
0
  6
Continuous
 62
     7
370
    15
100
AcDbCircle
 10
880.8968952411
 20
657.926545536
 30
0.0
 40
1.64887052909072
100
AcDbArc
 50
359.9607390873
 51
89.9606852078
  0
ARC
  5
A7
330
1F
100
AcDbEntity
  8
0
  6
Continuous
 62
     7
370
    15
100
AcDbCircle
 10
880.8968952411
 20
657.9242858179
 30
0.0
 40
1.648870529090628
100
AcDbArc
 50
270.0393147922
 51
0.0392609127
  0
ARC
  5
A8
330
1F
100
AcDbEntity
  8
0
  6
Continuous
 62
     7
370
    15
100
AcDbCircle
 10
880.739796424
 20
657.926508982
 30
0.0
 40
1.648961452839557
100
AcDbArc
 50
359.9620113802
 51
87.2287035499
  0
ARC
  5
A9
330
1F
100
AcDbEntity
  8
0
  6
Continuous
 62
     7
370
    15
100
AcDbCircle
 10
880.7397656945
 20
657.9243347562
 30
0.0
 40
1.648992174104834
100
AcDbArc
 50
273.6838665124
 51
0.0375576071
  0
ARC
  5
AA
330
1F
100
AcDbEntity
  8
0
  6
Continuous
 62
     7
370
    15
100
AcDbCircle
 10
889.8980576144
 20
643.425415677
 30
0.0
 40
1.650116683827447
100
AcDbArc
 50
273.7052465851
 51
86.2947534202
  0
ARC
  5
AB
330
1F
100
AcDbEntity
  8
0
  6
Continuous
 62
     7
370
    15
100
AcDbCircle
 10
900.712357243
 20
657.9264969418
 30
0.0
 40
1.648991320934579
100
AcDbArc
 50
359.9624304156
 51
86.3414107875
  0
ARC
  5
AC
330
1F
100
AcDbEntity
  8
0
  6
Continuous
 62
     7
370
    15
100
AcDbCircle
 10
900.7123572298
 20
657.9243344174
 30
0.0
 40
1.648991334108665
100
AcDbArc
 50
273.6589795536
 51
0.0375693995
  0
LINE
  5
AD
330
1F
100
AcDbEntity
  8
0
  6
Continuous
 62
     7
370
    15
100
AcDbLine
 10
923.3210228894
 20
620.0063693552
 30
0.0
 11
923.3210228894
 21
585.0063693552
 31
0.0
  0
LINE
  5
AE
330
1F
100
AcDbEntity
  8
0
  6
Continuous
 62
     7
370
    15
100
AcDbLine
 10
923.3210228894
 20
585.0063693552
 30
0.0
 11
922.9089903728
 21
585.0063693552
 31
0.0
  0
LINE
  5
AF
330
1F
100
AcDbEntity
  8
0
  6
Continuous
 62
     7
370
    15
100
AcDbLine
 10
923.3210228894
 20
620.0063693552
 30
0.0
 11
922.9089903728
 21
620.0063693552
 31
0.0
  0
LINE
  5
B0
330
1F
100
AcDbEntity
  8
0
  6
Continuous
 62
     7
370
    15
100
AcDbLine
 10
923.3210228894
 20
585.0063693552
 30
0.0
 11
923.3210228894
 21
582.2559289931
 31
0.0
  0
ARC
  5
B1
330
1F
100
AcDbEntity
  8
0
  6
Continuous
 62
     7
370
    15
100
AcDbCircle
 10
922.8880101875
 20
582.5059289931
 30
0.0
 40
0.4999999999999842
100
AcDbArc
 50
272.4048581936
 51
330.0
  0
LINE
  5
B2
330
1F
100
AcDbEntity
  8
0
  6
Continuous
 62
     7
370
    15
100
AcDbLine
 10
923.3210228894
 20
622.7568097173
 30
0.0
 11
923.3210228894
 21
620.0063693552
 31
0.0
  0
ARC
  5
B3
330
1F
100
AcDbEntity
  8
0
  6
Continuous
 62
     7
370
    15
100
AcDbCircle
 10
922.8880101875
 20
622.5068097173
 30
0.0
 40
0.500000000000041
100
AcDbArc
 50
30.0
 51
87.5951418064
  0
LINE
  5
B4
330
1F
100
AcDbEntity
  8
0
  6
Continuous
 62
     7
370
    15
100
AcDbLine
 10
924.8420030747
 20
585.0063693552
 30
0.0
 11
923.3210228894
 21
585.0063693552
 31
0.0
  0
SPLINE
  5
B5
330
1F
100
AcDbEntity
  8
0
  6
Continuous
 62
     7
370
    15
100
AcDbSpline
210
0.0
220
0.0
230
1.0
 70
     8
 71
     3
 72
     9
 73
     5
 74
     0
 42
0.00000001
 43
0.00000001
 12
1.0
 22
0.0
 32
0.0
 13
1.0
 23
0.0
 33
0.0
 40
0.0
 40
0.0
 40
0.0
 40
0.0
 40
0.499992805237545
 40
0.9999999999999999
 40
0.9999999999999999
 40
0.9999999999999999
 40
0.9999999999999999
 10
924.842003074701
 20
584.8903439513906
 30
0.0
 10
924.8499418548474
 20
584.907389493764
 30
0.0
 10
924.8658196436144
 20
584.9414810690724
 30
0.0
 10
924.8499420071627
 20
584.9847397189837
 30
0.0
 10
924.842003074701
 20
585.006369355175
 30
0.0
  0
LINE
  5
B6
330
1F
100
AcDbEntity
  8
0
  6
Continuous
 62
     7
370
    15
100
AcDbLine
 10
924.8420030747
 20
584.8903439514
 30
0.0
 11
923.3210228894
 21
582.2559289931
 31
0.0
  0
LINE
  5
B7
330
1F
100
AcDbEntity
  8
0
  6
Continuous
 62
     7
370
    15
100
AcDbLine
 10
924.8420030747
 20
620.0063693552
 30
0.0
 11
923.3210228894
 21
620.0063693552
 31
0.0
  0
LINE
  5
B8
330
1F
100
AcDbEntity
  8
0
  6
Continuous
 62
     7
370
    15
100
AcDbLine
 10
924.8420030747
 20
585.0063693552
 30
0.0
 11
924.8420030747
 21
620.0063693552
 31
0.0
  0
LINE
  5
B9
330
1F
100
AcDbEntity
  8
0
  6
Continuous
 62
     7
370
    15
100
AcDbLine
 10
924.8420030747
 20
620.122394759
 30
0.0
 11
923.3210228894
 21
622.7568097173
 31
0.0
  0
SPLINE
  5
BA
330
1F
100
AcDbEntity
  8
0
  6
Continuous
 62
     7
370
    15
100
AcDbSpline
210
0.0
220
0.0
230
1.0
 70
     8
 71
     3
 72
     9
 73
     5
 74
     0
 42
0.00000001
 43
0.00000001
 12
1.0
 22
0.0
 32
0.0
 13
1.0
 23
0.0
 33
0.0
 40
0.0
 40
0.0
 40
0.0
 40
0.0
 40
0.4999928052375451
 40
1.0
 40
1.0
 40
1.0
 40
1.0
 10
924.8420030747012
 20
620.006369355175
 30
0.0
 10
924.8499418548479
 20
620.0279983544033
 30
0.0
 10
924.8658196436152
 20
620.0712569753306
 30
0.0
 10
924.8499420071629
 20
620.1053486675621
 30
0.0
 10
924.8420030747012
 20
620.1223947589594
 30
0.0
  0
LINE
  5
BB
330
1F
100
AcDbEntity
  8
0
  6
Continuous
 62
     7
370
    15
100
AcDbLine
 10
924.9089903728
 20
619.872394759
 30
0.0
 11
924.9089903728
 21
585.1403439514
 31
0.0
  0
SPLINE
  5
BC
330
1F
100
AcDbEntity
  8
0
  6
Continuous
 62
     7
370
    15
100
AcDbSpline
210
0.0
220
0.0
230
1.0
 70
     8
 71
     3
 72
    12
 73
     8
 74
     0
 42
0.00000001
 43
0.00000001
 12
1.0
 22
0.0
 32
0.0
 13
1.0
 23
0.0
 33
0.0
 40
0.0
 40
0.0
 40
0.0
 40
0.0
 40
0.1571577297866323
 40
0.2505951270623405
 40
0.5008887538712419
 40
0.7473664047632275
 40
1.0
 40
1.0
 40
1.0
 40
1.0
 10
924.9089903728087
 20
585.1403439513907
 30
0.0
 10
924.9087463028776
 20
585.1301653571836
 30
0.0
 10
924.9083571223043
 20
585.1139351271335
 30
0.0
 10
924.9046360453074
 20
585.0817405500121
 30
0.0
 10
924.8965262138616
 20
585.0459593098304
 30
0.0
 10
924.8770348120217
 20
585.0111261906454
 30
0.0
 10
924.8537759439776
 20
585.0079679513751
 30
0.0
 10
924.842003074701
 20
585.006369355175
 30
0.0
  0
SPLINE
  5
BD
330
1F
100
AcDbEntity
  8
0
  6
Continuous
 62
     7
370
    15
100
AcDbSpline
210
0.0
220
0.0
230
1.0
 70
     8
 71
     3
 72
    12
 73
     8
 74
     0
 42
0.00000001
 43
0.00000001
 12
1.0
 22
0.0
 32
0.0
 13
1.0
 23
0.0
 33
0.0
 40
0.0
 40
0.0
 40
0.0
 40
0.0
 40
0.1571230726073244
 40
0.2505951320312593
 40
0.5008887571805167
 40
0.7473664064383654
 40
1.0
 40
1.0
 40
1.0
 40
1.0
 10
924.908990372809
 20
619.8723947589594
 30
0.0
 10
924.9087463984462
 20
619.8825710749229
 30
0.0
 10
924.9083572844437
 20
619.8988012516893
 30
0.0
 10
924.9046365186922
 20
619.930996087447
 30
0.0
 10
924.8965262148964
 20
619.9667793903548
 30
0.0
 10
924.8770348117575
 20
620.0016125223036
 30
0.0
 10
924.8537759438889
 20
620.0047707598484
 30
0.0
 10
924.8420030747012
 20
620.006369355175
 30
0.0
  0
SPLINE
  5
BE
330
1F
100
AcDbEntity
  8
0
  6
Continuous
 62
     7
370
    15
100
AcDbSpline
210
0.0
220
0.0
230
1.0
 70
     8
 71
     3
 72
    12
 73
     8
 74
     0
 42
0.00000001
 43
0.00000001
 12
1.0
 22
0.0
 32
0.0
 13
1.0
 23
0.0
 33
0.0
 40
0.0
 40
0.0
 40
0.0
 40
0.0
 40
0.2526335935619305
 40
0.4991112428196348
 40
0.7494048679689038
 40
0.8428769273821899
 40
1.0
 40
1.0
 40
1.0
 40
1.0
 10
924.842003074701
 20
584.8903439513906
 30
0.0
 10
924.8537759438885
 20
584.9130913970678
 30
0.0
 10
924.8770348117572
 20
584.9580319994749
 30
0.0
 10
924.8965262148963
 20
585.0240698937672
 30
0.0
 10
924.9046365186919
 20
585.0705631841088
 30
0.0
 10
924.9083572844435
 20
585.1090596216252
 30
0.0
 10
924.9087463984459
 20
585.1282878548967
 30
0.0
 10
924.9089903728087
 20
585.1403439513907
 30
0.0
  0
SPLINE
  5
BF
330
1F
100
AcDbEntity
  8
0
  6
Continuous
 62
     7
370
    15
100
AcDbSpline
210
0.0
220
0.0
230
1.0
 70
     8
 71
     3
 72
    12
 73
     8
 74
     0
 42
0.00000001
 43
0.00000001
 12
1.0
 22
0.0
 32
0.0
 13
1.0
 23
0.0
 33
0.0
 40
0.0
 40
0.0
 40
0.0
 40
0.0
 40
0.1571577280892729
 40
0.2505951270623741
 40
0.5008887538713367
 40
0.74736640476334
 40
1.0
 40
1.0
 40
1.0
 40
1.0
 10
924.9089903728091
 20
619.8723947589594
 30
0.0
 10
924.9087463028831
 20
619.8844534886001
 30
0.0
 10
924.9083571223134
 20
619.9036816800686
 30
0.0
 10
924.9046360453302
 20
619.9421782834196
 30
0.0
 10
924.8965262138624
 20
619.9886688069846
 30
0.0
 10
924.8770348120217
 20
620.0547067133289
 30
0.0
 10
924.8537759439777
 20
620.099647314107
 30
0.0
 10
924.8420030747013
 20
620.1223947589594
 30
0.0
  0
LINE
  5
C0
330
1F
100
AcDbEntity
  8
0
  6
Continuous
 62
     7
370
    15
100
AcDbLine
 10
877.28423153
 20
456.1483950834
 30
0.0
 11
877.28423153
 21
454.5740585567
 31
0.0
  0
LINE
  5
C1
330
1F
100
AcDbEntity
  8
0
  6
Continuous
 62
     7
370
    15
100
AcDbLine
 10
880.4798460412
 20
454.6054643197
 30
0.0
 11
880.4798460412
 21
456.1169893204
 31
0.0
  0
LINE
  5
C2
330
1F
100
AcDbEntity
  8
0
  6
Continuous
 62
     7
370
    15
100
AcDbLine
 10
877.28423153
 20
621.1483950834
 30
0.0
 11
877.28423153
 21
619.5740585567
 31
0.0
  0
LINE
  5
C3
330
1F
100
AcDbEntity
  8
0
  6
Continuous
 62
     7
370
    15
100
AcDbLine
 10
880.4798460412
 20
619.6054643197
 30
0.0
 11
880.4798460412
 21
621.1169893204
 31
0.0
  0
LINE
  5
C4
330
1F
100
AcDbEntity
  8
0
  6
Continuous
 62
     7
370
    15
100
AcDbLine
 10
877.28423153
 20
291.1483950834
 30
0.0
 11
877.28423153
 21
289.5740585567
 31
0.0
  0
LINE
  5
C5
330
1F
100
AcDbEntity
  8
0
  6
Continuous
 62
     7
370
    15
100
AcDbLine
 10
880.4798460412
 20
289.6054643197
 30
0.0
 11
880.4798460412
 21
291.1169893204
 31
0.0
  0
LINE
  5
C6
330
1F
100
AcDbEntity
  8
0
  6
Continuous
 62
     7
370
    15
100
AcDbLine
 10
880.4379772762
 20
619.5207478057
 30
0.0
 11
880.4379772762
 21
621.2017058344
 31
0.0
  0
LINE
  5
C7
330
1F
100
AcDbEntity
  8
0
  6
Continuous
 62
     7
370
    15
100
AcDbLine
 10
880.4379772762
 20
454.5207478057
 30
0.0
 11
880.4379772762
 21
456.2017058344
 31
0.0
  0
LINE
  5
C8
330
1F
100
AcDbEntity
  8
0
  6
Continuous
 62
     7
370
    15
100
AcDbLine
 10
880.4379772762
 20
289.5207478057
 30
0.0
 11
880.4379772762
 21
291.2017058344
 31
0.0
  0
LINE
  5
C9
330
1F
100
AcDbEntity
  8
0
  6
Continuous
 62
     7
370
    15
100
AcDbLine
 10
872.9089903728
 20
670.3612268201
 30
0.0
 11
872.9089903728
 21
240.3612268201
 31
0.0
  0
LINE
  5
CA
330
1F
100
AcDbEntity
  8
0
  6
Continuous
 62
     7
370
    15
100
AcDbLine
 10
908.6940297165
 20
670.3612268201
 30
0.0
 11
872.9089903728
 21
670.3612268201
 31
0.0
  0
LINE
  5
CB
330
1F
100
AcDbEntity
  8
0
  6
Continuous
 62
     7
370
    15
100
AcDbLine
 10
908.6940297165
 20
240.3612268201
 30
0.0
 11
908.6940297165
 21
670.3612268201
 31
0.0
  0
LINE
  5
CC
330
1F
100
AcDbEntity
  8
0
  6
Continuous
 62
     7
370
    15
100
AcDbLine
 10
908.6940297165
 20
240.3612268201
 30
0.0
 11
872.9089903728
 21
240.3612268201
 31
0.0
  0
CIRCLE
  5
CD
330
1F
100
AcDbEntity
  8
0
  6
Continuous
 62
     7
370
    15
100
AcDbCircle
 10
878.9023506329
 20
290.361855734
 30
0.0
 40
1.799116324006075
  0
CIRCLE
  5
CE
330
1F
100
AcDbEntity
  8
0
  6
Continuous
 62
     7
370
    15
100
AcDbCircle
 10
878.9023506329
 20
455.361855734
 30
0.0
 40
1.799116324006075
  0
CIRCLE
  5
CF
330
1F
100
AcDbEntity
  8
0
  6
Continuous
 62
     7
370
    15
100
AcDbCircle
 10
878.9023506329
 20
620.361855734
 30
0.0
 40
1.799116324006303
  0
CIRCLE
  5
D0
330
1F
100
AcDbEntity
  8
0
  6
Continuous
 62
     7
370
    15
100
AcDbCircle
 10
900.9215021715
 20
657.9259921814
 30
0.0
 40
1.649189963672492
  0
CIRCLE
  5
D1
330
1F
100
AcDbEntity
  8
0
  6
Continuous
 62
     7
370
    15
100
AcDbCircle
 10
880.9489114764
 20
657.9259921814
 30
0.0
 40
1.649189963672378
  0
CIRCLE
  5
D2
330
1F
100
AcDbEntity
  8
0
  6
Continuous
 62
     7
370
    15
100
AcDbCircle
 10
890.1079150298
 20
643.4259921814
 30
0.0
 40
1.649189963672378
  0
CIRCLE
  5
D3
330
1F
100
AcDbEntity
  8
0
  6
Continuous
 62
     7
370
    15
100
AcDbCircle
 10
900.9215021716
 20
258.9618033245
 30
0.0
 40
1.649189963672264
  0
CIRCLE
  5
D4
330
1F
100
AcDbEntity
  8
0
  6
Continuous
 62
     7
370
    15
100
AcDbCircle
 10
890.1079150299
 20
244.4618033245
 30
0.0
 40
1.649189963672264
  0
CIRCLE
  5
D5
330
1F
100
AcDbEntity
  8
0
  6
Continuous
 62
     7
370
    15
100
AcDbCircle
 10
880.9489114765
 20
258.9618033245
 30
0.0
 40
1.649189963672492
  0
LINE
  5
D6
330
1F
100
AcDbEntity
  8
0
  6
Continuous
 62
     7
370
    15
100
AcDbLine
 10
908.6940297165
 20
222.2366412636
 30
0.0
 11
908.6940297165
 21
240.3612268201
 31
0.0
  0
LINE
  5
D7
330
1F
100
AcDbEntity
  8
0
  6
Continuous
 62
     7
370
    15
100
AcDbLine
 10
908.6940297165
 20
222.2366412636
 30
0.0
 11
872.9089903728
 21
220.3612268201
 31
0.0
  0
LINE
  5
D8
330
1F
100
AcDbEntity
  8
0
  6
Continuous
 62
     7
370
    15
100
AcDbLine
 10
872.9089903728
 20
240.3612268201
 30
0.0
 11
872.9089903728
 21
220.3612268201
 31
0.0
  0
LINE
  5
D9
330
1F
100
AcDbEntity
  8
0
  6
Continuous
 62
     7
370
    15
100
AcDbLine
 10
908.6940297165
 20
688.4858123765
 30
0.0
 11
872.9089903728
 21
690.3612268201
 31
0.0
  0
LINE
  5
DA
330
1F
100
AcDbEntity
  8
0
  6
Continuous
 62
     7
370
    15
100
AcDbLine
 10
908.6940297165
 20
670.3612268201
 30
0.0
 11
908.6940297165
 21
688.4858123765
 31
0.0
  0
LINE
  5
DB
330
1F
100
AcDbEntity
  8
0
  6
Continuous
 62
     7
370
    15
100
AcDbLine
 10
872.9089903728
 20
690.3612268201
 30
0.0
 11
872.9089903728
 21
670.3612268201
 31
0.0
  0
ARC
  5
DC
330
1F
100
AcDbEntity
  8
0
  6
Continuous
 62
     7
370
    15
100
AcDbCircle
 10
878.8467746903
 20
290.3612268201
 30
0.0
 40
1.800000762620057
100
AcDbArc
 50
270.0527418581
 51
89.9472581419
  0
ARC
  5
DD
330
1F
100
AcDbEntity
  8
0
  6
Continuous
 62
     7
370
    15
100
AcDbCircle
 10
878.8464451055
 20
455.3612268201
 30
0.0
 40
1.800001096183022
100
AcDbArc
 50
270.0632328581
 51
89.9367671419
  0
ARC
  5
DE
330
1F
100
AcDbEntity
  8
0
  6
Continuous
 62
     7
370
    15
100
AcDbCircle
 10
878.8464451055
 20
620.3612268201
 30
0.0
 40
1.800001096183022
100
AcDbArc
 50
270.0632328581
 51
89.9367671419
  0
ARC
  5
DF
330
1F
100
AcDbEntity
  8
0
  6
Continuous
 62
     7
370
    15
100
AcDbCircle
 10
890.0558987945
 20
643.4242858179
 30
0.0
 40
1.648870529090742
100
AcDbArc
 50
270.0393147922
 51
0.0392609127
  0
ARC
  5
E0
330
1F
100
AcDbEntity
  8
0
  6
Continuous
 62
     7
370
    15
100
AcDbCircle
 10
890.0558987945
 20
643.426545536
 30
0.0
 40
1.648870529090742
100
AcDbArc
 50
359.9607390873
 51
89.9606852078
  0
ARC
  5
E1
330
1F
100
AcDbEntity
  8
0
  6
Continuous
 62
     7
370
    15
100
AcDbCircle
 10
890.0558987946
 20
244.460096961
 30
0.0
 40
1.648870529090742
100
AcDbArc
 50
270.0393147922
 51
0.0392609127
  0
ARC
  5
E2
330
1F
100
AcDbEntity
  8
0
  6
Continuous
 62
     7
370
    15
100
AcDbCircle
 10
890.0558987946
 20
244.4623566791
 30
0.0
 40
1.648870529090948
100
AcDbArc
 50
359.9607390874
 51
89.9606852078
  0
LINE
  5
E3
330
1F
100
AcDbEntity
  8
0
  6
Continuous
 62
     7
370
    15
100
AcDbLine
 10
908.6940297165
 20
670.3612268201
 30
0.0
 11
922.9089903728
 21
670.3612268201
 31
0.0
  0
LINE
  5
E4
330
1F
100
AcDbEntity
  8
0
  6
Continuous
 62
     7
370
    15
100
AcDbLine
 10
922.9089903728
 20
670.3612268201
 30
0.0
 11
922.9089903728
 21
240.3612268201
 31
0.0
  0
LINE
  5
E5
330
1F
100
AcDbEntity
  8
0
  6
Continuous
 62
     7
370
    15
100
AcDbLine
 10
908.6940297165
 20
240.3612268201
 30
0.0
 11
922.9089903728
 21
240.3612268201
 31
0.0
  0
LINE
  5
E6
330
1F
100
AcDbEntity
  8
0
  6
Continuous
 62
     7
370
    15
100
AcDbLine
 10
922.9089903728
 20
240.3612268201
 30
0.0
 11
922.9089903728
 21
237.2160842849
 31
0.0
  0
ARC
  5
E7
330
1F
100
AcDbEntity
  8
0
  6
Continuous
 62
     7
370
    15
100
AcDbCircle
 10
907.9089903728
 20
237.2160842849
 30
0.0
 40
15.00000000000008
100
AcDbArc
 50
273.0
 51
360.0
  0
ARC
  5
E8
330
1F
100
AcDbEntity
  8
0
  6
Continuous
 62
     7
370
    15
100
AcDbCircle
 10
907.9089903728
 20
673.5063693552
 30
0.0
 40
15.00000000000001
100
AcDbArc
 50
360.0
 51
87.0
  0
LINE
  5
E9
330
1F
100
AcDbEntity
  8
0
  6
Continuous
 62
     7
370
    15
100
AcDbLine
 10
922.9089903728
 20
673.5063693552
 30
0.0
 11
922.9089903728
 21
670.3612268201
 31
0.0
  0
LINE
  5
EA
330
1F
100
AcDbEntity
  8
0
  6
Continuous
 62
     7
370
    15
100
AcDbLine
 10
869.7760553544
 20
269.425415677
 30
0.0
 11
866.7760553544
 21
269.425415677
 31
0.0
  0
LINE
  5
EB
330
1F
100
AcDbEntity
  8
0
  6
Continuous
 62
     7
370
    15
100
AcDbLine
 10
869.7760553544
 20
269.425415677
 30
0.0
 11
869.7760553544
 21
233.425415677
 31
0.0
  0
LINE
  5
EC
330
1F
100
AcDbEntity
  8
0
  6
Continuous
 62
     7
370
    15
100
AcDbLine
 10
866.7760553544
 20
233.425415677
 30
0.0
 11
869.7760553544
 21
233.425415677
 31
0.0
  0
LINE
  5
ED
330
1F
100
AcDbEntity
  8
0
  6
Continuous
 62
     7
370
    15
100
AcDbLine
 10
869.7760553544
 20
233.425415677
 30
0.0
 11
869.7760553544
 21
231.425415677
 31
0.0
  0
LINE
  5
EE
330
1F
100
AcDbEntity
  8
0
  6
Continuous
 62
     7
370
    15
100
AcDbLine
 10
869.7760553544
 20
231.425415677
 30
0.0
 11
866.7760553544
 21
231.425415677
 31
0.0
  0
LINE
  5
EF
330
1F
100
AcDbEntity
  8
0
  6
Continuous
 62
     7
370
    15
100
AcDbLine
 10
866.7760553544
 20
271.425415677
 30
0.0
 11
869.7760553544
 21
271.425415677
 31
0.0
  0
LINE
  5
F0
330
1F
100
AcDbEntity
  8
0
  6
Continuous
 62
     7
370
    15
100
AcDbLine
 10
869.7760553544
 20
271.425415677
 30
0.0
 11
869.7760553544
 21
269.425415677
 31
0.0
  0
LINE
  5
F1
330
1F
100
AcDbEntity
  8
0
  6
Continuous
 62
     7
370
    15
100
AcDbLine
 10
872.9089903728
 20
251.425415677
 30
0.0
 11
869.7760553544
 21
251.425415677
 31
0.0
  0
LINE
  5
F2
330
1F
100
AcDbEntity
  8
0
  6
Continuous
 62
     7
370
    15
100
AcDbLine
 10
869.8023669784
 20
233.925415677
 30
0.0
 11
872.9089903728
 21
233.925415677
 31
0.0
  0
LINE
  5
F3
330
1F
100
AcDbEntity
  8
0
  6
Continuous
 62
     7
370
    15
100
AcDbLine
 10
866.7891049517
 20
631.425415677
 30
0.0
 11
866.7760553544
 21
631.425415677
 31
0.0
  0
LINE
  5
F4
330
1F
100
AcDbEntity
  8
0
  6
Continuous
 62
     7
370
    15
100
AcDbLine
 10
866.7760553544
 20
671.425415677
 30
0.0
 11
866.7891049517
 21
671.425415677
 31
0.0
  0
LINE
  5
F5
330
1F
100
AcDbEntity
  8
0
  6
Continuous
 62
     7
370
    15
100
AcDbLine
 10
869.8023669784
 20
633.925415677
 30
0.0
 11
870.8829782565
 21
633.925415677
 31
0.0
  0
LINE
  5
F6
330
1F
100
AcDbEntity
  8
0
  6
Continuous
 62
     7
370
    15
100
AcDbLine
 10
870.8829782565
 20
651.425415677
 30
0.0
 11
869.7920284592
 21
651.425415677
 31
0.0
  0
LINE
  5
F7
330
1F
100
AcDbEntity
  8
0
  6
Continuous
 62
     7
370
    15
100
AcDbLine
 10
866.7760553544
 20
695.525415677
 30
0.0
 11
865.9760553544
 21
695.525415677
 31
0.0
  0
LINE
  5
F8
330
1F
100
AcDbEntity
  8
0
  6
Continuous
 62
     7
370
    15
100
AcDbLine
 10
866.7760553544
 20
220.725415677
 30
0.0
 11
866.7760553544
 21
695.525415677
 31
0.0
  0
LINE
  5
F9
330
1F
100
AcDbEntity
  8
0
  6
Continuous
 62
     7
370
    15
100
AcDbLine
 10
865.9760553544
 20
220.725415677
 30
0.0
 11
866.7760553544
 21
220.725415677
 31
0.0
  0
LINE
  5
FA
330
1F
100
AcDbEntity
  8
0
  6
Continuous
 62
     7
370
    15
100
AcDbLine
 10
865.9760553544
 20
220.725415677
 30
0.0
 11
865.9760553544
 21
695.525415677
 31
0.0
  0
LINE
  5
FB
330
1F
100
AcDbEntity
  8
0
  6
Continuous
 62
     7
370
    15
100
AcDbLine
 10
866.7760553544
 20
218.425415677
 30
0.0
 11
865.9760553544
 21
218.425415677
 31
0.0
  0
LINE
  5
FC
330
1F
100
AcDbEntity
  8
0
  6
Continuous
 62
     7
370
    15
100
AcDbLine
 10
866.7760553544
 20
220.725415677
 30
0.0
 11
866.7760553544
 21
218.425415677
 31
0.0
  0
LINE
  5
FD
330
1F
100
AcDbEntity
  8
0
  6
Continuous
 62
     7
370
    15
100
AcDbLine
 10
865.9760553544
 20
218.425415677
 30
0.0
 11
865.9760553544
 21
220.725415677
 31
0.0
  0
LINE
  5
FE
330
1F
100
AcDbEntity
  8
0
  6
Continuous
 62
     7
370
    15
100
AcDbLine
 10
865.9760553544
 20
697.525415677
 30
0.0
 11
866.7760553544
 21
697.525415677
 31
0.0
  0
LINE
  5
FF
330
1F
100
AcDbEntity
  8
0
  6
Continuous
 62
     7
370
    15
100
AcDbLine
 10
866.7760553544
 20
697.525415677
 30
0.0
 11
866.7760553544
 21
695.525415677
 31
0.0
  0
LINE
  5
100
330
1F
100
AcDbEntity
  8
0
  6
Continuous
 62
     7
370
    15
100
AcDbLine
 10
865.9760553544
 20
695.525415677
 30
0.0
 11
865.9760553544
 21
697.525415677
 31
0.0
  0
LINE
  5
101
330
1F
100
AcDbEntity
  8
0
  6
Continuous
 62
     7
370
    15
100
AcDbLine
 10
865.9760553544
 20
697.525415677
 30
0.0
 11
865.4760553544
 21
697.525415677
 31
0.0
  0
SPLINE
  5
102
330
1F
100
AcDbEntity
  8
0
  6
Continuous
 62
     7
370
    15
100
AcDbSpline
210
0.0
220
0.0
230
1.0
 70
     8
 71
     3
 72
    10
 73
     6
 74
     0
 42
0.00000001
 43
0.00000001
 12
1.0
 22
0.0
 32
0.0
 13
1.0
 23
0.0
 33
0.0
 40
0.0
 40
0.0
 40
0.0
 40
0.0
 40
0.4008987299360995
 40
0.82609553791152
 40
1.0
 40
1.0
 40
1.0
 40
1.0
 10
865.4760553543656
 20
248.8520340713065
 30
0.0
 10
865.5911161312389
 20
248.7950061527585
 30
0.0
 10
865.8282114055961
 20
248.6774939095635
 30
0.0
 10
865.9611740083645
 20
248.5349146841751
 30
0.0
 10
865.9727074717263
 20
248.4500498616185
 30
0.0
 10
865.9760553543666
 20
248.4254156769583
 30
0.0
  0
LINE
  5
103
330
1F
100
AcDbEntity
  8
0
  6
Continuous
 62
     7
370
    15
100
AcDbLine
 10
864.3760553544
 20
219.225415677
 30
0.0
 11
864.3760553544
 21
219.8178160308
 31
0.0
  0
LINE
  5
104
330
1F
100
AcDbEntity
  8
0
  6
Continuous
 62
     7
370
    15
100
AcDbLine
 10
864.3760553544
 20
219.5259259342
 30
0.0
 11
864.5428473425
 21
219.6184684008
 31
0.0
  0
ARC
  5
105
330
1F
100
AcDbEntity
  8
0
  6
Continuous
 62
     7
370
    15
100
AcDbCircle
 10
863.1260553544
 20
221.975415677
 30
0.0
 40
2.750000000000059
100
AcDbArc
 50
328.7095547861
 51
0.0
  0
LINE
  5
106
330
1F
100
AcDbEntity
  8
0
  6
Continuous
 62
     7
370
    15
100
AcDbLine
 10
865.8760553544
 20
228.725415677
 30
0.0
 11
865.8760553544
 21
221.975415677
 31
0.0
  0
LINE
  5
107
330
1F
100
AcDbEntity
  8
0
  6
Continuous
 62
     7
370
    15
100
AcDbLine
 10
865.8760553544
 20
230.725415677
 30
0.0
 11
865.4760553544
 21
230.725415677
 31
0.0
  0
LINE
  5
108
330
1F
100
AcDbEntity
  8
0
  6
Continuous
 62
     7
370
    15
100
AcDbLine
 10
865.8760553544
 20
230.725415677
 30
0.0
 11
865.8760553544
 21
228.725415677
 31
0.0
  0
LINE
  5
109
330
1F
100
AcDbEntity
  8
0
  6
Continuous
 62
     7
370
    15
100
AcDbLine
 10
803.8760553544
 20
48.725415677
 30
0.0
 11
750.8760553544
 21
48.725415677
 31
0.0
  0
LINE
  5
10A
330
1F
100
AcDbEntity
  8
0
  6
Continuous
 62
     7
370
    15
100
AcDbLine
 10
805.8760553544
 20
54.725415677
 30
0.0
 11
748.8760553544
 21
54.725415677
 31
0.0
  0
LINE
  5
10B
330
1F
100
AcDbEntity
  8
0
  6
Continuous
 62
     7
370
    15
100
AcDbLine
 10
198.3760898967
 20
48.725415677
 30
0.0
 11
171.8760898967
 21
48.725415677
 31
0.0
  0
LINE
  5
10C
330
1F
100
AcDbEntity
  8
0
  6
Continuous
 62
     7
370
    15
100
AcDbLine
 10
224.8760898967
 20
48.725415677
 30
0.0
 11
198.3760898967
 21
48.725415677
 31
0.0
  0
LINE
  5
10D
330
1F
100
AcDbEntity
  8
0
  6
Continuous
 62
     7
370
    15
100
AcDbLine
 10
198.3760898967
 20
54.725415677
 30
0.0
 11
169.8760898967
 21
54.725415677
 31
0.0
  0
LINE
  5
10E
330
1F
100
AcDbEntity
  8
0
  6
Continuous
 62
     7
370
    15
100
AcDbLine
 10
226.8760898967
 20
54.725415677
 30
0.0
 11
198.3760898967
 21
54.725415677
 31
0.0
  0
LINE
  5
10F
330
1F
100
AcDbEntity
  8
0
  6
Continuous
 62
     7
370
    15
100
AcDbLine
 10
243.3760898967
 20
216.725415677
 30
0.0
 11
243.3760898967
 21
218.425415677
 31
0.0
  0
LINE
  5
110
330
1F
100
AcDbEntity
  8
0
  6
Continuous
 62
     7
370
    15
100
AcDbLine
 10
153.3760898967
 20
216.725415677
 30
0.0
 11
243.3760898967
 21
216.725415677
 31
0.0
  0
LINE
  5
111
330
1F
100
AcDbEntity
  8
0
  6
Continuous
 62
     7
370
    15
100
AcDbLine
 10
153.3760898967
 20
216.725415677
 30
0.0
 11
153.3760898967
 21
218.425415677
 31
0.0
  0
LINE
  5
112
330
1F
100
AcDbEntity
  8
0
  6
Continuous
 62
     7
370
    15
100
AcDbLine
 10
198.3760898967
 20
122.725415677
 30
0.0
 11
167.4164396763
 21
122.725415677
 31
0.0
  0
LINE
  5
113
330
1F
100
AcDbEntity
  8
0
  6
Continuous
 62
     7
370
    15
100
AcDbLine
 10
229.335740117
 20
122.725415677
 30
0.0
 11
198.3760898967
 21
122.725415677
 31
0.0
  0
LINE
  5
114
330
1F
100
AcDbEntity
  8
0
  6
Continuous
 62
     7
370
    15
100
AcDbLine
 10
822.3760553544
 20
216.725415677
 30
0.0
 11
822.3760553544
 21
218.425415677
 31
0.0
  0
LINE
  5
115
330
1F
100
AcDbEntity
  8
0
  6
Continuous
 62
     7
370
    15
100
AcDbLine
 10
732.3760553544
 20
216.725415677
 30
0.0
 11
732.3760553544
 21
218.425415677
 31
0.0
  0
LINE
  5
116
330
1F
100
AcDbEntity
  8
0
  6
Continuous
 62
     7
370
    15
100
AcDbLine
 10
732.3760553544
 20
216.725415677
 30
0.0
 11
822.3760553544
 21
216.725415677
 31
0.0
  0
LINE
  5
117
330
1F
100
AcDbEntity
  8
0
  6
Continuous
 62
     7
370
    15
100
AcDbLine
 10
808.3357055747
 20
122.725415677
 30
0.0
 11
746.416405134
 21
122.725415677
 31
0.0
  0
ARC
  5
118
330
1F
100
AcDbEntity
  8
0
  6
Continuous
 62
     7
370
    15
100
AcDbCircle
 10
864.3760553544
 20
246.125415677
 30
0.0
 40
1.500000000000041
100
AcDbArc
 50
0.0
 51
42.8334280661
  0
LWPOLYLINE
  5
119
330
1F
100
AcDbEntity
  8
0
  6
Continuous
 62
     7
370
    15
100
AcDbPolyline
 90
        3
 70
   128
 43
0.0
 10
865.9760553544
 20
247.7776868411
 10
865.6538668903
 20
248.0377957853
 10
865.4760553544
 20
248.1453166646
  0
LINE
  5
11A
330
1F
100
AcDbEntity
  8
0
  6
Continuous
 62
     7
370
    15
100
AcDbLine
 10
865.8760553544
 20
218.425415677
 30
0.0
 11
865.8760553544
 21
221.975415677
 31
0.0
  0
LINE
  5
11B
330
1F
100
AcDbEntity
  8
0
  6
Continuous
 62
     7
370
    15
100
AcDbLine
 10
865.8760553544
 20
230.725415677
 30
0.0
 11
865.8760553544
 21
246.125415677
 31
0.0
  0
LINE
  5
11C
330
1F
100
AcDbEntity
  8
0
  6
Continuous
 62
     7
370
    15
100
AcDbLine
 10
865.9760553544
 20
218.425415677
 30
0.0
 11
865.8760553544
 21
218.425415677
 31
0.0
  0
LINE
  5
11D
330
1F
100
AcDbEntity
  8
0
  6
Continuous
 62
     7
370
    15
100
AcDbLine
 10
935.3181030129
 20
705.3373276689
 30
0.0
 11
935.2772941117
 21
705.2498126981
 31
0.0
  0
LINE
  5
11E
330
1F
100
AcDbEntity
  8
0
  6
Continuous
 62
     7
370
    15
100
AcDbLine
 10
935.2772941117
 20
705.2498126981
 30
0.0
 11
935.2768348258
 21
705.2500268666
 31
0.0
  0
LINE
  5
11F
330
1F
100
AcDbEntity
  8
0
  6
Continuous
 62
     7
370
    15
100
AcDbLine
 10
926.9800713721
 20
700.025415677
 30
0.0
 11
927.0766334586
 21
700.025415677
 31
0.0
  0
LINE
  5
120
330
1F
100
AcDbEntity
  8
0
  6
Continuous
 62
     7
370
    15
100
AcDbLine
 10
927.0766334586
 20
700.0259224429
 30
0.0
 11
927.0766334586
 21
700.025415677
 31
0.0
  0
LINE
  5
121
330
1F
100
AcDbEntity
  8
0
  6
Continuous
 62
     7
370
    15
100
AcDbLine
 10
935.7694915014
 20
897.0916577196
 30
0.0
 11
936.0976435823
 21
896.387933311
 31
0.0
  0
LINE
  5
122
330
1F
100
AcDbEntity
  8
0
  6
Continuous
 62
     7
370
    15
100
AcDbLine
 10
917.0712073676
 20
887.4898022985
 30
0.0
 11
900.7143001392
 21
879.8624511941
 31
0.0
  0
SPLINE
  5
123
330
1F
100
AcDbEntity
  8
0
  6
Continuous
 62
     7
370
    15
100
AcDbSpline
210
0.0
220
0.0
230
1.0
 70
     8
 71
     3
 72
    14
 73
    10
 74
     0
 42
0.00000001
 43
0.00000001
 12
1.0
 22
0.0
 32
0.0
 13
1.0
 23
0.0
 33
0.0
 40
0.0
 40
0.0
 40
0.0
 40
0.0
 40
0.1424979789611869
 40
0.2891107491289839
 40
0.4316087267216713
 40
0.5782214232936191
 40
0.7209671108983794
 40
0.867849816673362
 40
1.0
 40
1.0
 40
1.0
 40
1.0
 10
900.7143001391509
 20
879.8624511941091
 30
0.0
 10
900.5696830109732
 20
879.8073217234307
 30
0.0
 10
900.2762727705673
 20
879.6954708559084
 30
0.0
 10
899.7760585904211
 20
879.6616537769131
 30
0.0
 10
899.2293743821857
 20
879.7172113735808
 30
0.0
 10
898.6474186651072
 20
879.8580258826455
 30
0.0
 10
898.028786736521
 20
880.0665556035967
 30
0.0
 10
897.409613293307
 20
880.3129860392276
 30
0.0
 10
896.9937371020472
 20
880.4897392851929
 30
0.0
 10
896.7967778292781
 20
880.5734497536365
 30
0.0
  0
LINE
  5
124
330
1F
100
AcDbEntity
  8
0
  6
Continuous
 62
     7
370
    15
100
AcDbLine
 10
896.7967778293
 20
880.5734497536
 30
0.0
 11
935.1355641088
 21
898.4511194001
 31
0.0
  0
LINE
  5
125
330
1F
100
AcDbEntity
  8
0
  6
Continuous
 62
     7
370
    15
100
AcDbLine
 10
900.2530090282
 20
878.60380167
 30
0.0
 11
900.7470781068
 21
877.5442671116
 31
0.0
  0
LINE
  5
126
330
1F
100
AcDbEntity
  8
0
  6
Continuous
 62
     7
370
    15
100
AcDbLine
 10
956.6539477329
 20
757.6515982944
 30
0.0
 11
955.9289015033
 21
757.313503685
 31
0.0
  0
LINE
  5
127
330
1F
100
AcDbEntity
  8
0
  6
Continuous
 62
     7
370
    15
100
AcDbLine
 10
954.5694398228
 20
756.6795762924
 30
0.0
 11
896.7967778293
 21
880.5734497536
 31
0.0
  0
SPLINE
  5
128
330
1F
100
AcDbEntity
  8
0
  6
Continuous
 62
     7
370
    15
100
AcDbSpline
210
0.0
220
0.0
230
1.0
 70
     8
 71
     3
 72
    11
 73
     7
 74
     0
 42
0.00000001
 43
0.00000001
 12
1.0
 22
0.0
 32
0.0
 13
1.0
 23
0.0
 33
0.0
 40
0.0
 40
0.0
 40
0.0
 40
0.0
 40
0.2888077077192567
 40
0.5776153362195042
 40
0.8669345414320094
 40
1.0
 40
1.0
 40
1.0
 40
1.0
 10
896.796777829278
 20
880.5734497536362
 30
0.0
 10
897.2444758540553
 20
880.4372409987798
 30
0.0
 10
898.1398717808083
 20
880.1648235264289
 30
0.0
 10
899.2870333698694
 20
879.6648141993151
 30
0.0
 10
899.9619209186009
 20
879.1285634688861
 30
0.0
 10
900.1832750030508
 20
878.7295153328339
 30
0.0
 10
900.2530090281682
 20
878.6038016699864
 30
0.0
  0
LINE
  5
129
330
1F
100
AcDbEntity
  8
0
  6
Continuous
 62
     7
370
    15
100
AcDbLine
 10
955.9289015033
 20
749.5373276689
 30
0.0
 11
956.6539477329
 21
749.1992330596
 31
0.0
  0
LINE
  5
12A
330
1F
100
AcDbEntity
  8
0
  6
Continuous
 62
     7
370
    15
100
AcDbLine
 10
936.0431492425
 20
704.9992330596
 30
0.0
 11
935.3181030129
 21
705.3373276689
 31
0.0
  0
LINE
  5
12B
330
1F
100
AcDbEntity
  8
0
  6
Continuous
 62
     7
370
    15
100
AcDbLine
 10
933.9586413323
 20
705.9712550616
 30
0.0
 11
954.5694398228
 21
750.1712550616
 31
0.0
  0
SPLINE
  5
12C
330
1F
100
AcDbEntity
  8
0
  6
Continuous
 62
     7
370
    15
100
AcDbSpline
210
0.0
220
0.0
230
1.0
 70
     8
 71
     3
 72
    12
 73
     8
 74
     0
 42
0.00000001
 43
0.00000001
 12
1.0
 22
0.0
 32
0.0
 13
1.0
 23
0.0
 33
0.0
 40
0.0
 40
0.0
 40
0.0
 40
0.0
 40
0.2096821001529163
 40
0.4420453733185652
 40
0.6744332966681106
 40
0.906820870118059
 40
1.0
 40
1.0
 40
1.0
 40
1.0
 10
60.68772563488501
 20
944.1254156769596
 30
0.0
 10
60.58344042695746
 20
944.377746634935
 30
0.0
 10
60.36358954967081
 20
944.9097030224223
 30
0.0
 10
60.02762141978779
 20
945.631084452237
 30
0.0
 10
59.68071615137116
 20
946.1744433862235
 30
0.0
 10
59.40233948913798
 20
946.4030652263668
 30
0.0
 10
59.24097902791653
 20
946.420442264991
 30
0.0
 10
59.19479670269689
 20
946.4254156769597
 30
0.0
  0
LINE
  5
12D
330
1F
100
AcDbEntity
  8
0
  6
Continuous
 62
     7
370
    15
100
AcDbLine
 10
59.1947967027
 20
946.425415677
 30
0.0
 11
62.5849709003
 21
946.425415677
 31
0.0
  0
LINE
  5
12E
330
1F
100
AcDbEntity
  8
0
  6
Continuous
 62
     7
370
    15
100
AcDbLine
 10
73.3349709003
 20
946.425415677
 30
0.0
 11
135.5849709003
 21
946.425415677
 31
0.0
  0
LINE
  5
12F
330
1F
100
AcDbEntity
  8
0
  6
Continuous
 62
     7
370
    15
100
AcDbLine
 10
946.3349480449
 20
946.425415677
 30
0.0
 11
946.3349480449
 21
945.625415677
 31
0.0
  0
LINE
  5
130
330
1F
100
AcDbEntity
  8
0
  6
Continuous
 62
     7
370
    15
100
AcDbLine
 10
946.3349480449
 20
944.125415677
 30
0.0
 11
60.6877256349
 21
944.125415677
 31
0.0
  0
LINE
  5
131
330
1F
100
AcDbEntity
  8
0
  6
Continuous
 62
     7
370
    15
100
AcDbLine
 10
926.9800713721
 20
700.025415677
 30
0.0
 11
926.9800713721
 21
699.225415677
 31
0.0
  0
SPLINE
  5
132
330
1F
100
AcDbEntity
  8
0
  6
Continuous
 62
     7
370
    15
100
AcDbSpline
210
0.0
220
0.0
230
1.0
 70
     8
 71
     3
 72
    11
 73
     7
 74
     0
 42
0.00000001
 43
0.00000001
 12
1.0
 22
0.0
 32
0.0
 13
1.0
 23
0.0
 33
0.0
 40
0.0
 40
0.0
 40
0.0
 40
0.0
 40
0.2999401068833815
 40
0.5998801778523166
 40
0.9004866520641952
 40
1.0
 40
1.0
 40
1.0
 40
1.0
 10
866.6952861235962
 20
699.2254156769592
 30
0.0
 10
866.3432451134925
 20
699.2755262317964
 30
0.0
 10
865.6391631354377
 20
699.3757473354707
 30
0.0
 10
864.5830159523573
 20
700.1293781189684
 30
0.0
 10
863.7595980579129
 20
700.9258472016595
 30
0.0
 10
863.2922812007874
 20
701.4059979323692
 30
0.0
 10
863.1760553543655
 20
701.5254156769594
 30
0.0
  0
LINE
  5
133
330
1F
100
AcDbEntity
  8
0
  6
Continuous
 62
     7
370
    15
100
AcDbLine
 10
863.1760553544
 20
701.525415677
 30
0.0
 11
926.9800713721
 21
701.525415677
 31
0.0
  0
LINE
  5
134
330
1F
100
AcDbEntity
  8
0
  6
Continuous
 62
     7
370
    15
100
AcDbLine
 10
954.6729796856
 20
932.5373276689
 30
0.0
 11
955.3980259153
 21
932.1992330596
 31
0.0
  0
LINE
  5
135
330
1F
100
AcDbEntity
  8
0
  6
Continuous
 62
     7
370
    15
100
AcDbLine
 10
940.9444813637
 20
901.2035067429
 30
0.0
 11
940.2194351341
 21
901.5416013523
 31
0.0
  0
LINE
  5
136
330
1F
100
AcDbEntity
  8
0
  6
Continuous
 62
     7
370
    15
100
AcDbLine
 10
938.8599734535
 20
902.1755287449
 30
0.0
 11
953.3135180051
 21
933.1712550616
 31
0.0
  0
SPLINE
  5
137
330
1F
100
AcDbEntity
  8
0
  6
Continuous
 62
     7
370
    15
100
AcDbSpline
210
0.0
220
0.0
230
1.0
 70
     8
 71
     3
 72
    24
 73
    20
 74
     0
 42
0.00000001
 43
0.00000001
 12
1.0
 22
0.0
 32
0.0
 13
1.0
 23
0.0
 33
0.0
 40
0.0
 40
0.0
 40
0.0
 40
0.0
 40
0.0516519798807564
 40
0.1035970116266745
 40
0.1564567567181391
 40
0.2096307448684968
 40
0.2667254519687243
 40
0.3242168067235738
 40
0.3829576349531647
 40
0.4421307317448376
 40
0.4992313283185912
 40
0.5567286966517616
 40
0.6154759449942205
 40
0.6746556039194086
 40
0.7317561138048406
 40
0.78925339569193
 40
0.8480005554127859
 40
0.9071801219092722
 40
1.0
 40
1.0
 40
1.0
 40
1.0
 10
863.1760553543656
 20
220.7254156769597
 30
0.0
 10
863.2017580234063
 20
220.6632185665893
 30
0.0
 10
863.2533091877485
 20
220.538471465296
 30
0.0
 10
863.3311610080777
 20
220.351314451995
 30
0.0
 10
863.4097674103459
 20
220.1648700324337
 30
0.0
 10
863.4909405143669
 20
219.9763347510469
 30
0.0
 10
863.5744245953712
 20
219.7880947548229
 30
0.0
 10
863.660679055521
 20
219.6012581284473
 30
0.0
 10
863.7479618214162
 20
219.4215813166373
 30
0.0
 10
863.8350533817691
 20
219.2533571474621
 30
0.0
 10
863.9215280558383
 20
219.0985739243612
 30
0.0
 10
864.0077917028132
 20
218.9574441443426
 30
0.0
 10
864.0950863238596
 20
218.8294276794633
 30
0.0
 10
864.1821818687042
 20
218.7177691959506
 30
0.0
 10
864.268660110074
 20
218.6236260396813
 30
0.0
 10
864.3549219207949
 20
218.5467517739418
 30
0.0
 10
864.4422219620166
 20
218.4876600638093
 30
0.0
 10
864.54707780455
 20
218.43747863283
 30
0.0
 10
864.622765121031
 20
218.4299891807217
 30
0.0
 10
864.6689842865537
 20
218.4254156769597
 30
0.0
  0
SPLINE
  5
138
330
1F
100
AcDbEntity
  8
0
  6
Continuous
 62
     7
370
    15
100
AcDbSpline
210
0.0
220
0.0
230
1.0
 70
     8
 71
     3
 72
    21
 73
    17
 74
     0
 42
0.00000001
 43
0.00000001
 12
1.0
 22
0.0
 32
0.0
 13
1.0
 23
0.0
 33
0.0
 40
0.0
 40
0.0
 40
0.0
 40
0.0
 40
0.0624763969719713
 40
0.1253866436237847
 40
0.1896611442507379
 40
0.2544083625572252
 40
0.316938335800986
 40
0.4441227652167247
 40
0.5089296300342327
 40
0.5714598844541574
 40
0.6344251195136388
 40
0.6987582682569156
 40
0.7635654383790329
 40
0.8217915801687489
 40
0.939949935952896
 40
1.0
 40
1.0
 40
1.0
 40
1.0
 10
863.1760553543656
 20
220.7254156769597
 30
0.0
 10
863.2071407875864
 20
220.6763575864802
 30
0.0
 10
863.2695275180323
 20
220.5779007354782
 30
0.0
 10
863.3638895826482
 20
220.4304068331179
 30
0.0
 10
863.45938045572
 20
220.2840951355901
 30
0.0
 10
863.554698408815
 20
220.1425399099596
 30
0.0
 10
863.6812685518166
 20
219.9623311591191
 30
0.0
 10
863.808131066778
 20
219.7959872424208
 30
0.0
 10
863.9347343436219
 20
219.6494206542851
 30
0.0
 10
864.0294272557119
 20
219.550507601649
 30
0.0
 10
864.1238696918886
 20
219.4633399772966
 30
0.0
 10
864.2194486982489
 20
219.3878129029175
 30
0.0
 10
864.3126842873766
 20
219.3273734425627
 30
0.0
 10
864.4326533780365
 20
219.2669515004868
 30
0.0
 10
864.5504633777922
 20
219.2307268950275
 30
0.0
 10
864.6391125772814
 20
219.2267543028921
 30
0.0
 10
864.6689842865537
 20
219.2254156769597
 30
0.0
  0
LINE
  5
139
330
1F
100
AcDbEntity
  8
0
  6
Continuous
 62
     7
370
    15
100
AcDbLine
 10
864.6689842866
 20
218.425415677
 30
0.0
 11
864.6689842866
 21
219.225415677
 31
0.0
  0
LINE
  5
13A
330
1F
100
AcDbEntity
  8
0
  6
Continuous
 62
     7
370
    15
100
AcDbLine
 10
865.4760553544
 20
219.2324867448
 30
0.0
 11
865.4760553544
 21
698.275415677
 31
0.0
  0
SPLINE
  5
13B
330
1F
100
AcDbEntity
  8
0
  6
Continuous
 62
     7
370
    15
100
AcDbSpline
210
0.0
220
0.0
230
1.0
 70
     8
 71
     3
 72
    12
 73
     8
 74
     0
 42
0.00000001
 43
0.00000001
 12
1.0
 22
0.0
 32
0.0
 13
1.0
 23
0.0
 33
0.0
 40
0.0
 40
0.0
 40
0.0
 40
0.0
 40
0.2096821001528691
 40
0.4420453733185998
 40
0.6744332966681108
 40
0.9068208701180489
 40
1.0
 40
1.0
 40
1.0
 40
1.0
 10
865.4760553543656
 20
219.2324867447716
 30
0.0
 10
865.451715384197
 20
219.3367719526991
 30
0.0
 10
865.40040260551
 20
219.5566228299858
 30
0.0
 10
864.9794720185813
 20
219.8925909598688
 30
0.0
 10
864.3276825406859
 20
220.2394962282855
 30
0.0
 10
863.6782415015831
 20
220.5178728905184
 30
0.0
 10
863.2878015844769
 20
220.67923335174
 30
0.0
 10
863.1760553543655
 20
220.7254156769597
 30
0.0
  0
LINE
  5
13C
330
1F
100
AcDbEntity
  8
0
  6
Continuous
 62
     7
370
    15
100
AcDbLine
 10
863.1760553544
 20
220.725415677
 30
0.0
 11
863.1760553544
 21
701.525415677
 31
0.0
  0
SPLINE
  5
13D
330
1F
100
AcDbEntity
  8
0
  6
Continuous
 62
     7
370
    15
100
AcDbSpline
210
0.0
220
0.0
230
1.0
 70
     8
 71
     3
 72
    11
 73
     7
 74
     0
 42
0.00000001
 43
0.00000001
 12
1.0
 22
0.0
 32
0.0
 13
1.0
 23
0.0
 33
0.0
 40
0.0
 40
0.0
 40
0.0
 40
0.0
 40
0.2889759275644325
 40
0.5779517763249461
 40
0.867441407044928
 40
1.0
 40
1.0
 40
1.0
 40
1.0
 10
863.1760553543656
 20
701.5254156769594
 30
0.0
 10
863.5244448695371
 20
701.2121739429491
 30
0.0
 10
864.2212238048741
 20
700.58569056035
 30
0.0
 10
865.0498442959712
 20
699.6459488231739
 30
0.0
 10
865.4342295007891
 20
698.8738945353991
 30
0.0
 10
865.4660584049359
 20
698.418460286238
 30
0.0
 10
865.4760553543657
 20
698.2754156769595
 30
0.0
  0
LINE
  5
13E
330
1F
100
AcDbEntity
  8
0
  6
Continuous
 62
     7
370
    15
100
AcDbLine
 10
865.4760553544
 20
219.2324867448
 30
0.0
 11
864.6760553544
 21
219.2324867448
 31
0.0
  0
SPLINE
  5
13F
330
1F
100
AcDbEntity
  8
0
  6
Continuous
 62
     7
370
    15
100
AcDbSpline
210
0.0
220
0.0
230
1.0
 70
     8
 71
     3
 72
    11
 73
     7
 74
     0
 42
0.00000001
 43
0.00000001
 12
1.0
 22
0.0
 32
0.0
 13
1.0
 23
0.0
 33
0.0
 40
0.0
 40
0.0
 40
0.0
 40
0.0
 40
0.2543211584721334
 40
0.5088664984542356
 40
0.7634130007197227
 40
1.0
 40
1.0
 40
1.0
 40
1.0
 10
864.6760553543655
 20
219.2324867447716
 30
0.0
 10
864.6527012923466
 20
219.359067852557
 30
0.0
 10
864.6059725819405
 20
219.6123416480847
 30
0.0
 10
864.2470849657457
 20
219.9922863175701
 30
0.0
 10
863.747861986456
 20
220.363511449241
 30
0.0
 10
863.3619536698608
 20
220.6077580939101
 30
0.0
 10
863.1760553543656
 20
220.7254156769597
 30
0.0
  0
SPLINE
  5
140
330
1F
100
AcDbEntity
  8
0
  6
Continuous
 62
     7
370
    15
100
AcDbSpline
210
0.0
220
0.0
230
1.0
 70
     8
 71
     3
 72
    15
 73
    11
 74
     0
 42
0.00000001
 43
0.00000001
 12
1.0
 22
0.0
 32
0.0
 13
1.0
 23
0.0
 33
0.0
 40
0.0
 40
0.0
 40
0.0
 40
0.0
 40
0.2091619226109805
 40
0.3238069365708484
 40
0.4417755067865959
 40
0.5564324095154621
 40
0.67441394420391
 40
0.7890706737779708
 40
0.9070520280981863
 40
1.0
 40
1.0
 40
1.0
 40
1.0
 10
59.19479670269678
 20
699.2254156769591
 30
0.0
 10
59.29920327933341
 20
699.2487602483925
 30
0.0
 10
59.46083677990816
 20
699.2849003549047
 30
0.0
 10
59.68042572279086
 20
699.5091979093316
 30
0.0
 10
59.85318706780463
 20
699.7453930018598
 30
0.0
 10
60.02756032092438
 20
700.0450917172726
 30
0.0
 10
60.20030882244648
 20
700.3906338668211
 30
0.0
 10
60.3746876206942
 20
700.7773237081876
 30
0.0
 10
60.53666072276032
 20
701.1598519460664
 30
0.0
 10
60.6415189017917
 20
701.4135994682554
 30
0.0
 10
60.68772563488501
 20
701.5254156769591
 30
0.0
  0
LINE
  5
141
330
1F
100
AcDbEntity
  8
0
  6
Continuous
 62
     7
370
    15
100
AcDbLine
 10
59.1947967027
 20
699.225415677
 30
0.0
 11
59.1947967027
 21
700.025415677
 31
0.0
  0
SPLINE
  5
142
330
1F
100
AcDbEntity
  8
0
  6
Continuous
 62
     7
370
    15
100
AcDbSpline
210
0.0
220
0.0
230
1.0
 70
     8
 71
     3
 72
    11
 73
     7
 74
     0
 42
0.00000001
 43
0.00000001
 12
1.0
 22
0.0
 32
0.0
 13
1.0
 23
0.0
 33
0.0
 40
0.0
 40
0.0
 40
0.0
 40
0.0
 40
0.254321158472103
 40
0.5088664984542383
 40
0.7634130007196989
 40
1.0
 40
1.0
 40
1.0
 40
1.0
 10
59.19479670269678
 20
700.025415676959
 30
0.0
 10
59.32137781048219
 20
700.0487697389781
 30
0.0
 10
59.57465160600989
 20
700.0954984493839
 30
0.0
 10
59.95459627549532
 20
700.4543860655792
 30
0.0
 10
60.32582140716608
 20
700.9536090448688
 30
0.0
 10
60.57006805183535
 20
701.339517361464
 30
0.0
 10
60.68772563488501
 20
701.5254156769591
 30
0.0
  0
SPLINE
  5
143
330
1F
100
AcDbEntity
  8
0
  6
Continuous
 62
     7
370
    15
100
AcDbSpline
210
0.0
220
0.0
230
1.0
 70
     8
 71
     3
 72
    12
 73
     8
 74
     0
 42
0.00000001
 43
0.00000001
 12
1.0
 22
0.0
 32
0.0
 13
1.0
 23
0.0
 33
0.0
 40
0.0
 40
0.0
 40
0.0
 40
0.0
 40
0.209682100152891
 40
0.4420453733185992
 40
0.6744332966681066
 40
0.9068208701180759
 40
1.0
 40
1.0
 40
1.0
 40
1.0
 10
58.38772563488504
 20
945.6183446091479
 30
0.0
 10
58.41206560505374
 20
945.5140594012204
 30
0.0
 10
58.46337838374082
 20
945.2942085239338
 30
0.0
 10
58.88430897066915
 20
944.9582403940503
 30
0.0
 10
59.53609844856478
 20
944.6113351256341
 30
0.0
 10
60.18553948766719
 20
944.3329584634008
 30
0.0
 10
60.57597940477355
 20
944.1715980021794
 30
0.0
 10
60.68772563488501
 20
944.1254156769597
 30
0.0
  0
LINE
  5
144
330
1F
100
AcDbEntity
  8
0
  6
Continuous
 62
     7
370
    15
100
AcDbLine
 10
58.3877256349
 20
945.6183446091
 30
0.0
 11
59.1877256349
 21
945.6183446091
 31
0.0
  0
SPLINE
  5
145
330
1F
100
AcDbEntity
  8
0
  6
Continuous
 62
     7
370
    15
100
AcDbSpline
210
0.0
220
0.0
230
1.0
 70
     8
 71
     3
 72
    11
 73
     7
 74
     0
 42
0.00000001
 43
0.00000001
 12
1.0
 22
0.0
 32
0.0
 13
1.0
 23
0.0
 33
0.0
 40
0.0
 40
0.0
 40
0.0
 40
0.0
 40
0.2543211584721319
 40
0.5088664984543048
 40
0.7634130007197633
 40
1.0
 40
1.0
 40
1.0
 40
1.0
 10
59.18772563488506
 20
945.6183446091478
 30
0.0
 10
59.21107969690404
 20
945.4917635013625
 30
0.0
 10
59.25780840730971
 20
945.2384897058346
 30
0.0
 10
59.61669602350539
 20
944.8585450363495
 30
0.0
 10
60.11591900279473
 20
944.4873199046787
 30
0.0
 10
60.50182731938991
 20
944.2430732600093
 30
0.0
 10
60.68772563488501
 20
944.1254156769597
 30
0.0
  0
SPLINE
  5
146
330
1F
100
AcDbEntity
  8
0
  6
Continuous
 62
     7
370
    15
100
AcDbSpline
210
0.0
220
0.0
230
1.0
 70
     8
 71
     3
 72
    14
 73
    10
 74
     0
 42
0.00000001
 43
0.00000001
 12
1.0
 22
0.0
 32
0.0
 13
1.0
 23
0.0
 33
0.0
 40
0.0
 40
0.0
 40
0.0
 40
0.0
 40
0.1424979789612363
 40
0.2891107491290753
 40
0.431608726721808
 40
0.5782214232938225
 40
0.720967110898665
 40
0.8678498166736858
 40
1.0
 40
1.0
 40
1.0
 40
1.0
 10
122.4877256348811
 20
701.5254156769593
 30
0.0
 10
122.3333592844059
 20
701.3538172183196
 30
0.0
 10
122.0201690795233
 20
701.0056652003868
 30
0.0
 10
121.5525293577284
 20
700.5121303038724
 30
0.0
 10
121.0805448576847
 20
700.0666058492683
 30
0.0
 10
120.6126246426348
 20
699.6987878274017
 30
0.0
 10
120.1400821766365
 20
699.4240154341162
 30
0.0
 10
119.6830664658722
 20
699.2553887457486
 30
0.0
 10
119.3808537848575
 20
699.235048725596
 30
0.0
 10
119.2377256348812
 20
699.2254156769591
 30
0.0
  0
LINE
  5
147
330
1F
100
AcDbEntity
  8
0
  6
Continuous
 62
     7
370
    15
100
AcDbLine
 10
59.1947967027
 20
699.225415677
 30
0.0
 11
119.2377256349
 21
699.225415677
 31
0.0
  0
LINE
  5
148
330
1F
100
AcDbEntity
  8
0
  6
Continuous
 62
     7
370
    15
100
AcDbLine
 10
60.6877256349
 20
701.525415677
 30
0.0
 11
122.4877256349
 21
701.525415677
 31
0.0
  0
SPLINE
  5
149
330
1F
100
AcDbEntity
  8
0
  6
Continuous
 62
     7
370
    15
100
AcDbSpline
210
0.0
220
0.0
230
1.0
 70
     8
 71
     3
 72
    12
 73
     8
 74
     0
 42
0.00000001
 43
0.00000001
 12
1.0
 22
0.0
 32
0.0
 13
1.0
 23
0.0
 33
0.0
 40
0.0
 40
0.0
 40
0.0
 40
0.0
 40
0.209682100152866
 40
0.4420453733185768
 40
0.6744332966681474
 40
0.9068208701180822
 40
1.0
 40
1.0
 40
1.0
 40
1.0
 10
60.68772563488501
 20
701.5254156769591
 30
0.0
 10
60.43539467690967
 20
701.4211304690316
 30
0.0
 10
59.90343828942252
 20
701.2012795917451
 30
0.0
 10
59.1820568596077
 20
700.8653114618619
 30
0.0
 10
58.63869792562109
 20
700.5184061934452
 30
0.0
 10
58.41007608547777
 20
700.2400295312121
 30
0.0
 10
58.39269904685362
 20
700.0786690699907
 30
0.0
 10
58.38772563488504
 20
700.032486744771
 30
0.0
  0
LINE
  5
14A
330
1F
100
AcDbEntity
  8
0
  6
Continuous
 62
     7
370
    15
100
AcDbLine
 10
58.3877256349
 20
945.6183446091
 30
0.0
 11
58.3877256349
 21
700.0324867448
 31
0.0
  0
LINE
  5
14B
330
1F
100
AcDbEntity
  8
0
  6
Continuous
 62
     7
370
    15
100
AcDbLine
 10
60.6877256349
 20
944.125415677
 30
0.0
 11
60.6877256349
 21
701.525415677
 31
0.0
  0
CIRCLE
  5
14C
330
1F
100
AcDbEntity
  8
0
  6
Continuous
 62
     7
370
    15
100
AcDbCircle
 10
905.9349480449
 20
926.425415677
 30
0.0
 40
6.347663105371566
  0
CIRCLE
  5
14D
330
1F
100
AcDbEntity
  8
0
  6
Continuous
 62
     7
370
    15
100
AcDbCircle
 10
905.9349480449
 20
926.425415677
 30
0.0
 40
4.700000000000045
  0
SPLINE
  5
14E
330
1F
100
AcDbEntity
  8
0
  6
Continuous
 62
     7
370
    15
100
AcDbSpline
210
0.0
220
0.0
230
1.0
 70
     8
 71
     3
 72
    11
 73
     7
 74
     0
 42
0.00000001
 43
0.00000001
 12
1.0
 22
0.0
 32
0.0
 13
1.0
 23
0.0
 33
0.0
 40
0.0
 40
0.0
 40
0.0
 40
0.0
 40
0.2543211584721147
 40
0.508866498454217
 40
0.7634130007198093
 40
1.0
 40
1.0
 40
1.0
 40
1.0
 10
60.68772563488501
 20
944.1254156769596
 30
0.0
 10
60.5611445270996
 20
944.3253908670989
 30
0.0
 10
60.3078707315719
 20
944.7255175234701
 30
0.0
 10
59.92792606208658
 20
945.2271412775657
 30
0.0
 10
59.55670093041554
 20
945.5632065244246
 30
0.0
 10
59.31245428574638
 20
945.6051910485353
 30
0.0
 10
59.19479670269689
 20
945.6254156769597
 30
0.0
  0
LINE
  5
14F
330
1F
100
AcDbEntity
  8
0
  6
Continuous
 62
     7
370
    15
100
AcDbLine
 10
59.1947967027
 20
946.425415677
 30
0.0
 11
59.1947967027
 21
945.625415677
 31
0.0
  0
SPLINE
  5
150
330
1F
100
AcDbEntity
  8
0
  6
Continuous
 62
     7
370
    15
100
AcDbSpline
210
0.0
220
0.0
230
1.0
 70
     8
 71
     3
 72
    11
 73
     7
 74
     0
 42
0.00000001
 43
0.00000001
 12
1.0
 22
0.0
 32
0.0
 13
1.0
 23
0.0
 33
0.0
 40
0.0
 40
0.0
 40
0.0
 40
0.0
 40
0.2543211584721767
 40
0.5088664984542819
 40
0.7634130007197503
 40
1.0
 40
1.0
 40
1.0
 40
1.0
 10
60.68772563488501
 20
701.5254156769591
 30
0.0
 10
60.48775044474569
 20
701.3988345691737
 30
0.0
 10
60.08762378837446
 20
701.145560773646
 30
0.0
 10
59.586000034279
 20
700.7656161041607
 30
0.0
 10
59.2499347874203
 20
700.3943909724896
 30
0.0
 10
59.20795026330955
 20
700.1501443278204
 30
0.0
 10
59.18772563488506
 20
700.032486744771
 30
0.0
  0
LINE
  5
151
330
1F
100
AcDbEntity
  8
0
  6
Continuous
 62
     7
370
    15
100
AcDbLine
 10
58.3877256349
 20
700.0324867448
 30
0.0
 11
59.1877256349
 21
700.0324867448
 31
0.0
  0
LINE
  5
152
330
1F
100
AcDbEntity
  8
0
  6
Continuous
 62
     7
370
    15
100
AcDbLine
 10
864.6689842866
 20
218.425415677
 30
0.0
 11
120.9947967027
 21
218.425415677
 31
0.0
  0
SPLINE
  5
153
330
1F
100
AcDbEntity
  8
0
  6
Continuous
 62
     7
370
    15
100
AcDbSpline
210
0.0
220
0.0
230
1.0
 70
     8
 71
     3
 72
    24
 73
    20
 74
     0
 42
0.00000001
 43
0.00000001
 12
1.0
 22
0.0
 32
0.0
 13
1.0
 23
0.0
 33
0.0
 40
0.0
 40
0.0
 40
0.0
 40
0.0
 40
0.0516519798807389
 40
0.1035970116266964
 40
0.156456756718139
 40
0.2096307448684786
 40
0.2667254519687169
 40
0.3242168067235863
 40
0.3829576349531759
 40
0.4421307317448412
 40
0.4992313283186007
 40
0.556728696651782
 40
0.6154759449942259
 40
0.6746556039194008
 40
0.731756113804836
 40
0.7892533956918966
 40
0.8480005554127614
 40
0.9071801219092493
 40
1.0
 40
1.0
 40
1.0
 40
1.0
 10
120.9947967026929
 20
218.4254156769597
 30
0.0
 10
121.0204993717333
 20
218.4268738185816
 30
0.0
 10
121.0720505360753
 20
218.4297983747148
 30
0.0
 10
121.1499023564054
 20
218.4535966543303
 30
0.0
 10
121.2285087586731
 20
218.4919754380772
 30
0.0
 10
121.309681862694
 20
218.5477885464903
 30
0.0
 10
121.3931659436987
 20
218.6216697974479
 30
0.0
 10
121.4794204038484
 20
218.7151967991379
 30
0.0
 10
121.5667031697434
 20
218.8266891998232
 30
0.0
 10
121.6537947300966
 20
218.9540405365272
 30
0.0
 10
121.7402694041657
 20
219.0951740357217
 30
0.0
 10
121.8265330511403
 20
219.2492733807001
 30
0.0
 10
121.9138276721872
 20
219.4176036815413
 30
0.0
 10
122.0009232170314
 20
219.5966526936105
 30
0.0
 10
122.0874014584012
 20
219.7837684515118
 30
0.0
 10
122.1736632691222
 20
219.9781087637653
 30
0.0
 10
122.260963310344
 20
220.1810660712121
 30
0.0
 10
122.3658191528771
 20
220.4304197982683
 30
0.0
 10
122.4415064693581
 20
220.6135720479606
 30
0.0
 10
122.4877256348811
 20
220.7254156769597
 30
0.0
  0
LINE
  5
154
330
1F
100
AcDbEntity
  8
0
  6
Continuous
 62
     7
370
    15
100
AcDbLine
 10
122.4877256349
 20
220.725415677
 30
0.0
 11
863.1760553544
 21
220.725415677
 31
0.0
  0
CIRCLE
  5
155
330
1F
100
AcDbEntity
  8
0
  6
Continuous
 62
     7
370
    15
100
AcDbCircle
 10
135.9349480449
 20
926.425415677
 30
0.0
 40
6.347663105371566
  0
CIRCLE
  5
156
330
1F
100
AcDbEntity
  8
0
  6
Continuous
 62
     7
370
    15
100
AcDbCircle
 10
135.9349480449
 20
926.425415677
 30
0.0
 40
4.700000000000045
  0
LINE
  5
157
330
1F
100
AcDbEntity
  8
0
  6
Continuous
 62
     7
370
    15
100
AcDbLine
 10
120.9947967027
 20
218.425415677
 30
0.0
 11
120.9947967027
 21
219.225415677
 31
0.0
  0
SPLINE
  5
158
330
1F
100
AcDbEntity
  8
0
  6
Continuous
 62
     7
370
    15
100
AcDbSpline
210
0.0
220
0.0
230
1.0
 70
     8
 71
     3
 72
    21
 73
    17
 74
     0
 42
0.00000001
 43
0.00000001
 12
1.0
 22
0.0
 32
0.0
 13
1.0
 23
0.0
 33
0.0
 40
0.0
 40
0.0
 40
0.0
 40
0.0
 40
0.0624763969719908
 40
0.1253866436238112
 40
0.1896611442508096
 40
0.2544083625572823
 40
0.3169383358010468
 40
0.4441227652167861
 40
0.5089296300343065
 40
0.5714598844542628
 40
0.6344251195136857
 40
0.6987582682569453
 40
0.7635654383790221
 40
0.8217915801687434
 40
0.9399499359529261
 40
1.0
 40
1.0
 40
1.0
 40
1.0
 10
120.9947967026929
 20
219.2254156769597
 30
0.0
 10
121.0258821359135
 20
219.22680709395
 30
0.0
 10
121.0882688663596
 20
219.2295995902325
 30
0.0
 10
121.1826309309757
 20
219.2523456237326
 30
0.0
 10
121.2781218040474
 20
219.2890689790612
 30
0.0
 10
121.3734397571424
 20
219.3405997389919
 30
0.0
 10
121.5000099001438
 20
219.42730839493
 30
0.0
 10
121.6268724151052
 20
219.5405590646481
 30
0.0
 10
121.7534756919493
 20
219.6767325346649
 30
0.0
 10
121.8481686040395
 20
219.7889928238383
 30
0.0
 10
121.9426110402156
 20
219.9101381259621
 30
0.0
 10
122.0381900465765
 20
220.0409323239531
 30
0.0
 10
122.1314256357036
 20
220.1753213448536
 30
0.0
 10
122.2513947263636
 20
220.3548825331153
 30
0.0
 10
122.3692047261193
 20
220.5383680456773
 30
0.0
 10
122.4578539256088
 20
220.6782726663288
 30
0.0
 10
122.4877256348811
 20
220.7254156769596
 30
0.0
  0
SPLINE
  5
159
330
1F
100
AcDbEntity
  8
0
  6
Continuous
 62
     7
370
    15
100
AcDbSpline
210
0.0
220
0.0
230
1.0
 70
     8
 71
     3
 72
    24
 73
    20
 74
     0
 42
0.00000001
 43
0.00000001
 12
1.0
 22
0.0
 32
0.0
 13
1.0
 23
0.0
 33
0.0
 40
0.0
 40
0.0
 40
0.0
 40
0.0
 40
0.0647080043858435
 40
0.1696746425194358
 40
0.2095587450137058
 40
0.2523902778208909
 40
0.3244037024292833
 40
0.3829403418356517
 40
0.4420617482994494
 40
0.499214317543507
 40
0.5569251394504602
 40
0.6154681316474857
 40
0.6745960826934543
 40
0.7174319703446389
 40
0.7894528538947261
 40
0.847995757168719
 40
0.9071236161219073
 40
0.9534562591478488
 40
1.0
 40
1.0
 40
1.0
 40
1.0
 10
122.4877256348811
 20
220.7254156769597
 30
0.0
 10
122.4098145203278
 20
220.6932193352712
 30
0.0
 10
122.2055192305012
 20
220.6087954248405
 30
0.0
 10
121.956239465214
 20
220.5043771261771
 30
0.0
 10
121.7401641472706
 20
220.4110161308841
 30
0.0
 10
121.5659046219049
 20
220.3340330456141
 30
0.0
 10
121.3778230114338
 20
220.2477239665996
 30
0.0
 10
121.1835903817656
 20
220.1533541181915
 30
0.0
 10
121.0155702783305
 20
220.0663655907298
 30
0.0
 10
120.8606093728705
 20
219.9797887461361
 30
0.0
 10
120.7194712989715
 20
219.8934971375249
 30
0.0
 10
120.5915338656016
 20
219.8062295983835
 30
0.0
 10
120.4891516099877
 20
219.7263562073035
 30
0.0
 10
120.3928412616623
 20
219.6398011144792
 30
0.0
 10
120.3138490711161
 20
219.5534805309786
 30
0.0
 10
120.2495565314229
 20
219.4590971816189
 30
0.0
 10
120.2120133248292
 20
219.3774858942343
 30
0.0
 10
120.1912732071385
 20
219.3018585540604
 30
0.0
 10
120.188909949442
 20
219.2556456934544
 30
0.0
 10
120.1877256348811
 20
219.2324867447716
 30
0.0
  0
SPLINE
  5
15A
330
1F
100
AcDbEntity
  8
0
  6
Continuous
 62
     7
370
    15
100
AcDbSpline
210
0.0
220
0.0
230
1.0
 70
     8
 71
     3
 72
    21
 73
    17
 74
     0
 42
0.00000001
 43
0.00000001
 12
1.0
 22
0.0
 32
0.0
 13
1.0
 23
0.0
 33
0.0
 40
0.0
 40
0.0
 40
0.0
 40
0.0
 40
0.0624761742076444
 40
0.1253861965482587
 40
0.1896604679996827
 40
0.2544074554450659
 40
0.3802490636691987
 40
0.4441247472167401
 40
0.5089313809604484
 40
0.5714614124240094
 40
0.6344264229761908
 40
0.6987593423347852
 40
0.7635662813820431
 40
0.821973503991279
 40
0.9401348131379684
 40
1.0
 40
1.0
 40
1.0
 40
1.0
 10
122.4877256348811
 20
220.7254156769596
 30
0.0
 10
122.4386673385948
 20
220.6943300802446
 30
0.0
 10
122.3402100745499
 20
220.6319430216745
 30
0.0
 10
122.192719309069
 20
220.5375834490175
 30
0.0
 10
122.0463953941148
 20
220.4420828703363
 30
0.0
 10
121.8581137669868
 20
220.315308472159
 30
0.0
 10
121.6814392651823
 20
220.188475525991
 30
0.0
 10
121.5218846563789
 20
220.061878740103
 30
0.0
 10
121.4117192804865
 20
219.9667290497413
 30
0.0
 10
121.3128205695344
 20
219.8720458045975
 30
0.0
 10
121.2256491120985
 20
219.7776007839456
 30
0.0
 10
121.1501230654812
 20
219.6820224736363
 30
0.0
 10
121.0896249467214
 20
219.5886965401228
 30
0.0
 10
121.02918200627
 20
219.4686354791674
 30
0.0
 10
120.9930134625363
 20
219.3508254467793
 30
0.0
 10
120.9890563110395
 20
219.2622665522167
 30
0.0
 10
120.9877256348811
 20
219.2324867447716
 30
0.0
  0
LINE
  5
15B
330
1F
100
AcDbEntity
  8
0
  6
Continuous
 62
     7
370
    15
100
AcDbLine
 10
120.1877256349
 20
219.2324867448
 30
0.0
 11
120.9877256349
 21
219.2324867448
 31
0.0
  0
CIRCLE
  5
15C
330
1F
100
AcDbEntity
  8
0
  6
Continuous
 62
     7
370
    15
100
AcDbCircle
 10
525.9349480449
 20
926.425415677
 30
0.0
 40
6.347663105371566
  0
CIRCLE
  5
15D
330
1F
100
AcDbEntity
  8
0
  6
Continuous
 62
     7
370
    15
100
AcDbCircle
 10
525.9349480449
 20
926.425415677
 30
0.0
 40
4.700000000000045
  0
LINE
  5
15E
330
1F
100
AcDbEntity
  8
0
  6
Continuous
 62
     7
370
    15
100
AcDbLine
 10
122.4877256349
 20
701.525415677
 30
0.0
 11
122.4877256349
 21
220.725415677
 31
0.0
  0
LINE
  5
15F
330
1F
100
AcDbEntity
  8
0
  6
Continuous
 62
     7
370
    15
100
AcDbLine
 10
926.9800713721
 20
701.525415677
 30
0.0
 11
926.9800713721
 21
700.025415677
 31
0.0
  0
LINE
  5
160
330
1F
100
AcDbEntity
  8
0
  6
Continuous
 62
     7
370
    15
100
AcDbLine
 10
946.3349480449
 20
945.625415677
 30
0.0
 11
946.3349480449
 21
944.125415677
 31
0.0
  0
LINE
  5
161
330
1F
100
AcDbEntity
  8
0
  6
Continuous
 62
     7
370
    15
100
AcDbLine
 10
935.3181030129
 20
705.3373276689
 30
0.0
 11
933.9586413323
 21
705.9712550616
 31
0.0
  0
LINE
  5
162
330
1F
100
AcDbEntity
  8
0
  6
Continuous
 62
     7
370
    15
100
AcDbLine
 10
955.9289015033
 20
757.313503685
 30
0.0
 11
954.5694398228
 21
756.6795762924
 31
0.0
  0
LINE
  5
163
330
1F
100
AcDbEntity
  8
0
  6
Continuous
 62
     7
370
    15
100
AcDbLine
 10
954.5694398228
 20
750.1712550616
 30
0.0
 11
955.9289015033
 21
749.5373276689
 31
0.0
  0
ARC
  5
164
330
1F
100
AcDbEntity
  8
0
  6
Continuous
 62
     7
370
    15
100
AcDbCircle
 10
926.9800713721
 20
709.225415677
 30
0.0
 40
9.200000000000045
100
AcDbArc
 50
270.0
 51
335.0
  0
ARC
  5
165
330
1F
100
AcDbEntity
  8
0
  6
Continuous
 62
     7
370
    15
100
AcDbCircle
 10
947.5908698626
 20
753.425415677
 30
0.0
 40
9.199999999999951
100
AcDbArc
 50
335.0
 51
25.0
  0
LINE
  5
166
330
1F
100
AcDbEntity
  8
0
  6
Continuous
 62
     7
370
    15
100
AcDbLine
 10
940.2194351341
 20
901.5416013523
 30
0.0
 11
938.8599734535
 21
902.1755287449
 31
0.0
  0
LINE
  5
167
330
1F
100
AcDbEntity
  8
0
  6
Continuous
 62
     7
370
    15
100
AcDbLine
 10
935.1355641088
 20
898.4511194001
 30
0.0
 11
935.7694915014
 21
897.0916577196
 31
0.0
  0
ARC
  5
168
330
1F
100
AcDbEntity
  8
0
  6
Continuous
 62
     7
370
    15
100
AcDbCircle
 10
931.8814034934
 20
905.4296893603
 30
0.0
 40
9.200000000000102
100
AcDbArc
 50
295.0
 51
335.0
  0
LINE
  5
169
330
1F
100
AcDbEntity
  8
0
  6
Continuous
 62
     7
370
    15
100
AcDbLine
 10
953.3135180051
 20
933.1712550616
 30
0.0
 11
954.6729796856
 21
932.5373276689
 31
0.0
  0
ARC
  5
16A
330
1F
100
AcDbEntity
  8
0
  6
Continuous
 62
     7
370
    15
100
AcDbCircle
 10
946.3349480449
 20
936.425415677
 30
0.0
 40
9.199999999999818
100
AcDbArc
 50
335.0
 51
90.0
  0
LINE
  5
16B
330
1F
100
AcDbEntity
  8
0
  6
Continuous
 62
     7
370
    15
100
AcDbLine
 10
120.1877256349
 20
698.275415677
 30
0.0
 11
120.1877256349
 21
219.2324867448
 31
0.0
  0
SPLINE
  5
16C
330
1F
100
AcDbEntity
  8
0
  6
Continuous
 62
     7
370
    15
100
AcDbSpline
210
0.0
220
0.0
230
1.0
 70
     8
 71
     3
 72
    11
 73
     7
 74
     0
 42
0.00000001
 43
0.00000001
 12
1.0
 22
0.0
 32
0.0
 13
1.0
 23
0.0
 33
0.0
 40
0.0
 40
0.0
 40
0.0
 40
0.0
 40
0.2889759275644823
 40
0.5779517763250411
 40
0.867441407044977
 40
1.0
 40
1.0
 40
1.0
 40
1.0
 10
120.1877256348811
 20
698.2754156769591
 30
0.0
 10
120.2341847886245
 20
698.5886574109694
 30
0.0
 10
120.3271030834419
 20
699.2151407935687
 30
0.0
 10
121.0294454810539
 20
700.1548825307449
 30
0.0
 10
121.8217420166931
 20
700.9269368185196
 30
0.0
 10
122.3285464673863
 20
701.3823710676805
 30
0.0
 10
122.4877256348811
 20
701.5254156769591
 30
0.0
  0
CIRCLE
  5
16D
330
1F
100
AcDbEntity
  8
0
  6
Continuous
 62
     7
370
    15
100
AcDbCircle
 10
905.9349480449
 20
926.425415677
 30
0.0
 40
2.700000000000045
  0
CIRCLE
  5
16E
330
1F
100
AcDbEntity
  8
0
  6
Continuous
 62
     7
370
    15
100
AcDbCircle
 10
525.9349480449
 20
926.425415677
 30
0.0
 40
2.700000000000045
  0
CIRCLE
  5
16F
330
1F
100
AcDbEntity
  8
0
  6
Continuous
 62
     7
370
    15
100
AcDbCircle
 10
135.9349480449
 20
926.425415677
 30
0.0
 40
2.700000000000045
  0
LWPOLYLINE
  5
170
330
1F
100
AcDbEntity
  8
0
  6
Continuous
 62
     7
370
    15
100
AcDbPolyline
 90
        3
 70
   128
 43
0.0
 10
120.6634598625
 20
699.5586394841
 10
120.6367155261
 20
699.5860758487
 10
120.5354085701
 20
699.6785164564
  0
LINE
  5
171
330
1F
100
AcDbEntity
  8
0
  6
Continuous
 62
     7
370
    15
100
AcDbLine
 10
864.6760553544
 20
219.2324867448
 30
0.0
 11
864.6760553544
 21
219.7038523386
 31
0.0
  0
LINE
  5
172
330
1F
100
AcDbEntity
  8
0
  6
Continuous
 62
     7
370
    15
100
AcDbLine
 10
864.6689842866
 20
219.225415677
 30
0.0
 11
864.3760553544
 21
219.3165507716
 31
0.0
  0
LINE
  5
173
330
1F
100
AcDbEntity
  8
0
  6
Continuous
 62
     7
370
    15
100
AcDbLine
 10
134.1638929286
 20
208.025415677
 30
0.0
 11
139.6413836645
 21
208.025415677
 31
0.0
  0
LINE
  5
174
330
1F
100
AcDbEntity
  8
0
  6
Continuous
 62
     7
370
    15
100
AcDbLine
 10
146.163608755
 20
208.025415677
 30
0.0
 11
149.3035420784
 21
208.025415677
 31
0.0
  0
SPLINE
  5
175
330
1F
100
AcDbEntity
  8
0
  6
Continuous
 62
     7
370
    15
100
AcDbSpline
210
0.0
220
0.0
230
1.0
 70
     8
 71
     3
 72
    13
 73
     9
 74
     0
 42
0.00000001
 43
0.00000001
 12
1.0
 22
0.0
 32
0.0
 13
1.0
 23
0.0
 33
0.0
 40
0.0
 40
0.0
 40
0.0
 40
0.0
 40
0.0075462231153055
 40
0.2722763788511069
 40
0.4815195415733244
 40
0.6613541616922289
 40
0.8304588949398094
 40
1.0
 40
1.0
 40
1.0
 40
1.0
 10
149.3035420783518
 20
208.0254156769587
 30
0.0
 10
149.3043918066563
 20
208.0254124929162
 30
0.0
 10
149.3350509777702
 20
208.0252976090129
 30
0.0
 10
149.3895435114489
 20
208.0137119494007
 30
0.0
 10
149.4560714004788
 20
207.9709931701286
 30
0.0
 10
149.502117656698
 20
207.9153215670243
 30
0.0
 10
149.5325278424503
 20
207.8491857736437
 30
0.0
 10
149.5365261787353
 20
207.8000268242454
 30
0.0
 10
149.5385279229633
 20
207.7754156769587
 30
0.0
  0
SPLINE
  5
176
330
1F
100
AcDbEntity
  8
0
  6
Continuous
 62
     7
370
    15
100
AcDbSpline
210
0.0
220
0.0
230
1.0
 70
     8
 71
     3
 72
    13
 73
     9
 74
     0
 42
0.00000001
 43
0.00000001
 12
1.0
 22
0.0
 32
0.0
 13
1.0
 23
0.0
 33
0.0
 40
0.0
 40
0.0
 40
0.0
 40
0.0
 40
0.0075462231143757
 40
0.2722763788513562
 40
0.4815195415730127
 40
0.6613541616924611
 40
0.8304588949399493
 40
0.9999999999999999
 40
0.9999999999999999
 40
0.9999999999999999
 40
0.9999999999999999
 10
134.1638929286226
 20
208.0254156769587
 30
0.0
 10
134.1635562681204
 20
208.0254124929162
 30
0.0
 10
134.1514091713476
 20
208.0252976090129
 30
0.0
 10
134.1299218167906
 20
208.0137119494009
 30
0.0
 10
134.103888151773
 20
207.9709931701283
 30
0.0
 10
134.0859645663564
 20
207.9153215670242
 30
0.0
 10
134.0741727610908
 20
207.8491857736438
 30
0.0
 10
134.0726254353349
 20
207.8000268242454
 30
0.0
 10
134.0718507755315
 20
207.7754156769587
 30
0.0
  0
SPLINE
  5
177
330
1F
100
AcDbEntity
  8
0
  6
Continuous
 62
     7
370
    15
100
AcDbSpline
210
0.0
220
0.0
230
1.0
 70
     8
 71
     3
 72
    13
 73
     9
 74
     0
 42
0.00000001
 43
0.00000001
 12
1.0
 22
0.0
 32
0.0
 13
1.0
 23
0.0
 33
0.0
 40
0.0
 40
0.0
 40
0.0
 40
0.0
 40
0.1695411050602317
 40
0.338645838307559
 40
0.5184804584264412
 40
0.7277236211482948
 40
0.9924537768848961
 40
1.0
 40
1.0
 40
1.0
 40
1.0
 10
149.5385279229632
 20
207.0754156769587
 30
0.0
 10
149.5365261787352
 20
207.0508045296721
 30
0.0
 10
149.5325278424501
 20
207.0016455802737
 30
0.0
 10
149.5021176566981
 20
206.9355097868931
 30
0.0
 10
149.4560714004788
 20
206.8798381837888
 30
0.0
 10
149.3895435114487
 20
206.8371194045166
 30
0.0
 10
149.3350509777708
 20
206.8255337449045
 30
0.0
 10
149.3043918066562
 20
206.8254188610013
 30
0.0
 10
149.3035420783517
 20
206.8254156769587
 30
0.0
  0
LINE
  5
178
330
1F
100
AcDbEntity
  8
0
  6
Continuous
 62
     7
370
    15
100
AcDbLine
 10
149.3035420784
 20
206.825415677
 30
0.0
 11
146.0548978656
 21
206.825415677
 31
0.0
  0
LINE
  5
179
330
1F
100
AcDbEntity
  8
0
  6
Continuous
 62
     7
370
    15
100
AcDbLine
 10
139.6149765712
 20
206.825415677
 30
0.0
 11
134.1638929286
 21
206.825415677
 31
0.0
  0
SPLINE
  5
17A
330
1F
100
AcDbEntity
  8
0
  6
Continuous
 62
     7
370
    15
100
AcDbSpline
210
0.0
220
0.0
230
1.0
 70
     8
 71
     3
 72
    13
 73
     9
 74
     0
 42
0.00000001
 43
0.00000001
 12
1.0
 22
0.0
 32
0.0
 13
1.0
 23
0.0
 33
0.0
 40
0.0
 40
0.0
 40
0.0
 40
0.0
 40
0.1695411050600167
 40
0.3386458383077821
 40
0.5184804584271502
 40
0.7277236211487775
 40
0.992453776885458
 40
1.0
 40
1.0
 40
1.0
 40
1.0
 10
134.0718507755315
 20
207.0754156769587
 30
0.0
 10
134.0726254353348
 20
207.0508045296721
 30
0.0
 10
134.0741727610905
 20
207.0016455802736
 30
0.0
 10
134.0859645663564
 20
206.9355097868931
 30
0.0
 10
134.1038881517728
 20
206.879838183789
 30
0.0
 10
134.1299218167914
 20
206.8371194045165
 30
0.0
 10
134.1514091713454
 20
206.8255337449041
 30
0.0
 10
134.1635562681204
 20
206.8254188610013
 30
0.0
 10
134.1638929286226
 20
206.8254156769587
 30
0.0
  0
LINE
  5
17B
330
1F
100
AcDbEntity
  8
0
  6
Continuous
 62
     7
370
    15
100
AcDbLine
 10
149.538527923
 20
207.075415677
 30
0.0
 11
149.538527923
 21
207.775415677
 31
0.0
  0
LINE
  5
17C
330
1F
100
AcDbEntity
  8
0
  6
Continuous
 62
     7
370
    15
100
AcDbLine
 10
134.0718507755
 20
207.075415677
 30
0.0
 11
134.0718507755
 21
207.775415677
 31
0.0
  0
SPLINE
  5
17D
330
1F
100
AcDbEntity
  8
0
  6
Continuous
 62
     7
370
    15
100
AcDbSpline
210
0.0
220
0.0
230
1.0
 70
     8
 71
     3
 72
    12
 73
     8
 74
     0
 42
0.00000001
 43
0.00000001
 12
1.0
 22
0.0
 32
0.0
 13
1.0
 23
0.0
 33
0.0
 40
0.0
 40
0.0
 40
0.0
 40
0.0
 40
0.202820202046736
 40
0.4049472449426527
 40
0.6098312030740416
 40
0.8226939241827558
 40
1.0
 40
1.0
 40
1.0
 40
1.0
 10
132.4358400742288
 20
206.5754156769586
 30
0.0
 10
132.4504380247875
 20
206.7325565174941
 30
0.0
 10
132.4795840358895
 20
207.0463011533866
 30
0.0
 10
132.7058290922357
 20
207.4666974038562
 30
0.0
 10
133.0415000241202
 20
207.7937759392956
 30
0.0
 10
133.4442848421913
 20
207.9919852055617
 30
0.0
 10
133.7281428930308
 20
208.0149704114838
 30
0.0
 10
133.8571377216281
 20
208.0254156769587
 30
0.0
  0
LINE
  5
17E
330
1F
100
AcDbEntity
  8
0
  6
Continuous
 62
     7
370
    15
100
AcDbLine
 10
132.4358400742
 20
206.575415677
 30
0.0
 11
130.6774171755
 21
206.575415677
 31
0.0
  0
LINE
  5
17F
330
1F
100
AcDbEntity
  8
0
  6
Continuous
 62
     7
370
    15
100
AcDbLine
 10
132.1260553544
 20
208.025415677
 30
0.0
 11
133.8571377216
 21
208.025415677
 31
0.0
  0
SPLINE
  5
180
330
1F
100
AcDbEntity
  8
0
  6
Continuous
 62
     7
370
    15
100
AcDbSpline
210
0.0
220
0.0
230
1.0
 70
     8
 71
     3
 72
    12
 73
     8
 74
     0
 42
0.00000001
 43
0.00000001
 12
1.0
 22
0.0
 32
0.0
 13
1.0
 23
0.0
 33
0.0
 40
0.0
 40
0.0
 40
0.0
 40
0.0
 40
0.1789601577904133
 40
0.3929009169381284
 40
0.5976976172812605
 40
0.7987833678438221
 40
1.0
 40
1.0
 40
1.0
 40
1.0
 10
133.9286095673882
 20
207.7754156769587
 30
0.0
 10
133.8179703993089
 20
207.7668037071048
 30
0.0
 10
133.5750658828828
 20
207.747896421293
 30
0.0
 10
133.230953521302
 20
207.584360396141
 30
0.0
 10
132.9444592803878
 20
207.3137880843752
 30
0.0
 10
132.7514886932328
 20
206.9656579648155
 30
0.0
 10
132.726618889094
 20
206.705524649422
 30
0.0
 10
132.7141799415606
 20
206.5754156769586
 30
0.0
  0
LINE
  5
181
330
1F
100
AcDbEntity
  8
0
  6
Continuous
 62
     7
370
    15
100
AcDbLine
 10
132.7141799416
 20
206.575415677
 30
0.0
 11
132.4358400742
 21
206.575415677
 31
0.0
  0
LWPOLYLINE
  5
182
330
1F
100
AcDbEntity
  8
0
  6
Continuous
 62
     7
370
    15
100
AcDbPolyline
 90
        9
 70
   128
 43
0.0
 10
133.9286095674
 20
207.775415677
 10
133.9272362559
 20
207.8241882575
 10
133.9231690971
 20
207.871086535
 10
133.9165643895
 20
207.9143082352
 10
133.9076759484
 20
207.9521923723
 10
133.8968453516
 20
207.98328308
 10
133.8844888129
 20
208.0063855601
 10
133.871081187
 20
208.0206119971
 10
133.8571377216
 20
208.025415677
  0
LINE
  5
183
330
1F
100
AcDbEntity
  8
0
  6
Continuous
 62
     7
370
    15
100
AcDbLine
 10
132.7141799416
 20
206.575415677
 30
0.0
 11
132.7141799416
 21
201.475415677
 31
0.0
  0
LINE
  5
184
330
1F
100
AcDbEntity
  8
0
  6
Continuous
 62
     7
370
    15
100
AcDbLine
 10
132.7141799416
 20
201.475415677
 30
0.0
 11
132.4358400742
 21
201.475415677
 31
0.0
  0
LINE
  5
185
330
1F
100
AcDbEntity
  8
0
  6
Continuous
 62
     7
370
    15
100
AcDbLine
 10
132.4358400742
 20
201.475415677
 30
0.0
 11
132.4358400742
 21
206.575415677
 31
0.0
  0
LWPOLYLINE
  5
186
330
1F
100
AcDbEntity
  8
0
  6
Continuous
 62
     7
370
    15
100
AcDbPolyline
 90
        9
 70
   128
 43
0.0
 10
132.7141799416
 20
201.475415677
 10
132.7128066301
 20
201.4266430965
 10
132.7087394712
 20
201.3797448189
 10
132.7021347637
 20
201.3365231187
 10
132.6932463226
 20
201.2986389817
 10
132.6824157258
 20
201.2675482739
 10
132.6700591871
 20
201.2444457938
 10
132.6566515612
 20
201.2302193569
 10
132.6427080958
 20
201.225415677
  0
ARC
  5
187
330
1F
100
AcDbEntity
  8
0
  6
Continuous
 62
     7
370
    15
100
AcDbCircle
 10
132.6665223392
 20
201.4557100553
 30
0.0
 40
0.2315223939209357
100
AcDbArc
 50
175.1174632164
 51
264.0961513787
  0
LINE
  5
188
330
1F
100
AcDbEntity
  8
0
  6
Continuous
 62
     7
370
    15
100
AcDbLine
 10
130.6774171755
 20
201.475415677
 30
0.0
 11
132.4358400742
 21
201.475415677
 31
0.0
  0
LINE
  5
189
330
1F
100
AcDbEntity
  8
0
  6
Continuous
 62
     7
370
    15
100
AcDbLine
 10
132.6427080958
 20
201.225415677
 30
0.0
 11
130.9273837976
 21
201.225415677
 31
0.0
  0
LINE
  5
18A
330
1F
100
AcDbEntity
  8
0
  6
Continuous
 62
     7
370
    15
100
AcDbLine
 10
133.4203861495
 20
201.475415677
 30
0.0
 11
133.4203861495
 21
206.575415677
 31
0.0
  0
LINE
  5
18B
330
1F
100
AcDbEntity
  8
0
  6
Continuous
 62
     7
370
    15
100
AcDbLine
 10
132.7141799416
 20
201.475415677
 30
0.0
 11
133.4203861495
 21
201.475415677
 31
0.0
  0
LINE
  5
18C
330
1F
100
AcDbEntity
  8
0
  6
Continuous
 62
     7
370
    15
100
AcDbLine
 10
134.0718507755
 20
207.775415677
 30
0.0
 11
133.9286095674
 21
207.775415677
 31
0.0
  0
LINE
  5
18D
330
1F
100
AcDbEntity
  8
0
  6
Continuous
 62
     7
370
    15
100
AcDbLine
 10
133.9286095674
 20
207.075415677
 30
0.0
 11
134.0718507755
 21
207.075415677
 31
0.0
  0
SPLINE
  5
18E
330
1F
100
AcDbEntity
  8
0
  6
Continuous
 62
     7
370
    15
100
AcDbSpline
210
0.0
220
0.0
230
1.0
 70
     8
 71
     3
 72
    12
 73
     8
 74
     0
 42
0.00000001
 43
0.00000001
 12
1.0
 22
0.0
 32
0.0
 13
1.0
 23
0.0
 33
0.0
 40
0.0
 40
0.0
 40
0.0
 40
0.0
 40
0.1818603118646369
 40
0.3964966430177643
 40
0.6005836871107244
 40
0.8002123703305367
 40
1.0
 40
1.0
 40
1.0
 40
1.0
 10
133.9286095673882
 20
207.0754156769587
 30
0.0
 10
133.8816663312156
 20
207.0716979253648
 30
0.0
 10
133.7793194509977
 20
207.0635923853961
 30
0.0
 10
133.6351990191191
 20
206.9944376863894
 30
0.0
 10
133.5160632478805
 20
206.8815982794357
 30
0.0
 10
133.4359062530848
 20
206.7371771786903
 30
0.0
 10
133.4255608896845
 20
206.6293504806329
 30
0.0
 10
133.4203861495322
 20
206.5754156769586
 30
0.0
  0
LWPOLYLINE
  5
18F
330
1F
100
AcDbEntity
  8
0
  6
Continuous
 62
     7
370
    15
100
AcDbPolyline
 90
        9
 70
   128
 43
0.0
 10
133.4203861495
 20
201.475415677
 10
133.4190128381
 20
201.4266430965
 10
133.4149456792
 20
201.3797448189
 10
133.4083409717
 20
201.3365231187
 10
133.3994525306
 20
201.2986389817
 10
133.3886219338
 20
201.2675482739
 10
133.376265395
 20
201.2444457938
 10
133.3628577692
 20
201.2302193569
 10
133.3489143038
 20
201.225415677
  0
LINE
  5
190
330
1F
100
AcDbEntity
  8
0
  6
Continuous
 62
     7
370
    15
100
AcDbLine
 10
133.3489143038
 20
201.225415677
 30
0.0
 11
132.6427080958
 21
201.225415677
 31
0.0
  0
LWPOLYLINE
  5
191
330
1F
100
AcDbEntity
  8
0
  6
Continuous
 62
     7
370
    15
100
AcDbPolyline
 90
        9
 70
   128
 43
0.0
 10
133.9286095674
 20
207.075415677
 10
133.9272362559
 20
207.0266430965
 10
133.9231690971
 20
206.9797448189
 10
133.9165643895
 20
206.9365231187
 10
133.9076759484
 20
206.8986389817
 10
133.8968453516
 20
206.8675482739
 10
133.8844888129
 20
206.8444457938
 10
133.871081187
 20
206.8302193569
 10
133.8571377216
 20
206.825415677
  0
LINE
  5
192
330
1F
100
AcDbEntity
  8
0
  6
Continuous
 62
     7
370
    15
100
AcDbLine
 10
134.1638929286
 20
206.825415677
 30
0.0
 11
133.8571377216
 21
206.825415677
 31
0.0
  0
LINE
  5
193
330
1F
100
AcDbEntity
  8
0
  6
Continuous
 62
     7
370
    15
100
AcDbLine
 10
133.8571377216
 20
208.025415677
 30
0.0
 11
134.1638929286
 21
208.025415677
 31
0.0
  0
LINE
  5
194
330
1F
100
AcDbEntity
  8
0
  6
Continuous
 62
     7
370
    15
100
AcDbLine
 10
149.538527923
 20
207.075415677
 30
0.0
 11
149.6817691311
 21
207.075415677
 31
0.0
  0
LWPOLYLINE
  5
195
330
1F
100
AcDbEntity
  8
0
  6
Continuous
 62
     7
370
    15
100
AcDbPolyline
 90
        9
 70
   128
 43
0.0
 10
149.6102972853
 20
206.825415677
 10
149.6242407508
 20
206.8302193569
 10
149.6376483766
 20
206.8444457938
 10
149.6500049153
 20
206.8675482739
 10
149.6608355121
 20
206.8986389817
 10
149.6697239532
 20
206.9365231187
 10
149.6763286608
 20
206.9797448189
 10
149.6803958196
 20
207.0266430965
 10
149.6817691311
 20
207.075415677
  0
LINE
  5
196
330
1F
100
AcDbEntity
  8
0
  6
Continuous
 62
     7
370
    15
100
AcDbLine
 10
149.6102972853
 20
206.825415677
 30
0.0
 11
149.3035420784
 21
206.825415677
 31
0.0
  0
LWPOLYLINE
  5
197
330
1F
100
AcDbEntity
  8
0
  6
Continuous
 62
     7
370
    15
100
AcDbPolyline
 90
        9
 70
   128
 43
0.0
 10
149.6102972853
 20
208.025415677
 10
149.6242407508
 20
208.0206119971
 10
149.6376483766
 20
208.0063855601
 10
149.6500049153
 20
207.98328308
 10
149.6608355121
 20
207.9521923723
 10
149.6697239532
 20
207.9143082352
 10
149.6763286608
 20
207.8710865351
 10
149.6803958196
 20
207.8241882575
 10
149.6817691311
 20
207.775415677
  0
LINE
  5
198
330
1F
100
AcDbEntity
  8
0
  6
Continuous
 62
     7
370
    15
100
AcDbLine
 10
149.6817691311
 20
207.775415677
 30
0.0
 11
149.538527923
 21
207.775415677
 31
0.0
  0
LINE
  5
199
330
1F
100
AcDbEntity
  8
0
  6
Continuous
 62
     7
370
    15
100
AcDbLine
 10
149.3035420784
 20
208.025415677
 30
0.0
 11
149.6102972853
 21
208.025415677
 31
0.0
  0
SPLINE
  5
19A
330
1F
100
AcDbEntity
  8
0
  6
Continuous
 62
     7
370
    15
100
AcDbSpline
210
0.0
220
0.0
230
1.0
 70
     8
 71
     3
 72
    12
 73
     8
 74
     0
 42
0.00000001
 43
0.00000001
 12
1.0
 22
0.0
 32
0.0
 13
1.0
 23
0.0
 33
0.0
 40
0.0
 40
0.0
 40
0.0
 40
0.0
 40
0.1044203826439119
 40
0.3151731030979909
 40
0.5377472974586127
 40
0.7690283494734436
 40
1.0
 40
1.0
 40
1.0
 40
1.0
 10
150.8961987569342
 20
206.575415676959
 30
0.0
 10
150.8927689226107
 20
206.6426352455956
 30
0.0
 10
150.8824166187835
 20
206.8455247533686
 30
0.0
 10
150.7604304753947
 20
207.1778821185335
 30
0.0
 10
150.4887596061285
 20
207.5065269067871
 30
0.0
 10
150.1111256003992
 20
207.7325886196632
 30
0.0
 10
149.8248240770816
 20
207.7611463627506
 30
0.0
 10
149.6817691311064
 20
207.7754156769589
 30
0.0
  0
LINE
  5
19B
330
1F
100
AcDbEntity
  8
0
  6
Continuous
 62
     7
370
    15
100
AcDbLine
 10
150.8961987569
 20
201.475415677
 30
0.0
 11
150.8961987569
 21
206.575415677
 31
0.0
  0
LINE
  5
19C
330
1F
100
AcDbEntity
  8
0
  6
Continuous
 62
     7
370
    15
100
AcDbLine
 10
150.189992549
 20
201.475415677
 30
0.0
 11
150.8961987569
 21
201.475415677
 31
0.0
  0
LINE
  5
19D
330
1F
100
AcDbEntity
  8
0
  6
Continuous
 62
     7
370
    15
100
AcDbLine
 10
150.189992549
 20
206.575415677
 30
0.0
 11
150.189992549
 21
201.475415677
 31
0.0
  0
SPLINE
  5
19E
330
1F
100
AcDbEntity
  8
0
  6
Continuous
 62
     7
370
    15
100
AcDbSpline
210
0.0
220
0.0
230
1.0
 70
     8
 71
     3
 72
    12
 73
     8
 74
     0
 42
0.00000001
 43
0.00000001
 12
1.0
 22
0.0
 32
0.0
 13
1.0
 23
0.0
 33
0.0
 40
0.0
 40
0.0
 40
0.0
 40
0.0
 40
0.1009214352039921
 40
0.3119724040343276
 40
0.5359629038280063
 40
0.7681188099357945
 40
1.0
 40
1.0
 40
1.0
 40
1.0
 10
150.1899925489629
 20
206.575415676959
 30
0.0
 10
150.1886394186618
 20
206.6025366356311
 30
0.0
 10
150.1844565677925
 20
206.686374035085
 30
0.0
 10
150.1340038765079
 20
206.8248452374695
 30
0.0
 10
150.0200712929339
 20
206.9625667754383
 30
0.0
 10
149.8617037184892
 20
207.0573682227496
 30
0.0
 10
149.7417236503096
 20
207.0694022336532
 30
0.0
 10
149.6817691311064
 20
207.0754156769589
 30
0.0
  0
SPLINE
  5
19F
330
1F
100
AcDbEntity
  8
0
  6
Continuous
 62
     7
370
    15
100
AcDbSpline
210
0.0
220
0.0
230
1.0
 70
     8
 71
     3
 72
    12
 73
     8
 74
     0
 42
0.00000001
 43
0.00000001
 12
1.0
 22
0.0
 32
0.0
 13
1.0
 23
0.0
 33
0.0
 40
0.0
 40
0.0
 40
0.0
 40
0.0
 40
0.2289440738515928
 40
0.4594214300241496
 40
0.6825355698157738
 40
0.8947175231628782
 40
1.0
 40
1.0
 40
1.0
 40
1.0
 10
149.6102972853465
 20
208.0254156769589
 30
0.0
 10
149.7827635482809
 20
208.0080811923814
 30
0.0
 10
150.1288511137515
 20
207.9732961308622
 30
0.0
 10
150.5840837953775
 20
207.69942628505
 30
0.0
 10
150.9112974950809
 20
207.3023897505669
 30
0.0
 10
151.058070384424
 20
206.9015137612142
 30
0.0
 10
151.070553641824
 20
206.6566283681271
 30
0.0
 10
151.0746935332043
 20
206.575415676959
 30
0.0
  0
LINE
  5
1A0
330
1F
100
AcDbEntity
  8
0
  6
Continuous
 62
     7
370
    15
100
AcDbLine
 10
151.0746935332
 20
206.575415677
 30
0.0
 11
150.8961987569
 21
206.575415677
 31
0.0
  0
SPLINE
  5
1A1
330
1F
100
AcDbEntity
  8
0
  6
Continuous
 62
     7
370
    15
100
AcDbSpline
210
0.0
220
0.0
230
1.0
 70
     8
 71
     3
 72
    12
 73
     8
 74
     0
 42
0.00000001
 43
0.00000001
 12
1.0
 22
0.0
 32
0.0
 13
1.0
 23
0.0
 33
0.0
 40
0.0
 40
0.0
 40
0.0
 40
0.0
 40
0.2476950353250891
 40
0.4874512254426633
 40
0.7077624525226832
 40
0.9064888091634707
 40
0.9999999999999999
 40
0.9999999999999999
 40
0.9999999999999999
 40
0.9999999999999999
 10
149.6102972853464
 20
206.825415676959
 30
0.0
 10
149.6407012085811
 20
206.8224978005964
 30
0.0
 10
149.7005345823893
 20
206.8167555683924
 30
0.0
 10
149.7808000090407
 20
206.770478796452
 30
0.0
 10
149.8393921093642
 20
206.7019195252309
 30
0.0
 10
149.8658856828934
 20
206.6314399115959
 30
0.0
 10
149.8680362094323
 20
206.5889967787909
 30
0.0
 10
149.8687243424231
 20
206.575415676959
 30
0.0
  0
LINE
  5
1A2
330
1F
100
AcDbEntity
  8
0
  6
Continuous
 62
     7
370
    15
100
AcDbLine
 10
149.6102972853
 20
208.025415677
 30
0.0
 11
149.6260553544
 21
208.025415677
 31
0.0
  0
LWPOLYLINE
  5
1A3
330
1F
100
AcDbEntity
  8
0
  6
Continuous
 62
     7
370
    15
100
AcDbPolyline
 90
        9
 70
   128
 43
0.0
 10
150.1185207032
 20
201.225415677
 10
150.1324641686
 20
201.2302193569
 10
150.1458717945
 20
201.2444457938
 10
150.1582283332
 20
201.2675482739
 10
150.16905893
 20
201.2986389817
 10
150.1779473711
 20
201.3365231187
 10
150.1845520787
 20
201.3797448189
 10
150.1886192375
 20
201.4266430965
 10
150.189992549
 20
201.475415677
  0
LINE
  5
1A4
330
1F
100
AcDbEntity
  8
0
  6
Continuous
 62
     7
370
    15
100
AcDbLine
 10
150.8247269112
 20
201.225415677
 30
0.0
 11
150.1185207032
 21
201.225415677
 31
0.0
  0
LWPOLYLINE
  5
1A5
330
1F
100
AcDbEntity
  8
0
  6
Continuous
 62
     7
370
    15
100
AcDbPolyline
 90
        9
 70
   128
 43
0.0
 10
150.8247269112
 20
201.225415677
 10
150.8386703766
 20
201.2302193569
 10
150.8520780024
 20
201.2444457938
 10
150.8644345412
 20
201.2675482739
 10
150.875265138
 20
201.2986389817
 10
150.8841535791
 20
201.3365231187
 10
150.8907582866
 20
201.3797448189
 10
150.8948254455
 20
201.4266430965
 10
150.8961987569
 20
201.475415677
  0
LINE
  5
1A6
330
1F
100
AcDbEntity
  8
0
  6
Continuous
 62
     7
370
    15
100
AcDbLine
 10
150.1185207032
 20
201.225415677
 30
0.0
 11
148.403196405
 21
201.225415677
 31
0.0
  0
ARC
  5
1A7
330
1F
100
AcDbEntity
  8
0
  6
Continuous
 62
     7
370
    15
100
AcDbCircle
 10
148.4291427333
 20
201.4543019826
 30
0.0
 40
0.2303522364862875
100
AcDbArc
 50
174.7409849417
 51
263.5326145788
  0
LINE
  5
1A8
330
1F
100
AcDbEntity
  8
0
  6
Continuous
 62
     7
370
    15
100
AcDbLine
 10
151.0746935332
 20
206.575415677
 30
0.0
 11
151.0746935332
 21
201.475415677
 31
0.0
  0
LINE
  5
1A9
330
1F
100
AcDbEntity
  8
0
  6
Continuous
 62
     7
370
    15
100
AcDbLine
 10
151.0746935332
 20
201.475415677
 30
0.0
 11
150.8961987569
 21
201.475415677
 31
0.0
  0
ARC
  5
1AA
330
1F
100
AcDbEntity
  8
0
  6
Continuous
 62
     7
370
    15
100
AcDbCircle
 10
150.8247102211
 20
201.4753989891
 30
0.0
 40
0.249983312685634
100
AcDbArc
 50
270.0038253442
 51
0.0038248338
  0
SPLINE
  5
1AB
330
1F
100
AcDbEntity
  8
0
  6
Continuous
 62
     7
370
    15
100
AcDbSpline
210
0.0
220
0.0
230
1.0
 70
     8
 71
     3
 72
    12
 73
     8
 74
     0
 42
0.00000001
 43
0.00000001
 12
1.0
 22
0.0
 32
0.0
 13
1.0
 23
0.0
 33
0.0
 40
0.0
 40
0.0
 40
0.0
 40
0.0
 40
0.2028202020467103
 40
0.4049472449427045
 40
0.6098312030740961
 40
0.8226939241827559
 40
1.0
 40
1.0
 40
1.0
 40
1.0
 10
140.0341973281883
 20
207.0754156769586
 30
0.0
 10
140.031435431887
 20
206.9182748364232
 30
0.0
 10
140.0259210783524
 20
206.6045302005307
 30
0.0
 10
139.9833385250027
 20
206.1841339500614
 30
0.0
 10
139.9209429304677
 20
205.8570554146215
 30
0.0
 10
139.8472230272448
 20
205.6588461483558
 30
0.0
 10
139.7967121145294
 20
205.6358609424337
 30
0.0
 10
139.7737582243412
 20
205.6254156769589
 30
0.0
  0
LINE
  5
1AC
330
1F
100
AcDbEntity
  8
0
  6
Continuous
 62
     7
370
    15
100
AcDbLine
 10
140.0341973282
 20
207.075415677
 30
0.0
 11
146.0317707598
 21
207.075415677
 31
0.0
  0
SPLINE
  5
1AD
330
1F
100
AcDbEntity
  8
0
  6
Continuous
 62
     7
370
    15
100
AcDbSpline
210
0.0
220
0.0
230
1.0
 70
     8
 71
     3
 72
    12
 73
     8
 74
     0
 42
0.00000001
 43
0.00000001
 12
1.0
 22
0.0
 32
0.0
 13
1.0
 23
0.0
 33
0.0
 40
0.0
 40
0.0
 40
0.0
 40
0.0
 40
0.2289440738515946
 40
0.4594214300241514
 40
0.6825355698157749
 40
0.8947175231628788
 40
1.0
 40
1.0
 40
1.0
 40
1.0
 10
145.624332307121
 20
205.6254156769589
 30
0.0
 10
145.6731181403897
 20
205.6427501615365
 30
0.0
 10
145.7710165349984
 20
205.6775352230557
 30
0.0
 10
145.8972636842111
 20
205.9514050688679
 30
0.0
 10
145.9871785183816
 20
206.3484416033509
 30
0.0
 10
146.0272348929036
 20
206.7493175927036
 30
0.0
 10
146.0306411304654
 20
206.9942029857907
 30
0.0
 10
146.0317707597817
 20
207.0754156769589
 30
0.0
  0
LINE
  5
1AE
330
1F
100
AcDbEntity
  8
0
  6
Continuous
 62
     7
370
    15
100
AcDbLine
 10
145.6243323071
 20
205.625415677
 30
0.0
 11
139.7737582243
 21
205.625415677
 31
0.0
  0
LINE
  5
1AF
330
1F
100
AcDbEntity
  8
0
  6
Continuous
 62
     7
370
    15
100
AcDbLine
 10
140.0548311033
 20
212.425415677
 30
0.0
 11
145.9054051861
 21
212.425415677
 31
0.0
  0
LWPOLYLINE
  5
1B0
330
1F
100
AcDbEntity
  8
0
  6
Continuous
 62
     7
370
    15
100
AcDbPolyline
 90
        9
 70
   128
 43
0.0
 10
145.9054051861
 20
212.425415677
 10
145.9300578866
 20
212.4206119971
 10
145.9537631976
 20
212.4063855601
 10
145.9756101373
 20
212.38328308
 10
145.9947591402
 20
212.3521923723
 10
146.0104743207
 20
212.3143082352
 10
146.0221517532
 20
212.2710865351
 10
146.0293426807
 20
212.2241882575
 10
146.0317707598
 20
212.175415677
  0
LINE
  5
1B1
330
1F
100
AcDbEntity
  8
0
  6
Continuous
 62
     7
370
    15
100
AcDbLine
 10
146.0317707598
 20
212.175415677
 30
0.0
 11
140.0341973282
 21
212.175415677
 31
0.0
  0
ARC
  5
1B2
330
1F
100
AcDbEntity
  8
0
  6
Continuous
 62
     7
370
    15
100
AcDbCircle
 10
140.8069262346
 20
212.2374899243
 30
0.0
 40
0.7752181466974376
100
AcDbArc
 50
165.9707855369
 51
184.5927769642
  0
LINE
  5
1B3
330
1F
100
AcDbEntity
  8
0
  6
Continuous
 62
     7
370
    15
100
AcDbLine
 10
140.0341973282
 20
212.175415677
 30
0.0
 11
140.0341973282
 21
207.075415677
 31
0.0
  0
LINE
  5
1B4
330
1F
100
AcDbEntity
  8
0
  6
Continuous
 62
     7
370
    15
100
AcDbLine
 10
146.0317707598
 20
207.075415677
 30
0.0
 11
146.0317707598
 21
212.175415677
 31
0.0
  0
SPLINE
  5
1B5
330
1F
100
AcDbEntity
  8
0
  6
Continuous
 62
     7
370
    15
100
AcDbSpline
210
0.0
220
0.0
230
1.0
 70
     8
 71
     3
 72
    12
 73
     8
 74
     0
 42
0.00000001
 43
0.00000001
 12
1.0
 22
0.0
 32
0.0
 13
1.0
 23
0.0
 33
0.0
 40
0.0
 40
0.0
 40
0.0
 40
0.0
 40
0.1789601577904956
 40
0.3929009169381681
 40
0.597697617281303
 40
0.798783367843826
 40
0.9999999999999999
 40
0.9999999999999999
 40
0.9999999999999999
 40
0.9999999999999999
 10
139.5299843042254
 20
205.8754156769589
 30
0.0
 10
139.5555911148967
 20
205.8840276468129
 30
0.0
 10
139.6118099935389
 20
205.9029349326246
 30
0.0
 10
139.6914528564194
 20
206.0664709577762
 30
0.0
 10
139.7577603306427
 20
206.337043269542
 30
0.0
 10
139.8024222833324
 20
206.685173389102
 30
0.0
 10
139.8081782590601
 20
206.9453067044954
 30
0.0
 10
139.8110571832237
 20
207.0754156769586
 30
0.0
  0
LINE
  5
1B6
330
1F
100
AcDbEntity
  8
0
  6
Continuous
 62
     7
370
    15
100
AcDbLine
 10
139.8110571832
 20
207.075415677
 30
0.0
 11
140.0341973282
 21
207.075415677
 31
0.0
  0
ARC
  5
1B7
330
1F
100
AcDbEntity
  8
0
  6
Continuous
 62
     7
370
    15
100
AcDbCircle
 10
139.7769110184
 20
205.8723414011
 30
0.0
 40
0.2469458510419423
100
AcDbArc
 50
179.2866955168
 51
269.2684764678
  0
LINE
  5
1B8
330
1F
100
AcDbEntity
  8
0
  6
Continuous
 62
     7
370
    15
100
AcDbLine
 10
139.8110571832
 20
212.175415677
 30
0.0
 11
140.0341973282
 21
212.175415677
 31
0.0
  0
ARC
  5
1B9
330
1F
100
AcDbEntity
  8
0
  6
Continuous
 62
     7
370
    15
100
AcDbCircle
 10
140.0579838974
 20
212.1784899528
 30
0.0
 40
0.2469458510423366
100
AcDbArc
 50
90.7315235324
 51
180.7133044831
  0
LINE
  5
1BA
330
1F
100
AcDbEntity
  8
0
  6
Continuous
 62
     7
370
    15
100
AcDbLine
 10
139.8110571832
 20
207.075415677
 30
0.0
 11
139.8110571832
 21
212.175415677
 31
0.0
  0
LINE
  5
1BB
330
1F
100
AcDbEntity
  8
0
  6
Continuous
 62
     7
370
    15
100
AcDbLine
 10
139.6476097443
 20
212.175415677
 30
0.0
 11
139.6476097443
 21
207.075415677
 31
0.0
  0
LINE
  5
1BC
330
1F
100
AcDbEntity
  8
0
  6
Continuous
 62
     7
370
    15
100
AcDbLine
 10
139.8110571832
 20
212.175415677
 30
0.0
 11
139.6476097443
 21
212.175415677
 31
0.0
  0
LINE
  5
1BD
330
1F
100
AcDbEntity
  8
0
  6
Continuous
 62
     7
370
    15
100
AcDbLine
 10
139.4968319355
 20
205.875415677
 30
0.0
 11
139.5299843042
 21
205.875415677
 31
0.0
  0
LINE
  5
1BE
330
1F
100
AcDbEntity
  8
0
  6
Continuous
 62
     7
370
    15
100
AcDbLine
 10
139.4968319355
 20
206.575415677
 30
0.0
 11
139.4968319355
 21
205.875415677
 31
0.0
  0
LINE
  5
1BF
330
1F
100
AcDbEntity
  8
0
  6
Continuous
 62
     7
370
    15
100
AcDbLine
 10
139.5299843042
 20
206.575415677
 30
0.0
 11
139.4968319355
 21
206.575415677
 31
0.0
  0
SPLINE
  5
1C0
330
1F
100
AcDbEntity
  8
0
  6
Continuous
 62
     7
370
    15
100
AcDbSpline
210
0.0
220
0.0
230
1.0
 70
     8
 71
     3
 72
    12
 73
     8
 74
     0
 42
0.00000001
 43
0.00000001
 12
1.0
 22
0.0
 32
0.0
 13
1.0
 23
0.0
 33
0.0
 40
0.0
 40
0.0
 40
0.0
 40
0.0
 40
0.1818603118645401
 40
0.3964966430180448
 40
0.6005836871110876
 40
0.800212370330859
 40
1.0
 40
1.0
 40
1.0
 40
1.0
 10
139.5299843042254
 20
206.5754156769589
 30
0.0
 10
139.5408490511485
 20
206.5791334285528
 30
0.0
 10
139.564536658621
 20
206.5872389685216
 30
0.0
 10
139.5978925187296
 20
206.6563936675281
 30
0.0
 10
139.625465820221
 20
206.7692330744819
 30
0.0
 10
139.6440177040191
 20
206.9136541752273
 30
0.0
 10
139.6464120799577
 20
207.0214808732845
 30
0.0
 10
139.6476097443441
 20
207.0754156769586
 30
0.0
  0
ARC
  5
1C1
330
1F
100
AcDbEntity
  8
0
  6
Continuous
 62
     7
370
    15
100
AcDbCircle
 10
139.8945364585
 20
212.1784899528
 30
0.0
 40
0.2469458510424773
100
AcDbArc
 50
90.7315235324
 51
180.7133044831
  0
LINE
  5
1C2
330
1F
100
AcDbEntity
  8
0
  6
Continuous
 62
     7
370
    15
100
AcDbLine
 10
139.8913836645
 20
212.425415677
 30
0.0
 11
140.0548311033
 21
212.425415677
 31
0.0
  0
SPLINE
  5
1C3
330
1F
100
AcDbEntity
  8
0
  6
Continuous
 62
     7
370
    15
100
AcDbSpline
210
0.0
220
0.0
230
1.0
 70
     8
 71
     3
 72
    13
 73
     9
 74
     0
 42
0.00000001
 43
0.00000001
 12
1.0
 22
0.0
 32
0.0
 13
1.0
 23
0.0
 33
0.0
 40
0.0
 40
0.0
 40
0.0
 40
0.0
 40
0.1695411050600384
 40
0.3386458383076503
 40
0.5184804584265076
 40
0.7277236211485555
 40
0.9924537768853212
 40
1.0
 40
1.0
 40
1.0
 40
1.0
 10
139.4968319354855
 20
205.8754156769589
 30
0.0
 10
139.4986032944189
 20
205.8508045296722
 30
0.0
 10
139.50214145309
 20
205.8016455802738
 30
0.0
 10
139.5290092396738
 20
205.7355097868934
 30
0.0
 10
139.5695664702181
 20
205.679838183789
 30
0.0
 10
139.6279132575584
 20
205.6371194045169
 30
0.0
 10
139.6754072121535
 20
205.6255337449047
 30
0.0
 10
139.702023777679
 20
205.6254188610014
 30
0.0
 10
139.7027614639332
 20
205.6254156769589
 30
0.0
  0
LINE
  5
1C4
330
1F
100
AcDbEntity
  8
0
  6
Continuous
 62
     7
370
    15
100
AcDbLine
 10
139.7027614639
 20
205.625415677
 30
0.0
 11
133.5989143038
 21
205.625415677
 31
0.0
  0
SPLINE
  5
1C5
330
1F
100
AcDbEntity
  8
0
  6
Continuous
 62
     7
370
    15
100
AcDbSpline
210
0.0
220
0.0
230
1.0
 70
     8
 71
     3
 72
    11
 73
     7
 74
     0
 42
0.00000001
 43
0.00000001
 12
1.0
 22
0.0
 32
0.0
 13
1.0
 23
0.0
 33
0.0
 40
0.0
 40
0.0
 40
0.0
 40
0.0
 40
0.2660856951429022
 40
0.5206434090717542
 40
0.7600128601906502
 40
1.0
 40
1.0
 40
1.0
 40
1.0
 10
139.6182375293332
 20
206.8020994813161
 30
0.0
 10
139.6011567508999
 20
206.791218560051
 30
0.0
 10
139.5677352071061
 20
206.7699281260117
 30
0.0
 10
139.5290791403475
 20
206.7150636939466
 30
0.0
 10
139.5021243766519
 20
206.6492487709434
 30
0.0
 10
139.4985975973852
 20
206.6000478413769
 30
0.0
 10
139.4968319354856
 20
206.5754156769589
 30
0.0
  0
LINE
  5
1C6
330
1F
100
AcDbEntity
  8
0
  6
Continuous
 62
     7
370
    15
100
AcDbLine
 10
133.7611229807
 20
206.825415677
 30
0.0
 11
133.8571377216
 21
206.825415677
 31
0.0
  0
LINE
  5
1C7
330
1F
100
AcDbEntity
  8
0
  6
Continuous
 62
     7
370
    15
100
AcDbLine
 10
134.1319465871
 20
206.825415677
 30
0.0
 11
139.7027614639
 21
206.825415677
 31
0.0
  0
LINE
  5
1C8
330
1F
100
AcDbEntity
  8
0
  6
Continuous
 62
     7
370
    15
100
AcDbLine
 10
146.0317707598
 20
207.075415677
 30
0.0
 11
146.1554051861
 21
207.075415677
 31
0.0
  0
LINE
  5
1C9
330
1F
100
AcDbEntity
  8
0
  6
Continuous
 62
     7
370
    15
100
AcDbLine
 10
139.7737582243
 20
205.625415677
 30
0.0
 11
139.7027614639
 21
205.625415677
 31
0.0
  0
LINE
  5
1CA
330
1F
100
AcDbEntity
  8
0
  6
Continuous
 62
     7
370
    15
100
AcDbLine
 10
146.1033621665
 20
206.825415677
 30
0.0
 11
149.3035420784
 21
206.825415677
 31
0.0
  0
LINE
  5
1CB
330
1F
100
AcDbEntity
  8
0
  6
Continuous
 62
     7
370
    15
100
AcDbLine
 10
149.3260553544
 20
205.625415677
 30
0.0
 11
145.5533355467
 21
205.625415677
 31
0.0
  0
LINE
  5
1CC
330
1F
100
AcDbEntity
  8
0
  6
Continuous
 62
     7
370
    15
100
AcDbLine
 10
136.0838380586
 20
205.1788336896
 30
0.0
 11
138.6761654944
 21
205.625415677
 31
0.0
  0
SPLINE
  5
1CD
330
1F
100
AcDbEntity
  8
0
  6
Continuous
 62
     7
370
    15
100
AcDbSpline
210
0.0
220
0.0
230
1.0
 70
     8
 71
     3
 72
     9
 73
     5
 74
     0
 42
0.00000001
 43
0.00000001
 12
1.0
 22
0.0
 32
0.0
 13
1.0
 23
0.0
 33
0.0
 40
0.0
 40
0.0
 40
0.0
 40
0.0
 40
0.0702005767034231
 40
1.0
 40
1.0
 40
1.0
 40
1.0
 10
138.6761654944491
 20
205.6254156769589
 30
0.0
 10
138.7376189933198
 20
205.6249695606913
 30
0.0
 10
139.6130177686078
 20
205.6186146803109
 30
0.0
 10
140.4708660722827
 20
205.3907251984155
 30
0.0
 10
141.2684929303155
 20
205.1788336895737
 30
0.0
  0
LINE
  5
1CE
330
1F
100
AcDbEntity
  8
0
  6
Continuous
 62
     7
370
    15
100
AcDbLine
 10
141.2684929303
 20
205.1788336896
 30
0.0
 11
141.2684929303
 21
200.8719976643
 31
0.0
  0
SPLINE
  5
1CF
330
1F
100
AcDbEntity
  8
0
  6
Continuous
 62
     7
370
    15
100
AcDbSpline
210
0.0
220
0.0
230
1.0
 70
     8
 71
     3
 72
     9
 73
     5
 74
     0
 42
0.00000001
 43
0.00000001
 12
1.0
 22
0.0
 32
0.0
 13
1.0
 23
0.0
 33
0.0
 40
0.0
 40
0.0
 40
0.0
 40
0.0
 40
0.0702005767034231
 40
1.0
 40
1.0
 40
1.0
 40
1.0
 10
138.6761654944491
 20
200.4254156769589
 30
0.0
 10
138.7376189933198
 20
200.4258617932265
 30
0.0
 10
139.6130177686077
 20
200.4322166736069
 30
0.0
 10
140.4708660722827
 20
200.6601061555024
 30
0.0
 10
141.2684929303155
 20
200.8719976643441
 30
0.0
  0
LINE
  5
1D0
330
1F
100
AcDbEntity
  8
0
  6
Continuous
 62
     7
370
    15
100
AcDbLine
 10
136.0838380586
 20
200.8719976643
 30
0.0
 11
138.6761654944
 21
200.425415677
 31
0.0
  0
LINE
  5
1D1
330
1F
100
AcDbEntity
  8
0
  6
Continuous
 62
     7
370
    15
100
AcDbLine
 10
136.0838380586
 20
205.1788336896
 30
0.0
 11
136.0838380586
 21
200.8719976643
 31
0.0
  0
LINE
  5
1D2
330
1F
100
AcDbEntity
  8
0
  6
Continuous
 62
     7
370
    15
100
AcDbLine
 10
141.2684929303
 20
200.8719976643
 30
0.0
 11
143.6646015782
 21
200.425415677
 31
0.0
  0
LINE
  5
1D3
330
1F
100
AcDbEntity
  8
0
  6
Continuous
 62
     7
370
    15
100
AcDbLine
 10
143.6646015782
 20
200.425415677
 30
0.0
 11
138.6761654944
 21
200.425415677
 31
0.0
  0
LINE
  5
1D4
330
1F
100
AcDbEntity
  8
0
  6
Continuous
 62
     7
370
    15
100
AcDbLine
 10
141.2684929303
 20
205.1788336896
 30
0.0
 11
143.6646015782
 21
205.625415677
 31
0.0
  0
SPLINE
  5
1D5
330
1F
100
AcDbEntity
  8
0
  6
Continuous
 62
     7
370
    15
100
AcDbSpline
210
0.0
220
0.0
230
1.0
 70
     8
 71
     3
 72
     9
 73
     5
 74
     0
 42
0.00000001
 43
0.00000001
 12
1.0
 22
0.0
 32
0.0
 13
1.0
 23
0.0
 33
0.0
 40
0.0
 40
0.0
 40
0.0
 40
0.0
 40
0.0702005767034501
 40
1.0
 40
1.0
 40
1.0
 40
1.0
 10
143.6646015782069
 20
205.6254156769589
 30
0.0
 10
143.7214035307882
 20
205.6249695606913
 30
0.0
 10
144.5305415072642
 20
205.6186146803109
 30
0.0
 10
145.3234574447248
 20
205.3907251984155
 30
0.0
 10
146.0607102260983
 20
205.1788336895737
 30
0.0
  0
LINE
  5
1D6
330
1F
100
AcDbEntity
  8
0
  6
Continuous
 62
     7
370
    15
100
AcDbLine
 10
146.0607102261
 20
205.1788336896
 30
0.0
 11
146.0607102261
 21
200.8719976643
 31
0.0
  0
SPLINE
  5
1D7
330
1F
100
AcDbEntity
  8
0
  6
Continuous
 62
     7
370
    15
100
AcDbSpline
210
0.0
220
0.0
230
1.0
 70
     8
 71
     3
 72
     9
 73
     5
 74
     0
 42
0.00000001
 43
0.00000001
 12
1.0
 22
0.0
 32
0.0
 13
1.0
 23
0.0
 33
0.0
 40
0.0
 40
0.0
 40
0.0
 40
0.0
 40
0.07020057670345
 40
1.0
 40
1.0
 40
1.0
 40
1.0
 10
143.6646015782069
 20
200.4254156769589
 30
0.0
 10
143.7214035307882
 20
200.4258617932265
 30
0.0
 10
144.5305415072642
 20
200.4322166736069
 30
0.0
 10
145.3234574447248
 20
200.6601061555023
 30
0.0
 10
146.0607102260983
 20
200.8719976643441
 30
0.0
  0
SPLINE
  5
1D8
330
1F
100
AcDbEntity
  8
0
  6
Continuous
 62
     7
370
    15
100
AcDbSpline
210
0.0
220
0.0
230
1.0
 70
     8
 71
     3
 72
     9
 73
     5
 74
     0
 42
0.00000001
 43
0.00000001
 12
1.0
 22
0.0
 32
0.0
 13
1.0
 23
0.0
 33
0.0
 40
0.0
 40
0.0
 40
0.0
 40
0.0
 40
0.2686336050555728
 40
1.0
 40
1.0
 40
1.0
 40
1.0
 10
135.8876192706076
 20
205.6254156769589
 30
0.0
 10
135.9054610489972
 20
205.6187867243744
 30
0.0
 10
135.9718778265477
 20
205.5941101669381
 30
0.0
 10
136.0365436490806
 20
205.3542554033381
 30
0.0
 10
136.0838380585827
 20
205.1788336895737
 30
0.0
  0
SPLINE
  5
1D9
330
1F
100
AcDbEntity
  8
0
  6
Continuous
 62
     7
370
    15
100
AcDbSpline
210
0.0
220
0.0
230
1.0
 70
     8
 71
     3
 72
     9
 73
     5
 74
     0
 42
0.00000001
 43
0.00000001
 12
1.0
 22
0.0
 32
0.0
 13
1.0
 23
0.0
 33
0.0
 40
0.0
 40
0.0
 40
0.0
 40
0.0
 40
0.2686336050555715
 40
1.0
 40
1.0
 40
1.0
 40
1.0
 10
135.8876192706076
 20
200.4254156769589
 30
0.0
 10
135.9054610489972
 20
200.4320446295434
 30
0.0
 10
135.9718778265477
 20
200.4567211869796
 30
0.0
 10
136.0365436490806
 20
200.6965759505797
 30
0.0
 10
136.0838380585827
 20
200.8719976643441
 30
0.0
  0
LINE
  5
1DA
330
1F
100
AcDbEntity
  8
0
  6
Continuous
 62
     7
370
    15
100
AcDbLine
 10
138.6761654944
 20
200.425415677
 30
0.0
 11
135.8876192706
 21
200.425415677
 31
0.0
  0
SPLINE
  5
1DB
330
1F
100
AcDbEntity
  8
0
  6
Continuous
 62
     7
370
    15
100
AcDbSpline
210
0.0
220
0.0
230
1.0
 70
     8
 71
     3
 72
     9
 73
     5
 74
     0
 42
0.00000001
 43
0.00000001
 12
1.0
 22
0.0
 32
0.0
 13
1.0
 23
0.0
 33
0.0
 40
0.0
 40
0.0
 40
0.0
 40
0.0
 40
0.1726824107017266
 40
1.0
 40
1.0
 40
1.0
 40
1.0
 10
145.8875456745157
 20
200.4407055823219
 30
0.0
 10
145.8976759743317
 20
200.445523182662
 30
0.0
 10
145.9563403152728
 20
200.4734217990908
 30
0.0
 10
146.013456774632
 20
200.6915425393429
 30
0.0
 10
146.0607102260983
 20
200.8719976643441
 30
0.0
  0
LINE
  5
1DC
330
1F
100
AcDbEntity
  8
0
  6
Continuous
 62
     7
370
    15
100
AcDbLine
 10
145.8760553544
 20
200.425415677
 30
0.0
 11
143.6646015782
 21
200.425415677
 31
0.0
  0
SPLINE
  5
1DD
330
1F
100
AcDbEntity
  8
0
  6
Continuous
 62
     7
370
    15
100
AcDbSpline
210
0.0
220
0.0
230
1.0
 70
     8
 71
     3
 72
     9
 73
     5
 74
     0
 42
0.00000001
 43
0.00000001
 12
1.0
 22
0.0
 32
0.0
 13
1.0
 23
0.0
 33
0.0
 40
0.0
 40
0.0
 40
0.0
 40
0.0
 40
0.1723343108248307
 40
1.0
 40
1.0
 40
1.0
 40
1.0
 10
145.8876195812949
 20
205.6100767555436
 30
0.0
 10
145.897725177106
 20
205.6052670866314
 30
0.0
 10
145.9563646654512
 20
205.5773581409946
 30
0.0
 10
146.013456923223
 20
205.3593070752109
 30
0.0
 10
146.0607102260983
 20
205.1788336895737
 30
0.0
  0
LINE
  5
1DE
330
1F
100
AcDbEntity
  8
0
  6
Continuous
 62
     7
370
    15
100
AcDbLine
 10
135.6914004826
 20
205.1788336896
 30
0.0
 11
135.7409844126
 21
205.368186205
 31
0.0
  0
SPLINE
  5
1DF
330
1F
100
AcDbEntity
  8
0
  6
Continuous
 62
     7
370
    15
100
AcDbSpline
210
0.0
220
0.0
230
1.0
 70
     8
 71
     3
 72
     9
 73
     5
 74
     0
 42
0.00000001
 43
0.00000001
 12
1.0
 22
0.0
 32
0.0
 13
1.0
 23
0.0
 33
0.0
 40
0.0
 40
0.0
 40
0.0
 40
0.0
 40
0.2575513451038318
 40
1.0
 40
1.0
 40
1.0
 40
1.0
 10
135.6914004826324
 20
200.8719976643441
 30
0.0
 10
135.7078733907989
 20
200.8045824415692
 30
0.0
 10
135.7718330962308
 20
200.5428279446253
 30
0.0
 10
135.8382833609496
 20
200.4754444568327
 30
0.0
 10
135.8876192706076
 20
200.4254156769589
 30
0.0
  0
LINE
  5
1E0
330
1F
100
AcDbEntity
  8
0
  6
Continuous
 62
     7
370
    15
100
AcDbLine
 10
135.6914004826
 20
205.1788336896
 30
0.0
 11
135.6914004826
 21
200.8719976643
 31
0.0
  0
LINE
  5
1E1
330
1F
100
AcDbEntity
  8
0
  6
Continuous
 62
     7
370
    15
100
AcDbLine
 10
139.3337008314
 20
212.7788336896
 30
0.0
 11
142.1284312644
 21
213.225415677
 31
0.0
  0
SPLINE
  5
1E2
330
1F
100
AcDbEntity
  8
0
  6
Continuous
 62
     7
370
    15
100
AcDbSpline
210
0.0
220
0.0
230
1.0
 70
     8
 71
     3
 72
     9
 73
     5
 74
     0
 42
0.00000001
 43
0.00000001
 12
1.0
 22
0.0
 32
0.0
 13
1.0
 23
0.0
 33
0.0
 40
0.0
 40
0.0
 40
0.0
 40
0.0
 40
0.070200576703451
 40
1.0
 40
1.0
 40
1.0
 40
1.0
 10
142.1284312643921
 20
213.2254156769589
 30
0.0
 10
142.1946829119016
 20
213.2249695606913
 30
0.0
 10
143.1384308214013
 20
213.2186146803109
 30
0.0
 10
144.0632579586052
 20
212.9907251984154
 30
0.0
 10
144.9231616974265
 20
212.7788336895737
 30
0.0
  0
LINE
  5
1E3
330
1F
100
AcDbEntity
  8
0
  6
Continuous
 62
     7
370
    15
100
AcDbLine
 10
144.9231616974
 20
212.7788336896
 30
0.0
 11
144.9231616974
 21
212.425415677
 31
0.0
  0
LINE
  5
1E4
330
1F
100
AcDbEntity
  8
0
  6
Continuous
 62
     7
370
    15
100
AcDbLine
 10
139.3337008314
 20
208.4719976643
 30
0.0
 11
139.6413836645
 21
208.4228317021
 31
0.0
  0
LINE
  5
1E5
330
1F
100
AcDbEntity
  8
0
  6
Continuous
 62
     7
370
    15
100
AcDbLine
 10
139.3337008314
 20
212.7788336896
 30
0.0
 11
139.3337008314
 21
208.4719976643
 31
0.0
  0
SPLINE
  5
1E6
330
1F
100
AcDbEntity
  8
0
  6
Continuous
 62
     7
370
    15
100
AcDbSpline
210
0.0
220
0.0
230
1.0
 70
     8
 71
     3
 72
     9
 73
     5
 74
     0
 42
0.00000001
 43
0.00000001
 12
1.0
 22
0.0
 32
0.0
 13
1.0
 23
0.0
 33
0.0
 40
0.0
 40
0.0
 40
0.0
 40
0.0
 40
0.0702005767034222
 40
0.9999999999999999
 40
0.9999999999999999
 40
0.9999999999999999
 40
0.9999999999999999
 10
137.3101476598272
 20
208.0254156769589
 30
0.0
 10
137.3581178432311
 20
208.0258617932265
 30
0.0
 10
138.0414481754952
 20
208.0322166736069
 30
0.0
 10
138.7110787289416
 20
208.2601061555024
 30
0.0
 10
139.3337008313577
 20
208.4719976643441
 30
0.0
  0
LINE
  5
1E7
330
1F
100
AcDbEntity
  8
0
  6
Continuous
 62
     7
370
    15
100
AcDbLine
 10
137.3101476598
 20
213.225415677
 30
0.0
 11
142.1284312644
 21
213.225415677
 31
0.0
  0
SPLINE
  5
1E8
330
1F
100
AcDbEntity
  8
0
  6
Continuous
 62
     7
370
    15
100
AcDbSpline
210
0.0
220
0.0
230
1.0
 70
     8
 71
     3
 72
     9
 73
     5
 74
     0
 42
0.00000001
 43
0.00000001
 12
1.0
 22
0.0
 32
0.0
 13
1.0
 23
0.0
 33
0.0
 40
0.0
 40
0.0
 40
0.0
 40
0.0
 40
0.0702005767034222
 40
1.0
 40
1.0
 40
1.0
 40
1.0
 10
137.3101476598272
 20
213.2254156769589
 30
0.0
 10
137.3581178432311
 20
213.2249695606913
 30
0.0
 10
138.0414481754953
 20
213.2186146803109
 30
0.0
 10
138.7110787289416
 20
212.9907251984155
 30
0.0
 10
139.3337008313577
 20
212.7788336895737
 30
0.0
  0
LINE
  5
1E9
330
1F
100
AcDbEntity
  8
0
  6
Continuous
 62
     7
370
    15
100
AcDbLine
 10
135.2865944883
 20
212.7788336896
 30
0.0
 11
137.3101476598
 21
213.225415677
 31
0.0
  0
LINE
  5
1EA
330
1F
100
AcDbEntity
  8
0
  6
Continuous
 62
     7
370
    15
100
AcDbLine
 10
135.2865944883
 20
208.4719976643
 30
0.0
 11
137.3101476598
 21
208.025415677
 31
0.0
  0
LINE
  5
1EB
330
1F
100
AcDbEntity
  8
0
  6
Continuous
 62
     7
370
    15
100
AcDbLine
 10
135.2865944883
 20
212.7788336896
 30
0.0
 11
135.2865944883
 21
208.4719976643
 31
0.0
  0
SPLINE
  5
1EC
330
1F
100
AcDbEntity
  8
0
  6
Continuous
 62
     7
370
    15
100
AcDbSpline
210
0.0
220
0.0
230
1.0
 70
     8
 71
     3
 72
     9
 73
     5
 74
     0
 42
0.00000001
 43
0.00000001
 12
1.0
 22
0.0
 32
0.0
 13
1.0
 23
0.0
 33
0.0
 40
0.0
 40
0.0
 40
0.0
 40
0.0
 40
0.2686336050555596
 40
1.0
 40
1.0
 40
1.0
 40
1.0
 10
145.6943389589302
 20
213.2254156769589
 30
0.0
 10
145.6242173669012
 20
213.2187867243744
 30
0.0
 10
145.3631867634718
 20
213.1941101669381
 30
0.0
 10
145.1090377472207
 20
212.9542554033381
 30
0.0
 10
144.9231616974265
 20
212.7788336895737
 30
0.0
  0
LINE
  5
1ED
330
1F
100
AcDbEntity
  8
0
  6
Continuous
 62
     7
370
    15
100
AcDbLine
 10
145.6943389589
 20
213.225415677
 30
0.0
 11
142.1284312644
 21
213.225415677
 31
0.0
  0
SPLINE
  5
1EE
330
1F
100
AcDbEntity
  8
0
  6
Continuous
 62
     7
370
    15
100
AcDbSpline
210
0.0
220
0.0
230
1.0
 70
     8
 71
     3
 72
     9
 73
     5
 74
     0
 42
0.00000001
 43
0.00000001
 12
1.0
 22
0.0
 32
0.0
 13
1.0
 23
0.0
 33
0.0
 40
0.0
 40
0.0
 40
0.0
 40
0.0
 40
0.2575513451038211
 40
1.0
 40
1.0
 40
1.0
 40
1.0
 10
146.4655162204341
 20
212.7788336895737
 30
0.0
 10
146.4007745494663
 20
212.8462489123486
 30
0.0
 10
146.1494007081002
 20
213.1080034092925
 30
0.0
 10
145.8882384937122
 20
213.1753868970851
 30
0.0
 10
145.6943389589302
 20
213.2254156769589
 30
0.0
  0
LINE
  5
1EF
330
1F
100
AcDbEntity
  8
0
  6
Continuous
 62
     7
370
    15
100
AcDbLine
 10
146.4655162204
 20
212.7788336896
 30
0.0
 11
146.4655162204
 21
208.4719976643
 31
0.0
  0
SPLINE
  5
1F0
330
1F
100
AcDbEntity
  8
0
  6
Continuous
 62
     7
370
    15
100
AcDbSpline
210
0.0
220
0.0
230
1.0
 70
     8
 71
     3
 72
     9
 73
     5
 74
     0
 42
0.00000001
 43
0.00000001
 12
1.0
 22
0.0
 32
0.0
 13
1.0
 23
0.0
 33
0.0
 40
0.0
 40
0.0
 40
0.0
 40
0.0
 40
0.4836683989110167
 40
1.0
 40
1.0
 40
1.0
 40
1.0
 10
146.4655162204341
 20
208.4719976643441
 30
0.0
 10
146.4009645638149
 20
208.4008092628588
 30
0.0
 10
146.2675019337062
 20
208.2536249488833
 30
0.0
 10
146.1288270370036
 20
208.2099423624734
 30
0.0
 10
146.0572248055584
 20
208.1873876626926
 30
0.0
  0
LINE
  5
1F1
330
1F
100
AcDbEntity
  8
0
  6
Continuous
 62
     7
370
    15
100
AcDbLine
 10
135.6964349252
 20
208.1717836305
 30
0.0
 11
135.2865944883
 21
208.4719976643
 31
0.0
  0
LINE
  5
1F2
330
1F
100
AcDbEntity
  8
0
  6
Continuous
 62
     7
370
    15
100
AcDbLine
 10
135.6964349252
 20
213.0790477234
 30
0.0
 11
135.2865944883
 21
212.7788336896
 31
0.0
  0
LINE
  5
1F3
330
1F
100
AcDbEntity
  8
0
  6
Continuous
 62
     7
370
    15
100
AcDbLine
 10
135.8760553544
 20
213.225415677
 30
0.0
 11
137.3101476598
 21
213.225415677
 31
0.0
  0
LINE
  5
1F4
330
1F
100
AcDbEntity
  8
0
  6
Continuous
 62
     7
370
    15
100
AcDbLine
 10
145.6943389589
 20
213.225415677
 30
0.0
 11
145.8760553544
 21
213.225415677
 31
0.0
  0
LINE
  5
1F5
330
1F
100
AcDbEntity
  8
0
  6
Continuous
 62
     7
370
    15
100
AcDbLine
 10
136.8724217452
 20
218.2288336896
 30
0.0
 11
138.1059160838
 21
218.425415677
 31
0.0
  0
LINE
  5
1F6
330
1F
100
AcDbEntity
  8
0
  6
Continuous
 62
     7
370
    15
100
AcDbLine
 10
141.3246825791
 20
218.425415677
 30
0.0
 11
142.4767638367
 21
218.2288336896
 31
0.0
  0
LINE
  5
1F7
330
1F
100
AcDbEntity
  8
0
  6
Continuous
 62
     7
370
    15
100
AcDbLine
 10
142.4767638367
 20
218.2288336896
 30
0.0
 11
142.4767638367
 21
213.9219976643
 31
0.0
  0
SPLINE
  5
1F8
330
1F
100
AcDbEntity
  8
0
  6
Continuous
 62
     7
370
    15
100
AcDbSpline
210
0.0
220
0.0
230
1.0
 70
     8
 71
     3
 72
     9
 73
     5
 74
     0
 42
0.00000001
 43
0.00000001
 12
1.0
 22
0.0
 32
0.0
 13
1.0
 23
0.0
 33
0.0
 40
0.0
 40
0.0
 40
0.0
 40
0.0
 40
0.0702005767034501
 40
1.0
 40
1.0
 40
1.0
 40
1.0
 10
139.6745927909751
 20
213.4754156769589
 30
0.0
 10
139.7410208250315
 20
213.4758617932265
 30
0.0
 10
140.6872813427617
 20
213.4822166736069
 30
0.0
 10
141.614570714057
 20
213.7101061555023
 30
0.0
 10
142.4767638367164
 20
213.9219976643441
 30
0.0
  0
LINE
  5
1F9
330
1F
100
AcDbEntity
  8
0
  6
Continuous
 62
     7
370
    15
100
AcDbLine
 10
136.8724217452
 20
213.9219976643
 30
0.0
 11
139.674592791
 21
213.475415677
 31
0.0
  0
LINE
  5
1FA
330
1F
100
AcDbEntity
  8
0
  6
Continuous
 62
     7
370
    15
100
AcDbLine
 10
136.8724217452
 20
218.2288336896
 30
0.0
 11
136.8724217452
 21
213.9219976643
 31
0.0
  0
LINE
  5
1FB
330
1F
100
AcDbEntity
  8
0
  6
Continuous
 62
     7
370
    15
100
AcDbLine
 10
143.1733865849
 20
218.425415677
 30
0.0
 11
142.4767638367
 21
218.2288336896
 31
0.0
  0
SPLINE
  5
1FC
330
1F
100
AcDbEntity
  8
0
  6
Continuous
 62
     7
370
    15
100
AcDbSpline
210
0.0
220
0.0
230
1.0
 70
     8
 71
     3
 72
     9
 73
     5
 74
     0
 42
0.00000001
 43
0.00000001
 12
1.0
 22
0.0
 32
0.0
 13
1.0
 23
0.0
 33
0.0
 40
0.0
 40
0.0
 40
0.0
 40
0.0
 40
0.2686336050555614
 40
1.0
 40
1.0
 40
1.0
 40
1.0
 10
144.4785806412822
 20
213.4754156769589
 30
0.0
 10
144.2965594792305
 20
213.4820446295434
 30
0.0
 10
143.6189779755539
 20
213.5067211869797
 30
0.0
 10
142.9592596500899
 20
213.7465759505797
 30
0.0
 10
142.4767638367164
 20
213.9219976643441
 30
0.0
  0
LINE
  5
1FD
330
1F
100
AcDbEntity
  8
0
  6
Continuous
 62
     7
370
    15
100
AcDbLine
 10
144.4785806413
 20
213.475415677
 30
0.0
 11
139.674592791
 21
213.475415677
 31
0.0
  0
LINE
  5
1FE
330
1F
100
AcDbEntity
  8
0
  6
Continuous
 62
     7
370
    15
100
AcDbLine
 10
136.5433650582
 20
218.425415677
 30
0.0
 11
136.8724217452
 21
218.2288336896
 31
0.0
  0
SPLINE
  5
1FF
330
1F
100
AcDbEntity
  8
0
  6
Continuous
 62
     7
370
    15
100
AcDbSpline
210
0.0
220
0.0
230
1.0
 70
     8
 71
     3
 72
     9
 73
     5
 74
     0
 42
0.00000001
 43
0.00000001
 12
1.0
 22
0.0
 32
0.0
 13
1.0
 23
0.0
 33
0.0
 40
0.0
 40
0.0
 40
0.0
 40
0.0
 40
0.0702005767034217
 40
0.9999999999999999
 40
0.9999999999999999
 40
0.9999999999999999
 40
0.9999999999999999
 10
136.0720675040584
 20
213.4754156769589
 30
0.0
 10
136.0910406352207
 20
213.4758617932265
 30
0.0
 10
136.3613109385892
 20
213.4822166736069
 30
0.0
 10
136.6261627156571
 20
213.7101061555023
 30
0.0
 10
136.8724217452339
 20
213.9219976643441
 30
0.0
  0
LINE
  5
200
330
1F
100
AcDbEntity
  8
0
  6
Continuous
 62
     7
370
    15
100
AcDbLine
 10
139.674592791
 20
213.475415677
 30
0.0
 11
136.0720675041
 21
213.475415677
 31
0.0
  0
SPLINE
  5
201
330
1F
100
AcDbEntity
  8
0
  6
Continuous
 62
     7
370
    15
100
AcDbSpline
210
0.0
220
0.0
230
1.0
 70
     8
 71
     3
 72
     9
 73
     5
 74
     0
 42
0.00000001
 43
0.00000001
 12
1.0
 22
0.0
 32
0.0
 13
1.0
 23
0.0
 33
0.0
 40
0.0
 40
0.0
 40
0.0
 40
0.0
 40
0.9250528693320031
 40
1.0
 40
1.0
 40
1.0
 40
1.0
 10
146.480397445848
 20
218.2288336895737
 30
0.0
 10
146.3137974943007
 20
218.3073874023387
 30
0.0
 10
146.1336997322478
 20
218.3923054814769
 30
0.0
 10
145.9465277610694
 20
218.4231071781726
 30
0.0
 10
145.9324997588881
 20
218.4254156769597
 30
0.0
  0
LINE
  5
202
330
1F
100
AcDbEntity
  8
0
  6
Continuous
 62
     7
370
    15
100
AcDbLine
 10
146.4803974458
 20
218.2288336896
 30
0.0
 11
146.4803974458
 21
213.9219976643
 31
0.0
  0
SPLINE
  5
203
330
1F
100
AcDbEntity
  8
0
  6
Continuous
 62
     7
370
    15
100
AcDbSpline
210
0.0
220
0.0
230
1.0
 70
     8
 71
     3
 72
     9
 73
     5
 74
     0
 42
0.00000001
 43
0.00000001
 12
1.0
 22
0.0
 32
0.0
 13
1.0
 23
0.0
 33
0.0
 40
0.0
 40
0.0
 40
0.0
 40
0.0
 40
0.2575513451038208
 40
1.0
 40
1.0
 40
1.0
 40
1.0
 10
146.480397445848
 20
213.9219976643441
 30
0.0
 10
146.3123414470932
 20
213.8545824415692
 30
0.0
 10
145.6598269021314
 20
213.5928279446253
 30
0.0
 10
144.9819037636045
 20
213.5254444568328
 30
0.0
 10
144.4785806412822
 20
213.4754156769589
 30
0.0
  0
LINE
  5
204
330
1F
100
AcDbEntity
  8
0
  6
Continuous
 62
     7
370
    15
100
AcDbLine
 10
135.2717132629
 20
218.2288336896
 30
0.0
 11
135.6719180032
 21
218.4521400945
 31
0.0
  0
LINE
  5
205
330
1F
100
AcDbEntity
  8
0
  6
Continuous
 62
     7
370
    15
100
AcDbLine
 10
135.2717132629
 20
213.9219976643
 30
0.0
 11
136.0720675041
 21
213.475415677
 31
0.0
  0
LINE
  5
206
330
1F
100
AcDbEntity
  8
0
  6
Continuous
 62
     7
370
    15
100
AcDbLine
 10
135.2717132629
 20
218.2288336896
 30
0.0
 11
135.2717132629
 21
213.9219976643
 31
0.0
  0
LINE
  5
207
330
1F
100
AcDbEntity
  8
0
  6
Continuous
 62
     7
370
    15
100
AcDbLine
 10
146.4803974458
 20
218.2288336896
 30
0.0
 11
146.0801927055
 21
218.4521400945
 31
0.0
  0
LINE
  5
208
330
1F
100
AcDbEntity
  8
0
  6
Continuous
 62
     7
370
    15
100
AcDbLine
 10
146.4803974458
 20
213.9219976643
 30
0.0
 11
146.0801927055
 21
213.6986912594
 31
0.0
  0
LINE
  5
209
330
1F
100
AcDbEntity
  8
0
  6
Continuous
 62
     7
370
    15
100
AcDbLine
 10
145.8760553544
 20
213.475415677
 30
0.0
 11
144.4785806413
 21
213.475415677
 31
0.0
  0
LINE
  5
20A
330
1F
100
AcDbEntity
  8
0
  6
Continuous
 62
     7
370
    15
100
AcDbLine
 10
136.0720675041
 20
213.475415677
 30
0.0
 11
135.8760553544
 21
213.475415677
 31
0.0
  0
CIRCLE
  5
20B
330
1F
100
AcDbEntity
  8
0
  6
Continuous
 62
     7
370
    15
100
AcDbCircle
 10
905.9349480449
 20
926.425415677
 30
0.0
 40
2.524999999999868
  0
CIRCLE
  5
20C
330
1F
100
AcDbEntity
  8
0
  6
Continuous
 62
     7
370
    15
100
AcDbCircle
 10
905.9349480449
 20
926.425415677
 30
0.0
 40
2.100000000000012
  0
ARC
  5
20D
330
1F
100
AcDbEntity
  8
0
  6
Continuous
 62
     7
370
    15
100
AcDbCircle
 10
926.9800713721
 20
709.225415677
 30
0.0
 40
10.79999999999996
100
AcDbArc
 50
270.0
 51
335.0
  0
LINE
  5
20E
330
1F
100
AcDbEntity
  8
0
  6
Continuous
 62
     7
370
    15
100
AcDbLine
 10
926.9800713721
 20
698.425415677
 30
0.0
 11
926.9800713721
 21
699.225415677
 31
0.0
  0
ARC
  5
20F
330
1F
100
AcDbEntity
  8
0
  6
Continuous
 62
     7
370
    15
100
AcDbCircle
 10
926.9800713721
 20
709.225415677
 30
0.0
 40
10.0
100
AcDbArc
 50
270.0
 51
335.0
  0
LINE
  5
210
330
1F
100
AcDbEntity
  8
0
  6
Continuous
 62
     7
370
    15
100
AcDbLine
 10
936.0431492425
 20
704.9992330596
 30
0.0
 11
936.7681954721
 21
704.6611384502
 31
0.0
  0
LINE
  5
211
330
1F
100
AcDbEntity
  8
0
  6
Continuous
 62
     7
370
    15
100
AcDbLine
 10
956.6539477329
 20
757.6515982944
 30
0.0
 11
957.3789939626
 21
757.9896929038
 31
0.0
  0
LINE
  5
212
330
1F
100
AcDbEntity
  8
0
  6
Continuous
 62
     7
370
    15
100
AcDbLine
 10
956.6539477329
 20
757.6515982944
 30
0.0
 11
900.7470781068
 21
877.5442671116
 31
0.0
  0
LINE
  5
213
330
1F
100
AcDbEntity
  8
0
  6
Continuous
 62
     7
370
    15
100
AcDbLine
 10
901.4721243364
 20
877.882361721
 30
0.0
 11
900.7470781068
 21
877.5442671116
 31
0.0
  0
LINE
  5
214
330
1F
100
AcDbEntity
  8
0
  6
Continuous
 62
     7
370
    15
100
AcDbLine
 10
957.3789939626
 20
757.9896929038
 30
0.0
 11
901.4721243364
 21
877.882361721
 31
0.0
  0
LINE
  5
215
330
1F
100
AcDbEntity
  8
0
  6
Continuous
 62
     7
370
    15
100
AcDbLine
 10
868.3507739802
 20
699.225415677
 30
0.0
 11
868.3507739802
 21
698.425415677
 31
0.0
  0
LINE
  5
216
330
1F
100
AcDbEntity
  8
0
  6
Continuous
 62
     7
370
    15
100
AcDbLine
 10
866.3507739802
 20
698.425415677
 30
0.0
 11
866.3507739802
 21
699.225415677
 31
0.0
  0
LINE
  5
217
330
1F
100
AcDbEntity
  8
0
  6
Continuous
 62
     7
370
    15
100
AcDbLine
 10
866.3507739802
 20
699.225415677
 30
0.0
 11
868.3507739802
 21
699.225415677
 31
0.0
  0
LINE
  5
218
330
1F
100
AcDbEntity
  8
0
  6
Continuous
 62
     7
370
    15
100
AcDbLine
 10
868.3507739802
 20
698.425415677
 30
0.0
 11
866.3507739802
 21
698.425415677
 31
0.0
  0
LINE
  5
219
330
1F
100
AcDbEntity
  8
0
  6
Continuous
 62
     7
370
    15
100
AcDbLine
 10
902.0767362431
 20
879.543519282
 30
0.0
 11
901.7386416337
 21
880.2685655116
 31
0.0
  0
LINE
  5
21A
330
1F
100
AcDbEntity
  8
0
  6
Continuous
 62
     7
370
    15
100
AcDbLine
 10
914.5384683148
 20
885.3545203809
 30
0.0
 11
914.2003737054
 21
886.0795666106
 31
0.0
  0
LINE
  5
21B
330
1F
100
AcDbEntity
  8
0
  6
Continuous
 62
     7
370
    15
100
AcDbLine
 10
901.7386416337
 20
880.2685655116
 30
0.0
 11
914.2003737054
 21
886.0795666106
 31
0.0
  0
LINE
  5
21C
330
1F
100
AcDbEntity
  8
0
  6
Continuous
 62
     7
370
    15
100
AcDbLine
 10
902.0767362431
 20
879.543519282
 30
0.0
 11
914.5384683148
 21
885.3545203809
 31
0.0
  0
LINE
  5
21D
330
1F
100
AcDbEntity
  8
0
  6
Continuous
 62
     7
370
    15
100
AcDbLine
 10
957.3789939626
 20
748.8611384502
 30
0.0
 11
956.6539477329
 21
749.1992330596
 31
0.0
  0
LINE
  5
21E
330
1F
100
AcDbEntity
  8
0
  6
Continuous
 62
     7
370
    15
100
AcDbLine
 10
936.7681954721
 20
704.6611384502
 30
0.0
 11
957.3789939626
 21
748.8611384502
 31
0.0
  0
LINE
  5
21F
330
1F
100
AcDbEntity
  8
0
  6
Continuous
 62
     7
370
    15
100
AcDbLine
 10
936.0431492425
 20
704.9992330596
 30
0.0
 11
956.6539477329
 21
749.1992330596
 31
0.0
  0
ARC
  5
220
330
1F
100
AcDbEntity
  8
0
  6
Continuous
 62
     7
370
    15
100
AcDbCircle
 10
947.5908698626
 20
753.425415677
 30
0.0
 40
10.80000000000001
100
AcDbArc
 50
335.0
 51
25.0
  0
ARC
  5
221
330
1F
100
AcDbEntity
  8
0
  6
Continuous
 62
     7
370
    15
100
AcDbCircle
 10
947.5908698626
 20
753.425415677
 30
0.0
 40
10.00000000000003
100
AcDbArc
 50
335.0
 51
25.0
  0
ARC
  5
222
330
1F
100
AcDbEntity
  8
0
  6
Continuous
 62
     7
370
    15
100
AcDbCircle
 10
902.6050090702
 20
878.4106345482
 30
0.0
 40
1.250000000000032
100
AcDbArc
 50
115.0
 51
205.0
  0
ARC
  5
223
330
1F
100
AcDbEntity
  8
0
  6
Continuous
 62
     7
370
    15
100
AcDbCircle
 10
902.6050090702
 20
878.4106345482
 30
0.0
 40
2.05000000000016
100
AcDbArc
 50
115.0
 51
205.0
  0
LINE
  5
224
330
1F
100
AcDbEntity
  8
0
  6
Continuous
 62
     7
370
    15
100
AcDbLine
 10
916.0129892795
 20
886.924803134
 30
0.0
 11
916.3510838889
 21
886.1997569044
 31
0.0
  0
LINE
  5
225
330
1F
100
AcDbEntity
  8
0
  6
Continuous
 62
     7
370
    15
100
AcDbLine
 10
914.2003737054
 20
886.0795666106
 30
0.0
 11
916.0129892795
 21
886.924803134
 31
0.0
  0
LINE
  5
226
330
1F
100
AcDbEntity
  8
0
  6
Continuous
 62
     7
370
    15
100
AcDbLine
 10
916.3510838889
 20
886.1997569044
 30
0.0
 11
914.5384683148
 21
885.3545203809
 31
0.0
  0
LINE
  5
227
330
1F
100
AcDbEntity
  8
0
  6
Continuous
 62
     7
370
    15
100
AcDbLine
 10
868.3507739802
 20
699.225415677
 30
0.0
 11
926.9800713721
 21
699.225415677
 31
0.0
  0
LINE
  5
228
330
1F
100
AcDbEntity
  8
0
  6
Continuous
 62
     7
370
    15
100
AcDbLine
 10
868.3507739802
 20
698.425415677
 30
0.0
 11
926.9800713721
 21
698.425415677
 31
0.0
  0
LINE
  5
229
330
1F
100
AcDbEntity
  8
0
  6
Continuous
 62
     7
370
    15
100
AcDbLine
 10
900.6041603894
 20
878.8568458842
 30
0.0
 11
900.2188052796
 21
878.6771518454
 31
0.0
  0
LINE
  5
22A
330
1F
100
AcDbEntity
  8
0
  6
Continuous
 62
     7
370
    15
100
AcDbLine
 10
900.2188052796
 20
878.6771518454
 30
0.0
 11
900.2530090282
 21
878.60380167
 31
0.0
  0
CIRCLE
  5
22B
330
1F
100
AcDbEntity
  8
0
  6
Continuous
 62
     7
370
    15
100
AcDbCircle
 10
525.9349480449
 20
926.425415677
 30
0.0
 40
2.525000000000091
  0
CIRCLE
  5
22C
330
1F
100
AcDbEntity
  8
0
  6
Continuous
 62
     7
370
    15
100
AcDbCircle
 10
525.9349480449
 20
926.425415677
 30
0.0
 40
2.100000000000023
  0
CIRCLE
  5
22D
330
1F
100
AcDbEntity
  8
0
  6
Continuous
 62
     7
370
    15
100
AcDbCircle
 10
135.9349480449
 20
926.425415677
 30
0.0
 40
2.525000000000006
  0
CIRCLE
  5
22E
330
1F
100
AcDbEntity
  8
0
  6
Continuous
 62
     7
370
    15
100
AcDbCircle
 10
135.9349480449
 20
926.425415677
 30
0.0
 40
2.099999999999994
  0
ARC
  5
22F
330
1F
100
AcDbEntity
  8
0
  6
Continuous
 62
     7
370
    15
100
AcDbCircle
 10
62.5849709003
 20
950.675415677
 30
0.0
 40
2.250000000000028
100
AcDbArc
 50
180.0
 51
270.0
  0
LINE
  5
230
330
1F
100
AcDbEntity
  8
0
  6
Continuous
 62
     7
370
    15
100
AcDbLine
 10
62.5849709003
 20
948.425415677
 30
0.0
 11
62.5849709003
 21
946.425415677
 31
0.0
  0
ARC
  5
231
330
1F
100
AcDbEntity
  8
0
  6
Continuous
 62
     7
370
    15
100
AcDbCircle
 10
62.5849709003
 20
950.675415677
 30
0.0
 40
4.250000000000036
100
AcDbArc
 50
180.0
 51
270.0
  0
LINE
  5
232
330
1F
100
AcDbEntity
  8
0
  6
Continuous
 62
     7
370
    15
100
AcDbLine
 10
58.3349709003
 20
950.675415677
 30
0.0
 11
60.3349709003
 21
950.675415677
 31
0.0
  0
ARC
  5
233
330
1F
100
AcDbEntity
  8
0
  6
Continuous
 62
     7
370
    15
100
AcDbCircle
 10
62.5849709003
 20
962.175415677
 30
0.0
 40
2.250000000000028
100
AcDbArc
 50
90.0
 51
180.0
  0
LINE
  5
234
330
1F
100
AcDbEntity
  8
0
  6
Continuous
 62
     7
370
    15
100
AcDbLine
 10
60.3349709003
 20
962.175415677
 30
0.0
 11
58.3349709003
 21
962.175415677
 31
0.0
  0
ARC
  5
235
330
1F
100
AcDbEntity
  8
0
  6
Continuous
 62
     7
370
    15
100
AcDbCircle
 10
62.5849709003
 20
962.175415677
 30
0.0
 40
4.250000000000036
100
AcDbArc
 50
90.0
 51
180.0
  0
LINE
  5
236
330
1F
100
AcDbEntity
  8
0
  6
Continuous
 62
     7
370
    15
100
AcDbLine
 10
62.5849709003
 20
966.425415677
 30
0.0
 11
62.5849709003
 21
964.425415677
 31
0.0
  0
LINE
  5
237
330
1F
100
AcDbEntity
  8
0
  6
Continuous
 62
     7
370
    15
100
AcDbLine
 10
129.0849709003
 20
964.425415677
 30
0.0
 11
129.0849709003
 21
966.425415677
 31
0.0
  0
LINE
  5
238
330
1F
100
AcDbEntity
  8
0
  6
Continuous
 62
     7
370
    15
100
AcDbLine
 10
62.5849709003
 20
964.425415677
 30
0.0
 11
129.0849709003
 21
964.425415677
 31
0.0
  0
LINE
  5
239
330
1F
100
AcDbEntity
  8
0
  6
Continuous
 62
     7
370
    15
100
AcDbLine
 10
62.5849709003
 20
966.425415677
 30
0.0
 11
129.0849709003
 21
966.425415677
 31
0.0
  0
LINE
  5
23A
330
1F
100
AcDbEntity
  8
0
  6
Continuous
 62
     7
370
    15
100
AcDbLine
 10
60.3349709003
 20
950.675415677
 30
0.0
 11
60.3349709003
 21
962.175415677
 31
0.0
  0
LINE
  5
23B
330
1F
100
AcDbEntity
  8
0
  6
Continuous
 62
     7
370
    15
100
AcDbLine
 10
58.3349709003
 20
950.675415677
 30
0.0
 11
58.3349709003
 21
962.175415677
 31
0.0
  0
LINE
  5
23C
330
1F
100
AcDbEntity
  8
0
  6
Continuous
 62
     7
370
    15
100
AcDbLine
 10
946.3349480449
 20
946.425415677
 30
0.0
 11
946.3349480449
 21
948.425415677
 31
0.0
  0
LINE
  5
23D
330
1F
100
AcDbEntity
  8
0
  6
Continuous
 62
     7
370
    15
100
AcDbLine
 10
135.5849709003
 20
948.425415677
 30
0.0
 11
135.5849709003
 21
946.425415677
 31
0.0
  0
LINE
  5
23E
330
1F
100
AcDbEntity
  8
0
  6
Continuous
 62
     7
370
    15
100
AcDbLine
 10
135.5849709003
 20
948.425415677
 30
0.0
 11
946.3349480449
 21
948.425415677
 31
0.0
  0
LINE
  5
23F
330
1F
100
AcDbEntity
  8
0
  6
Continuous
 62
     7
370
    15
100
AcDbLine
 10
135.5849709003
 20
946.425415677
 30
0.0
 11
946.3349480449
 21
946.425415677
 31
0.0
  0
LINE
  5
240
330
1F
100
AcDbEntity
  8
0
  6
Continuous
 62
     7
370
    15
100
AcDbLine
 10
940.9599491921
 20
901.2366776079
 30
0.0
 11
942.7725647662
 21
900.3914410844
 31
0.0
  0
LINE
  5
241
330
1F
100
AcDbEntity
  8
0
  6
Continuous
 62
     7
370
    15
100
AcDbLine
 10
936.9682904626
 20
894.5871667809
 30
0.0
 11
936.1230539391
 21
896.3997823549
 31
0.0
  0
ARC
  5
242
330
1F
100
AcDbEntity
  8
0
  6
Continuous
 62
     7
370
    15
100
AcDbCircle
 10
931.8968713217
 20
905.4628602253
 30
0.0
 40
11.9999999999998
100
AcDbArc
 50
295.0
 51
335.0
  0
ARC
  5
243
330
1F
100
AcDbEntity
  8
0
  6
Continuous
 62
     7
370
    15
100
AcDbCircle
 10
931.8968713217
 20
905.4628602253
 30
0.0
 40
9.999999999999929
100
AcDbArc
 50
295.0
 51
335.0
  0
LINE
  5
244
330
1F
100
AcDbEntity
  8
0
  6
Continuous
 62
     7
370
    15
100
AcDbLine
 10
131.3349709003
 20
950.675415677
 30
0.0
 11
133.3349709003
 21
950.675415677
 31
0.0
  0
ARC
  5
245
330
1F
100
AcDbEntity
  8
0
  6
Continuous
 62
     7
370
    15
100
AcDbCircle
 10
135.5849709003
 20
950.675415677
 30
0.0
 40
2.25
100
AcDbArc
 50
180.0
 51
270.0
  0
ARC
  5
246
330
1F
100
AcDbEntity
  8
0
  6
Continuous
 62
     7
370
    15
100
AcDbCircle
 10
135.5849709003
 20
950.675415677
 30
0.0
 40
4.25
100
AcDbArc
 50
180.0
 51
270.0
  0
LINE
  5
247
330
1F
100
AcDbEntity
  8
0
  6
Continuous
 62
     7
370
    15
100
AcDbLine
 10
71.3349709003
 20
946.425415677
 30
0.0
 11
71.3349709003
 21
948.425415677
 31
0.0
  0
LINE
  5
248
330
1F
100
AcDbEntity
  8
0
  6
Continuous
 62
     7
370
    15
100
AcDbLine
 10
71.3349709003
 20
946.425415677
 30
0.0
 11
62.5849709003
 21
946.425415677
 31
0.0
  0
LINE
  5
249
330
1F
100
AcDbEntity
  8
0
  6
Continuous
 62
     7
370
    15
100
AcDbLine
 10
71.3349709003
 20
948.425415677
 30
0.0
 11
62.5849709003
 21
948.425415677
 31
0.0
  0
LINE
  5
24A
330
1F
100
AcDbEntity
  8
0
  6
Continuous
 62
     7
370
    15
100
AcDbLine
 10
131.3349709003
 20
962.175415677
 30
0.0
 11
131.3349709003
 21
950.675415677
 31
0.0
  0
LINE
  5
24B
330
1F
100
AcDbEntity
  8
0
  6
Continuous
 62
     7
370
    15
100
AcDbLine
 10
133.3349709003
 20
962.175415677
 30
0.0
 11
131.3349709003
 21
962.175415677
 31
0.0
  0
LINE
  5
24C
330
1F
100
AcDbEntity
  8
0
  6
Continuous
 62
     7
370
    15
100
AcDbLine
 10
133.3349709003
 20
962.175415677
 30
0.0
 11
133.3349709003
 21
950.675415677
 31
0.0
  0
LINE
  5
24D
330
1F
100
AcDbEntity
  8
0
  6
Continuous
 62
     7
370
    15
100
AcDbLine
 10
918.8738804133
 20
888.356360643
 30
0.0
 11
919.7191169367
 21
886.5437450689
 31
0.0
  0
LINE
  5
24E
330
1F
100
AcDbEntity
  8
0
  6
Continuous
 62
     7
370
    15
100
AcDbLine
 10
936.9682904626
 20
894.5871667809
 30
0.0
 11
919.7191169367
 21
886.5437450689
 31
0.0
  0
LINE
  5
24F
330
1F
100
AcDbEntity
  8
0
  6
Continuous
 62
     7
370
    15
100
AcDbLine
 10
936.1230539391
 20
896.3997823549
 30
0.0
 11
918.8738804133
 21
888.356360643
 31
0.0
  0
LINE
  5
250
330
1F
100
AcDbEntity
  8
0
  6
Continuous
 62
     7
370
    15
100
AcDbLine
 10
957.2106414893
 20
931.3539965361
 30
0.0
 11
955.3980259153
 21
932.1992330596
 31
0.0
  0
LINE
  5
251
330
1F
100
AcDbEntity
  8
0
  6
Continuous
 62
     7
370
    15
100
AcDbLine
 10
957.2106414893
 20
931.3539965361
 30
0.0
 11
942.7725647662
 21
900.3914410844
 31
0.0
  0
LINE
  5
252
330
1F
100
AcDbEntity
  8
0
  6
Continuous
 62
     7
370
    15
100
AcDbLine
 10
955.3980259153
 20
932.1992330596
 30
0.0
 11
940.9599491921
 21
901.2366776079
 31
0.0
  0
LINE
  5
253
330
1F
100
AcDbEntity
  8
0
  6
Continuous
 62
     7
370
    15
100
AcDbLine
 10
917.9065013627
 20
885.6985085454
 30
0.0
 11
917.0612648392
 21
887.5111241195
 31
0.0
  0
LINE
  5
254
330
1F
100
AcDbEntity
  8
0
  6
Continuous
 62
     7
370
    15
100
AcDbLine
 10
919.7191169367
 20
886.5437450689
 30
0.0
 11
917.9065013627
 21
885.6985085454
 31
0.0
  0
LINE
  5
255
330
1F
100
AcDbEntity
  8
0
  6
Continuous
 62
     7
370
    15
100
AcDbLine
 10
917.0612648392
 20
887.5111241195
 30
0.0
 11
918.8738804133
 21
888.356360643
 31
0.0
  0
ARC
  5
256
330
1F
100
AcDbEntity
  8
0
  6
Continuous
 62
     7
370
    15
100
AcDbCircle
 10
946.3349480449
 20
936.425415677
 30
0.0
 40
12.00000000000011
100
AcDbArc
 50
335.0
 51
90.0
  0
ARC
  5
257
330
1F
100
AcDbEntity
  8
0
  6
Continuous
 62
     7
370
    15
100
AcDbCircle
 10
946.3349480449
 20
936.425415677
 30
0.0
 40
10.00000000000014
100
AcDbArc
 50
335.0
 51
90.0
  0
LINE
  5
258
330
1F
100
AcDbEntity
  8
0
  6
Continuous
 62
     7
370
    15
100
AcDbLine
 10
73.3349709003
 20
948.425415677
 30
0.0
 11
73.3349709003
 21
946.425415677
 31
0.0
  0
LINE
  5
259
330
1F
100
AcDbEntity
  8
0
  6
Continuous
 62
     7
370
    15
100
AcDbLine
 10
73.3349709003
 20
946.425415677
 30
0.0
 11
71.3349709003
 21
946.425415677
 31
0.0
  0
LINE
  5
25A
330
1F
100
AcDbEntity
  8
0
  6
Continuous
 62
     7
370
    15
100
AcDbLine
 10
71.3349709003
 20
948.425415677
 30
0.0
 11
73.3349709003
 21
948.425415677
 31
0.0
  0
ARC
  5
25B
330
1F
100
AcDbEntity
  8
0
  6
Continuous
 62
     7
370
    15
100
AcDbCircle
 10
129.0849709003
 20
962.175415677
 30
0.0
 40
2.25
100
AcDbArc
 50
0.0
 51
90.0
  0
ARC
  5
25C
330
1F
100
AcDbEntity
  8
0
  6
Continuous
 62
     7
370
    15
100
AcDbCircle
 10
129.0849709003
 20
962.175415677
 30
0.0
 40
4.25
100
AcDbArc
 50
0.0
 51
90.0
  0
LINE
  5
25D
330
1F
100
AcDbEntity
  8
0
  6
Continuous
 62
     7
370
    15
100
AcDbLine
 10
917.9065013627
 20
885.6985085454
 30
0.0
 11
916.0938857886
 21
884.8532720219
 31
0.0
  0
LINE
  5
25E
330
1F
100
AcDbEntity
  8
0
  6
Continuous
 62
     7
370
    15
100
AcDbLine
 10
903.4055767701
 20
878.9366163576
 30
0.0
 11
902.9357803132
 21
879.9440981106
 31
0.0
  0
LINE
  5
25F
330
1F
100
AcDbEntity
  8
0
  6
Continuous
 62
     7
370
    15
100
AcDbLine
 10
902.5976857038
 20
880.6691443402
 30
0.0
 11
902.570282775
 21
880.7279101106
 31
0.0
  0
LINE
  5
260
330
1F
100
AcDbEntity
  8
0
  6
Continuous
 62
     7
370
    15
100
AcDbLine
 10
905.2181923442
 20
879.7818528811
 30
0.0
 11
903.4055767701
 21
878.9366163576
 31
0.0
  0
LINE
  5
261
330
1F
100
AcDbEntity
  8
0
  6
Continuous
 62
     7
370
    15
100
AcDbLine
 10
916.0938857886
 20
884.8532720219
 30
0.0
 11
905.2181923442
 21
879.7818528811
 31
0.0
  0
LINE
  5
262
330
1F
100
AcDbEntity
  8
0
  6
Continuous
 62
     7
370
    15
100
AcDbLine
 10
129.0833638445
 20
946.6254156765
 30
0.0
 11
73.4333638434
 21
946.6254156765
 31
0.0
  0
LINE
  5
263
330
1F
100
AcDbEntity
  8
0
  6
Continuous
 62
     7
370
    15
100
AcDbLine
 10
73.4333638434
 20
946.6254156765
 30
0.0
 11
73.4333638434
 21
948.625415677
 31
0.0
  0
LINE
  5
264
330
1F
100
AcDbEntity
  8
0
  6
Continuous
 62
     7
370
    15
100
AcDbLine
 10
73.4333638434
 20
948.9254156765
 30
0.0
 11
129.0833638445
 21
948.9254156765
 31
0.0
  0
LINE
  5
265
330
1F
100
AcDbEntity
  8
0
  6
Continuous
 62
     7
370
    15
100
AcDbLine
 10
73.4333638434
 20
948.625415677
 30
0.0
 11
62.5833638445
 21
948.625415677
 31
0.0
  0
ARC
  5
266
330
1F
100
AcDbEntity
  8
0
  6
Continuous
 62
     7
370
    15
100
AcDbCircle
 10
62.5833638445
 20
950.775415677
 30
0.0
 40
2.149999999999984
100
AcDbArc
 50
180.0
 51
270.0
  0
LINE
  5
267
330
1F
100
AcDbEntity
  8
0
  6
Continuous
 62
     7
370
    15
100
AcDbLine
 10
60.4333638445
 20
950.775415677
 30
0.0
 11
60.4333638445
 21
962.275415677
 31
0.0
  0
ARC
  5
268
330
1F
100
AcDbEntity
  8
0
  6
Continuous
 62
     7
370
    15
100
AcDbCircle
 10
62.5833638445
 20
962.275415677
 30
0.0
 40
2.149999999999984
100
AcDbArc
 50
90.0
 51
180.0
  0
LINE
  5
269
330
1F
100
AcDbEntity
  8
0
  6
Continuous
 62
     7
370
    15
100
AcDbLine
 10
62.5833638445
 20
964.425415677
 30
0.0
 11
62.5849709003
 21
964.425415677
 31
0.0
  0
LINE
  5
26A
330
1F
100
AcDbEntity
  8
0
  6
Continuous
 62
     7
370
    15
100
AcDbLine
 10
62.5849709003
 20
964.425415677
 30
0.0
 11
62.5849709003
 21
962.125415677
 31
0.0
  0
LINE
  5
26B
330
1F
100
AcDbEntity
  8
0
  6
Continuous
 62
     7
370
    15
100
AcDbLine
 10
129.0833638445
 20
962.125415677
 30
0.0
 11
62.5849709003
 21
962.125415677
 31
0.0
  0
LINE
  5
26C
330
1F
100
AcDbEntity
  8
0
  6
Continuous
 62
     7
370
    15
100
AcDbLine
 10
129.0833638445
 20
962.125415677
 30
0.0
 11
129.0833638445
 21
964.425415677
 31
0.0
  0
ARC
  5
26D
330
1F
100
AcDbEntity
  8
0
  6
Continuous
 62
     7
370
    15
100
AcDbCircle
 10
129.0833638445
 20
962.275415677
 30
0.0
 40
2.149999999999977
100
AcDbArc
 50
359.9999999959
 51
90.0
  0
LINE
  5
26E
330
1F
100
AcDbEntity
  8
0
  6
Continuous
 62
     7
370
    15
100
AcDbLine
 10
131.2333638445
 20
962.2754156768
 30
0.0
 11
131.2333638445
 21
950.7754156768
 31
0.0
  0
ARC
  5
26F
330
1F
100
AcDbEntity
  8
0
  6
Continuous
 62
     7
370
    15
100
AcDbCircle
 10
135.5833638445
 20
950.7754156765
 30
0.0
 40
4.349999999999966
100
AcDbArc
 50
179.999999996
 51
252.5584061437
  0
LINE
  5
270
330
1F
100
AcDbEntity
  8
0
  6
Continuous
 62
     7
370
    15
100
AcDbLine
 10
134.2795233635
 20
946.6254156765
 30
0.0
 11
129.0833638445
 21
946.6254156765
 31
0.0
  0
LINE
  5
271
330
1F
100
AcDbEntity
  8
0
  6
Continuous
 62
     7
370
    15
100
AcDbLine
 10
73.4333638434
 20
948.9254156765
 30
0.0
 11
73.4333638434
 21
948.625415677
 31
0.0
  0
LINE
  5
272
330
1F
100
AcDbEntity
  8
0
  6
Continuous
 62
     7
370
    15
100
AcDbLine
 10
129.0833638445
 20
946.6254156765
 30
0.0
 11
129.0833638445
 21
948.9254156765
 31
0.0
  0
LINE
  5
273
330
1F
100
AcDbEntity
  8
0
  6
Continuous
 62
     7
370
    15
100
AcDbLine
 10
88.3349718037
 20
977.925415677
 30
0.0
 11
103.3349709003
 21
977.925415677
 31
0.0
  0
LINE
  5
274
330
1F
100
AcDbEntity
  8
0
  6
Continuous
 62
     8
370
    15
100
AcDbLine
 10
866.7920314724
 20
691.925415677
 30
0.0
 11
866.7760553544
 21
691.925415677
 31
0.0
  0
LINE
  5
275
330
1F
100
AcDbEntity
  8
0
  6
Continuous
 62
     8
370
    15
100
AcDbLine
 10
873.7920244416
 20
695.925415677
 30
0.0
 11
873.7920244416
 21
698.425415677
 31
0.0
  0
LINE
  5
276
330
1F
100
AcDbEntity
  8
0
  6
Continuous
 62
     8
370
    15
100
AcDbLine
 10
894.7920033491
 20
695.925415677
 30
0.0
 11
894.7920033491
 21
698.425415677
 31
0.0
  0
LINE
  5
277
330
1F
100
AcDbEntity
  8
0
  6
Continuous
 62
     8
370
    15
100
AcDbLine
 10
866.7919396011
 20
669.425415677
 30
0.0
 11
866.7760553544
 21
669.425415677
 31
0.0
  0
LINE
  5
278
330
1F
100
AcDbEntity
  8
0
  6
Continuous
 62
     8
370
    15
100
AcDbLine
 10
866.7760553544
 20
633.425415677
 30
0.0
 11
866.7919396011
 21
633.425415677
 31
0.0
  0
LINE
  5
279
330
1F
100
AcDbEntity
  8
0
  6
Continuous
 62
     8
370
    15
100
AcDbLine
 10
865.4760553544
 20
221.975415677
 30
0.0
 11
865.8760553544
 21
221.975415677
 31
0.0
  0
LINE
  5
27A
330
1F
100
AcDbEntity
  8
0
  6
Continuous
 62
     8
370
    15
100
AcDbLine
 10
865.8760553544
 20
228.725415677
 30
0.0
 11
865.4760553544
 21
228.725415677
 31
0.0
  0
LINE
  5
27B
330
1F
100
AcDbEntity
  8
0
  6
Continuous
 62
     8
370
    15
100
AcDbLine
 10
805.8760553544
 20
50.725415677
 30
0.0
 11
748.8760553544
 21
50.725415677
 31
0.0
  0
LINE
  5
27C
330
1F
100
AcDbEntity
  8
0
  6
Continuous
 62
     8
370
    15
100
AcDbLine
 10
198.3760898967
 20
50.725415677
 30
0.0
 11
169.8760898967
 21
50.725415677
 31
0.0
  0
LINE
  5
27D
330
1F
100
AcDbEntity
  8
0
  6
Continuous
 62
     8
370
    15
100
AcDbLine
 10
226.8760898967
 20
50.725415677
 30
0.0
 11
198.3760898967
 21
50.725415677
 31
0.0
  0
LINE
  5
27E
330
1F
100
AcDbEntity
  8
0
  6
Continuous
 62
     8
370
    15
100
AcDbLine
 10
198.3760898967
 20
215.225415677
 30
0.0
 11
166.4760898967
 21
215.225415677
 31
0.0
  0
LINE
  5
27F
330
1F
100
AcDbEntity
  8
0
  6
Continuous
 62
     8
370
    15
100
AcDbLine
 10
230.2760898967
 20
215.225415677
 30
0.0
 11
198.3760898967
 21
215.225415677
 31
0.0
  0
LINE
  5
280
330
1F
100
AcDbEntity
  8
0
  6
Continuous
 62
     8
370
    15
100
AcDbLine
 10
198.3760898967
 20
128.7579816226
 30
0.0
 11
166.4760898967
 21
128.7579816226
 31
0.0
  0
LINE
  5
281
330
1F
100
AcDbEntity
  8
0
  6
Continuous
 62
     8
370
    15
100
AcDbLine
 10
230.2760898967
 20
128.7579816226
 30
0.0
 11
198.3760898967
 21
128.7579816226
 31
0.0
  0
LINE
  5
282
330
1F
100
AcDbEntity
  8
0
  6
Continuous
 62
     8
370
    15
100
AcDbLine
 10
198.3760898967
 20
127.9855183981
 30
0.0
 11
166.5400031237
 21
127.9855183981
 31
0.0
  0
LINE
  5
283
330
1F
100
AcDbEntity
  8
0
  6
Continuous
 62
     8
370
    15
100
AcDbLine
 10
230.2121766697
 20
127.9855183981
 30
0.0
 11
198.3760898967
 21
127.9855183981
 31
0.0
  0
LINE
  5
284
330
1F
100
AcDbEntity
  8
0
  6
Continuous
 62
     8
370
    15
100
AcDbLine
 10
809.2760553544
 20
215.225415677
 30
0.0
 11
745.4760553544
 21
215.225415677
 31
0.0
  0
LINE
  5
285
330
1F
100
AcDbEntity
  8
0
  6
Continuous
 62
     8
370
    15
100
AcDbLine
 10
809.2760553544
 20
128.7579816226
 30
0.0
 11
745.4760553544
 21
128.7579816226
 31
0.0
  0
LINE
  5
286
330
1F
100
AcDbEntity
  8
0
  6
Continuous
 62
     8
370
    15
100
AcDbLine
 10
809.2121421274
 20
127.9855183981
 30
0.0
 11
745.5399685814
 21
127.9855183981
 31
0.0
  0
LINE
  5
287
330
1F
100
AcDbEntity
  8
0
  6
Continuous
 62
     8
370
    15
100
AcDbLine
 10
865.8760553544
 20
246.125415677
 30
0.0
 11
865.9760553544
 21
246.125415677
 31
0.0
  0
LINE
  5
288
330
1F
100
AcDbEntity
  8
0
  6
Continuous
 62
     8
370
    15
100
AcDbLine
 10
149.538527923
 20
207.775415677
 30
0.0
 11
146.1554051861
 21
207.775415677
 31
0.0
  0
LINE
  5
289
330
1F
100
AcDbEntity
  8
0
  6
Continuous
 62
     8
370
    15
100
AcDbLine
 10
139.6413836645
 20
207.775415677
 30
0.0
 11
134.0718507755
 21
207.775415677
 31
0.0
  0
LINE
  5
28A
330
1F
100
AcDbEntity
  8
0
  6
Continuous
 62
     8
370
    15
100
AcDbLine
 10
134.0718507755
 20
207.075415677
 30
0.0
 11
139.6413836645
 21
207.075415677
 31
0.0
  0
LINE
  5
28B
330
1F
100
AcDbEntity
  8
0
  6
Continuous
 62
     8
370
    15
100
AcDbLine
 10
146.1554051861
 20
207.075415677
 30
0.0
 11
149.538527923
 21
207.075415677
 31
0.0
  0
LINE
  5
28C
330
1F
100
AcDbEntity
  8
0
  6
Continuous
 62
     8
370
    15
100
AcDbLine
 10
133.4203861495
 20
206.575415677
 30
0.0
 11
133.5989109303
 21
206.575415677
 31
0.0
  0
LINE
  5
28D
330
1F
100
AcDbEntity
  8
0
  6
Continuous
 62
     8
370
    15
100
AcDbLine
 10
133.4203861495
 20
201.475415677
 30
0.0
 11
133.5989143038
 21
201.475415677
 31
0.0
  0
LINE
  5
28E
330
1F
100
AcDbEntity
  8
0
  6
Continuous
 62
     8
370
    15
100
AcDbLine
 10
149.8685207032
 20
206.575415677
 30
0.0
 11
150.189992549
 21
206.575415677
 31
0.0
  0
LINE
  5
28F
330
1F
100
AcDbEntity
  8
0
  6
Continuous
 62
     8
370
    15
100
AcDbLine
 10
149.8685207032
 20
201.475415677
 30
0.0
 11
150.189992549
 21
201.475415677
 31
0.0
  0
LINE
  5
290
330
1F
100
AcDbEntity
  8
0
  6
Continuous
 62
     8
370
    15
100
AcDbLine
 10
149.8685207032
 20
206.575415677
 30
0.0
 11
149.5760553544
 21
206.575415677
 31
0.0
  0
LINE
  5
291
330
1F
100
AcDbEntity
  8
0
  6
Continuous
 62
     8
370
    15
100
AcDbLine
 10
148.1997601603
 20
201.475415677
 30
0.0
 11
149.8685207032
 21
201.475415677
 31
0.0
  0
LINE
  5
292
330
1F
100
AcDbEntity
  8
0
  6
Continuous
 62
     8
370
    15
100
AcDbLine
 10
148.1997601603
 20
205.625415677
 30
0.0
 11
148.1997601603
 21
201.475415677
 31
0.0
  0
LINE
  5
293
330
1F
100
AcDbEntity
  8
0
  6
Continuous
 62
     8
370
    15
100
AcDbLine
 10
148.153196405
 20
201.475415677
 30
0.0
 11
148.1997601603
 21
201.475415677
 31
0.0
  0
LINE
  5
294
330
1F
100
AcDbEntity
  8
0
  6
Continuous
 62
     8
370
    15
100
AcDbLine
 10
133.5989143038
 20
205.875415677
 30
0.0
 11
139.4968319355
 21
205.875415677
 31
0.0
  0
LINE
  5
295
330
1F
100
AcDbEntity
  8
0
  6
Continuous
 62
     8
370
    15
100
AcDbLine
 10
139.4968319355
 20
206.575415677
 30
0.0
 11
133.5989143038
 21
206.575415677
 31
0.0
  0
ARC
  5
296
330
1F
100
AcDbEntity
  8
0
  6
Continuous
 62
     8
370
    15
100
AcDbCircle
 10
139.7835216562
 20
206.5758845312
 30
0.0
 40
0.2535377854571848
100
AcDbArc
 50
139.4513483462
 51
180.1059541574
  0
LINE
  5
297
330
1F
100
AcDbEntity
  8
0
  6
Continuous
 62
     8
370
    15
100
AcDbLine
 10
139.6476097443
 20
207.075415677
 30
0.0
 11
139.6413836645
 21
207.075415677
 31
0.0
  0
LINE
  5
298
330
1F
100
AcDbEntity
  8
0
  6
Continuous
 62
     8
370
    15
100
AcDbLine
 10
139.6476097443
 20
212.175415677
 30
0.0
 11
139.6413836645
 21
212.175415677
 31
0.0
  0
LINE
  5
299
330
1F
100
AcDbEntity
  8
0
  6
Continuous
 62
     8
370
    15
100
AcDbLine
 10
146.0317707598
 20
212.175415677
 30
0.0
 11
146.1554051861
 21
212.175415677
 31
0.0
  0
LINE
  5
29A
330
1F
100
AcDbEntity
  8
0
  6
Continuous
 62
     8
370
    15
100
AcDbLine
 10
149.5760553544
 20
206.575415677
 30
0.0
 11
145.8349538585
 21
206.575415677
 31
0.0
  0
LINE
  5
29B
330
1F
100
AcDbEntity
  8
0
  6
Continuous
 62
     8
370
    15
100
AcDbLine
 10
145.8349538585
 20
205.875415677
 30
0.0
 11
149.5760553544
 21
205.875415677
 31
0.0
  0
LINE
  5
29C
330
1F
100
AcDbEntity
  8
0
  6
Continuous
 62
     8
370
    15
100
AcDbLine
 10
135.6029316025
 20
208.2402761636
 30
0.0
 11
135.6029316025
 21
208.025415677
 31
0.0
  0
LINE
  5
29D
330
1F
100
AcDbEntity
  8
0
  6
Continuous
 62
     8
370
    15
100
AcDbLine
 10
135.7663790414
 20
208.025415677
 30
0.0
 11
135.7663790414
 21
208.0887373258
 31
0.0
  0
LINE
  5
29E
330
1F
100
AcDbEntity
  8
0
  6
Continuous
 62
     8
370
    15
100
AcDbLine
 10
916.0938857886
 20
884.8532720219
 30
0.0
 11
915.6240893317
 21
885.860753775
 31
0.0
  0
LINE
  5
29F
330
1F
100
AcDbEntity
  8
0
  6
Continuous
 62
     8
370
    15
100
AcDbLine
 10
915.2859947223
 20
886.5858000046
 30
0.0
 11
915.2585917935
 21
886.644565775
 31
0.0
  0
LINE
  5
2A0
330
1F
100
AcDbEntity
  8
0
  6
Continuous
 62
     8
370
    15
100
AcDbLine
 10
904.3828983491
 20
881.5731466341
 30
0.0
 11
904.4103012779
 21
881.5143808637
 31
0.0
  0
LINE
  5
2A1
330
1F
100
AcDbEntity
  8
0
  6
Continuous
 62
     8
370
    15
100
AcDbLine
 10
904.7483958873
 20
880.7893346341
 30
0.0
 11
905.2181923442
 21
879.7818528811
 31
0.0
  0
LINE
  5
2A2
330
1F
100
AcDbEntity
  8
0
  6
Continuous
 62
     8
370
    15
100
AcDbLine
 10
105.3349709003
 20
975.925415677
 30
0.0
 11
86.3349709003
 21
975.925415677
 31
0.0
  0
ENDSEC
  0
SECTION
  2
OBJECTS
  0
DICTIONARY
  5
C
330
0
100
AcDbDictionary
281
     1
  3
ACAD_GROUP
350
D
  3
ACAD_LAYOUT
350
1A
  3
ACAD_MLINESTYLE
350
17
  3
ACAD_PLOTSETTINGS
350
19
  3
ACAD_PLOTSTYLENAME
350
E
  0
DICTIONARY
  5
D
102
{ACAD_REACTORS
330
C
102
}
330
C
100
AcDbDictionary
281
     1
  0
DICTIONARY
  5
1A
102
{ACAD_REACTORS
330
C
102
}
330
C
100
AcDbDictionary
281
     1
  3
Layout1
350
1E
  3
Layout2
350
26
  3
Model
350
22
  0
DICTIONARY
  5
17
102
{ACAD_REACTORS
330
C
102
}
330
C
100
AcDbDictionary
281
     1
  3
Standard
350
18
  0
DICTIONARY
  5
19
102
{ACAD_REACTORS
330
C
102
}
330
C
100
AcDbDictionary
281
     1
  0
ACDBDICTIONARYWDFLT
  5
E
102
{ACAD_REACTORS
330
C
102
}
330
C
100
AcDbDictionary
281
     1
  3
Normal
350
F
100
AcDbDictionaryWithDefault
340
F
  0
LAYOUT
  5
1E
102
{ACAD_REACTORS
330
1A
102
}
330
1A
100
AcDbPlotSettings
  1

  2
none_device
  4

  6

 40
0.0
 41
0.0
 42
0.0
 43
0.0
 44
0.0
 45
0.0
 46
0.0
 47
0.0
 48
0.0
 49
0.0
140
0.0
141
0.0
142
1.0
143
1.0
 70
   688
 72
     0
 73
     0
 74
     5
  7

 75
    16
147
1.0
148
0.0
149
0.0
100
AcDbLayout
  1
Layout1
 70
     1
 71
     1
 10
0.0
 20
0.0
 11
420.0
 21
297.0
 12
0.0
 22
0.0
 32
0.0
 14
1.0000000000E+20
 24
1.0000000000E+20
 34
1.0000000000E+20
 15
-1.0000000000E+20
 25
-1.0000000000E+20
 35
-1.0000000000E+20
146
0.0
 13
0.0
 23
0.0
 33
0.0
 16
1.0
 26
0.0
 36
0.0
 17
0.0
 27
1.0
 37
0.0
 76
     0
330
1B
  0
LAYOUT
  5
26
102
{ACAD_REACTORS
330
1A
102
}
330
1A
100
AcDbPlotSettings
  1

  2
none_device
  4

  6

 40
0.0
 41
0.0
 42
0.0
 43
0.0
 44
0.0
 45
0.0
 46
0.0
 47
0.0
 48
0.0
 49
0.0
140
0.0
141
0.0
142
1.0
143
1.0
 70
   688
 72
     0
 73
     0
 74
     5
  7

 75
    16
147
1.0
148
0.0
149
0.0
100
AcDbLayout
  1
Layout2
 70
     1
 71
     2
 10
0.0
 20
0.0
 11
0.0
 21
0.0
 12
0.0
 22
0.0
 32
0.0
 14
0.0
 24
0.0
 34
0.0
 15
0.0
 25
0.0
 35
0.0
146
0.0
 13
0.0
 23
0.0
 33
0.0
 16
1.0
 26
0.0
 36
0.0
 17
0.0
 27
1.0
 37
0.0
 76
     0
330
23
  0
LAYOUT
  5
22
102
{ACAD_REACTORS
330
1A
102
}
330
1A
100
AcDbPlotSettings
  1

  2
none_device
  4

  6

 40
0.0
 41
0.0
 42
0.0
 43
0.0
 44
0.0
 45
0.0
 46
0.0
 47
0.0
 48
0.0
 49
0.0
140
0.0
141
0.0
142
1.0
143
1.0
 70
  1712
 72
     0
 73
     0
 74
     0
  7

 75
     0
147
1.0
148
0.0
149
0.0
100
AcDbLayout
  1
Model
 70
     1
 71
     0
 10
0.0
 20
0.0
 11
1000.0
 21
1000.0
 12
0.0
 22
0.0
 32
0.0
 14
0.0
 24
0.0
 34
0.0
 15
1000.0
 25
1000.0
 35
0.0
146
0.0
 13
0.0
 23
0.0
 33
0.0
 16
1.0
 26
0.0
 36
0.0
 17
0.0
 27
1.0
 37
0.0
 76
     0
330
1F
331
29
  0
MLINESTYLE
  5
18
102
{ACAD_REACTORS
330
17
102
}
330
17
100
AcDbMlineStyle
  2
Standard
 70
     0
  3

 62
   256
 51
90.0
 52
90.0
 71
     2
 49
0.5
 62
   256
  6
BYLAYER
 49
-0.5
 62
   256
  6
BYLAYER
  0
ACDBPLACEHOLDER
  5
F
102
{ACAD_REACTORS
330
E
102
}
330
E
  0
ENDSEC
  0
EOF
