  0
SECTION
  2
HEADER
  9
$ACADVER
  1
AC1015
  9
$ACADMAINTVER
 70
     6
  9
$DWGCODEPAGE
  3
ANSI_1252
  9
$INSBASE
 10
0.0
 20
0.0
 30
0.0
  9
$EXTMIN
 10
0.0
 20
0.0
 30
0.0
  9
$EXTMAX
 10
420.0
 20
297.0
 30
0.0
  9
$LIMMIN
 10
0.0
 20
0.0
  9
$LIMMAX
 10
420.0
 20
297.0
  9
$ORTHOMODE
 70
     0
  9
$REGENMODE
 70
     1
  9
$FILLMODE
 70
     1
  9
$QTEXTMODE
 70
     0
  9
$MIRRTEXT
 70
     1
  9
$LTSCALE
 40
1.0
  9
$ATTMODE
 70
     1
  9
$TEXTSIZE
 40
3.5
  9
$TRACEWID
 40
1.0
  9
$TEXTSTYLE
  7
Standard
  9
$CLAYER
  8
0
  9
$CELTYPE
  6
ByLayer
  9
$CECOLOR
 62
   256
  9
$CELTSCALE
 40
1.0
  9
$DISPSILH
 70
     0
  9
$DIMSCALE
 40
1.0
  9
$DIMASZ
 40
3.302
  9
$DIMEXO
 40
1.0
  9
$DIMDLI
 40
3.75
  9
$DIMRND
 40
0.0
  9
$DIMDLE
 40
0.0
  9
$DIMEXE
 40
1.0
  9
$DIMTP
 40
0.0
  9
$DIMTM
 40
0.0
  9
$DIMTXT
 40
3.5
  9
$DIMCEN
 40
2.5
  9
$DIMTSZ
 40
0.0
  9
$DIMTOL
 70
     0
  9
$DIMLIM
 70
     0
  9
$DIMTIH
 70
     1
  9
$DIMTOH
 70
     1
  9
$DIMSE1
 70
     0
  9
$DIMSE2
 70
     0
  9
$DIMTAD
 70
     1
  9
$DIMZIN
 70
     0
  9
$DIMBLK
  1

  9
$DIMASO
 70
     1
  9
$DIMSHO
 70
     1
  9
$DIMPOST
  1

  9
$DIMAPOST
  1

  9
$DIMALT
 70
     0
  9
$DIMALTD
 70
     3
  9
$DIMALTF
 40
0.0393700787
  9
$DIMLFAC
 40
10.0
  9
$DIMTOFL
 70
     1
  9
$DIMTVP
 40
0.0
  9
$DIMTIX
 70
     0
  9
$DIMSOXD
 70
     0
  9
$DIMSAH
 70
     0
  9
$DIMBLK1
  1

  9
$DIMBLK2
  1

  9
$DIMSTYLE
  2
ISO-25
  9
$DIMCLRD
 70
     0
  9
$DIMCLRE
 70
     0
  9
$DIMCLRT
 70
     0
  9
$DIMTFAC
 40
1.0
  9
$DIMGAP
 40
1.524
  9
$DIMJUST
 70
     0
  9
$DIMSD1
 70
     0
  9
$DIMSD2
 70
     0
  9
$DIMTOLJ
 70
     0
  9
$DIMTZIN
 70
     0
  9
$DIMALTZ
 70
     0
  9
$DIMALTTZ
 70
     0
  9
$DIMUPT
 70
     0
  9
$DIMDEC
 70
     3
  9
$DIMTDEC
 70
     3
  9
$DIMALTU
 70
     2
  9
$DIMALTTD
 70
     3
  9
$DIMTXSTY
  7
Standard
  9
$DIMAUNIT
 70
     0
  9
$DIMADEC
 70
     2
  9
$DIMALTRND
 40
0.0
  9
$DIMAZIN
 70
     0
  9
$DIMDSEP
 70
    44
  9
$DIMATFIT
 70
     3
  9
$DIMFRAC
 70
     0
  9
$DIMLDRBLK
  1

  9
$DIMLUNIT
 70
     2
  9
$DIMLWD
 70
    -2
  9
$DIMLWE
 70
    -2
  9
$DIMTMOVE
 70
     0
  9
$LUNITS
 70
     2
  9
$LUPREC
 70
     8
  9
$SKETCHINC
 40
1.0
  9
$FILLETRAD
 40
10.0
  9
$AUNITS
 70
     0
  9
$AUPREC
 70
     8
  9
$MENU
  1
.
  9
$ELEVATION
 40
0.0
  9
$PELEVATION
 40
0.0
  9
$THICKNESS
 40
0.0
  9
$LIMCHECK
 70
     0
  9
$CHAMFERA
 40
10.0
  9
$CHAMFERB
 40
10.0
  9
$CHAMFERC
 40
20.0
  9
$CHAMFERD
 40
0.0
  9
$SKPOLY
 70
     0
  9
$TDCREATE
 40
2455379.498623495
  9
$TDUCREATE
 40
2455379.456956828
  9
$TDUPDATE
 40
2455379.498623507
  9
$TDUUPDATE
 40
2455379.45695684
  9
$TDINDWG
 40
0.0000000116
  9
$TDUSRTIMER
 40
0.0000000116
  9
$USRTIMER
 70
     1
  9
$ANGBASE
 50
0.0
  9
$ANGDIR
 70
     0
  9
$PDMODE
 70
     0
  9
$PDSIZE
 40
-1.0
  9
$PLINEWID
 40
0.0
  9
$SPLFRAME
 70
     0
  9
$SPLINETYPE
 70
     6
  9
$SPLINESEGS
 70
     8
  9
$HANDSEED
  5
27F
  9
$SURFTAB1
 70
     6
  9
$SURFTAB2
 70
     6
  9
$SURFTYPE
 70
     6
  9
$SURFU
 70
     6
  9
$SURFV
 70
     6
  9
$UCSBASE
  2

  9
$UCSNAME
  2

  9
$UCSORG
 10
0.0
 20
0.0
 30
0.0
  9
$UCSXDIR
 10
1.0
 20
0.0
 30
0.0
  9
$UCSYDIR
 10
0.0
 20
1.0
 30
0.0
  9
$UCSORTHOREF
  2

  9
$UCSORTHOVIEW
 70
     0
  9
$UCSORGTOP
 10
0.0
 20
0.0
 30
0.0
  9
$UCSORGBOTTOM
 10
0.0
 20
0.0
 30
0.0
  9
$UCSORGLEFT
 10
0.0
 20
0.0
 30
0.0
  9
$UCSORGRIGHT
 10
0.0
 20
0.0
 30
0.0
  9
$UCSORGFRONT
 10
0.0
 20
0.0
 30
0.0
  9
$UCSORGBACK
 10
0.0
 20
0.0
 30
0.0
  9
$PUCSBASE
  2

  9
$PUCSNAME
  2

  9
$PUCSORG
 10
0.0
 20
0.0
 30
0.0
  9
$PUCSXDIR
 10
1.0
 20
0.0
 30
0.0
  9
$PUCSYDIR
 10
0.0
 20
1.0
 30
0.0
  9
$PUCSORTHOREF
  2

  9
$PUCSORTHOVIEW
 70
     0
  9
$PUCSORGTOP
 10
0.0
 20
0.0
 30
0.0
  9
$PUCSORGBOTTOM
 10
0.0
 20
0.0
 30
0.0
  9
$PUCSORGLEFT
 10
0.0
 20
0.0
 30
0.0
  9
$PUCSORGRIGHT
 10
0.0
 20
0.0
 30
0.0
  9
$PUCSORGFRONT
 10
0.0
 20
0.0
 30
0.0
  9
$PUCSORGBACK
 10
0.0
 20
0.0
 30
0.0
  9
$USERI1
 70
     0
  9
$USERI2
 70
     0
  9
$USERI3
 70
     0
  9
$USERI4
 70
     0
  9
$USERI5
 70
     0
  9
$USERR1
 40
0.0
  9
$USERR2
 40
0.0
  9
$USERR3
 40
0.0
  9
$USERR4
 40
0.0
  9
$USERR5
 40
0.0
  9
$WORLDVIEW
 70
     1
  9
$SHADEDGE
 70
     3
  9
$SHADEDIF
 70
    70
  9
$TILEMODE
 70
     1
  9
$MAXACTVP
 70
    64
  9
$PINSBASE
 10
0.0
 20
0.0
 30
0.0
  9
$PLIMCHECK
 70
     0
  9
$PEXTMIN
 10
1.0000000000E+20
 20
1.0000000000E+20
 30
1.0000000000E+20
  9
$PEXTMAX
 10
-1.0000000000E+20
 20
-1.0000000000E+20
 30
-1.0000000000E+20
  9
$PLIMMIN
 10
0.0
 20
0.0
  9
$PLIMMAX
 10
420.0
 20
297.0
  9
$UNITMODE
 70
     0
  9
$VISRETAIN
 70
     1
  9
$PLINEGEN
 70
     0
  9
$PSLTSCALE
 70
     1
  9
$TREEDEPTH
 70
  3020
  9
$CMLSTYLE
  2
Standard
  9
$CMLJUST
 70
     0
  9
$CMLSCALE
 40
20.0
  9
$PROXYGRAPHICS
 70
     1
  9
$MEASUREMENT
 70
     1
  9
$CELWEIGHT
370
    -1
  9
$ENDCAPS
280
     0
  9
$JOINSTYLE
280
     0
  9
$LWDISPLAY
290
     1
  9
$INSUNITS
 70
     4
  9
$HYPERLINKBASE
  1

  9
$STYLESHEET
  1

  9
$XEDIT
290
     1
  9
$CEPSNTYPE
380
     0
  9
$PSTYLEMODE
290
     1
  9
$FINGERPRINTGUID
  2
{708426BC-F545-42EE-B6C8-35FE5543D807}
  9
$VERSIONGUID
  2
{FAEB1C32-E019-11D5-929B-00C0DF256EC4}
  9
$EXTNAMES
290
     1
  9
$PSVPSCALE
 40
0.0
  9
$OLESTARTUP
290
     0
  0
ENDSEC
  0
SECTION
  2
CLASSES
  0
CLASS
  1
ACDBDICTIONARYWDFLT
  2
AcDbDictionaryWithDefault
  3
ObjectDBX Classes
 90
        0
280
     0
281
     0
  0
CLASS
  1
VISUALSTYLE
  2
AcDbVisualStyle
  3
ObjectDBX Classes
 90
     4095
280
     0
281
     0
  0
CLASS
  1
MATERIAL
  2
AcDbMaterial
  3
ObjectDBX Classes
 90
     1153
280
     0
281
     0
  0
CLASS
  1
DICTIONARYVAR
  2
AcDbDictionaryVar
  3
ObjectDBX Classes
 90
        0
280
     0
281
     0
  0
CLASS
  1
ACDBPLACEHOLDER
  2
AcDbPlaceHolder
  3
ObjectDBX Classes
 90
        0
280
     0
281
     0
  0
CLASS
  1
LAYOUT
  2
AcDbLayout
  3
ObjectDBX Classes
 90
        0
280
     0
281
     0
  0
ENDSEC
  0
SECTION
  2
TABLES
  0
TABLE
  2
VPORT
  5
8
330
0
100
AcDbSymbolTable
 70
     1
  0
VPORT
  5
29
330
8
100
AcDbSymbolTableRecord
100
AcDbViewportTableRecord
  2
*Active
 70
     0
 10
0.0
 20
0.0
 11
1.0
 21
1.0
 12
210.0
 22
148.5
 13
0.0
 23
0.0
 14
10.0
 24
10.0
 15
10.0
 25
10.0
 16
0.0
 26
0.0
 36
1.0
 17
0.0
 27
0.0
 37
0.0
 40
297.0
 41
1.4141414141
 42
50.0
 43
0.0
 44
0.0
 50
0.0
 51
0.0
 71
     0
 72
  2000
 73
     1
 74
     3
 75
     0
 76
     0
 77
     0
 78
     0
281
     0
 65
     1
110
0.0
120
0.0
130
0.0
111
1.0
121
0.0
131
0.0
112
0.0
122
1.0
132
0.0
 79
     0
146
0.0
  0
ENDTAB
  0
TABLE
  2
LTYPE
  5
5
330
0
100
AcDbSymbolTable
 70
     6
  0
LTYPE
  5
14
330
5
100
AcDbSymbolTableRecord
100
AcDbLinetypeTableRecord
  2
ByBlock
 70
     0
  3

 72
    65
 73
     0
 40
0.0
  0
LTYPE
  5
15
330
5
100
AcDbSymbolTableRecord
100
AcDbLinetypeTableRecord
  2
ByLayer
 70
     0
  3

 72
    65
 73
     0
 40
0.0
  0
LTYPE
  5
16
330
5
100
AcDbSymbolTableRecord
100
AcDbLinetypeTableRecord
  2
Continuous
 70
     0
  3
Solid line
 72
    65
 73
     0
 40
0.0
  0
LTYPE
  5
3F
330
5
100
AcDbSymbolTableRecord
100
AcDbLinetypeTableRecord
  2
HIDDEN
 70
     0
  3
Hidden __ __ __ __ __ __ __ __ __ __ __ __ __ __
 72
    65
 73
     2
 40
1.905
 49
1.27
 74
     0
 49
-0.635
 74
     0
  0
LTYPE
  5
40
330
5
100
AcDbSymbolTableRecord
100
AcDbLinetypeTableRecord
  2
PHANTOM
 70
     0
  3
Phantom ______  __  __  ______  __  __  ______
 72
    65
 73
     6
 40
12.7
 49
6.35
 74
     0
 49
-1.27
 74
     0
 49
1.27
 74
     0
 49
-1.27
 74
     0
 49
1.27
 74
     0
 49
-1.27
 74
     0
  0
LTYPE
  5
41
330
5
100
AcDbSymbolTableRecord
100
AcDbLinetypeTableRecord
  2
CENTER
 70
     0
  3
Center ____ _ ____ _ ____ _ ____ _ ____ _ ____
 72
    65
 73
     4
 40
10.16
 49
6.35
 74
     0
 49
-1.27
 74
     0
 49
1.27
 74
     0
 49
-1.27
 74
     0
  0
LTYPE
  5
42
330
5
100
AcDbSymbolTableRecord
100
AcDbLinetypeTableRecord
  2
CENTERX2
 70
     0
  3
Center (2x) ________  __  ________  __  _____
 72
    65
 73
     4
 40
20.32
 49
12.7
 74
     0
 49
-2.54
 74
     0
 49
2.54
 74
     0
 49
-2.54
 74
     0
  0
LTYPE
  5
43
330
5
100
AcDbSymbolTableRecord
100
AcDbLinetypeTableRecord
  2
DOT2
 70
     0
  3
Dot (.5x) ........................................
 72
    65
 73
     2
 40
0.635
 49
0.0
 74
     0
 49
-0.635
 74
     0
  0
ENDTAB
  0
TABLE
  2
LAYER
  5
2
330
0
100
AcDbSymbolTable
 70
     4
  0
LAYER
  5
10
330
2
100
AcDbSymbolTableRecord
100
AcDbLayerTableRecord
  2
0
 70
     0
 62
     7
  6
Continuous
370
    -3
390
F
  0
LAYER
  5
44
330
2
100
AcDbSymbolTableRecord
100
AcDbLayerTableRecord
  2
FORMAT
 70
     0
 62
     7
  6
Continuous
370
    -3
390
F
  0
LAYER
  5
45
330
2
100
AcDbSymbolTableRecord
100
AcDbLayerTableRecord
  2
SLD-0
 70
     0
 62
     1
  6
Continuous
370
    -3
390
F
  0
LAYER
  5
46
330
2
100
AcDbSymbolTableRecord
100
AcDbLayerTableRecord
  2
WATERMARK
 70
     0
 62
    20
  6
Continuous
370
    -3
390
F
  0
ENDTAB
  0
TABLE
  2
STYLE
  5
3
330
0
100
AcDbSymbolTable
 70
     1
  0
STYLE
  5
11
330
3
100
AcDbSymbolTableRecord
100
AcDbTextStyleTableRecord
  2
Standard
 70
     0
 40
0.0
 41
1.0
 50
0.0
 71
     0
 42
2.5
  3
txt
  4

  0
ENDTAB
  0
TABLE
  2
VIEW
  5
6
330
0
100
AcDbSymbolTable
 70
     0
  0
ENDTAB
  0
TABLE
  2
UCS
  5
7
330
0
100
AcDbSymbolTable
 70
     0
  0
ENDTAB
  0
TABLE
  2
APPID
  5
9
330
0
100
AcDbSymbolTable
 70
     1
  0
APPID
  5
12
330
9
100
AcDbSymbolTableRecord
100
AcDbRegAppTableRecord
  2
ACAD
 70
     0
  0
ENDTAB
  0
TABLE
  2
DIMSTYLE
  5
A
330
0
100
AcDbSymbolTable
 70
     1
100
AcDbDimStyleTable
  0
DIMSTYLE
105
27
330
A
100
AcDbSymbolTableRecord
100
AcDbDimStyleTableRecord
  2
ISO-25
 70
     0
 41
2.5
 42
0.625
 43
3.75
 44
1.25
 73
     0
 74
     0
 77
     1
 78
     8
140
2.5
141
2.5
143
0.0393700787
147
0.625
171
     3
172
     1
271
     2
272
     2
274
     3
278
    44
283
     0
284
     8
340
11
  0
ENDTAB
  0
TABLE
  2
BLOCK_RECORD
  5
1
330
0
100
AcDbSymbolTable
 70
     1
  0
BLOCK_RECORD
  5
1F
330
1
100
AcDbSymbolTableRecord
100
AcDbBlockTableRecord
  2
*Model_Space
340
22
  0
BLOCK_RECORD
  5
1B
330
1
100
AcDbSymbolTableRecord
100
AcDbBlockTableRecord
  2
*Paper_Space
340
1E
  0
BLOCK_RECORD
  5
23
330
1
100
AcDbSymbolTableRecord
100
AcDbBlockTableRecord
  2
*Paper_Space0
340
26
  0
ENDTAB
  0
ENDSEC
  0
SECTION
  2
BLOCKS
  0
BLOCK
  5
20
330
1F
100
AcDbEntity
  8
0
100
AcDbBlockBegin
  2
*Model_Space
 70
     0
 10
0.0
 20
0.0
 30
0.0
  3
*Model_Space
  1

  0
ENDBLK
  5
21
330
1F
100
AcDbEntity
  8
0
100
AcDbBlockEnd
  0
BLOCK
  5
1C
330
1B
100
AcDbEntity
 67
     1
  8
0
100
AcDbBlockBegin
  2
*Paper_Space
 70
     0
 10
0.0
 20
0.0
 30
0.0
  3
*Paper_Space
  1

  0
ENDBLK
  5
1D
330
1B
100
AcDbEntity
 67
     1
  8
0
100
AcDbBlockEnd
  0
BLOCK
  5
24
330
23
100
AcDbEntity
  8
0
100
AcDbBlockBegin
  2
*Paper_Space0
 70
     0
 10
0.0
 20
0.0
 30
0.0
  3
*Paper_Space0
  1

  0
ENDBLK
  5
25
330
23
100
AcDbEntity
  8
0
100
AcDbBlockEnd
  0
ENDSEC
  0
SECTION
  2
ENTITIES
  0
ARC
  5
47
330
1F
100
AcDbEntity
  8
0
  6
Continuous
 62
     7
370
    15
100
AcDbCircle
 10
237.5155353898
 20
178.2619647668
 30
0.0
 40
7.620000000000008
100
AcDbArc
 50
101.4295409883
 51
111.3343264822
  0
ARC
  5
48
330
1F
100
AcDbEntity
  8
0
  6
Continuous
 62
     7
370
    15
100
AcDbCircle
 10
237.5155353898
 20
178.2619647668
 30
0.0
 40
7.620000000000008
100
AcDbArc
 50
68.6656735178
 51
78.5704590117
  0
LINE
  5
49
330
1F
100
AcDbEntity
  8
0
  6
Continuous
 62
     7
370
    15
100
AcDbLine
 10
174.0355364877
 20
152.7936571355
 30
0.0
 11
174.0342847902
 21
152.7936571355
 31
0.0
  0
LINE
  5
4A
330
1F
100
AcDbEntity
  8
0
  6
Continuous
 62
     7
370
    15
100
AcDbLine
 10
174.0355364877
 20
172.2985857244
 30
0.0
 11
174.0342847902
 21
172.2985857244
 31
0.0
  0
LINE
  5
4B
330
1F
100
AcDbEntity
  8
0
  6
Continuous
 62
     7
370
    15
100
AcDbLine
 10
174.0355364877
 20
160.8078890558
 30
0.0
 11
174.0342847902
 21
160.8078890558
 31
0.0
  0
LINE
  5
4C
330
1F
100
AcDbEntity
  8
0
  6
Continuous
 62
     7
370
    15
100
AcDbLine
 10
231.3415892321
 20
109.3332895155
 30
0.0
 11
231.5580956537
 21
109.2082896347
 31
0.0
  0
LINE
  5
4D
330
1F
100
AcDbEntity
  8
0
  6
Continuous
 62
     7
370
    15
100
AcDbLine
 10
237.2729740936
 20
109.2082896347
 30
0.0
 11
237.4894820052
 21
109.3332895155
 31
0.0
  0
LINE
  5
4E
330
1F
100
AcDbEntity
  8
0
  6
Continuous
 62
     7
370
    15
100
AcDbLine
 10
237.4894820052
 20
109.3332895155
 30
0.0
 11
236.9926936823
 21
110.3752632703
 31
0.0
  0
LINE
  5
4F
330
1F
100
AcDbEntity
  8
0
  6
Continuous
 62
     7
370
    15
100
AcDbLine
 10
231.838377555
 20
110.3752632703
 30
0.0
 11
231.3415892321
 21
109.3332895155
 31
0.0
  0
ARC
  5
50
330
1F
100
AcDbEntity
  8
0
  6
Continuous
 62
     7
370
    15
100
AcDbCircle
 10
232.2280886873
 20
110.1502633315
 30
0.0
 40
0.450000000000015
100
AcDbArc
 50
90.0
 51
150.0
  0
ARC
  5
51
330
1F
100
AcDbEntity
  8
0
  6
Continuous
 62
     7
370
    15
100
AcDbCircle
 10
236.6029820923
 20
110.1502633315
 30
0.0
 40
0.4500000000000028
100
AcDbArc
 50
30.0
 51
90.0
  0
LINE
  5
52
330
1F
100
AcDbEntity
  8
0
  6
Continuous
 62
     7
370
    15
100
AcDbLine
 10
236.6029821235
 20
110.6002633538
 30
0.0
 11
232.2280891138
 21
110.6002633538
 31
0.0
  0
LINE
  5
53
330
1F
100
AcDbEntity
  8
0
  6
Continuous
 62
     7
370
    15
100
AcDbLine
 10
186.4894799787
 20
109.3332895155
 30
0.0
 11
185.9926931459
 21
110.3752632703
 31
0.0
  0
LINE
  5
54
330
1F
100
AcDbEntity
  8
0
  6
Continuous
 62
     7
370
    15
100
AcDbLine
 10
180.8383785087
 20
110.3752632703
 30
0.0
 11
180.3415886957
 21
109.3332895155
 31
0.0
  0
LINE
  5
55
330
1F
100
AcDbEntity
  8
0
  6
Continuous
 62
     7
370
    15
100
AcDbLine
 10
180.3415886957
 20
109.3332895155
 30
0.0
 11
180.5580966073
 21
109.2082896347
 31
0.0
  0
LINE
  5
56
330
1F
100
AcDbEntity
  8
0
  6
Continuous
 62
     7
370
    15
100
AcDbLine
 10
186.2729750472
 20
109.2082896347
 30
0.0
 11
186.4894799787
 21
109.3332895155
 31
0.0
  0
ARC
  5
57
330
1F
100
AcDbEntity
  8
0
  6
Continuous
 62
     7
370
    15
100
AcDbCircle
 10
181.2280886873
 20
110.1502633315
 30
0.0
 40
0.4500000000000171
100
AcDbArc
 50
90.0
 51
150.0
  0
ARC
  5
58
330
1F
100
AcDbEntity
  8
0
  6
Continuous
 62
     7
370
    15
100
AcDbCircle
 10
185.6029820923
 20
110.1502633315
 30
0.0
 40
0.4500000000000171
100
AcDbArc
 50
30.0
 51
90.0
  0
LINE
  5
59
330
1F
100
AcDbEntity
  8
0
  6
Continuous
 62
     7
370
    15
100
AcDbLine
 10
185.6029830772
 20
110.6002633538
 30
0.0
 11
181.2280885774
 21
110.6002633538
 31
0.0
  0
ARC
  5
5A
330
1F
100
AcDbEntity
  8
0
  6
Continuous
 62
     7
370
    15
100
AcDbCircle
 10
180.9655353898
 20
113.7069647668
 30
0.0
 40
0.2000000000000028
100
AcDbArc
 50
0.0
 51
90.0
  0
ARC
  5
5B
330
1F
100
AcDbEntity
  8
0
  6
Continuous
 62
     7
370
    15
100
AcDbCircle
 10
185.8655353898
 20
113.7069647668
 30
0.0
 40
0.2000000000000028
100
AcDbArc
 50
90.0
 51
180.0
  0
LINE
  5
5C
330
1F
100
AcDbEntity
  8
0
  6
Continuous
 62
     7
370
    15
100
AcDbLine
 10
185.6655351716
 20
113.1531977172
 30
0.0
 11
185.6655351716
 21
113.7069651003
 31
0.0
  0
LINE
  5
5D
330
1F
100
AcDbEntity
  8
0
  6
Continuous
 62
     7
370
    15
100
AcDbLine
 10
185.6655351716
 20
112.0069646354
 30
0.0
 11
185.6655351716
 21
112.5607320185
 31
0.0
  0
LINE
  5
5E
330
1F
100
AcDbEntity
  8
0
  6
Continuous
 62
     7
370
    15
100
AcDbLine
 10
181.1655364829
 20
113.7069651003
 30
0.0
 11
181.1655364829
 21
112.0069646354
 31
0.0
  0
ARC
  5
5F
330
1F
100
AcDbEntity
  8
0
  6
Continuous
 62
     7
370
    15
100
AcDbCircle
 10
231.9655353898
 20
113.7069647668
 30
0.0
 40
0.2000000000000171
100
AcDbArc
 50
0.0
 51
90.0
  0
ARC
  5
60
330
1F
100
AcDbEntity
  8
0
  6
Continuous
 62
     7
370
    15
100
AcDbCircle
 10
236.8655353898
 20
113.7069647668
 30
0.0
 40
0.2000000000000171
100
AcDbArc
 50
90.0
 51
180.0
  0
LINE
  5
61
330
1F
100
AcDbEntity
  8
0
  6
Continuous
 62
     7
370
    15
100
AcDbLine
 10
236.6655357081
 20
113.1531977172
 30
0.0
 11
236.6655357081
 21
113.7069651003
 31
0.0
  0
LINE
  5
62
330
1F
100
AcDbEntity
  8
0
  6
Continuous
 62
     7
370
    15
100
AcDbLine
 10
236.6655357081
 20
112.0069646354
 30
0.0
 11
236.6655357081
 21
112.5607320185
 31
0.0
  0
LINE
  5
63
330
1F
100
AcDbEntity
  8
0
  6
Continuous
 62
     7
370
    15
100
AcDbLine
 10
232.1655355293
 20
113.7069651003
 30
0.0
 11
232.1655355293
 21
112.0069646354
 31
0.0
  0
LINE
  5
64
330
1F
100
AcDbEntity
  8
0
  6
Continuous
 62
     7
370
    15
100
AcDbLine
 10
185.2929256755
 20
111.916964602
 30
0.0
 11
185.2929256755
 21
112.0069646354
 31
0.0
  0
LINE
  5
65
330
1F
100
AcDbEntity
  8
0
  6
Continuous
 62
     7
370
    15
100
AcDbLine
 10
181.5381429988
 20
112.0069646354
 30
0.0
 11
181.5381429988
 21
111.916964602
 31
0.0
  0
LINE
  5
66
330
1F
100
AcDbEntity
  8
0
  6
Continuous
 62
     7
370
    15
100
AcDbLine
 10
185.2929256755
 20
111.5269647058
 30
0.0
 11
185.2929256755
 21
111.536964875
 31
0.0
  0
LINE
  5
67
330
1F
100
AcDbEntity
  8
0
  6
Continuous
 62
     7
370
    15
100
AcDbLine
 10
181.5381429988
 20
111.536964875
 30
0.0
 11
181.5381429988
 21
111.5269647058
 31
0.0
  0
LINE
  5
68
330
1F
100
AcDbEntity
  8
0
  6
Continuous
 62
     7
370
    15
100
AcDbLine
 10
185.2929256755
 20
111.536964875
 30
0.0
 11
185.1829282838
 21
111.6069645699
 31
0.0
  0
LINE
  5
69
330
1F
100
AcDbEntity
  8
0
  6
Continuous
 62
     7
370
    15
100
AcDbLine
 10
181.6481433708
 20
111.6069645699
 30
0.0
 11
181.5381429988
 21
111.536964875
 31
0.0
  0
LINE
  5
6A
330
1F
100
AcDbEntity
  8
0
  6
Continuous
 62
     7
370
    15
100
AcDbLine
 10
181.5381429988
 20
111.6769650097
 30
0.0
 11
181.6481433708
 21
111.6069645699
 31
0.0
  0
LINE
  5
6B
330
1F
100
AcDbEntity
  8
0
  6
Continuous
 62
     7
370
    15
100
AcDbLine
 10
185.1829282838
 20
111.6069645699
 30
0.0
 11
185.2929256755
 21
111.6769650097
 31
0.0
  0
LINE
  5
6C
330
1F
100
AcDbEntity
  8
0
  6
Continuous
 62
     7
370
    15
100
AcDbLine
 10
181.5381429988
 20
111.916964602
 30
0.0
 11
181.6481433708
 21
111.8469649072
 31
0.0
  0
LINE
  5
6D
330
1F
100
AcDbEntity
  8
0
  6
Continuous
 62
     7
370
    15
100
AcDbLine
 10
185.1829282838
 20
111.8469649072
 30
0.0
 11
185.2929256755
 21
111.916964602
 31
0.0
  0
LINE
  5
6E
330
1F
100
AcDbEntity
  8
0
  6
Continuous
 62
     7
370
    15
100
AcDbLine
 10
185.2929256755
 20
111.7769644673
 30
0.0
 11
185.1829282838
 21
111.8469649072
 31
0.0
  0
LINE
  5
6F
330
1F
100
AcDbEntity
  8
0
  6
Continuous
 62
     7
370
    15
100
AcDbLine
 10
181.6481433708
 20
111.8469649072
 30
0.0
 11
181.5381429988
 21
111.7769644673
 31
0.0
  0
LINE
  5
70
330
1F
100
AcDbEntity
  8
0
  6
Continuous
 62
     7
370
    15
100
AcDbLine
 10
185.2929256755
 20
111.6769650097
 30
0.0
 11
185.2929256755
 21
111.7769644673
 31
0.0
  0
LINE
  5
71
330
1F
100
AcDbEntity
  8
0
  6
Continuous
 62
     7
370
    15
100
AcDbLine
 10
181.5381429988
 20
111.7769644673
 30
0.0
 11
181.5381429988
 21
111.6769650097
 31
0.0
  0
LINE
  5
72
330
1F
100
AcDbEntity
  8
0
  6
Continuous
 62
     7
370
    15
100
AcDbLine
 10
232.5381435353
 20
111.916964602
 30
0.0
 11
232.6481439072
 21
111.8469649072
 31
0.0
  0
LINE
  5
73
330
1F
100
AcDbEntity
  8
0
  6
Continuous
 62
     7
370
    15
100
AcDbLine
 10
236.1829273301
 20
111.8469649072
 30
0.0
 11
236.292926212
 21
111.916964602
 31
0.0
  0
LINE
  5
74
330
1F
100
AcDbEntity
  8
0
  6
Continuous
 62
     7
370
    15
100
AcDbLine
 10
232.5381435353
 20
111.6769650097
 30
0.0
 11
232.6481439072
 21
111.6069645699
 31
0.0
  0
LINE
  5
75
330
1F
100
AcDbEntity
  8
0
  6
Continuous
 62
     7
370
    15
100
AcDbLine
 10
236.1829273301
 20
111.6069645699
 30
0.0
 11
236.292926212
 21
111.6769650097
 31
0.0
  0
LINE
  5
76
330
1F
100
AcDbEntity
  8
0
  6
Continuous
 62
     7
370
    15
100
AcDbLine
 10
236.292926212
 20
111.916964602
 30
0.0
 11
236.292926212
 21
112.0069646354
 31
0.0
  0
LINE
  5
77
330
1F
100
AcDbEntity
  8
0
  6
Continuous
 62
     7
370
    15
100
AcDbLine
 10
232.5381435353
 20
112.0069646354
 30
0.0
 11
232.5381435353
 21
111.916964602
 31
0.0
  0
LINE
  5
78
330
1F
100
AcDbEntity
  8
0
  6
Continuous
 62
     7
370
    15
100
AcDbLine
 10
236.292926212
 20
111.7769644673
 30
0.0
 11
236.1829273301
 21
111.8469649072
 31
0.0
  0
LINE
  5
79
330
1F
100
AcDbEntity
  8
0
  6
Continuous
 62
     7
370
    15
100
AcDbLine
 10
232.6481439072
 20
111.8469649072
 30
0.0
 11
232.5381435353
 21
111.7769644673
 31
0.0
  0
LINE
  5
7A
330
1F
100
AcDbEntity
  8
0
  6
Continuous
 62
     7
370
    15
100
AcDbLine
 10
236.292926212
 20
111.5269647058
 30
0.0
 11
236.292926212
 21
111.536964875
 31
0.0
  0
LINE
  5
7B
330
1F
100
AcDbEntity
  8
0
  6
Continuous
 62
     7
370
    15
100
AcDbLine
 10
232.5381435353
 20
111.536964875
 30
0.0
 11
232.5381435353
 21
111.5269647058
 31
0.0
  0
LINE
  5
7C
330
1F
100
AcDbEntity
  8
0
  6
Continuous
 62
     7
370
    15
100
AcDbLine
 10
236.292926212
 20
111.536964875
 30
0.0
 11
236.1829273301
 21
111.6069645699
 31
0.0
  0
LINE
  5
7D
330
1F
100
AcDbEntity
  8
0
  6
Continuous
 62
     7
370
    15
100
AcDbLine
 10
232.6481439072
 20
111.6069645699
 30
0.0
 11
232.5381435353
 21
111.536964875
 31
0.0
  0
LINE
  5
7E
330
1F
100
AcDbEntity
  8
0
  6
Continuous
 62
     7
370
    15
100
AcDbLine
 10
236.292926212
 20
111.6769650097
 30
0.0
 11
236.292926212
 21
111.7769644673
 31
0.0
  0
LINE
  5
7F
330
1F
100
AcDbEntity
  8
0
  6
Continuous
 62
     7
370
    15
100
AcDbLine
 10
232.5381435353
 20
111.7769644673
 30
0.0
 11
232.5381435353
 21
111.6769650097
 31
0.0
  0
LINE
  5
80
330
1F
100
AcDbEntity
  8
0
  6
Continuous
 62
     7
370
    15
100
AcDbLine
 10
180.7301245529
 20
109.2082896347
 30
0.0
 11
180.7249598104
 21
109.1862478371
 31
0.0
  0
ARC
  5
81
330
1F
100
AcDbEntity
  8
0
  6
Continuous
 62
     7
370
    15
100
AcDbCircle
 10
185.6655353898
 20
109.0946343074
 30
0.0
 40
0.4499999999999981
100
AcDbArc
 50
0.0
 51
14.6294891787
  0
LINE
  5
82
330
1F
100
AcDbEntity
  8
0
  6
Continuous
 62
     7
370
    15
100
AcDbLine
 10
186.1155353385
 20
108.2269647236
 30
0.0
 11
186.1155353385
 21
109.0946343805
 31
0.0
  0
ARC
  5
83
330
1F
100
AcDbEntity
  8
0
  6
Continuous
 62
     7
370
    15
100
AcDbCircle
 10
180.5291482046
 20
109.2269647668
 30
0.0
 40
0.2000000000000047
100
AcDbArc
 50
270.0
 51
348.2533023167
  0
LINE
  5
84
330
1F
100
AcDbEntity
  8
0
  6
Continuous
 62
     7
370
    15
100
AcDbLine
 10
231.7301250893
 20
109.2082896347
 30
0.0
 11
231.7249603468
 21
109.1862478371
 31
0.0
  0
ARC
  5
85
330
1F
100
AcDbEntity
  8
0
  6
Continuous
 62
     7
370
    15
100
AcDbCircle
 10
236.6655353898
 20
109.0946343074
 30
0.0
 40
0.4500000000000171
100
AcDbArc
 50
0.0
 51
14.6294891787
  0
LINE
  5
86
330
1F
100
AcDbEntity
  8
0
  6
Continuous
 62
     7
370
    15
100
AcDbLine
 10
237.115535875
 20
108.2269647236
 30
0.0
 11
237.115535875
 21
109.0946343805
 31
0.0
  0
ARC
  5
87
330
1F
100
AcDbEntity
  8
0
  6
Continuous
 62
     7
370
    15
100
AcDbCircle
 10
231.5291482046
 20
109.2269647668
 30
0.0
 40
0.2000000000000047
100
AcDbArc
 50
270.0
 51
348.2533023167
  0
ARC
  5
88
330
1F
100
AcDbEntity
  8
0
  6
Continuous
 62
     7
370
    15
100
AcDbCircle
 10
180.0855353898
 20
102.2269647668
 30
0.0
 40
4.950167068424933
100
AcDbArc
 50
130.0
 51
42.0375543904
  0
ARC
  5
89
330
1F
100
AcDbEntity
  8
0
  6
Continuous
 62
     7
370
    15
100
AcDbCircle
 10
231.0855353898
 20
102.2269647668
 30
0.0
 40
4.950167068424937
100
AcDbArc
 50
130.0
 51
42.0375543904
  0
LINE
  5
8A
330
1F
100
AcDbEntity
  8
0
  6
Continuous
 62
     7
370
    15
100
AcDbLine
 10
236.0055349666
 20
185.5984681364
 30
0.0
 11
236.0055349666
 21
185.6059902425
 31
0.0
  0
ARC
  5
8B
330
1F
100
AcDbEntity
  8
0
  6
Continuous
 62
     7
370
    15
100
AcDbCircle
 10
236.0605351526
 20
181.9327880552
 30
0.0
 40
3.666092671758923
100
AcDbArc
 50
89.1403935925
 51
90.8596064075
  0
ARC
  5
8C
330
1F
100
AcDbEntity
  8
0
  6
Continuous
 62
     7
370
    15
100
AcDbCircle
 10
237.5155353898
 20
178.2619647668
 30
0.0
 40
7.468888806241524
100
AcDbArc
 50
79.1963310566
 51
100.8036689434
  0
ARC
  5
8D
330
1F
100
AcDbEntity
  8
0
  6
Continuous
 62
     7
370
    15
100
AcDbCircle
 10
238.9705352384
 20
181.9328761989
 30
0.0
 40
3.666004537968262
100
AcDbArc
 50
89.1403729253
 51
90.8596270747
  0
LINE
  5
8E
330
1F
100
AcDbEntity
  8
0
  6
Continuous
 62
     7
370
    15
100
AcDbLine
 10
239.0255354244
 20
185.7308560129
 30
0.0
 11
239.0255354244
 21
185.5984681364
 31
0.0
  0
LINE
  5
8F
330
1F
100
AcDbEntity
  8
0
  6
Continuous
 62
     7
370
    15
100
AcDbLine
 10
235.8055360514
 20
186.4897363897
 30
0.0
 11
235.8055360514
 21
200.4897349592
 31
0.0
  0
LINE
  5
90
330
1F
100
AcDbEntity
  8
0
  6
Continuous
 62
     7
370
    15
100
AcDbLine
 10
235.8055360514
 20
185.9897368665
 30
0.0
 11
236.0055349666
 21
185.9897368665
 31
0.0
  0
LINE
  5
91
330
1F
100
AcDbEntity
  8
0
  6
Continuous
 62
     7
370
    15
100
AcDbLine
 10
235.8055360514
 20
185.9897368665
 30
0.0
 11
235.8055360514
 21
186.4897363897
 31
0.0
  0
LINE
  5
92
330
1F
100
AcDbEntity
  8
0
  6
Continuous
 62
     7
370
    15
100
AcDbLine
 10
235.8055360514
 20
200.9897344823
 30
0.0
 11
236.0055349666
 21
200.9897344823
 31
0.0
  0
LINE
  5
93
330
1F
100
AcDbEntity
  8
0
  6
Continuous
 62
     7
370
    15
100
AcDbLine
 10
235.8055360514
 20
200.4897349592
 30
0.0
 11
235.8055360514
 21
200.9897344823
 31
0.0
  0
LINE
  5
94
330
1F
100
AcDbEntity
  8
0
  6
Continuous
 62
     7
370
    15
100
AcDbLine
 10
215.4555354166
 20
217.1069675203
 30
0.0
 11
215.4555354166
 21
218.8169651742
 31
0.0
  0
LINE
  5
95
330
1F
100
AcDbEntity
  8
0
  6
Continuous
 62
     7
370
    15
100
AcDbLine
 10
205.2155353028
 20
217.1069675203
 30
0.0
 11
205.2155353028
 21
218.8169651742
 31
0.0
  0
SPLINE
  5
96
330
1F
100
AcDbEntity
  8
0
  6
Continuous
 62
     7
370
    15
100
AcDbSpline
210
0.0
220
0.0
230
1.0
 70
     8
 71
     3
 72
    11
 73
     7
 74
     0
 42
0.00000001
 43
0.00000001
 40
0.0
 40
0.0
 40
0.0
 40
0.0
 40
0.2475502020854495
 40
0.5024196568052248
 40
0.7573017943075604
 40
1.0
 40
1.0
 40
1.0
 40
1.0
 10
215.1855353164779
 20
216.8369704003786
 30
0.0
 10
215.2078116360808
 20
216.8409512361368
 30
0.0
 10
215.2530229134519
 20
216.849030607992
 30
0.0
 10
215.3211942977245
 20
216.9121450227621
 30
0.0
 10
215.388940481067
 20
217.0022356495361
 30
0.0
 10
215.433702457399
 20
217.0726314759012
 30
0.0
 10
215.4555354166137
 20
217.1069675202821
 30
0.0
  0
LINE
  5
97
330
1F
100
AcDbEntity
  8
0
  6
Continuous
 62
     7
370
    15
100
AcDbLine
 10
215.1855353165
 20
216.8369704004
 30
0.0
 11
205.4855354029
 21
216.8369704004
 31
0.0
  0
SPLINE
  5
98
330
1F
100
AcDbEntity
  8
0
  6
Continuous
 62
     7
370
    15
100
AcDbSpline
210
0.0
220
0.0
230
1.0
 70
     8
 71
     3
 72
    11
 73
     7
 74
     0
 42
0.00000001
 43
0.00000001
 40
0.0
 40
0.0
 40
0.0
 40
0.0
 40
0.2500103185858805
 40
0.5000081920491354
 40
0.7500004948099652
 40
1.0
 40
1.0
 40
1.0
 40
1.0
 10
205.2155353027688
 20
217.1069675202821
 30
0.0
 10
205.2380350584795
 20
217.0715856389641
 30
0.0
 10
205.2830334498982
 20
217.0008236375827
 30
0.0
 10
205.3505345228018
 20
216.9115713888161
 30
0.0
 10
205.4180365944374
 20
216.8491471645935
 30
0.0
 10
205.4630355840107
 20
216.8410293607628
 30
0.0
 10
205.4855354029046
 20
216.8369704003786
 30
0.0
  0
LWPOLYLINE
  5
99
330
1F
100
AcDbEntity
  8
0
  6
Continuous
 62
     7
370
    15
100
AcDbPolyline
 90
        3
 70
   128
 43
0.0
 10
205.2155353028
 20
218.7914663072
 10
205.1688596505
 20
218.8164168115
 10
205.1675155658
 20
218.8169651742
  0
ARC
  5
9A
330
1F
100
AcDbEntity
  8
0
  6
Continuous
 62
     7
370
    15
100
AcDbCircle
 10
205.0655353898
 20
218.5669647668
 30
0.0
 40
0.1500000000000341
100
AcDbArc
 50
0.0
 51
90.0
  0
LINE
  5
9B
330
1F
100
AcDbEntity
  8
0
  6
Continuous
 62
     7
370
    15
100
AcDbLine
 10
203.7155352432
 20
218.8169651742
 30
0.0
 11
203.7155352432
 21
218.7169605012
 31
0.0
  0
LINE
  5
9C
330
1F
100
AcDbEntity
  8
0
  6
Continuous
 62
     7
370
    15
100
AcDbLine
 10
203.7155352432
 20
218.7169605012
 30
0.0
 11
204.2155355114
 21
218.7169605012
 31
0.0
  0
LINE
  5
9D
330
1F
100
AcDbEntity
  8
0
  6
Continuous
 62
     7
370
    15
100
AcDbLine
 10
204.2155355114
 20
218.7169605012
 30
0.0
 11
205.0655357438
 21
218.7169605012
 31
0.0
  0
LWPOLYLINE
  5
9E
330
1F
100
AcDbEntity
  8
0
  6
Continuous
 62
     7
370
    15
100
AcDbPolyline
 90
        3
 70
   128
 43
0.0
 10
215.4585659403
 20
218.8169651742
 10
215.4584176737
 20
218.8162260766
 10
215.4555354166
 20
218.7869601961
  0
SPLINE
  5
9F
330
1F
100
AcDbEntity
  8
0
  6
Continuous
 62
     7
370
    15
100
AcDbSpline
210
0.0
220
0.0
230
1.0
 70
     8
 71
     3
 72
    11
 73
     7
 74
     0
 42
0.00000001
 43
0.00000001
 40
0.0
 40
0.0
 40
0.0
 40
0.0
 40
0.2499890580941449
 40
0.4999920172999378
 40
0.7499985003544251
 40
1.0
 40
1.0
 40
1.0
 40
1.0
 10
220.4784646529066
 20
223.5669666047548
 30
0.0
 10
220.466553745249
 20
223.6023445770245
 30
0.0
 10
220.4427312676055
 20
223.6731024888226
 30
0.0
 10
220.4069999532088
 20
223.7623483102971
 30
0.0
 10
220.3712683631499
 20
223.8247896955096
 30
0.0
 10
220.3474465052201
 20
223.8329057419054
 30
0.0
 10
220.3355356949674
 20
223.8369637246584
 30
0.0
  0
SPLINE
  5
A0
330
1F
100
AcDbEntity
  8
0
  6
Continuous
 62
     7
370
    15
100
AcDbSpline
210
0.0
220
0.0
230
1.0
 70
     8
 71
     3
 72
    11
 73
     7
 74
     0
 42
0.00000001
 43
0.00000001
 40
0.0
 40
0.0
 40
0.0
 40
0.0
 40
0.2500020374773186
 40
0.5000079827203758
 40
0.7500114797547724
 40
1.0
 40
1.0
 40
1.0
 40
1.0
 10
198.635535677086
 20
223.8369637246584
 30
0.0
 10
198.6236244593895
 20
223.8329057795558
 30
0.0
 10
198.5998018378129
 20
223.8247898259212
 30
0.0
 10
198.5640719403407
 20
223.7623480736345
 30
0.0
 10
198.5283389333732
 20
223.673102761187
 30
0.0
 10
198.50451721937
 20
223.6023446170677
 30
0.0
 10
198.4926067191469
 20
223.5669666047548
 30
0.0
  0
LINE
  5
A1
330
1F
100
AcDbEntity
  8
0
  6
Continuous
 62
     7
370
    15
100
AcDbLine
 10
198.6355356771
 20
223.8369637247
 30
0.0
 11
220.335535695
 21
223.8369637247
 31
0.0
  0
LINE
  5
A2
330
1F
100
AcDbEntity
  8
0
  6
Continuous
 62
     7
370
    15
100
AcDbLine
 10
198.4926067191
 20
223.5669666048
 30
0.0
 11
198.4926067191
 21
218.9369612451
 31
0.0
  0
LINE
  5
A3
330
1F
100
AcDbEntity
  8
0
  6
Continuous
 62
     7
370
    15
100
AcDbLine
 10
220.4784646529
 20
223.5669666048
 30
0.0
 11
220.4784646529
 21
218.9369612451
 31
0.0
  0
LINE
  5
A4
330
1F
100
AcDbEntity
  8
0
  6
Continuous
 62
     7
370
    15
100
AcDbLine
 10
220.4784646529
 20
218.9369612451
 30
0.0
 11
217.9655354369
 21
218.9369612451
 31
0.0
  0
LINE
  5
A5
330
1F
100
AcDbEntity
  8
0
  6
Continuous
 62
     7
370
    15
100
AcDbLine
 10
217.9655354369
 20
219.0869622941
 30
0.0
 11
217.9655354369
 21
218.9369612451
 31
0.0
  0
LINE
  5
A6
330
1F
100
AcDbEntity
  8
0
  6
Continuous
 62
     7
370
    15
100
AcDbLine
 10
200.7829219002
 20
218.9369612451
 30
0.0
 11
200.7829219002
 21
219.0869622941
 31
0.0
  0
LINE
  5
A7
330
1F
100
AcDbEntity
  8
0
  6
Continuous
 62
     7
370
    15
100
AcDbLine
 10
200.7829219002
 20
218.9369612451
 30
0.0
 11
198.4926067191
 21
218.9369612451
 31
0.0
  0
LINE
  5
A8
330
1F
100
AcDbEntity
  8
0
  6
Continuous
 62
     7
370
    15
100
AcDbLine
 10
217.9655354369
 20
218.9369612451
 30
0.0
 11
217.9655354369
 21
218.8169651742
 31
0.0
  0
LINE
  5
A9
330
1F
100
AcDbEntity
  8
0
  6
Continuous
 62
     7
370
    15
100
AcDbLine
 10
200.7829219002
 20
218.8169651742
 30
0.0
 11
217.9655354369
 21
218.8169651742
 31
0.0
  0
LINE
  5
AA
330
1F
100
AcDbEntity
  8
0
  6
Continuous
 62
     7
370
    15
100
AcDbLine
 10
200.7829219002
 20
218.8169651742
 30
0.0
 11
200.7829219002
 21
218.9369612451
 31
0.0
  0
LINE
  5
AB
330
1F
100
AcDbEntity
  8
0
  6
Continuous
 62
     7
370
    15
100
AcDbLine
 10
198.365535577
 20
223.5669666048
 30
0.0
 11
198.4855361182
 21
223.5669666048
 31
0.0
  0
SPLINE
  5
AC
330
1F
100
AcDbEntity
  8
0
  6
Continuous
 62
     7
370
    15
100
AcDbSpline
210
0.0
220
0.0
230
1.0
 70
     8
 71
     3
 72
    12
 73
     8
 74
     0
 42
0.00000001
 43
0.00000001
 40
0.0
 40
0.0
 40
0.0
 40
0.0
 40
0.2265870706308618
 40
0.4532261151533589
 40
0.6798763599338544
 40
0.9065160297036281
 40
1.0
 40
1.0
 40
1.0
 40
1.0
 10
198.3655355769502
 20
223.5669666047548
 30
0.0
 10
198.3688626825451
 20
223.5990032111068
 30
0.0
 10
198.3755176568969
 20
223.6630837722756
 30
0.0
 10
198.4272266923565
 20
223.7472419629541
 30
0.0
 10
198.5025742475086
 20
223.8084118825997
 30
0.0
 10
198.5773155380738
 20
223.8343676848641
 30
0.0
 10
198.6223767080301
 20
223.8363769653703
 30
0.0
 10
198.635535677086
 20
223.8369637246584
 30
0.0
  0
LINE
  5
AD
330
1F
100
AcDbEntity
  8
0
  6
Continuous
 62
     7
370
    15
100
AcDbLine
 10
220.60553505
 20
223.5669666048
 30
0.0
 11
220.4855352539
 21
223.5669666048
 31
0.0
  0
SPLINE
  5
AE
330
1F
100
AcDbEntity
  8
0
  6
Continuous
 62
     7
370
    15
100
AcDbSpline
210
0.0
220
0.0
230
1.0
 70
     8
 71
     3
 72
    12
 73
     8
 74
     0
 42
0.00000001
 43
0.00000001
 40
0.0
 40
0.0
 40
0.0
 40
0.0
 40
0.2265862303247191
 40
0.4532294575186517
 40
0.6798858764746631
 40
0.9065224144874271
 40
1.0
 40
1.0
 40
1.0
 40
1.0
 10
220.3355356949674
 20
223.8369637246584
 30
0.0
 10
220.3675724152274
 20
223.833638990453
 30
0.0
 10
220.4316539144576
 20
223.8269886857186
 30
0.0
 10
220.5158162251503
 20
223.7752784633386
 30
0.0
 10
220.5769739183569
 20
223.6999207650783
 30
0.0
 10
220.6029395303754
 20
223.6251843853115
 30
0.0
 10
220.6049484258296
 20
223.5801246479201
 30
0.0
 10
220.6055350500451
 20
223.5669666047548
 30
0.0
  0
LINE
  5
AF
330
1F
100
AcDbEntity
  8
0
  6
Continuous
 62
     7
370
    15
100
AcDbLine
 10
220.60553505
 20
223.5669666048
 30
0.0
 11
220.60553505
 21
219.0869622941
 31
0.0
  0
LINE
  5
B0
330
1F
100
AcDbEntity
  8
0
  6
Continuous
 62
     7
370
    15
100
AcDbLine
 10
220.60553505
 20
219.0869622941
 30
0.0
 11
220.4855352539
 21
219.0869622941
 31
0.0
  0
LINE
  5
B1
330
1F
100
AcDbEntity
  8
0
  6
Continuous
 62
     7
370
    15
100
AcDbLine
 10
220.4855352539
 20
223.5669666048
 30
0.0
 11
220.4855352539
 21
219.0869622941
 31
0.0
  0
LINE
  5
B2
330
1F
100
AcDbEntity
  8
0
  6
Continuous
 62
     7
370
    15
100
AcDbLine
 10
198.365535577
 20
219.0869622941
 30
0.0
 11
198.4855361182
 21
219.0869622941
 31
0.0
  0
LINE
  5
B3
330
1F
100
AcDbEntity
  8
0
  6
Continuous
 62
     7
370
    15
100
AcDbLine
 10
198.365535577
 20
223.5669666048
 30
0.0
 11
198.365535577
 21
219.0869622941
 31
0.0
  0
LINE
  5
B4
330
1F
100
AcDbEntity
  8
0
  6
Continuous
 62
     7
370
    15
100
AcDbLine
 10
198.4855361182
 20
223.5669666048
 30
0.0
 11
198.4855361182
 21
219.0869622941
 31
0.0
  0
LINE
  5
B5
330
1F
100
AcDbEntity
  8
0
  6
Continuous
 62
     7
370
    15
100
AcDbLine
 10
220.335535695
 20
218.8169651742
 30
0.0
 11
218.255535503
 21
218.8169651742
 31
0.0
  0
ARC
  5
B6
330
1F
100
AcDbEntity
  8
0
  6
Continuous
 62
     7
370
    15
100
AcDbCircle
 10
220.3355353898
 20
219.0869647668
 30
0.0
 40
0.2700000000000102
100
AcDbArc
 50
270.0
 51
0.0
  0
LWPOLYLINE
  5
B7
330
1F
100
AcDbEntity
  8
0
  6
Continuous
 62
     7
370
    15
100
AcDbPolyline
 90
        3
 70
   128
 43
0.0
 10
220.4784646529
 20
219.0414481874
 10
220.4826533693
 20
219.0576964136
 10
220.4855352539
 20
219.0869622941
  0
LWPOLYLINE
  5
B8
330
1F
100
AcDbEntity
  8
0
  6
Continuous
 62
     7
370
    15
100
AcDbPolyline
 90
        7
 70
   128
 43
0.0
 10
218.0310360986
 20
218.9369612451
 10
218.0310387063
 20
218.9369612451
 10
218.0646166104
 20
218.8960486169
 10
218.1055314738
 20
218.8624673601
 10
218.1522108513
 20
218.8375168558
 10
218.2028610158
 20
218.8221507783
 10
218.255535503
 20
218.8169651742
  0
LINE
  5
B9
330
1F
100
AcDbEntity
  8
0
  6
Continuous
 62
     7
370
    15
100
AcDbLine
 10
200.7455356318
 20
218.8169651742
 30
0.0
 11
200.7455356318
 21
218.9369612451
 31
0.0
  0
LINE
  5
BA
330
1F
100
AcDbEntity
  8
0
  6
Continuous
 62
     7
370
    15
100
AcDbLine
 10
200.7455356318
 20
218.8169651742
 30
0.0
 11
198.6355356771
 21
218.8169651742
 31
0.0
  0
ARC
  5
BB
330
1F
100
AcDbEntity
  8
0
  6
Continuous
 62
     7
370
    15
100
AcDbCircle
 10
198.6355353898
 20
219.0869647668
 30
0.0
 40
0.2700000000000102
100
AcDbArc
 50
180.0
 51
270.0
  0
LWPOLYLINE
  5
BC
330
1F
100
AcDbEntity
  8
0
  6
Continuous
 62
     7
370
    15
100
AcDbPolyline
 90
        3
 70
   128
 43
0.0
 10
198.4855361182
 20
219.0869622941
 10
198.4884180027
 20
219.0576964136
 10
198.4926067191
 20
219.0414481874
  0
LWPOLYLINE
  5
BD
330
1F
100
AcDbEntity
  8
0
  6
Continuous
 62
     7
370
    15
100
AcDbPolyline
 90
        3
 70
   128
 43
0.0
 10
200.7455356318
 20
218.8624673601
 10
200.7718890804
 20
218.8825183626
 10
200.7829219002
 20
218.8925796266
  0
LINE
  5
BE
330
1F
100
AcDbEntity
  8
0
  6
Continuous
 62
     7
370
    15
100
AcDbLine
 10
235.8055360514
 20
202.8869622465
 30
0.0
 11
235.8055360514
 21
204.2869621034
 31
0.0
  0
LINE
  5
BF
330
1F
100
AcDbEntity
  8
0
  6
Continuous
 62
     7
370
    15
100
AcDbLine
 10
235.8055360514
 20
202.5869661088
 30
0.0
 11
236.0055349666
 21
202.5869661088
 31
0.0
  0
LINE
  5
C0
330
1F
100
AcDbEntity
  8
0
  6
Continuous
 62
     7
370
    15
100
AcDbLine
 10
235.8055360514
 20
202.5869661088
 30
0.0
 11
235.8055360514
 21
202.8869622465
 31
0.0
  0
LINE
  5
C1
330
1F
100
AcDbEntity
  8
0
  6
Continuous
 62
     7
370
    15
100
AcDbLine
 10
235.8055360514
 20
204.2869621034
 30
0.0
 11
235.8055360514
 21
204.5869642015
 31
0.0
  0
LINE
  5
C2
330
1F
100
AcDbEntity
  8
0
  6
Continuous
 62
     7
370
    15
100
AcDbLine
 10
235.8055360514
 20
204.5869642015
 30
0.0
 11
236.0055349666
 21
204.5869642015
 31
0.0
  0
LINE
  5
C3
330
1F
100
AcDbEntity
  8
0
  6
Continuous
 62
     7
370
    15
100
AcDbLine
 10
222.8055350381
 20
219.5869618173
 30
0.0
 11
222.8055350381
 21
219.6785741563
 31
0.0
  0
LINE
  5
C4
330
1F
100
AcDbEntity
  8
0
  6
Continuous
 62
     7
370
    15
100
AcDbLine
 10
222.5055351752
 20
219.5869618173
 30
0.0
 11
222.8055350381
 21
219.5869618173
 31
0.0
  0
LINE
  5
C5
330
1F
100
AcDbEntity
  8
0
  6
Continuous
 62
     7
370
    15
100
AcDbLine
 10
221.1055353183
 20
219.5869618173
 30
0.0
 11
222.5055351752
 21
219.5869618173
 31
0.0
  0
LINE
  5
C6
330
1F
100
AcDbEntity
  8
0
  6
Continuous
 62
     7
370
    15
100
AcDbLine
 10
220.8055354554
 20
219.5869618173
 30
0.0
 11
220.8055354554
 21
219.7869592424
 31
0.0
  0
LINE
  5
C7
330
1F
100
AcDbEntity
  8
0
  6
Continuous
 62
     7
370
    15
100
AcDbLine
 10
220.8055354554
 20
219.5869618173
 30
0.0
 11
221.1055353183
 21
219.5869618173
 31
0.0
  0
ARC
  5
C8
330
1F
100
AcDbEntity
  8
0
  6
Continuous
 62
     7
370
    15
100
AcDbCircle
 10
221.0055353898
 20
204.7869647668
 30
0.0
 40
18.00000000000003
100
AcDbArc
 50
0.0
 51
90.0
  0
LINE
  5
C9
330
1F
100
AcDbEntity
  8
0
  6
Continuous
 62
     7
370
    15
100
AcDbLine
 10
239.0055350858
 20
204.786967587
 30
0.0
 11
239.0055350858
 21
185.5987125154
 31
0.0
  0
ARC
  5
CA
330
1F
100
AcDbEntity
  8
0
  6
Continuous
 62
     7
370
    15
100
AcDbCircle
 10
221.0055353898
 20
204.7869647668
 30
0.0
 40
15.00000000000003
100
AcDbArc
 50
0.0
 51
90.0
  0
LINE
  5
CB
330
1F
100
AcDbEntity
  8
0
  6
Continuous
 62
     7
370
    15
100
AcDbLine
 10
236.0055349666
 20
204.786967587
 30
0.0
 11
236.0055349666
 21
185.6059902425
 31
0.0
  0
LINE
  5
CC
330
1F
100
AcDbEntity
  8
0
  6
Continuous
 62
     7
370
    15
100
AcDbLine
 10
221.0055351156
 20
222.7869683023
 30
0.0
 11
220.60553505
 21
222.7869683023
 31
0.0
  0
LINE
  5
CD
330
1F
100
AcDbEntity
  8
0
  6
Continuous
 62
     7
370
    15
100
AcDbLine
 10
220.4855352539
 20
222.7869683023
 30
0.0
 11
220.4784646529
 21
222.7869683023
 31
0.0
  0
LINE
  5
CE
330
1F
100
AcDbEntity
  8
0
  6
Continuous
 62
     7
370
    15
100
AcDbLine
 10
221.0055351156
 20
219.7869592424
 30
0.0
 11
220.60553505
 21
219.7869592424
 31
0.0
  0
LINE
  5
CF
330
1F
100
AcDbEntity
  8
0
  6
Continuous
 62
     7
370
    15
100
AcDbLine
 10
220.4855352539
 20
219.7869592424
 30
0.0
 11
220.4784646529
 21
219.7869592424
 31
0.0
  0
LINE
  5
D0
330
1F
100
AcDbEntity
  8
0
  6
Continuous
 62
     7
370
    15
100
AcDbLine
 10
245.6547997791
 20
152.2303574796
 30
0.0
 11
248.3890138465
 21
151.6269707199
 31
0.0
  0
ARC
  5
D1
330
1F
100
AcDbEntity
  8
0
  6
Continuous
 62
     7
370
    15
100
AcDbCircle
 10
245.6763483249
 20
152.3280081581
 30
0.0
 40
0.1000000000000321
100
AcDbArc
 50
167.5554394103
 51
257.5554394103
  0
LINE
  5
D2
330
1F
100
AcDbEntity
  8
0
  6
Continuous
 62
     7
370
    15
100
AcDbLine
 10
246.1820833284
 20
155.0837718959
 30
0.0
 11
245.5786965686
 21
152.3495578285
 31
0.0
  0
ARC
  5
D3
330
1F
100
AcDbEntity
  8
0
  6
Continuous
 62
     7
370
    15
100
AcDbCircle
 10
249.0139478366
 20
154.4588365181
 30
0.0
 40
0.100000000000026
100
AcDbArc
 50
347.5554394104
 51
77.5554394104
  0
LINE
  5
D4
330
1F
100
AcDbEntity
  8
0
  6
Continuous
 62
     7
370
    15
100
AcDbLine
 10
248.5082141954
 20
151.7030739303
 30
0.0
 11
249.1115979749
 21
154.4372879978
 31
0.0
  0
ARC
  5
D5
330
1F
100
AcDbEntity
  8
0
  6
Continuous
 62
     7
370
    15
100
AcDbCircle
 10
248.4105622608
 20
151.7246225823
 30
0.0
 40
0.1000000000000321
100
AcDbArc
 50
257.5554394104
 51
347.5554394103
  0
LINE
  5
D6
330
1F
100
AcDbEntity
  8
0
  6
Continuous
 62
     7
370
    15
100
AcDbLine
 10
249.0354977447
 20
154.5564883466
 30
0.0
 11
246.3012836772
 21
155.1598721261
 31
0.0
  0
ARC
  5
D7
330
1F
100
AcDbEntity
  8
0
  6
Continuous
 62
     7
370
    15
100
AcDbCircle
 10
246.2797339008
 20
155.0622220939
 30
0.0
 40
0.0999999999999921
100
AcDbArc
 50
77.5554394104
 51
167.5554394104
  0
LINE
  5
D8
330
1F
100
AcDbEntity
  8
0
  6
Continuous
 62
     7
370
    15
100
AcDbLine
 10
243.2828925449
 20
141.4756172414
 30
0.0
 11
246.0171811181
 21
140.8725672479
 31
0.0
  0
ARC
  5
D9
330
1F
100
AcDbEntity
  8
0
  6
Continuous
 62
     7
370
    15
100
AcDbCircle
 10
243.3044295037
 20
141.5732715996
 30
0.0
 40
0.1000000000000039
100
AcDbArc
 50
167.562466456
 51
257.5624664561
  0
ARC
  5
DA
330
1F
100
AcDbEntity
  8
0
  6
Continuous
 62
     7
370
    15
100
AcDbCircle
 10
246.6417676546
 20
143.7045092838
 30
0.0
 40
0.1000000000000316
100
AcDbArc
 50
347.5624664561
 51
77.562466456
  0
LINE
  5
DB
330
1F
100
AcDbEntity
  8
0
  6
Continuous
 62
     7
370
    15
100
AcDbLine
 10
246.1363695461
 20
140.9486823793
 30
0.0
 11
246.7394195396
 21
143.6829709526
 31
0.0
  0
ARC
  5
DC
330
1F
100
AcDbEntity
  8
0
  6
Continuous
 62
     7
370
    15
100
AcDbCircle
 10
246.0387174212
 20
140.9702213663
 30
0.0
 40
0.0999999999999978
100
AcDbArc
 50
257.5624664561
 51
347.5624664561
  0
LINE
  5
DD
330
1F
100
AcDbEntity
  8
0
  6
Continuous
 62
     7
370
    15
100
AcDbLine
 10
243.809827407
 20
144.3290972229
 30
0.0
 11
243.2067774135
 21
141.5948086496
 31
0.0
  0
LINE
  5
DE
330
1F
100
AcDbEntity
  8
0
  6
Continuous
 62
     7
370
    15
100
AcDbLine
 10
246.6633044082
 20
143.8021623607
 30
0.0
 11
243.9290158349
 21
144.4052123542
 31
0.0
  0
ARC
  5
DF
330
1F
100
AcDbEntity
  8
0
  6
Continuous
 62
     7
370
    15
100
AcDbCircle
 10
243.9074797371
 20
144.3075595172
 30
0.0
 40
0.1000000000000316
100
AcDbArc
 50
77.562466456
 51
167.562466456
  0
LINE
  5
E0
330
1F
100
AcDbEntity
  8
0
  6
Continuous
 62
     7
370
    15
100
AcDbLine
 10
248.0669401485
 20
163.1675236936
 30
0.0
 11
250.8011512357
 21
162.5641399141
 31
0.0
  0
ARC
  5
E1
330
1F
100
AcDbEntity
  8
0
  6
Continuous
 62
     7
370
    15
100
AcDbCircle
 10
248.0884881972
 20
163.2651733895
 30
0.0
 40
0.1000000000000043
100
AcDbArc
 50
167.5554394103
 51
257.5554394104
  0
LINE
  5
E2
330
1F
100
AcDbEntity
  8
0
  6
Continuous
 62
     7
370
    15
100
AcDbLine
 10
248.5942236978
 20
166.0209351297
 30
0.0
 11
247.990836938
 21
163.2867210622
 31
0.0
  0
ARC
  5
E3
330
1F
100
AcDbEntity
  8
0
  6
Continuous
 62
     7
370
    15
100
AcDbCircle
 10
251.4260877089
 20
165.3960017495
 30
0.0
 40
0.1000000000000537
100
AcDbArc
 50
347.5554394104
 51
77.5554394104
  0
LINE
  5
E4
330
1F
100
AcDbEntity
  8
0
  6
Continuous
 62
     7
370
    15
100
AcDbLine
 10
250.9203515846
 20
162.6402371641
 30
0.0
 11
251.5237383443
 21
165.3744512315
 31
0.0
  0
ARC
  5
E5
330
1F
100
AcDbEntity
  8
0
  6
Continuous
 62
     7
370
    15
100
AcDbCircle
 10
250.8227021331
 20
162.6617878137
 30
0.0
 40
0.1000000000000321
100
AcDbArc
 50
257.5554394103
 51
347.5554394103
  0
LINE
  5
E6
330
1F
100
AcDbEntity
  8
0
  6
Continuous
 62
     7
370
    15
100
AcDbLine
 10
251.4476381141
 20
165.4936545606
 30
0.0
 11
248.7134240466
 21
166.0970383401
 31
0.0
  0
ARC
  5
E7
330
1F
100
AcDbEntity
  8
0
  6
Continuous
 62
     7
370
    15
100
AcDbCircle
 10
248.6918737731
 20
165.9993873253
 30
0.0
 40
0.100000000000026
100
AcDbArc
 50
77.5554394104
 51
167.5554394104
  0
CIRCLE
  5
E8
330
1F
100
AcDbEntity
  8
0
  6
Continuous
 62
     7
370
    15
100
AcDbCircle
 10
240.8055353898
 20
173.6369647668
 30
0.0
 40
0.5999999999999793
  0
ARC
  5
E9
330
1F
100
AcDbEntity
  8
0
  6
Continuous
 62
     7
370
    15
100
AcDbCircle
 10
244.871508956
 20
172.657465764
 30
0.0
 40
0.3499999999999914
100
AcDbArc
 50
256.4554394104
 51
76.4554394104
  0
LINE
  5
EA
330
1F
100
AcDbEntity
  8
0
  6
Continuous
 62
     7
370
    15
100
AcDbLine
 10
242.0555345613
 20
173.6958497282
 30
0.0
 11
244.9534796077
 21
172.9977303262
 31
0.0
  0
LINE
  5
EB
330
1F
100
AcDbEntity
  8
0
  6
Continuous
 62
     7
370
    15
100
AcDbLine
 10
244.7895370323
 20
172.317200255
 30
0.0
 11
242.0555345613
 21
172.9758256193
 31
0.0
  0
ARC
  5
EC
330
1F
100
AcDbEntity
  8
0
  6
Continuous
 62
     7
370
    15
100
AcDbCircle
 10
246.1225478731
 20
171.0188988206
 30
0.0
 40
0.5000000000000033
100
AcDbArc
 50
166.4554394104
 51
256.4554394104
  0
LINE
  5
ED
330
1F
100
AcDbEntity
  8
0
  6
Continuous
 62
     7
370
    15
100
AcDbLine
 10
250.39004906
 20
169.4765501733
 30
0.0
 11
246.0054479438
 21
170.5328040834
 31
0.0
  0
ARC
  5
EE
330
1F
100
AcDbEntity
  8
0
  6
Continuous
 62
     7
370
    15
100
AcDbCircle
 10
250.2729487573
 20
168.9904535904
 30
0.0
 40
0.500000000000001
100
AcDbArc
 50
347.562466456
 51
76.4554394104
  0
LINE
  5
EF
330
1F
100
AcDbEntity
  8
0
  6
Continuous
 62
     7
370
    15
100
AcDbLine
 10
250.1255266267
 20
166.0004907365
 30
0.0
 11
250.7612131435
 21
168.8827687021
 31
0.0
  0
ARC
  5
F0
330
1F
100
AcDbEntity
  8
0
  6
Continuous
 62
     7
370
    15
100
AcDbCircle
 10
249.9302196967
 20
166.0435681885
 30
0.0
 40
0.1999999999999904
100
AcDbArc
 50
257.5554394104
 51
347.562466456
  0
LINE
  5
F1
330
1F
100
AcDbEntity
  8
0
  6
Continuous
 62
     7
370
    15
100
AcDbLine
 10
248.617928465
 20
166.1283546205
 30
0.0
 11
249.8871199685
 21
165.8482664342
 31
0.0
  0
LINE
  5
F2
330
1F
100
AcDbEntity
  8
0
  6
Continuous
 62
     7
370
    15
100
AcDbLine
 10
248.5942236978
 20
166.0209351297
 30
0.0
 11
248.617928465
 21
166.1283546205
 31
0.0
  0
LINE
  5
F3
330
1F
100
AcDbEntity
  8
0
  6
Continuous
 62
     7
370
    15
100
AcDbLine
 10
247.9671321708
 20
163.1793075319
 30
0.0
 11
247.990836938
 21
163.2867210622
 31
0.0
  0
LINE
  5
F4
330
1F
100
AcDbEntity
  8
0
  6
Continuous
 62
     7
370
    15
100
AcDbLine
 10
249.2367349464
 20
162.8991299386
 30
0.0
 11
247.9671321708
 21
163.1793075319
 31
0.0
  0
ARC
  5
F5
330
1F
100
AcDbEntity
  8
0
  6
Continuous
 62
     7
370
    15
100
AcDbCircle
 10
249.1936369061
 20
162.7038307784
 30
0.0
 40
0.2000000000000355
100
AcDbArc
 50
347.562466456
 51
77.5554394104
  0
LINE
  5
F6
330
1F
100
AcDbEntity
  8
0
  6
Continuous
 62
     7
370
    15
100
AcDbLine
 10
247.7133236724
 20
155.0633424039
 30
0.0
 11
249.3889443475
 21
162.6607530828
 31
0.0
  0
ARC
  5
F7
330
1F
100
AcDbEntity
  8
0
  6
Continuous
 62
     7
370
    15
100
AcDbCircle
 10
247.518018745
 20
155.1064164361
 30
0.0
 40
0.2000000000000355
100
AcDbArc
 50
257.5554394104
 51
347.562466456
  0
LINE
  5
F8
330
1F
100
AcDbEntity
  8
0
  6
Continuous
 62
     7
370
    15
100
AcDbLine
 10
246.2057880956
 20
155.1911884065
 30
0.0
 11
247.4749199945
 21
154.9111151214
 31
0.0
  0
LINE
  5
F9
330
1F
100
AcDbEntity
  8
0
  6
Continuous
 62
     7
370
    15
100
AcDbLine
 10
246.1820833284
 20
155.0837718959
 30
0.0
 11
246.2057880956
 21
155.1911884065
 31
0.0
  0
LINE
  5
FA
330
1F
100
AcDbEntity
  8
0
  6
Continuous
 62
     7
370
    15
100
AcDbLine
 10
245.5549947816
 20
152.2421413179
 30
0.0
 11
245.5786965686
 21
152.3495578285
 31
0.0
  0
LINE
  5
FB
330
1F
100
AcDbEntity
  8
0
  6
Continuous
 62
     7
370
    15
100
AcDbLine
 10
246.8245349723
 20
151.9619786258
 30
0.0
 11
245.5549947816
 21
152.2421413179
 31
0.0
  0
ARC
  5
FC
330
1F
100
AcDbEntity
  8
0
  6
Continuous
 62
     7
370
    15
100
AcDbCircle
 10
246.7814359544
 20
151.766679026
 30
0.0
 40
0.200000000000052
100
AcDbArc
 50
347.562466456
 51
77.5554394104
  0
LINE
  5
FD
330
1F
100
AcDbEntity
  8
0
  6
Continuous
 62
     7
370
    15
100
AcDbLine
 10
245.3011236984
 20
144.1261910911
 30
0.0
 11
246.9767413932
 21
151.7236047502
 31
0.0
  0
LINE
  5
FE
330
1F
100
AcDbEntity
  8
0
  6
Continuous
 62
     7
370
    15
100
AcDbLine
 10
245.2948592502
 20
144.1039734598
 30
0.0
 11
245.3011236984
 21
144.1261910911
 31
0.0
  0
LINE
  5
FF
330
1F
100
AcDbEntity
  8
0
  6
Continuous
 62
     7
370
    15
100
AcDbLine
 10
246.6102056104
 20
143.0966370817
 30
0.0
 11
246.6114632684
 21
143.1027972217
 31
0.0
  0
LINE
  5
100
330
1F
100
AcDbEntity
  8
0
  6
Continuous
 62
     7
370
    15
100
AcDbLine
 10
246.4378081161
 20
142.3154317852
 30
0.0
 11
246.6102056104
 21
143.0966370817
 31
0.0
  0
LINE
  5
101
330
1F
100
AcDbEntity
  8
0
  6
Continuous
 62
     7
370
    15
100
AcDbLine
 10
243.2713799077
 20
141.8877326961
 30
0.0
 11
242.9784290391
 21
141.9523798938
 31
0.0
  0
ARC
  5
102
330
1F
100
AcDbEntity
  8
0
  6
Continuous
 62
     7
370
    15
100
AcDbCircle
 10
243.0278360511
 20
141.7120889981
 30
0.0
 40
0.2000000000000016
100
AcDbArc
 50
256.4554394104
 51
347.562466456
  0
LINE
  5
103
330
1F
100
AcDbEntity
  8
0
  6
Continuous
 62
     7
370
    15
100
AcDbLine
 10
242.506366213
 20
141.631990027
 30
0.0
 11
242.9809950191
 21
141.5176504369
 31
0.0
  0
ARC
  5
104
330
1F
100
AcDbEntity
  8
0
  6
Continuous
 62
     7
370
    15
100
AcDbCircle
 10
242.9747706946
 20
143.5763661328
 30
0.0
 40
1.999999999999996
100
AcDbArc
 50
173.1903450232
 51
256.4554394104
  0
LWPOLYLINE
  5
105
330
1F
100
AcDbEntity
  8
0
  6
Continuous
 62
     7
370
    15
100
AcDbPolyline
 90
        3
 70
   128
 43
0.0
 10
240.591456731
 20
167.2138565298
 10
240.6096838313
 20
167.0949571844
 10
240.6823716956
 20
166.6093521829
  0
ARC
  5
106
330
1F
100
AcDbEntity
  8
0
  6
Continuous
 62
     7
370
    15
100
AcDbCircle
 10
155.1840416292
 20
154.0597811509
 30
0.0
 40
86.41444508833978
100
AcDbArc
 50
5.8498350702
 51
8.0004133308
  0
ARC
  5
107
330
1F
100
AcDbEntity
  8
0
  6
Continuous
 62
     7
370
    15
100
AcDbCircle
 10
155.1840416292
 20
154.0597811509
 30
0.0
 40
86.41444508833979
100
AcDbArc
 50
353.1903450232
 51
5.6675845667
  0
ARC
  5
108
330
1F
100
AcDbEntity
  8
0
  6
Continuous
 62
     7
370
    15
100
AcDbCircle
 10
240.803766293
 20
173.8431124573
 30
0.0
 40
0.9999999999999858
100
AcDbArc
 50
76.4554394104
 51
139.942390581
  0
LINE
  5
109
330
1F
100
AcDbEntity
  8
0
  6
Continuous
 62
     7
370
    15
100
AcDbLine
 10
245.7358650762
 20
173.6835711713
 30
0.0
 11
241.0379670459
 21
174.8153024431
 31
0.0
  0
ARC
  5
10A
330
1F
100
AcDbEntity
  8
0
  6
Continuous
 62
     7
370
    15
100
AcDbCircle
 10
245.6187628709
 20
173.1974764923
 30
0.0
 40
0.50000000000001
100
AcDbArc
 50
346.4554394104
 51
76.4554394104
  0
LINE
  5
10B
330
1F
100
AcDbEntity
  8
0
  6
Continuous
 62
     7
370
    15
100
AcDbLine
 10
245.6364534694
 20
171.1359971281
 30
0.0
 11
246.1048565704
 21
173.0803781267
 31
0.0
  0
LINE
  5
10C
330
1F
100
AcDbEntity
  8
0
  6
Continuous
 62
     7
370
    15
100
AcDbLine
 10
248.1935255128
 20
165.5973308797
 30
0.0
 11
247.8056333858
 21
163.8396256681
 31
0.0
  0
LINE
  5
10D
330
1F
100
AcDbEntity
  8
0
  6
Continuous
 62
     7
370
    15
100
AcDbLine
 10
248.5295735198
 20
165.7279842611
 30
0.0
 11
248.2366226512
 21
165.7926314588
 31
0.0
  0
LWPOLYLINE
  5
10E
330
1F
100
AcDbEntity
  8
0
  6
Continuous
 62
     7
370
    15
100
AcDbPolyline
 90
        9
 70
   128
 43
0.0
 10
248.2366226512
 20
165.7926314588
 10
248.2357941467
 20
165.7888823266
 10
248.2333414155
 20
165.7777660604
 10
248.2293598253
 20
165.759717774
 10
248.2240013677
 20
165.7354288812
 10
248.2174686986
 20
165.7058351751
 10
248.210018118
 20
165.6720691438
 10
248.201932748
 20
165.6354361291
 10
248.1935255128
 20
165.5973308797
  0
LINE
  5
10F
330
1F
100
AcDbEntity
  8
0
  6
Continuous
 62
     7
370
    15
100
AcDbLine
 10
248.055487116
 20
163.5796719308
 30
0.0
 11
247.7625332672
 21
163.644325089
 31
0.0
  0
LWPOLYLINE
  5
110
330
1F
100
AcDbEntity
  8
0
  6
Continuous
 62
     7
370
    15
100
AcDbPolyline
 90
        9
 70
   128
 43
0.0
 10
247.8056333858
 20
163.8396256681
 10
247.7972261506
 20
163.8015204187
 10
247.7891407806
 20
163.764887404
 10
247.7816902
 20
163.7311213727
 10
247.7751575309
 20
163.7015276666
 10
247.7697990733
 20
163.6772387739
 10
247.7658145028
 20
163.6591904874
 10
247.7633617717
 20
163.6480742212
 10
247.7625332672
 20
163.644325089
  0
LINE
  5
111
330
1F
100
AcDbEntity
  8
0
  6
Continuous
 62
     7
370
    15
100
AcDbLine
 10
246.1174361307
 20
154.7908210273
 30
0.0
 11
245.8244822818
 21
154.855468225
 31
0.0
  0
LWPOLYLINE
  5
112
330
1F
100
AcDbEntity
  8
0
  6
Continuous
 62
     7
370
    15
100
AcDbPolyline
 90
        9
 70
   128
 43
0.0
 10
245.8244822818
 20
154.855468225
 10
245.8236567575
 20
154.8517161127
 10
245.8212040264
 20
154.8406028266
 10
245.8172194558
 20
154.8225545402
 10
245.8118609983
 20
154.7982656475
 10
245.8053283292
 20
154.7686719413
 10
245.7978777486
 20
154.7349059101
 10
245.7897923786
 20
154.6982699151
 10
245.7813851434
 20
154.660167646
  0
LINE
  5
113
330
1F
100
AcDbEntity
  8
0
  6
Continuous
 62
     7
370
    15
100
AcDbLine
 10
245.7813851434
 20
154.660167646
 30
0.0
 11
245.3934930164
 21
152.9024594541
 31
0.0
  0
LINE
  5
114
330
1F
100
AcDbEntity
  8
0
  6
Continuous
 62
     7
370
    15
100
AcDbLine
 10
245.6433467466
 20
152.6425086971
 30
0.0
 11
245.350395878
 21
152.707158875
 31
0.0
  0
LWPOLYLINE
  5
115
330
1F
100
AcDbEntity
  8
0
  6
Continuous
 62
     7
370
    15
100
AcDbPolyline
 90
        9
 70
   128
 43
0.0
 10
245.3934930164
 20
152.9024594541
 10
245.3850857812
 20
152.8643571849
 10
245.3770004112
 20
152.82772119
 10
245.3695498306
 20
152.7939551588
 10
245.3630171615
 20
152.7643584724
 10
245.3576587039
 20
152.7400725599
 10
245.3536741334
 20
152.7220242734
 10
245.3512243825
 20
152.7109109874
 10
245.350395878
 20
152.707158875
  0
LINE
  5
116
330
1F
100
AcDbEntity
  8
0
  6
Continuous
 62
     7
370
    15
100
AcDbLine
 10
243.7452129918
 20
144.0361374135
 30
0.0
 11
243.4522531825
 21
144.1007488485
 31
0.0
  0
LWPOLYLINE
  5
117
330
1F
100
AcDbEntity
  8
0
  6
Continuous
 62
     7
370
    15
100
AcDbPolyline
 90
        9
 70
   128
 43
0.0
 10
243.409179886
 20
143.9054452892
 10
243.4175841409
 20
143.9435475584
 10
243.4256635505
 20
143.9801835533
 10
243.4331111509
 20
144.0139495845
 10
243.4396378595
 20
144.0435462709
 10
243.444996317
 20
144.0678351636
 10
243.4489749271
 20
144.0858834501
 10
243.4514276582
 20
144.0969967361
 10
243.4522531825
 20
144.1007488485
  0
LINE
  5
118
330
1F
100
AcDbEntity
  8
0
  6
Continuous
 62
     7
370
    15
100
AcDbLine
 10
243.0215053159
 20
142.1476864334
 30
0.0
 11
243.409179886
 21
143.9054452892
 31
0.0
  0
LINE
  5
119
330
1F
100
AcDbEntity
  8
0
  6
Continuous
 62
     7
370
    15
100
AcDbLine
 10
243.2713888484
 20
141.8877684589
 30
0.0
 11
242.9784290391
 21
141.9523798938
 31
0.0
  0
LWPOLYLINE
  5
11A
330
1F
100
AcDbEntity
  8
0
  6
Continuous
 62
     7
370
    15
100
AcDbPolyline
 90
        9
 70
   128
 43
0.0
 10
242.9784290391
 20
141.9523798938
 10
242.9792575437
 20
141.9561349864
 10
242.9817072946
 20
141.9672482725
 10
242.9856888849
 20
141.9852965589
 10
242.9910443622
 20
142.0095854516
 10
242.997574051
 20
142.039182138
 10
243.0050216514
 20
142.0729481693
 10
243.013101061
 20
142.1095841642
 10
243.0215053159
 20
142.1476864334
  0
LWPOLYLINE
  5
11B
330
1F
100
AcDbEntity
  8
0
  6
Continuous
 62
     7
370
    15
100
AcDbPolyline
 90
        9
 70
   128
 43
0.0
 10
248.2366226512
 20
165.7926314588
 10
248.2328705388
 20
165.7934599634
 10
248.2217572528
 20
165.7959156747
 10
248.2037089664
 20
165.799897265
 10
248.1794200736
 20
165.8052557226
 10
248.1498263675
 20
165.8117883916
 10
248.1160603362
 20
165.8192389722
 10
248.0794243413
 20
165.8273273225
 10
248.0413220722
 20
165.8357315774
  0
LWPOLYLINE
  5
11C
330
1F
100
AcDbEntity
  8
0
  6
Continuous
 62
     7
370
    15
100
AcDbPolyline
 90
        9
 70
   128
 43
0.0
 10
247.5672326881
 20
163.6874192472
 10
247.6053349573
 20
163.6790149923
 10
247.6419709522
 20
163.670926642
 10
247.6757369834
 20
163.6634760614
 10
247.7053336698
 20
163.6569433923
 10
247.7296195823
 20
163.6515849348
 10
247.7476678687
 20
163.6476033445
 10
247.7587811548
 20
163.6451535936
 10
247.7625332672
 20
163.644325089
  0
LWPOLYLINE
  5
11D
330
1F
100
AcDbEntity
  8
0
  6
Continuous
 62
     7
370
    15
100
AcDbPolyline
 90
        9
 70
   128
 43
0.0
 10
245.8244822818
 20
154.855468225
 10
245.8207301694
 20
154.8562967296
 10
245.8096168834
 20
154.8587494607
 10
245.791568597
 20
154.862731051
 10
245.7672797042
 20
154.8680924888
 10
245.7376859981
 20
154.8746221776
 10
245.7039199668
 20
154.8820727582
 10
245.6672839719
 20
154.8901581283
 10
245.6291817027
 20
154.8985683437
  0
LWPOLYLINE
  5
11E
330
1F
100
AcDbEntity
  8
0
  6
Continuous
 62
     7
370
    15
100
AcDbPolyline
 90
        9
 70
   128
 43
0.0
 10
245.1550923187
 20
152.7502560134
 10
245.1931945878
 20
152.7418487783
 10
245.229833563
 20
152.7337634082
 10
245.263596614
 20
152.7263128276
 10
245.2931933004
 20
152.7197801586
 10
245.3174792129
 20
152.714421701
 10
245.3355274993
 20
152.7104371305
 10
245.3466407853
 20
152.7079843994
 10
245.350395878
 20
152.707158875
  0
LWPOLYLINE
  5
11F
330
1F
100
AcDbEntity
  8
0
  6
Continuous
 62
     7
370
    15
100
AcDbPolyline
 90
        9
 70
   128
 43
0.0
 10
242.7831224996
 20
141.9954561706
 10
242.8212247688
 20
141.9870519157
 10
242.8578637439
 20
141.9789725061
 10
242.8916297752
 20
141.9715249057
 10
242.9212264615
 20
141.9649981971
 10
242.9455153543
 20
141.9596397396
 10
242.9635636407
 20
141.9556611295
 10
242.9746769267
 20
141.9532083984
 10
242.9784290391
 20
141.9523798938
  0
LWPOLYLINE
  5
120
330
1F
100
AcDbEntity
  8
0
  6
Continuous
 62
     7
370
    15
100
AcDbPolyline
 90
        9
 70
   128
 43
0.0
 10
243.4522531825
 20
144.1007488485
 10
243.4485010702
 20
144.101577353
 10
243.4373877841
 20
144.1040300842
 10
243.4193394977
 20
144.1080086942
 10
243.395050605
 20
144.1133671518
 10
243.3654539186
 20
144.1198938604
 10
243.3316878873
 20
144.1273414607
 10
243.2950518924
 20
144.1354208703
 10
243.2569496232
 20
144.1438251253
  0
LINE
  5
121
330
1F
100
AcDbEntity
  8
0
  6
Continuous
 62
     7
370
    15
100
AcDbLine
 10
242.0555345613
 20
172.9758256193
 30
0.0
 11
244.7873107988
 21
172.3177366968
 31
0.0
  0
ARC
  5
122
330
1F
100
AcDbEntity
  8
0
  6
Continuous
 62
     7
370
    15
100
AcDbCircle
 10
244.8692815187
 20
172.6580023569
 30
0.0
 40
0.3499999999999981
100
AcDbArc
 50
256.4554394104
 51
76.4554394104
  0
LINE
  5
123
330
1F
100
AcDbEntity
  8
0
  6
Continuous
 62
     7
370
    15
100
AcDbLine
 10
244.9512533742
 20
172.998266768
 30
0.0
 11
242.0555345613
 21
173.6958497282
 31
0.0
  0
LINE
  5
124
330
1F
100
AcDbEntity
  8
0
  6
Continuous
 62
     7
370
    15
100
AcDbLine
 10
242.9568909007
 20
141.8547266241
 30
0.0
 11
243.24985071
 21
141.7901151891
 31
0.0
  0
LWPOLYLINE
  5
125
330
1F
100
AcDbEntity
  8
0
  6
Continuous
 62
     7
370
    15
100
AcDbPolyline
 90
        3
 70
   128
 43
0.0
 10
240.591456731
 20
167.2138565298
 10
240.6096838313
 20
167.0949571844
 10
240.6823716956
 20
166.6093521829
  0
LINE
  5
126
330
1F
100
AcDbEntity
  8
0
  6
Continuous
 62
     7
370
    15
100
AcDbLine
 10
248.5511235792
 20
165.8256345506
 30
0.0
 11
248.2581727105
 21
165.8902817483
 31
0.0
  0
LINE
  5
127
330
1F
100
AcDbEntity
  8
0
  6
Continuous
 62
     7
370
    15
100
AcDbLine
 10
248.2581727105
 20
165.8902817483
 30
0.0
 11
248.2366226512
 21
165.7926314588
 31
0.0
  0
LINE
  5
128
330
1F
100
AcDbEntity
  8
0
  6
Continuous
 62
     7
370
    15
100
AcDbLine
 10
247.7625332672
 20
163.644325089
 30
0.0
 11
247.7409861881
 21
163.5466747995
 31
0.0
  0
LINE
  5
129
330
1F
100
AcDbEntity
  8
0
  6
Continuous
 62
     7
370
    15
100
AcDbLine
 10
247.7409861881
 20
163.5466747995
 30
0.0
 11
248.0339370567
 21
163.4820216413
 31
0.0
  0
LINE
  5
12A
330
1F
100
AcDbEntity
  8
0
  6
Continuous
 62
     7
370
    15
100
AcDbLine
 10
246.1389832097
 20
154.8884713169
 30
0.0
 11
245.8460323411
 21
154.9531185146
 31
0.0
  0
LINE
  5
12B
330
1F
100
AcDbEntity
  8
0
  6
Continuous
 62
     7
370
    15
100
AcDbLine
 10
245.8460323411
 20
154.9531185146
 30
0.0
 11
245.8244822818
 21
154.855468225
 31
0.0
  0
LINE
  5
12C
330
1F
100
AcDbEntity
  8
0
  6
Continuous
 62
     7
370
    15
100
AcDbLine
 10
245.350395878
 20
152.707158875
 30
0.0
 11
245.3288458186
 21
152.6095056053
 31
0.0
  0
LINE
  5
12D
330
1F
100
AcDbEntity
  8
0
  6
Continuous
 62
     7
370
    15
100
AcDbLine
 10
245.3288458186
 20
152.6095056053
 30
0.0
 11
245.6217966873
 21
152.5448584075
 31
0.0
  0
LINE
  5
12E
330
1F
100
AcDbEntity
  8
0
  6
Continuous
 62
     7
370
    15
100
AcDbLine
 10
245.3441999751
 20
144.3214946504
 30
0.0
 11
246.9767413932
 21
151.7236047502
 31
0.0
  0
ARC
  5
12F
330
1F
100
AcDbEntity
  8
0
  6
Continuous
 62
     7
370
    15
100
AcDbCircle
 10
245.1488928103
 20
144.3645709649
 30
0.0
 40
0.2000000000000181
100
AcDbArc
 50
257.5554394104
 51
347.562466456
  0
LINE
  5
130
330
1F
100
AcDbEntity
  8
0
  6
Continuous
 62
     7
370
    15
100
AcDbLine
 10
243.8363604146
 20
144.4494091983
 30
0.0
 11
245.105793317
 21
144.1692703481
 31
0.0
  0
LINE
  5
131
330
1F
100
AcDbEntity
  8
0
  6
Continuous
 62
     7
370
    15
100
AcDbLine
 10
243.809827407
 20
144.3290972229
 30
0.0
 11
243.8363604146
 21
144.4494091983
 31
0.0
  0
LINE
  5
132
330
1F
100
AcDbEntity
  8
0
  6
Continuous
 62
     7
370
    15
100
AcDbLine
 10
243.7667421895
 20
144.1337549205
 30
0.0
 11
243.4738032419
 21
144.1984021183
 31
0.0
  0
LINE
  5
133
330
1F
100
AcDbEntity
  8
0
  6
Continuous
 62
     7
370
    15
100
AcDbLine
 10
243.4738032419
 20
144.1984021183
 30
0.0
 11
243.4522531825
 21
144.1007488485
 31
0.0
  0
LINE
  5
134
330
1F
100
AcDbEntity
  8
0
  6
Continuous
 62
     7
370
    15
100
AcDbLine
 10
242.9784290391
 20
141.9523798938
 30
0.0
 11
242.9568909007
 21
141.8547266241
 31
0.0
  0
LINE
  5
135
330
1F
100
AcDbEntity
  8
0
  6
Continuous
 62
     7
370
    15
100
AcDbLine
 10
241.5555350381
 20
166.0869651552
 30
0.0
 11
240.0555364686
 21
166.0869651552
 31
0.0
  0
ARC
  5
136
330
1F
100
AcDbEntity
  8
0
  6
Continuous
 62
     7
370
    15
100
AcDbCircle
 10
240.0555353898
 20
166.5869647668
 30
0.0
 40
0.5
100
AcDbArc
 50
180.0
 51
270.0
  0
LINE
  5
137
330
1F
100
AcDbEntity
  8
0
  6
Continuous
 62
     7
370
    15
100
AcDbLine
 10
240.0555364686
 20
174.4869642969
 30
0.0
 11
241.5555350381
 21
174.4869642969
 31
0.0
  0
ARC
  5
138
330
1F
100
AcDbEntity
  8
0
  6
Continuous
 62
     7
370
    15
100
AcDbCircle
 10
241.5555353898
 20
173.9869647668
 30
0.0
 40
0.5
100
AcDbArc
 50
0.0
 51
90.0
  0
LINE
  5
139
330
1F
100
AcDbEntity
  8
0
  6
Continuous
 62
     7
370
    15
100
AcDbLine
 10
242.0555345613
 20
173.9869647737
 30
0.0
 11
242.0555345613
 21
166.5869646783
 31
0.0
  0
ARC
  5
13A
330
1F
100
AcDbEntity
  8
0
  6
Continuous
 62
     7
370
    15
100
AcDbCircle
 10
241.5555353898
 20
166.5869647668
 30
0.0
 40
0.5
100
AcDbArc
 50
270.0
 51
0.0
  0
CIRCLE
  5
13B
330
1F
100
AcDbEntity
  8
0
  6
Continuous
 62
     7
370
    15
100
AcDbCircle
 10
240.8055353898
 20
166.9369647668
 30
0.0
 40
0.3499999999999943
  0
ARC
  5
13C
330
1F
100
AcDbEntity
  8
0
  6
Continuous
 62
     7
370
    15
100
AcDbCircle
 10
240.0555353898
 20
173.9869647668
 30
0.0
 40
0.5
100
AcDbArc
 50
90.0
 51
180.0
  0
LINE
  5
13D
330
1F
100
AcDbEntity
  8
0
  6
Continuous
 62
     7
370
    15
100
AcDbLine
 10
239.5555339652
 20
176.7869644876
 30
0.0
 11
239.2555348474
 21
176.7869644876
 31
0.0
  0
LINE
  5
13E
330
1F
100
AcDbEntity
  8
0
  6
Continuous
 62
     7
370
    15
100
AcDbLine
 10
239.5555339652
 20
176.7869644876
 30
0.0
 11
239.5555339652
 21
176.2869649644
 31
0.0
  0
LINE
  5
13F
330
1F
100
AcDbEntity
  8
0
  6
Continuous
 62
     7
370
    15
100
AcDbLine
 10
239.5555339652
 20
176.2869649644
 30
0.0
 11
239.5555339652
 21
164.0179031606
 31
0.0
  0
ARC
  5
140
330
1F
100
AcDbEntity
  8
0
  6
Continuous
 62
     7
370
    15
100
AcDbCircle
 10
239.9555353898
 20
164.0179048745
 30
0.0
 40
0.4000000000000069
100
AcDbArc
 50
180.0
 51
240.0
  0
ARC
  5
141
330
1F
100
AcDbEntity
  8
0
  6
Continuous
 62
     7
370
    15
100
AcDbCircle
 10
239.9555353898
 20
164.0179048745
 30
0.0
 40
0.700000000000017
100
AcDbArc
 50
180.0
 51
240.0
  0
LINE
  5
142
330
1F
100
AcDbEntity
  8
0
  6
Continuous
 62
     7
370
    15
100
AcDbLine
 10
240.7045744258
 20
162.7771549936
 30
0.0
 11
239.6055363017
 21
163.4116881605
 31
0.0
  0
LINE
  5
143
330
1F
100
AcDbEntity
  8
0
  6
Continuous
 62
     7
370
    15
100
AcDbLine
 10
240.8545724946
 20
163.0369656797
 30
0.0
 11
239.7555343706
 21
163.6714928861
 31
0.0
  0
LINE
  5
144
330
1F
100
AcDbEntity
  8
0
  6
Continuous
 62
     7
370
    15
100
AcDbLine
 10
241.137587269
 20
162.527155232
 30
0.0
 11
241.2875853378
 21
162.7869659181
 31
0.0
  0
LWPOLYLINE
  5
145
330
1F
100
AcDbEntity
  8
0
  6
Continuous
 62
     7
370
    15
100
AcDbPolyline
 90
        9
 70
   128
 43
0.0
 10
241.137587269
 20
162.527155232
 10
241.1292664605
 20
162.5319593664
 10
241.1046259004
 20
162.5461869951
 10
241.0646103221
 20
162.5692897554
 10
241.0107605058
 20
162.6003795381
 10
240.9451417524
 20
162.6382642503
 10
240.8702812988
 20
162.6814835783
 10
240.7890491086
 20
162.7283864732
 10
240.7045744258
 20
162.7771549936
  0
LWPOLYLINE
  5
146
330
1F
100
AcDbEntity
  8
0
  6
Continuous
 62
     7
370
    15
100
AcDbPolyline
 90
        9
 70
   128
 43
0.0
 10
241.2875853378
 20
162.7869659181
 10
241.2792645294
 20
162.7917700525
 10
241.2546239692
 20
162.8059976812
 10
241.2146113712
 20
162.829094481
 10
241.1607585746
 20
162.8601902242
 10
241.0951428014
 20
162.8980749364
 10
241.0202793676
 20
162.9412942644
 10
240.9390501577
 20
162.9881911989
 10
240.8545724946
 20
163.0369656797
  0
SPLINE
  5
147
330
1F
100
AcDbEntity
  8
0
  6
Continuous
 62
     7
370
    15
100
AcDbSpline
210
0.0
220
0.0
230
1.0
 70
     8
 71
     3
 72
    12
 73
     8
 74
     0
 42
0.00000001
 43
0.00000001
 40
0.0
 40
0.0
 40
0.0
 40
0.0
 40
0.2132026463169637
 40
0.444154492529344
 40
0.675114471138631
 40
0.9060912687673255
 40
1.0
 40
1.0
 40
1.0
 40
1.0
 10
175.6755344468461
 20
114.1569645221685
 30
0.0
 10
175.6653809732053
 20
114.1313030590812
 30
0.0
 10
175.6442287454526
 20
114.0778438065249
 30
0.0
 10
175.6120345422868
 20
114.0058390957337
 30
0.0
 10
175.5790267582956
 20
113.9519892705031
 30
0.0
 10
175.5524805454508
 20
113.9292157680708
 30
0.0
 10
175.5370621912095
 20
113.9274697800402
 30
0.0
 10
175.532605488907
 20
113.9269650991415
 30
0.0
  0
LINE
  5
148
330
1F
100
AcDbEntity
  8
0
  6
Continuous
 62
     7
370
    15
100
AcDbLine
 10
175.5326054889
 20
113.9269650991
 30
0.0
 11
175.5326054889
 21
114.0069649632
 31
0.0
  0
SPLINE
  5
149
330
1F
100
AcDbEntity
  8
0
  6
Continuous
 62
     7
370
    15
100
AcDbSpline
210
0.0
220
0.0
230
1.0
 70
     8
 71
     3
 72
    11
 73
     7
 74
     0
 42
0.00000001
 43
0.00000001
 40
0.0
 40
0.0
 40
0.0
 40
0.0
 40
0.2512804025616269
 40
0.5027612421113502
 40
0.7542453693433401
 40
1.0
 40
1.0
 40
1.0
 40
1.0
 10
175.6755344468461
 20
114.1569645221685
 30
0.0
 10
175.6635615790979
 20
114.1372075813553
 30
0.0
 10
175.6396062932923
 20
114.0976779403553
 30
0.0
 10
175.6036735033349
 20
114.0479058691743
 30
0.0
 10
175.5679947171994
 20
114.0135547215451
 30
0.0
 10
175.5443109318656
 20
114.0091446106565
 30
0.0
 10
175.532605488907
 20
114.0069649632429
 30
0.0
  0
LINE
  5
14A
330
1F
100
AcDbEntity
  8
0
  6
Continuous
 62
     7
370
    15
100
AcDbLine
 10
239.2555348474
 20
114.1569645222
 30
0.0
 11
239.2555348474
 21
180.3597920652
 31
0.0
  0
LINE
  5
14B
330
1F
100
AcDbEntity
  8
0
  6
Continuous
 62
     7
370
    15
100
AcDbLine
 10
239.2555348474
 20
114.0169651325
 30
0.0
 11
239.2555348474
 21
114.1569645222
 31
0.0
  0
LINE
  5
14C
330
1F
100
AcDbEntity
  8
0
  6
Continuous
 62
     7
370
    15
100
AcDbLine
 10
239.2555348474
 20
114.0169651325
 30
0.0
 11
239.0255354244
 21
114.0169651325
 31
0.0
  0
LINE
  5
14D
330
1F
100
AcDbEntity
  8
0
  6
Continuous
 62
     7
370
    15
100
AcDbLine
 10
239.0255354244
 20
114.0169651325
 30
0.0
 11
239.0255354244
 21
114.1569645222
 31
0.0
  0
LINE
  5
14E
330
1F
100
AcDbEntity
  8
0
  6
Continuous
 62
     7
370
    15
100
AcDbLine
 10
175.4455350238
 20
180.3369634862
 30
0.0
 11
175.4455350238
 21
179.786967587
 31
0.0
  0
SPLINE
  5
14F
330
1F
100
AcDbEntity
  8
0
  6
Continuous
 62
     7
370
    15
100
AcDbSpline
210
0.0
220
0.0
230
1.0
 70
     8
 71
     3
 72
    10
 73
     6
 74
     0
 42
0.00000001
 43
0.00000001
 40
0.0
 40
0.0
 40
0.0
 40
0.0
 40
0.2725942944632068
 40
0.6362973171416267
 40
1.0
 40
1.0
 40
1.0
 40
1.0
 10
175.4755340415346
 20
114.0587211664175
 30
0.0
 10
175.4867552183492
 20
114.0676472802563
 30
0.0
 10
175.5129480068533
 20
114.0884828678071
 30
0.0
 10
175.5858179854351
 20
114.1212325014234
 30
0.0
 10
175.645628969023
 20
114.1450538522963
 30
0.0
 10
175.6755344468461
 20
114.1569645221685
 30
0.0
  0
SPLINE
  5
150
330
1F
100
AcDbEntity
  8
0
  6
Continuous
 62
     7
370
    15
100
AcDbSpline
210
0.0
220
0.0
230
1.0
 70
     8
 71
     3
 72
    11
 73
     7
 74
     0
 42
0.00000001
 43
0.00000001
 40
0.0
 40
0.0
 40
0.0
 40
0.0
 40
0.2500081010626927
 40
0.4999997877241552
 40
0.7499991850691855
 40
0.9999999999999999
 40
0.9999999999999999
 40
0.9999999999999999
 40
0.9999999999999999
 10
175.5255363780366
 20
114.0140355642294
 30
0.0
 10
175.5277907255875
 20
114.0259460762024
 30
0.0
 10
175.5322992726788
 20
114.0497663181583
 30
0.0
 10
175.5669855992554
 20
114.0855008785508
 30
0.0
 10
175.6165685859826
 20
114.1212322838753
 30
0.0
 10
175.6558791227409
 20
114.1450537535581
 30
0.0
 10
175.6755344468461
 20
114.1569645221685
 30
0.0
  0
LINE
  5
151
330
1F
100
AcDbEntity
  8
0
  6
Continuous
 62
     7
370
    15
100
AcDbLine
 10
175.4755340415
 20
114.0140355642
 30
0.0
 11
175.525536378
 21
114.0140355642
 31
0.0
  0
SPLINE
  5
152
330
1F
100
AcDbEntity
  8
0
  6
Continuous
 62
     7
370
    15
100
AcDbSpline
210
0.0
220
0.0
230
1.0
 70
     8
 71
     3
 72
    11
 73
     7
 74
     0
 42
0.00000001
 43
0.00000001
 40
0.0
 40
0.0
 40
0.0
 40
0.0
 40
0.2500025738149473
 40
0.5000065686205181
 40
0.7499990064295347
 40
1.0
 40
1.0
 40
1.0
 40
1.0
 10
238.954823454033
 20
113.9269650991415
 30
0.0
 10
238.9607163099099
 20
113.9304223551237
 30
0.0
 10
238.972502055158
 20
113.9373368867388
 30
0.0
 10
238.9901814374155
 20
113.9905217963893
 30
0.0
 10
239.0078560994451
 20
114.0665515388782
 30
0.0
 10
239.0196422488294
 20
114.1268265172683
 30
0.0
 10
239.0255354243623
 20
114.1569645221685
 30
0.0
  0
LINE
  5
153
330
1F
100
AcDbEntity
  8
0
  6
Continuous
 62
     7
370
    15
100
AcDbLine
 10
175.5326054889
 20
113.9269650991
 30
0.0
 11
238.954823454
 21
113.9269650991
 31
0.0
  0
LINE
  5
154
330
1F
100
AcDbEntity
  8
0
  6
Continuous
 62
     7
370
    15
100
AcDbLine
 10
239.0255354244
 20
113.9269650991
 30
0.0
 11
239.0255354244
 21
114.0069649632
 31
0.0
  0
SPLINE
  5
155
330
1F
100
AcDbEntity
  8
0
  6
Continuous
 62
     7
370
    15
100
AcDbSpline
210
0.0
220
0.0
230
1.0
 70
     8
 71
     3
 72
     9
 73
     5
 74
     0
 42
0.00000001
 43
0.00000001
 40
0.0
 40
0.0
 40
0.0
 40
0.0
 40
0.9711243607852104
 40
1.0
 40
1.0
 40
1.0
 40
1.0
 10
239.0255354243623
 20
114.0069649632429
 30
0.0
 10
239.0438164032159
 20
114.0072357359233
 30
0.0
 10
239.0626409529768
 20
114.007514559822
 30
0.0
 10
239.0781940570357
 20
114.0166998999524
 30
0.0
 10
239.0786431628572
 20
114.0169651325201
 30
0.0
  0
SPLINE
  5
156
330
1F
100
AcDbEntity
  8
0
  6
Continuous
 62
     7
370
    15
100
AcDbSpline
210
0.0
220
0.0
230
1.0
 70
     8
 71
     3
 72
    10
 73
     6
 74
     0
 42
0.00000001
 43
0.00000001
 40
0.0
 40
0.0
 40
0.0
 40
0.0
 40
0.3797568441378579
 40
0.7595439190892566
 40
1.0
 40
1.0
 40
1.0
 40
1.0
 10
239.0255354243623
 20
113.9269650991415
 30
0.0
 10
239.0517229141824
 20
113.9297385487227
 30
0.0
 10
239.1040999784964
 20
113.9352856686676
 30
0.0
 10
239.1675776232531
 20
113.9696435441592
 30
0.0
 10
239.1938486812373
 20
114.003744760997
 30
0.0
 10
239.2040334540712
 20
114.0169651325201
 30
0.0
  0
LINE
  5
157
330
1F
100
AcDbEntity
  8
0
  6
Continuous
 62
     7
370
    15
100
AcDbLine
 10
238.9931730825
 20
114.0069649632
 30
0.0
 11
239.0255354244
 21
114.0069649632
 31
0.0
  0
LINE
  5
158
330
1F
100
AcDbEntity
  8
0
  6
Continuous
 62
     7
370
    15
100
AcDbLine
 10
238.954823454
 20
113.9269650991
 30
0.0
 11
239.0255354244
 21
113.9269650991
 31
0.0
  0
LINE
  5
159
330
1F
100
AcDbEntity
  8
0
  6
Continuous
 62
     7
370
    15
100
AcDbLine
 10
174.0455351669
 20
178.0403846021
 30
0.0
 11
174.0455351669
 21
178.8403862234
 31
0.0
  0
LINE
  5
15A
330
1F
100
AcDbEntity
  8
0
  6
Continuous
 62
     7
370
    15
100
AcDbLine
 10
174.0455351669
 20
178.8403862234
 30
0.0
 11
174.0955345231
 21
178.8403862234
 31
0.0
  0
LINE
  5
15B
330
1F
100
AcDbEntity
  8
0
  6
Continuous
 62
     7
370
    15
100
AcDbLine
 10
174.0455351669
 20
138.640385222
 30
0.0
 11
174.0455351669
 21
178.0403846021
 31
0.0
  0
LINE
  5
15C
330
1F
100
AcDbEntity
  8
0
  6
Continuous
 62
     7
370
    15
100
AcDbLine
 10
174.0455351669
 20
137.840386581
 30
0.0
 11
174.0955345231
 21
137.840386581
 31
0.0
  0
LINE
  5
15D
330
1F
100
AcDbEntity
  8
0
  6
Continuous
 62
     7
370
    15
100
AcDbLine
 10
174.0455351669
 20
137.840386581
 30
0.0
 11
174.0455351669
 21
138.640385222
 31
0.0
  0
LINE
  5
15E
330
1F
100
AcDbEntity
  8
0
  6
Continuous
 62
     7
370
    15
100
AcDbLine
 10
174.0355364877
 20
138.640385222
 30
0.0
 11
174.0355364877
 21
178.0403846021
 31
0.0
  0
LINE
  5
15F
330
1F
100
AcDbEntity
  8
0
  6
Continuous
 62
     7
370
    15
100
AcDbLine
 10
174.0355364877
 20
178.4903877492
 30
0.0
 11
174.0455351669
 21
178.4903877492
 31
0.0
  0
LINE
  5
160
330
1F
100
AcDbEntity
  8
0
  6
Continuous
 62
     7
370
    15
100
AcDbLine
 10
174.0355364877
 20
178.0403846021
 30
0.0
 11
174.0355364877
 21
178.4903877492
 31
0.0
  0
LINE
  5
161
330
1F
100
AcDbEntity
  8
0
  6
Continuous
 62
     7
370
    15
100
AcDbLine
 10
174.0355364877
 20
138.1903880353
 30
0.0
 11
174.0455351669
 21
138.1903880353
 31
0.0
  0
LINE
  5
162
330
1F
100
AcDbEntity
  8
0
  6
Continuous
 62
     7
370
    15
100
AcDbLine
 10
174.0355364877
 20
138.1903880353
 30
0.0
 11
174.0355364877
 21
138.640385222
 31
0.0
  0
LINE
  5
163
330
1F
100
AcDbEntity
  8
0
  6
Continuous
 62
     7
370
    15
100
AcDbLine
 10
173.6955366927
 20
165.3003864999
 30
0.0
 11
173.8455347616
 21
165.3003864999
 31
0.0
  0
LINE
  5
164
330
1F
100
AcDbEntity
  8
0
  6
Continuous
 62
     7
370
    15
100
AcDbLine
 10
173.6955366927
 20
167.5403886552
 30
0.0
 11
173.8455347616
 21
167.5403886552
 31
0.0
  0
LINE
  5
165
330
1F
100
AcDbEntity
  8
0
  6
Continuous
 62
     7
370
    15
100
AcDbLine
 10
173.6455343562
 20
165.450387549
 30
0.0
 11
173.6455343562
 21
167.3903876062
 31
0.0
  0
LINE
  5
166
330
1F
100
AcDbEntity
  8
0
  6
Continuous
 62
     7
370
    15
100
AcDbLine
 10
173.6455343562
 20
165.3503888364
 30
0.0
 11
173.6455343562
 21
165.450387549
 31
0.0
  0
ARC
  5
167
330
1F
100
AcDbEntity
  8
0
  6
Continuous
 62
     7
370
    15
100
AcDbCircle
 10
173.6955353898
 20
165.350386609
 30
0.0
 40
0.0500000000000114
100
AcDbArc
 50
180.0
 51
270.0
  0
LINE
  5
168
330
1F
100
AcDbEntity
  8
0
  6
Continuous
 62
     7
370
    15
100
AcDbLine
 10
173.6455343562
 20
167.3903876062
 30
0.0
 11
173.6455343562
 21
167.4903863187
 31
0.0
  0
ARC
  5
169
330
1F
100
AcDbEntity
  8
0
  6
Continuous
 62
     7
370
    15
100
AcDbCircle
 10
173.6955353898
 20
167.490386609
 30
0.0
 40
0.0500000000000114
100
AcDbArc
 50
90.0
 51
180.0
  0
LINE
  5
16A
330
1F
100
AcDbEntity
  8
0
  6
Continuous
 62
     7
370
    15
100
AcDbLine
 10
173.6445359784
 20
165.895628285
 30
0.0
 11
173.6455343562
 21
165.895628285
 31
0.0
  0
LINE
  5
16B
330
1F
100
AcDbEntity
  8
0
  6
Continuous
 62
     7
370
    15
100
AcDbLine
 10
173.6445359784
 20
166.0794668909
 30
0.0
 11
173.6455343562
 21
166.0794668909
 31
0.0
  0
LINE
  5
16C
330
1F
100
AcDbEntity
  8
0
  6
Continuous
 62
     7
370
    15
100
AcDbLine
 10
173.6445359784
 20
165.7115154977
 30
0.0
 11
173.6455343562
 21
165.7115154977
 31
0.0
  0
LINE
  5
16D
330
1F
100
AcDbEntity
  8
0
  6
Continuous
 62
     7
370
    15
100
AcDbLine
 10
173.6445359784
 20
166.7839699502
 30
0.0
 11
173.6455343562
 21
166.7839699502
 31
0.0
  0
LINE
  5
16E
330
1F
100
AcDbEntity
  8
0
  6
Continuous
 62
     7
370
    15
100
AcDbLine
 10
173.6445359784
 20
167.1339684244
 30
0.0
 11
173.6445359784
 21
166.7839699502
 31
0.0
  0
LINE
  5
16F
330
1F
100
AcDbEntity
  8
0
  6
Continuous
 62
     7
370
    15
100
AcDbLine
 10
173.6445359784
 20
167.1339684244
 30
0.0
 11
173.6455343562
 21
167.1339684244
 31
0.0
  0
LINE
  5
170
330
1F
100
AcDbEntity
  8
0
  6
Continuous
 62
     7
370
    15
100
AcDbLine
 10
173.6455343562
 20
157.4503892179
 30
0.0
 11
173.6455343562
 21
159.3903892751
 31
0.0
  0
LINE
  5
171
330
1F
100
AcDbEntity
  8
0
  6
Continuous
 62
     7
370
    15
100
AcDbLine
 10
173.6955366927
 20
159.5403843637
 30
0.0
 11
173.8455347616
 21
159.5403843637
 31
0.0
  0
LINE
  5
172
330
1F
100
AcDbEntity
  8
0
  6
Continuous
 62
     7
370
    15
100
AcDbLine
 10
173.6955366927
 20
157.3003881689
 30
0.0
 11
173.8455347616
 21
157.3003881689
 31
0.0
  0
LINE
  5
173
330
1F
100
AcDbEntity
  8
0
  6
Continuous
 62
     7
370
    15
100
AcDbLine
 10
173.6455343562
 20
159.3903892751
 30
0.0
 11
173.6455343562
 21
159.4903879877
 31
0.0
  0
ARC
  5
174
330
1F
100
AcDbEntity
  8
0
  6
Continuous
 62
     7
370
    15
100
AcDbCircle
 10
173.6955353898
 20
159.490386609
 30
0.0
 40
0.0499999999999829
100
AcDbArc
 50
90.0
 51
180.0
  0
LINE
  5
175
330
1F
100
AcDbEntity
  8
0
  6
Continuous
 62
     7
370
    15
100
AcDbLine
 10
173.6455343562
 20
157.3503845449
 30
0.0
 11
173.6455343562
 21
157.4503892179
 31
0.0
  0
ARC
  5
176
330
1F
100
AcDbEntity
  8
0
  6
Continuous
 62
     7
370
    15
100
AcDbCircle
 10
173.6955353898
 20
157.350386609
 30
0.0
 40
0.0499999999999829
100
AcDbArc
 50
180.0
 51
270.0
  0
LINE
  5
177
330
1F
100
AcDbEntity
  8
0
  6
Continuous
 62
     7
370
    15
100
AcDbLine
 10
173.6445359784
 20
157.7115171667
 30
0.0
 11
173.6455343562
 21
157.7115171667
 31
0.0
  0
LINE
  5
178
330
1F
100
AcDbEntity
  8
0
  6
Continuous
 62
     7
370
    15
100
AcDbLine
 10
173.6445359784
 20
157.8956299539
 30
0.0
 11
173.6455343562
 21
157.8956299539
 31
0.0
  0
LINE
  5
179
330
1F
100
AcDbEntity
  8
0
  6
Continuous
 62
     7
370
    15
100
AcDbLine
 10
173.6445359784
 20
158.0794625993
 30
0.0
 11
173.6455343562
 21
158.0794625993
 31
0.0
  0
LINE
  5
17A
330
1F
100
AcDbEntity
  8
0
  6
Continuous
 62
     7
370
    15
100
AcDbLine
 10
173.6445359784
 20
159.1339700933
 30
0.0
 11
173.6455343562
 21
159.1339700933
 31
0.0
  0
LINE
  5
17B
330
1F
100
AcDbEntity
  8
0
  6
Continuous
 62
     7
370
    15
100
AcDbLine
 10
173.6445359784
 20
159.1339700933
 30
0.0
 11
173.6445359784
 21
158.7839716192
 31
0.0
  0
LINE
  5
17C
330
1F
100
AcDbEntity
  8
0
  6
Continuous
 62
     7
370
    15
100
AcDbLine
 10
173.6445359784
 20
158.7839716192
 30
0.0
 11
173.6455343562
 21
158.7839716192
 31
0.0
  0
LINE
  5
17D
330
1F
100
AcDbEntity
  8
0
  6
Continuous
 62
     7
370
    15
100
AcDbLine
 10
173.6955366927
 20
149.3003868576
 30
0.0
 11
173.8455347616
 21
149.3003868576
 31
0.0
  0
LINE
  5
17E
330
1F
100
AcDbEntity
  8
0
  6
Continuous
 62
     7
370
    15
100
AcDbLine
 10
173.6455343562
 20
151.3903879638
 30
0.0
 11
173.6455343562
 21
151.4903866764
 31
0.0
  0
ARC
  5
17F
330
1F
100
AcDbEntity
  8
0
  6
Continuous
 62
     7
370
    15
100
AcDbCircle
 10
173.6955353898
 20
151.490386609
 30
0.0
 40
0.0499999999999829
100
AcDbArc
 50
90.0
 51
180.0
  0
LINE
  5
180
330
1F
100
AcDbEntity
  8
0
  6
Continuous
 62
     7
370
    15
100
AcDbLine
 10
173.6455343562
 20
149.3503862138
 30
0.0
 11
173.6455343562
 21
149.4503879066
 31
0.0
  0
ARC
  5
181
330
1F
100
AcDbEntity
  8
0
  6
Continuous
 62
     7
370
    15
100
AcDbCircle
 10
173.6955353898
 20
149.350386609
 30
0.0
 40
0.0499999999999829
100
AcDbArc
 50
180.0
 51
270.0
  0
LINE
  5
182
330
1F
100
AcDbEntity
  8
0
  6
Continuous
 62
     7
370
    15
100
AcDbLine
 10
173.6455343562
 20
149.4503879066
 30
0.0
 11
173.6455343562
 21
151.3903879638
 31
0.0
  0
LINE
  5
183
330
1F
100
AcDbEntity
  8
0
  6
Continuous
 62
     7
370
    15
100
AcDbLine
 10
173.6955366927
 20
151.5403860326
 30
0.0
 11
173.8455347616
 21
151.5403860326
 31
0.0
  0
LINE
  5
184
330
1F
100
AcDbEntity
  8
0
  6
Continuous
 62
     7
370
    15
100
AcDbLine
 10
173.6445359784
 20
149.7115158554
 30
0.0
 11
173.6455343562
 21
149.7115158554
 31
0.0
  0
LINE
  5
185
330
1F
100
AcDbEntity
  8
0
  6
Continuous
 62
     7
370
    15
100
AcDbLine
 10
173.6445359784
 20
149.8956316228
 30
0.0
 11
173.6455343562
 21
149.8956316228
 31
0.0
  0
LINE
  5
186
330
1F
100
AcDbEntity
  8
0
  6
Continuous
 62
     7
370
    15
100
AcDbLine
 10
173.6445359784
 20
150.0794642683
 30
0.0
 11
173.6455343562
 21
150.0794642683
 31
0.0
  0
LINE
  5
187
330
1F
100
AcDbEntity
  8
0
  6
Continuous
 62
     7
370
    15
100
AcDbLine
 10
173.6445359784
 20
151.133968782
 30
0.0
 11
173.6445359784
 21
150.7839703079
 31
0.0
  0
LINE
  5
188
330
1F
100
AcDbEntity
  8
0
  6
Continuous
 62
     7
370
    15
100
AcDbLine
 10
173.6445359784
 20
151.133968782
 30
0.0
 11
173.6455343562
 21
151.133968782
 31
0.0
  0
LINE
  5
189
330
1F
100
AcDbEntity
  8
0
  6
Continuous
 62
     7
370
    15
100
AcDbLine
 10
173.6445359784
 20
150.7839703079
 30
0.0
 11
173.6455343562
 21
150.7839703079
 31
0.0
  0
LINE
  5
18A
330
1F
100
AcDbEntity
  8
0
  6
Continuous
 62
     7
370
    15
100
AcDbLine
 10
173.8455347616
 20
151.9143872972
 30
0.0
 11
173.8455347616
 21
151.9643866535
 31
0.0
  0
ARC
  5
18B
330
1F
100
AcDbEntity
  8
0
  6
Continuous
 62
     7
370
    15
100
AcDbCircle
 10
173.8955353898
 20
151.964386609
 30
0.0
 40
0.0500000000000114
100
AcDbArc
 50
90.0
 51
180.0
  0
LINE
  5
18C
330
1F
100
AcDbEntity
  8
0
  6
Continuous
 62
     7
370
    15
100
AcDbLine
 10
174.0355364877
 20
148.8663875576
 30
0.0
 11
173.8955341178
 21
148.8663875576
 31
0.0
  0
LINE
  5
18D
330
1F
100
AcDbEntity
  8
0
  6
Continuous
 62
     7
370
    15
100
AcDbLine
 10
173.8455347616
 20
148.9663862701
 30
0.0
 11
173.8455347616
 21
151.9143872972
 31
0.0
  0
LINE
  5
18E
330
1F
100
AcDbEntity
  8
0
  6
Continuous
 62
     7
370
    15
100
AcDbLine
 10
173.8955341178
 20
152.0143860097
 30
0.0
 11
174.0355364877
 21
152.0143860097
 31
0.0
  0
LINE
  5
18F
330
1F
100
AcDbEntity
  8
0
  6
Continuous
 62
     7
370
    15
100
AcDbLine
 10
173.8455347616
 20
148.9163869138
 30
0.0
 11
173.8455347616
 21
148.9663862701
 31
0.0
  0
ARC
  5
190
330
1F
100
AcDbEntity
  8
0
  6
Continuous
 62
     7
370
    15
100
AcDbCircle
 10
173.8955353898
 20
148.916386609
 30
0.0
 40
0.0500000000000114
100
AcDbArc
 50
180.0
 51
270.0
  0
LINE
  5
191
330
1F
100
AcDbEntity
  8
0
  6
Continuous
 62
     7
370
    15
100
AcDbLine
 10
173.8955341178
 20
168.0143886323
 30
0.0
 11
174.0355364877
 21
168.0143886323
 31
0.0
  0
LINE
  5
192
330
1F
100
AcDbEntity
  8
0
  6
Continuous
 62
     7
370
    15
100
AcDbLine
 10
173.8455347616
 20
167.9143839593
 30
0.0
 11
173.8455347616
 21
167.9643862958
 31
0.0
  0
ARC
  5
193
330
1F
100
AcDbEntity
  8
0
  6
Continuous
 62
     7
370
    15
100
AcDbCircle
 10
173.8955353898
 20
167.964386609
 30
0.0
 40
0.0499999999999829
100
AcDbArc
 50
90.0
 51
180.0
  0
LINE
  5
194
330
1F
100
AcDbEntity
  8
0
  6
Continuous
 62
     7
370
    15
100
AcDbLine
 10
173.8455347616
 20
164.9163895364
 30
0.0
 11
173.8455347616
 21
164.9663859125
 31
0.0
  0
ARC
  5
195
330
1F
100
AcDbEntity
  8
0
  6
Continuous
 62
     7
370
    15
100
AcDbCircle
 10
173.8955353898
 20
164.916386609
 30
0.0
 40
0.0499999999999829
100
AcDbArc
 50
180.0
 51
270.0
  0
LINE
  5
196
330
1F
100
AcDbEntity
  8
0
  6
Continuous
 62
     7
370
    15
100
AcDbLine
 10
174.0355364877
 20
164.8663871999
 30
0.0
 11
173.8955341178
 21
164.8663871999
 31
0.0
  0
LINE
  5
197
330
1F
100
AcDbEntity
  8
0
  6
Continuous
 62
     7
370
    15
100
AcDbLine
 10
173.8455347616
 20
164.9663859125
 30
0.0
 11
173.8455347616
 21
167.9143839593
 31
0.0
  0
LINE
  5
198
330
1F
100
AcDbEntity
  8
0
  6
Continuous
 62
     7
370
    15
100
AcDbLine
 10
174.0355364877
 20
156.8663888689
 30
0.0
 11
173.8955341178
 21
156.8663888689
 31
0.0
  0
LINE
  5
199
330
1F
100
AcDbEntity
  8
0
  6
Continuous
 62
     7
370
    15
100
AcDbLine
 10
173.8455347616
 20
159.9143856283
 30
0.0
 11
173.8455347616
 21
159.9643879648
 31
0.0
  0
ARC
  5
19A
330
1F
100
AcDbEntity
  8
0
  6
Continuous
 62
     7
370
    15
100
AcDbCircle
 10
173.8955353898
 20
159.964386609
 30
0.0
 40
0.0500000000000114
100
AcDbArc
 50
90.0
 51
180.0
  0
LINE
  5
19B
330
1F
100
AcDbEntity
  8
0
  6
Continuous
 62
     7
370
    15
100
AcDbLine
 10
173.8955341178
 20
160.0143843408
 30
0.0
 11
174.0355364877
 21
160.0143843408
 31
0.0
  0
LINE
  5
19C
330
1F
100
AcDbEntity
  8
0
  6
Continuous
 62
     7
370
    15
100
AcDbLine
 10
173.8455347616
 20
156.9663875814
 30
0.0
 11
173.8455347616
 21
159.9143856283
 31
0.0
  0
LINE
  5
19D
330
1F
100
AcDbEntity
  8
0
  6
Continuous
 62
     7
370
    15
100
AcDbLine
 10
173.8455347616
 20
156.9163852449
 30
0.0
 11
173.8455347616
 21
156.9663875814
 31
0.0
  0
ARC
  5
19E
330
1F
100
AcDbEntity
  8
0
  6
Continuous
 62
     7
370
    15
100
AcDbCircle
 10
173.8955353898
 20
156.916386609
 30
0.0
 40
0.0500000000000114
100
AcDbArc
 50
180.0
 51
270.0
  0
LINE
  5
19F
330
1F
100
AcDbEntity
  8
0
  6
Continuous
 62
     7
370
    15
100
AcDbLine
 10
174.0355364877
 20
172.6403885599
 30
0.0
 11
173.8167785007
 21
172.6403885599
 31
0.0
  0
ARC
  5
1A0
330
1F
100
AcDbEntity
  8
0
  6
Continuous
 62
     7
370
    15
100
AcDbCircle
 10
173.8167793633
 20
176.040386609
 30
0.0
 40
0.1000000000000079
100
AcDbArc
 50
90.0
 51
161.3292526883
  0
ARC
  5
1A1
330
1F
100
AcDbEntity
  8
0
  6
Continuous
 62
     7
370
    15
100
AcDbCircle
 10
178.6997020565
 20
174.390386609
 30
0.0
 40
5.254166666666721
100
AcDbArc
 50
161.3292526882
 51
198.6707473118
  0
LINE
  5
1A2
330
1F
100
AcDbEntity
  8
0
  6
Continuous
 62
     7
370
    15
100
AcDbLine
 10
173.8167785007
 20
176.140385222
 30
0.0
 11
174.0355364877
 21
176.140385222
 31
0.0
  0
ARC
  5
1A3
330
1F
100
AcDbEntity
  8
0
  6
Continuous
 62
     7
370
    15
100
AcDbCircle
 10
173.8167793633
 20
172.740386609
 30
0.0
 40
0.1000000000000079
100
AcDbArc
 50
198.6707473117
 51
270.0
  0
SPLINE
  5
1A4
330
1F
100
AcDbEntity
  8
0
  6
Continuous
 62
     7
370
    15
100
AcDbSpline
210
0.0
220
0.0
230
1.0
 70
     8
 71
     3
 72
    12
 73
     8
 74
     0
 42
0.00000001
 43
0.00000001
 40
0.0
 40
0.0
 40
0.0
 40
0.0
 40
0.2131975827140395
 40
0.4441543543938197
 40
0.675122230957863
 40
0.9060912004021816
 40
1.0
 40
1.0
 40
1.0
 40
1.0
 10
174.0955345231401
 20
114.236965131328
 30
0.0
 10
174.0980496040109
 20
114.2268111175833
 30
0.0
 10
174.1032892699873
 20
114.2056572688301
 30
0.0
 10
174.1457434048441
 20
114.1734659937694
 30
0.0
 10
174.2106296539874
 20
114.1404559037862
 30
0.0
 10
174.275312527863
 20
114.1139082848932
 30
0.0
 10
174.3142722834009
 20
114.0984923003915
 30
0.0
 10
174.3255339461671
 20
114.0940361733888
 30
0.0
  0
LINE
  5
1A5
330
1F
100
AcDbEntity
  8
0
  6
Continuous
 62
     7
370
    15
100
AcDbLine
 10
174.0955345231
 20
114.2369651313
 30
0.0
 11
174.0955345231
 21
180.2869671102
 31
0.0
  0
LINE
  5
1A6
330
1F
100
AcDbEntity
  8
0
  6
Continuous
 62
     7
370
    15
100
AcDbLine
 10
174.3255339462
 20
180.2869671102
 30
0.0
 11
174.0955345231
 21
180.2869671102
 31
0.0
  0
LINE
  5
1A7
330
1F
100
AcDbEntity
  8
0
  6
Continuous
 62
     7
370
    15
100
AcDbLine
 10
175.3655366498
 20
180.2869671102
 30
0.0
 11
174.3255339462
 21
180.2869671102
 31
0.0
  0
LINE
  5
1A8
330
1F
100
AcDbEntity
  8
0
  6
Continuous
 62
     7
370
    15
100
AcDbLine
 10
175.3655366498
 20
179.786967587
 30
0.0
 11
175.3655366498
 21
180.2869671102
 31
0.0
  0
LINE
  5
1A9
330
1F
100
AcDbEntity
  8
0
  6
Continuous
 62
     7
370
    15
100
AcDbLine
 10
174.3255339462
 20
114.0940361734
 30
0.0
 11
175.3655366498
 21
114.0940361734
 31
0.0
  0
LINE
  5
1AA
330
1F
100
AcDbEntity
  8
0
  6
Continuous
 62
     7
370
    15
100
AcDbLine
 10
175.3655366498
 20
114.0869648273
 30
0.0
 11
175.3655366498
 21
114.0940361734
 31
0.0
  0
LINE
  5
1AB
330
1F
100
AcDbEntity
  8
0
  6
Continuous
 62
     7
370
    15
100
AcDbLine
 10
175.3655366498
 20
179.786967587
 30
0.0
 11
175.5205355483
 21
179.786967587
 31
0.0
  0
LINE
  5
1AC
330
1F
100
AcDbEntity
  8
0
  6
Continuous
 62
     7
370
    15
100
AcDbLine
 10
175.5955360729
 20
114.0869648273
 30
0.0
 11
175.5955360729
 21
114.1046398397
 31
0.0
  0
LINE
  5
1AD
330
1F
100
AcDbEntity
  8
0
  6
Continuous
 62
     7
370
    15
100
AcDbLine
 10
175.5955360729
 20
114.0869648273
 30
0.0
 11
175.5655072528
 21
114.0869648273
 31
0.0
  0
LINE
  5
1AE
330
1F
100
AcDbEntity
  8
0
  6
Continuous
 62
     7
370
    15
100
AcDbLine
 10
175.5171231824
 20
114.0869648273
 30
0.0
 11
175.3655366498
 21
114.0869648273
 31
0.0
  0
LINE
  5
1AF
330
1F
100
AcDbEntity
  8
0
  6
Continuous
 62
     7
370
    15
100
AcDbLine
 10
175.4755340415
 20
114.0069649632
 30
0.0
 11
175.4755340415
 21
114.0869648273
 31
0.0
  0
LINE
  5
1B0
330
1F
100
AcDbEntity
  8
0
  6
Continuous
 62
     7
370
    15
100
AcDbLine
 10
174.3255339462
 20
114.0069649632
 30
0.0
 11
175.4755340415
 21
114.0069649632
 31
0.0
  0
LINE
  5
1B1
330
1F
100
AcDbEntity
  8
0
  6
Continuous
 62
     7
370
    15
100
AcDbLine
 10
174.3255339462
 20
114.0869648273
 30
0.0
 11
174.3255339462
 21
114.0069649632
 31
0.0
  0
LINE
  5
1B2
330
1F
100
AcDbEntity
  8
0
  6
Continuous
 62
     7
370
    15
100
AcDbLine
 10
174.3255339462
 20
114.0869648273
 30
0.0
 11
175.3655366498
 21
114.0869648273
 31
0.0
  0
SPLINE
  5
1B3
330
1F
100
AcDbEntity
  8
0
  6
Continuous
 62
     7
370
    15
100
AcDbSpline
210
0.0
220
0.0
230
1.0
 70
     8
 71
     3
 72
    10
 73
     6
 74
     0
 42
0.00000001
 43
0.00000001
 40
0.0
 40
0.0
 40
0.0
 40
0.0
 40
0.4547979364111698
 40
0.9096070209170073
 40
1.0
 40
1.0
 40
1.0
 40
1.0
 10
174.3255339461671
 20
114.0869648273443
 30
0.0
 10
174.306213304706
 20
114.0894343512552
 30
0.0
 10
174.2675715481924
 20
114.0943734596103
 30
0.0
 10
174.2275509504277
 20
114.1174353678025
 30
0.0
 10
174.215077397721
 20
114.1372787904637
 30
0.0
 10
174.2130093175279
 20
114.1405687745069
 30
0.0
  0
SPLINE
  5
1B4
330
1F
100
AcDbEntity
  8
0
  6
Continuous
 62
     7
370
    15
100
AcDbSpline
210
0.0
220
0.0
230
1.0
 70
     8
 71
     3
 72
    11
 73
     7
 74
     0
 42
0.00000001
 43
0.00000001
 40
0.0
 40
0.0
 40
0.0
 40
0.0
 40
0.2499913186891925
 40
0.4999966464908255
 40
0.7499970044202807
 40
0.9999999999999999
 40
0.9999999999999999
 40
0.9999999999999999
 40
0.9999999999999999
 10
174.3255339461671
 20
114.0069649632429
 30
0.0
 10
174.2953961080545
 20
114.0104224068965
 30
0.0
 10
174.2351187429531
 20
114.0173374879533
 30
0.0
 10
174.1590931892297
 20
114.0705229128335
 30
0.0
 10
174.1059080457441
 20
114.1465499213628
 30
0.0
 10
174.0989923761688
 20
114.2068266220144
 30
0.0
 10
174.0955345231401
 20
114.236965131328
 30
0.0
  0
LINE
  5
1B5
330
1F
100
AcDbEntity
  8
0
  6
Continuous
 62
     7
370
    15
100
AcDbLine
 10
175.463875373
 20
180.3369634862
 30
0.0
 11
174.5010517436
 21
180.3369634862
 31
0.0
  0
LINE
  5
1B6
330
1F
100
AcDbEntity
  8
0
  6
Continuous
 62
     7
370
    15
100
AcDbLine
 10
174.5010517436
 20
180.3369634862
 30
0.0
 11
174.2710523206
 21
180.3369634862
 31
0.0
  0
LINE
  5
1B7
330
1F
100
AcDbEntity
  8
0
  6
Continuous
 62
     7
370
    15
100
AcDbLine
 10
174.2710523206
 20
180.3369634862
 30
0.0
 11
174.2710523206
 21
180.3597920652
 31
0.0
  0
LINE
  5
1B8
330
1F
100
AcDbEntity
  8
0
  6
Continuous
 62
     7
370
    15
100
AcDbLine
 10
174.3510506946
 20
180.2869671102
 30
0.0
 11
174.3510506946
 21
180.3369634862
 31
0.0
  0
LINE
  5
1B9
330
1F
100
AcDbEntity
  8
0
  6
Continuous
 62
     7
370
    15
100
AcDbLine
 10
241.2655345994
 20
184.9097901102
 30
0.0
 11
241.2655345994
 21
185.3597932573
 31
0.0
  0
LINE
  5
1BA
330
1F
100
AcDbEntity
  8
0
  6
Continuous
 62
     7
370
    15
100
AcDbLine
 10
172.1655361253
 20
185.3597932573
 30
0.0
 11
172.1655361253
 21
184.9097901102
 31
0.0
  0
LINE
  5
1BB
330
1F
100
AcDbEntity
  8
0
  6
Continuous
 62
     7
370
    15
100
AcDbLine
 10
172.1655361253
 20
185.3597932573
 30
0.0
 11
241.2655345994
 21
185.3597932573
 31
0.0
  0
LINE
  5
1BC
330
1F
100
AcDbEntity
  8
0
  6
Continuous
 62
     7
370
    15
100
AcDbLine
 10
241.2655345994
 20
184.9097901102
 30
0.0
 11
241.5584646064
 21
184.9097901102
 31
0.0
  0
LINE
  5
1BD
330
1F
100
AcDbEntity
  8
0
  6
Continuous
 62
     7
370
    15
100
AcDbLine
 10
241.5584646064
 20
184.9097901102
 30
0.0
 11
241.5584646064
 21
180.3597920652
 31
0.0
  0
LINE
  5
1BE
330
1F
100
AcDbEntity
  8
0
  6
Continuous
 62
     7
370
    15
100
AcDbLine
 10
171.8726061183
 20
184.9097901102
 30
0.0
 11
171.8726061183
 21
180.3597920652
 31
0.0
  0
LINE
  5
1BF
330
1F
100
AcDbEntity
  8
0
  6
Continuous
 62
     7
370
    15
100
AcDbLine
 10
172.1655361253
 20
184.9097901102
 30
0.0
 11
171.8726061183
 21
184.9097901102
 31
0.0
  0
LINE
  5
1C0
330
1F
100
AcDbEntity
  8
0
  6
Continuous
 62
     7
370
    15
100
AcDbLine
 10
171.8726061183
 20
180.3597920652
 30
0.0
 11
241.5584646064
 21
180.3597920652
 31
0.0
  0
SPLINE
  5
1C1
330
1F
100
AcDbEntity
  8
0
  6
Continuous
 62
     7
370
    15
100
AcDbSpline
210
0.0
220
0.0
230
1.0
 70
     8
 71
     3
 72
    12
 73
     8
 74
     0
 42
0.00000001
 43
0.00000001
 40
0.0
 40
0.0
 40
0.0
 40
0.0
 40
0.2027000310071195
 40
0.4351411984013226
 40
0.6676138723594093
 40
0.9000816923734027
 40
0.9999999999999999
 40
0.9999999999999999
 40
0.9999999999999999
 40
0.9999999999999999
 10
241.2655345994341
 20
185.3597932572817
 30
0.0
 10
241.3132488349581
 20
185.3553379705199
 30
0.0
 10
241.4156781711726
 20
185.3457736956103
 30
0.0
 10
241.5562735820349
 20
185.2658375135958
 30
0.0
 10
241.6639791067799
 20
185.1393982939985
 30
0.0
 10
241.7107092651402
 20
185.0112446323025
 30
0.0
 10
241.7144194506544
 20
184.9332392430519
 30
0.0
 10
241.7155347663271
 20
184.9097901101564
 30
0.0
  0
LINE
  5
1C2
330
1F
100
AcDbEntity
  8
0
  6
Continuous
 62
     7
370
    15
100
AcDbLine
 10
241.5655366975
 20
184.9097901102
 30
0.0
 11
241.7155347663
 21
184.9097901102
 31
0.0
  0
SPLINE
  5
1C3
330
1F
100
AcDbEntity
  8
0
  6
Continuous
 62
     7
370
    15
100
AcDbSpline
210
0.0
220
0.0
230
1.0
 70
     8
 71
     3
 72
    11
 73
     7
 74
     0
 42
0.00000001
 43
0.00000001
 40
0.0
 40
0.0
 40
0.0
 40
0.0
 40
0.2529433833235938
 40
0.5061138964732715
 40
0.7592826862864057
 40
0.9999999999999999
 40
0.9999999999999999
 40
0.9999999999999999
 40
0.9999999999999999
 10
241.2655345994341
 20
185.2097922082399
 30
0.0
 10
241.3053119818885
 20
185.2051715312918
 30
0.0
 10
241.3849024647902
 20
185.1959260282711
 30
0.0
 10
241.4848801652711
 20
185.1249065727886
 30
0.0
 10
241.5527636967403
 20
185.0252530884229
 30
0.0
 10
241.5613511977458
 20
184.9476254064665
 30
0.0
 10
241.5655366975175
 20
184.9097901101564
 30
0.0
  0
LINE
  5
1C4
330
1F
100
AcDbEntity
  8
0
  6
Continuous
 62
     7
370
    15
100
AcDbLine
 10
241.7155347663
 20
184.9097901102
 30
0.0
 11
241.7155347663
 21
180.3597920652
 31
0.0
  0
LINE
  5
1C5
330
1F
100
AcDbEntity
  8
0
  6
Continuous
 62
     7
370
    15
100
AcDbLine
 10
241.5655366975
 20
180.3597920652
 30
0.0
 11
241.7155347663
 21
180.3597920652
 31
0.0
  0
LINE
  5
1C6
330
1F
100
AcDbEntity
  8
0
  6
Continuous
 62
     7
370
    15
100
AcDbLine
 10
241.5655366975
 20
180.3597920652
 30
0.0
 11
241.5655366975
 21
184.9097901102
 31
0.0
  0
SPLINE
  5
1C7
330
1F
100
AcDbEntity
  8
0
  6
Continuous
 62
     7
370
    15
100
AcDbSpline
210
0.0
220
0.0
230
1.0
 70
     8
 71
     3
 72
    11
 73
     7
 74
     0
 42
0.00000001
 43
0.00000001
 40
0.0
 40
0.0
 40
0.0
 40
0.0
 40
0.2500011389612403
 40
0.5000005035332536
 40
0.7499988610387597
 40
1.0
 40
1.0
 40
1.0
 40
1.0
 10
171.7155359584199
 20
184.9097901101564
 30
0.0
 10
171.7223005277344
 20
184.9687577538986
 30
0.0
 10
171.7358296183516
 20
185.0866926228587
 30
0.0
 10
171.8398888853772
 20
185.2354356012314
 30
0.0
 10
171.9886343325727
 20
185.3395008558777
 30
0.0
 10
172.10656864238
 20
185.3530290983948
 30
0.0
 10
172.1655361253129
 20
185.3597932572817
 30
0.0
  0
SPLINE
  5
1C8
330
1F
100
AcDbEntity
  8
0
  6
Continuous
 62
     7
370
    15
100
AcDbSpline
210
0.0
220
0.0
230
1.0
 70
     8
 71
     3
 72
    11
 73
     7
 74
     0
 42
0.00000001
 43
0.00000001
 40
0.0
 40
0.0
 40
0.0
 40
0.0
 40
0.2499971390405315
 40
0.5000020374310827
 40
0.7500037534131377
 40
1.0
 40
1.0
 40
1.0
 40
1.0
 10
171.8655340272294
 20
184.9097901101564
 30
0.0
 10
171.8700443668164
 20
184.9491012249356
 30
0.0
 10
171.879065185981
 20
185.0277246746226
 30
0.0
 10
171.9484372176626
 20
185.1268863304517
 30
0.0
 10
172.0476026022745
 20
185.1962662659521
 30
0.0
 10
172.1262252376468
 20
185.2052835936904
 30
0.0
 10
172.1655361253129
 20
185.2097922082399
 30
0.0
  0
LINE
  5
1C9
330
1F
100
AcDbEntity
  8
0
  6
Continuous
 62
     7
370
    15
100
AcDbLine
 10
171.8655340272
 20
184.9097901102
 30
0.0
 11
171.7155359584
 21
184.9097901102
 31
0.0
  0
LINE
  5
1CA
330
1F
100
AcDbEntity
  8
0
  6
Continuous
 62
     7
370
    15
100
AcDbLine
 10
171.8655340272
 20
180.3597920652
 30
0.0
 11
171.7155359584
 21
180.3597920652
 31
0.0
  0
LINE
  5
1CB
330
1F
100
AcDbEntity
  8
0
  6
Continuous
 62
     7
370
    15
100
AcDbLine
 10
171.7155359584
 20
184.9097901102
 30
0.0
 11
171.7155359584
 21
180.3597920652
 31
0.0
  0
LINE
  5
1CC
330
1F
100
AcDbEntity
  8
0
  6
Continuous
 62
     7
370
    15
100
AcDbLine
 10
171.8655340272
 20
180.3597920652
 30
0.0
 11
171.8655340272
 21
184.9097901102
 31
0.0
  0
LINE
  5
1CD
330
1F
100
AcDbEntity
  8
0
  6
Continuous
 62
     7
370
    15
100
AcDbLine
 10
172.0155350763
 20
117.4369649108
 30
0.0
 11
172.0155350763
 21
117.5869644697
 31
0.0
  0
LINE
  5
1CE
330
1F
100
AcDbEntity
  8
0
  6
Continuous
 62
     7
370
    15
100
AcDbLine
 10
174.0955345231
 20
117.5869644697
 30
0.0
 11
172.0155350763
 21
117.5869644697
 31
0.0
  0
LINE
  5
1CF
330
1F
100
AcDbEntity
  8
0
  6
Continuous
 62
     7
370
    15
100
AcDbLine
 10
174.0955345231
 20
117.4369649108
 30
0.0
 11
172.0155350763
 21
117.4369649108
 31
0.0
  0
ARC
  5
1D0
330
1F
100
AcDbEntity
  8
0
  6
Continuous
 62
     7
370
    15
100
AcDbCircle
 10
172.1655353898
 20
117.7369647668
 30
0.0
 40
0.3000000000000149
100
AcDbArc
 50
210.0
 51
240.0
  0
LINE
  5
1D1
330
1F
100
AcDbEntity
  8
0
  6
Continuous
 62
     7
370
    15
100
AcDbLine
 10
171.8655340272
 20
184.9869662042
 30
0.0
 11
171.8655340272
 21
184.9097901102
 31
0.0
  0
LINE
  5
1D2
330
1F
100
AcDbEntity
  8
0
  6
Continuous
 62
     7
370
    15
100
AcDbLine
 10
171.8655340272
 20
180.3597920652
 30
0.0
 11
171.8655340272
 21
117.5869644697
 31
0.0
  0
LINE
  5
1D3
330
1F
100
AcDbEntity
  8
0
  6
Continuous
 62
     7
370
    15
100
AcDbLine
 10
171.8655340272
 20
184.9869662042
 30
0.0
 11
172.1655361253
 21
184.9869662042
 31
0.0
  0
LINE
  5
1D4
330
1F
100
AcDbEntity
  8
0
  6
Continuous
 62
     7
370
    15
100
AcDbLine
 10
171.8655340272
 20
117.5869644697
 30
0.0
 11
174.0955345231
 21
117.5869644697
 31
0.0
  0
LINE
  5
1D5
330
1F
100
AcDbEntity
  8
0
  6
Continuous
 62
     7
370
    15
100
AcDbLine
 10
173.4763227302
 20
107.4459697198
 30
0.0
 11
173.4969101745
 21
107.5718113299
 31
0.0
  0
ARC
  5
1D6
330
1F
100
AcDbEntity
  8
0
  6
Continuous
 62
     7
370
    15
100
AcDbCircle
 10
173.5462543362
 20
107.563739075
 30
0.0
 40
0.049999999999997
100
AcDbArc
 50
80.7092612943
 51
170.7092612943
  0
LINE
  5
1D7
330
1F
100
AcDbEntity
  8
0
  6
Continuous
 62
     7
370
    15
100
AcDbLine
 10
173.5543273288
 20
107.613083076
 30
0.0
 11
175.8641712266
 21
107.2352151464
 31
0.0
  0
LINE
  5
1D8
330
1F
100
AcDbEntity
  8
0
  6
Continuous
 62
     7
370
    15
100
AcDbLine
 10
175.8641712266
 20
107.2352151464
 30
0.0
 11
175.8820287782
 21
107.1569836776
 31
0.0
  0
LINE
  5
1D9
330
1F
100
AcDbEntity
  8
0
  6
Continuous
 62
     7
370
    15
100
AcDbLine
 10
175.9395562011
 20
107.167951491
 30
0.0
 11
175.8820287782
 21
107.1569836776
 31
0.0
  0
ARC
  5
1DA
330
1F
100
AcDbEntity
  8
0
  6
Continuous
 62
     7
370
    15
100
AcDbCircle
 10
175.7899750129
 20
108.6632543019
 30
0.0
 40
1.999999999999996
100
AcDbArc
 50
249.1852207103
 51
284.9576206899
  0
LINE
  5
1DB
330
1F
100
AcDbEntity
  8
0
  6
Continuous
 62
     7
370
    15
100
AcDbLine
 10
173.507901271
 20
107.3911606412
 30
0.0
 11
175.0792793828
 21
106.7937862206
 31
0.0
  0
ARC
  5
1DC
330
1F
100
AcDbEntity
  8
0
  6
Continuous
 62
     7
370
    15
100
AcDbCircle
 10
173.5256678625
 20
107.4378974299
 30
0.0
 40
0.0500000000000088
100
AcDbArc
 50
170.7092612944
 51
249.1852207103
  0
LINE
  5
1DD
330
1F
100
AcDbEntity
  8
0
  6
Continuous
 62
     7
370
    15
100
AcDbLine
 10
224.4763240117
 20
107.4459697198
 30
0.0
 11
224.4969099659
 21
107.5718113299
 31
0.0
  0
ARC
  5
1DE
330
1F
100
AcDbEntity
  8
0
  6
Continuous
 62
     7
370
    15
100
AcDbCircle
 10
224.5462543362
 20
107.563739075
 30
0.0
 40
0.0500000000000041
100
AcDbArc
 50
80.7092612944
 51
170.7092612944
  0
LINE
  5
1DF
330
1F
100
AcDbEntity
  8
0
  6
Continuous
 62
     7
370
    15
100
AcDbLine
 10
224.5543263751
 20
107.613083076
 30
0.0
 11
226.864170273
 21
107.2352151464
 31
0.0
  0
LINE
  5
1E0
330
1F
100
AcDbEntity
  8
0
  6
Continuous
 62
     7
370
    15
100
AcDbLine
 10
226.864170273
 20
107.2352151464
 30
0.0
 11
226.8820278245
 21
107.1569836776
 31
0.0
  0
ARC
  5
1E1
330
1F
100
AcDbEntity
  8
0
  6
Continuous
 62
     7
370
    15
100
AcDbCircle
 10
226.7899750129
 20
108.6632543019
 30
0.0
 40
2.000000000000006
100
AcDbArc
 50
249.1852207103
 51
284.9576206899
  0
LINE
  5
1E2
330
1F
100
AcDbEntity
  8
0
  6
Continuous
 62
     7
370
    15
100
AcDbLine
 10
224.5079003173
 20
107.3911606412
 30
0.0
 11
226.0792784292
 21
106.7937862206
 31
0.0
  0
ARC
  5
1E3
330
1F
100
AcDbEntity
  8
0
  6
Continuous
 62
     7
370
    15
100
AcDbCircle
 10
224.5256678625
 20
107.4378974299
 30
0.0
 40
0.0499999999999886
100
AcDbArc
 50
170.7092612944
 51
249.1852207104
  0
LINE
  5
1E4
330
1F
100
AcDbEntity
  8
0
  6
Continuous
 62
     7
370
    15
100
AcDbLine
 10
226.9395552474
 20
107.167951491
 30
0.0
 11
226.8820278245
 21
107.1569836776
 31
0.0
  0
LINE
  5
1E5
330
1F
100
AcDbEntity
  8
0
  6
Continuous
 62
     7
370
    15
100
AcDbLine
 10
231.5580956537
 20
109.2082896347
 30
0.0
 11
237.2729740936
 21
109.2082896347
 31
0.0
  0
LINE
  5
1E6
330
1F
100
AcDbEntity
  8
0
  6
Continuous
 62
     7
370
    15
100
AcDbLine
 10
231.3415892321
 20
109.3332895155
 30
0.0
 11
237.4894820052
 21
109.3332895155
 31
0.0
  0
LINE
  5
1E7
330
1F
100
AcDbEntity
  8
0
  6
Continuous
 62
     7
370
    15
100
AcDbLine
 10
234.4155348736
 20
110.3752632703
 30
0.0
 11
236.9926936823
 21
110.3752632703
 31
0.0
  0
LINE
  5
1E8
330
1F
100
AcDbEntity
  8
0
  6
Continuous
 62
     7
370
    15
100
AcDbLine
 10
231.838377555
 20
110.3752632703
 30
0.0
 11
234.4155348736
 21
110.3752632703
 31
0.0
  0
LINE
  5
1E9
330
1F
100
AcDbEntity
  8
0
  6
Continuous
 62
     7
370
    15
100
AcDbLine
 10
180.3415886957
 20
109.3332895155
 30
0.0
 11
186.4894799787
 21
109.3332895155
 31
0.0
  0
LINE
  5
1EA
330
1F
100
AcDbEntity
  8
0
  6
Continuous
 62
     7
370
    15
100
AcDbLine
 10
183.4155343372
 20
110.3752632703
 30
0.0
 11
185.9926931459
 21
110.3752632703
 31
0.0
  0
LINE
  5
1EB
330
1F
100
AcDbEntity
  8
0
  6
Continuous
 62
     7
370
    15
100
AcDbLine
 10
180.8383785087
 20
110.3752632703
 30
0.0
 11
183.4155343372
 21
110.3752632703
 31
0.0
  0
LINE
  5
1EC
330
1F
100
AcDbEntity
  8
0
  6
Continuous
 62
     7
370
    15
100
AcDbLine
 10
180.5580966073
 20
109.2082896347
 30
0.0
 11
186.2729750472
 21
109.2082896347
 31
0.0
  0
ARC
  5
1ED
330
1F
100
AcDbEntity
  8
0
  6
Continuous
 62
     7
370
    15
100
AcDbCircle
 10
180.0855353898
 20
102.2269647668
 30
0.0
 40
3.050000000000006
100
AcDbArc
 50
119.5162121592
 51
31.5302483737
  0
ARC
  5
1EE
330
1F
100
AcDbEntity
  8
0
  6
Continuous
 62
     7
370
    15
100
AcDbCircle
 10
231.0855353898
 20
102.2269647668
 30
0.0
 40
3.050000000000014
100
AcDbArc
 50
119.5162121592
 51
31.5302483737
  0
LINE
  5
1EF
330
1F
100
AcDbEntity
  8
0
  6
Continuous
 62
     7
370
    15
100
AcDbLine
 10
177.4155340988
 20
113.9269650991
 30
0.0
 11
177.4155340988
 21
113.9069647606
 31
0.0
  0
LINE
  5
1F0
330
1F
100
AcDbEntity
  8
0
  6
Continuous
 62
     7
370
    15
100
AcDbLine
 10
186.4155344564
 20
113.9269650991
 30
0.0
 11
186.4155344564
 21
113.9069647606
 31
0.0
  0
LINE
  5
1F1
330
1F
100
AcDbEntity
  8
0
  6
Continuous
 62
     7
370
    15
100
AcDbLine
 10
177.4155340988
 20
113.9069647606
 30
0.0
 11
186.4155344564
 21
113.9069647606
 31
0.0
  0
LINE
  5
1F2
330
1F
100
AcDbEntity
  8
0
  6
Continuous
 62
     7
370
    15
100
AcDbLine
 10
183.4155343372
 20
112.0069646354
 30
0.0
 11
185.6655351716
 21
112.0069646354
 31
0.0
  0
LINE
  5
1F3
330
1F
100
AcDbEntity
  8
0
  6
Continuous
 62
     7
370
    15
100
AcDbLine
 10
181.1655364829
 20
112.0069646354
 30
0.0
 11
183.4155343372
 21
112.0069646354
 31
0.0
  0
SPLINE
  5
1F4
330
1F
100
AcDbEntity
  8
0
  6
Continuous
 62
     7
370
    15
100
AcDbSpline
210
0.0
220
0.0
230
1.0
 70
     8
 71
     3
 72
    12
 73
     8
 74
     0
 42
0.00000001
 43
0.00000001
 40
0.0
 40
0.0
 40
0.0
 40
0.0
 40
0.2135367087481411
 40
0.4270279283889719
 40
0.6417162926377362
 40
0.8571965225915507
 40
1.0
 40
1.0
 40
1.0
 40
1.0
 10
185.6454454261171
 20
112.8569648678754
 30
0.0
 10
185.6458979339312
 20
112.8905137473196
 30
0.0
 10
185.6468028531629
 20
112.9576043593873
 30
0.0
 10
185.6531505903052
 20
113.0473309698875
 30
0.0
 10
185.6600500544639
 20
113.1146935222254
 30
0.0
 10
185.6650339578652
 20
113.1532496517101
 30
0.0
 10
185.6650364711274
 20
113.1532125179001
 30
0.0
 10
185.6650374728547
 20
113.153197717235
 30
0.0
  0
SPLINE
  5
1F5
330
1F
100
AcDbEntity
  8
0
  6
Continuous
 62
     7
370
    15
100
AcDbSpline
210
0.0
220
0.0
230
1.0
 70
     8
 71
     3
 72
    13
 73
     9
 74
     0
 42
0.00000001
 43
0.00000001
 40
0.0
 40
0.0
 40
0.0
 40
0.0
 40
0.0713268966297191
 40
0.2839778670365882
 40
0.4972846384572993
 40
0.7122487508387182
 40
0.9273071468336683
 40
1.0
 40
1.0
 40
1.0
 40
1.0
 10
185.6650374728547
 20
112.5607320185159
 30
0.0
 10
185.6651760686288
 20
112.5596856348678
 30
0.0
 10
185.6657278679378
 20
112.5555196075969
 30
0.0
 10
185.6621017006166
 20
112.5827471649634
 30
0.0
 10
185.6556374931174
 20
112.6396772188228
 30
0.0
 10
185.6488151625301
 20
112.7234402811929
 30
0.0
 10
185.6457143192233
 20
112.8005094210659
 30
0.0
 10
185.6454996553497
 20
112.8455791704015
 30
0.0
 10
185.6454454261171
 20
112.8569648678754
 30
0.0
  0
LINE
  5
1F6
330
1F
100
AcDbEntity
  8
0
  6
Continuous
 62
     7
370
    15
100
AcDbLine
 10
228.4155361253
 20
113.9269650991
 30
0.0
 11
228.4155361253
 21
113.9069647606
 31
0.0
  0
LINE
  5
1F7
330
1F
100
AcDbEntity
  8
0
  6
Continuous
 62
     7
370
    15
100
AcDbLine
 10
237.4155364829
 20
113.9269650991
 30
0.0
 11
237.4155364829
 21
113.9069647606
 31
0.0
  0
LINE
  5
1F8
330
1F
100
AcDbEntity
  8
0
  6
Continuous
 62
     7
370
    15
100
AcDbLine
 10
228.4155361253
 20
113.9069647606
 30
0.0
 11
237.4155364829
 21
113.9069647606
 31
0.0
  0
LINE
  5
1F9
330
1F
100
AcDbEntity
  8
0
  6
Continuous
 62
     7
370
    15
100
AcDbLine
 10
234.4155348736
 20
112.0069646354
 30
0.0
 11
236.6655357081
 21
112.0069646354
 31
0.0
  0
LINE
  5
1FA
330
1F
100
AcDbEntity
  8
0
  6
Continuous
 62
     7
370
    15
100
AcDbLine
 10
232.1655355293
 20
112.0069646354
 30
0.0
 11
234.4155348736
 21
112.0069646354
 31
0.0
  0
SPLINE
  5
1FB
330
1F
100
AcDbEntity
  8
0
  6
Continuous
 62
     7
370
    15
100
AcDbSpline
210
0.0
220
0.0
230
1.0
 70
     8
 71
     3
 72
    12
 73
     8
 74
     0
 42
0.00000001
 43
0.00000001
 40
0.0
 40
0.0
 40
0.0
 40
0.0
 40
0.2135367215250158
 40
0.4270279539399995
 40
0.6417161231960876
 40
0.8571965140469677
 40
1.0
 40
1.0
 40
1.0
 40
1.0
 10
236.6454459625589
 20
112.8569648678754
 30
0.0
 10
236.6458984132649
 20
112.8905137492646
 30
0.0
 10
236.6468032182925
 20
112.9576043652218
 30
0.0
 10
236.6531518113698
 20
113.04733091744
 30
0.0
 10
236.6600479927203
 20
113.1146935862785
 30
0.0
 10
236.6650348960708
 20
113.1532496399721
 30
0.0
 10
236.665037122067
 20
113.1532125145506
 30
0.0
 10
236.6650380092966
 20
113.153197717235
 30
0.0
  0
SPLINE
  5
1FC
330
1F
100
AcDbEntity
  8
0
  6
Continuous
 62
     7
370
    15
100
AcDbSpline
210
0.0
220
0.0
230
1.0
 70
     8
 71
     3
 72
    13
 73
     9
 74
     0
 42
0.00000001
 43
0.00000001
 40
0.0
 40
0.0
 40
0.0
 40
0.0
 40
0.0713268824131787
 40
0.2839778808652323
 40
0.4972844838772087
 40
0.7122486246088777
 40
0.9273071615332391
 40
1.0
 40
1.0
 40
1.0
 40
1.0
 10
236.6650380092966
 20
112.5607320185159
 30
0.0
 10
236.665176045719
 20
112.5596856353611
 30
0.0
 10
236.6657256181861
 20
112.5555196090211
 30
0.0
 10
236.6621007671161
 20
112.5827471342719
 30
0.0
 10
236.6556381541202
 20
112.6396772549062
 30
0.0
 10
236.6488166811333
 20
112.7234403162628
 30
0.0
 10
236.6457119075488
 20
112.8005093849699
 30
0.0
 10
236.6454995972004
 20
112.8455791689472
 30
0.0
 10
236.6454459625589
 20
112.8569648678754
 30
0.0
  0
LINE
  5
1FD
330
1F
100
AcDbEntity
  8
0
  6
Continuous
 62
     7
370
    15
100
AcDbLine
 10
183.4155343372
 20
111.916964602
 30
0.0
 11
185.2929256755
 21
111.916964602
 31
0.0
  0
LINE
  5
1FE
330
1F
100
AcDbEntity
  8
0
  6
Continuous
 62
     7
370
    15
100
AcDbLine
 10
181.5381429988
 20
111.916964602
 30
0.0
 11
183.4155343372
 21
111.916964602
 31
0.0
  0
LINE
  5
1FF
330
1F
100
AcDbEntity
  8
0
  6
Continuous
 62
     7
370
    15
100
AcDbLine
 10
181.5381429988
 20
111.536964875
 30
0.0
 11
185.2929256755
 21
111.536964875
 31
0.0
  0
LINE
  5
200
330
1F
100
AcDbEntity
  8
0
  6
Continuous
 62
     7
370
    15
100
AcDbLine
 10
183.4155343372
 20
111.5269647058
 30
0.0
 11
185.2929256755
 21
111.5269647058
 31
0.0
  0
LINE
  5
201
330
1F
100
AcDbEntity
  8
0
  6
Continuous
 62
     7
370
    15
100
AcDbLine
 10
181.5381429988
 20
111.5269647058
 30
0.0
 11
183.4155343372
 21
111.5269647058
 31
0.0
  0
LINE
  5
202
330
1F
100
AcDbEntity
  8
0
  6
Continuous
 62
     7
370
    15
100
AcDbLine
 10
181.6481433708
 20
111.6069645699
 30
0.0
 11
185.1829282838
 21
111.6069645699
 31
0.0
  0
LINE
  5
203
330
1F
100
AcDbEntity
  8
0
  6
Continuous
 62
     7
370
    15
100
AcDbLine
 10
183.4155343372
 20
111.6769650097
 30
0.0
 11
185.2929256755
 21
111.6769650097
 31
0.0
  0
LINE
  5
204
330
1F
100
AcDbEntity
  8
0
  6
Continuous
 62
     7
370
    15
100
AcDbLine
 10
181.5381429988
 20
111.6769650097
 30
0.0
 11
183.4155343372
 21
111.6769650097
 31
0.0
  0
LINE
  5
205
330
1F
100
AcDbEntity
  8
0
  6
Continuous
 62
     7
370
    15
100
AcDbLine
 10
181.6481433708
 20
111.8469649072
 30
0.0
 11
185.1829282838
 21
111.8469649072
 31
0.0
  0
LINE
  5
206
330
1F
100
AcDbEntity
  8
0
  6
Continuous
 62
     7
370
    15
100
AcDbLine
 10
181.5381429988
 20
111.7769644673
 30
0.0
 11
185.2929256755
 21
111.7769644673
 31
0.0
  0
LINE
  5
207
330
1F
100
AcDbEntity
  8
0
  6
Continuous
 62
     7
370
    15
100
AcDbLine
 10
184.6655361253
 20
111.5269647058
 30
0.0
 11
184.6655361253
 21
110.6002633538
 31
0.0
  0
LINE
  5
208
330
1F
100
AcDbEntity
  8
0
  6
Continuous
 62
     7
370
    15
100
AcDbLine
 10
184.2446915704
 20
111.5269647058
 30
0.0
 11
184.2446915704
 21
110.6002633538
 31
0.0
  0
LINE
  5
209
330
1F
100
AcDbEntity
  8
0
  6
Continuous
 62
     7
370
    15
100
AcDbLine
 10
182.5863800842
 20
111.5269647058
 30
0.0
 11
182.5863800842
 21
110.6002633538
 31
0.0
  0
LINE
  5
20A
330
1F
100
AcDbEntity
  8
0
  6
Continuous
 62
     7
370
    15
100
AcDbLine
 10
182.1655355293
 20
111.5269647058
 30
0.0
 11
182.1655355293
 21
110.6002633538
 31
0.0
  0
LINE
  5
20B
330
1F
100
AcDbEntity
  8
0
  6
Continuous
 62
     7
370
    15
100
AcDbLine
 10
234.4155348736
 20
111.916964602
 30
0.0
 11
236.292926212
 21
111.916964602
 31
0.0
  0
LINE
  5
20C
330
1F
100
AcDbEntity
  8
0
  6
Continuous
 62
     7
370
    15
100
AcDbLine
 10
232.5381435353
 20
111.916964602
 30
0.0
 11
234.4155348736
 21
111.916964602
 31
0.0
  0
LINE
  5
20D
330
1F
100
AcDbEntity
  8
0
  6
Continuous
 62
     7
370
    15
100
AcDbLine
 10
232.6481439072
 20
111.8469649072
 30
0.0
 11
236.1829273301
 21
111.8469649072
 31
0.0
  0
LINE
  5
20E
330
1F
100
AcDbEntity
  8
0
  6
Continuous
 62
     7
370
    15
100
AcDbLine
 10
234.4155348736
 20
111.6769650097
 30
0.0
 11
236.292926212
 21
111.6769650097
 31
0.0
  0
LINE
  5
20F
330
1F
100
AcDbEntity
  8
0
  6
Continuous
 62
     7
370
    15
100
AcDbLine
 10
232.5381435353
 20
111.6769650097
 30
0.0
 11
234.4155348736
 21
111.6769650097
 31
0.0
  0
LINE
  5
210
330
1F
100
AcDbEntity
  8
0
  6
Continuous
 62
     7
370
    15
100
AcDbLine
 10
232.6481439072
 20
111.6069645699
 30
0.0
 11
236.1829273301
 21
111.6069645699
 31
0.0
  0
LINE
  5
211
330
1F
100
AcDbEntity
  8
0
  6
Continuous
 62
     7
370
    15
100
AcDbLine
 10
232.5381435353
 20
111.7769644673
 30
0.0
 11
236.292926212
 21
111.7769644673
 31
0.0
  0
LINE
  5
212
330
1F
100
AcDbEntity
  8
0
  6
Continuous
 62
     7
370
    15
100
AcDbLine
 10
232.5381435353
 20
111.536964875
 30
0.0
 11
236.292926212
 21
111.536964875
 31
0.0
  0
LINE
  5
213
330
1F
100
AcDbEntity
  8
0
  6
Continuous
 62
     7
370
    15
100
AcDbLine
 10
234.4155348736
 20
111.5269647058
 30
0.0
 11
236.292926212
 21
111.5269647058
 31
0.0
  0
LINE
  5
214
330
1F
100
AcDbEntity
  8
0
  6
Continuous
 62
     7
370
    15
100
AcDbLine
 10
232.5381435353
 20
111.5269647058
 30
0.0
 11
234.4155348736
 21
111.5269647058
 31
0.0
  0
LINE
  5
215
330
1F
100
AcDbEntity
  8
0
  6
Continuous
 62
     7
370
    15
100
AcDbLine
 10
233.5863791305
 20
111.5269647058
 30
0.0
 11
233.5863791305
 21
110.6002633538
 31
0.0
  0
LINE
  5
216
330
1F
100
AcDbEntity
  8
0
  6
Continuous
 62
     7
370
    15
100
AcDbLine
 10
235.2446921069
 20
111.5269647058
 30
0.0
 11
235.2446921069
 21
110.6002633538
 31
0.0
  0
LINE
  5
217
330
1F
100
AcDbEntity
  8
0
  6
Continuous
 62
     7
370
    15
100
AcDbLine
 10
235.6655351716
 20
111.5269647058
 30
0.0
 11
235.6655351716
 21
110.6002633538
 31
0.0
  0
LINE
  5
218
330
1F
100
AcDbEntity
  8
0
  6
Continuous
 62
     7
370
    15
100
AcDbLine
 10
233.1655360657
 20
111.5269647058
 30
0.0
 11
233.1655360657
 21
110.6002633538
 31
0.0
  0
LINE
  5
219
330
1F
100
AcDbEntity
  8
0
  6
Continuous
 62
     7
370
    15
100
AcDbLine
 10
185.5527065593
 20
108.2269647236
 30
0.0
 11
186.1155353385
 21
108.2269647236
 31
0.0
  0
SPLINE
  5
21A
330
1F
100
AcDbEntity
  8
0
  6
Continuous
 62
     7
370
    15
100
AcDbSpline
210
0.0
220
0.0
230
1.0
 70
     8
 71
     3
 72
    11
 73
     7
 74
     0
 42
0.00000001
 43
0.00000001
 40
0.0
 40
0.0
 40
0.0
 40
0.0
 40
0.1497360753013426
 40
0.5629187666871138
 40
0.9518116839620397
 40
1.0
 40
1.0
 40
1.0
 40
1.0
 10
185.3722117740022
 20
108.1118502731775
 30
0.0
 10
185.3796301651837
 20
108.1228195847754
 30
0.0
 10
185.4075189128104
 20
108.1640576855049
 30
0.0
 10
185.4672378110764
 20
108.20966815811
 30
0.0
 10
185.5222066597661
 20
108.2263709984501
 30
0.0
 10
185.5496778533056
 20
108.2269057654372
 30
0.0
 10
185.552706559311
 20
108.2269647236322
 30
0.0
  0
LWPOLYLINE
  5
21B
330
1F
100
AcDbEntity
  8
0
  6
Continuous
 62
     7
370
    15
100
AcDbPolyline
 90
       18
 70
   128
 43
0.0
 10
181.8334601718
 20
102.4616086002
 10
182.0237539607
 20
102.76551443
 10
182.2239749032
 20
103.0852795656
 10
182.4326984483
 20
103.4186224531
 10
182.6484314996
 20
103.763164867
 10
182.8696422178
 20
104.1164483021
 10
183.0947451192
 20
104.475952227
 10
183.322136839
 20
104.8391115929
 10
183.5501961309
 20
105.2033351812
 10
183.7772957879
 20
105.5660242991
 10
184.0018115836
 20
105.924591197
 10
184.2221461135
 20
106.2764774154
 10
184.4367258149
 20
106.6191723648
 10
184.6440188485
 20
106.9502308111
 10
184.8425470191
 20
107.2672908272
 10
185.0308917362
 20
107.5680901374
 10
185.2077118951
 20
107.8504824157
 10
185.3717438775
 20
108.1124528389
  0
LWPOLYLINE
  5
21C
330
1F
100
AcDbEntity
  8
0
  6
Continuous
 62
     7
370
    15
100
AcDbPolyline
 90
        4
 70
   128
 43
0.0
 10
181.7162714797
 20
102.2744481529
 10
181.7577056486
 20
102.3406219746
 10
181.7973427373
 20
102.4039243426
 10
181.8334601718
 20
102.4616086002
  0
ARC
  5
21D
330
1F
100
AcDbEntity
  8
0
  6
Continuous
 62
     7
370
    15
100
AcDbCircle
 10
180.6724274365
 20
101.7269647668
 30
0.0
 40
0.5000000000000207
100
AcDbArc
 50
270.0
 51
322.4905032695
  0
LINE
  5
21E
330
1F
100
AcDbEntity
  8
0
  6
Continuous
 62
     7
370
    15
100
AcDbLine
 10
179.526927312
 20
101.2269646938
 30
0.0
 11
180.6724272567
 21
101.2269646938
 31
0.0
  0
ARC
  5
21F
330
1F
100
AcDbEntity
  8
0
  6
Continuous
 62
     7
370
    15
100
AcDbCircle
 10
179.5269264991
 20
101.7269647668
 30
0.0
 40
0.5000000000000017
100
AcDbArc
 50
187.1250163489
 51
270.0
  0
LINE
  5
220
330
1F
100
AcDbEntity
  8
0
  6
Continuous
 62
     7
370
    15
100
AcDbLine
 10
178.6650560695
 20
104.5908029269
 30
0.0
 11
179.0307871896
 21
101.6649474467
 31
0.0
  0
ARC
  5
221
330
1F
100
AcDbEntity
  8
0
  6
Continuous
 62
     7
370
    15
100
AcDbCircle
 10
177.6727777421
 20
104.4667682005
 30
0.0
 40
1.000000000000033
100
AcDbArc
 50
7.1250163489
 51
72.4539026909
  0
LINE
  5
222
330
1F
100
AcDbEntity
  8
0
  6
Continuous
 62
     7
370
    15
100
AcDbLine
 10
177.2008709508
 20
105.6647724782
 30
0.0
 11
177.9742501575
 21
105.4202429097
 31
0.0
  0
LINE
  5
223
330
1F
100
AcDbEntity
  8
0
  6
Continuous
 62
     7
370
    15
100
AcDbLine
 10
181.7822866041
 20
102.3798800151
 30
0.0
 11
181.7822866041
 21
102.3517032232
 31
0.0
  0
LINE
  5
224
330
1F
100
AcDbEntity
  8
0
  6
Continuous
 62
     7
370
    15
100
AcDbLine
 10
181.0690544444
 20
101.4225182201
 30
0.0
 11
181.7822866041
 21
102.3517032232
 31
0.0
  0
LINE
  5
225
330
1F
100
AcDbEntity
  8
0
  6
Continuous
 62
     7
370
    15
100
AcDbLine
 10
175.9395562011
 20
107.167951491
 30
0.0
 11
177.2008709508
 21
105.6647724782
 31
0.0
  0
LINE
  5
226
330
1F
100
AcDbEntity
  8
0
  6
Continuous
 62
     7
370
    15
100
AcDbLine
 10
181.1591587859
 20
109.0269648548
 30
0.0
 11
180.0855360824
 21
109.0269648548
 31
0.0
  0
LINE
  5
227
330
1F
100
AcDbEntity
  8
0
  6
Continuous
 62
     7
370
    15
100
AcDbLine
 10
181.2360934812
 20
109.0163447972
 30
0.0
 11
181.1591587859
 21
109.0269648548
 31
0.0
  0
ARC
  5
228
330
1F
100
AcDbEntity
  8
0
  6
Continuous
 62
     7
370
    15
100
AcDbCircle
 10
180.0855353898
 20
102.2269647668
 30
0.0
 40
6.800000000000011
100
AcDbArc
 50
90.0
 51
130.0
  0
SPLINE
  5
229
330
1F
100
AcDbEntity
  8
0
  6
Continuous
 62
     7
370
    15
100
AcDbSpline
210
0.0
220
0.0
230
1.0
 70
     8
 71
     3
 72
    12
 73
     8
 74
     0
 42
0.00000001
 43
0.00000001
 40
0.0
 40
0.0
 40
0.0
 40
0.0
 40
0.2146967929743631
 40
0.4293857147270772
 40
0.6440827621754317
 40
0.8587734539484719
 40
1.0
 40
1.0
 40
1.0
 40
1.0
 10
175.7145784694063
 20
107.4360669668173
 30
0.0
 10
175.7170662364492
 20
107.4331032831565
 30
0.0
 10
175.7220416793286
 20
107.4271760244897
 30
0.0
 10
175.7608273512746
 20
107.3809481413177
 30
0.0
 10
175.8179169382845
 20
107.3129178472726
 30
0.0
 10
175.8811707670716
 20
107.2375278726089
 30
0.0
 10
175.9229703089475
 20
107.1877164612069
 30
0.0
 10
175.939556201111
 20
107.1679514910434
 30
0.0
  0
LINE
  5
22A
330
1F
100
AcDbEntity
  8
0
  6
Continuous
 62
     7
370
    15
100
AcDbLine
 10
181.1851404506
 20
109.0326947238
 30
0.0
 11
181.1591587859
 21
109.0269648548
 31
0.0
  0
LINE
  5
22B
330
1F
100
AcDbEntity
  8
0
  6
Continuous
 62
     7
370
    15
100
AcDbLine
 10
181.2360934812
 20
109.0163447972
 30
0.0
 11
181.1591587859
 21
109.0269648548
 31
0.0
  0
LINE
  5
22C
330
1F
100
AcDbEntity
  8
0
  6
Continuous
 62
     7
370
    15
100
AcDbLine
 10
236.5527070958
 20
108.2269647236
 30
0.0
 11
237.115535875
 21
108.2269647236
 31
0.0
  0
SPLINE
  5
22D
330
1F
100
AcDbEntity
  8
0
  6
Continuous
 62
     7
370
    15
100
AcDbSpline
210
0.0
220
0.0
230
1.0
 70
     8
 71
     3
 72
    11
 73
     7
 74
     0
 42
0.00000001
 43
0.00000001
 40
0.0
 40
0.0
 40
0.0
 40
0.0
 40
0.1497356308613976
 40
0.5629170958567196
 40
0.9518088588370213
 40
1.0
 40
1.0
 40
1.0
 40
1.0
 10
236.3722108203279
 20
108.1118502731775
 30
0.0
 10
236.379629193085
 20
108.1228195848717
 30
0.0
 10
236.407517871447
 20
108.1640576859631
 30
0.0
 10
236.4672379734594
 20
108.2096681522773
 30
0.0
 10
236.5222035083117
 20
108.2263710692465
 30
0.0
 10
236.5496778740119
 20
108.2269057695575
 30
0.0
 10
236.5527070957529
 20
108.2269647236322
 30
0.0
  0
LWPOLYLINE
  5
22E
330
1F
100
AcDbEntity
  8
0
  6
Continuous
 62
     7
370
    15
100
AcDbPolyline
 90
       18
 70
   128
 43
0.0
 10
232.8334621984
 20
102.4616086002
 10
233.0237530071
 20
102.76551443
 10
233.2239739496
 20
103.0852795656
 10
233.4326974946
 20
103.4186224531
 10
233.6484320361
 20
103.763164867
 10
233.8696412641
 20
104.1164483021
 10
234.0947456557
 20
104.475952227
 10
234.3221388656
 20
104.8391115929
 10
234.5501966673
 20
105.2033351812
 10
234.7772963244
 20
105.5660242991
 10
235.0018121201
 20
105.924591197
 10
235.22214665
 20
106.2764774154
 10
235.4367263514
 20
106.6191723648
 10
235.6440178949
 20
106.9502308111
 10
235.8425460655
 20
107.2672908272
 10
236.0308922726
 20
107.5680901374
 10
236.2077124316
 20
107.8504824157
 10
236.3717459041
 20
108.1124528389
  0
LWPOLYLINE
  5
22F
330
1F
100
AcDbEntity
  8
0
  6
Continuous
 62
     7
370
    15
100
AcDbPolyline
 90
        4
 70
   128
 43
0.0
 10
232.7162705261
 20
102.2744481529
 10
232.757706185
 20
102.3406219746
 10
232.7973417837
 20
102.4039243426
 10
232.8334621984
 20
102.4616086002
  0
ARC
  5
230
330
1F
100
AcDbEntity
  8
0
  6
Continuous
 62
     7
370
    15
100
AcDbCircle
 10
231.6724274365
 20
101.7269647668
 30
0.0
 40
0.5
100
AcDbArc
 50
270.0
 51
322.4905032695
  0
LINE
  5
231
330
1F
100
AcDbEntity
  8
0
  6
Continuous
 62
     7
370
    15
100
AcDbLine
 10
230.5269263584
 20
101.2269646938
 30
0.0
 11
231.6724277932
 21
101.2269646938
 31
0.0
  0
ARC
  5
232
330
1F
100
AcDbEntity
  8
0
  6
Continuous
 62
     7
370
    15
100
AcDbCircle
 10
230.5269264991
 20
101.7269647668
 30
0.0
 40
0.5000000000000034
100
AcDbArc
 50
187.1250163489
 51
270.0
  0
LINE
  5
233
330
1F
100
AcDbEntity
  8
0
  6
Continuous
 62
     7
370
    15
100
AcDbLine
 10
229.6650551158
 20
104.5908029269
 30
0.0
 11
230.0307877261
 21
101.6649474467
 31
0.0
  0
ARC
  5
234
330
1F
100
AcDbEntity
  8
0
  6
Continuous
 62
     7
370
    15
100
AcDbCircle
 10
228.6727777421
 20
104.4667682005
 30
0.0
 40
0.9999999999999867
100
AcDbArc
 50
7.1250163489
 51
72.4539026909
  0
LINE
  5
235
330
1F
100
AcDbEntity
  8
0
  6
Continuous
 62
     7
370
    15
100
AcDbLine
 10
228.2008714873
 20
105.6647724782
 30
0.0
 11
228.9742506939
 21
105.4202429097
 31
0.0
  0
LINE
  5
236
330
1F
100
AcDbEntity
  8
0
  6
Continuous
 62
     7
370
    15
100
AcDbLine
 10
232.7822871405
 20
102.3798800151
 30
0.0
 11
232.7822871405
 21
102.3517032232
 31
0.0
  0
LINE
  5
237
330
1F
100
AcDbEntity
  8
0
  6
Continuous
 62
     7
370
    15
100
AcDbLine
 10
232.0690534908
 20
101.4225182201
 30
0.0
 11
232.7822871405
 21
102.3517032232
 31
0.0
  0
LINE
  5
238
330
1F
100
AcDbEntity
  8
0
  6
Continuous
 62
     7
370
    15
100
AcDbLine
 10
226.9395552474
 20
107.167951491
 30
0.0
 11
228.2008714873
 21
105.6647724782
 31
0.0
  0
LINE
  5
239
330
1F
100
AcDbEntity
  8
0
  6
Continuous
 62
     7
370
    15
100
AcDbLine
 10
232.1591593224
 20
109.0269648548
 30
0.0
 11
231.0855351287
 21
109.0269648548
 31
0.0
  0
LINE
  5
23A
330
1F
100
AcDbEntity
  8
0
  6
Continuous
 62
     7
370
    15
100
AcDbLine
 10
232.2360925275
 20
109.0163447972
 30
0.0
 11
232.1591593224
 21
109.0269648548
 31
0.0
  0
ARC
  5
23B
330
1F
100
AcDbEntity
  8
0
  6
Continuous
 62
     7
370
    15
100
AcDbCircle
 10
231.0855353898
 20
102.2269647668
 30
0.0
 40
6.799999999999997
100
AcDbArc
 50
90.0
 51
130.0
  0
SPLINE
  5
23C
330
1F
100
AcDbEntity
  8
0
  6
Continuous
 62
     7
370
    15
100
AcDbSpline
210
0.0
220
0.0
230
1.0
 70
     8
 71
     3
 72
    12
 73
     8
 74
     0
 42
0.00000001
 43
0.00000001
 40
0.0
 40
0.0
 40
0.0
 40
0.0
 40
0.2146967126034211
 40
0.4293866959588135
 40
0.6440826498298681
 40
0.8587767918556847
 40
1.0
 40
1.0
 40
1.0
 40
1.0
 10
226.7145790058481
 20
107.4360669668173
 30
0.0
 10
226.7170659444537
 20
107.4331032242052
 30
0.0
 10
226.7220397437168
 20
107.4271758318739
 30
0.0
 10
226.7608289924494
 20
107.3809487244026
 30
0.0
 10
226.8179148764918
 20
107.3129164837459
 30
0.0
 10
226.8811732773391
 20
107.2375296937704
 30
0.0
 10
226.9229706236777
 20
107.1877166396351
 30
0.0
 10
226.9395552474367
 20
107.1679514910434
 30
0.0
  0
LINE
  5
23D
330
1F
100
AcDbEntity
  8
0
  6
Continuous
 62
     7
370
    15
100
AcDbLine
 10
232.1851424772
 20
109.0326947238
 30
0.0
 11
232.1591593224
 21
109.0269648548
 31
0.0
  0
LINE
  5
23E
330
1F
100
AcDbEntity
  8
0
  6
Continuous
 62
     7
370
    15
100
AcDbLine
 10
232.2360925275
 20
109.0163447972
 30
0.0
 11
232.1591593224
 21
109.0269648548
 31
0.0
  0
LINE
  5
23F
330
1F
100
AcDbEntity
  8
0
  6
Continuous
 62
     7
370
    15
100
AcDbLine
 10
180.735053857
 20
101.8519648428
 30
0.0
 11
180.0855360824
 21
101.4769648279
 31
0.0
  0
LINE
  5
240
330
1F
100
AcDbEntity
  8
0
  6
Continuous
 62
     7
370
    15
100
AcDbLine
 10
180.0855360824
 20
101.4769648279
 30
0.0
 11
179.4360153276
 21
101.8519648428
 31
0.0
  0
LINE
  5
241
330
1F
100
AcDbEntity
  8
0
  6
Continuous
 62
     7
370
    15
100
AcDbLine
 10
179.4360153276
 20
101.8519648428
 30
0.0
 11
179.4360153276
 21
102.6019646864
 31
0.0
  0
CIRCLE
  5
242
330
1F
100
AcDbEntity
  8
0
  6
Continuous
 62
     7
370
    15
100
AcDbCircle
 10
180.0855353898
 20
102.2269647668
 30
0.0
 40
0.0167980827140326
  0
LINE
  5
243
330
1F
100
AcDbEntity
  8
0
  6
Continuous
 62
     7
370
    15
100
AcDbLine
 10
180.0855360824
 20
102.9769647013
 30
0.0
 11
180.735053857
 21
102.6019646864
 31
0.0
  0
LINE
  5
244
330
1F
100
AcDbEntity
  8
0
  6
Continuous
 62
     7
370
    15
100
AcDbLine
 10
179.4360153276
 20
102.6019646864
 30
0.0
 11
180.0855360824
 21
102.9769647013
 31
0.0
  0
LINE
  5
245
330
1F
100
AcDbEntity
  8
0
  6
Continuous
 62
     7
370
    15
100
AcDbLine
 10
180.735053857
 20
102.6019646864
 30
0.0
 11
180.735053857
 21
101.8519648428
 31
0.0
  0
LINE
  5
246
330
1F
100
AcDbEntity
  8
0
  6
Continuous
 62
     7
370
    15
100
AcDbLine
 10
231.7350543934
 20
101.8519648428
 30
0.0
 11
231.0855351287
 21
101.4769648279
 31
0.0
  0
LINE
  5
247
330
1F
100
AcDbEntity
  8
0
  6
Continuous
 62
     7
370
    15
100
AcDbLine
 10
230.436015864
 20
102.6019646864
 30
0.0
 11
231.0855351287
 21
102.9769647013
 31
0.0
  0
LINE
  5
248
330
1F
100
AcDbEntity
  8
0
  6
Continuous
 62
     7
370
    15
100
AcDbLine
 10
231.0855351287
 20
101.4769648279
 30
0.0
 11
230.436015864
 21
101.8519648428
 31
0.0
  0
LINE
  5
249
330
1F
100
AcDbEntity
  8
0
  6
Continuous
 62
     7
370
    15
100
AcDbLine
 10
230.436015864
 20
101.8519648428
 30
0.0
 11
230.436015864
 21
102.6019646864
 31
0.0
  0
CIRCLE
  5
24A
330
1F
100
AcDbEntity
  8
0
  6
Continuous
 62
     7
370
    15
100
AcDbCircle
 10
231.0855353898
 20
102.2269647668
 30
0.0
 40
0.0167980827140468
  0
LINE
  5
24B
330
1F
100
AcDbEntity
  8
0
  6
Continuous
 62
     7
370
    15
100
AcDbLine
 10
231.0855351287
 20
102.9769647013
 30
0.0
 11
231.7350543934
 21
102.6019646864
 31
0.0
  0
LINE
  5
24C
330
1F
100
AcDbEntity
  8
0
  6
Continuous
 62
     7
370
    15
100
AcDbLine
 10
231.7350543934
 20
102.6019646864
 30
0.0
 11
231.7350543934
 21
101.8519648428
 31
0.0
  0
ARC
  5
24D
330
1F
100
AcDbEntity
  8
0
  6
Continuous
 62
     7
370
    15
100
AcDbCircle
 10
180.0855353898
 20
102.2269647668
 30
0.0
 40
4.050000000000002
100
AcDbArc
 50
270.0
 51
38.371727812
  0
ARC
  5
24E
330
1F
100
AcDbEntity
  8
0
  6
Continuous
 62
     7
370
    15
100
AcDbCircle
 10
180.0855353898
 20
102.2269647668
 30
0.0
 40
4.049999999999997
100
AcDbArc
 50
125.9682917476
 51
270.0
  0
ARC
  5
24F
330
1F
100
AcDbEntity
  8
0
  6
Continuous
 62
     7
370
    15
100
AcDbCircle
 10
231.0855353898
 20
102.2269647668
 30
0.0
 40
4.05000000000001
100
AcDbArc
 50
270.0
 51
38.371727812
  0
ARC
  5
250
330
1F
100
AcDbEntity
  8
0
  6
Continuous
 62
     7
370
    15
100
AcDbCircle
 10
231.0855353898
 20
102.2269647668
 30
0.0
 40
4.049999999999997
100
AcDbArc
 50
125.9682917476
 51
270.0
  0
LWPOLYLINE
  5
251
330
1F
100
AcDbEntity
  8
0
  6
Continuous
 62
     7
370
    15
100
AcDbPolyline
 90
        3
 70
   128
 43
0.0
 10
238.9981917936
 20
114.0233607109
 10
239.008861025
 20
114.0275173898
 10
239.0255354244
 20
114.0350968655
  0
ENDSEC
  0
SECTION
  2
OBJECTS
  0
DICTIONARY
  5
C
330
0
100
AcDbDictionary
281
     1
  3
ACAD_GROUP
350
D
  3
ACAD_LAYOUT
350
1A
  3
ACAD_MATERIAL
350
3B
  3
ACAD_MLEADERSTYLE
350
254
  3
ACAD_MLINESTYLE
350
17
  3
ACAD_PLOTSETTINGS
350
19
  3
ACAD_PLOTSTYLENAME
350
E
  3
ACAD_VISUALSTYLE
350
2A
  3
AcDbVariableDictionary
350
252
  0
DICTIONARY
  5
D
102
{ACAD_REACTORS
330
C
102
}
330
C
100
AcDbDictionary
281
     1
  0
DICTIONARY
  5
1A
102
{ACAD_REACTORS
330
C
102
}
330
C
100
AcDbDictionary
281
     1
  3
Layout1
350
1E
  3
Layout2
350
26
  3
Model
350
22
  0
DICTIONARY
  5
3B
102
{ACAD_REACTORS
330
C
102
}
330
C
100
AcDbDictionary
281
     1
  3
ByBlock
350
3D
  3
ByLayer
350
3C
  3
Global
350
3E
  0
DICTIONARY
  5
254
102
{ACAD_REACTORS
330
C
102
}
330
C
100
AcDbDictionary
281
     1
  0
DICTIONARY
  5
17
102
{ACAD_REACTORS
330
C
102
}
330
C
100
AcDbDictionary
281
     1
  3
Standard
350
18
  0
DICTIONARY
  5
19
102
{ACAD_REACTORS
330
C
102
}
330
C
100
AcDbDictionary
281
     1
  0
ACDBDICTIONARYWDFLT
  5
E
102
{ACAD_REACTORS
330
C
102
}
330
C
100
AcDbDictionary
281
     1
  3
Normal
350
F
100
AcDbDictionaryWithDefault
340
F
  0
DICTIONARY
  5
2A
102
{ACAD_REACTORS
330
C
102
}
330
C
100
AcDbDictionary
281
     1
  3
2dWireframe
350
2F
  3
3D Hidden
350
31
  3
3dWireframe
350
30
  3
Basic
350
32
  3
Brighten
350
36
  3
ColorChange
350
3A
  3
Conceptual
350
34
  3
Dim
350
35
  3
Facepattern
350
39
  3
Flat
350
2B
  3
FlatWithEdges
350
2C
  3
Gouraud
350
2D
  3
GouraudWithEdges
350
2E
  3
Linepattern
350
38
  3
Realistic
350
33
  3
Thicken
350
37
  0
DICTIONARY
  5
252
102
{ACAD_REACTORS
330
C
102
}
330
C
100
AcDbDictionary
281
     1
  3
DIMASSOC
350
257
  3
HIDETEXT
350
258
  3
PSOLHEIGHT
350
256
  3
PSOLWIDTH
350
255
  0
LAYOUT
  5
1E
102
{ACAD_REACTORS
330
1A
102
}
330
1A
100
AcDbPlotSettings
  1

  2
none_device
  4

  6

 40
0.0
 41
0.0
 42
0.0
 43
0.0
 44
0.0
 45
0.0
 46
0.0
 47
0.0
 48
0.0
 49
0.0
140
0.0
141
0.0
142
1.0
143
1.0
 70
   688
 72
     0
 73
     0
 74
     5
  7

 75
    16
147
1.0
148
0.0
149
0.0
100
AcDbLayout
  1
Layout1
 70
     1
 71
     1
 10
0.0
 20
0.0
 11
420.0
 21
297.0
 12
0.0
 22
0.0
 32
0.0
 14
1.0000000000E+20
 24
1.0000000000E+20
 34
1.0000000000E+20
 15
-1.0000000000E+20
 25
-1.0000000000E+20
 35
-1.0000000000E+20
146
0.0
 13
0.0
 23
0.0
 33
0.0
 16
1.0
 26
0.0
 36
0.0
 17
0.0
 27
1.0
 37
0.0
 76
     0
330
1B
  0
LAYOUT
  5
26
102
{ACAD_REACTORS
330
1A
102
}
330
1A
100
AcDbPlotSettings
  1

  2
none_device
  4

  6

 40
0.0
 41
0.0
 42
0.0
 43
0.0
 44
0.0
 45
0.0
 46
0.0
 47
0.0
 48
0.0
 49
0.0
140
0.0
141
0.0
142
1.0
143
1.0
 70
   688
 72
     0
 73
     0
 74
     5
  7

 75
    16
147
1.0
148
0.0
149
0.0
100
AcDbLayout
  1
Layout2
 70
     1
 71
     2
 10
0.0
 20
0.0
 11
0.0
 21
0.0
 12
0.0
 22
0.0
 32
0.0
 14
0.0
 24
0.0
 34
0.0
 15
0.0
 25
0.0
 35
0.0
146
0.0
 13
0.0
 23
0.0
 33
0.0
 16
1.0
 26
0.0
 36
0.0
 17
0.0
 27
1.0
 37
0.0
 76
     0
330
23
  0
LAYOUT
  5
22
102
{ACAD_REACTORS
330
1A
102
}
330
1A
100
AcDbPlotSettings
  1

  2
none_device
  4

  6

 40
0.0
 41
0.0
 42
0.0
 43
0.0
 44
0.0
 45
0.0
 46
0.0
 47
0.0
 48
0.0
 49
0.0
140
0.0
141
0.0
142
1.0
143
1.0
 70
  1712
 72
     0
 73
     0
 74
     0
  7

 75
     0
147
1.0
148
0.0
149
0.0
100
AcDbLayout
  1
Model
 70
     1
 71
     0
 10
0.0
 20
0.0
 11
420.0
 21
297.0
 12
0.0
 22
0.0
 32
0.0
 14
0.0
 24
0.0
 34
0.0
 15
420.0
 25
297.0
 35
0.0
146
0.0
 13
0.0
 23
0.0
 33
0.0
 16
1.0
 26
0.0
 36
0.0
 17
0.0
 27
1.0
 37
0.0
 76
     0
330
1F
331
29
  0
MATERIAL
  5
3D
102
{ACAD_REACTORS
330
3B
102
}
102
{ACAD_XDICTIONARY
360
27B
102
}
330
3B
100
AcDbMaterial
  1
ByBlock
  0
MATERIAL
  5
3C
102
{ACAD_REACTORS
330
3B
102
}
102
{ACAD_XDICTIONARY
360
279
102
}
330
3B
100
AcDbMaterial
  1
ByLayer
  0
MATERIAL
  5
3E
102
{ACAD_REACTORS
330
3B
102
}
102
{ACAD_XDICTIONARY
360
27D
102
}
330
3B
100
AcDbMaterial
  1
Global
  0
MLINESTYLE
  5
18
102
{ACAD_REACTORS
330
17
102
}
330
17
100
AcDbMlineStyle
  2
Standard
 70
     0
  3

 62
   256
 51
90.0
 52
90.0
 71
     2
 49
0.5
 62
   256
  6
BYLAYER
 49
-0.5
 62
   256
  6
BYLAYER
  0
ACDBPLACEHOLDER
  5
F
102
{ACAD_REACTORS
330
E
102
}
330
E
  0
VISUALSTYLE
  5
2F
102
{ACAD_REACTORS
330
2A
102
}
102
{ACAD_XDICTIONARY
360
261
102
}
330
2A
100
AcDbVisualStyle
  2
2dWireframe
 70
     4
 71
     0
 72
     2
 73
     0
 90
        0
 40
-0.6
 41
-30.0
 62
     5
 63
     7
 74
     1
 91
        4
 64
     7
 65
   257
 75
     1
175
     1
 42
1.0
 92
        0
 66
   257
 43
1.0
 76
     1
 77
     6
 78
     2
 67
     7
 79
     5
170
     0
171
     0
290
     0
174
     0
 93
        1
 44
0.0
173
     0
291
     0
 45
0.0
1001
ACAD
1000
AcDbSavedByObjectVersion
1070
     0
  0
VISUALSTYLE
  5
31
102
{ACAD_REACTORS
330
2A
102
}
102
{ACAD_XDICTIONARY
360
265
102
}
330
2A
100
AcDbVisualStyle
  2
3D Hidden
 70
     6
 71
     1
 72
     2
 73
     2
 90
        0
 40
-0.6
 41
-30.0
 62
     5
 63
     7
 74
     2
 91
        2
 64
     7
 65
   257
 75
     2
175
     1
 42
40.0
 92
        0
 66
   257
 43
1.0
 76
     1
 77
     6
 78
     2
 67
     7
 79
     3
170
     0
171
     0
290
     0
174
     0
 93
        1
 44
0.0
173
     0
291
     0
 45
0.0
1001
ACAD
1000
AcDbSavedByObjectVersion
1070
     0
  0
VISUALSTYLE
  5
30
102
{ACAD_REACTORS
330
2A
102
}
102
{ACAD_XDICTIONARY
360
263
102
}
330
2A
100
AcDbVisualStyle
  2
3dWireframe
 70
     5
 71
     0
 72
     2
 73
     0
 90
        0
 40
-0.6
 41
-30.0
 62
     5
 63
     7
 74
     1
 91
        4
 64
     7
 65
   257
 75
     1
175
     1
 42
1.0
 92
        0
 66
   257
 43
1.0
 76
     1
 77
     6
 78
     2
 67
     7
 79
     5
170
     0
171
     0
290
     0
174
     0
 93
        1
 44
0.0
173
     0
291
     0
 45
0.0
1001
ACAD
1000
AcDbSavedByObjectVersion
1070
     0
  0
VISUALSTYLE
  5
32
102
{ACAD_REACTORS
330
2A
102
}
102
{ACAD_XDICTIONARY
360
267
102
}
330
2A
100
AcDbVisualStyle
  2
Basic
 70
     7
 71
     1
 72
     0
 73
     1
 90
        0
 40
-0.6
 41
-30.0
 62
     5
 63
     7
 74
     0
 91
        4
 64
     7
 65
   257
 75
     1
175
     1
 42
1.0
 92
        8
 66
     7
 43
1.0
 76
     1
 77
     6
 78
     2
 67
     7
 79
     5
170
     0
171
     0
290
     0
174
     0
 93
        1
 44
0.0
173
     0
291
     1
 45
0.0
1001
ACAD
1000
AcDbSavedByObjectVersion
1070
     0
  0
VISUALSTYLE
  5
36
102
{ACAD_REACTORS
330
2A
102
}
102
{ACAD_XDICTIONARY
360
26F
102
}
330
2A
100
AcDbVisualStyle
  2
Brighten
 70
    12
 71
     2
 72
     2
 73
     0
 90
        0
 40
-0.6
 41
-30.0
 62
     5
 63
     7
 74
     1
 91
        4
 64
     7
 65
   257
 75
     1
175
     1
 42
1.0
 92
        8
 66
     7
 43
1.0
 76
     1
 77
     6
 78
     2
 67
     7
 79
     5
170
     0
171
     0
290
     0
174
     0
 93
        1
 44
50.0
173
     0
291
     1
 45
0.0
1001
ACAD
1000
AcDbSavedByObjectVersion
1070
     0
  0
VISUALSTYLE
  5
3A
102
{ACAD_REACTORS
330
2A
102
}
102
{ACAD_XDICTIONARY
360
277
102
}
330
2A
100
AcDbVisualStyle
  2
ColorChange
 70
    16
 71
     2
 72
     2
 73
     3
 90
        0
 40
-0.6
 41
-30.0
 62
     5
 63
     8
 74
     1
 91
        4
 64
     7
 65
   257
 75
     1
175
     1
 42
1.0
 92
        8
 66
     8
 43
1.0
 76
     1
 77
     6
 78
     2
 67
     7
 79
     5
170
     0
171
     0
290
     0
174
     0
 93
        1
 44
0.0
173
     0
291
     1
 45
0.0
1001
ACAD
1000
AcDbSavedByObjectVersion
1070
     0
  0
VISUALSTYLE
  5
34
102
{ACAD_REACTORS
330
2A
102
}
102
{ACAD_XDICTIONARY
360
26B
102
}
330
2A
100
AcDbVisualStyle
  2
Conceptual
 70
     9
 71
     3
 72
     2
 73
     0
 90
        0
 40
-0.6
 41
-30.0
 62
     5
 63
     7
 74
     2
 91
        2
 64
     7
 65
   257
 75
     1
175
     1
 42
40.0
 92
        8
 66
     7
 43
1.0
 76
     1
 77
     6
 78
     2
 67
     7
 79
     3
170
     0
171
     0
290
     0
174
     0
 93
        1
 44
0.0
173
     0
291
     0
 45
0.0
1001
ACAD
1000
AcDbSavedByObjectVersion
1070
     0
  0
VISUALSTYLE
  5
35
102
{ACAD_REACTORS
330
2A
102
}
102
{ACAD_XDICTIONARY
360
26D
102
}
330
2A
100
AcDbVisualStyle
  2
Dim
 70
    11
 71
     2
 72
     2
 73
     0
 90
        0
 40
-0.6
 41
-30.0
 62
     5
 63
     7
 74
     1
 91
        4
 64
     7
 65
   257
 75
     1
175
     1
 42
1.0
 92
        8
 66
     7
 43
1.0
 76
     1
 77
     6
 78
     2
 67
     7
 79
     5
170
     0
171
     0
290
     0
174
     0
 93
        1
 44
-50.0
173
     0
291
     1
 45
0.0
1001
ACAD
1000
AcDbSavedByObjectVersion
1070
     0
  0
VISUALSTYLE
  5
39
102
{ACAD_REACTORS
330
2A
102
}
102
{ACAD_XDICTIONARY
360
275
102
}
330
2A
100
AcDbVisualStyle
  2
Facepattern
 70
    15
 71
     2
 72
     2
 73
     0
 90
        0
 40
-0.6
 41
-30.0
 62
     5
 63
     7
 74
     1
 91
        4
 64
     7
 65
   257
 75
     1
175
     1
 42
1.0
 92
        8
 66
     7
 43
1.0
 76
     1
 77
     6
 78
     2
 67
     7
 79
     5
170
     0
171
     0
290
     0
174
     0
 93
        1
 44
0.0
173
     0
291
     1
 45
0.0
1001
ACAD
1000
AcDbSavedByObjectVersion
1070
     0
  0
VISUALSTYLE
  5
2B
102
{ACAD_REACTORS
330
2A
102
}
102
{ACAD_XDICTIONARY
360
259
102
}
330
2A
100
AcDbVisualStyle
  2
Flat
 70
     0
 71
     2
 72
     1
 73
     1
 90
        2
 40
-0.6
 41
30.0
 62
     5
 63
     7
 74
     0
 91
        4
 64
     7
 65
   257
 75
     1
175
     1
 42
1.0
 92
        8
 66
     7
 43
1.0
 76
     1
 77
     6
 78
     2
 67
     7
 79
     5
170
     0
171
     0
290
     0
174
     0
 93
       13
 44
0.0
173
     0
291
     1
 45
0.0
1001
ACAD
1000
AcDbSavedByObjectVersion
1070
     0
  0
VISUALSTYLE
  5
2C
102
{ACAD_REACTORS
330
2A
102
}
102
{ACAD_XDICTIONARY
360
25B
102
}
330
2A
100
AcDbVisualStyle
  2
FlatWithEdges
 70
     1
 71
     2
 72
     1
 73
     1
 90
        2
 40
-0.6
 41
30.0
 62
     5
 63
     7
 74
     1
 91
        4
 64
     7
 65
   257
 75
     1
175
     1
 42
1.0
 92
        0
 66
   257
 43
1.0
 76
     1
 77
     6
 78
     2
 67
     7
 79
     5
170
     0
171
     0
290
     0
174
     0
 93
       13
 44
0.0
173
     0
291
     1
 45
0.0
1001
ACAD
1000
AcDbSavedByObjectVersion
1070
     0
  0
VISUALSTYLE
  5
2D
102
{ACAD_REACTORS
330
2A
102
}
102
{ACAD_XDICTIONARY
360
25D
102
}
330
2A
100
AcDbVisualStyle
  2
Gouraud
 70
     2
 71
     2
 72
     2
 73
     1
 90
        2
 40
-0.6
 41
30.0
 62
     5
 63
     7
 74
     0
 91
        4
 64
     7
 65
   257
 75
     1
175
     1
 42
1.0
 92
        0
 66
     7
 43
1.0
 76
     1
 77
     6
 78
     2
 67
     7
 79
     5
170
     0
171
     0
290
     0
174
     0
 93
       13
 44
0.0
173
     0
291
     1
 45
0.0
1001
ACAD
1000
AcDbSavedByObjectVersion
1070
     0
  0
VISUALSTYLE
  5
2E
102
{ACAD_REACTORS
330
2A
102
}
102
{ACAD_XDICTIONARY
360
25F
102
}
330
2A
100
AcDbVisualStyle
  2
GouraudWithEdges
 70
     3
 71
     2
 72
     2
 73
     1
 90
        2
 40
-0.6
 41
30.0
 62
     5
 63
     7
 74
     1
 91
        4
 64
     7
 65
   257
 75
     1
175
     1
 42
1.0
 92
        0
 66
   257
 43
1.0
 76
     1
 77
     6
 78
     2
 67
     7
 79
     5
170
     0
171
     0
290
     0
174
     0
 93
       13
 44
0.0
173
     0
291
     1
 45
0.0
1001
ACAD
1000
AcDbSavedByObjectVersion
1070
     0
  0
VISUALSTYLE
  5
38
102
{ACAD_REACTORS
330
2A
102
}
102
{ACAD_XDICTIONARY
360
273
102
}
330
2A
100
AcDbVisualStyle
  2
Linepattern
 70
    14
 71
     2
 72
     2
 73
     0
 90
        0
 40
-0.6
 41
-30.0
 62
     5
 63
     7
 74
     1
 91
        4
 64
     7
 65
   257
 75
     7
175
     7
 42
1.0
 92
        8
 66
     7
 43
1.0
 76
     1
 77
     6
 78
     2
 67
     7
 79
     5
170
     0
171
     0
290
     0
174
     0
 93
        1
 44
0.0
173
     0
291
     1
 45
0.0
1001
ACAD
1000
AcDbSavedByObjectVersion
1070
     0
  0
VISUALSTYLE
  5
33
102
{ACAD_REACTORS
330
2A
102
}
102
{ACAD_XDICTIONARY
360
269
102
}
330
2A
100
AcDbVisualStyle
  2
Realistic
 70
     8
 71
     2
 72
     2
 73
     0
 90
        0
 40
-0.6
 41
-30.0
 62
     5
 63
     7
 74
     1
 91
        0
 64
     7
 65
   257
 75
     1
175
     1
 42
1.0
 92
        8
 66
     8
 43
1.0
 76
     1
 77
     6
 78
     2
 67
     7
 79
     5
170
     0
171
     0
290
     0
174
     0
 93
       13
 44
0.0
173
     0
291
     0
 45
0.0
1001
ACAD
1000
AcDbSavedByObjectVersion
1070
     0
  0
VISUALSTYLE
  5
37
102
{ACAD_REACTORS
330
2A
102
}
102
{ACAD_XDICTIONARY
360
271
102
}
330
2A
100
AcDbVisualStyle
  2
Thicken
 70
    13
 71
     2
 72
     2
 73
     0
 90
        0
 40
-0.6
 41
-30.0
 62
     5
 63
     7
 74
     1
 91
        4
 64
     7
 65
   257
 75
     1
175
     1
 42
1.0
 92
       12
 66
     7
 43
1.0
 76
     1
 77
     6
 78
     2
 67
     7
 79
     5
170
     0
171
     0
290
     0
174
     0
 93
        1
 44
0.0
173
     0
291
     1
 45
0.0
1001
ACAD
1000
AcDbSavedByObjectVersion
1070
     0
  0
DICTIONARYVAR
  5
257
102
{ACAD_REACTORS
330
252
102
}
330
252
100
DictionaryVariables
280
     0
  1
2
  0
DICTIONARYVAR
  5
258
102
{ACAD_REACTORS
330
252
102
}
330
252
100
DictionaryVariables
280
     0
  1
1
  0
DICTIONARYVAR
  5
256
102
{ACAD_REACTORS
330
252
102
}
330
252
100
DictionaryVariables
280
     0
  1
80.000000
  0
DICTIONARYVAR
  5
255
102
{ACAD_REACTORS
330
252
102
}
330
252
100
DictionaryVariables
280
     0
  1
5.000000
  0
DICTIONARY
  5
27B
330
3D
100
AcDbDictionary
280
     1
281
     1
  3
ACAD_XREC_ROUNDTRIP
360
27C
  0
DICTIONARY
  5
279
330
3C
100
AcDbDictionary
280
     1
281
     1
  3
ACAD_XREC_ROUNDTRIP
360
27A
  0
DICTIONARY
  5
27D
330
3E
100
AcDbDictionary
280
     1
281
     1
  3
ACAD_XREC_ROUNDTRIP
360
27E
  0
DICTIONARY
  5
261
330
2F
100
AcDbDictionary
280
     1
281
     1
  3
ACAD_XREC_ROUNDTRIP
360
262
  0
DICTIONARY
  5
265
330
31
100
AcDbDictionary
280
     1
281
     1
  3
ACAD_XREC_ROUNDTRIP
360
266
  0
DICTIONARY
  5
263
330
30
100
AcDbDictionary
280
     1
281
     1
  3
ACAD_XREC_ROUNDTRIP
360
264
  0
DICTIONARY
  5
267
330
32
100
AcDbDictionary
280
     1
281
     1
  3
ACAD_XREC_ROUNDTRIP
360
268
  0
DICTIONARY
  5
26F
330
36
100
AcDbDictionary
280
     1
281
     1
  3
ACAD_XREC_ROUNDTRIP
360
270
  0
DICTIONARY
  5
277
330
3A
100
AcDbDictionary
280
     1
281
     1
  3
ACAD_XREC_ROUNDTRIP
360
278
  0
DICTIONARY
  5
26B
330
34
100
AcDbDictionary
280
     1
281
     1
  3
ACAD_XREC_ROUNDTRIP
360
26C
  0
DICTIONARY
  5
26D
330
35
100
AcDbDictionary
280
     1
281
     1
  3
ACAD_XREC_ROUNDTRIP
360
26E
  0
DICTIONARY
  5
275
330
39
100
AcDbDictionary
280
     1
281
     1
  3
ACAD_XREC_ROUNDTRIP
360
276
  0
DICTIONARY
  5
259
330
2B
100
AcDbDictionary
280
     1
281
     1
  3
ACAD_XREC_ROUNDTRIP
360
25A
  0
DICTIONARY
  5
25B
330
2C
100
AcDbDictionary
280
     1
281
     1
  3
ACAD_XREC_ROUNDTRIP
360
25C
  0
DICTIONARY
  5
25D
330
2D
100
AcDbDictionary
280
     1
281
     1
  3
ACAD_XREC_ROUNDTRIP
360
25E
  0
DICTIONARY
  5
25F
330
2E
100
AcDbDictionary
280
     1
281
     1
  3
ACAD_XREC_ROUNDTRIP
360
260
  0
DICTIONARY
  5
273
330
38
100
AcDbDictionary
280
     1
281
     1
  3
ACAD_XREC_ROUNDTRIP
360
274
  0
DICTIONARY
  5
269
330
33
100
AcDbDictionary
280
     1
281
     1
  3
ACAD_XREC_ROUNDTRIP
360
26A
  0
DICTIONARY
  5
271
330
37
100
AcDbDictionary
280
     1
281
     1
  3
ACAD_XREC_ROUNDTRIP
360
272
  0
XRECORD
  5
27C
102
{ACAD_REACTORS
330
27B
102
}
330
27B
100
AcDbXrecord
280
     1
102
MATERIAL
148
0.0
149
0.0
149
0.0
 93
        0
 94
      127
282
     0
 72
     1
 77
     1
171
     1
175
     1
179
     1
273
     0
  0
XRECORD
  5
27A
102
{ACAD_REACTORS
330
279
102
}
330
279
100
AcDbXrecord
280
     1
102
MATERIAL
148
0.0
149
0.0
149
0.0
 93
        0
 94
      127
282
     0
 72
     1
 77
     1
171
     1
175
     1
179
     1
273
     0
  0
XRECORD
  5
27E
102
{ACAD_REACTORS
330
27D
102
}
330
27D
100
AcDbXrecord
280
     1
102
MATERIAL
148
0.0
149
0.0
149
0.0
 93
        0
 94
      127
282
     0
 72
     1
 77
     1
171
     1
175
     1
179
     1
273
     0
  0
XRECORD
  5
262
102
{ACAD_REACTORS
330
261
102
}
330
261
100
AcDbXrecord
280
     1
102
RTVSPropertyOp0
 70
     1
102
RTVSPropertyOp1
 70
     1
102
RTVSPropertyOp2
 70
     1
102
RTVSPropertyOp3
 70
     1
102
RTVSPropertyOp4
 70
     1
102
RTVSPropertyOp5
 70
     1
102
RTVSPropertyOp6
 70
     1
102
RTVSPropertyOp7
 70
     1
102
RTVSPropertyOp8
 70
     1
102
RTVSPropertyOp9
 70
     1
102
RTVSPropertyOp10
 70
     1
102
RTVSPropertyOp11
 70
     1
102
RTVSPropertyOp12
 70
     1
102
RTVSPropertyOp13
 70
     1
102
RTVSPropertyOp14
 70
     1
102
RTVSPropertyOp15
 70
     1
102
RTVSPropertyOp16
 70
     1
102
RTVSPropertyOp17
 70
     1
102
RTVSPropertyOp18
 70
     1
102
RTVSPropertyOp19
 70
     1
102
RTVSPropertyOp20
 70
     1
102
RTVSPropertyOp21
 70
     1
102
RTVSPropertyOp22
 70
     1
102
RTVSPropertyOp23
 70
     1
102
RTVSPropertyOp24
 70
     1
102
RTVSPropertyOp25
 70
     1
102
RTVSPropertyOp26
 70
     1
102
RTVSPropertyOp27
 70
     1
  0
XRECORD
  5
266
102
{ACAD_REACTORS
330
265
102
}
330
265
100
AcDbXrecord
280
     1
102
RTVSPropertyOp0
 70
     1
102
RTVSPropertyOp1
 70
     1
102
RTVSPropertyOp2
 70
     1
102
RTVSPropertyOp3
 70
     1
102
RTVSPropertyOp4
 70
     1
102
RTVSPropertyOp5
 70
     1
102
RTVSPropertyOp6
 70
     1
102
RTVSPropertyOp7
 70
     1
102
RTVSPropertyOp8
 70
     1
102
RTVSPropertyOp9
 70
     1
102
RTVSPropertyOp10
 70
     1
102
RTVSPropertyOp11
 70
     1
102
RTVSPropertyOp12
 70
     1
102
RTVSPropertyOp13
 70
     1
102
RTVSPropertyOp14
 70
     1
102
RTVSPropertyOp15
 70
     1
102
RTVSPropertyOp16
 70
     1
102
RTVSPropertyOp17
 70
     1
102
RTVSPropertyOp18
 70
     1
102
RTVSPropertyOp19
 70
     1
102
RTVSPropertyOp20
 70
     1
102
RTVSPropertyOp21
 70
     1
102
RTVSPropertyOp22
 70
     1
102
RTVSPropertyOp23
 70
     1
102
RTVSPropertyOp24
 70
     1
102
RTVSPropertyOp25
 70
     1
102
RTVSPropertyOp26
 70
     1
102
RTVSPropertyOp27
 70
     1
  0
XRECORD
  5
264
102
{ACAD_REACTORS
330
263
102
}
330
263
100
AcDbXrecord
280
     1
102
RTVSPropertyOp0
 70
     1
102
RTVSPropertyOp1
 70
     1
102
RTVSPropertyOp2
 70
     1
102
RTVSPropertyOp3
 70
     1
102
RTVSPropertyOp4
 70
     1
102
RTVSPropertyOp5
 70
     1
102
RTVSPropertyOp6
 70
     1
102
RTVSPropertyOp7
 70
     1
102
RTVSPropertyOp8
 70
     1
102
RTVSPropertyOp9
 70
     1
102
RTVSPropertyOp10
 70
     1
102
RTVSPropertyOp11
 70
     1
102
RTVSPropertyOp12
 70
     1
102
RTVSPropertyOp13
 70
     1
102
RTVSPropertyOp14
 70
     1
102
RTVSPropertyOp15
 70
     1
102
RTVSPropertyOp16
 70
     1
102
RTVSPropertyOp17
 70
     1
102
RTVSPropertyOp18
 70
     1
102
RTVSPropertyOp19
 70
     1
102
RTVSPropertyOp20
 70
     1
102
RTVSPropertyOp21
 70
     1
102
RTVSPropertyOp22
 70
     1
102
RTVSPropertyOp23
 70
     1
102
RTVSPropertyOp24
 70
     1
102
RTVSPropertyOp25
 70
     1
102
RTVSPropertyOp26
 70
     1
102
RTVSPropertyOp27
 70
     1
  0
XRECORD
  5
268
102
{ACAD_REACTORS
330
267
102
}
330
267
100
AcDbXrecord
280
     1
102
RTVSPropertyOp0
 70
     1
102
RTVSPropertyOp1
 70
     1
102
RTVSPropertyOp2
 70
     1
102
RTVSPropertyOp3
 70
     1
102
RTVSPropertyOp4
 70
     1
102
RTVSPropertyOp5
 70
     1
102
RTVSPropertyOp6
 70
     1
102
RTVSPropertyOp7
 70
     1
102
RTVSPropertyOp8
 70
     1
102
RTVSPropertyOp9
 70
     1
102
RTVSPropertyOp10
 70
     1
102
RTVSPropertyOp11
 70
     1
102
RTVSPropertyOp12
 70
     1
102
RTVSPropertyOp13
 70
     1
102
RTVSPropertyOp14
 70
     1
102
RTVSPropertyOp15
 70
     1
102
RTVSPropertyOp16
 70
     1
102
RTVSPropertyOp17
 70
     1
102
RTVSPropertyOp18
 70
     1
102
RTVSPropertyOp19
 70
     1
102
RTVSPropertyOp20
 70
     1
102
RTVSPropertyOp21
 70
     1
102
RTVSPropertyOp22
 70
     1
102
RTVSPropertyOp23
 70
     1
102
RTVSPropertyOp24
 70
     1
102
RTVSPropertyOp25
 70
     1
102
RTVSPropertyOp26
 70
     1
102
RTVSPropertyOp27
 70
     1
  0
XRECORD
  5
270
102
{ACAD_REACTORS
330
26F
102
}
330
26F
100
AcDbXrecord
280
     1
102
RTVSPropertyOp0
 70
     1
102
RTVSPropertyOp1
 70
     1
102
RTVSPropertyOp2
 70
     1
102
RTVSPropertyOp3
 70
     1
102
RTVSPropertyOp4
 70
     1
102
RTVSPropertyOp5
 70
     1
102
RTVSPropertyOp6
 70
     1
102
RTVSPropertyOp7
 70
     1
102
RTVSPropertyOp8
 70
     1
102
RTVSPropertyOp9
 70
     1
102
RTVSPropertyOp10
 70
     1
102
RTVSPropertyOp11
 70
     1
102
RTVSPropertyOp12
 70
     1
102
RTVSPropertyOp13
 70
     1
102
RTVSPropertyOp14
 70
     1
102
RTVSPropertyOp15
 70
     1
102
RTVSPropertyOp16
 70
     1
102
RTVSPropertyOp17
 70
     1
102
RTVSPropertyOp18
 70
     1
102
RTVSPropertyOp19
 70
     1
102
RTVSPropertyOp20
 70
     1
102
RTVSPropertyOp21
 70
     1
102
RTVSPropertyOp22
 70
     1
102
RTVSPropertyOp23
 70
     1
102
RTVSPropertyOp24
 70
     1
102
RTVSPropertyOp25
 70
     1
102
RTVSPropertyOp26
 70
     1
102
RTVSPropertyOp27
 70
     1
  0
XRECORD
  5
278
102
{ACAD_REACTORS
330
277
102
}
330
277
100
AcDbXrecord
280
     1
102
RTVSPropertyOp0
 70
     1
102
RTVSPropertyOp1
 70
     1
102
RTVSPropertyOp2
 70
     1
102
RTVSPropertyOp3
 70
     1
102
RTVSPropertyOp4
 70
     1
102
RTVSPropertyOp5
 70
     1
102
RTVSPropertyOp6
 70
     1
102
RTVSPropertyOp7
 70
     1
102
RTVSPropertyOp8
 70
     1
102
RTVSPropertyOp9
 70
     1
102
RTVSPropertyOp10
 70
     1
102
RTVSPropertyOp11
 70
     1
102
RTVSPropertyOp12
 70
     1
102
RTVSPropertyOp13
 70
     1
102
RTVSPropertyOp14
 70
     1
102
RTVSPropertyOp15
 70
     1
102
RTVSPropertyOp16
 70
     1
102
RTVSPropertyOp17
 70
     1
102
RTVSPropertyOp18
 70
     1
102
RTVSPropertyOp19
 70
     1
102
RTVSPropertyOp20
 70
     1
102
RTVSPropertyOp21
 70
     1
102
RTVSPropertyOp22
 70
     1
102
RTVSPropertyOp23
 70
     1
102
RTVSPropertyOp24
 70
     1
102
RTVSPropertyOp25
 70
     1
102
RTVSPropertyOp26
 70
     1
102
RTVSPropertyOp27
 70
     1
  0
XRECORD
  5
26C
102
{ACAD_REACTORS
330
26B
102
}
330
26B
100
AcDbXrecord
280
     1
102
RTVSPropertyOp0
 70
     1
102
RTVSPropertyOp1
 70
     1
102
RTVSPropertyOp2
 70
     1
102
RTVSPropertyOp3
 70
     1
102
RTVSPropertyOp4
 70
     1
102
RTVSPropertyOp5
 70
     1
102
RTVSPropertyOp6
 70
     1
102
RTVSPropertyOp7
 70
     1
102
RTVSPropertyOp8
 70
     1
102
RTVSPropertyOp9
 70
     1
102
RTVSPropertyOp10
 70
     1
102
RTVSPropertyOp11
 70
     1
102
RTVSPropertyOp12
 70
     1
102
RTVSPropertyOp13
 70
     1
102
RTVSPropertyOp14
 70
     1
102
RTVSPropertyOp15
 70
     1
102
RTVSPropertyOp16
 70
     1
102
RTVSPropertyOp17
 70
     1
102
RTVSPropertyOp18
 70
     1
102
RTVSPropertyOp19
 70
     1
102
RTVSPropertyOp20
 70
     1
102
RTVSPropertyOp21
 70
     1
102
RTVSPropertyOp22
 70
     1
102
RTVSPropertyOp23
 70
     1
102
RTVSPropertyOp24
 70
     1
102
RTVSPropertyOp25
 70
     1
102
RTVSPropertyOp26
 70
     1
102
RTVSPropertyOp27
 70
     1
  0
XRECORD
  5
26E
102
{ACAD_REACTORS
330
26D
102
}
330
26D
100
AcDbXrecord
280
     1
102
RTVSPropertyOp0
 70
     1
102
RTVSPropertyOp1
 70
     1
102
RTVSPropertyOp2
 70
     1
102
RTVSPropertyOp3
 70
     1
102
RTVSPropertyOp4
 70
     1
102
RTVSPropertyOp5
 70
     1
102
RTVSPropertyOp6
 70
     1
102
RTVSPropertyOp7
 70
     1
102
RTVSPropertyOp8
 70
     1
102
RTVSPropertyOp9
 70
     1
102
RTVSPropertyOp10
 70
     1
102
RTVSPropertyOp11
 70
     1
102
RTVSPropertyOp12
 70
     1
102
RTVSPropertyOp13
 70
     1
102
RTVSPropertyOp14
 70
     1
102
RTVSPropertyOp15
 70
     1
102
RTVSPropertyOp16
 70
     1
102
RTVSPropertyOp17
 70
     1
102
RTVSPropertyOp18
 70
     1
102
RTVSPropertyOp19
 70
     1
102
RTVSPropertyOp20
 70
     1
102
RTVSPropertyOp21
 70
     1
102
RTVSPropertyOp22
 70
     1
102
RTVSPropertyOp23
 70
     1
102
RTVSPropertyOp24
 70
     1
102
RTVSPropertyOp25
 70
     1
102
RTVSPropertyOp26
 70
     1
102
RTVSPropertyOp27
 70
     1
  0
XRECORD
  5
276
102
{ACAD_REACTORS
330
275
102
}
330
275
100
AcDbXrecord
280
     1
102
RTVSPropertyOp0
 70
     1
102
RTVSPropertyOp1
 70
     1
102
RTVSPropertyOp2
 70
     1
102
RTVSPropertyOp3
 70
     1
102
RTVSPropertyOp4
 70
     1
102
RTVSPropertyOp5
 70
     1
102
RTVSPropertyOp6
 70
     1
102
RTVSPropertyOp7
 70
     1
102
RTVSPropertyOp8
 70
     1
102
RTVSPropertyOp9
 70
     1
102
RTVSPropertyOp10
 70
     1
102
RTVSPropertyOp11
 70
     1
102
RTVSPropertyOp12
 70
     1
102
RTVSPropertyOp13
 70
     1
102
RTVSPropertyOp14
 70
     1
102
RTVSPropertyOp15
 70
     1
102
RTVSPropertyOp16
 70
     1
102
RTVSPropertyOp17
 70
     1
102
RTVSPropertyOp18
 70
     1
102
RTVSPropertyOp19
 70
     1
102
RTVSPropertyOp20
 70
     1
102
RTVSPropertyOp21
 70
     1
102
RTVSPropertyOp22
 70
     1
102
RTVSPropertyOp23
 70
     1
102
RTVSPropertyOp24
 70
     1
102
RTVSPropertyOp25
 70
     1
102
RTVSPropertyOp26
 70
     1
102
RTVSPropertyOp27
 70
     1
  0
XRECORD
  5
25A
102
{ACAD_REACTORS
330
259
102
}
330
259
100
AcDbXrecord
280
     1
102
RTVSPropertyOp0
 70
     1
102
RTVSPropertyOp1
 70
     1
102
RTVSPropertyOp2
 70
     1
102
RTVSPropertyOp3
 70
     1
102
RTVSPropertyOp4
 70
     1
102
RTVSPropertyOp5
 70
     1
102
RTVSPropertyOp6
 70
     1
102
RTVSPropertyOp7
 70
     1
102
RTVSPropertyOp8
 70
     1
102
RTVSPropertyOp9
 70
     1
102
RTVSPropertyOp10
 70
     1
102
RTVSPropertyOp11
 70
     1
102
RTVSPropertyOp12
 70
     1
102
RTVSPropertyOp13
 70
     1
102
RTVSPropertyOp14
 70
     1
102
RTVSPropertyOp15
 70
     1
102
RTVSPropertyOp16
 70
     1
102
RTVSPropertyOp17
 70
     1
102
RTVSPropertyOp18
 70
     1
102
RTVSPropertyOp19
 70
     1
102
RTVSPropertyOp20
 70
     1
102
RTVSPropertyOp21
 70
     1
102
RTVSPropertyOp22
 70
     1
102
RTVSPropertyOp23
 70
     1
102
RTVSPropertyOp24
 70
     1
102
RTVSPropertyOp25
 70
     1
102
RTVSPropertyOp26
 70
     1
102
RTVSPropertyOp27
 70
     1
  0
XRECORD
  5
25C
102
{ACAD_REACTORS
330
25B
102
}
330
25B
100
AcDbXrecord
280
     1
102
RTVSPropertyOp0
 70
     1
102
RTVSPropertyOp1
 70
     1
102
RTVSPropertyOp2
 70
     1
102
RTVSPropertyOp3
 70
     1
102
RTVSPropertyOp4
 70
     1
102
RTVSPropertyOp5
 70
     1
102
RTVSPropertyOp6
 70
     1
102
RTVSPropertyOp7
 70
     1
102
RTVSPropertyOp8
 70
     1
102
RTVSPropertyOp9
 70
     1
102
RTVSPropertyOp10
 70
     1
102
RTVSPropertyOp11
 70
     1
102
RTVSPropertyOp12
 70
     1
102
RTVSPropertyOp13
 70
     1
102
RTVSPropertyOp14
 70
     1
102
RTVSPropertyOp15
 70
     1
102
RTVSPropertyOp16
 70
     1
102
RTVSPropertyOp17
 70
     1
102
RTVSPropertyOp18
 70
     1
102
RTVSPropertyOp19
 70
     1
102
RTVSPropertyOp20
 70
     1
102
RTVSPropertyOp21
 70
     1
102
RTVSPropertyOp22
 70
     1
102
RTVSPropertyOp23
 70
     1
102
RTVSPropertyOp24
 70
     1
102
RTVSPropertyOp25
 70
     1
102
RTVSPropertyOp26
 70
     1
102
RTVSPropertyOp27
 70
     1
  0
XRECORD
  5
25E
102
{ACAD_REACTORS
330
25D
102
}
330
25D
100
AcDbXrecord
280
     1
102
RTVSPropertyOp0
 70
     1
102
RTVSPropertyOp1
 70
     1
102
RTVSPropertyOp2
 70
     1
102
RTVSPropertyOp3
 70
     1
102
RTVSPropertyOp4
 70
     1
102
RTVSPropertyOp5
 70
     1
102
RTVSPropertyOp6
 70
     1
102
RTVSPropertyOp7
 70
     1
102
RTVSPropertyOp8
 70
     1
102
RTVSPropertyOp9
 70
     1
102
RTVSPropertyOp10
 70
     1
102
RTVSPropertyOp11
 70
     1
102
RTVSPropertyOp12
 70
     1
102
RTVSPropertyOp13
 70
     1
102
RTVSPropertyOp14
 70
     1
102
RTVSPropertyOp15
 70
     1
102
RTVSPropertyOp16
 70
     1
102
RTVSPropertyOp17
 70
     1
102
RTVSPropertyOp18
 70
     1
102
RTVSPropertyOp19
 70
     1
102
RTVSPropertyOp20
 70
     1
102
RTVSPropertyOp21
 70
     1
102
RTVSPropertyOp22
 70
     1
102
RTVSPropertyOp23
 70
     1
102
RTVSPropertyOp24
 70
     1
102
RTVSPropertyOp25
 70
     1
102
RTVSPropertyOp26
 70
     1
102
RTVSPropertyOp27
 70
     1
  0
XRECORD
  5
260
102
{ACAD_REACTORS
330
25F
102
}
330
25F
100
AcDbXrecord
280
     1
102
RTVSPropertyOp0
 70
     1
102
RTVSPropertyOp1
 70
     1
102
RTVSPropertyOp2
 70
     1
102
RTVSPropertyOp3
 70
     1
102
RTVSPropertyOp4
 70
     1
102
RTVSPropertyOp5
 70
     1
102
RTVSPropertyOp6
 70
     1
102
RTVSPropertyOp7
 70
     1
102
RTVSPropertyOp8
 70
     1
102
RTVSPropertyOp9
 70
     1
102
RTVSPropertyOp10
 70
     1
102
RTVSPropertyOp11
 70
     1
102
RTVSPropertyOp12
 70
     1
102
RTVSPropertyOp13
 70
     1
102
RTVSPropertyOp14
 70
     1
102
RTVSPropertyOp15
 70
     1
102
RTVSPropertyOp16
 70
     1
102
RTVSPropertyOp17
 70
     1
102
RTVSPropertyOp18
 70
     1
102
RTVSPropertyOp19
 70
     1
102
RTVSPropertyOp20
 70
     1
102
RTVSPropertyOp21
 70
     1
102
RTVSPropertyOp22
 70
     1
102
RTVSPropertyOp23
 70
     1
102
RTVSPropertyOp24
 70
     1
102
RTVSPropertyOp25
 70
     1
102
RTVSPropertyOp26
 70
     1
102
RTVSPropertyOp27
 70
     1
  0
XRECORD
  5
274
102
{ACAD_REACTORS
330
273
102
}
330
273
100
AcDbXrecord
280
     1
102
RTVSPropertyOp0
 70
     1
102
RTVSPropertyOp1
 70
     1
102
RTVSPropertyOp2
 70
     1
102
RTVSPropertyOp3
 70
     1
102
RTVSPropertyOp4
 70
     1
102
RTVSPropertyOp5
 70
     1
102
RTVSPropertyOp6
 70
     1
102
RTVSPropertyOp7
 70
     1
102
RTVSPropertyOp8
 70
     1
102
RTVSPropertyOp9
 70
     1
102
RTVSPropertyOp10
 70
     1
102
RTVSPropertyOp11
 70
     1
102
RTVSPropertyOp12
 70
     1
102
RTVSPropertyOp13
 70
     1
102
RTVSPropertyOp14
 70
     1
102
RTVSPropertyOp15
 70
     1
102
RTVSPropertyOp16
 70
     1
102
RTVSPropertyOp17
 70
     1
102
RTVSPropertyOp18
 70
     1
102
RTVSPropertyOp19
 70
     1
102
RTVSPropertyOp20
 70
     1
102
RTVSPropertyOp21
 70
     1
102
RTVSPropertyOp22
 70
     1
102
RTVSPropertyOp23
 70
     1
102
RTVSPropertyOp24
 70
     1
102
RTVSPropertyOp25
 70
     1
102
RTVSPropertyOp26
 70
     1
102
RTVSPropertyOp27
 70
     1
  0
XRECORD
  5
26A
102
{ACAD_REACTORS
330
269
102
}
330
269
100
AcDbXrecord
280
     1
102
RTVSPropertyOp0
 70
     1
102
RTVSPropertyOp1
 70
     1
102
RTVSPropertyOp2
 70
     1
102
RTVSPropertyOp3
 70
     1
102
RTVSPropertyOp4
 70
     1
102
RTVSPropertyOp5
 70
     1
102
RTVSPropertyOp6
 70
     1
102
RTVSPropertyOp7
 70
     1
102
RTVSPropertyOp8
 70
     1
102
RTVSPropertyOp9
 70
     1
102
RTVSPropertyOp10
 70
     1
102
RTVSPropertyOp11
 70
     1
102
RTVSPropertyOp12
 70
     1
102
RTVSPropertyOp13
 70
     1
102
RTVSPropertyOp14
 70
     1
102
RTVSPropertyOp15
 70
     1
102
RTVSPropertyOp16
 70
     1
102
RTVSPropertyOp17
 70
     1
102
RTVSPropertyOp18
 70
     1
102
RTVSPropertyOp19
 70
     1
102
RTVSPropertyOp20
 70
     1
102
RTVSPropertyOp21
 70
     1
102
RTVSPropertyOp22
 70
     1
102
RTVSPropertyOp23
 70
     1
102
RTVSPropertyOp24
 70
     1
102
RTVSPropertyOp25
 70
     1
102
RTVSPropertyOp26
 70
     1
102
RTVSPropertyOp27
 70
     1
  0
XRECORD
  5
272
102
{ACAD_REACTORS
330
271
102
}
330
271
100
AcDbXrecord
280
     1
102
RTVSPropertyOp0
 70
     1
102
RTVSPropertyOp1
 70
     1
102
RTVSPropertyOp2
 70
     1
102
RTVSPropertyOp3
 70
     1
102
RTVSPropertyOp4
 70
     1
102
RTVSPropertyOp5
 70
     1
102
RTVSPropertyOp6
 70
     1
102
RTVSPropertyOp7
 70
     1
102
RTVSPropertyOp8
 70
     1
102
RTVSPropertyOp9
 70
     1
102
RTVSPropertyOp10
 70
     1
102
RTVSPropertyOp11
 70
     1
102
RTVSPropertyOp12
 70
     1
102
RTVSPropertyOp13
 70
     1
102
RTVSPropertyOp14
 70
     1
102
RTVSPropertyOp15
 70
     1
102
RTVSPropertyOp16
 70
     1
102
RTVSPropertyOp17
 70
     1
102
RTVSPropertyOp18
 70
     1
102
RTVSPropertyOp19
 70
     1
102
RTVSPropertyOp20
 70
     1
102
RTVSPropertyOp21
 70
     1
102
RTVSPropertyOp22
 70
     1
102
RTVSPropertyOp23
 70
     1
102
RTVSPropertyOp24
 70
     1
102
RTVSPropertyOp25
 70
     1
102
RTVSPropertyOp26
 70
     1
102
RTVSPropertyOp27
 70
     1
  0
ENDSEC
  0
EOF
