  0
SECTION
  2
HEADER
  9
$ACADVER
  1
AC1015
  9
$ACADMAINTVER
 70
     6
  9
$DWGCODEPAGE
  3
ANSI_1252
  9
$INSBASE
 10
0.0
 20
0.0
 30
0.0
  9
$EXTMIN
 10
0.0
 20
0.0
 30
0.0
  9
$EXTMAX
 10
841.0
 20
594.0
 30
0.0
  9
$LIMMIN
 10
0.0
 20
0.0
  9
$LIMMAX
 10
841.0
 20
594.0
  9
$ORTHOMODE
 70
     0
  9
$REGENMODE
 70
     1
  9
$FILLMODE
 70
     1
  9
$QTEXTMODE
 70
     0
  9
$MIRRTEXT
 70
     1
  9
$LTSCALE
 40
1.0
  9
$ATTMODE
 70
     1
  9
$TEXTSIZE
 40
3.5
  9
$TRACEWID
 40
1.0
  9
$TEXTSTYLE
  7
Standard
  9
$CLAYER
  8
0
  9
$CELTYPE
  6
ByLayer
  9
$CECOLOR
 62
   256
  9
$CELTSCALE
 40
1.0
  9
$DISPSILH
 70
     0
  9
$DIMSCALE
 40
1.0
  9
$DIMASZ
 40
3.302
  9
$DIMEXO
 40
1.0
  9
$DIMDLI
 40
3.75
  9
$DIMRND
 40
0.0
  9
$DIMDLE
 40
0.0
  9
$DIMEXE
 40
1.0
  9
$DIMTP
 40
0.0
  9
$DIMTM
 40
0.0
  9
$DIMTXT
 40
3.5
  9
$DIMCEN
 40
2.5
  9
$DIMTSZ
 40
0.0
  9
$DIMTOL
 70
     0
  9
$DIMLIM
 70
     0
  9
$DIMTIH
 70
     1
  9
$DIMTOH
 70
     1
  9
$DIMSE1
 70
     0
  9
$DIMSE2
 70
     0
  9
$DIMTAD
 70
     1
  9
$DIMZIN
 70
     0
  9
$DIMBLK
  1

  9
$DIMASO
 70
     1
  9
$DIMSHO
 70
     1
  9
$DIMPOST
  1

  9
$DIMAPOST
  1

  9
$DIMALT
 70
     0
  9
$DIMALTD
 70
     3
  9
$DIMALTF
 40
0.0393700787
  9
$DIMLFAC
 40
1.0
  9
$DIMTOFL
 70
     1
  9
$DIMTVP
 40
0.0
  9
$DIMTIX
 70
     0
  9
$DIMSOXD
 70
     0
  9
$DIMSAH
 70
     0
  9
$DIMBLK1
  1

  9
$DIMBLK2
  1

  9
$DIMSTYLE
  2
ISO-25
  9
$DIMCLRD
 70
     0
  9
$DIMCLRE
 70
     0
  9
$DIMCLRT
 70
     0
  9
$DIMTFAC
 40
1.0
  9
$DIMGAP
 40
1.524
  9
$DIMJUST
 70
     0
  9
$DIMSD1
 70
     0
  9
$DIMSD2
 70
     0
  9
$DIMTOLJ
 70
     0
  9
$DIMTZIN
 70
     0
  9
$DIMALTZ
 70
     0
  9
$DIMALTTZ
 70
     0
  9
$DIMUPT
 70
     0
  9
$DIMDEC
 70
     1
  9
$DIMTDEC
 70
     1
  9
$DIMALTU
 70
     2
  9
$DIMALTTD
 70
     3
  9
$DIMTXSTY
  7
Standard
  9
$DIMAUNIT
 70
     0
  9
$DIMADEC
 70
     1
  9
$DIMALTRND
 40
0.0
  9
$DIMAZIN
 70
     0
  9
$DIMDSEP
 70
    44
  9
$DIMATFIT
 70
     3
  9
$DIMFRAC
 70
     0
  9
$DIMLDRBLK
  1

  9
$DIMLUNIT
 70
     2
  9
$DIMLWD
 70
    -2
  9
$DIMLWE
 70
    -2
  9
$DIMTMOVE
 70
     0
  9
$LUNITS
 70
     2
  9
$LUPREC
 70
     1
  9
$SKETCHINC
 40
1.0
  9
$FILLETRAD
 40
10.0
  9
$AUNITS
 70
     0
  9
$AUPREC
 70
     1
  9
$MENU
  1
.
  9
$ELEVATION
 40
0.0
  9
$PELEVATION
 40
0.0
  9
$THICKNESS
 40
0.0
  9
$LIMCHECK
 70
     0
  9
$CHAMFERA
 40
10.0
  9
$CHAMFERB
 40
10.0
  9
$CHAMFERC
 40
20.0
  9
$CHAMFERD
 40
0.0
  9
$SKPOLY
 70
     0
  9
$TDCREATE
 40
2457080.330589306
  9
$TDUCREATE
 40
2457080.330589306
  9
$TDUPDATE
 40
2457080.330590035
  9
$TDUUPDATE
 40
2457080.330590035
  9
$TDINDWG
 40
0.0000000116
  9
$TDUSRTIMER
 40
0.0000000116
  9
$USRTIMER
 70
     1
  9
$ANGBASE
 50
0.0
  9
$ANGDIR
 70
     0
  9
$PDMODE
 70
     0
  9
$PDSIZE
 40
-1.0
  9
$PLINEWID
 40
0.0
  9
$SPLFRAME
 70
     0
  9
$SPLINETYPE
 70
     6
  9
$SPLINESEGS
 70
     8
  9
$HANDSEED
  5
1E5
  9
$SURFTAB1
 70
     6
  9
$SURFTAB2
 70
     6
  9
$SURFTYPE
 70
     6
  9
$SURFU
 70
     6
  9
$SURFV
 70
     6
  9
$UCSBASE
  2

  9
$UCSNAME
  2

  9
$UCSORG
 10
0.0
 20
0.0
 30
0.0
  9
$UCSXDIR
 10
1.0
 20
0.0
 30
0.0
  9
$UCSYDIR
 10
0.0
 20
1.0
 30
0.0
  9
$UCSORTHOREF
  2

  9
$UCSORTHOVIEW
 70
     0
  9
$UCSORGTOP
 10
0.0
 20
0.0
 30
0.0
  9
$UCSORGBOTTOM
 10
0.0
 20
0.0
 30
0.0
  9
$UCSORGLEFT
 10
0.0
 20
0.0
 30
0.0
  9
$UCSORGRIGHT
 10
0.0
 20
0.0
 30
0.0
  9
$UCSORGFRONT
 10
0.0
 20
0.0
 30
0.0
  9
$UCSORGBACK
 10
0.0
 20
0.0
 30
0.0
  9
$PUCSBASE
  2

  9
$PUCSNAME
  2

  9
$PUCSORG
 10
0.0
 20
0.0
 30
0.0
  9
$PUCSXDIR
 10
1.0
 20
0.0
 30
0.0
  9
$PUCSYDIR
 10
0.0
 20
1.0
 30
0.0
  9
$PUCSORTHOREF
  2

  9
$PUCSORTHOVIEW
 70
     0
  9
$PUCSORGTOP
 10
0.0
 20
0.0
 30
0.0
  9
$PUCSORGBOTTOM
 10
0.0
 20
0.0
 30
0.0
  9
$PUCSORGLEFT
 10
0.0
 20
0.0
 30
0.0
  9
$PUCSORGRIGHT
 10
0.0
 20
0.0
 30
0.0
  9
$PUCSORGFRONT
 10
0.0
 20
0.0
 30
0.0
  9
$PUCSORGBACK
 10
0.0
 20
0.0
 30
0.0
  9
$USERI1
 70
     0
  9
$USERI2
 70
     0
  9
$USERI3
 70
     0
  9
$USERI4
 70
     0
  9
$USERI5
 70
     0
  9
$USERR1
 40
0.0
  9
$USERR2
 40
0.0
  9
$USERR3
 40
0.0
  9
$USERR4
 40
0.0
  9
$USERR5
 40
0.0
  9
$WORLDVIEW
 70
     1
  9
$SHADEDGE
 70
     3
  9
$SHADEDIF
 70
    70
  9
$TILEMODE
 70
     1
  9
$MAXACTVP
 70
    64
  9
$PINSBASE
 10
0.0
 20
0.0
 30
0.0
  9
$PLIMCHECK
 70
     0
  9
$PEXTMIN
 10
1.0000000000E+20
 20
1.0000000000E+20
 30
1.0000000000E+20
  9
$PEXTMAX
 10
-1.0000000000E+20
 20
-1.0000000000E+20
 30
-1.0000000000E+20
  9
$PLIMMIN
 10
0.0
 20
0.0
  9
$PLIMMAX
 10
420.0
 20
297.0
  9
$UNITMODE
 70
     0
  9
$VISRETAIN
 70
     1
  9
$PLINEGEN
 70
     0
  9
$PSLTSCALE
 70
     1
  9
$TREEDEPTH
 70
  3020
  9
$CMLSTYLE
  2
Standard
  9
$CMLJUST
 70
     0
  9
$CMLSCALE
 40
20.0
  9
$PROXYGRAPHICS
 70
     1
  9
$MEASUREMENT
 70
     1
  9
$CELWEIGHT
370
    -1
  9
$ENDCAPS
280
     0
  9
$JOINSTYLE
280
     0
  9
$LWDISPLAY
290
     1
  9
$INSUNITS
 70
     4
  9
$HYPERLINKBASE
  1

  9
$STYLESHEET
  1

  9
$XEDIT
290
     1
  9
$CEPSNTYPE
380
     0
  9
$PSTYLEMODE
290
     1
  9
$FINGERPRINTGUID
  2
{AD5CAA62-86D5-476B-A9A9-E9BE9FCDD263}
  9
$VERSIONGUID
  2
{FAEB1C32-E019-11D5-929B-00C0DF256EC4}
  9
$EXTNAMES
290
     1
  9
$PSVPSCALE
 40
0.0
  9
$OLESTARTUP
290
     0
  0
ENDSEC
  0
SECTION
  2
CLASSES
  0
CLASS
  1
ACDBDICTIONARYWDFLT
  2
AcDbDictionaryWithDefault
  3
ObjectDBX Classes
 90
        0
280
     0
281
     0
  0
CLASS
  1
VISUALSTYLE
  2
AcDbVisualStyle
  3
ObjectDBX Classes
 90
     4095
280
     0
281
     0
  0
CLASS
  1
MATERIAL
  2
AcDbMaterial
  3
ObjectDBX Classes
 90
     1153
280
     0
281
     0
  0
CLASS
  1
ACDBPLACEHOLDER
  2
AcDbPlaceHolder
  3
ObjectDBX Classes
 90
        0
280
     0
281
     0
  0
CLASS
  1
LAYOUT
  2
AcDbLayout
  3
ObjectDBX Classes
 90
        0
280
     0
281
     0
  0
ENDSEC
  0
SECTION
  2
TABLES
  0
TABLE
  2
VPORT
  5
8
330
0
100
AcDbSymbolTable
 70
     1
  0
VPORT
  5
29
330
8
100
AcDbSymbolTableRecord
100
AcDbViewportTableRecord
  2
*Active
 70
     0
 10
0.0
 20
0.0
 11
1.0
 21
1.0
 12
420.5
 22
297.0
 13
0.0
 23
0.0
 14
10.0
 24
10.0
 15
10.0
 25
10.0
 16
0.0
 26
0.0
 36
1.0
 17
0.0
 27
0.0
 37
0.0
 40
594.0
 41
1.4158249158
 42
50.0
 43
0.0
 44
0.0
 50
0.0
 51
0.0
 71
     0
 72
  2000
 73
     1
 74
     3
 75
     0
 76
     0
 77
     0
 78
     0
281
     0
 65
     1
110
0.0
120
0.0
130
0.0
111
1.0
121
0.0
131
0.0
112
0.0
122
1.0
132
0.0
 79
     0
146
0.0
  0
ENDTAB
  0
TABLE
  2
LTYPE
  5
5
330
0
100
AcDbSymbolTable
 70
     6
  0
LTYPE
  5
14
330
5
100
AcDbSymbolTableRecord
100
AcDbLinetypeTableRecord
  2
ByBlock
 70
     0
  3

 72
    65
 73
     0
 40
0.0
  0
LTYPE
  5
15
330
5
100
AcDbSymbolTableRecord
100
AcDbLinetypeTableRecord
  2
ByLayer
 70
     0
  3

 72
    65
 73
     0
 40
0.0
  0
LTYPE
  5
16
330
5
100
AcDbSymbolTableRecord
100
AcDbLinetypeTableRecord
  2
Continuous
 70
     0
  3
Solid line
 72
    65
 73
     0
 40
0.0
  0
LTYPE
  5
3F
330
5
100
AcDbSymbolTableRecord
100
AcDbLinetypeTableRecord
  2
HIDDEN
 70
     0
  3
Hidden __ __ __ __ __ __ __ __ __ __ __ __ __ __
 72
    65
 73
     2
 40
1.905
 49
1.27
 74
     0
 49
-0.635
 74
     0
  0
LTYPE
  5
40
330
5
100
AcDbSymbolTableRecord
100
AcDbLinetypeTableRecord
  2
PHANTOM
 70
     0
  3
Phantom ______  __  __  ______  __  __  ______
 72
    65
 73
     6
 40
12.7
 49
6.35
 74
     0
 49
-1.27
 74
     0
 49
1.27
 74
     0
 49
-1.27
 74
     0
 49
1.27
 74
     0
 49
-1.27
 74
     0
  0
LTYPE
  5
41
330
5
100
AcDbSymbolTableRecord
100
AcDbLinetypeTableRecord
  2
CENTER
 70
     0
  3
Center ____ _ ____ _ ____ _ ____ _ ____ _ ____
 72
    65
 73
     4
 40
10.16
 49
6.35
 74
     0
 49
-1.27
 74
     0
 49
1.27
 74
     0
 49
-1.27
 74
     0
  0
LTYPE
  5
42
330
5
100
AcDbSymbolTableRecord
100
AcDbLinetypeTableRecord
  2
CENTERX2
 70
     0
  3
Center (2x) ________  __  ________  __  _____
 72
    65
 73
     4
 40
20.32
 49
12.7
 74
     0
 49
-2.54
 74
     0
 49
2.54
 74
     0
 49
-2.54
 74
     0
  0
LTYPE
  5
43
330
5
100
AcDbSymbolTableRecord
100
AcDbLinetypeTableRecord
  2
DOT2
 70
     0
  3
Dot (.5x) ........................................
 72
    65
 73
     2
 40
0.635
 49
0.0
 74
     0
 49
-0.635
 74
     0
  0
ENDTAB
  0
TABLE
  2
LAYER
  5
2
330
0
100
AcDbSymbolTable
 70
     4
  0
LAYER
  5
10
330
2
100
AcDbSymbolTableRecord
100
AcDbLayerTableRecord
  2
0
 70
     0
 62
     7
  6
Continuous
370
    -3
390
F
  0
LAYER
  5
44
330
2
100
AcDbSymbolTableRecord
100
AcDbLayerTableRecord
  2
FORMAT
 70
     0
 62
     7
  6
Continuous
370
    -3
390
F
  0
LAYER
  5
45
330
2
100
AcDbSymbolTableRecord
100
AcDbLayerTableRecord
  2
SLD-0
 70
     0
 62
     1
  6
Continuous
370
    -3
390
F
  0
LAYER
  5
46
330
2
100
AcDbSymbolTableRecord
100
AcDbLayerTableRecord
  2
WATERMARK
 70
     0
 62
     1
  6
Continuous
370
    -3
390
F
  0
ENDTAB
  0
TABLE
  2
STYLE
  5
3
330
0
100
AcDbSymbolTable
 70
     1
  0
STYLE
  5
11
330
3
100
AcDbSymbolTableRecord
100
AcDbTextStyleTableRecord
  2
Standard
 70
     0
 40
0.0
 41
1.0
 50
0.0
 71
     0
 42
3.5
  3
txt
  4

  0
ENDTAB
  0
TABLE
  2
VIEW
  5
6
330
0
100
AcDbSymbolTable
 70
     0
  0
ENDTAB
  0
TABLE
  2
UCS
  5
7
330
0
100
AcDbSymbolTable
 70
     0
  0
ENDTAB
  0
TABLE
  2
APPID
  5
9
330
0
100
AcDbSymbolTable
 70
     1
  0
APPID
  5
12
330
9
100
AcDbSymbolTableRecord
100
AcDbRegAppTableRecord
  2
ACAD
 70
     0
  0
ENDTAB
  0
TABLE
  2
DIMSTYLE
  5
A
330
0
100
AcDbSymbolTable
 70
     1
100
AcDbDimStyleTable
  0
DIMSTYLE
105
27
330
A
100
AcDbSymbolTableRecord
100
AcDbDimStyleTableRecord
  2
ISO-25
 70
     0
 41
2.5
 42
0.625
 43
3.75
 44
1.25
 73
     0
 74
     0
 77
     1
 78
     8
140
2.5
141
2.5
143
0.0393700787
147
0.625
171
     3
172
     1
178
     0
271
     2
272
     2
274
     3
278
    44
283
     0
284
     8
340
11
  0
ENDTAB
  0
TABLE
  2
BLOCK_RECORD
  5
1
330
0
100
AcDbSymbolTable
 70
     1
  0
BLOCK_RECORD
  5
1F
330
1
100
AcDbSymbolTableRecord
100
AcDbBlockTableRecord
  2
*Model_Space
340
22
  0
BLOCK_RECORD
  5
1B
330
1
100
AcDbSymbolTableRecord
100
AcDbBlockTableRecord
  2
*Paper_Space
340
1E
  0
BLOCK_RECORD
  5
23
330
1
100
AcDbSymbolTableRecord
100
AcDbBlockTableRecord
  2
*Paper_Space0
340
26
  0
ENDTAB
  0
ENDSEC
  0
SECTION
  2
BLOCKS
  0
BLOCK
  5
20
330
1F
100
AcDbEntity
  8
0
100
AcDbBlockBegin
  2
*Model_Space
 70
     0
 10
0.0
 20
0.0
 30
0.0
  3
*Model_Space
  1

  0
ENDBLK
  5
21
330
1F
100
AcDbEntity
  8
0
100
AcDbBlockEnd
  0
BLOCK
  5
1C
330
1B
100
AcDbEntity
 67
     1
  8
0
100
AcDbBlockBegin
  2
*Paper_Space
 70
     0
 10
0.0
 20
0.0
 30
0.0
  3
*Paper_Space
  1

  0
ENDBLK
  5
1D
330
1B
100
AcDbEntity
 67
     1
  8
0
100
AcDbBlockEnd
  0
BLOCK
  5
24
330
23
100
AcDbEntity
  8
0
100
AcDbBlockBegin
  2
*Paper_Space0
 70
     0
 10
0.0
 20
0.0
 30
0.0
  3
*Paper_Space0
  1

  0
ENDBLK
  5
25
330
23
100
AcDbEntity
  8
0
100
AcDbBlockEnd
  0
ENDSEC
  0
SECTION
  2
ENTITIES
  0
ARC
  5
47
330
1F
100
AcDbEntity
  8
0
  6
Continuous
 62
     7
370
    15
100
AcDbCircle
 10
-32.654778538
 20
491.4475325477
 30
0.0
 40
2.0
100
AcDbArc
 50
90.0
 51
180.0
  0
ARC
  5
48
330
1F
100
AcDbEntity
  8
0
  6
Continuous
 62
     7
370
    15
100
AcDbCircle
 10
-17.654778538
 20
491.4475325477
 30
0.0
 40
2.000000000000004
100
AcDbArc
 50
0.0
 51
90.0
  0
LINE
  5
49
330
1F
100
AcDbEntity
  8
0
  6
Continuous
 62
     7
370
    15
100
AcDbLine
 10
-15.654778538
 20
481.9475325477
 30
0.0
 11
-15.654778538
 21
491.4475325477
 31
0.0
  0
LINE
  5
4A
330
1F
100
AcDbEntity
  8
0
  6
Continuous
 62
     7
370
    15
100
AcDbLine
 10
-34.654778538
 20
491.4475325477
 30
0.0
 11
-34.654778538
 21
481.9475325477
 31
0.0
  0
LINE
  5
4B
330
1F
100
AcDbEntity
  8
0
  6
Continuous
 62
     7
370
    15
100
AcDbLine
 10
815.211635731
 20
330.4168967888
 30
0.0
 11
815.2272457281
 21
330.4551795411
 31
0.0
  0
LINE
  5
4C
330
1F
100
AcDbEntity
  8
0
  6
Continuous
 62
     7
370
    15
100
AcDbLine
 10
811.4874729576
 20
338.509768834
 30
0.0
 11
811.4641386808
 21
338.5172680901
 31
0.0
  0
ARC
  5
4D
330
1F
100
AcDbEntity
  8
0
  6
Continuous
 62
     7
370
    15
100
AcDbCircle
 10
787.8428033495
 20
322.5923203755
 30
0.0
 40
40.00000000000001
100
AcDbArc
 50
31.8986518741
 51
44.7246335587
  0
ARC
  5
4E
330
1F
100
AcDbEntity
  8
0
  6
Continuous
 62
     7
370
    15
100
AcDbCircle
 10
787.8428033495
 20
322.5923203755
 30
0.0
 40
40.00000000000009
100
AcDbArc
 50
5.2753664413
 51
18.1017271842
  0
LINE
  5
4F
330
1F
100
AcDbEntity
  8
0
  6
Continuous
 62
     7
370
    15
100
AcDbLine
 10
816.262683069
 20
350.7403298385
 30
0.0
 11
812.2799559322
 21
348.8831536743
 31
0.0
  0
LINE
  5
50
330
1F
100
AcDbEntity
  8
0
  6
Continuous
 62
     7
370
    15
100
AcDbLine
 10
823.6906489992
 20
324.4128434243
 30
0.0
 11
827.673376136
 21
326.2700195885
 31
0.0
  0
LINE
  5
51
330
1F
100
AcDbEntity
  8
0
  6
Continuous
 62
     7
370
    15
100
AcDbLine
 10
833.1049639363
 20
307.8386301154
 30
0.0
 11
840.4775687597
 21
315.690043881
 31
0.0
  0
LINE
  5
52
330
1F
100
AcDbEntity
  8
0
  6
Continuous
 62
     7
370
    15
100
AcDbLine
 10
816.3883278405
 20
367.3495877421
 30
0.0
 11
805.6347769232
 21
366.7486362728
 31
0.0
  0
LINE
  5
53
330
1F
100
AcDbEntity
  8
0
  6
Continuous
 62
     7
370
    15
100
AcDbLine
 10
840.4775687597
 20
315.690043881
 30
0.0
 11
841.1303581109
 21
316.4470484185
 31
0.0
  0
LINE
  5
54
330
1F
100
AcDbEntity
  8
0
  6
Continuous
 62
     7
370
    15
100
AcDbLine
 10
842.4030860926
 20
317.922962288
 30
0.0
 11
854.3779048551
 21
331.809512556
 31
0.0
  0
LINE
  5
55
330
1F
100
AcDbEntity
  8
0
  6
Continuous
 62
     7
370
    15
100
AcDbLine
 10
819.7551853949
 20
367.3949702989
 30
0.0
 11
816.3883278405
 21
367.3495877421
 31
0.0
  0
ARC
  5
56
330
1F
100
AcDbEntity
  8
0
  6
Continuous
 62
     7
370
    15
100
AcDbCircle
 10
853.6205934712
 20
332.4625665107
 30
0.0
 40
1.000000000000015
100
AcDbArc
 50
319.227745318
 51
25.0
  0
ARC
  5
57
330
1F
100
AcDbEntity
  8
0
  6
Continuous
 62
     7
370
    15
100
AcDbCircle
 10
805.166677835
 20
357.0390230317
 30
0.0
 40
2.00000000000013
100
AcDbArc
 50
205.0
 51
292.0
  0
ARC
  5
58
330
1F
100
AcDbEntity
  8
0
  6
Continuous
 62
     7
370
    15
100
AcDbCircle
 10
825.3660803742
 20
313.7212644964
 30
0.0
 40
1.999999999999992
100
AcDbArc
 50
118.0
 51
205.0
  0
LINE
  5
59
330
1F
100
AcDbEntity
  8
0
  6
Continuous
 62
     7
370
    15
100
AcDbLine
 10
824.4271372486
 20
315.4871596821
 30
0.0
 11
827.1721618011
 21
316.9467151268
 31
0.0
  0
LINE
  5
5A
330
1F
100
AcDbEntity
  8
0
  6
Continuous
 62
     7
370
    15
100
AcDbLine
 10
808.7984431303
 20
356.3492819717
 30
0.0
 11
805.9158910218
 21
355.1846553226
 31
0.0
  0
LINE
  5
5B
330
1F
100
AcDbEntity
  8
0
  6
Continuous
 62
     7
370
    15
100
AcDbLine
 10
836.3924116085
 20
273.5118097745
 30
0.0
 11
836.8344912597
 21
273.7468676946
 31
0.0
  0
LINE
  5
5C
330
1F
100
AcDbEntity
  8
0
  6
Continuous
 62
     7
370
    15
100
AcDbLine
 10
819.4876811388
 20
309.7641212559
 30
0.0
 11
822.2327056913
 21
311.2236767006
 31
0.0
  0
LINE
  5
5D
330
1F
100
AcDbEntity
  8
0
  6
Continuous
 62
     7
370
    15
100
AcDbLine
 10
801.2393201603
 20
356.2441372569
 30
0.0
 11
798.3567680518
 21
355.0795106078
 31
0.0
  0
ARC
  5
5E
330
1F
100
AcDbEntity
  8
0
  6
Continuous
 62
     7
370
    15
100
AcDbCircle
 10
801.9885333471
 20
354.3897695478
 30
0.0
 40
2.000000000000027
100
AcDbArc
 50
25.0
 51
112.0
  0
ARC
  5
5F
330
1F
100
AcDbEntity
  8
0
  6
Continuous
 62
     7
370
    15
100
AcDbCircle
 10
821.2937625658
 20
312.9895718864
 30
0.0
 40
1.999999999999992
100
AcDbArc
 50
298.0
 51
25.0
  0
ARC
  5
60
330
1F
100
AcDbEntity
  8
0
  6
Continuous
 62
     7
370
    15
100
AcDbCircle
 10
807.8131298284
 20
351.3636884172
 30
0.0
 40
2.000000000000027
100
AcDbArc
 50
205.0
 51
292.0
  0
ARC
  5
61
330
1F
100
AcDbEntity
  8
0
  6
Continuous
 62
     7
370
    15
100
AcDbCircle
 10
822.7196283808
 20
319.3965991109
 30
0.0
 40
1.999999999999992
100
AcDbArc
 50
118.0
 51
205.0
  0
LINE
  5
62
330
1F
100
AcDbEntity
  8
0
  6
Continuous
 62
     7
370
    15
100
AcDbLine
 10
821.7806852552
 20
321.1624942966
 30
0.0
 11
824.1067668178
 21
322.3992938023
 31
0.0
  0
LINE
  5
63
330
1F
100
AcDbEntity
  8
0
  6
Continuous
 62
     7
370
    15
100
AcDbLine
 10
811.0049628113
 20
350.4962031654
 30
0.0
 11
808.5623430152
 21
349.509320708
 31
0.0
  0
ARC
  5
64
330
1F
100
AcDbEntity
  8
0
  6
Continuous
 62
     7
370
    15
100
AcDbCircle
 10
811.192266108
 20
350.0326112381
 30
0.0
 40
0.5000000000000339
100
AcDbArc
 50
25.0
 51
112.0
  0
ARC
  5
65
330
1F
100
AcDbEntity
  8
0
  6
Continuous
 62
     7
370
    15
100
AcDbCircle
 10
823.8720310364
 20
322.8407675987
 30
0.0
 40
0.5000000000000067
100
AcDbArc
 50
298.0
 51
25.0
  0
ARC
  5
66
330
1F
100
AcDbEntity
  8
0
  6
Continuous
 62
     7
370
    15
100
AcDbCircle
 10
682.8894730003
 20
117.0475325477
 30
0.0
 40
2.0
100
AcDbArc
 50
270.0
 51
0.0
  0
ARC
  5
67
330
1F
100
AcDbEntity
  8
0
  6
Continuous
 62
     7
370
    15
100
AcDbCircle
 10
629.8894730003
 20
117.0475325477
 30
0.0
 40
2.0
100
AcDbArc
 50
180.0
 51
270.0
  0
LINE
  5
68
330
1F
100
AcDbEntity
  8
0
  6
Continuous
 62
     7
370
    15
100
AcDbLine
 10
684.8894730003
 20
117.0475325477
 30
0.0
 11
684.8894730003
 21
121.0475325477
 31
0.0
  0
LINE
  5
69
330
1F
100
AcDbEntity
  8
0
  6
Continuous
 62
     7
370
    15
100
AcDbLine
 10
627.8894730003
 20
121.0475325477
 30
0.0
 11
627.8894730003
 21
117.0475325477
 31
0.0
  0
LINE
  5
6A
330
1F
100
AcDbEntity
  8
0
  6
Continuous
 62
     7
370
    15
100
AcDbLine
 10
105.8894730003
 20
117.0475325477
 30
0.0
 11
105.8894730003
 21
121.0475325477
 31
0.0
  0
LINE
  5
6B
330
1F
100
AcDbEntity
  8
0
  6
Continuous
 62
     7
370
    15
100
AcDbLine
 10
48.8894730003
 20
121.0475325477
 30
0.0
 11
48.8894730003
 21
117.0475325477
 31
0.0
  0
ARC
  5
6C
330
1F
100
AcDbEntity
  8
0
  6
Continuous
 62
     7
370
    15
100
AcDbCircle
 10
103.8894730003
 20
117.0475325477
 30
0.0
 40
2.0
100
AcDbArc
 50
270.0
 51
0.0
  0
ARC
  5
6D
330
1F
100
AcDbEntity
  8
0
  6
Continuous
 62
     7
370
    15
100
AcDbCircle
 10
50.8894730003
 20
117.0475325477
 30
0.0
 40
2.0
100
AcDbArc
 50
180.0
 51
270.0
  0
LINE
  5
6E
330
1F
100
AcDbEntity
  8
0
  6
Continuous
 62
     7
370
    15
100
AcDbLine
 10
684.6894730003
 20
121.0475325477
 30
0.0
 11
684.6894730003
 21
150.0475325477
 31
0.0
  0
LINE
  5
6F
330
1F
100
AcDbEntity
  8
0
  6
Continuous
 62
     7
370
    15
100
AcDbLine
 10
628.0894730003
 20
150.0475325477
 30
0.0
 11
628.0894730003
 21
121.0475325477
 31
0.0
  0
LINE
  5
70
330
1F
100
AcDbEntity
  8
0
  6
Continuous
 62
     7
370
    15
100
AcDbLine
 10
105.6894730003
 20
121.0475325477
 30
0.0
 11
105.6894730003
 21
150.0475325477
 31
0.0
  0
LINE
  5
71
330
1F
100
AcDbEntity
  8
0
  6
Continuous
 62
     7
370
    15
100
AcDbLine
 10
49.0894730003
 20
150.0475325477
 30
0.0
 11
49.0894730003
 21
121.0475325477
 31
0.0
  0
ARC
  5
72
330
1F
100
AcDbEntity
  8
0
  6
Continuous
 62
     7
370
    15
100
AcDbCircle
 10
110.7894730003
 20
211.5475325477
 30
0.0
 40
1.5
100
AcDbArc
 50
90.0
 51
180.0
  0
ARC
  5
73
330
1F
100
AcDbEntity
  8
0
  6
Continuous
 62
     7
370
    15
100
AcDbCircle
 10
43.9894730003
 20
211.5475325477
 30
0.0
 40
1.5
100
AcDbArc
 50
0.0
 51
90.0
  0
LINE
  5
74
330
1F
100
AcDbEntity
  8
0
  6
Continuous
 62
     7
370
    15
100
AcDbLine
 10
109.2894730003
 20
156.0800984934
 30
0.0
 11
109.2894730003
 21
211.5475325477
 31
0.0
  0
LINE
  5
75
330
1F
100
AcDbEntity
  8
0
  6
Continuous
 62
     7
370
    15
100
AcDbLine
 10
45.4894730003
 20
211.5475325477
 30
0.0
 11
45.4894730003
 21
156.0800984934
 31
0.0
  0
ARC
  5
76
330
1F
100
AcDbEntity
  8
0
  6
Continuous
 62
     7
370
    15
100
AcDbCircle
 10
104.5894730003
 20
156.0800984934
 30
0.0
 40
4.700000000000047
100
AcDbArc
 50
350.5402980318
 51
0.0
  0
ARC
  5
77
330
1F
100
AcDbEntity
  8
0
  6
Continuous
 62
     7
370
    15
100
AcDbCircle
 10
50.1894730003
 20
156.0800984934
 30
0.0
 40
4.700000000000047
100
AcDbArc
 50
180.0
 51
189.4597019682
  0
LINE
  5
78
330
1F
100
AcDbEntity
  8
0
  6
Continuous
 62
     7
370
    15
100
AcDbLine
 10
45.5533862273
 20
155.3076352689
 30
0.0
 11
46.4298227799
 21
150.0475325477
 31
0.0
  0
LINE
  5
79
330
1F
100
AcDbEntity
  8
0
  6
Continuous
 62
     7
370
    15
100
AcDbLine
 10
108.3491232206
 20
150.0475325477
 30
0.0
 11
109.2255597733
 21
155.3076352689
 31
0.0
  0
ARC
  5
7A
330
1F
100
AcDbEntity
  8
0
  6
Continuous
 62
     7
370
    15
100
AcDbCircle
 10
689.7894730003
 20
211.5475325477
 30
0.0
 40
1.5
100
AcDbArc
 50
90.0
 51
180.0
  0
ARC
  5
7B
330
1F
100
AcDbEntity
  8
0
  6
Continuous
 62
     7
370
    15
100
AcDbCircle
 10
622.9894730003
 20
211.5475325477
 30
0.0
 40
1.500000000000114
100
AcDbArc
 50
0.0
 51
90.0
  0
ARC
  5
7C
330
1F
100
AcDbEntity
  8
0
  6
Continuous
 62
     7
370
    15
100
AcDbCircle
 10
683.5894730003
 20
156.0800984934
 30
0.0
 40
4.700000000000045
100
AcDbArc
 50
350.5402980318
 51
0.0
  0
ARC
  5
7D
330
1F
100
AcDbEntity
  8
0
  6
Continuous
 62
     7
370
    15
100
AcDbCircle
 10
629.1894730003
 20
156.0800984934
 30
0.0
 40
4.700000000000006
100
AcDbArc
 50
180.0
 51
189.4597019682
  0
LINE
  5
7E
330
1F
100
AcDbEntity
  8
0
  6
Continuous
 62
     7
370
    15
100
AcDbLine
 10
688.2894730003
 20
156.0800984934
 30
0.0
 11
688.2894730003
 21
211.5475325477
 31
0.0
  0
LINE
  5
7F
330
1F
100
AcDbEntity
  8
0
  6
Continuous
 62
     7
370
    15
100
AcDbLine
 10
624.4894730003
 20
211.5475325477
 30
0.0
 11
624.4894730003
 21
156.0800984934
 31
0.0
  0
LINE
  5
80
330
1F
100
AcDbEntity
  8
0
  6
Continuous
 62
     7
370
    15
100
AcDbLine
 10
624.5533862273
 20
155.3076352689
 30
0.0
 11
625.4298227799
 21
150.0475325477
 31
0.0
  0
LINE
  5
81
330
1F
100
AcDbEntity
  8
0
  6
Continuous
 62
     7
370
    15
100
AcDbLine
 10
687.3491232206
 20
150.0475325477
 30
0.0
 11
688.2255597733
 21
155.3076352689
 31
0.0
  0
LINE
  5
82
330
1F
100
AcDbEntity
  8
0
  6
Continuous
 62
     7
370
    15
100
AcDbLine
 10
823.4963859657
 20
306.5691252851
 30
0.0
 11
822.771339736
 21
306.2310306757
 31
0.0
  0
LINE
  5
83
330
1F
100
AcDbEntity
  8
0
  6
Continuous
 62
     7
370
    15
100
AcDbLine
 10
823.4963859657
 20
306.5691252851
 30
0.0
 11
841.2465805441
 21
268.5037101712
 31
0.0
  0
LINE
  5
84
330
1F
100
AcDbEntity
  8
0
  6
Continuous
 62
     7
370
    15
100
AcDbLine
 10
840.5215343145
 20
268.1656155618
 30
0.0
 11
841.2465805441
 21
268.5037101712
 31
0.0
  0
LINE
  5
85
330
1F
100
AcDbEntity
  8
0
  6
Continuous
 62
     7
370
    15
100
AcDbLine
 10
822.771339736
 20
306.2310306757
 30
0.0
 11
840.5215343145
 21
268.1656155618
 31
0.0
  0
ARC
  5
86
330
1F
100
AcDbEntity
  8
0
  6
Continuous
 62
     7
370
    15
100
AcDbCircle
 10
824.8558476462
 20
307.2030526777
 30
0.0
 40
2.300000000000075
100
AcDbArc
 50
115.0
 51
205.0
  0
LINE
  5
87
330
1F
100
AcDbEntity
  8
0
  6
Continuous
 62
     7
370
    15
100
AcDbLine
 10
823.8838256442
 20
309.2875605879
 30
0.0
 11
824.2219202536
 21
308.5625143583
 31
0.0
  0
ARC
  5
88
330
1F
100
AcDbEntity
  8
0
  6
Continuous
 62
     7
370
    15
100
AcDbCircle
 10
824.8558476462
 20
307.2030526777
 30
0.0
 40
1.50000000000002
100
AcDbArc
 50
115.0
 51
205.0
  0
LINE
  5
89
330
1F
100
AcDbEntity
  8
0
  6
Continuous
 62
     7
370
    15
100
AcDbLine
 10
841.2465805441
 20
266.5596661672
 30
0.0
 11
840.5215343145
 21
266.8977607766
 31
0.0
  0
ARC
  5
8A
330
1F
100
AcDbEntity
  8
0
  6
Continuous
 62
     7
370
    15
100
AcDbCircle
 10
839.1620726339
 20
267.5316881692
 30
0.0
 40
1.50000000000002
100
AcDbArc
 50
335.0
 51
25.0
  0
ARC
  5
8B
330
1F
100
AcDbEntity
  8
0
  6
Continuous
 62
     7
370
    15
100
AcDbCircle
 10
839.1620726339
 20
267.5316881692
 30
0.0
 40
2.300000000000075
100
AcDbArc
 50
335.0
 51
25.0
  0
LINE
  5
8C
330
1F
100
AcDbEntity
  8
0
  6
Continuous
 62
     7
370
    15
100
AcDbLine
 10
845.4290344119
 20
316.7964872192
 30
0.0
 11
844.7039881823
 21
316.4583926098
 31
0.0
  0
LINE
  5
8D
330
1F
100
AcDbEntity
  8
0
  6
Continuous
 62
     7
370
    15
100
AcDbLine
 10
850.7962863361
 20
305.2863783238
 30
0.0
 11
845.4290344119
 21
316.7964872192
 31
0.0
  0
LINE
  5
8E
330
1F
100
AcDbEntity
  8
0
  6
Continuous
 62
     7
370
    15
100
AcDbLine
 10
850.0712401064
 20
304.9482837145
 30
0.0
 11
850.7962863361
 21
305.2863783238
 31
0.0
  0
LINE
  5
8F
330
1F
100
AcDbEntity
  8
0
  6
Continuous
 62
     7
370
    15
100
AcDbLine
 10
850.0712401064
 20
304.9482837145
 30
0.0
 11
844.7039881823
 21
316.4583926098
 31
0.0
  0
LINE
  5
90
330
1F
100
AcDbEntity
  8
0
  6
Continuous
 62
     7
370
    15
100
AcDbLine
 10
852.9093776448
 20
300.7548393887
 30
0.0
 11
852.1843314151
 21
300.4167447793
 31
0.0
  0
LINE
  5
91
330
1F
100
AcDbEntity
  8
0
  6
Continuous
 62
     7
370
    15
100
AcDbLine
 10
852.1843314151
 20
300.4167447793
 30
0.0
 11
850.0712401064
 21
304.9482837145
 31
0.0
  0
LINE
  5
92
330
1F
100
AcDbEntity
  8
0
  6
Continuous
 62
     7
370
    15
100
AcDbLine
 10
850.7962863361
 20
305.2863783238
 30
0.0
 11
852.9093776448
 21
300.7548393887
 31
0.0
  0
LINE
  5
93
330
1F
100
AcDbEntity
  8
0
  6
Continuous
 62
     7
370
    15
100
AcDbLine
 10
821.2565091784
 20
223.6908197821
 30
0.0
 11
820.5314629488
 21
224.0289143915
 31
0.0
  0
LINE
  5
94
330
1F
100
AcDbEntity
  8
0
  6
Continuous
 62
     7
370
    15
100
AcDbLine
 10
820.5314629488
 20
224.0289143915
 30
0.0
 11
822.6445542575
 21
228.5604533267
 31
0.0
  0
LINE
  5
95
330
1F
100
AcDbEntity
  8
0
  6
Continuous
 62
     7
370
    15
100
AcDbLine
 10
822.6445542575
 20
228.5604533267
 30
0.0
 11
823.3696004871
 21
228.2223587173
 31
0.0
  0
LINE
  5
96
330
1F
100
AcDbEntity
  8
0
  6
Continuous
 62
     7
370
    15
100
AcDbLine
 10
823.3696004871
 20
228.2223587173
 30
0.0
 11
821.2565091784
 21
223.6908197821
 31
0.0
  0
LINE
  5
97
330
1F
100
AcDbEntity
  8
0
  6
Continuous
 62
     7
370
    15
100
AcDbLine
 10
842.7105991092
 20
317.1839268978
 30
0.0
 11
842.3725044998
 21
317.9089731274
 31
0.0
  0
LINE
  5
98
330
1F
100
AcDbEntity
  8
0
  6
Continuous
 62
     7
370
    15
100
AcDbLine
 10
842.3725044998
 20
317.9089731274
 30
0.0
 11
823.8838256442
 21
309.2875605879
 31
0.0
  0
LINE
  5
99
330
1F
100
AcDbEntity
  8
0
  6
Continuous
 62
     7
370
    15
100
AcDbLine
 10
842.7105991092
 20
317.1839268978
 30
0.0
 11
824.2219202536
 21
308.5625143583
 31
0.0
  0
ARC
  5
9A
330
1F
100
AcDbEntity
  8
0
  6
Continuous
 62
     7
370
    15
100
AcDbCircle
 10
843.3445265018
 20
315.8244652172
 30
0.0
 40
2.300000000000075
100
AcDbArc
 50
25.0
 51
115.0
  0
ARC
  5
9B
330
1F
100
AcDbEntity
  8
0
  6
Continuous
 62
     7
370
    15
100
AcDbCircle
 10
843.3445265018
 20
315.8244652172
 30
0.0
 40
1.500000000000044
100
AcDbArc
 50
25.0
 51
115.0
  0
LINE
  5
9C
330
1F
100
AcDbEntity
  8
0
  6
Continuous
 62
     7
370
    15
100
AcDbLine
 10
840.5215343145
 20
266.8977607766
 30
0.0
 11
822.6445542575
 21
228.5604533267
 31
0.0
  0
LINE
  5
9D
330
1F
100
AcDbEntity
  8
0
  6
Continuous
 62
     7
370
    15
100
AcDbLine
 10
841.2465805441
 20
266.5596661672
 30
0.0
 11
823.3696004871
 21
228.2223587173
 31
0.0
  0
LINE
  5
9E
330
1F
100
AcDbEntity
  8
0
  6
Continuous
 62
     7
370
    15
100
AcDbLine
 10
-32.6547776346
 20
493.4475325477
 30
0.0
 11
-17.654778538
 21
493.4475325477
 31
0.0
  0
LINE
  5
9F
330
1F
100
AcDbEntity
  8
0
  6
Continuous
 62
     7
370
    15
100
AcDbLine
 10
8.0936144062
 20
462.1475325472
 30
0.0
 11
-47.5563855949
 21
462.1475325472
 31
0.0
  0
LINE
  5
A0
330
1F
100
AcDbEntity
  8
0
  6
Continuous
 62
     7
370
    15
100
AcDbLine
 10
-47.5563855949
 20
462.1475325472
 30
0.0
 11
-47.5563855949
 21
464.1475325477
 31
0.0
  0
LINE
  5
A1
330
1F
100
AcDbEntity
  8
0
  6
Continuous
 62
     7
370
    15
100
AcDbLine
 10
-47.5563855949
 20
464.4475325472
 30
0.0
 11
8.0936144062
 21
464.4475325472
 31
0.0
  0
LINE
  5
A2
330
1F
100
AcDbEntity
  8
0
  6
Continuous
 62
     7
370
    15
100
AcDbLine
 10
-60.5563855938
 20
466.2975325477
 30
0.0
 11
-60.5563855938
 21
477.7975325477
 31
0.0
  0
ARC
  5
A3
330
1F
100
AcDbEntity
  8
0
  6
Continuous
 62
     7
370
    15
100
AcDbCircle
 10
-58.4063855938
 20
477.7975325477
 30
0.0
 40
2.149999999999984
100
AcDbArc
 50
90.0
 51
180.0
  0
LINE
  5
A4
330
1F
100
AcDbEntity
  8
0
  6
Continuous
 62
     7
370
    15
100
AcDbLine
 10
-58.4063855938
 20
479.9475325477
 30
0.0
 11
-58.404778538
 21
479.9475325477
 31
0.0
  0
LINE
  5
A5
330
1F
100
AcDbEntity
  8
0
  6
Continuous
 62
     7
370
    15
100
AcDbLine
 10
-58.404778538
 20
479.9475325477
 30
0.0
 11
-58.404778538
 21
477.6475325477
 31
0.0
  0
LINE
  5
A6
330
1F
100
AcDbEntity
  8
0
  6
Continuous
 62
     7
370
    15
100
AcDbLine
 10
8.0936144062
 20
477.6475325477
 30
0.0
 11
-58.404778538
 21
477.6475325477
 31
0.0
  0
LINE
  5
A7
330
1F
100
AcDbEntity
  8
0
  6
Continuous
 62
     7
370
    15
100
AcDbLine
 10
8.0936144062
 20
477.6475325477
 30
0.0
 11
8.0936144062
 21
479.9475325477
 31
0.0
  0
ARC
  5
A8
330
1F
100
AcDbEntity
  8
0
  6
Continuous
 62
     7
370
    15
100
AcDbCircle
 10
8.0936144062
 20
477.7975325477
 30
0.0
 40
2.149999999999984
100
AcDbArc
 50
359.9999999959
 51
90.0
  0
LINE
  5
A9
330
1F
100
AcDbEntity
  8
0
  6
Continuous
 62
     7
370
    15
100
AcDbLine
 10
10.2436144062
 20
477.7975325475
 30
0.0
 11
10.2436144062
 21
466.2975325475
 31
0.0
  0
ARC
  5
AA
330
1F
100
AcDbEntity
  8
0
  6
Continuous
 62
     7
370
    15
100
AcDbCircle
 10
14.5936144062
 20
466.2975325472
 30
0.0
 40
4.349999999999966
100
AcDbArc
 50
179.999999996
 51
252.5584061437
  0
LINE
  5
AB
330
1F
100
AcDbEntity
  8
0
  6
Continuous
 62
     7
370
    15
100
AcDbLine
 10
-47.5563855949
 20
464.1475325477
 30
0.0
 11
-58.4063855938
 21
464.1475325477
 31
0.0
  0
LINE
  5
AC
330
1F
100
AcDbEntity
  8
0
  6
Continuous
 62
     7
370
    15
100
AcDbLine
 10
-47.5563855949
 20
464.4475325472
 30
0.0
 11
-47.5563855949
 21
464.1475325477
 31
0.0
  0
LINE
  5
AD
330
1F
100
AcDbEntity
  8
0
  6
Continuous
 62
     7
370
    15
100
AcDbLine
 10
13.2897739252
 20
462.1475325472
 30
0.0
 11
8.0936144062
 21
462.1475325472
 31
0.0
  0
ARC
  5
AE
330
1F
100
AcDbEntity
  8
0
  6
Continuous
 62
     7
370
    15
100
AcDbCircle
 10
-58.4063855938
 20
466.2975325477
 30
0.0
 40
2.149999999999984
100
AcDbArc
 50
180.0
 51
270.0
  0
LINE
  5
AF
330
1F
100
AcDbEntity
  8
0
  6
Continuous
 62
     7
370
    15
100
AcDbLine
 10
8.0936144062
 20
462.1475325472
 30
0.0
 11
8.0936144062
 21
464.4475325472
 31
0.0
  0
SPLINE
  5
B0
330
1F
100
AcDbEntity
  8
0
  6
Continuous
 62
     7
370
    15
100
AcDbSpline
210
0.0
220
0.0
230
1.0
 70
     8
 71
     3
 72
     9
 73
     5
 74
     0
 42
0.00000001
 43
0.00000001
 12
1.0
 22
0.0
 32
0.0
 13
1.0
 23
0.0
 33
0.0
 40
0.0
 40
0.0
 40
0.0
 40
0.0
 40
0.4957807219113132
 40
1.0
 40
1.0
 40
1.0
 40
1.0
 10
821.183958554843
 20
340.4411655031039
 30
0.0
 10
821.4260465547192
 20
341.0218532828101
 30
0.0
 10
821.9143430720644
 20
342.1931125795969
 30
0.0
 10
821.7955907907235
 20
343.1152888619737
 30
0.0
 10
821.7357136011545
 20
343.5802679213443
 30
0.0
  0
SPLINE
  5
B1
330
1F
100
AcDbEntity
  8
0
  6
Continuous
 62
     7
370
    15
100
AcDbSpline
210
0.0
220
0.0
230
1.0
 70
     8
 71
     3
 72
    11
 73
     7
 74
     0
 42
0.00000001
 43
0.00000001
 12
1.0
 22
0.0
 32
0.0
 13
1.0
 23
0.0
 33
0.0
 40
0.0
 40
0.0
 40
0.0
 40
0.0
 40
0.2942724557230236
 40
0.5890262479635154
 40
0.8714554557704777
 40
1.0
 40
1.0
 40
1.0
 40
1.0
 10
821.183958554843
 20
340.4411655031039
 30
0.0
 10
821.1766648671036
 20
340.4156216928747
 30
0.0
 10
821.162065561462
 20
340.3644922908345
 30
0.0
 10
821.1815281883668
 20
340.2353004472227
 30
0.0
 10
821.2208963332569
 20
340.1115476724052
 30
0.0
 10
821.2541225146396
 20
340.0371399093746
 30
0.0
 10
821.2645150137255
 20
340.0138666177385
 30
0.0
  0
LINE
  5
B2
330
1F
100
AcDbEntity
  8
0
  6
Continuous
 62
     7
370
    15
100
AcDbLine
 10
821.2645150137
 20
340.0138666177
 30
0.0
 11
816.262683069
 21
350.7403298385
 31
0.0
  0
LINE
  5
B3
330
1F
100
AcDbEntity
  8
0
  6
Continuous
 62
     7
370
    15
100
AcDbLine
 10
821.7357136012
 20
343.5802679213
 30
0.0
 11
821.7328302158
 21
343.6917134493
 31
0.0
  0
SPLINE
  5
B4
330
1F
100
AcDbEntity
  8
0
  6
Continuous
 62
     7
370
    15
100
AcDbSpline
210
0.0
220
0.0
230
1.0
 70
     8
 71
     3
 72
     9
 73
     5
 74
     0
 42
0.00000001
 43
0.00000001
 12
1.0
 22
0.0
 32
0.0
 13
1.0
 23
0.0
 33
0.0
 40
0.0
 40
0.0
 40
0.0
 40
0.0
 40
0.495780721911313
 40
1.0
 40
1.0
 40
1.0
 40
1.0
 10
825.7064467054814
 20
335.0650032996188
 30
0.0
 10
825.3949165958089
 20
335.4043819359904
 30
0.0
 10
824.7665539025772
 20
336.0889156852318
 30
0.0
 10
823.5569826021529
 20
336.4686441433759
 30
0.0
 10
822.947093434256
 20
336.6601105524111
 30
0.0
  0
LINE
  5
B5
330
1F
100
AcDbEntity
  8
0
  6
Continuous
 62
     7
370
    15
100
AcDbLine
 10
825.7064467055
 20
335.0650032996
 30
0.0
 11
825.7899655285
 21
334.9911586938
 31
0.0
  0
LINE
  5
B6
330
1F
100
AcDbEntity
  8
0
  6
Continuous
 62
     7
370
    15
100
AcDbLine
 10
827.673376136
 20
326.2700195885
 30
0.0
 11
822.6715441912
 21
336.9964828092
 31
0.0
  0
SPLINE
  5
B7
330
1F
100
AcDbEntity
  8
0
  6
Continuous
 62
     7
370
    15
100
AcDbSpline
210
0.0
220
0.0
230
1.0
 70
     8
 71
     3
 72
    11
 73
     7
 74
     0
 42
0.00000001
 43
0.00000001
 12
1.0
 22
0.0
 32
0.0
 13
1.0
 23
0.0
 33
0.0
 40
0.0
 40
0.0
 40
0.0
 40
0.0
 40
0.2674052398524722
 40
0.5345854440016945
 40
0.8080489308462697
 40
1.0
 40
1.0
 40
1.0
 40
1.0
 10
822.6715441912207
 20
336.9964828092409
 30
0.0
 10
822.6955188025638
 20
336.9492360345726
 30
0.0
 10
822.743447849342
 20
336.8547822459045
 30
0.0
 10
822.8243962258804
 20
336.7459461681291
 30
0.0
 10
822.8943455245216
 20
336.680318117814
 30
0.0
 10
822.9316910200108
 20
336.666011170934
 30
0.0
 10
822.9470934342561
 20
336.6601105524111
 30
0.0
  0
LINE
  5
B8
330
1F
100
AcDbEntity
  8
0
  6
Continuous
 62
     7
370
    15
100
AcDbLine
 10
832.1703418678
 20
345.0993371983
 30
0.0
 11
821.2645150137
 21
340.0138666177
 31
0.0
  0
LINE
  5
B9
330
1F
100
AcDbEntity
  8
0
  6
Continuous
 62
     7
370
    15
100
AcDbLine
 10
832.1703418678
 20
345.0993371983
 30
0.0
 11
833.5773710453
 21
342.0819533898
 31
0.0
  0
LINE
  5
BA
330
1F
100
AcDbEntity
  8
0
  6
Continuous
 62
     7
370
    15
100
AcDbLine
 10
822.6715441912
 20
336.9964828092
 30
0.0
 11
833.5773710453
 21
342.0819533898
 31
0.0
  0
LINE
  5
BB
330
1F
100
AcDbEntity
  8
0
  6
Continuous
 62
     7
370
    15
100
AcDbLine
 10
831.9922890169
 20
345.4811727694
 30
0.0
 11
821.1839585548
 21
340.4411655031
 31
0.0
  0
LINE
  5
BC
330
1F
100
AcDbEntity
  8
0
  6
Continuous
 62
     7
370
    15
100
AcDbLine
 10
832.1703418678
 20
345.0993371983
 30
0.0
 11
831.9922890169
 21
345.4811727694
 31
0.0
  0
LINE
  5
BD
330
1F
100
AcDbEntity
  8
0
  6
Continuous
 62
     7
370
    15
100
AcDbLine
 10
822.9470934343
 20
336.6601105524
 30
0.0
 11
833.7554238963
 21
341.7001178187
 31
0.0
  0
LINE
  5
BE
330
1F
100
AcDbEntity
  8
0
  6
Continuous
 62
     7
370
    15
100
AcDbLine
 10
833.7554238963
 20
341.7001178187
 30
0.0
 11
833.5773710453
 21
342.0819533898
 31
0.0
  0
LINE
  5
BF
330
1F
100
AcDbEntity
  8
0
  6
Continuous
 62
     7
370
    15
100
AcDbLine
 10
821.7357136012
 20
343.5802679213
 30
0.0
 11
830.8884899044
 21
347.8482776049
 31
0.0
  0
LINE
  5
C0
330
1F
100
AcDbEntity
  8
0
  6
Continuous
 62
     7
370
    15
100
AcDbLine
 10
830.8884899044
 20
347.8482776049
 30
0.0
 11
831.9922890169
 21
345.4811727694
 31
0.0
  0
LINE
  5
C1
330
1F
100
AcDbEntity
  8
0
  6
Continuous
 62
     7
370
    15
100
AcDbLine
 10
834.8592230087
 20
339.3330129832
 30
0.0
 11
825.7064467055
 21
335.0650032996
 31
0.0
  0
LINE
  5
C2
330
1F
100
AcDbEntity
  8
0
  6
Continuous
 62
     7
370
    15
100
AcDbLine
 10
833.7554238963
 20
341.7001178187
 30
0.0
 11
834.8592230087
 21
339.3330129832
 31
0.0
  0
LINE
  5
C3
330
1F
100
AcDbEntity
  8
0
  6
Continuous
 62
     7
370
    15
100
AcDbLine
 10
830.8452888002
 20
347.9409226718
 30
0.0
 11
821.7328302158
 21
343.6917134493
 31
0.0
  0
LINE
  5
C4
330
1F
100
AcDbEntity
  8
0
  6
Continuous
 62
     7
370
    15
100
AcDbLine
 10
830.8884899044
 20
347.8482776049
 30
0.0
 11
830.8452888002
 21
347.9409226718
 31
0.0
  0
LINE
  5
C5
330
1F
100
AcDbEntity
  8
0
  6
Continuous
 62
     7
370
    15
100
AcDbLine
 10
825.7899655285
 20
334.9911586938
 30
0.0
 11
834.9024241129
 21
339.2403679163
 31
0.0
  0
LINE
  5
C6
330
1F
100
AcDbEntity
  8
0
  6
Continuous
 62
     7
370
    15
100
AcDbLine
 10
834.8592230087
 20
339.3330129832
 30
0.0
 11
834.9024241129
 21
339.2403679163
 31
0.0
  0
LINE
  5
C7
330
1F
100
AcDbEntity
  8
0
  6
Continuous
 62
     7
370
    15
100
AcDbLine
 10
-4.817181503
 20
461.9475325477
 30
0.0
 11
-4.817181503
 21
462.1475325472
 31
0.0
  0
LINE
  5
C8
330
1F
100
AcDbEntity
  8
0
  6
Continuous
 62
     7
370
    15
100
AcDbLine
 10
-5.617181503
 20
461.9475325477
 30
0.0
 11
-5.617181503
 21
462.1475325472
 31
0.0
  0
LINE
  5
C9
330
1F
100
AcDbEntity
  8
0
  6
Continuous
 62
     7
370
    15
100
AcDbLine
 10
747.3641916261
 20
214.7475325477
 30
0.0
 11
747.3641916261
 21
213.9475325477
 31
0.0
  0
LINE
  5
CA
330
1F
100
AcDbEntity
  8
0
  6
Continuous
 62
     7
370
    15
100
AcDbLine
 10
747.3641916261
 20
213.9475325477
 30
0.0
 11
745.3641916261
 21
213.9475325477
 31
0.0
  0
LINE
  5
CB
330
1F
100
AcDbEntity
  8
0
  6
Continuous
 62
     7
370
    15
100
AcDbLine
 10
745.3641916261
 20
213.9475325477
 30
0.0
 11
745.3641916261
 21
214.7475325477
 31
0.0
  0
LINE
  5
CC
330
1F
100
AcDbEntity
  8
0
  6
Continuous
 62
     7
370
    15
100
AcDbLine
 10
745.3641916261
 20
214.7475325477
 30
0.0
 11
747.3641916261
 21
214.7475325477
 31
0.0
  0
LINE
  5
CD
330
1F
100
AcDbEntity
  8
0
  6
Continuous
 62
     7
370
    15
100
AcDbLine
 10
780.4855419823
 20
393.4044785917
 30
0.0
 11
779.7604957527
 21
393.0663839823
 31
0.0
  0
ARC
  5
CE
330
1F
100
AcDbEntity
  8
0
  6
Continuous
 62
     7
370
    15
100
AcDbCircle
 10
781.6184267161
 20
393.9327514189
 30
0.0
 40
2.050000000000009
100
AcDbArc
 50
115.0
 51
205.0
  0
LINE
  5
CF
330
1F
100
AcDbEntity
  8
0
  6
Continuous
 62
     7
370
    15
100
AcDbLine
 10
780.7520592796
 20
395.7906823823
 30
0.0
 11
781.090153889
 21
395.0656361527
 31
0.0
  0
ARC
  5
D0
330
1F
100
AcDbEntity
  8
0
  6
Continuous
 62
     7
370
    15
100
AcDbCircle
 10
781.6184267161
 20
393.9327514189
 30
0.0
 40
1.249999999999977
100
AcDbArc
 50
115.0
 51
205.0
  0
LINE
  5
D1
330
1F
100
AcDbEntity
  8
0
  6
Continuous
 62
     7
370
    15
100
AcDbLine
 10
793.7331475181
 20
400.961160904
 30
0.0
 11
793.3950529087
 21
401.6862071336
 31
0.0
  0
LINE
  5
D2
330
1F
100
AcDbEntity
  8
0
  6
Continuous
 62
     7
370
    15
100
AcDbLine
 10
793.3950529087
 20
401.6862071336
 30
0.0
 11
795.2076684828
 21
402.5314436571
 31
0.0
  0
LINE
  5
D3
330
1F
100
AcDbEntity
  8
0
  6
Continuous
 62
     7
370
    15
100
AcDbLine
 10
795.2076684828
 20
402.5314436571
 30
0.0
 11
795.5457630922
 21
401.8063974275
 31
0.0
  0
LINE
  5
D4
330
1F
100
AcDbEntity
  8
0
  6
Continuous
 62
     7
370
    15
100
AcDbLine
 10
795.5457630922
 20
401.8063974275
 30
0.0
 11
793.7331475181
 21
400.961160904
 31
0.0
  0
LINE
  5
D5
330
1F
100
AcDbEntity
  8
0
  6
Continuous
 62
     7
370
    15
100
AcDbLine
 10
836.3924116085
 20
273.5118097745
 30
0.0
 11
780.4855419823
 21
393.4044785917
 31
0.0
  0
LINE
  5
D6
330
1F
100
AcDbEntity
  8
0
  6
Continuous
 62
     7
370
    15
100
AcDbLine
 10
835.6673653788
 20
273.1737151651
 30
0.0
 11
836.3924116085
 21
273.5118097745
 31
0.0
  0
LINE
  5
D7
330
1F
100
AcDbEntity
  8
0
  6
Continuous
 62
     7
370
    15
100
AcDbLine
 10
835.6673653788
 20
273.1737151651
 30
0.0
 11
779.7604957527
 21
393.0663839823
 31
0.0
  0
ARC
  5
D8
330
1F
100
AcDbEntity
  8
0
  6
Continuous
 62
     7
370
    15
100
AcDbCircle
 10
805.993489018
 20
224.7475325477
 30
0.0
 40
10.80000000000007
100
AcDbArc
 50
270.0
 51
335.0
  0
LINE
  5
D9
330
1F
100
AcDbEntity
  8
0
  6
Continuous
 62
     7
370
    15
100
AcDbLine
 10
805.993489018
 20
213.9475325477
 30
0.0
 11
805.993489018
 21
214.7475325477
 31
0.0
  0
LINE
  5
DA
330
1F
100
AcDbEntity
  8
0
  6
Continuous
 62
     7
370
    15
100
AcDbLine
 10
815.0565668884
 20
220.5213499303
 30
0.0
 11
815.781613118
 21
220.1832553209
 31
0.0
  0
ARC
  5
DB
330
1F
100
AcDbEntity
  8
0
  6
Continuous
 62
     7
370
    15
100
AcDbCircle
 10
805.993489018
 20
224.7475325477
 30
0.0
 40
10.00000000000012
100
AcDbArc
 50
270.0
 51
335.0
  0
LINE
  5
DC
330
1F
100
AcDbEntity
  8
0
  6
Continuous
 62
     7
370
    15
100
AcDbLine
 10
836.3924116085
 20
264.3832553209
 30
0.0
 11
835.6673653788
 21
264.7213499303
 31
0.0
  0
LINE
  5
DD
330
1F
100
AcDbEntity
  8
0
  6
Continuous
 62
     7
370
    15
100
AcDbLine
 10
815.781613118
 20
220.1832553209
 30
0.0
 11
836.3924116085
 21
264.3832553209
 31
0.0
  0
LINE
  5
DE
330
1F
100
AcDbEntity
  8
0
  6
Continuous
 62
     7
370
    15
100
AcDbLine
 10
815.0565668884
 20
220.5213499303
 30
0.0
 11
835.6673653788
 21
264.7213499303
 31
0.0
  0
LINE
  5
DF
330
1F
100
AcDbEntity
  8
0
  6
Continuous
 62
     7
370
    15
100
AcDbLine
 10
780.7520592796
 20
395.7906823823
 30
0.0
 11
793.3950529087
 21
401.6862071336
 31
0.0
  0
LINE
  5
E0
330
1F
100
AcDbEntity
  8
0
  6
Continuous
 62
     7
370
    15
100
AcDbLine
 10
781.090153889
 20
395.0656361527
 30
0.0
 11
793.7331475181
 21
400.961160904
 31
0.0
  0
ARC
  5
E1
330
1F
100
AcDbEntity
  8
0
  6
Continuous
 62
     7
370
    15
100
AcDbCircle
 10
826.6042875085
 20
268.9475325477
 30
0.0
 40
10.80000000000006
100
AcDbArc
 50
335.0
 51
25.0
  0
ARC
  5
E2
330
1F
100
AcDbEntity
  8
0
  6
Continuous
 62
     7
370
    15
100
AcDbCircle
 10
826.6042875085
 20
268.9475325477
 30
0.0
 40
10.00000000000003
100
AcDbArc
 50
335.0
 51
25.0
  0
LINE
  5
E3
330
1F
100
AcDbEntity
  8
0
  6
Continuous
 62
     7
370
    15
100
AcDbLine
 10
747.3641916261
 20
213.9475325477
 30
0.0
 11
805.993489018
 21
213.9475325477
 31
0.0
  0
LINE
  5
E4
330
1F
100
AcDbEntity
  8
0
  6
Continuous
 62
     7
370
    15
100
AcDbLine
 10
747.3641916261
 20
214.7475325477
 30
0.0
 11
805.993489018
 21
214.7475325477
 31
0.0
  0
LINE
  5
E5
330
1F
100
AcDbEntity
  8
0
  6
Continuous
 62
     7
370
    15
100
AcDbLine
 10
833.1049639363
 20
307.8386301154
 30
0.0
 11
831.2411335519
 21
311.8356272735
 31
0.0
  0
LINE
  5
E6
330
1F
100
AcDbEntity
  8
0
  6
Continuous
 62
     7
370
    15
100
AcDbLine
 10
830.9030389425
 20
312.5606735031
 30
0.0
 11
825.0752169632
 21
325.0584780691
 31
0.0
  0
LINE
  5
E7
330
1F
100
AcDbEntity
  8
0
  6
Continuous
 62
     7
370
    15
100
AcDbLine
 10
813.6645238962
 20
349.5287883191
 30
0.0
 11
805.6347769232
 21
366.7486362728
 31
0.0
  0
LINE
  5
E8
330
1F
100
AcDbEntity
  8
0
  6
Continuous
 62
     7
370
    15
100
AcDbLine
 10
818.3108041563
 20
363.2268239783
 30
0.0
 11
816.3883278405
 21
367.3495877421
 31
0.0
  0
SPLINE
  5
E9
330
1F
100
AcDbEntity
  8
0
  6
Continuous
 62
     7
370
    15
100
AcDbSpline
210
0.0
220
0.0
230
1.0
 70
     8
 71
     3
 72
     9
 73
     5
 74
     0
 42
0.00000001
 43
0.00000001
 12
1.0
 22
0.0
 32
0.0
 13
1.0
 23
0.0
 33
0.0
 40
0.0
 40
0.0
 40
0.0
 40
0.0
 40
0.5209744652335278
 40
1.0
 40
1.0
 40
1.0
 40
1.0
 10
818.1946615284162
 20
361.9884762707621
 30
0.0
 10
818.1193985465943
 20
362.2163496630473
 30
0.0
 10
817.9749327678578
 20
362.6537480529722
 30
0.0
 10
818.2020224160926
 20
363.0412166340734
 30
0.0
 10
818.3108041562783
 20
363.2268239783406
 30
0.0
  0
SPLINE
  5
EA
330
1F
100
AcDbEntity
  8
0
  6
Continuous
 62
     7
370
    15
100
AcDbSpline
210
0.0
220
0.0
230
1.0
 70
     8
 71
     3
 72
     9
 73
     5
 74
     0
 42
0.00000001
 43
0.00000001
 12
1.0
 22
0.0
 32
0.0
 13
1.0
 23
0.0
 33
0.0
 40
0.0
 40
0.0
 40
0.0
 40
0.0
 40
0.4790255347664766
 40
1.0
 40
1.0
 40
1.0
 40
1.0
 10
838.3401369659686
 20
320.2737811547713
 30
0.0
 10
838.1237695556085
 20
320.3188920247408
 30
0.0
 10
837.6720871406711
 20
320.4130641861297
 30
0.0
 10
837.4211198189389
 20
320.8236748167583
 30
0.0
 10
837.2903722527083
 20
321.0375924704691
 30
0.0
  0
LINE
  5
EB
330
1F
100
AcDbEntity
  8
0
  6
Continuous
 62
     7
370
    15
100
AcDbLine
 10
840.4775687597
 20
315.690043881
 30
0.0
 11
840.3042114223
 21
316.0618098909
 31
0.0
  0
LINE
  5
EC
330
1F
100
AcDbEntity
  8
0
  6
Continuous
 62
     7
370
    15
100
AcDbLine
 10
839.9661168129
 20
316.7868561205
 30
0.0
 11
838.340136966
 21
320.2737811548
 31
0.0
  0
LINE
  5
ED
330
1F
100
AcDbEntity
  8
0
  6
Continuous
 62
     7
370
    15
100
AcDbLine
 10
819.0766044141
 20
361.5845600257
 30
0.0
 11
826.4043806437
 21
345.8700931893
 31
0.0
  0
LINE
  5
EE
330
1F
100
AcDbEntity
  8
0
  6
Continuous
 62
     7
370
    15
100
AcDbLine
 10
830.4615159564
 20
337.1695384338
 30
0.0
 11
837.5556531554
 21
321.9561121155
 31
0.0
  0
ARC
  5
EF
330
1F
100
AcDbEntity
  8
0
  6
Continuous
 62
     7
370
    15
100
AcDbCircle
 10
836.7984676385
 20
321.6772293592
 30
0.0
 40
0.8069110848532486
100
AcDbArc
 50
307.5616265596
 51
20.2195072595
  0
ARC
  5
F0
330
1F
100
AcDbEntity
  8
0
  6
Continuous
 62
     7
370
    15
100
AcDbCircle
 10
818.359447923
 20
361.1834737264
 30
0.0
 40
0.8216955958892384
100
AcDbArc
 50
29.2171089364
 51
101.5687918949
  0
SPLINE
  5
F1
330
1F
100
AcDbEntity
  8
0
  6
Continuous
 62
     7
370
    15
100
AcDbSpline
210
0.0
220
0.0
230
1.0
 70
     8
 71
     3
 72
     9
 73
     5
 74
     0
 42
0.00000001
 43
0.00000001
 12
1.0
 22
0.0
 32
0.0
 13
1.0
 23
0.0
 33
0.0
 40
0.0
 40
0.0
 40
0.0
 40
0.0
 40
0.5315589426747995
 40
1.0
 40
1.0
 40
1.0
 40
1.0
 10
837.5556531554223
 20
321.9561121155153
 30
0.0
 10
837.6598324356751
 20
321.781629304222
 30
0.0
 10
837.8558206354568
 20
321.4533819598818
 30
0.0
 10
838.1844376274735
 20
321.3885823742143
 30
0.0
 10
838.3383753186688
 20
321.35822758779
 30
0.0
  0
SPLINE
  5
F2
330
1F
100
AcDbEntity
  8
0
  6
Continuous
 62
     7
370
    15
100
AcDbSpline
210
0.0
220
0.0
230
1.0
 70
     8
 71
     3
 72
    12
 73
     8
 74
     0
 42
0.00000001
 43
0.00000001
 12
1.0
 22
0.0
 32
0.0
 13
1.0
 23
0.0
 33
0.0
 40
0.0
 40
0.0
 40
0.0
 40
0.0
 40
0.030471745945942
 40
0.0888135668586087
 40
0.3925556175487533
 40
0.6962774394174247
 40
0.9999999999999999
 40
0.9999999999999999
 40
0.9999999999999999
 40
0.9999999999999999
 10
838.3383753186688
 20
321.35822758779
 30
0.0
 10
838.3430523220608
 20
321.3487765765622
 30
0.0
 10
838.3566840107138
 20
321.3212304681423
 30
0.0
 10
838.4112109254354
 20
321.1951341608763
 30
0.0
 10
838.4679644976025
 20
320.9577108994797
 30
0.0
 10
838.4593751857723
 20
320.6125920830094
 30
0.0
 10
838.3798133682576
 20
320.407466564522
 30
0.0
 10
838.3400324111227
 20
320.3049036805516
 30
0.0
  0
SPLINE
  5
F3
330
1F
100
AcDbEntity
  8
0
  6
Continuous
 62
     7
370
    15
100
AcDbSpline
210
0.0
220
0.0
230
1.0
 70
     8
 71
     3
 72
    10
 73
     6
 74
     0
 42
0.00000001
 43
0.00000001
 12
1.0
 22
0.0
 32
0.0
 13
1.0
 23
0.0
 33
0.0
 40
0.0
 40
0.0
 40
0.0
 40
0.0
 40
0.2117958997120038
 40
0.488006909470433
 40
1.0
 40
1.0
 40
1.0
 40
1.0
 10
838.3400324111227
 20
320.3049036805517
 30
0.0
 10
838.3389257871816
 20
320.3021454909845
 30
0.0
 10
838.3363759732794
 20
320.2957902425202
 30
0.0
 10
838.3360444318304
 20
320.2844683407716
 30
0.0
 10
838.3385254033404
 20
320.2779895667166
 30
0.0
 10
838.340136965968
 20
320.273781154771
 30
0.0
  0
SPLINE
  5
F4
330
1F
100
AcDbEntity
  8
0
  6
Continuous
 62
     7
370
    15
100
AcDbSpline
210
0.0
220
0.0
230
1.0
 70
     8
 71
     3
 72
     9
 73
     5
 74
     0
 42
0.00000001
 43
0.00000001
 12
1.0
 22
0.0
 32
0.0
 13
1.0
 23
0.0
 33
0.0
 40
0.0
 40
0.0
 40
0.0
 40
0.0
 40
0.4684410573252019
 40
1.0
 40
1.0
 40
1.0
 40
1.0
 10
819.1403459667057
 20
362.52853439322
 30
0.0
 10
819.0616362449045
 20
362.3975622786629
 30
0.0
 10
818.8936114303191
 20
362.1179708284492
 30
0.0
 10
819.0130929459694
 20
361.769691184834
 30
0.0
 10
819.0766044140978
 20
361.5845600257188
 30
0.0
  0
SPLINE
  5
F5
330
1F
100
AcDbEntity
  8
0
  6
Continuous
 62
     7
370
    15
100
AcDbSpline
210
0.0
220
0.0
230
1.0
 70
     8
 71
     3
 72
    11
 73
     7
 74
     0
 42
0.00000001
 43
0.00000001
 12
1.0
 22
0.0
 32
0.0
 13
1.0
 23
0.0
 33
0.0
 40
0.0
 40
0.0
 40
0.0
 40
0.0
 40
0.3658281109894457
 40
0.7252591430831323
 40
0.9820690181776776
 40
1.0
 40
1.0
 40
1.0
 40
1.0
 10
821.6453366039872
 20
363.0506130817977
 30
0.0
 10
821.2643440068513
 20
363.0606188519217
 30
0.0
 10
820.5090210663246
 20
363.0804554255693
 30
0.0
 10
819.6481544849325
 20
362.8915765628749
 30
0.0
 10
819.2633684255914
 20
362.6602398595409
 30
0.0
 10
819.1478831232819
 20
362.5366035273488
 30
0.0
 10
819.1403459667057
 20
362.52853439322
 30
0.0
  0
SPLINE
  5
F6
330
1F
100
AcDbEntity
  8
0
  6
Continuous
 62
     7
370
    15
100
AcDbSpline
210
0.0
220
0.0
230
1.0
 70
     8
 71
     3
 72
    11
 73
     7
 74
     0
 42
0.00000001
 43
0.00000001
 12
1.0
 22
0.0
 32
0.0
 13
1.0
 23
0.0
 33
0.0
 40
0.0
 40
0.0
 40
0.0
 40
0.0
 40
0.2357948537758737
 40
0.2749019968044788
 40
0.6342531696138441
 40
1.0
 40
1.0
 40
1.0
 40
1.0
 10
838.3383753186688
 20
321.35822758779
 30
0.0
 10
838.4920297130969
 20
321.3784595691732
 30
0.0
 10
838.671168058017
 20
321.402047073279
 30
0.0
 10
839.1084774335235
 20
321.6074710311887
 30
0.0
 10
839.6608722989794
 20
322.0101540426999
 30
0.0
 10
840.133635371019
 20
322.5956202194153
 30
0.0
 10
840.3721018877657
 20
322.890935331977
 30
0.0
  0
SPLINE
  5
F7
330
1F
100
AcDbEntity
  8
0
  6
Continuous
 62
     7
370
    15
100
AcDbSpline
210
0.0
220
0.0
230
1.0
 70
     8
 71
     3
 72
    12
 73
     8
 74
     0
 42
0.00000001
 43
0.00000001
 12
1.0
 22
0.0
 32
0.0
 13
1.0
 23
0.0
 33
0.0
 40
0.0
 40
0.0
 40
0.0
 40
0.0
 40
0.0304717459515808
 40
0.088813566858632
 40
0.3925556175487516
 40
0.6962774394174032
 40
1.0
 40
1.0
 40
1.0
 40
1.0
 10
819.1403459667057
 20
362.52853439322
 30
0.0
 10
819.1360622549239
 20
362.5382996976932
 30
0.0
 10
819.1235768619521
 20
362.5667618515557
 30
0.0
 10
819.0614409973001
 20
362.6908496820455
 30
0.0
 10
818.9153962871042
 20
362.8883287406207
 30
0.0
 10
818.6454727266484
 20
363.1036430289032
 30
0.0
 10
818.4379298182182
 20
363.1729738455776
 30
0.0
 10
818.3341582378064
 20
363.2076392960714
 30
0.0
  0
SPLINE
  5
F8
330
1F
100
AcDbEntity
  8
0
  6
Continuous
 62
     7
370
    15
100
AcDbSpline
210
0.0
220
0.0
230
1.0
 70
     8
 71
     3
 72
    11
 73
     7
 74
     0
 42
0.00000001
 43
0.00000001
 12
1.0
 22
0.0
 32
0.0
 13
1.0
 23
0.0
 33
0.0
 40
0.0
 40
0.0
 40
0.0
 40
0.0
 40
0.3704320937877085
 40
0.7442498469286682
 40
0.9442480537680918
 40
1.0
 40
1.0
 40
1.0
 40
1.0
 10
818.3108041562783
 20
363.2268239783406
 30
0.0
 10
818.31226243155
 20
363.2241040183093
 30
0.0
 10
818.3151923103753
 20
363.2186392384728
 30
0.0
 10
818.3223868346499
 20
363.2120931583216
 30
0.0
 10
818.3298754741719
 20
363.2087521102007
 30
0.0
 10
818.3333917183884
 20
363.2078384650453
 30
0.0
 10
818.3341582378064
 20
363.2076392960714
 30
0.0
  0
LINE
  5
F9
330
1F
100
AcDbEntity
  8
0
  6
Continuous
 62
     7
370
    15
100
AcDbLine
 10
852.8455306185
 20
335.0956997112
 30
0.0
 11
841.216936286
 21
322.0088917557
 31
0.0
  0
SPLINE
  5
FA
330
1F
100
AcDbEntity
  8
0
  6
Continuous
 62
     7
370
    15
100
AcDbSpline
210
0.0
220
0.0
230
1.0
 70
     8
 71
     3
 72
    10
 73
     6
 74
     0
 42
0.00000001
 43
0.00000001
 12
1.0
 22
0.0
 32
0.0
 13
1.0
 23
0.0
 33
0.0
 40
0.0
 40
0.0
 40
0.0
 40
0.0
 40
0.3554439450437151
 40
0.7142330220663414
 40
1.0
 40
1.0
 40
1.0
 40
1.0
 10
841.2169362860127
 20
322.0088917556751
 30
0.0
 10
840.8731105260634
 20
321.66846688946
 30
0.0
 10
840.1822232145278
 20
320.9844133716729
 30
0.0
 10
839.1516449990528
 20
320.3776295608799
 30
0.0
 10
838.5893351460935
 20
320.3272428620018
 30
0.0
 10
838.3400324111227
 20
320.3049036805516
 30
0.0
  0
ARC
  5
FB
330
1F
100
AcDbEntity
  8
0
  6
Continuous
 62
     7
370
    15
100
AcDbCircle
 10
837.8512199393
 20
319.6307780373
 30
0.0
 40
4.121100749113013
100
AcDbArc
 50
35.2438755042
 51
52.2873930045
  0
LINE
  5
FC
330
1F
100
AcDbEntity
  8
0
  6
Continuous
 62
     7
370
    15
100
AcDbLine
 10
819.7552493852
 20
367.3902229645
 30
0.0
 11
836.2078975026
 21
367.5858943556
 31
0.0
  0
LINE
  5
FD
330
1F
100
AcDbEntity
  8
0
  6
Continuous
 62
     7
370
    15
100
AcDbLine
 10
836.2078975026
 20
367.5858943556
 30
0.0
 11
837.6865006827
 21
367.6043443169
 31
0.0
  0
LINE
  5
FE
330
1F
100
AcDbEntity
  8
0
  6
Continuous
 62
     7
370
    15
100
AcDbLine
 10
839.052494837
 20
364.6749603994
 30
0.0
 11
837.6865006827
 21
367.6043443169
 31
0.0
  0
LINE
  5
FF
330
1F
100
AcDbEntity
  8
0
  6
Continuous
 62
     7
370
    15
100
AcDbLine
 10
821.5191100893
 20
364.2510163535
 30
0.0
 11
839.052494837
 21
364.6749603994
 31
0.0
  0
SPLINE
  5
100
330
1F
100
AcDbEntity
  8
0
  6
Continuous
 62
     7
370
    15
100
AcDbSpline
210
0.0
220
0.0
230
1.0
 70
     8
 71
     3
 72
    10
 73
     6
 74
     0
 42
0.00000001
 43
0.00000001
 12
1.0
 22
0.0
 32
0.0
 13
1.0
 23
0.0
 33
0.0
 40
0.0
 40
0.0
 40
0.0
 40
0.0
 40
0.2857669779336474
 40
0.6445560549562777
 40
1.0
 40
1.0
 40
1.0
 40
1.0
 10
818.3341582378064
 20
363.2076392960714
 30
0.0
 10
818.5158081944361
 20
363.3750603288654
 30
0.0
 10
818.9255251612981
 20
363.7526835280002
 30
0.0
 10
820.0641701045789
 20
364.1277174931369
 30
0.0
 10
821.0356467411548
 20
364.2100452615538
 30
0.0
 10
821.5191100893257
 20
364.2510163534646
 30
0.0
  0
ARC
  5
101
330
1F
100
AcDbEntity
  8
0
  6
Continuous
 62
     7
370
    15
100
AcDbCircle
 10
817.3803402689
 20
363.2089723231
 30
0.0
 40
4.267935260485896
100
AcDbArc
 50
357.8735855065
 51
14.1319895359
  0
LINE
  5
102
330
1F
100
AcDbEntity
  8
0
  6
Continuous
 62
     7
370
    15
100
AcDbLine
 10
840.3721018878
 20
322.890935332
 30
0.0
 11
852.0629775639
 21
335.8441805151
 31
0.0
  0
ARC
  5
103
330
1F
100
AcDbEntity
  8
0
  6
Continuous
 62
     7
370
    15
100
AcDbCircle
 10
848.6915755974
 20
331.5359774337
 30
0.0
 40
5.470554360426354
100
AcDbArc
 50
40.5948487195
 51
51.954897608
  0
LINE
  5
104
330
1F
100
AcDbEntity
  8
0
  6
Continuous
 62
     7
370
    15
100
AcDbLine
 10
839.1166842795
 20
363.6075960584
 30
0.0
 11
821.645336604
 21
363.0506130818
 31
0.0
  0
LINE
  5
105
330
1F
100
AcDbEntity
  8
0
  6
Continuous
 62
     7
370
    15
100
AcDbLine
 10
852.0629775639
 20
335.8441805151
 30
0.0
 11
839.1166842795
 21
363.6075960584
 31
0.0
  0
ARC
  5
106
330
1F
100
AcDbEntity
  8
0
  6
Continuous
 62
     7
370
    15
100
AcDbCircle
 10
833.2674528954
 20
363.7914457069
 30
0.0
 40
5.852119998675312
100
AcDbArc
 50
358.1997049893
 51
8.683343084
  0
ARC
  5
107
330
1F
100
AcDbEntity
  8
0
  6
Continuous
 62
     7
370
    15
100
AcDbCircle
 10
852.7411456344
 20
334.9213377559
 30
0.0
 40
1.145229536032584
100
AcDbArc
 50
73.561643902
 51
126.3109942172
  0
ARC
  5
108
330
1F
100
AcDbEntity
  8
0
  6
Continuous
 62
     7
370
    15
100
AcDbCircle
 10
852.2953988915
 20
335.7146392649
 30
0.0
 40
0.8280888166776419
100
AcDbArc
 50
311.6316380807
 51
21.6205892018
  0
LINE
  5
109
330
1F
100
AcDbEntity
  8
0
  6
Continuous
 62
     7
370
    15
100
AcDbLine
 10
839.9085660425
 20
364.234305809
 30
0.0
 11
853.0652268077
 21
336.019755747
 31
0.0
  0
ARC
  5
10A
330
1F
100
AcDbEntity
  8
0
  6
Continuous
 62
     7
370
    15
100
AcDbCircle
 10
838.8072322929
 20
364.8122530834
 30
0.0
 40
1.24376809736665
100
AcDbArc
 50
284.4066318803
 51
332.3108440224
  0
LINE
  5
10B
330
1F
100
AcDbEntity
  8
0
  6
Continuous
 62
     7
370
    15
100
AcDbLine
 10
853.0652268077
 20
336.019755747
 30
0.0
 11
854.5269012582
 21
332.8851847724
 31
0.0
  0
ARC
  5
10C
330
1F
100
AcDbEntity
  8
0
  6
Continuous
 62
     7
370
    15
100
AcDbCircle
 10
839.1636270245
 20
363.8389765456
 30
0.0
 40
0.8433382280965129
100
AcDbArc
 50
27.9542997325
 51
97.5722634131
  0
SPLINE
  5
10D
330
1F
100
AcDbEntity
  8
0
  6
Continuous
 62
     7
370
    15
100
AcDbSpline
210
0.0
220
0.0
230
1.0
 70
     8
 71
     3
 72
    11
 73
     7
 74
     0
 42
0.00000001
 43
0.00000001
 12
1.0
 22
0.0
 32
0.0
 13
1.0
 23
0.0
 33
0.0
 40
0.0
 40
0.0
 40
0.0
 40
0.0
 40
0.2933118760927451
 40
0.586599120141984
 40
0.8805021461502882
 40
1.0
 40
1.0
 40
1.0
 40
1.0
 10
837.6865006826573
 20
367.6043443168908
 30
0.0
 10
837.7991984753276
 20
367.5946804890637
 30
0.0
 10
838.0245845964183
 20
367.5753536449683
 30
0.0
 10
838.3253257785619
 20
367.4061820778766
 30
0.0
 10
838.5137595774486
 20
367.2056121829711
 30
0.0
 10
838.5864061089995
 20
367.065232218153
 30
0.0
 10
838.6074053497679
 20
367.0246539191299
 30
0.0
  0
LINE
  5
10E
330
1F
100
AcDbEntity
  8
0
  6
Continuous
 62
     7
370
    15
100
AcDbLine
 10
838.6074053498
 20
367.0246539191
 30
0.0
 11
839.9085660425
 21
364.234305809
 31
0.0
  0
LINE
  5
10F
330
1F
100
AcDbEntity
  8
0
  6
Continuous
 62
     7
370
    15
100
AcDbLine
 10
800.0299446499
 20
358.8376514083
 30
0.0
 11
797.1686216094
 21
357.627498876
 31
0.0
  0
LINE
  5
110
330
1F
100
AcDbEntity
  8
0
  6
Continuous
 62
     7
370
    15
100
AcDbLine
 10
802.5312801653
 20
357.9582484065
 30
0.0
 11
803.7753284712
 21
355.290378205
 31
0.0
  0
LINE
  5
111
330
1F
100
AcDbEntity
  8
0
  6
Continuous
 62
     7
370
    15
100
AcDbLine
 10
823.1321985898
 20
313.7794362761
 30
0.0
 11
824.3762468958
 21
311.1115660746
 31
0.0
  0
ARC
  5
112
330
1F
100
AcDbEntity
  8
0
  6
Continuous
 62
     7
370
    15
100
AcDbCircle
 10
800.8183521878
 20
357.0831171144
 30
0.0
 40
1.923532436518476
100
AcDbArc
 50
27.0623931934
 51
114.1969723043
  0
LINE
  5
113
330
1F
100
AcDbEntity
  8
0
  6
Continuous
 62
     7
370
    15
100
AcDbLine
 10
808.7984431303
 20
356.3492819717
 30
0.0
 11
811.6454200015
 21
350.243920369
 31
0.0
  0
LINE
  5
114
330
1F
100
AcDbEntity
  8
0
  6
Continuous
 62
     7
370
    15
100
AcDbLine
 10
824.3251849299
 20
323.0520767296
 30
0.0
 11
827.1721618011
 21
316.9467151268
 31
0.0
  0
LWPOLYLINE
  5
115
330
1F
100
AcDbEntity
  8
0
  6
Continuous
 62
     7
370
    15
100
AcDbPolyline
 90
        3
 70
   128
 43
0.0
 10
796.3861219373
 20
359.3055748381
 10
798.7361796901
 20
360.3018173744
 10
799.2463597393
 20
360.5180546719
  0
SPLINE
  5
116
330
1F
100
AcDbEntity
  8
0
  6
Continuous
 62
     7
370
    15
100
AcDbSpline
210
0.0
220
0.0
230
1.0
 70
     8
 71
     3
 72
    11
 73
     7
 74
     0
 42
0.00000001
 43
0.00000001
 12
1.0
 22
0.0
 32
0.0
 13
1.0
 23
0.0
 33
0.0
 40
0.0
 40
0.0
 40
0.0
 40
0.0
 40
0.2835227523786704
 40
0.566778888804728
 40
0.8499302218874346
 40
0.9999999999999999
 40
0.9999999999999999
 40
0.9999999999999999
 40
0.9999999999999999
 10
799.24635973933
 20
360.5180546719405
 30
0.0
 10
799.3475862843418
 20
360.3170424234782
 30
0.0
 10
799.5499441840794
 20
359.9152069522019
 30
0.0
 10
799.8046253807634
 20
359.3762427679725
 30
0.0
 10
799.9618450248123
 20
359.0191573313498
 30
0.0
 10
800.0124238968959
 20
358.8843494694399
 30
0.0
 10
800.0299446499586
 20
358.8376514083301
 30
0.0
  0
LINE
  5
117
330
1F
100
AcDbEntity
  8
0
  6
Continuous
 62
     7
370
    15
100
AcDbLine
 10
825.943416717
 20
307.7507595474
 30
0.0
 11
824.2256661123
 21
306.9497592856
 31
0.0
  0
SPLINE
  5
118
330
1F
100
AcDbEntity
  8
0
  6
Continuous
 62
     7
370
    15
100
AcDbSpline
210
0.0
220
0.0
230
1.0
 70
    24
 71
     3
 72
     9
 73
     5
 74
     0
 42
0.00000001
 43
0.00000001
 12
1.0
 22
0.0
 32
0.0
 13
1.0
 23
0.0
 33
0.0
 40
0.0
 40
0.0
 40
0.0
 40
0.0
 40
0.4688517989557193
 40
1.0
 40
1.0
 40
1.0
 40
1.0
 10
825.9434167169768
 20
307.7507595474096
 30
0.0
 10
825.8425282739925
 20
307.9671155115893
 30
0.0
 10
825.6273463269268
 20
308.4285746862401
 30
0.0
 10
825.4298999438446
 20
308.8519998211893
 30
0.0
 10
825.3250266526679
 20
309.0769013198945
 30
0.0
  0
SPLINE
  5
119
330
1F
100
AcDbEntity
  8
0
  6
Continuous
 62
     7
370
    15
100
AcDbSpline
210
0.0
220
0.0
230
1.0
 70
    24
 71
     3
 72
     9
 73
     5
 74
     0
 42
0.00000001
 43
0.00000001
 12
1.0
 22
0.0
 32
0.0
 13
1.0
 23
0.0
 33
0.0
 40
0.0
 40
0.0
 40
0.0
 40
0.0
 40
0.4172378584882462
 40
1.0
 40
1.0
 40
1.0
 40
1.0
 10
824.9869320432754
 20
309.8019475495238
 30
0.0
 10
824.8749204243888
 20
310.0421572414034
 30
0.0
 10
824.6064605600507
 20
310.6178712783556
 30
0.0
 10
824.4610099845902
 20
310.9297910440227
 30
0.0
 10
824.3762468957507
 20
311.1115660746428
 30
0.0
  0
LINE
  5
11A
330
1F
100
AcDbEntity
  8
0
  6
Continuous
 62
     7
370
    15
100
AcDbLine
 10
800.964110344
 20
361.3190549337
 30
0.0
 11
799.2463597393
 21
360.5180546719
 31
0.0
  0
SPLINE
  5
11B
330
1F
100
AcDbEntity
  8
0
  6
Continuous
 62
     7
370
    15
100
AcDbSpline
210
0.0
220
0.0
230
1.0
 70
    24
 71
     3
 72
    11
 73
     7
 74
     0
 42
0.00000001
 43
0.00000001
 12
1.0
 22
0.0
 32
0.0
 13
1.0
 23
0.0
 33
0.0
 40
0.0
 40
0.0
 40
0.0
 40
0.0
 40
0.1499515950756897
 40
0.4331749432232065
 40
0.7165923323728097
 40
1.0
 40
1.0
 40
1.0
 40
1.0
 10
802.5312801652595
 20
357.9582484064809
 30
0.0
 10
802.48912164985
 20
358.0486576345351
 30
0.0
 10
802.367335599427
 20
358.3098286624888
 30
0.0
 10
802.0373990905251
 20
359.0173797891571
 30
0.0
 10
801.5340710364643
 20
360.0967702843774
 30
0.0
 10
801.1540950692088
 20
360.9116313757842
 30
0.0
 10
800.9641103440333
 20
361.3190549337141
 30
0.0
  0
LINE
  5
11C
330
1F
100
AcDbEntity
  8
0
  6
Continuous
 62
     7
370
    15
100
AcDbLine
 10
788.6839479919
 20
375.946692674
 30
0.0
 11
788.6365480318
 21
375.9245897096
 31
0.0
  0
SPLINE
  5
11D
330
1F
100
AcDbEntity
  8
0
  6
Continuous
 62
     7
370
    15
100
AcDbSpline
210
0.0
220
0.0
230
1.0
 70
     8
 71
     3
 72
    13
 73
     9
 74
     0
 42
0.00000001
 43
0.00000001
 12
1.0
 22
0.0
 32
0.0
 13
1.0
 23
0.0
 33
0.0
 40
0.0
 40
0.0
 40
0.0
 40
0.0
 40
0.2359779310481739
 40
0.4700664405346311
 40
0.6281567545471083
 40
0.7867756990089765
 40
0.891610049237716
 40
1.0
 40
1.0
 40
1.0
 40
1.0
 10
793.6400148861129
 20
372.5409000084277
 30
0.0
 10
793.4103602944356
 20
373.0225381155309
 30
0.0
 10
792.9528899031042
 20
373.981957963083
 30
0.0
 10
792.1379614792534
 20
375.1628910181777
 30
0.0
 10
791.1446595010622
 20
375.9524506524258
 30
0.0
 10
790.2137214120609
 20
376.2273919222313
 30
0.0
 10
789.3559176377771
 20
376.2438600498103
 30
0.0
 10
788.9104141899281
 20
376.0468435754593
 30
0.0
 10
788.6839479918807
 20
375.9466926740142
 30
0.0
  0
LINE
  5
11E
330
1F
100
AcDbEntity
  8
0
  6
Continuous
 62
     7
370
    15
100
AcDbLine
 10
799.2463597393
 20
360.5180546719
 30
0.0
 11
793.6400148861
 21
372.5409000084
 31
0.0
  0
LINE
  5
11F
330
1F
100
AcDbEntity
  8
0
  6
Continuous
 62
     7
370
    15
100
AcDbLine
 10
787.8398649225
 20
377.7568221364
 30
0.0
 11
788.2555396441
 21
377.9247656253
 31
0.0
  0
SPLINE
  5
120
330
1F
100
AcDbEntity
  8
0
  6
Continuous
 62
     7
370
    15
100
AcDbSpline
210
0.0
220
0.0
230
1.0
 70
     8
 71
     3
 72
    14
 73
    10
 74
     0
 42
0.00000001
 43
0.00000001
 12
1.0
 22
0.0
 32
0.0
 13
1.0
 23
0.0
 33
0.0
 40
0.0
 40
0.0
 40
0.0
 40
0.0
 40
0.0000064140457935
 40
0.0730558909548038
 40
0.2154935957733509
 40
0.4037789030075344
 40
0.5887468703998127
 40
0.8882363243876854
 40
1.0
 40
1.0
 40
1.0
 40
1.0
 10
788.2555396440958
 20
377.9247656253282
 30
0.0
 10
788.2555581840655
 20
377.9247731158301
 30
0.0
 10
788.4667281770085
 20
378.0100898262061
 30
0.0
 10
789.1177431120984
 20
378.1962319484954
 30
0.0
 10
790.3956740149099
 20
378.2020972486324
 30
0.0
 10
791.967285988143
 20
377.7280588532223
 30
0.0
 10
793.6589570812464
 20
376.4212269733934
 30
0.0
 10
794.6517745935895
 20
374.8096415386054
 30
0.0
 10
795.2069020064376
 20
373.6555425038156
 30
0.0
 10
795.3577654908162
 20
373.3419002702012
 30
0.0
  0
LINE
  5
121
330
1F
100
AcDbEntity
  8
0
  6
Continuous
 62
     7
370
    15
100
AcDbLine
 10
795.3577654908
 20
373.3419002702
 30
0.0
 11
793.6400148861
 21
372.5409000084
 31
0.0
  0
SPLINE
  5
122
330
1F
100
AcDbEntity
  8
0
  6
Continuous
 62
     7
370
    15
100
AcDbSpline
210
0.0
220
0.0
230
1.0
 70
     8
 71
     3
 72
    15
 73
    11
 74
     0
 42
0.00000001
 43
0.00000001
 12
1.0
 22
0.0
 32
0.0
 13
1.0
 23
0.0
 33
0.0
 40
0.0
 40
0.0
 40
0.0
 40
0.0
 40
0.012525835387779
 40
0.2274813526119517
 40
0.442440419976909
 40
0.499999176320712
 40
0.7148755009569842
 40
0.9297495265588449
 40
0.987474164614659
 40
1.0
 40
1.0
 40
1.0
 40
1.0
 10
788.6839479918807
 20
375.9466926740142
 30
0.0
 10
788.6787453650148
 20
375.9586501119431
 30
0.0
 10
788.5842606013287
 20
376.1758088139086
 30
0.0
 10
788.3977697485351
 20
376.5988228816992
 30
0.0
 10
788.2130378391423
 20
377.0065406935153
 30
0.0
 10
788.0554413039869
 20
377.3465021002691
 30
0.0
 10
787.9256189518624
 20
377.6173638957522
 30
0.0
 10
787.8571660556893
 20
377.7421261573635
 30
0.0
 10
787.8421729445797
 20
377.7571758063299
 30
0.0
 10
787.8402183455767
 20
377.7568773389254
 30
0.0
 10
787.8398698356782
 20
377.7568241214396
 30
0.0
  0
LINE
  5
123
330
1F
100
AcDbEntity
  8
0
  6
Continuous
 62
     7
370
    15
100
AcDbLine
 10
836.1712848916
 20
281.3322971436
 30
0.0
 11
824.2256661123
 21
306.9497592856
 31
0.0
  0
SPLINE
  5
124
330
1F
100
AcDbEntity
  8
0
  6
Continuous
 62
     7
370
    15
100
AcDbSpline
210
0.0
220
0.0
230
1.0
 70
     8
 71
     3
 72
    11
 73
     7
 74
     0
 42
0.00000001
 43
0.00000001
 12
1.0
 22
0.0
 32
0.0
 13
1.0
 23
0.0
 33
0.0
 40
0.0
 40
0.0
 40
0.0
 40
0.0
 40
0.2481429390948539
 40
0.4973887206240431
 40
0.7485480260951127
 40
1.0
 40
1.0
 40
1.0
 40
1.0
 10
837.0327048521342
 20
279.0547929900446
 30
0.0
 10
836.9788969453037
 20
279.2492477777675
 30
0.0
 10
836.8710419886585
 20
279.6390215849025
 30
0.0
 10
836.6595001942767
 20
280.2100257725236
 30
0.0
 10
836.4267892330201
 20
280.7751402595361
 30
0.0
 10
836.2564860610145
 20
281.1465061006558
 30
0.0
 10
836.1712848916014
 20
281.3322971435992
 30
0.0
  0
SPLINE
  5
125
330
1F
100
AcDbEntity
  8
0
  6
Continuous
 62
     7
370
    15
100
AcDbSpline
210
0.0
220
0.0
230
1.0
 70
     8
 71
     3
 72
    12
 73
     8
 74
     0
 42
0.00000001
 43
0.00000001
 12
1.0
 22
0.0
 32
0.0
 13
1.0
 23
0.0
 33
0.0
 40
0.0
 40
0.0
 40
0.0
 40
0.0
 40
0.0000220212918973
 40
0.2490460125818073
 40
0.4983079086966289
 40
0.748773890924076
 40
1.0
 40
1.0
 40
1.0
 40
1.0
 10
837.8890354963047
 20
282.1332974053728
 30
0.0
 10
837.8890439486569
 20
282.1332792792111
 30
0.0
 10
837.9846343722296
 20
281.9282845713659
 30
0.0
 10
838.1712280384555
 20
281.5158703728206
 30
0.0
 10
838.4306496549139
 20
280.8872228949839
 30
0.0
 10
838.6671875882763
 20
280.2469659421608
 30
0.0
 10
838.7918399354908
 20
279.8085562036331
 30
0.0
 10
838.8542605411186
 20
279.5890192113214
 30
0.0
  0
SPLINE
  5
126
330
1F
100
AcDbEntity
  8
0
  6
Continuous
 62
     7
370
    15
100
AcDbSpline
210
0.0
220
0.0
230
1.0
 70
     8
 71
     3
 72
    11
 73
     7
 74
     0
 42
0.00000001
 43
0.00000001
 12
1.0
 22
0.0
 32
0.0
 13
1.0
 23
0.0
 33
0.0
 40
0.0
 40
0.0
 40
0.0
 40
0.0
 40
0.2499768814501234
 40
0.4998058427201296
 40
0.7495361389842399
 40
0.9999999999999999
 40
0.9999999999999999
 40
0.9999999999999999
 40
0.9999999999999999
 10
838.8542605411187
 20
279.5890192113214
 30
0.0
 10
838.8289109721525
 20
279.5749882899087
 30
0.0
 10
838.7782268344586
 20
279.5469347496766
 30
0.0
 10
838.3634055089734
 20
279.4196704738807
 30
0.0
 10
837.7633742619581
 20
279.2492720845245
 30
0.0
 10
837.2764993325105
 20
279.1196827050721
 30
0.0
 10
837.0327048521342
 20
279.0547929900446
 30
0.0
  0
LINE
  5
127
330
1F
100
AcDbEntity
  8
0
  6
Continuous
 62
     7
370
    15
100
AcDbLine
 10
837.8890354963
 20
282.1332974054
 30
0.0
 11
836.1712848916
 21
281.3322971436
 31
0.0
  0
SPLINE
  5
128
330
1F
100
AcDbEntity
  8
0
  6
Continuous
 62
     7
370
    15
100
AcDbSpline
210
0.0
220
0.0
230
1.0
 70
     8
 71
     3
 72
    11
 73
     7
 74
     0
 42
0.00000001
 43
0.00000001
 12
1.0
 22
0.0
 32
0.0
 13
1.0
 23
0.0
 33
0.0
 40
0.0
 40
0.0
 40
0.0
 40
0.0
 40
0.2440033155519365
 40
0.4919416665609694
 40
0.7439093003483751
 40
1.0
 40
1.0
 40
1.0
 40
1.0
 10
837.6675640084745
 20
277.7456391849431
 30
0.0
 10
837.6306215742335
 20
277.8286579329518
 30
0.0
 10
837.5561409360248
 20
277.9960342702728
 30
0.0
 10
837.4032448988117
 20
278.3168278010605
 30
0.0
 10
837.2273998675885
 20
278.6745633202832
 30
0.0
 10
837.0979533580764
 20
278.927365907184
 30
0.0
 10
837.0327048521343
 20
279.0547929900446
 30
0.0
  0
SPLINE
  5
129
330
1F
100
AcDbEntity
  8
0
  6
Continuous
 62
     7
370
    15
100
AcDbSpline
210
0.0
220
0.0
230
1.0
 70
     8
 71
     3
 72
    11
 73
     7
 74
     0
 42
0.00000001
 43
0.00000001
 12
1.0
 22
0.0
 32
0.0
 13
1.0
 23
0.0
 33
0.0
 40
0.0
 40
0.0
 40
0.0
 40
0.0
 40
0.2501480011265436
 40
0.500288031152466
 40
0.7504202668475238
 40
1.0
 40
1.0
 40
1.0
 40
1.0
 10
838.8542605411186
 20
279.5890192113214
 30
0.0
 10
838.8759137842367
 20
279.4151890978788
 30
0.0
 10
838.9192195804806
 20
279.0675344101836
 30
0.0
 10
838.6870808680138
 20
278.53475345185
 30
0.0
 10
838.2701007932741
 20
278.0596343929836
 30
0.0
 10
837.8682615066098
 20
277.8502270777821
 30
0.0
 10
837.6675640084745
 20
277.7456391849431
 30
0.0
  0
LINE
  5
12A
330
1F
100
AcDbEntity
  8
0
  6
Continuous
 62
     7
370
    15
100
AcDbLine
 10
795.3577654908
 20
373.3419002702
 30
0.0
 11
800.964110344
 21
361.3190549337
 31
0.0
  0
LINE
  5
12B
330
1F
100
AcDbEntity
  8
0
  6
Continuous
 62
     7
370
    15
100
AcDbLine
 10
825.943416717
 20
307.7507595474
 30
0.0
 11
837.8890354963
 21
282.1332974054
 31
0.0
  0
SPLINE
  5
12C
330
1F
100
AcDbEntity
  8
0
  6
Continuous
 62
     7
370
    15
100
AcDbSpline
210
0.0
220
0.0
230
1.0
 70
     8
 71
     3
 72
    10
 73
     6
 74
     0
 42
0.00000001
 43
0.00000001
 12
1.0
 22
0.0
 32
0.0
 13
1.0
 23
0.0
 33
0.0
 40
0.0
 40
0.0
 40
0.0
 40
0.0
 40
0.2987989903043609
 40
0.606633878054133
 40
1.0
 40
1.0
 40
1.0
 40
1.0
 10
838.8542605411186
 20
279.5890192113214
 30
0.0
 10
838.9581223771238
 20
279.1009441011176
 30
0.0
 10
839.1689869061286
 20
278.1100341365859
 30
0.0
 10
838.9899589963383
 20
276.4034310272438
 30
0.0
 10
838.4863335354869
 20
275.522920105397
 30
0.0
 10
838.203805142474
 20
275.0289630775709
 30
0.0
  0
SPLINE
  5
12D
330
1F
100
AcDbEntity
  8
0
  6
Continuous
 62
     7
370
    15
100
AcDbSpline
210
0.0
220
0.0
230
1.0
 70
     8
 71
     3
 72
    17
 73
    13
 74
     0
 42
0.00000001
 43
0.00000001
 12
1.0
 22
0.0
 32
0.0
 13
1.0
 23
0.0
 33
0.0
 40
0.0
 40
0.0
 40
0.0
 40
0.0
 40
0.2840452930487104
 40
0.559105305379456
 40
0.7080754876178633
 40
0.8003622207111164
 40
0.8610609971541519
 40
0.9022878369856895
 40
0.9308254052257982
 40
0.9508150645493448
 40
0.9860803515010877
 40
1.0
 40
1.0
 40
1.0
 40
1.0
 10
837.6292397083995
 20
274.3681613607072
 30
0.0
 10
837.5698600663952
 20
274.2960763912324
 30
0.0
 10
837.4529791544824
 20
274.1541867354001
 30
0.0
 10
837.2575279780796
 20
274.0128323786254
 30
0.0
 10
837.1130235257658
 20
273.911919140401
 30
0.0
 10
837.0250113679665
 20
273.8561445116626
 30
0.0
 10
836.9673523393785
 20
273.8213596134438
 30
0.0
 10
836.928098759606
 20
273.7985457857193
 30
0.0
 10
836.9008590709932
 20
273.7831110053291
 30
0.0
 10
836.8752736587807
 20
273.7688777632699
 30
0.0
 10
836.8540162779192
 20
273.7572839784709
 30
0.0
 10
836.8387981003967
 20
273.749165324979
 30
0.0
 10
836.8344912596951
 20
273.7468676945795
 30
0.0
  0
SPLINE
  5
12E
330
1F
100
AcDbEntity
  8
0
  6
Continuous
 62
     7
370
    15
100
AcDbSpline
210
0.0
220
0.0
230
1.0
 70
     8
 71
     3
 72
    10
 73
     6
 74
     0
 42
0.00000001
 43
0.00000001
 12
1.0
 22
0.0
 32
0.0
 13
1.0
 23
0.0
 33
0.0
 40
0.0
 40
0.0
 40
0.0
 40
0.0
 40
0.4527378322496979
 40
0.9055954617506624
 40
1.0
 40
1.0
 40
1.0
 40
1.0
 10
838.9763422832988
 20
276.7920973114589
 30
0.0
 10
838.9839653301473
 20
276.8445967355019
 30
0.0
 10
838.9992134409498
 20
276.9496094752627
 30
0.0
 10
839.1225744582925
 20
277.432278334258
 30
0.0
 10
839.0805539260837
 20
277.9087241147178
 30
0.0
 10
839.073305244969
 20
277.9909125913853
 30
0.0
  0
SPLINE
  5
12F
330
1F
100
AcDbEntity
  8
0
  6
Continuous
 62
     7
370
    15
100
AcDbSpline
210
0.0
220
0.0
230
1.0
 70
     8
 71
     3
 72
    12
 73
     8
 74
     0
 42
0.00000001
 43
0.00000001
 12
1.0
 22
0.0
 32
0.0
 13
1.0
 23
0.0
 33
0.0
 40
0.0
 40
0.0
 40
0.0
 40
0.0
 40
0.4616906276090311
 40
0.7307729957174316
 40
0.9175829348231086
 40
0.971935940145839
 40
1.0
 40
1.0
 40
1.0
 40
1.0
 10
838.833209796728
 20
279.6644050101148
 30
0.0
 10
838.8031960038353
 20
279.7729648501401
 30
0.0
 10
838.7556895827963
 20
279.9447954976903
 30
0.0
 10
838.6840662035249
 20
280.1688944876364
 30
0.0
 10
838.642574975743
 20
280.2932632345249
 30
0.0
 10
838.6200877559597
 20
280.3589348375192
 30
0.0
 10
838.6131435588095
 20
280.3790227459278
 30
0.0
 10
838.6107789712808
 20
280.3858629344581
 30
0.0
  0
LINE
  5
130
330
1F
100
AcDbEntity
  8
0
  6
Continuous
 62
     7
370
    15
100
AcDbLine
 10
793.9879256507
 20
375.6030446182
 30
0.0
 11
793.5423129272
 21
376.337933636
 31
0.0
  0
LINE
  5
131
330
1F
100
AcDbEntity
  8
0
  6
Continuous
 62
     7
370
    15
100
AcDbLine
 10
837.9352172434
 20
282.0337519448
 30
0.0
 11
837.893183286
 21
282.1243984334
 31
0.0
  0
SPLINE
  5
132
330
1F
100
AcDbEntity
  8
0
  6
Continuous
 62
     7
370
    15
100
AcDbSpline
210
0.0
220
0.0
230
1.0
 70
     8
 71
     3
 72
    13
 73
     9
 74
     0
 42
0.00000001
 43
0.00000001
 12
1.0
 22
0.0
 32
0.0
 13
1.0
 23
0.0
 33
0.0
 40
0.0
 40
0.0
 40
0.0
 40
0.0
 40
0.1254648118065608
 40
0.2502435788816431
 40
0.3760698054095838
 40
0.5019139201694252
 40
0.750831051486172
 40
1.0
 40
1.0
 40
1.0
 40
1.0
 10
793.5423129268502
 20
376.337933636483
 30
0.0
 10
793.4546359545601
 20
376.4352059148482
 30
0.0
 10
793.279761429859
 20
376.6292185843254
 30
0.0
 10
793.006079397678
 20
376.8886187215745
 30
0.0
 10
792.7390787706528
 20
377.1120908899687
 30
0.0
 10
792.414219754943
 20
377.3505646440009
 30
0.0
 10
792.081533415201
 20
377.5481254794352
 30
0.0
 10
792.0286187252664
 20
377.5750896796491
 30
0.0
 10
792.002148004269
 20
377.5885785958965
 30
0.0
  0
SPLINE
  5
133
330
1F
100
AcDbEntity
  8
0
  6
Continuous
 62
     7
370
    15
100
AcDbSpline
210
0.0
220
0.0
230
1.0
 70
     8
 71
     3
 72
     9
 73
     5
 74
     0
 42
0.00000001
 43
0.00000001
 12
1.0
 22
0.0
 32
0.0
 13
1.0
 23
0.0
 33
0.0
 40
0.0
 40
0.0
 40
0.0
 40
0.0
 40
0.5000138394956827
 40
1.0
 40
1.0
 40
1.0
 40
1.0
 10
838.4030240834779
 20
280.9461166637106
 30
0.0
 10
838.3350546710401
 20
281.1148336590103
 30
0.0
 10
838.1991196087098
 20
281.4522583100358
 30
0.0
 10
838.023183075247
 20
281.8399243099164
 30
0.0
 10
837.9352172433885
 20
282.0337519447548
 30
0.0
  0
SPLINE
  5
134
330
1F
100
AcDbEntity
  8
0
  6
Continuous
 62
     7
370
    15
100
AcDbSpline
210
0.0
220
0.0
230
1.0
 70
     8
 71
     3
 72
     9
 73
     5
 74
     0
 42
0.00000001
 43
0.00000001
 12
1.0
 22
0.0
 32
0.0
 13
1.0
 23
0.0
 33
0.0
 40
0.0
 40
0.0
 40
0.0
 40
0.0
 40
0.7838918077606127
 40
1.0
 40
1.0
 40
1.0
 40
1.0
 10
839.0924777811344
 20
277.7832336952182
 30
0.0
 10
839.0986921671047
 20
277.8008115296903
 30
0.0
 10
839.1066197738339
 20
277.8232353314165
 30
0.0
 10
839.0834322588635
 20
278.113748857218
 30
0.0
 10
839.0784212469207
 20
278.1765312101001
 30
0.0
  0
SPLINE
  5
135
330
1F
100
AcDbEntity
  8
0
  6
Continuous
 62
     7
370
    15
100
AcDbSpline
210
0.0
220
0.0
230
1.0
 70
     8
 71
     3
 72
     9
 73
     5
 74
     0
 42
0.00000001
 43
0.00000001
 12
1.0
 22
0.0
 32
0.0
 13
1.0
 23
0.0
 33
0.0
 40
0.0
 40
0.0
 40
0.0
 40
0.0
 40
0.9176170645420956
 40
1.0
 40
1.0
 40
1.0
 40
1.0
 10
838.8653031935404
 20
279.5158616691009
 30
0.0
 10
838.8609813296257
 20
279.5544732629402
 30
0.0
 10
838.8562714521814
 20
279.5965513751847
 30
0.0
 10
838.8349650783448
 20
279.6592404963079
 30
0.0
 10
838.8332097967242
 20
279.6644050101273
 30
0.0
  0
LINE
  5
136
330
1F
100
AcDbEntity
  8
0
  6
Continuous
 62
     7
370
    15
100
AcDbLine
 10
803.8011489212
 20
355.2350060713
 30
0.0
 11
823.1063781398
 21
313.8348084098
 31
0.0
  0
LINE
  5
137
330
1F
100
AcDbEntity
  8
0
  6
Continuous
 62
     7
370
    15
100
AcDbLine
 10
811.6454201479
 20
350.2439200551
 30
0.0
 11
824.3251849299
 21
323.0520767296
 31
0.0
  0
LINE
  5
138
330
1F
100
AcDbEntity
  8
0
  6
Continuous
 62
     7
370
    15
100
AcDbLine
 10
-58.404778538
 20
481.9475325477
 30
0.0
 11
-58.404778538
 21
479.9475325477
 31
0.0
  0
LINE
  5
139
330
1F
100
AcDbEntity
  8
0
  6
Continuous
 62
     7
370
    15
100
AcDbLine
 10
-58.404778538
 20
481.9475325477
 30
0.0
 11
8.095221462
 21
481.9475325477
 31
0.0
  0
LINE
  5
13A
330
1F
100
AcDbEntity
  8
0
  6
Continuous
 62
     7
370
    15
100
AcDbLine
 10
8.095221462
 20
479.9475325477
 30
0.0
 11
8.095221462
 21
481.9475325477
 31
0.0
  0
LINE
  5
13B
330
1F
100
AcDbEntity
  8
0
  6
Continuous
 62
     7
370
    15
100
AcDbLine
 10
-58.404778538
 20
479.9475325477
 30
0.0
 11
8.095221462
 21
479.9475325477
 31
0.0
  0
LINE
  5
13C
330
1F
100
AcDbEntity
  8
0
  6
Continuous
 62
     7
370
    15
100
AcDbLine
 10
-49.654778538
 20
461.9475325477
 30
0.0
 11
-49.654778538
 21
463.9475325477
 31
0.0
  0
LINE
  5
13D
330
1F
100
AcDbEntity
  8
0
  6
Continuous
 62
     7
370
    15
100
AcDbLine
 10
-49.654778538
 20
463.9475325477
 30
0.0
 11
-47.654778538
 21
463.9475325477
 31
0.0
  0
LINE
  5
13E
330
1F
100
AcDbEntity
  8
0
  6
Continuous
 62
     7
370
    15
100
AcDbLine
 10
-47.654778538
 20
463.9475325477
 30
0.0
 11
-47.654778538
 21
461.9475325477
 31
0.0
  0
LINE
  5
13F
330
1F
100
AcDbEntity
  8
0
  6
Continuous
 62
     7
370
    15
100
AcDbLine
 10
-47.654778538
 20
461.9475325477
 30
0.0
 11
-49.654778538
 21
461.9475325477
 31
0.0
  0
LINE
  5
140
330
1F
100
AcDbEntity
  8
0
  6
Continuous
 62
     7
370
    15
100
AcDbLine
 10
-62.654778538
 20
466.1975325477
 30
0.0
 11
-60.654778538
 21
466.1975325477
 31
0.0
  0
ARC
  5
141
330
1F
100
AcDbEntity
  8
0
  6
Continuous
 62
     7
370
    15
100
AcDbCircle
 10
-58.404778538
 20
466.1975325477
 30
0.0
 40
2.25
100
AcDbArc
 50
180.0
 51
270.0
  0
LINE
  5
142
330
1F
100
AcDbEntity
  8
0
  6
Continuous
 62
     7
370
    15
100
AcDbLine
 10
-58.404778538
 20
463.9475325477
 30
0.0
 11
-58.404778538
 21
461.9475325477
 31
0.0
  0
ARC
  5
143
330
1F
100
AcDbEntity
  8
0
  6
Continuous
 62
     7
370
    15
100
AcDbCircle
 10
-58.404778538
 20
466.1975325477
 30
0.0
 40
4.25
100
AcDbArc
 50
180.0
 51
270.0
  0
ARC
  5
144
330
1F
100
AcDbEntity
  8
0
  6
Continuous
 62
     7
370
    15
100
AcDbCircle
 10
-58.404778538
 20
477.6975325477
 30
0.0
 40
2.249999999999979
100
AcDbArc
 50
90.0
 51
180.0
  0
LINE
  5
145
330
1F
100
AcDbEntity
  8
0
  6
Continuous
 62
     7
370
    15
100
AcDbLine
 10
-60.654778538
 20
477.6975325477
 30
0.0
 11
-62.654778538
 21
477.6975325477
 31
0.0
  0
ARC
  5
146
330
1F
100
AcDbEntity
  8
0
  6
Continuous
 62
     7
370
    15
100
AcDbCircle
 10
-58.404778538
 20
477.6975325477
 30
0.0
 40
4.249999999999979
100
AcDbArc
 50
90.0
 51
180.0
  0
LINE
  5
147
330
1F
100
AcDbEntity
  8
0
  6
Continuous
 62
     7
370
    15
100
AcDbLine
 10
12.345221462
 20
477.6975325477
 30
0.0
 11
10.345221462
 21
477.6975325477
 31
0.0
  0
ARC
  5
148
330
1F
100
AcDbEntity
  8
0
  6
Continuous
 62
     7
370
    15
100
AcDbCircle
 10
8.095221462
 20
477.6975325477
 30
0.0
 40
2.249999999999973
100
AcDbArc
 50
0.0
 51
90.0
  0
ARC
  5
149
330
1F
100
AcDbEntity
  8
0
  6
Continuous
 62
     7
370
    15
100
AcDbCircle
 10
8.095221462
 20
477.6975325477
 30
0.0
 40
4.249999999999975
100
AcDbArc
 50
0.0
 51
90.0
  0
LINE
  5
14A
330
1F
100
AcDbEntity
  8
0
  6
Continuous
 62
     7
370
    15
100
AcDbLine
 10
14.595221462
 20
463.9475325477
 30
0.0
 11
14.595221462
 21
461.9475325477
 31
0.0
  0
LINE
  5
14B
330
1F
100
AcDbEntity
  8
0
  6
Continuous
 62
     7
370
    15
100
AcDbLine
 10
14.595221462
 20
463.9475325477
 30
0.0
 11
49.0983656908
 21
463.9475325477
 31
0.0
  0
LINE
  5
14C
330
1F
100
AcDbEntity
  8
0
  6
Continuous
 62
     7
370
    15
100
AcDbLine
 10
49.0983656908
 20
461.9475325477
 30
0.0
 11
49.0983656908
 21
463.9475325477
 31
0.0
  0
LINE
  5
14D
330
1F
100
AcDbEntity
  8
0
  6
Continuous
 62
     7
370
    15
100
AcDbLine
 10
14.595221462
 20
461.9475325477
 30
0.0
 11
49.0983656908
 21
461.9475325477
 31
0.0
  0
LINE
  5
14E
330
1F
100
AcDbEntity
  8
0
  6
Continuous
 62
     7
370
    15
100
AcDbLine
 10
-49.654778538
 20
463.9475325477
 30
0.0
 11
-58.404778538
 21
463.9475325477
 31
0.0
  0
LINE
  5
14F
330
1F
100
AcDbEntity
  8
0
  6
Continuous
 62
     7
370
    15
100
AcDbLine
 10
-49.654778538
 20
461.9475325477
 30
0.0
 11
-58.404778538
 21
461.9475325477
 31
0.0
  0
LINE
  5
150
330
1F
100
AcDbEntity
  8
0
  6
Continuous
 62
     7
370
    15
100
AcDbLine
 10
-60.654778538
 20
466.1975325477
 30
0.0
 11
-60.654778538
 21
477.6975325477
 31
0.0
  0
LINE
  5
151
330
1F
100
AcDbEntity
  8
0
  6
Continuous
 62
     7
370
    15
100
AcDbLine
 10
-62.654778538
 20
466.1975325477
 30
0.0
 11
-62.654778538
 21
477.6975325477
 31
0.0
  0
LINE
  5
152
330
1F
100
AcDbEntity
  8
0
  6
Continuous
 62
     7
370
    15
100
AcDbLine
 10
10.345221462
 20
466.1975325477
 30
0.0
 11
12.345221462
 21
466.1975325477
 31
0.0
  0
LINE
  5
153
330
1F
100
AcDbEntity
  8
0
  6
Continuous
 62
     7
370
    15
100
AcDbLine
 10
10.345221462
 20
477.6975325477
 30
0.0
 11
10.345221462
 21
466.1975325477
 31
0.0
  0
LINE
  5
154
330
1F
100
AcDbEntity
  8
0
  6
Continuous
 62
     7
370
    15
100
AcDbLine
 10
12.345221462
 20
477.6975325477
 30
0.0
 11
12.345221462
 21
466.1975325477
 31
0.0
  0
ARC
  5
155
330
1F
100
AcDbEntity
  8
0
  6
Continuous
 62
     7
370
    15
100
AcDbCircle
 10
14.595221462
 20
466.1975325477
 30
0.0
 40
4.249999999999977
100
AcDbArc
 50
180.0
 51
270.0
  0
ARC
  5
156
330
1F
100
AcDbEntity
  8
0
  6
Continuous
 62
     7
370
    15
100
AcDbCircle
 10
14.595221462
 20
466.1975325477
 30
0.0
 40
2.249999999999975
100
AcDbArc
 50
180.0
 51
270.0
  0
LINE
  5
157
330
1F
100
AcDbEntity
  8
0
  6
Continuous
 62
     7
370
    15
100
AcDbLine
 10
769.7983656908
 20
461.9475325477
 30
0.0
 11
769.7983656908
 21
463.9475325477
 31
0.0
  0
LINE
  5
158
330
1F
100
AcDbEntity
  8
0
  6
Continuous
 62
     7
370
    15
100
AcDbLine
 10
49.0983656908
 20
463.9475325477
 30
0.0
 11
769.7983656908
 21
463.9475325477
 31
0.0
  0
LINE
  5
159
330
1F
100
AcDbEntity
  8
0
  6
Continuous
 62
     7
370
    15
100
AcDbLine
 10
49.0983656908
 20
461.9475325477
 30
0.0
 11
769.7983656908
 21
461.9475325477
 31
0.0
  0
LINE
  5
15A
330
1F
100
AcDbEntity
  8
0
  6
Continuous
 62
     7
370
    15
100
AcDbLine
 10
815.9816904067
 20
410.1092456898
 30
0.0
 11
815.1364538832
 21
411.9218612639
 31
0.0
  0
LINE
  5
15B
330
1F
100
AcDbEntity
  8
0
  6
Continuous
 62
     7
370
    15
100
AcDbLine
 10
815.9816904067
 20
410.1092456898
 30
0.0
 11
798.4353018805
 21
401.9272303471
 31
0.0
  0
LINE
  5
15C
330
1F
100
AcDbEntity
  8
0
  6
Continuous
 62
     7
370
    15
100
AcDbLine
 10
797.590065357
 20
403.7398459212
 30
0.0
 11
798.4353018805
 21
401.9272303471
 31
0.0
  0
LINE
  5
15D
330
1F
100
AcDbEntity
  8
0
  6
Continuous
 62
     7
370
    15
100
AcDbLine
 10
815.1364538832
 20
411.9218612639
 30
0.0
 11
797.590065357
 21
403.7398459212
 31
0.0
  0
LINE
  5
15E
330
1F
100
AcDbEntity
  8
0
  6
Continuous
 62
     7
370
    15
100
AcDbLine
 10
798.4353018805
 20
401.9272303471
 30
0.0
 11
796.6226863064
 21
401.0819938236
 31
0.0
  0
LINE
  5
15F
330
1F
100
AcDbEntity
  8
0
  6
Continuous
 62
     7
370
    15
100
AcDbLine
 10
796.6226863064
 20
401.0819938236
 30
0.0
 11
795.7774497829
 21
402.8946093977
 31
0.0
  0
LINE
  5
160
330
1F
100
AcDbEntity
  8
0
  6
Continuous
 62
     7
370
    15
100
AcDbLine
 10
795.7774497829
 20
402.8946093977
 30
0.0
 11
797.590065357
 21
403.7398459212
 31
0.0
  0
LINE
  5
161
330
1F
100
AcDbEntity
  8
0
  6
Continuous
 62
     7
370
    15
100
AcDbLine
 10
825.3483656908
 20
461.9475325477
 30
0.0
 11
825.3483656908
 21
463.9475325477
 31
0.0
  0
LINE
  5
162
330
1F
100
AcDbEntity
  8
0
  6
Continuous
 62
     7
370
    15
100
AcDbLine
 10
769.7983656908
 20
461.9475325477
 30
0.0
 11
825.3483656908
 21
461.9475325477
 31
0.0
  0
LINE
  5
163
330
1F
100
AcDbEntity
  8
0
  6
Continuous
 62
     7
370
    15
100
AcDbLine
 10
769.7983656908
 20
463.9475325477
 30
0.0
 11
825.3483656908
 21
463.9475325477
 31
0.0
  0
LINE
  5
164
330
1F
100
AcDbEntity
  8
0
  6
Continuous
 62
     7
370
    15
100
AcDbLine
 10
836.2240591352
 20
446.8761134068
 30
0.0
 11
834.4114435612
 21
447.7213499303
 31
0.0
  0
ARC
  5
165
330
1F
100
AcDbEntity
  8
0
  6
Continuous
 62
     7
370
    15
100
AcDbCircle
 10
825.3483656908
 20
451.9475325477
 30
0.0
 40
10.00000000000006
100
AcDbArc
 50
335.0
 51
90.0
  0
ARC
  5
166
330
1F
100
AcDbEntity
  8
0
  6
Continuous
 62
     7
370
    15
100
AcDbCircle
 10
825.3483656908
 20
451.9475325477
 30
0.0
 40
12.00000000000008
100
AcDbArc
 50
335.0
 51
90.0
  0
LINE
  5
167
330
1F
100
AcDbEntity
  8
0
  6
Continuous
 62
     7
370
    15
100
AcDbLine
 10
819.9733491362
 20
416.7587565169
 30
0.0
 11
821.7859647102
 21
415.9135199934
 31
0.0
  0
LINE
  5
168
330
1F
100
AcDbEntity
  8
0
  6
Continuous
 62
     7
370
    15
100
AcDbLine
 10
834.4114435612
 20
447.7213499303
 30
0.0
 11
819.9733491362
 21
416.7587565169
 31
0.0
  0
LINE
  5
169
330
1F
100
AcDbEntity
  8
0
  6
Continuous
 62
     7
370
    15
100
AcDbLine
 10
836.2240591352
 20
446.8761134068
 30
0.0
 11
821.7859647102
 21
415.9135199934
 31
0.0
  0
ARC
  5
16A
330
1F
100
AcDbEntity
  8
0
  6
Continuous
 62
     7
370
    15
100
AcDbCircle
 10
810.9102712658
 20
420.9849391343
 30
0.0
 40
11.99999999999998
100
AcDbArc
 50
295.0
 51
335.0
  0
ARC
  5
16B
330
1F
100
AcDbEntity
  8
0
  6
Continuous
 62
     7
370
    15
100
AcDbCircle
 10
810.9102712658
 20
420.9849391343
 30
0.0
 40
10.00000000000001
100
AcDbArc
 50
295.0
 51
335.0
  0
LINE
  5
16C
330
1F
100
AcDbEntity
  8
0
  6
Continuous
 62
     7
370
    15
100
AcDbLine
 10
656.3894730003
 20
115.0475325477
 30
0.0
 11
629.8894730003
 21
115.0475325477
 31
0.0
  0
LINE
  5
16D
330
1F
100
AcDbEntity
  8
0
  6
Continuous
 62
     7
370
    15
100
AcDbLine
 10
682.8894730003
 20
115.0475325477
 30
0.0
 11
656.3894730003
 21
115.0475325477
 31
0.0
  0
LINE
  5
16E
330
1F
100
AcDbEntity
  8
0
  6
Continuous
 62
     7
370
    15
100
AcDbLine
 10
656.3894730003
 20
121.0475325477
 30
0.0
 11
627.8894730003
 21
121.0475325477
 31
0.0
  0
LINE
  5
16F
330
1F
100
AcDbEntity
  8
0
  6
Continuous
 62
     7
370
    15
100
AcDbLine
 10
684.8894730003
 20
121.0475325477
 30
0.0
 11
656.3894730003
 21
121.0475325477
 31
0.0
  0
LINE
  5
170
330
1F
100
AcDbEntity
  8
0
  6
Continuous
 62
     7
370
    15
100
AcDbLine
 10
77.3894730003
 20
121.0475325477
 30
0.0
 11
48.8894730003
 21
121.0475325477
 31
0.0
  0
LINE
  5
171
330
1F
100
AcDbEntity
  8
0
  6
Continuous
 62
     7
370
    15
100
AcDbLine
 10
105.8894730003
 20
121.0475325477
 30
0.0
 11
77.3894730003
 21
121.0475325477
 31
0.0
  0
LINE
  5
172
330
1F
100
AcDbEntity
  8
0
  6
Continuous
 62
     7
370
    15
100
AcDbLine
 10
77.3894730003
 20
115.0475325477
 30
0.0
 11
50.8894730003
 21
115.0475325477
 31
0.0
  0
LINE
  5
173
330
1F
100
AcDbEntity
  8
0
  6
Continuous
 62
     7
370
    15
100
AcDbLine
 10
103.8894730003
 20
115.0475325477
 30
0.0
 11
77.3894730003
 21
115.0475325477
 31
0.0
  0
LINE
  5
174
330
1F
100
AcDbEntity
  8
0
  6
Continuous
 62
     7
370
    15
100
AcDbLine
 10
32.3894730003
 20
213.0475325477
 30
0.0
 11
32.3894730003
 21
214.7475325477
 31
0.0
  0
LINE
  5
175
330
1F
100
AcDbEntity
  8
0
  6
Continuous
 62
     7
370
    15
100
AcDbLine
 10
32.3894730003
 20
213.0475325477
 30
0.0
 11
122.3894730003
 21
213.0475325477
 31
0.0
  0
LINE
  5
176
330
1F
100
AcDbEntity
  8
0
  6
Continuous
 62
     7
370
    15
100
AcDbLine
 10
122.3894730003
 20
213.0475325477
 30
0.0
 11
122.3894730003
 21
214.7475325477
 31
0.0
  0
LINE
  5
177
330
1F
100
AcDbEntity
  8
0
  6
Continuous
 62
     7
370
    15
100
AcDbLine
 10
77.3894730003
 20
150.0475325477
 30
0.0
 11
46.4298227799
 21
150.0475325477
 31
0.0
  0
LINE
  5
178
330
1F
100
AcDbEntity
  8
0
  6
Continuous
 62
     7
370
    15
100
AcDbLine
 10
108.3491232206
 20
150.0475325477
 30
0.0
 11
77.3894730003
 21
150.0475325477
 31
0.0
  0
LINE
  5
179
330
1F
100
AcDbEntity
  8
0
  6
Continuous
 62
     7
370
    15
100
AcDbLine
 10
611.3894730003
 20
213.0475325477
 30
0.0
 11
611.3894730003
 21
214.7475325477
 31
0.0
  0
LINE
  5
17A
330
1F
100
AcDbEntity
  8
0
  6
Continuous
 62
     7
370
    15
100
AcDbLine
 10
701.3894730003
 20
213.0475325477
 30
0.0
 11
701.3894730003
 21
214.7475325477
 31
0.0
  0
LINE
  5
17B
330
1F
100
AcDbEntity
  8
0
  6
Continuous
 62
     7
370
    15
100
AcDbLine
 10
611.3894730003
 20
213.0475325477
 30
0.0
 11
701.3894730003
 21
213.0475325477
 31
0.0
  0
LINE
  5
17C
330
1F
100
AcDbEntity
  8
0
  6
Continuous
 62
     7
370
    15
100
AcDbLine
 10
656.3894730003
 20
150.0475325477
 30
0.0
 11
625.4298227799
 21
150.0475325477
 31
0.0
  0
LINE
  5
17D
330
1F
100
AcDbEntity
  8
0
  6
Continuous
 62
     7
370
    15
100
AcDbLine
 10
687.3491232206
 20
150.0475325477
 30
0.0
 11
656.3894730003
 21
150.0475325477
 31
0.0
  0
LINE
  5
17E
330
1F
100
AcDbEntity
  8
0
  6
Continuous
 62
     7
370
    15
100
AcDbLine
 10
-58.404778538
 20
481.9475325477
 30
0.0
 11
-54.2363178874
 21
529.5932558061
 31
0.0
  0
ARC
  5
17F
330
1F
100
AcDbEntity
  8
0
  6
Continuous
 62
     7
370
    15
100
AcDbCircle
 10
-53.2401231893
 20
523.8275531463
 30
0.0
 40
5.851130748659111
100
AcDbArc
 50
80.1972507075
 51
99.8027492925
  0
LINE
  5
180
330
1F
100
AcDbEntity
  8
0
  6
Continuous
 62
     7
370
    15
100
AcDbLine
 10
-52.2439284912
 20
529.5932558061
 30
0.0
 11
-56.4123891418
 21
481.9475325477
 31
0.0
  0
LINE
  5
181
330
1F
100
AcDbEntity
  8
0
  6
Continuous
 62
     7
370
    15
100
AcDbLine
 10
5.6028320658
 20
481.9475325477
 30
0.0
 11
2.6678700163
 21
515.4943022801
 31
0.0
  0
ARC
  5
182
330
1F
100
AcDbEntity
  8
0
  6
Continuous
 62
     7
370
    15
100
AcDbCircle
 10
3.6640647144
 20
509.7285996203
 30
0.0
 40
5.851130748650764
100
AcDbArc
 50
80.1972507075
 51
99.8027492925
  0
LINE
  5
183
330
1F
100
AcDbEntity
  8
0
  6
Continuous
 62
     7
370
    15
100
AcDbLine
 10
4.6602594125
 20
515.4943022801
 30
0.0
 11
7.595221462
 21
481.9475325477
 31
0.0
  0
LINE
  5
184
330
1F
100
AcDbEntity
  8
0
  6
Continuous
 62
     7
370
    15
100
AcDbLine
 10
2.6678700163
 20
515.4943022801
 30
0.0
 11
-52.2439284912
 21
529.5932558061
 31
0.0
  0
ARC
  5
185
330
1F
100
AcDbEntity
  8
0
  6
Continuous
 62
     7
370
    15
100
AcDbCircle
 10
22.5648139737
 20
510.832083125
 30
0.0
 40
20.43586715297376
100
AcDbArc
 50
161.6752935119
 51
166.812465909
  0
ARC
  5
186
330
1F
100
AcDbEntity
  8
0
  6
Continuous
 62
     7
370
    15
100
AcDbCircle
 10
2.6678700163
 20
515.3199907946
 30
0.0
 40
2.000000000000067
100
AcDbArc
 50
5.0
 51
75.6
  0
ARC
  5
187
330
1F
100
AcDbEntity
  8
0
  6
Continuous
 62
     7
370
    15
100
AcDbCircle
 10
-32.3469845337
 20
524.931036651
 30
0.0
 40
20.43586715309042
100
AcDbArc
 50
161.6752935119
 51
166.812465909
  0
LINE
  5
188
330
1F
100
AcDbEntity
  8
0
  6
Continuous
 62
     7
370
    15
100
AcDbLine
 10
-51.7465487169
 20
531.3561106429
 30
0.0
 11
3.1652497906
 21
517.2571571169
 31
0.0
  0
ARC
  5
189
330
1F
100
AcDbEntity
  8
0
  6
Continuous
 62
     7
370
    15
100
AcDbCircle
 10
-52.2439284912
 20
529.4189443206
 30
0.0
 40
2.000000000000027
100
AcDbArc
 50
75.6
 51
175.0
  0
LINE
  5
18A
330
1F
100
AcDbEntity
  8
0
  6
Continuous
 62
     7
370
    15
100
AcDbLine
 10
795.7873809328
 20
402.873311978
 30
0.0
 11
779.7277177851
 21
395.3845680648
 31
0.0
  0
SPLINE
  5
18B
330
1F
100
AcDbEntity
  8
0
  6
Continuous
 62
     7
370
    15
100
AcDbSpline
210
0.0
220
0.0
230
1.0
 70
     8
 71
     3
 72
    14
 73
    10
 74
     0
 42
0.00000001
 43
0.00000001
 12
1.0
 22
0.0
 32
0.0
 13
1.0
 23
0.0
 33
0.0
 40
0.0
 40
0.0
 40
0.0
 40
0.0
 40
0.1424979789612902
 40
0.2891107491291712
 40
0.4316087267218846
 40
0.5782214232939503
 40
0.7209671108987268
 40
0.8678498166738055
 40
1.0
 40
1.0
 40
1.0
 40
1.0
 10
779.7277177850702
 20
395.3845680648294
 30
0.0
 10
779.5831006568923
 20
395.3294385941509
 30
0.0
 10
779.2896904164861
 20
395.2175877266291
 30
0.0
 10
778.7894762363393
 20
395.1837706476338
 30
0.0
 10
778.242792028104
 20
395.2393282443014
 30
0.0
 10
777.6608363110252
 20
395.3801427533663
 30
0.0
 10
777.0422043824383
 20
395.5886724743174
 30
0.0
 10
776.4230309392249
 20
395.8351029099481
 30
0.0
 10
776.0071547479657
 20
396.0118561559131
 30
0.0
 10
775.8101954751972
 20
396.0955666243564
 30
0.0
  0
LINE
  5
18C
330
1F
100
AcDbEntity
  8
0
  6
Continuous
 62
     7
370
    15
100
AcDbLine
 10
775.8101954752
 20
396.0955666244
 30
0.0
 11
814.1489817547
 21
413.9732362708
 31
0.0
  0
LINE
  5
18D
330
1F
100
AcDbEntity
  8
0
  6
Continuous
 62
     7
370
    15
100
AcDbLine
 10
779.2664266741
 20
394.1259185407
 30
0.0
 11
779.7604957527
 21
393.0663839824
 31
0.0
  0
LINE
  5
18E
330
1F
100
AcDbEntity
  8
0
  6
Continuous
 62
     7
370
    15
100
AcDbLine
 10
835.6673653789
 20
273.1737151651
 30
0.0
 11
833.5828574687
 21
272.2016931631
 31
0.0
  0
LINE
  5
18F
330
1F
100
AcDbEntity
  8
0
  6
Continuous
 62
     7
370
    15
100
AcDbLine
 10
833.5828574687
 20
272.2016931631
 30
0.0
 11
775.8101954752
 21
396.0955666244
 31
0.0
  0
SPLINE
  5
190
330
1F
100
AcDbEntity
  8
0
  6
Continuous
 62
     7
370
    15
100
AcDbSpline
210
0.0
220
0.0
230
1.0
 70
     8
 71
     3
 72
    11
 73
     7
 74
     0
 42
0.00000001
 43
0.00000001
 12
1.0
 22
0.0
 32
0.0
 13
1.0
 23
0.0
 33
0.0
 40
0.0
 40
0.0
 40
0.0
 40
0.0
 40
0.2888077077194141
 40
0.57761533621972
 40
0.8669345414323495
 40
0.9999999999999999
 40
0.9999999999999999
 40
0.9999999999999999
 40
0.9999999999999999
 10
775.8101954751976
 20
396.0955666243565
 30
0.0
 10
776.2578934999754
 20
395.9593578695003
 30
0.0
 10
777.1532894267285
 20
395.6869403971493
 30
0.0
 10
778.3004510157891
 20
395.1869310700348
 30
0.0
 10
778.9753385645208
 20
394.650680339606
 30
0.0
 10
779.1966926489704
 20
394.2516322035539
 30
0.0
 10
779.2664266740875
 20
394.1259185407067
 30
0.0
  0
LINE
  5
191
330
1F
100
AcDbEntity
  8
0
  6
Continuous
 62
     7
370
    15
100
AcDbLine
 10
833.5828574687
 20
265.6933719323
 30
0.0
 11
835.6673653789
 21
264.7213499303
 31
0.0
  0
ARC
  5
192
330
1F
100
AcDbEntity
  8
0
  6
Continuous
 62
     7
370
    15
100
AcDbCircle
 10
826.6042875085
 20
268.9475325477
 30
0.0
 40
7.69999999999975
100
AcDbArc
 50
335.0
 51
25.0
  0
LINE
  5
193
330
1F
100
AcDbEntity
  8
0
  6
Continuous
 62
     7
370
    15
100
AcDbLine
 10
805.993489018
 20
217.0475325477
 30
0.0
 11
805.993489018
 21
214.7475325477
 31
0.0
  0
LINE
  5
194
330
1F
100
AcDbEntity
  8
0
  6
Continuous
 62
     7
370
    15
100
AcDbLine
 10
745.3641916261
 20
214.7475325477
 30
0.0
 11
-61.7917856514
 21
214.7475325477
 31
0.0
  0
SPLINE
  5
195
330
1F
100
AcDbEntity
  8
0
  6
Continuous
 62
     7
370
    15
100
AcDbSpline
210
0.0
220
0.0
230
1.0
 70
     8
 71
     3
 72
    12
 73
     8
 74
     0
 42
0.00000001
 43
0.00000001
 12
1.0
 22
0.0
 32
0.0
 13
1.0
 23
0.0
 33
0.0
 40
0.0
 40
0.0
 40
0.0
 40
0.0
 40
0.2096821001528685
 40
0.4420453733186105
 40
0.6744332966681341
 40
0.9068208701180641
 40
1.0
 40
1.0
 40
1.0
 40
1.0
 10
-61.7917856513841
 20
214.7475325476795
 30
0.0
 10
-61.68750044345661
 20
214.7718725178481
 30
0.0
 10
-61.46764956617012
 20
214.8231852965349
 30
0.0
 10
-61.13168143628689
 20
215.2441158834636
 30
0.0
 10
-60.78477616787026
 20
215.8959053613592
 30
0.0
 10
-60.50639950563741
 20
216.5453464004616
 30
0.0
 10
-60.34503904441557
 20
216.935786317568
 30
0.0
 10
-60.298856719196
 20
217.0475325476795
 30
0.0
  0
LINE
  5
196
330
1F
100
AcDbEntity
  8
0
  6
Continuous
 62
     7
370
    15
100
AcDbLine
 10
-60.2988567192
 20
217.0475325477
 30
0.0
 11
805.993489018
 21
217.0475325477
 31
0.0
  0
SPLINE
  5
197
330
1F
100
AcDbEntity
  8
0
  6
Continuous
 62
     7
370
    15
100
AcDbSpline
210
0.0
220
0.0
230
1.0
 70
     8
 71
     3
 72
    12
 73
     8
 74
     0
 42
0.00000001
 43
0.00000001
 12
1.0
 22
0.0
 32
0.0
 13
1.0
 23
0.0
 33
0.0
 40
0.0
 40
0.0
 40
0.0
 40
0.0
 40
0.209682100152886
 40
0.4420453733185801
 40
0.6744332966681194
 40
0.9068208701180673
 40
1.0
 40
1.0
 40
1.0
 40
1.0
 10
-60.298856719196
 20
459.6475325476799
 30
0.0
 10
-60.40314192712359
 20
459.8998635056553
 30
0.0
 10
-60.62299280441019
 20
460.4318198931424
 30
0.0
 10
-60.9589609342932
 20
461.1532013229571
 30
0.0
 10
-61.30586620270972
 20
461.6965602569436
 30
0.0
 10
-61.58424286494291
 20
461.925182097087
 30
0.0
 10
-61.74560332616441
 20
461.9425591357112
 30
0.0
 10
-61.7917856513841
 20
461.9475325476799
 30
0.0
  0
LINE
  5
198
330
1F
100
AcDbEntity
  8
0
  6
Continuous
 62
     7
370
    15
100
AcDbLine
 10
-61.7917856514
 20
461.9475325477
 30
0.0
 11
-58.404778538
 21
461.9475325477
 31
0.0
  0
LINE
  5
199
330
1F
100
AcDbEntity
  8
0
  6
Continuous
 62
     7
370
    15
100
AcDbLine
 10
-47.654778538
 20
461.9475325477
 30
0.0
 11
14.595221462
 21
461.9475325477
 31
0.0
  0
LINE
  5
19A
330
1F
100
AcDbEntity
  8
0
  6
Continuous
 62
     7
370
    15
100
AcDbLine
 10
825.3483656908
 20
461.9475325477
 30
0.0
 11
825.3483656908
 21
459.6475325477
 31
0.0
  0
LINE
  5
19B
330
1F
100
AcDbEntity
  8
0
  6
Continuous
 62
     7
370
    15
100
AcDbLine
 10
825.3483656908
 20
459.6475325477
 30
0.0
 11
-60.2988567192
 21
459.6475325477
 31
0.0
  0
CIRCLE
  5
19C
330
1F
100
AcDbEntity
  8
0
  6
Continuous
 62
     7
370
    15
100
AcDbCircle
 10
404.9483656908
 20
441.9475325477
 30
0.0
 40
6.347663105371566
  0
CIRCLE
  5
19D
330
1F
100
AcDbEntity
  8
0
  6
Continuous
 62
     7
370
    15
100
AcDbCircle
 10
404.9483656908
 20
441.9475325477
 30
0.0
 40
4.699999999999932
  0
CIRCLE
  5
19E
330
1F
100
AcDbEntity
  8
0
  6
Continuous
 62
     7
370
    15
100
AcDbCircle
 10
14.9483656908
 20
441.9475325477
 30
0.0
 40
6.347663105371566
  0
CIRCLE
  5
19F
330
1F
100
AcDbEntity
  8
0
  6
Continuous
 62
     7
370
    15
100
AcDbCircle
 10
14.9483656908
 20
441.9475325477
 30
0.0
 40
4.699999999999932
  0
LINE
  5
1A0
330
1F
100
AcDbEntity
  8
0
  6
Continuous
 62
     7
370
    15
100
AcDbLine
 10
832.326935651
 20
448.6933719323
 30
0.0
 11
834.4114435612
 21
447.7213499303
 31
0.0
  0
LINE
  5
1A1
330
1F
100
AcDbEntity
  8
0
  6
Continuous
 62
     7
370
    15
100
AcDbLine
 10
819.9578990096
 20
416.7256236136
 30
0.0
 11
817.8733910995
 21
417.6976456156
 31
0.0
  0
LINE
  5
1A2
330
1F
100
AcDbEntity
  8
0
  6
Continuous
 62
     7
370
    15
100
AcDbLine
 10
817.8733910995
 20
417.6976456156
 30
0.0
 11
832.326935651
 21
448.6933719323
 31
0.0
  0
ARC
  5
1A3
330
1F
100
AcDbEntity
  8
0
  6
Continuous
 62
     7
370
    15
100
AcDbCircle
 10
825.3483656908
 20
451.9475325477
 30
0.0
 40
7.699999999999704
100
AcDbArc
 50
335.0
 51
90.0
  0
LINE
  5
1A4
330
1F
100
AcDbEntity
  8
0
  6
Continuous
 62
     7
370
    15
100
AcDbLine
 10
815.0565668884
 20
220.5213499303
 30
0.0
 11
812.9720589782
 21
221.4933719323
 31
0.0
  0
LINE
  5
1A5
330
1F
100
AcDbEntity
  8
0
  6
Continuous
 62
     7
370
    15
100
AcDbLine
 10
812.9720589782
 20
221.4933719323
 30
0.0
 11
833.5828574687
 21
265.6933719323
 31
0.0
  0
SPLINE
  5
1A6
330
1F
100
AcDbEntity
  8
0
  6
Continuous
 62
     7
370
    15
100
AcDbSpline
210
0.0
220
0.0
230
1.0
 70
     8
 71
     3
 72
    11
 73
     7
 74
     0
 42
0.00000001
 43
0.00000001
 12
1.0
 22
0.0
 32
0.0
 13
1.0
 23
0.0
 33
0.0
 40
0.0
 40
0.0
 40
0.0
 40
0.0
 40
0.2543211584720588
 40
0.5088664984541689
 40
0.7634130007196562
 40
1.0
 40
1.0
 40
1.0
 40
1.0
 10
-60.298856719196
 20
459.6475325476799
 30
0.0
 10
-60.42543782698151
 20
459.8475077378191
 30
0.0
 10
-60.67871162250916
 20
460.2476343941903
 30
0.0
 10
-61.05865629199414
 20
460.7492581482858
 30
0.0
 10
-61.42988142366546
 20
461.0853233951447
 30
0.0
 10
-61.67412806833439
 20
461.1273079192554
 30
0.0
 10
-61.7917856513841
 20
461.1475325476799
 30
0.0
  0
LINE
  5
1A7
330
1F
100
AcDbEntity
  8
0
  6
Continuous
 62
     7
370
    15
100
AcDbLine
 10
-61.7917856514
 20
461.9475325477
 30
0.0
 11
-61.7917856514
 21
461.1475325477
 31
0.0
  0
SPLINE
  5
1A8
330
1F
100
AcDbEntity
  8
0
  6
Continuous
 62
     7
370
    15
100
AcDbSpline
210
0.0
220
0.0
230
1.0
 70
     8
 71
     3
 72
    12
 73
     8
 74
     0
 42
0.00000001
 43
0.00000001
 12
1.0
 22
0.0
 32
0.0
 13
1.0
 23
0.0
 33
0.0
 40
0.0
 40
0.0
 40
0.0
 40
0.0
 40
0.2096821001528738
 40
0.4420453733185987
 40
0.6744332966681253
 40
0.9068208701180408
 40
1.0
 40
1.0
 40
1.0
 40
1.0
 10
-62.59885671919596
 20
461.140461479868
 30
0.0
 10
-62.57451674902747
 20
461.0361762719405
 30
0.0
 10
-62.52320397034061
 20
460.8163253946538
 30
0.0
 10
-62.10227338341178
 20
460.4803572647708
 30
0.0
 10
-61.45048390551622
 20
460.1334519963542
 30
0.0
 10
-60.80104286641397
 20
459.8550753341214
 30
0.0
 10
-60.41060294930745
 20
459.6937148728996
 30
0.0
 10
-60.298856719196
 20
459.6475325476799
 30
0.0
  0
LINE
  5
1A9
330
1F
100
AcDbEntity
  8
0
  6
Continuous
 62
     7
370
    15
100
AcDbLine
 10
-62.5988567192
 20
461.1404614799
 30
0.0
 11
-61.7988567192
 21
461.1404614799
 31
0.0
  0
SPLINE
  5
1AA
330
1F
100
AcDbEntity
  8
0
  6
Continuous
 62
     7
370
    15
100
AcDbSpline
210
0.0
220
0.0
230
1.0
 70
     8
 71
     3
 72
    11
 73
     7
 74
     0
 42
0.00000001
 43
0.00000001
 12
1.0
 22
0.0
 32
0.0
 13
1.0
 23
0.0
 33
0.0
 40
0.0
 40
0.0
 40
0.0
 40
0.0
 40
0.2543211584721155
 40
0.5088664984542254
 40
0.763413000719684
 40
1.0
 40
1.0
 40
1.0
 40
1.0
 10
-61.79885671919605
 20
461.140461479868
 30
0.0
 10
-61.77550265717691
 20
461.0138803720826
 30
0.0
 10
-61.72877394677112
 20
460.7606065765549
 30
0.0
 10
-61.36988633057605
 20
460.3806619070696
 30
0.0
 10
-60.87066335128655
 20
460.0094367753987
 30
0.0
 10
-60.4847550346912
 20
459.7651901307295
 30
0.0
 10
-60.298856719196
 20
459.6475325476799
 30
0.0
  0
ARC
  5
1AB
330
1F
100
AcDbEntity
  8
0
  6
Continuous
 62
     7
370
    15
100
AcDbCircle
 10
810.8948211393
 20
420.951806231
 30
0.0
 40
7.700000000000107
100
AcDbArc
 50
295.0
 51
335.0
  0
ARC
  5
1AC
330
1F
100
AcDbEntity
  8
0
  6
Continuous
 62
     7
370
    15
100
AcDbCircle
 10
805.993489018
 20
224.7475325477
 30
0.0
 40
7.699999999999853
100
AcDbArc
 50
270.0
 51
335.0
  0
SPLINE
  5
1AD
330
1F
100
AcDbEntity
  8
0
  6
Continuous
 62
     7
370
    15
100
AcDbSpline
210
0.0
220
0.0
230
1.0
 70
     8
 71
     3
 72
    12
 73
     8
 74
     0
 42
0.00000001
 43
0.00000001
 12
1.0
 22
0.0
 32
0.0
 13
1.0
 23
0.0
 33
0.0
 40
0.0
 40
0.0
 40
0.0
 40
0.0
 40
0.2096821001528691
 40
0.4420453733185926
 40
0.6744332966681262
 40
0.9068208701180613
 40
1.0
 40
1.0
 40
1.0
 40
1.0
 10
-60.298856719196
 20
217.0475325476795
 30
0.0
 10
-60.55118767717127
 20
216.943247339752
 30
0.0
 10
-61.08314406465853
 20
216.7233964624652
 30
0.0
 10
-61.80452549447335
 20
216.3874283325822
 30
0.0
 10
-62.34788442845962
 20
216.0405230641655
 30
0.0
 10
-62.57650626860323
 20
215.7621464019327
 30
0.0
 10
-62.59388330722726
 20
215.600785940711
 30
0.0
 10
-62.59885671919596
 20
215.5546036154913
 30
0.0
  0
LINE
  5
1AE
330
1F
100
AcDbEntity
  8
0
  6
Continuous
 62
     7
370
    15
100
AcDbLine
 10
-62.5988567192
 20
461.1404614799
 30
0.0
 11
-62.5988567192
 21
215.5546036155
 31
0.0
  0
LINE
  5
1AF
330
1F
100
AcDbEntity
  8
0
  6
Continuous
 62
     7
370
    15
100
AcDbLine
 10
-60.2988567192
 20
459.6475325477
 30
0.0
 11
-60.2988567192
 21
217.0475325477
 31
0.0
  0
CIRCLE
  5
1B0
330
1F
100
AcDbEntity
  8
0
  6
Continuous
 62
     7
370
    15
100
AcDbCircle
 10
784.9483656908
 20
441.9475325477
 30
0.0
 40
6.347663105371566
  0
CIRCLE
  5
1B1
330
1F
100
AcDbEntity
  8
0
  6
Continuous
 62
     7
370
    15
100
AcDbCircle
 10
784.9483656908
 20
441.9475325477
 30
0.0
 40
4.699999999999932
  0
SPLINE
  5
1B2
330
1F
100
AcDbEntity
  8
0
  6
Continuous
 62
     7
370
    15
100
AcDbSpline
210
0.0
220
0.0
230
1.0
 70
     8
 71
     3
 72
    11
 73
     7
 74
     0
 42
0.00000001
 43
0.00000001
 12
1.0
 22
0.0
 32
0.0
 13
1.0
 23
0.0
 33
0.0
 40
0.0
 40
0.0
 40
0.0
 40
0.0
 40
0.2543211584721242
 40
0.508866498454242
 40
0.7634130007197216
 40
1.0
 40
1.0
 40
1.0
 40
1.0
 10
-60.298856719196
 20
217.0475325476795
 30
0.0
 10
-60.49883190933536
 20
216.920951439894
 30
0.0
 10
-60.89895856570637
 20
216.6676776443663
 30
0.0
 10
-61.40058231980228
 20
216.287732974881
 30
0.0
 10
-61.73664756666075
 20
215.91650784321
 30
0.0
 10
-61.77863209077139
 20
215.6722611985409
 30
0.0
 10
-61.79885671919594
 20
215.5546036154913
 30
0.0
  0
LINE
  5
1B3
330
1F
100
AcDbEntity
  8
0
  6
Continuous
 62
     7
370
    15
100
AcDbLine
 10
-62.5988567192
 20
215.5546036155
 30
0.0
 11
-61.7988567192
 21
215.5546036155
 31
0.0
  0
LINE
  5
1B4
330
1F
100
AcDbEntity
  8
0
  6
Continuous
 62
     7
370
    15
100
AcDbLine
 10
-61.7917856514
 20
214.7475325477
 30
0.0
 11
-61.7917856514
 21
215.5475325477
 31
0.0
  0
SPLINE
  5
1B5
330
1F
100
AcDbEntity
  8
0
  6
Continuous
 62
     7
370
    15
100
AcDbSpline
210
0.0
220
0.0
230
1.0
 70
     8
 71
     3
 72
    11
 73
     7
 74
     0
 42
0.00000001
 43
0.00000001
 12
1.0
 22
0.0
 32
0.0
 13
1.0
 23
0.0
 33
0.0
 40
0.0
 40
0.0
 40
0.0
 40
0.0
 40
0.2543211584721197
 40
0.5088664984542413
 40
0.7634130007197366
 40
0.9999999999999999
 40
0.9999999999999999
 40
0.9999999999999999
 40
0.9999999999999999
 10
-61.7917856513841
 20
215.5475325476795
 30
0.0
 10
-61.6652045435987
 20
215.5708866096985
 30
0.0
 10
-61.41193074807083
 20
215.6176153201044
 30
0.0
 10
-61.03198607858595
 20
215.9765029362995
 30
0.0
 10
-60.66076094691431
 20
216.4757259155892
 30
0.0
 10
-60.41651430224548
 20
216.8616342321844
 30
0.0
 10
-60.2988567191961
 20
217.0475325476795
 30
0.0
  0
CIRCLE
  5
1B6
330
1F
100
AcDbEntity
  8
0
  6
Continuous
 62
     7
370
    15
100
AcDbCircle
 10
404.9483656908
 20
441.9475325477
 30
0.0
 40
2.699999999999989
  0
CIRCLE
  5
1B7
330
1F
100
AcDbEntity
  8
0
  6
Continuous
 62
     7
370
    15
100
AcDbCircle
 10
14.9483656908
 20
441.9475325477
 30
0.0
 40
2.699999999999989
  0
CIRCLE
  5
1B8
330
1F
100
AcDbEntity
  8
0
  6
Continuous
 62
     7
370
    15
100
AcDbCircle
 10
784.9483656908
 20
441.9475325477
 30
0.0
 40
2.699999999999989
  0
LINE
  5
1B9
330
1F
100
AcDbEntity
  8
0
  6
Continuous
 62
     8
370
    15
100
AcDbLine
 10
-15.654778538
 20
491.4475325477
 30
0.0
 11
-34.654778538
 21
491.4475325477
 31
0.0
  0
SPLINE
  5
1BA
330
1F
100
AcDbEntity
  8
0
  6
Continuous
 62
     8
370
    15
100
AcDbSpline
210
0.0
220
0.0
230
1.0
 70
     8
 71
     3
 72
     9
 73
     5
 74
     0
 42
0.00000001
 43
0.00000001
 12
1.0
 22
0.0
 32
0.0
 13
1.0
 23
0.0
 33
0.0
 40
0.0
 40
0.0
 40
0.0
 40
0.0
 40
0.7301218874965696
 40
1.0
 40
1.0
 40
1.0
 40
1.0
 10
812.9966140476953
 20
335.8174354793997
 30
0.0
 10
812.9653064797295
 20
335.8675111483141
 30
0.0
 10
812.9224265599489
 20
335.9360965034062
 30
0.0
 10
812.8013688904555
 20
335.9539998568052
 30
0.0
 10
812.7686980751087
 20
335.9588315800281
 30
0.0
  0
SPLINE
  5
1BB
330
1F
100
AcDbEntity
  8
0
  6
Continuous
 62
     8
370
    15
100
AcDbSpline
210
0.0
220
0.0
230
1.0
 70
     8
 71
     3
 72
     9
 73
     5
 74
     0
 42
0.00000001
 43
0.00000001
 12
1.0
 22
0.0
 32
0.0
 13
1.0
 23
0.0
 33
0.0
 40
0.0
 40
0.0
 40
0.0
 40
0.0
 40
0.2168872359644832
 40
1.0
 40
1.0
 40
1.0
 40
1.0
 10
814.1968661984578
 20
332.9413184264885
 30
0.0
 10
814.2044503827784
 20
332.9731637928465
 30
0.0
 10
814.2394187122279
 20
333.1199929329593
 30
0.0
 10
814.1850017530205
 20
333.2547708508063
 30
0.0
 10
814.1423871376854
 20
333.3603171585824
 30
0.0
  0
SPLINE
  5
1BC
330
1F
100
AcDbEntity
  8
0
  6
Continuous
 62
     8
370
    15
100
AcDbSpline
210
0.0
220
0.0
230
1.0
 70
     8
 71
     3
 72
     9
 73
     5
 74
     0
 42
0.00000001
 43
0.00000001
 12
1.0
 22
0.0
 32
0.0
 13
1.0
 23
0.0
 33
0.0
 40
0.0
 40
0.0
 40
0.0
 40
0.0
 40
0.7833167635296081
 40
1.0
 40
1.0
 40
1.0
 40
1.0
 10
812.9966140476953
 20
335.8174354793997
 30
0.0
 10
812.9431472034894
 20
335.9179344917173
 30
0.0
 10
812.8748902138584
 20
336.0462338170947
 30
0.0
 10
812.7399060973955
 20
336.113851969744
 30
0.0
 10
812.7106573021683
 20
336.1285036899041
 30
0.0
  0
LINE
  5
1BD
330
1F
100
AcDbEntity
  8
0
  6
Continuous
 62
     8
370
    15
100
AcDbLine
 10
837.2903722527
 20
321.0375924705
 30
0.0
 11
829.8918024314
 21
336.9038766541
 31
0.0
  0
LINE
  5
1BE
330
1F
100
AcDbEntity
  8
0
  6
Continuous
 62
     8
370
    15
100
AcDbLine
 10
825.8346671187
 20
345.6044314096
 30
0.0
 11
818.1946615284
 21
361.9884762708
 31
0.0
  0
LINE
  5
1BF
330
1F
100
AcDbEntity
  8
0
  6
Continuous
 62
     8
370
    15
100
AcDbLine
 10
821.645336604
 20
363.0506130818
 30
0.0
 11
829.0758522493
 21
347.1158208575
 31
0.0
  0
LINE
  5
1C0
330
1F
100
AcDbEntity
  8
0
  6
Continuous
 62
     8
370
    15
100
AcDbLine
 10
833.132987562
 20
338.415266102
 30
0.0
 11
840.3721018878
 21
322.890935332
 31
0.0
  0
LINE
  5
1C1
330
1F
100
AcDbEntity
  8
0
  6
Continuous
 62
     8
370
    15
100
AcDbLine
 10
854.3779048551
 20
331.809512556
 30
0.0
 11
852.8455306185
 21
335.0956997112
 31
0.0
  0
LINE
  5
1C2
330
1F
100
AcDbEntity
  8
0
  6
Continuous
 62
     8
370
    15
100
AcDbLine
 10
823.3123979773
 20
308.9082691213
 30
0.0
 11
822.2327056913
 21
311.2236767006
 31
0.0
  0
LINE
  5
1C3
330
1F
100
AcDbEntity
  8
0
  6
Continuous
 62
     8
370
    15
100
AcDbLine
 10
801.2393201603
 20
356.2441372569
 30
0.0
 11
800.0299446499
 21
358.8376514083
 31
0.0
  0
LINE
  5
1C4
330
1F
100
AcDbEntity
  8
0
  6
Continuous
 62
     8
370
    15
100
AcDbLine
 10
820.6758275812
 20
307.2161329877
 30
0.0
 11
822.9247670785
 21
308.3657263973
 31
0.0
  0
ARC
  5
1C5
330
1F
100
AcDbEntity
  8
0
  6
Continuous
 62
     8
370
    15
100
AcDbCircle
 10
822.720016449
 20
310.3632742371
 30
0.0
 40
1.817426743210204
100
AcDbArc
 50
331.1902079224
 51
24.3136513735
  0
LINE
  5
1C6
330
1F
100
AcDbEntity
  8
0
  6
Continuous
 62
     8
370
    15
100
AcDbLine
 10
805.9158910218
 20
355.1846553226
 30
0.0
 11
808.5623430152
 21
349.509320708
 31
0.0
  0
LINE
  5
1C7
330
1F
100
AcDbEntity
  8
0
  6
Continuous
 62
     8
370
    15
100
AcDbLine
 10
821.7806852552
 20
321.1624942966
 30
0.0
 11
824.4271372486
 21
315.4871596821
 31
0.0
  0
SPLINE
  5
1C8
330
1F
100
AcDbEntity
  8
0
  6
Continuous
 62
     8
370
    15
100
AcDbSpline
210
0.0
220
0.0
230
1.0
 70
     8
 71
     3
 72
    10
 73
     6
 74
     0
 42
0.00000001
 43
0.00000001
 12
1.0
 22
0.0
 32
0.0
 13
1.0
 23
0.0
 33
0.0
 40
0.0
 40
0.0
 40
0.0
 40
0.0
 40
0.2798530424549205
 40
0.7505377989754761
 40
1.0
 40
1.0
 40
1.0
 40
1.0
 10
823.696187376998
 20
308.1302049750253
 30
0.0
 10
823.7390599975332
 20
308.0410811790168
 30
0.0
 10
823.8540400669672
 20
307.8020600945731
 30
0.0
 10
824.0452132940854
 20
307.3717461396842
 30
0.0
 10
824.1792389959364
 20
307.0583285668602
 30
0.0
 10
824.2256661122733
 20
306.949759285636
 30
0.0
  0
LWPOLYLINE
  5
1C9
330
1F
100
AcDbEntity
  8
0
  6
Continuous
 62
     8
370
    15
100
AcDbPolyline
 90
        3
 70
   128
 43
0.0
 10
824.2256661123
 20
306.9497592856
 10
823.7320813178
 20
306.6979333496
 10
823.4944345877
 20
306.5767061597
  0
LINE
  5
1CA
330
1F
100
AcDbEntity
  8
0
  6
Continuous
 62
     8
370
    15
100
AcDbLine
 10
822.7800739858
 20
306.2123000166
 30
0.0
 11
821.4583272533
 21
305.5380570256
 31
0.0
  0
LINE
  5
1CB
330
1F
100
AcDbEntity
  8
0
  6
Continuous
 62
     8
370
    15
100
AcDbLine
 10
837.0327048521
 20
279.05479299
 30
0.0
 11
836.4526570588
 21
278.7843122619
 31
0.0
  0
LINE
  5
1CC
330
1F
100
AcDbEntity
  8
0
  6
Continuous
 62
     8
370
    15
100
AcDbLine
 10
835.7276108291
 20
278.4462176525
 30
0.0
 11
834.3836862032
 21
277.8195353075
 31
0.0
  0
LINE
  5
1CD
330
1F
100
AcDbEntity
  8
0
  6
Continuous
 62
     8
370
    15
100
AcDbLine
 10
837.6675640085
 20
277.7456391849
 30
0.0
 11
837.0790411038
 21
277.4410273425
 31
0.0
  0
LINE
  5
1CE
330
1F
100
AcDbEntity
  8
0
  6
Continuous
 62
     8
370
    15
100
AcDbLine
 10
836.3679613007
 20
277.0729816347
 30
0.0
 11
835.0499244372
 21
276.390782804
 31
0.0
  0
SPLINE
  5
1CF
330
1F
100
AcDbEntity
  8
0
  6
Continuous
 62
     8
370
    15
100
AcDbSpline
210
0.0
220
0.0
230
1.0
 70
     8
 71
     3
 72
    12
 73
     8
 74
     0
 42
0.00000001
 43
0.00000001
 12
1.0
 22
0.0
 32
0.0
 13
1.0
 23
0.0
 33
0.0
 40
0.0
 40
0.0
 40
0.0
 40
0.0
 40
0.0070610318628494
 40
0.0152408177641461
 40
0.101975087542569
 40
0.8610092138095342
 40
1.0
 40
1.0
 40
1.0
 40
1.0
 10
836.8344912596951
 20
273.7468676945795
 30
0.0
 10
836.8363610983085
 20
273.7478662455971
 30
0.0
 10
836.8403970338642
 20
273.7500215586425
 30
0.0
 10
836.8673676306486
 20
273.7646775753725
 30
0.0
 10
837.0897680825763
 20
273.9004284626409
 30
0.0
 10
837.3665616146661
 20
274.1063820829368
 30
0.0
 10
837.5109546902704
 20
274.5112373564402
 30
0.0
 10
837.5333029646001
 20
274.573898371716
 30
0.0
  0
SPLINE
  5
1D0
330
1F
100
AcDbEntity
  8
0
  6
Continuous
 62
     8
370
    15
100
AcDbSpline
210
0.0
220
0.0
230
1.0
 70
     8
 71
     3
 72
     9
 73
     5
 74
     0
 42
0.00000001
 43
0.00000001
 12
1.0
 22
0.0
 32
0.0
 13
1.0
 23
0.0
 33
0.0
 40
0.0
 40
0.0
 40
0.0
 40
0.0
 40
0.430773472109919
 40
0.9999999999999999
 40
0.9999999999999999
 40
0.9999999999999999
 40
0.9999999999999999
 10
837.8867769881795
 20
275.7088321484518
 30
0.0
 10
837.9132246744114
 20
275.9680762410422
 30
0.0
 10
837.9746204843766
 20
276.5698869591459
 30
0.0
 10
837.7789467110592
 20
277.3191428536267
 30
0.0
 10
837.6675640084745
 20
277.7456391849431
 30
0.0
  0
LINE
  5
1D1
330
1F
100
AcDbEntity
  8
0
  6
Continuous
 62
     8
370
    15
100
AcDbLine
 10
822.2327056913
 20
311.2236767006
 30
0.0
 11
801.2393201603
 21
356.2441372569
 31
0.0
  0
LINE
  5
1D2
330
1F
100
AcDbEntity
  8
0
  6
Continuous
 62
     8
370
    15
100
AcDbLine
 10
808.5623430152
 20
349.509320708
 30
0.0
 11
821.7806852552
 21
321.1624942966
 31
0.0
  0
LINE
  5
1D3
330
1F
100
AcDbEntity
  8
0
  6
Continuous
 62
     8
370
    15
100
AcDbLine
 10
824.1067668178
 20
322.3992938023
 30
0.0
 11
811.0049628113
 21
350.4962031654
 31
0.0
  0
LINE
  5
1D4
330
1F
100
AcDbEntity
  8
0
  6
Continuous
 62
     8
370
    15
100
AcDbLine
 10
656.3894730003
 20
117.0475325477
 30
0.0
 11
627.8894730003
 21
117.0475325477
 31
0.0
  0
LINE
  5
1D5
330
1F
100
AcDbEntity
  8
0
  6
Continuous
 62
     8
370
    15
100
AcDbLine
 10
684.8894730003
 20
117.0475325477
 30
0.0
 11
656.3894730003
 21
117.0475325477
 31
0.0
  0
LINE
  5
1D6
330
1F
100
AcDbEntity
  8
0
  6
Continuous
 62
     8
370
    15
100
AcDbLine
 10
77.3894730003
 20
117.0475325477
 30
0.0
 11
48.8894730003
 21
117.0475325477
 31
0.0
  0
LINE
  5
1D7
330
1F
100
AcDbEntity
  8
0
  6
Continuous
 62
     8
370
    15
100
AcDbLine
 10
105.8894730003
 20
117.0475325477
 30
0.0
 11
77.3894730003
 21
117.0475325477
 31
0.0
  0
LINE
  5
1D8
330
1F
100
AcDbEntity
  8
0
  6
Continuous
 62
     8
370
    15
100
AcDbLine
 10
77.3894730003
 20
211.5475325477
 30
0.0
 11
45.4894730003
 21
211.5475325477
 31
0.0
  0
LINE
  5
1D9
330
1F
100
AcDbEntity
  8
0
  6
Continuous
 62
     8
370
    15
100
AcDbLine
 10
109.2894730003
 20
211.5475325477
 30
0.0
 11
77.3894730003
 21
211.5475325477
 31
0.0
  0
LINE
  5
1DA
330
1F
100
AcDbEntity
  8
0
  6
Continuous
 62
     8
370
    15
100
AcDbLine
 10
77.3894730003
 20
156.0800984934
 30
0.0
 11
45.4894730003
 21
156.0800984934
 31
0.0
  0
LINE
  5
1DB
330
1F
100
AcDbEntity
  8
0
  6
Continuous
 62
     8
370
    15
100
AcDbLine
 10
109.2894730003
 20
156.0800984934
 30
0.0
 11
77.3894730003
 21
156.0800984934
 31
0.0
  0
LINE
  5
1DC
330
1F
100
AcDbEntity
  8
0
  6
Continuous
 62
     8
370
    15
100
AcDbLine
 10
77.3894730003
 20
155.3076352689
 30
0.0
 11
45.5533862273
 21
155.3076352689
 31
0.0
  0
LINE
  5
1DD
330
1F
100
AcDbEntity
  8
0
  6
Continuous
 62
     8
370
    15
100
AcDbLine
 10
109.2255597733
 20
155.3076352689
 30
0.0
 11
77.3894730003
 21
155.3076352689
 31
0.0
  0
LINE
  5
1DE
330
1F
100
AcDbEntity
  8
0
  6
Continuous
 62
     8
370
    15
100
AcDbLine
 10
656.3894730003
 20
211.5475325477
 30
0.0
 11
624.4894730003
 21
211.5475325477
 31
0.0
  0
LINE
  5
1DF
330
1F
100
AcDbEntity
  8
0
  6
Continuous
 62
     8
370
    15
100
AcDbLine
 10
688.2894730003
 20
211.5475325477
 30
0.0
 11
656.3894730003
 21
211.5475325477
 31
0.0
  0
LINE
  5
1E0
330
1F
100
AcDbEntity
  8
0
  6
Continuous
 62
     8
370
    15
100
AcDbLine
 10
656.3894730003
 20
155.3076352689
 30
0.0
 11
624.5533862273
 21
155.3076352689
 31
0.0
  0
LINE
  5
1E1
330
1F
100
AcDbEntity
  8
0
  6
Continuous
 62
     8
370
    15
100
AcDbLine
 10
688.2255597733
 20
155.3076352689
 30
0.0
 11
656.3894730003
 21
155.3076352689
 31
0.0
  0
LINE
  5
1E2
330
1F
100
AcDbEntity
  8
0
  6
Continuous
 62
     8
370
    15
100
AcDbLine
 10
656.3894730003
 20
156.0800984934
 30
0.0
 11
624.4894730003
 21
156.0800984934
 31
0.0
  0
LINE
  5
1E3
330
1F
100
AcDbEntity
  8
0
  6
Continuous
 62
     8
370
    15
100
AcDbLine
 10
688.2894730003
 20
156.0800984934
 30
0.0
 11
656.3894730003
 21
156.0800984934
 31
0.0
  0
LINE
  5
1E4
330
1F
100
AcDbEntity
  8
0
  6
Continuous
 62
     8
370
    15
100
AcDbLine
 10
814.1489817547
 20
413.9732362708
 30
0.0
 11
815.1110726068
 21
411.9100257803
 31
0.0
  0
ENDSEC
  0
SECTION
  2
OBJECTS
  0
DICTIONARY
  5
C
330
0
100
AcDbDictionary
281
     1
  3
ACAD_GROUP
350
D
  3
ACAD_LAYOUT
350
1A
  3
ACAD_MLINESTYLE
350
17
  3
ACAD_PLOTSETTINGS
350
19
  3
ACAD_PLOTSTYLENAME
350
E
  0
DICTIONARY
  5
D
102
{ACAD_REACTORS
330
C
102
}
330
C
100
AcDbDictionary
281
     1
  0
DICTIONARY
  5
1A
102
{ACAD_REACTORS
330
C
102
}
330
C
100
AcDbDictionary
281
     1
  3
Layout1
350
1E
  3
Layout2
350
26
  3
Model
350
22
  0
DICTIONARY
  5
17
102
{ACAD_REACTORS
330
C
102
}
330
C
100
AcDbDictionary
281
     1
  3
Standard
350
18
  0
DICTIONARY
  5
19
102
{ACAD_REACTORS
330
C
102
}
330
C
100
AcDbDictionary
281
     1
  0
ACDBDICTIONARYWDFLT
  5
E
102
{ACAD_REACTORS
330
C
102
}
330
C
100
AcDbDictionary
281
     1
  3
Normal
350
F
100
AcDbDictionaryWithDefault
340
F
  0
LAYOUT
  5
1E
102
{ACAD_REACTORS
330
1A
102
}
330
1A
100
AcDbPlotSettings
  1

  2
none_device
  4

  6

 40
0.0
 41
0.0
 42
0.0
 43
0.0
 44
0.0
 45
0.0
 46
0.0
 47
0.0
 48
0.0
 49
0.0
140
0.0
141
0.0
142
1.0
143
1.0
 70
   688
 72
     0
 73
     0
 74
     5
  7

 75
    16
147
1.0
148
0.0
149
0.0
100
AcDbLayout
  1
Layout1
 70
     1
 71
     1
 10
0.0
 20
0.0
 11
420.0
 21
297.0
 12
0.0
 22
0.0
 32
0.0
 14
1.0000000000E+20
 24
1.0000000000E+20
 34
1.0000000000E+20
 15
-1.0000000000E+20
 25
-1.0000000000E+20
 35
-1.0000000000E+20
146
0.0
 13
0.0
 23
0.0
 33
0.0
 16
1.0
 26
0.0
 36
0.0
 17
0.0
 27
1.0
 37
0.0
 76
     0
330
1B
  0
LAYOUT
  5
26
102
{ACAD_REACTORS
330
1A
102
}
330
1A
100
AcDbPlotSettings
  1

  2
none_device
  4

  6

 40
0.0
 41
0.0
 42
0.0
 43
0.0
 44
0.0
 45
0.0
 46
0.0
 47
0.0
 48
0.0
 49
0.0
140
0.0
141
0.0
142
1.0
143
1.0
 70
   688
 72
     0
 73
     0
 74
     5
  7

 75
    16
147
1.0
148
0.0
149
0.0
100
AcDbLayout
  1
Layout2
 70
     1
 71
     2
 10
0.0
 20
0.0
 11
0.0
 21
0.0
 12
0.0
 22
0.0
 32
0.0
 14
0.0
 24
0.0
 34
0.0
 15
0.0
 25
0.0
 35
0.0
146
0.0
 13
0.0
 23
0.0
 33
0.0
 16
1.0
 26
0.0
 36
0.0
 17
0.0
 27
1.0
 37
0.0
 76
     0
330
23
  0
LAYOUT
  5
22
102
{ACAD_REACTORS
330
1A
102
}
330
1A
100
AcDbPlotSettings
  1

  2
none_device
  4

  6

 40
0.0
 41
0.0
 42
0.0
 43
0.0
 44
0.0
 45
0.0
 46
0.0
 47
0.0
 48
0.0
 49
0.0
140
0.0
141
0.0
142
1.0
143
1.0
 70
  1712
 72
     0
 73
     0
 74
     0
  7

 75
     0
147
1.0
148
0.0
149
0.0
100
AcDbLayout
  1
Model
 70
     1
 71
     0
 10
0.0
 20
0.0
 11
841.0
 21
594.0
 12
0.0
 22
0.0
 32
0.0
 14
0.0
 24
0.0
 34
0.0
 15
841.0
 25
594.0
 35
0.0
146
0.0
 13
0.0
 23
0.0
 33
0.0
 16
1.0
 26
0.0
 36
0.0
 17
0.0
 27
1.0
 37
0.0
 76
     0
330
1F
331
29
  0
MLINESTYLE
  5
18
102
{ACAD_REACTORS
330
17
102
}
330
17
100
AcDbMlineStyle
  2
Standard
 70
     0
  3

 62
   256
 51
90.0
 52
90.0
 71
     2
 49
0.5
 62
   256
  6
BYLAYER
 49
-0.5
 62
   256
  6
BYLAYER
  0
ACDBPLACEHOLDER
  5
F
102
{ACAD_REACTORS
330
E
102
}
330
E
  0
ENDSEC
  0
EOF
