  0
SECTION
  2
HEADER
  9
$ACADVER
  1
AC1015
  9
$ACADMAINTVER
 70
     6
  9
$DWGCODEPAGE
  3
ANSI_1252
  9
$INSBASE
 10
0.0
 20
0.0
 30
0.0
  9
$EXTMIN
 10
0.0
 20
0.0
 30
0.0
  9
$EXTMAX
 10
431.8
 20
279.4
 30
0.0
  9
$LIMMIN
 10
0.0
 20
0.0
  9
$LIMMAX
 10
431.8
 20
279.4
  9
$ORTHOMODE
 70
     0
  9
$REGENMODE
 70
     1
  9
$FILLMODE
 70
     1
  9
$QTEXTMODE
 70
     0
  9
$MIRRTEXT
 70
     1
  9
$LTSCALE
 40
1.0
  9
$ATTMODE
 70
     1
  9
$TEXTSIZE
 40
3.5
  9
$TRACEWID
 40
1.0
  9
$TEXTSTYLE
  7
Standard
  9
$CLAYER
  8
0
  9
$CELTYPE
  6
ByLayer
  9
$CECOLOR
 62
   256
  9
$CELTSCALE
 40
1.0
  9
$DISPSILH
 70
     0
  9
$DIMSCALE
 40
1.0
  9
$DIMASZ
 40
3.302
  9
$DIMEXO
 40
1.0
  9
$DIMDLI
 40
3.75
  9
$DIMRND
 40
0.0
  9
$DIMDLE
 40
0.0
  9
$DIMEXE
 40
1.0
  9
$DIMTP
 40
0.0
  9
$DIMTM
 40
0.0
  9
$DIMTXT
 40
3.5
  9
$DIMCEN
 40
2.5
  9
$DIMTSZ
 40
0.0
  9
$DIMTOL
 70
     0
  9
$DIMLIM
 70
     0
  9
$DIMTIH
 70
     1
  9
$DIMTOH
 70
     1
  9
$DIMSE1
 70
     0
  9
$DIMSE2
 70
     0
  9
$DIMTAD
 70
     1
  9
$DIMZIN
 70
     0
  9
$DIMBLK
  1

  9
$DIMASO
 70
     1
  9
$DIMSHO
 70
     1
  9
$DIMPOST
  1

  9
$DIMAPOST
  1

  9
$DIMALT
 70
     0
  9
$DIMALTD
 70
     3
  9
$DIMALTF
 40
0.0393700787
  9
$DIMLFAC
 40
5.0
  9
$DIMTOFL
 70
     1
  9
$DIMTVP
 40
0.0
  9
$DIMTIX
 70
     0
  9
$DIMSOXD
 70
     0
  9
$DIMSAH
 70
     0
  9
$DIMBLK1
  1

  9
$DIMBLK2
  1

  9
$DIMSTYLE
  2
ISO-25
  9
$DIMCLRD
 70
     0
  9
$DIMCLRE
 70
     0
  9
$DIMCLRT
 70
     0
  9
$DIMTFAC
 40
1.0
  9
$DIMGAP
 40
1.524
  9
$DIMJUST
 70
     0
  9
$DIMSD1
 70
     0
  9
$DIMSD2
 70
     0
  9
$DIMTOLJ
 70
     0
  9
$DIMTZIN
 70
     0
  9
$DIMALTZ
 70
     0
  9
$DIMALTTZ
 70
     0
  9
$DIMUPT
 70
     0
  9
$DIMDEC
 70
     3
  9
$DIMTDEC
 70
     3
  9
$DIMALTU
 70
     2
  9
$DIMALTTD
 70
     3
  9
$DIMTXSTY
  7
Standard
  9
$DIMAUNIT
 70
     0
  9
$DIMADEC
 70
     2
  9
$DIMALTRND
 40
0.0
  9
$DIMAZIN
 70
     0
  9
$DIMDSEP
 70
    44
  9
$DIMATFIT
 70
     3
  9
$DIMFRAC
 70
     0
  9
$DIMLDRBLK
  1

  9
$DIMLUNIT
 70
     2
  9
$DIMLWD
 70
    -2
  9
$DIMLWE
 70
    -2
  9
$DIMTMOVE
 70
     0
  9
$LUNITS
 70
     2
  9
$LUPREC
 70
     8
  9
$SKETCHINC
 40
1.0
  9
$FILLETRAD
 40
10.0
  9
$AUNITS
 70
     0
  9
$AUPREC
 70
     8
  9
$MENU
  1
.
  9
$ELEVATION
 40
0.0
  9
$PELEVATION
 40
0.0
  9
$THICKNESS
 40
0.0
  9
$LIMCHECK
 70
     0
  9
$CHAMFERA
 40
10.0
  9
$CHAMFERB
 40
10.0
  9
$CHAMFERC
 40
20.0
  9
$CHAMFERD
 40
0.0
  9
$SKPOLY
 70
     0
  9
$TDCREATE
 40
2457053.422597604
  9
$TDUCREATE
 40
2457053.422597604
  9
$TDUPDATE
 40
2457053.422600313
  9
$TDUUPDATE
 40
2457053.422600313
  9
$TDINDWG
 40
0.0000000116
  9
$TDUSRTIMER
 40
0.0000000116
  9
$USRTIMER
 70
     1
  9
$ANGBASE
 50
0.0
  9
$ANGDIR
 70
     0
  9
$PDMODE
 70
     0
  9
$PDSIZE
 40
-1.0
  9
$PLINEWID
 40
0.0
  9
$SPLFRAME
 70
     0
  9
$SPLINETYPE
 70
     6
  9
$SPLINESEGS
 70
     8
  9
$HANDSEED
  5
32B
  9
$SURFTAB1
 70
     6
  9
$SURFTAB2
 70
     6
  9
$SURFTYPE
 70
     6
  9
$SURFU
 70
     6
  9
$SURFV
 70
     6
  9
$UCSBASE
  2

  9
$UCSNAME
  2

  9
$UCSORG
 10
0.0
 20
0.0
 30
0.0
  9
$UCSXDIR
 10
1.0
 20
0.0
 30
0.0
  9
$UCSYDIR
 10
0.0
 20
1.0
 30
0.0
  9
$UCSORTHOREF
  2

  9
$UCSORTHOVIEW
 70
     0
  9
$UCSORGTOP
 10
0.0
 20
0.0
 30
0.0
  9
$UCSORGBOTTOM
 10
0.0
 20
0.0
 30
0.0
  9
$UCSORGLEFT
 10
0.0
 20
0.0
 30
0.0
  9
$UCSORGRIGHT
 10
0.0
 20
0.0
 30
0.0
  9
$UCSORGFRONT
 10
0.0
 20
0.0
 30
0.0
  9
$UCSORGBACK
 10
0.0
 20
0.0
 30
0.0
  9
$PUCSBASE
  2

  9
$PUCSNAME
  2

  9
$PUCSORG
 10
0.0
 20
0.0
 30
0.0
  9
$PUCSXDIR
 10
1.0
 20
0.0
 30
0.0
  9
$PUCSYDIR
 10
0.0
 20
1.0
 30
0.0
  9
$PUCSORTHOREF
  2

  9
$PUCSORTHOVIEW
 70
     0
  9
$PUCSORGTOP
 10
0.0
 20
0.0
 30
0.0
  9
$PUCSORGBOTTOM
 10
0.0
 20
0.0
 30
0.0
  9
$PUCSORGLEFT
 10
0.0
 20
0.0
 30
0.0
  9
$PUCSORGRIGHT
 10
0.0
 20
0.0
 30
0.0
  9
$PUCSORGFRONT
 10
0.0
 20
0.0
 30
0.0
  9
$PUCSORGBACK
 10
0.0
 20
0.0
 30
0.0
  9
$USERI1
 70
     0
  9
$USERI2
 70
     0
  9
$USERI3
 70
     0
  9
$USERI4
 70
     0
  9
$USERI5
 70
     0
  9
$USERR1
 40
0.0
  9
$USERR2
 40
0.0
  9
$USERR3
 40
0.0
  9
$USERR4
 40
0.0
  9
$USERR5
 40
0.0
  9
$WORLDVIEW
 70
     1
  9
$SHADEDGE
 70
     3
  9
$SHADEDIF
 70
    70
  9
$TILEMODE
 70
     1
  9
$MAXACTVP
 70
    64
  9
$PINSBASE
 10
0.0
 20
0.0
 30
0.0
  9
$PLIMCHECK
 70
     0
  9
$PEXTMIN
 10
1.0000000000E+20
 20
1.0000000000E+20
 30
1.0000000000E+20
  9
$PEXTMAX
 10
-1.0000000000E+20
 20
-1.0000000000E+20
 30
-1.0000000000E+20
  9
$PLIMMIN
 10
0.0
 20
0.0
  9
$PLIMMAX
 10
420.0
 20
297.0
  9
$UNITMODE
 70
     0
  9
$VISRETAIN
 70
     1
  9
$PLINEGEN
 70
     0
  9
$PSLTSCALE
 70
     1
  9
$TREEDEPTH
 70
  3020
  9
$CMLSTYLE
  2
Standard
  9
$CMLJUST
 70
     0
  9
$CMLSCALE
 40
20.0
  9
$PROXYGRAPHICS
 70
     1
  9
$MEASUREMENT
 70
     1
  9
$CELWEIGHT
370
    -1
  9
$ENDCAPS
280
     0
  9
$JOINSTYLE
280
     0
  9
$LWDISPLAY
290
     1
  9
$INSUNITS
 70
     4
  9
$HYPERLINKBASE
  1

  9
$STYLESHEET
  1

  9
$XEDIT
290
     1
  9
$CEPSNTYPE
380
     0
  9
$PSTYLEMODE
290
     1
  9
$FINGERPRINTGUID
  2
{06C30AC0-8850-49AF-B0A7-E6CE7B9C7713}
  9
$VERSIONGUID
  2
{FAEB1C32-E019-11D5-929B-00C0DF256EC4}
  9
$EXTNAMES
290
     1
  9
$PSVPSCALE
 40
0.0
  9
$OLESTARTUP
290
     0
  0
ENDSEC
  0
SECTION
  2
CLASSES
  0
CLASS
  1
ACDBDICTIONARYWDFLT
  2
AcDbDictionaryWithDefault
  3
ObjectDBX Classes
 90
        0
280
     0
281
     0
  0
CLASS
  1
VISUALSTYLE
  2
AcDbVisualStyle
  3
ObjectDBX Classes
 90
     4095
280
     0
281
     0
  0
CLASS
  1
MATERIAL
  2
AcDbMaterial
  3
ObjectDBX Classes
 90
     1153
280
     0
281
     0
  0
CLASS
  1
ACDBPLACEHOLDER
  2
AcDbPlaceHolder
  3
ObjectDBX Classes
 90
        0
280
     0
281
     0
  0
CLASS
  1
LAYOUT
  2
AcDbLayout
  3
ObjectDBX Classes
 90
        0
280
     0
281
     0
  0
ENDSEC
  0
SECTION
  2
TABLES
  0
TABLE
  2
VPORT
  5
8
330
0
100
AcDbSymbolTable
 70
     1
  0
VPORT
  5
29
330
8
100
AcDbSymbolTableRecord
100
AcDbViewportTableRecord
  2
*Active
 70
     0
 10
0.0
 20
0.0
 11
1.0
 21
1.0
 12
215.9
 22
139.7
 13
0.0
 23
0.0
 14
10.0
 24
10.0
 15
10.0
 25
10.0
 16
0.0
 26
0.0
 36
1.0
 17
0.0
 27
0.0
 37
0.0
 40
279.4
 41
1.5454545455
 42
50.0
 43
0.0
 44
0.0
 50
0.0
 51
0.0
 71
     0
 72
  2000
 73
     1
 74
     3
 75
     0
 76
     0
 77
     0
 78
     0
281
     0
 65
     1
110
0.0
120
0.0
130
0.0
111
1.0
121
0.0
131
0.0
112
0.0
122
1.0
132
0.0
 79
     0
146
0.0
  0
ENDTAB
  0
TABLE
  2
LTYPE
  5
5
330
0
100
AcDbSymbolTable
 70
     6
  0
LTYPE
  5
14
330
5
100
AcDbSymbolTableRecord
100
AcDbLinetypeTableRecord
  2
ByBlock
 70
     0
  3

 72
    65
 73
     0
 40
0.0
  0
LTYPE
  5
15
330
5
100
AcDbSymbolTableRecord
100
AcDbLinetypeTableRecord
  2
ByLayer
 70
     0
  3

 72
    65
 73
     0
 40
0.0
  0
LTYPE
  5
16
330
5
100
AcDbSymbolTableRecord
100
AcDbLinetypeTableRecord
  2
Continuous
 70
     0
  3
Solid line
 72
    65
 73
     0
 40
0.0
  0
LTYPE
  5
3F
330
5
100
AcDbSymbolTableRecord
100
AcDbLinetypeTableRecord
  2
HIDDEN
 70
     0
  3
Hidden __ __ __ __ __ __ __ __ __ __ __ __ __ __
 72
    65
 73
     2
 40
1.905
 49
1.27
 74
     0
 49
-0.635
 74
     0
  0
LTYPE
  5
40
330
5
100
AcDbSymbolTableRecord
100
AcDbLinetypeTableRecord
  2
PHANTOM
 70
     0
  3
Phantom ______  __  __  ______  __  __  ______
 72
    65
 73
     6
 40
12.7
 49
6.35
 74
     0
 49
-1.27
 74
     0
 49
1.27
 74
     0
 49
-1.27
 74
     0
 49
1.27
 74
     0
 49
-1.27
 74
     0
  0
LTYPE
  5
41
330
5
100
AcDbSymbolTableRecord
100
AcDbLinetypeTableRecord
  2
CENTER
 70
     0
  3
Center ____ _ ____ _ ____ _ ____ _ ____ _ ____
 72
    65
 73
     4
 40
10.16
 49
6.35
 74
     0
 49
-1.27
 74
     0
 49
1.27
 74
     0
 49
-1.27
 74
     0
  0
LTYPE
  5
42
330
5
100
AcDbSymbolTableRecord
100
AcDbLinetypeTableRecord
  2
CENTERX2
 70
     0
  3
Center (2x) ________  __  ________  __  _____
 72
    65
 73
     4
 40
20.32
 49
12.7
 74
     0
 49
-2.54
 74
     0
 49
2.54
 74
     0
 49
-2.54
 74
     0
  0
LTYPE
  5
43
330
5
100
AcDbSymbolTableRecord
100
AcDbLinetypeTableRecord
  2
DOT2
 70
     0
  3
Dot (.5x) ........................................
 72
    65
 73
     2
 40
0.635
 49
0.0
 74
     0
 49
-0.635
 74
     0
  0
ENDTAB
  0
TABLE
  2
LAYER
  5
2
330
0
100
AcDbSymbolTable
 70
     1
  0
LAYER
  5
10
330
2
100
AcDbSymbolTableRecord
100
AcDbLayerTableRecord
  2
0
 70
     0
 62
     7
  6
Continuous
370
    -3
390
F
  0
ENDTAB
  0
TABLE
  2
STYLE
  5
3
330
0
100
AcDbSymbolTable
 70
     1
  0
STYLE
  5
11
330
3
100
AcDbSymbolTableRecord
100
AcDbTextStyleTableRecord
  2
Standard
 70
     0
 40
0.0
 41
1.0
 50
0.0
 71
     0
 42
3.5
  3
txt
  4

  0
ENDTAB
  0
TABLE
  2
VIEW
  5
6
330
0
100
AcDbSymbolTable
 70
     0
  0
ENDTAB
  0
TABLE
  2
UCS
  5
7
330
0
100
AcDbSymbolTable
 70
     0
  0
ENDTAB
  0
TABLE
  2
APPID
  5
9
330
0
100
AcDbSymbolTable
 70
     1
  0
APPID
  5
12
330
9
100
AcDbSymbolTableRecord
100
AcDbRegAppTableRecord
  2
ACAD
 70
     0
  0
ENDTAB
  0
TABLE
  2
DIMSTYLE
  5
A
330
0
100
AcDbSymbolTable
 70
     1
100
AcDbDimStyleTable
  0
DIMSTYLE
105
27
330
A
100
AcDbSymbolTableRecord
100
AcDbDimStyleTableRecord
  2
ISO-25
 70
     0
 41
2.5
 42
0.625
 43
3.75
 44
1.25
 73
     0
 74
     0
 77
     1
 78
     8
140
2.5
141
2.5
143
0.0393700787
147
0.625
171
     3
172
     1
178
     0
271
     2
272
     2
274
     3
278
    44
283
     0
284
     8
340
11
  0
ENDTAB
  0
TABLE
  2
BLOCK_RECORD
  5
1
330
0
100
AcDbSymbolTable
 70
     1
  0
BLOCK_RECORD
  5
1F
330
1
100
AcDbSymbolTableRecord
100
AcDbBlockTableRecord
  2
*Model_Space
340
22
  0
BLOCK_RECORD
  5
1B
330
1
100
AcDbSymbolTableRecord
100
AcDbBlockTableRecord
  2
*Paper_Space
340
1E
  0
BLOCK_RECORD
  5
23
330
1
100
AcDbSymbolTableRecord
100
AcDbBlockTableRecord
  2
*Paper_Space0
340
26
  0
ENDTAB
  0
ENDSEC
  0
SECTION
  2
BLOCKS
  0
BLOCK
  5
20
330
1F
100
AcDbEntity
  8
0
100
AcDbBlockBegin
  2
*Model_Space
 70
     0
 10
0.0
 20
0.0
 30
0.0
  3
*Model_Space
  1

  0
ENDBLK
  5
21
330
1F
100
AcDbEntity
  8
0
100
AcDbBlockEnd
  0
BLOCK
  5
1C
330
1B
100
AcDbEntity
 67
     1
  8
0
100
AcDbBlockBegin
  2
*Paper_Space
 70
     0
 10
0.0
 20
0.0
 30
0.0
  3
*Paper_Space
  1

  0
ENDBLK
  5
1D
330
1B
100
AcDbEntity
 67
     1
  8
0
100
AcDbBlockEnd
  0
BLOCK
  5
24
330
23
100
AcDbEntity
  8
0
100
AcDbBlockBegin
  2
*Paper_Space0
 70
     0
 10
0.0
 20
0.0
 30
0.0
  3
*Paper_Space0
  1

  0
ENDBLK
  5
25
330
23
100
AcDbEntity
  8
0
100
AcDbBlockEnd
  0
ENDSEC
  0
SECTION
  2
ENTITIES
  0
LWPOLYLINE
  5
44
330
1F
100
AcDbEntity
  8
0
  6
Continuous
 62
     7
100
AcDbPolyline
 90
       17
 70
   128
 43
0.0
 10
185.3276171327
 20
166.8443169911
 10
185.2168090292
 20
167.031219326
 10
185.0355172168
 20
167.1654631068
 10
184.8113417306
 20
167.2266109349
 10
184.5784112563
 20
167.2053536077
 10
184.372187347
 20
167.1049273606
 10
184.2240657234
 20
166.9406211793
 10
184.1565965601
 20
166.7374491906
 10
184.1800514255
 20
166.5263424878
 10
184.2908595291
 20
166.3394401529
 10
184.4721513415
 20
166.2051963721
 10
184.6963268276
 20
166.144048544
 10
184.929257302
 20
166.1653058712
 10
185.1354812113
 20
166.2657321183
 10
185.2836028348
 20
166.4300382995
 10
185.3510719981
 20
166.6332102883
 10
185.3276171327
 20
166.8443169911
  0
LWPOLYLINE
  5
45
330
1F
100
AcDbEntity
  8
0
  6
Continuous
 62
     7
100
AcDbPolyline
 90
       17
 70
   128
 43
0.0
 10
185.9013999863
 20
151.919653032
 10
185.6797837792
 20
152.2934577018
 10
185.3172001545
 20
152.5619452635
 10
184.8688491821
 20
152.6842409197
 10
184.4029882335
 20
152.6417262653
 10
183.9905404148
 20
152.4408737711
 10
183.6942971677
 20
152.1122614086
 10
183.5593588411
 20
151.705917431
 10
183.606268572
 20
151.2837040255
 10
183.8278847791
 20
150.9098993557
 10
184.1904684038
 20
150.641411794
 10
184.6388193761
 20
150.5191161379
 10
185.1046803248
 20
150.5616307923
 10
185.5171281435
 20
150.7624832865
 10
185.8133713906
 20
151.091095649
 10
185.9483097172
 20
151.4974396266
 10
185.9013999863
 20
151.919653032
  0
LWPOLYLINE
  5
46
330
1F
100
AcDbEntity
  8
0
  6
Continuous
 62
     7
100
AcDbPolyline
 90
       17
 70
   128
 43
0.0
 10
185.3276171327
 20
151.7606657804
 10
185.2168090292
 20
151.9475681153
 10
185.0355172168
 20
152.0818118962
 10
184.8113417306
 20
152.1429597242
 10
184.5784112563
 20
152.1217023971
 10
184.372187347
 20
152.0212761499
 10
184.2240657234
 20
151.8569699687
 10
184.1565965601
 20
151.6537979799
 10
184.1800514255
 20
151.4426912772
 10
184.2908595291
 20
151.2557889423
 10
184.4721513415
 20
151.1215451614
 10
184.6963268276
 20
151.0603973333
 10
184.929257302
 20
151.0816546605
 10
185.1354812113
 20
151.1820809076
 10
185.2836028348
 20
151.3463870889
 10
185.3510719981
 20
151.5495590777
 10
185.3276171327
 20
151.7606657804
  0
LWPOLYLINE
  5
47
330
1F
100
AcDbEntity
  8
0
  6
CENTERX2
 62
     7
100
AcDbPolyline
 90
       17
 70
   128
 43
0.0
 10
185.2319866571
 20
148.7291125902
 10
185.1396465708
 20
148.5733606445
 10
184.9885700605
 20
148.4614908271
 10
184.8017571554
 20
148.4105343037
 10
184.6076484268
 20
148.428248743
 10
184.435795169
 20
148.5119372823
 10
184.3123604827
 20
148.6488591
 10
184.2561361799
 20
148.8181690907
 10
184.2756819011
 20
148.9940913429
 10
184.3680219874
 20
149.1498432887
 10
184.5190984977
 20
149.2617131061
 10
184.7059114029
 20
149.3126696295
 10
184.9000201315
 20
149.2949551901
 10
185.0718733893
 20
149.2112666509
 10
185.1953080756
 20
149.0743448332
 10
185.2515323783
 20
148.9050348425
 10
185.2319866571
 20
148.7291125902
  0
LWPOLYLINE
  5
48
330
1F
100
AcDbEntity
  8
0
  6
CENTERX2
 62
     7
100
AcDbPolyline
 90
       17
 70
   128
 43
0.0
 10
185.2319866571
 20
166.4927452162
 10
185.1396465708
 20
166.3369932704
 10
184.9885700605
 20
166.225123453
 10
184.8017571554
 20
166.1741669296
 10
184.6076484268
 20
166.191881369
 10
184.435795169
 20
166.2755699082
 10
184.3123604827
 20
166.4124917259
 10
184.2561361799
 20
166.5818017166
 10
184.2756819011
 20
166.7577239689
 10
184.3680219874
 20
166.9134759146
 10
184.5190984977
 20
167.025345732
 10
184.7059114029
 20
167.0763022554
 10
184.9000201315
 20
167.0585878161
 10
185.0718733893
 20
166.9748992768
 10
185.1953080756
 20
166.8379774591
 10
185.2515323783
 20
166.6686674684
 10
185.2319866571
 20
166.4927452162
  0
ARC
  5
49
330
1F
100
AcDbEntity
  8
0
  6
Continuous
 62
     7
370
    15
100
AcDbCircle
 10
286.2538342793
 20
190.9726499691
 30
0.0
 40
0.4000000000000341
100
AcDbArc
 50
90.0
 51
180.0
  0
ARC
  5
4A
330
1F
100
AcDbEntity
  8
0
  6
Continuous
 62
     7
370
    15
100
AcDbCircle
 10
289.2538342793
 20
190.9726499691
 30
0.0
 40
0.4000000000000057
100
AcDbArc
 50
0.0
 51
90.0
  0
LINE
  5
4B
330
1F
100
AcDbEntity
  8
0
  6
Continuous
 62
     7
370
    15
100
AcDbLine
 10
289.6538348878
 20
189.0726498688
 30
0.0
 11
289.6538348878
 21
190.9726492489
 31
0.0
  0
LINE
  5
4C
330
1F
100
AcDbEntity
  8
0
  6
Continuous
 62
     7
370
    15
100
AcDbLine
 10
285.8538361276
 20
190.9726492489
 30
0.0
 11
285.8538361276
 21
189.0726498688
 31
0.0
  0
ARC
  5
4D
330
1F
100
AcDbEntity
  8
0
  6
Continuous
 62
     7
370
    15
100
AcDbCircle
 10
130.2538342793
 20
190.9726499691
 30
0.0
 40
0.4000000000000341
100
AcDbArc
 50
90.0
 51
180.0
  0
ARC
  5
4E
330
1F
100
AcDbEntity
  8
0
  6
Continuous
 62
     7
370
    15
100
AcDbCircle
 10
133.2538342793
 20
190.9726499691
 30
0.0
 40
0.4000000000000341
100
AcDbArc
 50
0.0
 51
90.0
  0
LINE
  5
4F
330
1F
100
AcDbEntity
  8
0
  6
Continuous
 62
     7
370
    15
100
AcDbLine
 10
133.6538346494
 20
189.0726498688
 30
0.0
 11
133.6538346494
 21
190.9726492489
 31
0.0
  0
LINE
  5
50
330
1F
100
AcDbEntity
  8
0
  6
Continuous
 62
     7
370
    15
100
AcDbLine
 10
129.8538358892
 20
190.9726492489
 30
0.0
 11
129.8538358892
 21
189.0726498688
 31
0.0
  0
ARC
  5
51
330
1F
100
AcDbEntity
  8
0
  6
Continuous
 62
     7
370
    15
100
AcDbCircle
 10
153.7538061113
 20
193.1790717022
 30
0.0
 40
0.9935575203369946
100
AcDbArc
 50
182.9350565889
 51
194.1754148978
  0
ARC
  5
52
330
1F
100
AcDbEntity
  8
0
  6
Continuous
 62
     7
370
    15
100
AcDbCircle
 10
265.7537081335
 20
193.1791122038
 30
0.0
 40
0.9937159215007383
100
AcDbArc
 50
345.8014421487
 51
357.0630733623
  0
LINE
  5
53
330
1F
100
AcDbEntity
  8
0
  6
Continuous
 62
     7
370
    15
100
AcDbLine
 10
152.8920562947
 20
192.5290576542
 30
0.0
 11
152.7901144708
 21
192.937915715
 31
0.0
  0
LINE
  5
54
330
1F
100
AcDbEntity
  8
0
  6
Continuous
 62
     7
370
    15
100
AcDbLine
 10
266.7174490178
 20
192.937504443
 30
0.0
 11
266.6156144822
 21
192.5290576542
 31
0.0
  0
ARC
  5
55
330
1F
100
AcDbEntity
  8
0
  6
Continuous
 62
     7
370
    15
100
AcDbCircle
 10
152.1712505109
 20
198.5669323237
 30
0.0
 40
0.4000000000000057
100
AcDbArc
 50
2.0
 51
90.0
  0
LINE
  5
56
330
1F
100
AcDbEntity
  8
0
  6
Continuous
 62
     7
370
    15
100
AcDbLine
 10
152.171251365
 20
198.9669314945
 30
0.0
 11
151.2860031808
 21
198.9669314945
 31
0.0
  0
ARC
  5
57
330
1F
100
AcDbEntity
  8
0
  6
Continuous
 62
     7
370
    15
100
AcDbCircle
 10
187.1712505109
 20
198.5669323237
 30
0.0
 40
0.4000000000000243
100
AcDbArc
 50
2.0
 51
90.0
  0
ARC
  5
58
330
1F
100
AcDbEntity
  8
0
  6
Continuous
 62
     7
370
    15
100
AcDbCircle
 10
267.3364180477
 20
198.5669323237
 30
0.0
 40
0.4000000000000057
100
AcDbArc
 50
90.0
 51
178.0
  0
ARC
  5
59
330
1F
100
AcDbEntity
  8
0
  6
Continuous
 62
     7
370
    15
100
AcDbCircle
 10
250.1712505109
 20
198.5669323237
 30
0.0
 40
0.4000000000000057
100
AcDbArc
 50
2.0
 51
90.0
  0
LINE
  5
5A
330
1F
100
AcDbEntity
  8
0
  6
Continuous
 62
     7
370
    15
100
AcDbLine
 10
233.1712516034
 20
198.9669314945
 30
0.0
 11
232.3364170278
 21
198.9669314945
 31
0.0
  0
ARC
  5
5B
330
1F
100
AcDbEntity
  8
0
  6
Continuous
 62
     7
370
    15
100
AcDbCircle
 10
170.1712505109
 20
198.5669323237
 30
0.0
 40
0.4000000000000057
100
AcDbArc
 50
2.0
 51
90.0
  0
ARC
  5
5C
330
1F
100
AcDbEntity
  8
0
  6
Continuous
 62
     7
370
    15
100
AcDbCircle
 10
233.1712505109
 20
198.5669323237
 30
0.0
 40
0.4000000000000243
100
AcDbArc
 50
2.0
 51
90.0
  0
ARC
  5
5D
330
1F
100
AcDbEntity
  8
0
  6
Continuous
 62
     7
370
    15
100
AcDbCircle
 10
151.2860042887
 20
198.5669323237
 30
0.0
 40
0.4000000000000102
100
AcDbArc
 50
90.0
 51
175.0
  0
ARC
  5
5E
330
1F
100
AcDbEntity
  8
0
  6
Continuous
 62
     7
370
    15
100
AcDbCircle
 10
186.3364180477
 20
198.5669323237
 30
0.0
 40
0.4000000000000243
100
AcDbArc
 50
90.0
 51
178.0
  0
LINE
  5
5F
330
1F
100
AcDbEntity
  8
0
  6
Continuous
 62
     7
370
    15
100
AcDbLine
 10
210.1712511862
 20
198.9669314945
 30
0.0
 11
209.3364181007
 21
198.9669314945
 31
0.0
  0
ARC
  5
60
330
1F
100
AcDbEntity
  8
0
  6
Continuous
 62
     7
370
    15
100
AcDbCircle
 10
169.3364180477
 20
198.5669323237
 30
0.0
 40
0.4000000000000057
100
AcDbArc
 50
90.0
 51
178.0
  0
LINE
  5
61
330
1F
100
AcDbEntity
  8
0
  6
Continuous
 62
     7
370
    15
100
AcDbLine
 10
268.2216616357
 20
198.9669314945
 30
0.0
 11
267.336419412
 21
198.9669314945
 31
0.0
  0
ARC
  5
62
330
1F
100
AcDbEntity
  8
0
  6
Continuous
 62
     7
370
    15
100
AcDbCircle
 10
209.3364180477
 20
198.5669323237
 30
0.0
 40
0.4000000000000057
100
AcDbArc
 50
90.0
 51
178.0
  0
ARC
  5
63
330
1F
100
AcDbEntity
  8
0
  6
Continuous
 62
     7
370
    15
100
AcDbCircle
 10
268.22166427
 20
198.5669323237
 30
0.0
 40
0.4000000000000057
100
AcDbArc
 50
5.0
 51
90.0
  0
ARC
  5
64
330
1F
100
AcDbEntity
  8
0
  6
Continuous
 62
     7
370
    15
100
AcDbCircle
 10
249.3364180477
 20
198.5669323237
 30
0.0
 40
0.4000000000000057
100
AcDbArc
 50
90.0
 51
178.0
  0
ARC
  5
65
330
1F
100
AcDbEntity
  8
0
  6
Continuous
 62
     7
370
    15
100
AcDbCircle
 10
210.1712505109
 20
198.5669323237
 30
0.0
 40
0.4000000000000057
100
AcDbArc
 50
2.0
 51
90.0
  0
ARC
  5
66
330
1F
100
AcDbEntity
  8
0
  6
Continuous
 62
     7
370
    15
100
AcDbCircle
 10
232.3364180477
 20
198.5669323237
 30
0.0
 40
0.4000000000000243
100
AcDbArc
 50
90.0
 51
178.0
  0
LINE
  5
67
330
1F
100
AcDbEntity
  8
0
  6
Continuous
 62
     7
370
    15
100
AcDbLine
 10
187.171250769
 20
198.9669314945
 30
0.0
 11
186.3364176834
 21
198.9669314945
 31
0.0
  0
LINE
  5
68
330
1F
100
AcDbEntity
  8
0
  6
Continuous
 62
     7
370
    15
100
AcDbLine
 10
170.1712491
 20
198.9669314945
 30
0.0
 11
169.3364175046
 21
198.9669314945
 31
0.0
  0
LINE
  5
69
330
1F
100
AcDbEntity
  8
0
  6
Continuous
 62
     7
370
    15
100
AcDbLine
 10
250.1712532724
 20
198.9669314945
 30
0.0
 11
249.3364186967
 21
198.9669314945
 31
0.0
  0
LINE
  5
6A
330
1F
100
AcDbEntity
  8
0
  6
Continuous
 62
     7
370
    15
100
AcDbLine
 10
184.1538341726
 20
151.6016788209
 30
0.0
 11
184.1538341726
 21
151.5932261372
 31
0.0
  0
LINE
  5
6B
330
1F
100
AcDbEntity
  8
0
  6
Continuous
 62
     7
370
    15
100
AcDbLine
 10
185.3538343692
 20
151.5932261372
 30
0.0
 11
185.3538343692
 21
151.6016788209
 31
0.0
  0
LINE
  5
6C
330
1F
100
AcDbEntity
  8
0
  6
Continuous
 62
     7
370
    15
100
AcDbLine
 10
186.3423803831
 20
168.5268662298
 30
0.0
 11
183.1652881587
 21
168.5268662298
 31
0.0
  0
SPLINE
  5
6D
330
1F
100
AcDbEntity
  8
0
  6
Continuous
 62
     7
370
    15
100
AcDbSpline
210
0.0
220
0.0
230
1.0
 70
     8
 71
     3
 72
    16
 73
    12
 74
     0
 42
0.00000001
 43
0.00000001
 12
1.0
 22
0.0
 32
0.0
 13
1.0
 23
0.0
 33
0.0
 40
0.0
 40
0.0
 40
0.0
 40
0.0
 40
0.0759633922213702
 40
0.225947445493359
 40
0.2312142429558948
 40
0.2376379827959077
 40
0.3730638192273835
 40
0.5347884133833329
 40
0.721006277821665
 40
0.9273004219140241
 40
1.0
 40
1.0
 40
1.0
 40
1.0
 10
186.747783609695
 20
168.1505433643289
 30
0.0
 10
186.7465041919946
 20
168.1582847885706
 30
0.0
 10
186.7426986594523
 20
168.1813110776917
 30
0.0
 10
186.7388490484291
 20
168.2009949238009
 30
0.0
 10
186.731259608319
 20
168.2285399214955
 30
0.0
 10
186.7229328786694
 20
168.2578245749085
 30
0.0
 10
186.6981476543473
 20
168.3207316696457
 30
0.0
 10
186.6321361707909
 20
168.41251423682
 30
0.0
 10
186.5283360833956
 20
168.488104767156
 30
0.0
 10
186.4233616540413
 20
168.5289232035791
 30
0.0
 10
186.3589275841262
 20
168.5225867158643
 30
0.0
 10
186.3421374941535
 20
168.5209355676598
 30
0.0
  0
LINE
  5
6E
330
1F
100
AcDbEntity
  8
0
  6
Continuous
 62
     7
370
    15
100
AcDbLine
 10
186.7486128593
 20
168.14561108
 30
0.0
 11
186.7477836097
 21
168.1505433643
 31
0.0
  0
SPLINE
  5
6F
330
1F
100
AcDbEntity
  8
0
  6
Continuous
 62
     7
370
    15
100
AcDbSpline
210
0.0
220
0.0
230
1.0
 70
     8
 71
     3
 72
    18
 73
    14
 74
     0
 42
0.00000001
 43
0.00000001
 12
1.0
 22
0.0
 32
0.0
 13
1.0
 23
0.0
 33
0.0
 40
0.0
 40
0.0
 40
0.0
 40
0.0
 40
0.0656139215401843
 40
0.2662918562569783
 40
0.4265296721795891
 40
0.5621618824263486
 40
0.677847608733372
 40
0.7409117186226389
 40
0.7568014067363866
 40
0.7625285789672263
 40
0.766953072647803
 40
0.9247869127493153
 40
1.0
 40
1.0
 40
1.0
 40
1.0
 10
183.165593632526
 20
168.5211710060067
 30
0.0
 10
183.1501963105785
 20
168.5228213717567
 30
0.0
 10
183.0877068061173
 20
168.5295193247028
 30
0.0
 10
182.9893803076979
 20
168.4921827291533
 30
0.0
 10
182.8927372389097
 20
168.4266972018322
 30
0.0
 10
182.83006746427
 20
168.3522803213226
 30
0.0
 10
182.7959619753918
 20
168.2873001166373
 30
0.0
 10
182.7818837767105
 20
168.2474461127474
 30
0.0
 10
182.7768464024785
 20
168.2301319062767
 30
0.0
 10
182.7755582469331
 20
168.2254567992598
 30
0.0
 10
182.7696937596195
 20
168.203773650368
 30
0.0
 10
182.7637763394975
 20
168.1762520719488
 30
0.0
 10
182.760346051032
 20
168.1531255501306
 30
0.0
 10
182.7592389667697
 20
168.1456617439217
 30
0.0
  0
LINE
  5
70
330
1F
100
AcDbEntity
  8
0
  6
Continuous
 62
     7
370
    15
100
AcDbLine
 10
182.7569754804
 20
168.1209377373
 30
0.0
 11
182.7563690031
 21
168.116071018
 31
0.0
  0
LINE
  5
71
330
1F
100
AcDbEntity
  8
0
  6
Continuous
 62
     7
370
    15
100
AcDbLine
 10
186.7513002837
 20
168.116071018
 30
0.0
 11
186.7506975318
 21
168.1208989942
 31
0.0
  0
ARC
  5
72
330
1F
100
AcDbEntity
  8
0
  6
Continuous
 62
     7
370
    15
100
AcDbCircle
 10
182.6268736273
 20
159.8742400865
 30
0.0
 40
0.2000000000000063
100
AcDbArc
 50
164.165473762
 51
170.8313575782
  0
ARC
  5
73
330
1F
100
AcDbEntity
  8
0
  6
Continuous
 62
     7
370
    15
100
AcDbCircle
 10
186.8807949314
 20
159.8742400865
 30
0.0
 40
0.2000000000000022
100
AcDbArc
 50
9.1686424218
 51
15.834526238
  0
LINE
  5
74
330
1F
100
AcDbEntity
  8
0
  6
Continuous
 62
     7
370
    15
100
AcDbLine
 10
187.8496358181
 20
165.4312692011
 30
0.0
 11
187.6835146928
 21
165.5214793408
 31
0.0
  0
LINE
  5
75
330
1F
100
AcDbEntity
  8
0
  6
Continuous
 62
     7
370
    15
100
AcDbLine
 10
181.824153849
 20
165.5214793408
 30
0.0
 11
181.412971207
 21
165.2981899107
 31
0.0
  0
SPLINE
  5
76
330
1F
100
AcDbEntity
  8
0
  6
Continuous
 62
     7
370
    15
100
AcDbSpline
210
0.0
220
0.0
230
1.0
 70
     8
 71
     3
 72
     9
 73
     5
 74
     0
 42
0.00000001
 43
0.00000001
 12
1.0
 22
0.0
 32
0.0
 13
1.0
 23
0.0
 33
0.0
 40
0.0
 40
0.0
 40
0.0
 40
0.0
 40
0.4108022579718235
 40
0.9999999999999999
 40
0.9999999999999999
 40
0.9999999999999999
 40
0.9999999999999999
 10
187.6028241599269
 20
157.2461924875207
 30
0.0
 10
187.5986139019944
 20
157.2519028436078
 30
0.0
 10
187.5883650344412
 20
157.2658033419044
 30
0.0
 10
187.5852495460696
 20
157.2882117294466
 30
0.0
 10
187.5834139073558
 20
157.301414700789
 30
0.0
  0
SPLINE
  5
77
330
1F
100
AcDbEntity
  8
0
  6
Continuous
 62
     7
370
    15
100
AcDbSpline
210
0.0
220
0.0
230
1.0
 70
     8
 71
     3
 72
     9
 73
     5
 74
     0
 42
0.00000001
 43
0.00000001
 12
1.0
 22
0.0
 32
0.0
 13
1.0
 23
0.0
 33
0.0
 40
0.0
 40
0.0
 40
0.0
 40
0.0
 40
0.3107864787752316
 40
1.0
 40
1.0
 40
1.0
 40
1.0
 10
181.9251807416148
 20
157.3005891764588
 30
0.0
 10
181.9241537424641
 20
157.2939545905359
 30
0.0
 10
181.9208492256304
 20
157.2726068602579
 30
0.0
 10
181.9113678785867
 20
157.2582815131282
 30
0.0
 10
181.9048332060046
 20
157.2484082901902
 30
0.0
  0
LINE
  5
78
330
1F
100
AcDbEntity
  8
0
  6
Continuous
 62
     7
370
    15
100
AcDbLine
 10
186.2480686987
 20
166.075401696
 30
0.0
 11
185.7901165271
 21
166.1881468618
 31
0.0
  0
LINE
  5
79
330
1F
100
AcDbEntity
  8
0
  6
Continuous
 62
     7
370
    15
100
AcDbLine
 10
183.7175520147
 20
166.1881468618
 30
0.0
 11
183.259599098
 21
166.075401696
 31
0.0
  0
ARC
  5
7A
330
1F
100
AcDbEntity
  8
0
  6
Continuous
 62
     7
370
    15
100
AcDbCircle
 10
184.8538342794
 20
166.2171219859
 30
0.0
 40
0.2000000000000144
100
AcDbArc
 50
284.2548345862
 51
0.0
  0
ARC
  5
7B
330
1F
100
AcDbEntity
  8
0
  6
Continuous
 62
     7
370
    15
100
AcDbCircle
 10
184.6538342794
 20
166.2171219859
 30
0.0
 40
0.2000000000000171
100
AcDbArc
 50
180.0
 51
255.7347564573
  0
LINE
  5
7C
330
1F
100
AcDbEntity
  8
0
  6
Continuous
 62
     7
370
    15
100
AcDbLine
 10
187.9552105451
 20
165.3762138808
 30
0.0
 11
187.8505902374
 21
165.433026048
 31
0.0
  0
ARC
  5
7D
330
1F
100
AcDbEntity
  8
0
  6
Continuous
 62
     7
370
    15
100
AcDbCircle
 10
282.4538342793
 20
116.0926499691
 30
0.0
 40
0.4000000000000199
100
AcDbArc
 50
270.0
 51
0.0
  0
ARC
  5
7E
330
1F
100
AcDbEntity
  8
0
  6
Continuous
 62
     7
370
    15
100
AcDbCircle
 10
271.8538342793
 20
116.0926499691
 30
0.0
 40
0.4000000000000199
100
AcDbArc
 50
180.0
 51
270.0
  0
LINE
  5
7F
330
1F
100
AcDbEntity
  8
0
  6
Continuous
 62
     7
370
    15
100
AcDbLine
 10
282.8538330281
 20
116.0926512802
 30
0.0
 11
282.8538330281
 21
116.8926499212
 31
0.0
  0
LINE
  5
80
330
1F
100
AcDbEntity
  8
0
  6
Continuous
 62
     7
370
    15
100
AcDbLine
 10
271.4538367475
 20
116.8926499212
 30
0.0
 11
271.4538367475
 21
116.0926512802
 31
0.0
  0
LINE
  5
81
330
1F
100
AcDbEntity
  8
0
  6
Continuous
 62
     7
370
    15
100
AcDbLine
 10
148.0538340295
 20
116.0926512802
 30
0.0
 11
148.0538340295
 21
116.8926499212
 31
0.0
  0
LINE
  5
82
330
1F
100
AcDbEntity
  8
0
  6
Continuous
 62
     7
370
    15
100
AcDbLine
 10
136.6538317884
 20
116.8926499212
 30
0.0
 11
136.6538317884
 21
116.0926512802
 31
0.0
  0
ARC
  5
83
330
1F
100
AcDbEntity
  8
0
  6
Continuous
 62
     7
370
    15
100
AcDbCircle
 10
147.6538342793
 20
116.0926499691
 30
0.0
 40
0.3999999999999915
100
AcDbArc
 50
270.0
 51
0.0
  0
ARC
  5
84
330
1F
100
AcDbEntity
  8
0
  6
Continuous
 62
     7
370
    15
100
AcDbCircle
 10
137.0538342793
 20
116.0926499691
 30
0.0
 40
0.4000000000000341
100
AcDbArc
 50
180.0
 51
270.0
  0
LINE
  5
85
330
1F
100
AcDbEntity
  8
0
  6
Continuous
 62
     7
370
    15
100
AcDbLine
 10
148.0138333524
 20
116.8926499212
 30
0.0
 11
148.0138333524
 21
122.6926497543
 31
0.0
  0
LINE
  5
86
330
1F
100
AcDbEntity
  8
0
  6
Continuous
 62
     7
370
    15
100
AcDbLine
 10
136.6938324655
 20
122.6926497543
 30
0.0
 11
136.6938324655
 21
116.8926499212
 31
0.0
  0
LINE
  5
87
330
1F
100
AcDbEntity
  8
0
  6
Continuous
 62
     7
370
    15
100
AcDbLine
 10
282.813832351
 20
116.8926499212
 30
0.0
 11
282.813832351
 21
122.6926497543
 31
0.0
  0
LINE
  5
88
330
1F
100
AcDbEntity
  8
0
  6
Continuous
 62
     7
370
    15
100
AcDbLine
 10
271.4938314641
 20
122.6926497543
 30
0.0
 11
271.4938314641
 21
116.8926499212
 31
0.0
  0
ARC
  5
89
330
1F
100
AcDbEntity
  8
0
  6
Continuous
 62
     7
370
    15
100
AcDbCircle
 10
149.0338342793
 20
134.9926499691
 30
0.0
 40
0.3000000000000114
100
AcDbArc
 50
90.0
 51
180.0
  0
ARC
  5
8A
330
1F
100
AcDbEntity
  8
0
  6
Continuous
 62
     7
370
    15
100
AcDbCircle
 10
135.6738342793
 20
134.9926499691
 30
0.0
 40
0.3000000000000114
100
AcDbArc
 50
0.0
 51
90.0
  0
ARC
  5
8B
330
1F
100
AcDbEntity
  8
0
  6
Continuous
 62
     7
370
    15
100
AcDbCircle
 10
147.7938342793
 20
123.8991631583
 30
0.0
 40
0.9400000000000048
100
AcDbArc
 50
350.5402980318
 51
0.0
  0
ARC
  5
8C
330
1F
100
AcDbEntity
  8
0
  6
Continuous
 62
     7
370
    15
100
AcDbCircle
 10
136.9138342793
 20
123.8991631583
 30
0.0
 40
0.9399999999999977
100
AcDbArc
 50
180.0
 51
189.4597019682
  0
LINE
  5
8D
330
1F
100
AcDbEntity
  8
0
  6
Continuous
 62
     7
370
    15
100
AcDbLine
 10
148.7338336194
 20
123.8991625035
 30
0.0
 11
148.7338336194
 21
134.9926500941
 31
0.0
  0
LINE
  5
8E
330
1F
100
AcDbEntity
  8
0
  6
Continuous
 62
     7
370
    15
100
AcDbLine
 10
135.9738321984
 20
134.9926500941
 30
0.0
 11
135.9738321984
 21
123.8991625035
 31
0.0
  0
LINE
  5
8F
330
1F
100
AcDbEntity
  8
0
  6
Continuous
 62
     7
370
    15
100
AcDbLine
 10
135.9866173948
 20
123.7446702445
 30
0.0
 11
136.1619027341
 21
122.6926497543
 31
0.0
  0
LINE
  5
90
330
1F
100
AcDbEntity
  8
0
  6
Continuous
 62
     7
370
    15
100
AcDbLine
 10
148.5457630838
 20
122.6926497543
 30
0.0
 11
148.7210514034
 21
123.7446702445
 31
0.0
  0
ARC
  5
91
330
1F
100
AcDbEntity
  8
0
  6
Continuous
 62
     7
370
    15
100
AcDbCircle
 10
283.8338342793
 20
134.9926499691
 30
0.0
 40
0.2999999999999829
100
AcDbArc
 50
90.0
 51
180.0
  0
ARC
  5
92
330
1F
100
AcDbEntity
  8
0
  6
Continuous
 62
     7
370
    15
100
AcDbCircle
 10
270.4738342793
 20
134.9926499691
 30
0.0
 40
0.3000000000000114
100
AcDbArc
 50
0.0
 51
90.0
  0
LINE
  5
93
330
1F
100
AcDbEntity
  8
0
  6
Continuous
 62
     7
370
    15
100
AcDbLine
 10
283.5338326181
 20
123.8991625035
 30
0.0
 11
283.5338326181
 21
134.9926500941
 31
0.0
  0
LINE
  5
94
330
1F
100
AcDbEntity
  8
0
  6
Continuous
 62
     7
370
    15
100
AcDbLine
 10
270.7738371576
 20
134.9926500941
 30
0.0
 11
270.7738371576
 21
123.8991625035
 31
0.0
  0
ARC
  5
95
330
1F
100
AcDbEntity
  8
0
  6
Continuous
 62
     7
370
    15
100
AcDbCircle
 10
282.5938342793
 20
123.8991631583
 30
0.0
 40
0.9400000000000546
100
AcDbArc
 50
350.5402980318
 51
0.0
  0
ARC
  5
96
330
1F
100
AcDbEntity
  8
0
  6
Continuous
 62
     7
370
    15
100
AcDbCircle
 10
271.7138342793
 20
123.8991631583
 30
0.0
 40
0.9399999999999464
100
AcDbArc
 50
180.0
 51
189.4597019682
  0
LINE
  5
97
330
1F
100
AcDbEntity
  8
0
  6
Continuous
 62
     7
370
    15
100
AcDbLine
 10
270.7866163934
 20
123.7446702445
 30
0.0
 11
270.9619017327
 21
122.6926497543
 31
0.0
  0
LINE
  5
98
330
1F
100
AcDbEntity
  8
0
  6
Continuous
 62
     7
370
    15
100
AcDbLine
 10
283.3457620824
 20
122.6926497543
 30
0.0
 11
283.5210533822
 21
123.7446702445
 31
0.0
  0
LINE
  5
99
330
1F
100
AcDbEntity
  8
0
  6
Continuous
 62
     7
370
    15
100
AcDbLine
 10
280.6542964662
 20
159.7558982099
 30
0.0
 11
287.8541620458
 21
159.7558982099
 31
0.0
  0
SPLINE
  5
9A
330
1F
100
AcDbEntity
  8
0
  6
Continuous
 62
     7
370
    15
100
AcDbSpline
210
0.0
220
0.0
230
1.0
 70
     8
 71
     3
 72
    11
 73
     7
 74
     0
 42
0.00000001
 43
0.00000001
 12
1.0
 22
0.0
 32
0.0
 13
1.0
 23
0.0
 33
0.0
 40
0.0
 40
0.0
 40
0.0
 40
0.0
 40
0.2833058543124292
 40
0.5580364833865703
 40
0.7754311315687716
 40
1.0
 40
1.0
 40
1.0
 40
1.0
 10
287.8541620457836
 20
159.7558982098527
 30
0.0
 10
287.9135865954664
 20
159.7488386324707
 30
0.0
 10
288.0306370066283
 20
159.7349331600757
 30
0.0
 10
288.1604658391467
 20
159.6380437332274
 30
0.0
 10
288.2394938768688
 20
159.5199684859596
 30
0.0
 10
288.249003192534
 20
159.4361774160989
 30
0.0
 10
288.2538350308604
 20
159.3936018073983
 30
0.0
  0
LINE
  5
9B
330
1F
100
AcDbEntity
  8
0
  6
Continuous
 62
     7
370
    15
100
AcDbLine
 10
288.2538350309
 20
159.3936018074
 30
0.0
 11
288.2538350309
 21
149.2424301231
 31
0.0
  0
SPLINE
  5
9C
330
1F
100
AcDbEntity
  8
0
  6
Continuous
 62
     7
370
    15
100
AcDbSpline
210
0.0
220
0.0
230
1.0
 70
     8
 71
     3
 72
    11
 73
     7
 74
     0
 42
0.00000001
 43
0.00000001
 12
1.0
 22
0.0
 32
0.0
 13
1.0
 23
0.0
 33
0.0
 40
0.0
 40
0.0
 40
0.0
 40
0.0
 40
0.2833194824233238
 40
0.5580439072167206
 40
0.7754280514022063
 40
1.0
 40
1.0
 40
1.0
 40
1.0
 10
288.2538350308604
 20
149.2424301231332
 30
0.0
 10
288.2460505873564
 20
149.1885746244454
 30
0.0
 10
288.2307178568595
 20
149.0824974402864
 30
0.0
 10
288.1238461689954
 20
148.9648278496526
 30
0.0
 10
287.9935801190487
 20
148.8932015111463
 30
0.0
 10
287.901135896003
 20
148.8845840515698
 30
0.0
 10
287.8541620457836
 20
148.8802052462525
 30
0.0
  0
LINE
  5
9D
330
1F
100
AcDbEntity
  8
0
  6
Continuous
 62
     7
370
    15
100
AcDbLine
 10
287.8541620458
 20
148.8802052463
 30
0.0
 11
280.6542964662
 21
148.8802052463
 31
0.0
  0
SPLINE
  5
9E
330
1F
100
AcDbEntity
  8
0
  6
Continuous
 62
     7
370
    15
100
AcDbSpline
210
0.0
220
0.0
230
1.0
 70
     8
 71
     3
 72
    11
 73
     7
 74
     0
 42
0.00000001
 43
0.00000001
 12
1.0
 22
0.0
 32
0.0
 13
1.0
 23
0.0
 33
0.0
 40
0.0
 40
0.0
 40
0.0
 40
0.0
 40
0.2832723495778059
 40
0.5580000932077379
 40
0.7754033790641832
 40
1.0
 40
1.0
 40
1.0
 40
1.0
 10
280.6542964661784
 20
148.8802052462525
 30
0.0
 10
280.5948749703201
 20
148.8871445596531
 30
0.0
 10
280.4778243641563
 20
148.9008138695242
 30
0.0
 10
280.3477848291621
 20
148.9974153176438
 30
0.0
 10
280.2684778810589
 20
149.1153108791497
 30
0.0
 10
280.2587697585489
 20
149.1990741450515
 30
0.0
 10
280.2538366997906
 20
149.2416373813577
 30
0.0
  0
LINE
  5
9F
330
1F
100
AcDbEntity
  8
0
  6
Continuous
 62
     7
370
    15
100
AcDbLine
 10
280.2538366998
 20
149.2416373814
 30
0.0
 11
280.2538366998
 21
159.3943945492
 31
0.0
  0
SPLINE
  5
A0
330
1F
100
AcDbEntity
  8
0
  6
Continuous
 62
     7
370
    15
100
AcDbSpline
210
0.0
220
0.0
230
1.0
 70
     8
 71
     3
 72
    11
 73
     7
 74
     0
 42
0.00000001
 43
0.00000001
 12
1.0
 22
0.0
 32
0.0
 13
1.0
 23
0.0
 33
0.0
 40
0.0
 40
0.0
 40
0.0
 40
0.0
 40
0.283356224408971
 40
0.5581122393338647
 40
0.7754832744387351
 40
1.0
 40
1.0
 40
1.0
 40
1.0
 10
280.2538366997906
 20
159.3943945491738
 30
0.0
 10
280.2617519021662
 20
159.448237750963
 30
0.0
 10
280.2773420708025
 20
159.5542899472263
 30
0.0
 10
280.3844743658104
 20
159.6717686670406
 30
0.0
 10
280.5148772225642
 20
159.7431687830487
 30
0.0
 10
280.6073250656201
 20
159.7516095694198
 30
0.0
 10
280.6542964661784
 20
159.7558982098527
 30
0.0
  0
SPLINE
  5
A1
330
1F
100
AcDbEntity
  8
0
  6
Continuous
 62
     7
370
    15
100
AcDbSpline
210
0.0
220
0.0
230
1.0
 70
     8
 71
     3
 72
    11
 73
     7
 74
     0
 42
0.00000001
 43
0.00000001
 12
1.0
 22
0.0
 32
0.0
 13
1.0
 23
0.0
 33
0.0
 40
0.0
 40
0.0
 40
0.0
 40
0.0
 40
0.2832724837013622
 40
0.5580001261670694
 40
0.7754023956013123
 40
0.9999999999999999
 40
0.9999999999999999
 40
0.9999999999999999
 40
0.9999999999999999
 10
280.6542964661784
 20
148.7449667776055
 30
0.0
 10
280.5948749702409
 20
148.7519063863519
 30
0.0
 10
280.4778244124284
 20
148.765576272341
 30
0.0
 10
280.3477850914854
 20
148.8621775683235
 30
0.0
 10
280.2684776153091
 20
148.9800726341066
 30
0.0
 10
280.2587696835762
 20
149.0638361200839
 30
0.0
 10
280.2538366997906
 20
149.1063996577687
 30
0.0
  0
SPLINE
  5
A2
330
1F
100
AcDbEntity
  8
0
  6
Continuous
 62
     7
370
    15
100
AcDbSpline
210
0.0
220
0.0
230
1.0
 70
     8
 71
     3
 72
    11
 73
     7
 74
     0
 42
0.00000001
 43
0.00000001
 12
1.0
 22
0.0
 32
0.0
 13
1.0
 23
0.0
 33
0.0
 40
0.0
 40
0.0
 40
0.0
 40
0.0
 40
0.2833186714117144
 40
0.5580433340379561
 40
0.7754276664159898
 40
1.0
 40
1.0
 40
1.0
 40
1.0
 10
288.2538350308604
 20
149.1071916544862
 30
0.0
 10
288.246050544339
 20
149.0533364352006
 30
0.0
 10
288.2307177009704
 20
148.9472596066749
 30
0.0
 10
288.1238461811581
 20
148.8295900547506
 30
0.0
 10
287.9935800527409
 20
148.7579639600844
 30
0.0
 10
287.9011358866628
 20
148.7493458932948
 30
0.0
 10
287.8541620457836
 20
148.7449667776055
 30
0.0
  0
LINE
  5
A3
330
1F
100
AcDbEntity
  8
0
  6
Continuous
 62
     7
370
    15
100
AcDbLine
 10
288.2538350309
 20
149.1071916545
 30
0.0
 11
288.2538350309
 21
149.2424301231
 31
0.0
  0
LINE
  5
A4
330
1F
100
AcDbEntity
  8
0
  6
Continuous
 62
     7
370
    15
100
AcDbLine
 10
287.8541620458
 20
148.7449667776
 30
0.0
 11
280.6542964662
 21
148.7449667776
 31
0.0
  0
SPLINE
  5
A5
330
1F
100
AcDbEntity
  8
0
  6
Continuous
 62
     7
370
    15
100
AcDbSpline
210
0.0
220
0.0
230
1.0
 70
     8
 71
     3
 72
    13
 73
     9
 74
     0
 42
0.00000001
 43
0.00000001
 12
1.0
 22
0.0
 32
0.0
 13
1.0
 23
0.0
 33
0.0
 40
0.0
 40
0.0
 40
0.0
 40
0.0
 40
0.1275871206361282
 40
0.2546772985903664
 40
0.5000480109762016
 40
0.7454031046217566
 40
0.8725460047649789
 40
1.0
 40
1.0
 40
1.0
 40
1.0
 10
280.2538366997906
 20
149.2416373813577
 30
0.0
 10
280.2554053179005
 20
149.2174983009381
 30
0.0
 10
280.2585364444654
 20
149.1693141600855
 30
0.0
 10
280.2910531932345
 20
149.0787330425122
 30
0.0
 10
280.3646447995633
 20
148.9795048082403
 30
0.0
 10
280.4744486054053
 20
148.9132110162322
 30
0.0
 10
280.5745249191143
 20
148.8841620843527
 30
0.0
 10
280.6276842984563
 20
148.8815252662728
 30
0.0
 10
280.6542964661784
 20
148.8802052462525
 30
0.0
  0
SPLINE
  5
A6
330
1F
100
AcDbEntity
  8
0
  6
Continuous
 62
     7
370
    15
100
AcDbSpline
210
0.0
220
0.0
230
1.0
 70
     8
 71
     3
 72
    13
 73
     9
 74
     0
 42
0.00000001
 43
0.00000001
 12
1.0
 22
0.0
 32
0.0
 13
1.0
 23
0.0
 33
0.0
 40
0.0
 40
0.0
 40
0.0
 40
0.0
 40
0.1275805269472144
 40
0.2546498347771646
 40
0.5000041257893945
 40
0.7453563311374463
 40
0.872515838775908
 40
0.9999999999999999
 40
0.9999999999999999
 40
0.9999999999999999
 40
0.9999999999999999
 10
287.8541620457836
 20
148.8802052462525
 30
0.0
 10
287.8808012715351
 20
148.8815742753488
 30
0.0
 10
287.9339729788369
 20
148.8843068477994
 30
0.0
 10
288.0339944111928
 20
148.91358300283
 30
0.0
 10
288.1436411424639
 20
148.9800730580685
 30
0.0
 10
288.2170219978191
 20
149.0794610617375
 30
0.0
 10
288.2492972770453
 20
149.1701166252966
 30
0.0
 10
288.2523211611723
 20
149.2183051448117
 30
0.0
 10
288.2538350308604
 20
149.2424301231332
 30
0.0
  0
SPLINE
  5
A7
330
1F
100
AcDbEntity
  8
0
  6
Continuous
 62
     7
370
    15
100
AcDbSpline
210
0.0
220
0.0
230
1.0
 70
     8
 71
     3
 72
    13
 73
     9
 74
     0
 42
0.00000001
 43
0.00000001
 12
1.0
 22
0.0
 32
0.0
 13
1.0
 23
0.0
 33
0.0
 40
0.0
 40
0.0
 40
0.0
 40
0.0
 40
0.1275695277111799
 40
0.2546487778885099
 40
0.5000135961349105
 40
0.7453705943052289
 40
0.872525027386602
 40
1.0
 40
1.0
 40
1.0
 40
1.0
 10
288.2538350308604
 20
159.3936018073983
 30
0.0
 10
288.2523247457905
 20
159.4177450446181
 30
0.0
 10
288.2493099800056
 20
159.4659387313283
 30
0.0
 10
288.2170021529317
 20
159.5565962886619
 30
0.0
 10
288.143645465954
 20
159.6559915278526
 30
0.0
 10
288.0339841120674
 20
159.7225238077643
 30
0.0
 10
287.9339511175003
 20
159.7517829962488
 30
0.0
 10
287.8807807141615
 20
159.754525321262
 30
0.0
 10
287.8541620457836
 20
159.7558982098527
 30
0.0
  0
SPLINE
  5
A8
330
1F
100
AcDbEntity
  8
0
  6
Continuous
 62
     7
370
    15
100
AcDbSpline
210
0.0
220
0.0
230
1.0
 70
     8
 71
     3
 72
    13
 73
     9
 74
     0
 42
0.00000001
 43
0.00000001
 12
1.0
 22
0.0
 32
0.0
 13
1.0
 23
0.0
 33
0.0
 40
0.0
 40
0.0
 40
0.0
 40
0.0
 40
0.1275290012325496
 40
0.2545841307398809
 40
0.4999421723971291
 40
0.7453273108416264
 40
0.8725045275884584
 40
1.0
 40
1.0
 40
1.0
 40
1.0
 10
280.6542964661784
 20
159.7558982098527
 30
0.0
 10
280.627665447929
 20
159.754580841989
 30
0.0
 10
280.5745023668553
 20
159.7519510013316
 30
0.0
 10
280.4744329804619
 20
159.7228597588627
 30
0.0
 10
280.3646444441932
 20
159.656561593804
 30
0.0
 10
280.2910350879806
 20
159.5573045846791
 30
0.0
 10
280.2585499900459
 20
159.4667006639616
 30
0.0
 10
280.2554091048942
 20
159.4185166587322
 30
0.0
 10
280.2538366997906
 20
159.3943945491738
 30
0.0
  0
LINE
  5
A9
330
1F
100
AcDbEntity
  8
0
  6
Continuous
 62
     7
370
    15
100
AcDbLine
 10
287.7538355077
 20
191.3726500595
 30
0.0
 11
289.2538340772
 21
191.3726500595
 31
0.0
  0
LINE
  5
AA
330
1F
100
AcDbEntity
  8
0
  6
Continuous
 62
     7
370
    15
100
AcDbLine
 10
286.2538369382
 20
191.3726500595
 30
0.0
 11
287.7538355077
 21
191.3726500595
 31
0.0
  0
LINE
  5
AB
330
1F
100
AcDbEntity
  8
0
  6
Continuous
 62
     7
370
    15
100
AcDbLine
 10
131.7538352693
 20
191.3726500595
 30
0.0
 11
133.2538338388
 21
191.3726500595
 31
0.0
  0
LINE
  5
AC
330
1F
100
AcDbEntity
  8
0
  6
Continuous
 62
     7
370
    15
100
AcDbLine
 10
130.2538366998
 20
191.3726500595
 30
0.0
 11
131.7538352693
 21
191.3726500595
 31
0.0
  0
ARC
  5
AD
330
1F
100
AcDbEntity
  8
0
  6
Continuous
 62
     7
370
    15
100
AcDbCircle
 10
135.3538342793
 20
185.5726499691
 30
0.0
 40
0.1000000000000227
100
AcDbArc
 50
180.0
 51
270.0
  0
LINE
  5
AE
330
1F
100
AcDbEntity
  8
0
  6
Continuous
 62
     7
370
    15
100
AcDbLine
 10
284.2538328851
 20
188.8726494635
 30
0.0
 11
284.2538328851
 21
188.7726507509
 31
0.0
  0
ARC
  5
AF
330
1F
100
AcDbEntity
  8
0
  6
Continuous
 62
     7
370
    15
100
AcDbCircle
 10
284.1538342793
 20
188.8726499691
 30
0.0
 40
0.1000000000000227
100
AcDbArc
 50
0.0
 51
90.0
  0
LINE
  5
B0
330
1F
100
AcDbEntity
  8
0
  6
Continuous
 62
     7
370
    15
100
AcDbLine
 10
284.1538341726
 20
188.9726511562
 30
0.0
 11
135.3538366044
 21
188.9726511562
 31
0.0
  0
LINE
  5
B1
330
1F
100
AcDbEntity
  8
0
  6
Continuous
 62
     7
370
    15
100
AcDbLine
 10
135.2538319314
 20
188.7726507509
 30
0.0
 11
135.2538319314
 21
188.8726494635
 31
0.0
  0
ARC
  5
B2
330
1F
100
AcDbEntity
  8
0
  6
Continuous
 62
     7
370
    15
100
AcDbCircle
 10
135.3538342793
 20
188.8726499691
 30
0.0
 40
0.1000000000000227
100
AcDbArc
 50
90.0
 51
180.0
  0
ARC
  5
B3
330
1F
100
AcDbEntity
  8
0
  6
Continuous
 62
     7
370
    15
100
AcDbCircle
 10
284.1538342793
 20
185.5726499691
 30
0.0
 40
0.1000000000000227
100
AcDbArc
 50
270.0
 51
0.0
  0
LINE
  5
B4
330
1F
100
AcDbEntity
  8
0
  6
Continuous
 62
     7
370
    15
100
AcDbLine
 10
284.2538328851
 20
188.7726507509
 30
0.0
 11
284.2538328851
 21
185.5726502264
 31
0.0
  0
LINE
  5
B5
330
1F
100
AcDbEntity
  8
0
  6
Continuous
 62
     7
370
    15
100
AcDbLine
 10
135.2538319314
 20
185.5726502264
 30
0.0
 11
135.2538319314
 21
188.7726507509
 31
0.0
  0
LINE
  5
B6
330
1F
100
AcDbEntity
  8
0
  6
Continuous
 62
     7
370
    15
100
AcDbLine
 10
284.2538328851
 20
185.5726502264
 30
0.0
 11
284.2538328851
 21
185.4726485336
 31
0.0
  0
LINE
  5
B7
330
1F
100
AcDbEntity
  8
0
  6
Continuous
 62
     7
370
    15
100
AcDbLine
 10
135.2538319314
 20
185.4726485336
 30
0.0
 11
135.2538319314
 21
185.5726502264
 31
0.0
  0
LINE
  5
B8
330
1F
100
AcDbEntity
  8
0
  6
Continuous
 62
     7
370
    15
100
AcDbLine
 10
268.8668401921
 20
195.7820049847
 30
0.0
 11
269.4538326944
 21
189.0726498688
 31
0.0
  0
SPLINE
  5
B9
330
1F
100
AcDbEntity
  8
0
  6
Continuous
 62
     7
370
    15
100
AcDbSpline
210
0.0
220
0.0
230
1.0
 70
     8
 71
     3
 72
    13
 73
     9
 74
     0
 42
0.00000001
 43
0.00000001
 12
1.0
 22
0.0
 32
0.0
 13
1.0
 23
0.0
 33
0.0
 40
0.0
 40
0.0
 40
0.0
 40
0.0
 40
0.0016185904365355
 40
0.1076402532921862
 40
0.2135403888972067
 40
0.5545563389614278
 40
0.77688245712359
 40
1.0
 40
1.0
 40
1.0
 40
1.0
 10
234.8085971558757
 20
191.7075149143166
 30
0.0
 10
234.8077835505614
 20
191.7079897587062
 30
0.0
 10
234.7536767919019
 20
191.7395680809362
 30
0.0
 10
234.6463883239377
 20
191.8023707642883
 30
0.0
 10
234.3734781036878
 20
191.9725611243167
 30
0.0
 10
234.0691211331603
 20
192.2236617158413
 30
0.0
 10
233.8204757335998
 20
192.620533601436
 30
0.0
 10
233.7839131108124
 20
192.8790284408113
 30
0.0
 10
233.7655993188091
 20
193.0085054958291
 30
0.0
  0
SPLINE
  5
BA
330
1F
100
AcDbEntity
  8
0
  6
Continuous
 62
     7
370
    15
100
AcDbSpline
210
0.0
220
0.0
230
1.0
 70
     8
 71
     3
 72
    13
 73
     9
 74
     0
 42
0.00000001
 43
0.00000001
 12
1.0
 22
0.0
 32
0.0
 13
1.0
 23
0.0
 33
0.0
 40
0.0
 40
0.0
 40
0.0
 40
0.0
 40
0.2231175849019097
 40
0.4454437449405023
 40
0.7864610373595445
 40
0.8923611929114776
 40
0.9983814092585935
 40
1.0
 40
1.0
 40
1.0
 40
1.0
 10
168.7420697892375
 20
193.0085054958291
 30
0.0
 10
168.7237559813409
 20
192.8790284561353
 30
0.0
 10
168.6871933268231
 20
192.6205336473539
 30
0.0
 10
168.4385478026886
 20
192.2236608472769
 30
0.0
 10
168.1341888313023
 20
191.9725611385288
 30
0.0
 10
167.861278210278
 20
191.8023717610534
 30
0.0
 10
167.7539915818446
 20
191.7395676459091
 30
0.0
 10
167.6998855575274
 20
191.707989758635
 30
0.0
 10
167.6990719521709
 20
191.7075149143166
 30
0.0
  0
LINE
  5
BB
330
1F
100
AcDbEntity
  8
0
  6
Continuous
 62
     7
370
    15
100
AcDbLine
 10
168.7420697892
 20
193.0085054958
 30
0.0
 11
168.8345195735
 21
195.6559590424
 31
0.0
  0
ELLIPSE
  5
BC
330
1F
100
AcDbEntity
  8
0
  6
Continuous
 62
     7
370
    15
100
AcDbEllipse
 10
169.2342659054
 20
195.6416777028
 30
0.0
 11
0.01181228179109439
 21
0.4223162220194183
 31
0.0
210
0.0
220
0.0
230
1.0
 40
0.9467846371
 41
1.258678047986808
 42
1.56346241722716
  0
ELLIPSE
  5
BD
330
1F
100
AcDbEntity
  8
0
  6
Continuous
 62
     7
370
    15
100
AcDbEllipse
 10
170.2734026533
 20
195.6416777028
 30
0.0
 11
-0.01181228179109439
 21
0.4223162220194183
 31
0.0
210
0.0
220
0.0
230
1.0
 40
0.9467846371
 41
4.719722889952443
 42
5.024507259192837
  0
LINE
  5
BE
330
1F
100
AcDbEntity
  8
0
  6
Continuous
 62
     7
370
    15
100
AcDbLine
 10
170.6731470311
 20
195.6559590424
 30
0.0
 11
170.7655997956
 21
193.0085054958
 31
0.0
  0
SPLINE
  5
BF
330
1F
100
AcDbEntity
  8
0
  6
Continuous
 62
     7
370
    15
100
AcDbSpline
210
0.0
220
0.0
230
1.0
 70
     8
 71
     3
 72
    13
 73
     9
 74
     0
 42
0.00000001
 43
0.00000001
 12
1.0
 22
0.0
 32
0.0
 13
1.0
 23
0.0
 33
0.0
 40
0.0
 40
0.0
 40
0.0
 40
0.0
 40
0.0016178557897862
 40
0.10763884633453
 40
0.2135390427991482
 40
0.5545558279023503
 40
0.776882506218948
 40
1.0
 40
1.0
 40
1.0
 40
1.0
 10
171.8085961425967
 20
191.7075149143166
 30
0.0
 10
171.8077830350616
 20
191.7079897605345
 30
0.0
 10
171.753685532931
 20
191.7395821307538
 30
0.0
 10
171.6463864585218
 20
191.8023650810466
 30
0.0
 10
171.3734831383849
 20
191.9725671208647
 30
0.0
 10
171.0691215073485
 20
192.2236604514833
 30
0.0
 10
170.8204742885229
 20
192.6205332943313
 30
0.0
 10
170.7839129295694
 20
192.8790284562786
 30
0.0
 10
170.7655997956462
 20
193.0085054958291
 30
0.0
  0
SPLINE
  5
C0
330
1F
100
AcDbEntity
  8
0
  6
Continuous
 62
     7
370
    15
100
AcDbSpline
210
0.0
220
0.0
230
1.0
 70
     8
 71
     3
 72
    13
 73
     9
 74
     0
 42
0.00000001
 43
0.00000001
 12
1.0
 22
0.0
 32
0.0
 13
1.0
 23
0.0
 33
0.0
 40
0.0
 40
0.0
 40
0.0
 40
0.0
 40
0.2231175789919576
 40
0.4454437331415613
 40
0.7864610165277168
 40
0.8923597292843221
 40
0.9983814093014669
 40
1.0
 40
1.0
 40
1.0
 40
1.0
 10
231.7420693124004
 20
193.0085054958291
 30
0.0
 10
231.7237554814236
 20
192.8790284929155
 30
0.0
 10
231.6871927808273
 20
192.6205337575638
 30
0.0
 10
231.4385476626001
 20
192.2236603106399
 30
0.0
 10
231.1341875902355
 20
191.9725639402816
 30
0.0
 10
230.8612799008779
 20
191.8023698519826
 30
0.0
 10
230.7539918384882
 20
191.7395680821997
 30
0.0
 10
230.699885080636
 20
191.7079897587249
 30
0.0
 10
230.6990714753337
 20
191.7075149143166
 30
0.0
  0
LINE
  5
C1
330
1F
100
AcDbEntity
  8
0
  6
Continuous
 62
     7
370
    15
100
AcDbLine
 10
231.7420693124
 20
193.0085054958
 30
0.0
 11
231.8345220769
 21
195.6559590424
 31
0.0
  0
ELLIPSE
  5
C2
330
1F
100
AcDbEntity
  8
0
  6
Continuous
 62
     7
370
    15
100
AcDbEllipse
 10
232.2342659054
 20
195.6416777028
 30
0.0
 11
0.01181228179109439
 21
0.4223162220194183
 31
0.0
210
0.0
220
0.0
230
1.0
 40
0.9467846371
 41
1.258678047986808
 42
1.563462417227158
  0
ELLIPSE
  5
C3
330
1F
100
AcDbEntity
  8
0
  6
Continuous
 62
     7
370
    15
100
AcDbEllipse
 10
233.2734026533
 20
195.6416777028
 30
0.0
 11
-0.01181228179109439
 21
0.4223162220194183
 31
0.0
210
0.0
220
0.0
230
1.0
 40
0.9467846371
 41
4.719722889952443
 42
5.024507259192813
  0
LINE
  5
C4
330
1F
100
AcDbEntity
  8
0
  6
Continuous
 62
     7
370
    15
100
AcDbLine
 10
233.6731465543
 20
195.6559590424
 30
0.0
 11
233.7655993188
 21
193.0085054958
 31
0.0
  0
LINE
  5
C5
330
1F
100
AcDbEntity
  8
0
  6
Continuous
 62
     7
370
    15
100
AcDbLine
 10
150.0538351024
 20
189.0726498688
 30
0.0
 11
150.6408276046
 21
195.7820049847
 31
0.0
  0
ARC
  5
C6
330
1F
100
AcDbEntity
  8
0
  6
Continuous
 62
     7
370
    15
100
AcDbCircle
 10
171.7639684406
 20
193.0726499691
 30
0.0
 40
1.0
100
AcDbArc
 50
182.0
 51
270.0
  0
ARC
  5
C7
330
1F
100
AcDbEntity
  8
0
  6
Continuous
 62
     7
370
    15
100
AcDbCircle
 10
230.7437001181
 20
193.0726499691
 30
0.0
 40
1.000000000000017
100
AcDbArc
 50
270.0
 51
358.0
  0
ARC
  5
C8
330
1F
100
AcDbEntity
  8
0
  6
Continuous
 62
     7
370
    15
100
AcDbCircle
 10
234.7639684406
 20
193.0726499691
 30
0.0
 40
1.0
100
AcDbArc
 50
182.0
 51
270.0
  0
ARC
  5
C9
330
1F
100
AcDbEntity
  8
0
  6
Continuous
 62
     7
370
    15
100
AcDbCircle
 10
167.7437001181
 20
193.0726499691
 30
0.0
 40
1.000000000000017
100
AcDbArc
 50
270.0
 51
358.0
  0
LINE
  5
CA
330
1F
100
AcDbEntity
  8
0
  6
Continuous
 62
     7
370
    15
100
AcDbLine
 10
250.6694765771
 20
195.7611016357
 30
0.0
 11
250.7645757878
 21
193.0377475346
 31
0.0
  0
LINE
  5
CB
330
1F
100
AcDbEntity
  8
0
  6
Continuous
 62
     7
370
    15
100
AcDbLine
 10
208.7430911148
 20
193.0377475346
 30
0.0
 11
208.8381918157
 21
195.7611016357
 31
0.0
  0
LINE
  5
CC
330
1F
100
AcDbEntity
  8
0
  6
Continuous
 62
     7
370
    15
100
AcDbLine
 10
188.7590030218
 20
192.0726470077
 30
0.0
 11
207.7486658478
 21
192.0726470077
 31
0.0
  0
LINE
  5
CD
330
1F
100
AcDbEntity
  8
0
  6
Continuous
 62
     7
370
    15
100
AcDbLine
 10
185.7430906976
 20
193.0377475346
 30
0.0
 11
185.8381921435
 21
195.7611016357
 31
0.0
  0
LINE
  5
CE
330
1F
100
AcDbEntity
  8
0
  6
Continuous
 62
     7
370
    15
100
AcDbLine
 10
234.7639681781
 20
192.0726470077
 30
0.0
 11
247.7486642087
 21
192.0726470077
 31
0.0
  0
LINE
  5
CF
330
1F
100
AcDbEntity
  8
0
  6
Continuous
 62
     7
370
    15
100
AcDbLine
 10
187.6694763089
 20
195.7611016357
 30
0.0
 11
187.7645777548
 21
193.0377475346
 31
0.0
  0
LINE
  5
D0
330
1F
100
AcDbEntity
  8
0
  6
Continuous
 62
     7
370
    15
100
AcDbLine
 10
211.759002694
 20
192.0726470077
 30
0.0
 11
230.7437004531
 21
192.0726470077
 31
0.0
  0
LINE
  5
D1
330
1F
100
AcDbEntity
  8
0
  6
Continuous
 62
     7
370
    15
100
AcDbLine
 10
266.7403968061
 20
192.9605416382
 30
0.0
 11
266.8381901468
 21
195.7611016357
 31
0.0
  0
LINE
  5
D2
330
1F
100
AcDbEntity
  8
0
  6
Continuous
 62
     7
370
    15
100
AcDbLine
 10
152.6694746698
 20
195.7611016357
 30
0.0
 11
152.7672739709
 21
192.9605416382
 31
0.0
  0
LINE
  5
D3
330
1F
100
AcDbEntity
  8
0
  6
Continuous
 62
     7
370
    15
100
AcDbLine
 10
248.7430902208
 20
193.0377475346
 30
0.0
 11
248.838195392
 21
195.7611016357
 31
0.0
  0
LINE
  5
D4
330
1F
100
AcDbEntity
  8
0
  6
Continuous
 62
     7
370
    15
100
AcDbLine
 10
153.6820324147
 20
192.0726470077
 30
0.0
 11
167.7437009299
 21
192.0726470077
 31
0.0
  0
LINE
  5
D5
330
1F
100
AcDbEntity
  8
0
  6
Continuous
 62
     7
370
    15
100
AcDbLine
 10
171.7639686549
 20
192.0726470077
 30
0.0
 11
184.7486661757
 21
192.0726470077
 31
0.0
  0
LINE
  5
D6
330
1F
100
AcDbEntity
  8
0
  6
Continuous
 62
     7
370
    15
100
AcDbLine
 10
251.7590017999
 20
192.0726470077
 30
0.0
 11
265.8256383622
 21
192.0726470077
 31
0.0
  0
LINE
  5
D7
330
1F
100
AcDbEntity
  8
0
  6
Continuous
 62
     7
370
    15
100
AcDbLine
 10
210.6694759811
 20
195.7611016357
 30
0.0
 11
210.764578172
 21
193.0377475346
 31
0.0
  0
ELLIPSE
  5
D8
330
1F
100
AcDbEntity
  8
0
  6
Continuous
 62
     7
370
    15
100
AcDbEllipse
 10
232.2379487865
 20
195.7471416185
 30
0.0
 11
0.3229535581522497
 21
0.3118726258916524
 31
0.0
210
0.0
220
0.0
230
1.0
 40
0.7755619389
 41
0.9279666223642433
 42
2.160169074272283
  0
LINE
  5
D9
330
1F
100
AcDbEntity
  8
0
  6
Continuous
 62
     7
370
    15
100
AcDbLine
 10
231.8345220769
 20
195.6559590424
 30
0.0
 11
231.9366605962
 21
198.5808900917
 31
0.0
  0
ELLIPSE
  5
DA
330
1F
100
AcDbEntity
  8
0
  6
Continuous
 62
     7
370
    15
100
AcDbEllipse
 10
233.2697197722
 20
195.7471416185
 30
0.0
 11
0.3229535581522497
 21
-0.3118726258916524
 31
0.0
210
0.0
220
0.0
230
1.0
 40
0.7755619389
 41
0.9814235793175167
 42
2.21362603122555
  0
LINE
  5
DB
330
1F
100
AcDbEntity
  8
0
  6
Continuous
 62
     7
370
    15
100
AcDbLine
 10
233.571008035
 20
198.5808900917
 30
0.0
 11
233.6731465543
 21
195.6559590424
 31
0.0
  0
ELLIPSE
  5
DC
330
1F
100
AcDbEntity
  8
0
  6
Continuous
 62
     7
370
    15
100
AcDbEllipse
 10
170.2697197722
 20
195.7471416185
 30
0.0
 11
0.3229535581522782
 21
-0.3118726258916524
 31
0.0
210
0.0
220
0.0
230
1.0
 40
0.7755619389
 41
0.9814235793174967
 42
2.213626031225486
  0
LINE
  5
DD
330
1F
100
AcDbEntity
  8
0
  6
Continuous
 62
     7
370
    15
100
AcDbLine
 10
170.5710055316
 20
198.5808900917
 30
0.0
 11
170.6731470311
 21
195.6559590424
 31
0.0
  0
ELLIPSE
  5
DE
330
1F
100
AcDbEntity
  8
0
  6
Continuous
 62
     7
370
    15
100
AcDbEllipse
 10
169.2379487865
 20
195.7471416185
 30
0.0
 11
0.3229535581522497
 21
0.3118726258916524
 31
0.0
210
0.0
220
0.0
230
1.0
 40
0.7755619389
 41
0.9279666223642706
 42
2.160169074272257
  0
LINE
  5
DF
330
1F
100
AcDbEntity
  8
0
  6
Continuous
 62
     7
370
    15
100
AcDbLine
 10
168.8345195735
 20
195.6559590424
 30
0.0
 11
168.936661073
 21
198.5808900917
 31
0.0
  0
ARC
  5
E0
330
1F
100
AcDbEntity
  8
0
  6
Continuous
 62
     7
370
    15
100
AcDbCircle
 10
247.7437001181
 20
193.0726499691
 30
0.0
 40
1.0
100
AcDbArc
 50
270.0
 51
358.0
  0
ARC
  5
E1
330
1F
100
AcDbEntity
  8
0
  6
Continuous
 62
     7
370
    15
100
AcDbCircle
 10
153.6867133386
 20
192.9926499691
 30
0.0
 40
0.9200000000000159
100
AcDbArc
 50
182.0
 51
270.0
  0
ARC
  5
E2
330
1F
100
AcDbEntity
  8
0
  6
Continuous
 62
     7
370
    15
100
AcDbCircle
 10
188.7639684406
 20
193.0726499691
 30
0.0
 40
1.000000000000017
100
AcDbArc
 50
182.0
 51
270.0
  0
ARC
  5
E3
330
1F
100
AcDbEntity
  8
0
  6
Continuous
 62
     7
370
    15
100
AcDbCircle
 10
207.7437001181
 20
193.0726499691
 30
0.0
 40
1.000000000000016
100
AcDbArc
 50
270.0
 51
358.0
  0
ARC
  5
E4
330
1F
100
AcDbEntity
  8
0
  6
Continuous
 62
     7
370
    15
100
AcDbCircle
 10
211.7639684406
 20
193.0726499691
 30
0.0
 40
1.000000000000017
100
AcDbArc
 50
182.0
 51
270.0
  0
ARC
  5
E5
330
1F
100
AcDbEntity
  8
0
  6
Continuous
 62
     7
370
    15
100
AcDbCircle
 10
265.8209552201
 20
192.9926499691
 30
0.0
 40
0.9200000000000159
100
AcDbArc
 50
270.0
 51
358.0
  0
ARC
  5
E6
330
1F
100
AcDbEntity
  8
0
  6
Continuous
 62
     7
370
    15
100
AcDbCircle
 10
251.7639684406
 20
193.0726499691
 30
0.0
 40
1.000000000000017
100
AcDbArc
 50
182.0
 51
270.0
  0
ARC
  5
E7
330
1F
100
AcDbEntity
  8
0
  6
Continuous
 62
     7
370
    15
100
AcDbCircle
 10
184.7437001181
 20
193.0726499691
 30
0.0
 40
1.0
100
AcDbArc
 50
270.0
 51
358.0
  0
LINE
  5
E8
330
1F
100
AcDbEntity
  8
0
  6
Continuous
 62
     7
370
    15
100
AcDbLine
 10
266.8381901468
 20
195.7611016357
 30
0.0
 11
266.9366629804
 21
198.5808900917
 31
0.0
  0
LINE
  5
E9
330
1F
100
AcDbEntity
  8
0
  6
Continuous
 62
     7
370
    15
100
AcDbLine
 10
250.5710097039
 20
198.5808900917
 30
0.0
 11
250.6694765771
 21
195.7611016357
 31
0.0
  0
LINE
  5
EA
330
1F
100
AcDbEntity
  8
0
  6
Continuous
 62
     7
370
    15
100
AcDbLine
 10
187.5710072005
 20
198.5808900917
 30
0.0
 11
187.6694763089
 21
195.7611016357
 31
0.0
  0
LINE
  5
EB
330
1F
100
AcDbEntity
  8
0
  6
Continuous
 62
     7
370
    15
100
AcDbLine
 10
268.6201425279
 20
198.6017934406
 30
0.0
 11
268.8668401921
 21
195.7820049847
 31
0.0
  0
LINE
  5
EC
330
1F
100
AcDbEntity
  8
0
  6
Continuous
 62
     7
370
    15
100
AcDbLine
 10
185.8381921435
 20
195.7611016357
 30
0.0
 11
185.9366619969
 21
198.5808900917
 31
0.0
  0
LINE
  5
ED
330
1F
100
AcDbEntity
  8
0
  6
Continuous
 62
     7
370
    15
100
AcDbLine
 10
248.838195392
 20
195.7611016357
 30
0.0
 11
248.9366622651
 21
198.5808900917
 31
0.0
  0
LINE
  5
EE
330
1F
100
AcDbEntity
  8
0
  6
Continuous
 62
     7
370
    15
100
AcDbLine
 10
210.5710061277
 20
198.5808900917
 30
0.0
 11
210.6694759811
 21
195.7611016357
 31
0.0
  0
LINE
  5
EF
330
1F
100
AcDbEntity
  8
0
  6
Continuous
 62
     7
370
    15
100
AcDbLine
 10
208.8381918157
 20
195.7611016357
 30
0.0
 11
208.9366616691
 21
198.5808900917
 31
0.0
  0
LINE
  5
F0
330
1F
100
AcDbEntity
  8
0
  6
Continuous
 62
     7
370
    15
100
AcDbLine
 10
152.5710077966
 20
198.5808900917
 30
0.0
 11
152.6694746698
 21
195.7611016357
 31
0.0
  0
LINE
  5
F1
330
1F
100
AcDbEntity
  8
0
  6
Continuous
 62
     7
370
    15
100
AcDbLine
 10
150.6408276046
 20
195.7820049847
 30
0.0
 11
150.8875252689
 21
198.6017934406
 31
0.0
  0
LINE
  5
F2
330
1F
100
AcDbEntity
  8
0
  6
Continuous
 62
     7
370
    15
100
AcDbLine
 10
289.7538336003
 20
145.5597943986
 30
0.0
 11
289.7538336003
 21
147.3855055297
 31
0.0
  0
LINE
  5
F3
330
1F
100
AcDbEntity
  8
0
  6
Continuous
 62
     7
370
    15
100
AcDbLine
 10
129.7538371766
 20
145.5597943986
 30
0.0
 11
129.7538371766
 21
147.3855055297
 31
0.0
  0
LINE
  5
F4
330
1F
100
AcDbEntity
  8
0
  6
Continuous
 62
     7
370
    15
100
AcDbLine
 10
289.7538336003
 20
136.7197945142
 30
0.0
 11
289.7538336003
 21
145.5597943986
 31
0.0
  0
LINE
  5
F5
330
1F
100
AcDbEntity
  8
0
  6
Continuous
 62
     7
370
    15
100
AcDbLine
 10
129.7538371766
 20
136.7197945142
 30
0.0
 11
129.7538371766
 21
145.5597943986
 31
0.0
  0
LINE
  5
F6
330
1F
100
AcDbEntity
  8
0
  6
Continuous
 62
     7
370
    15
100
AcDbLine
 10
289.7538336003
 20
147.3855055297
 30
0.0
 11
289.7538336003
 21
171.3640383804
 31
0.0
  0
LINE
  5
F7
330
1F
100
AcDbEntity
  8
0
  6
Continuous
 62
     7
370
    15
100
AcDbLine
 10
129.7538371766
 20
147.3855055297
 30
0.0
 11
129.7538371766
 21
171.3640383804
 31
0.0
  0
LINE
  5
F8
330
1F
100
AcDbEntity
  8
0
  6
Continuous
 62
     7
370
    15
100
AcDbLine
 10
289.7538336003
 20
135.4726500237
 30
0.0
 11
129.7538371766
 21
135.4726500237
 31
0.0
  0
LINE
  5
F9
330
1F
100
AcDbEntity
  8
0
  6
Continuous
 62
     7
370
    15
100
AcDbLine
 10
129.7538371766
 20
135.4726500237
 30
0.0
 11
129.7538371766
 21
136.7197945142
 31
0.0
  0
LINE
  5
FA
330
1F
100
AcDbEntity
  8
0
  6
Continuous
 62
     7
370
    15
100
AcDbLine
 10
289.7538336003
 20
135.4726500237
 30
0.0
 11
289.7538336003
 21
136.7197945142
 31
0.0
  0
LINE
  5
FB
330
1F
100
AcDbEntity
  8
0
  6
Continuous
 62
     7
370
    15
100
AcDbLine
 10
129.7538371766
 20
172.8753767336
 30
0.0
 11
129.7538371766
 21
173.0203858936
 31
0.0
  0
LINE
  5
FC
330
1F
100
AcDbEntity
  8
0
  6
Continuous
 62
     7
370
    15
100
AcDbLine
 10
129.7538371766
 20
173.0203858936
 30
0.0
 11
129.7564001764
 21
173.039498123
 31
0.0
  0
ARC
  5
FD
330
1F
100
AcDbEntity
  8
0
  6
Continuous
 62
     7
370
    15
100
AcDbCircle
 10
129.8715443909
 20
172.8614075865
 30
0.0
 40
0.1185332247197352
100
AcDbArc
 50
117.0312968648
 51
173.231960635
  0
LINE
  5
FE
330
1F
100
AcDbEntity
  8
0
  6
Continuous
 62
     7
370
    15
100
AcDbLine
 10
289.7512706006
 20
173.0395011032
 30
0.0
 11
289.7538336003
 21
173.0203858936
 31
0.0
  0
LINE
  5
FF
330
1F
100
AcDbEntity
  8
0
  6
Continuous
 62
     7
370
    15
100
AcDbLine
 10
289.7538336003
 20
173.0203858936
 30
0.0
 11
289.7538336003
 21
172.8753767336
 31
0.0
  0
ARC
  5
100
330
1F
100
AcDbEntity
  8
0
  6
Continuous
 62
     7
370
    15
100
AcDbCircle
 10
289.6361263861
 20
172.8614075865
 30
0.0
 40
0.1185332247200416
100
AcDbArc
 50
6.7680393651
 51
62.9687031351
  0
LINE
  5
101
330
1F
100
AcDbEntity
  8
0
  6
Continuous
 62
     7
370
    15
100
AcDbLine
 10
289.7538336003
 20
171.6962716902
 30
0.0
 11
289.7538336003
 21
172.8753767336
 31
0.0
  0
LINE
  5
102
330
1F
100
AcDbEntity
  8
0
  6
Continuous
 62
     7
370
    15
100
AcDbLine
 10
129.7538371766
 20
171.6962716902
 30
0.0
 11
129.7538371766
 21
172.8753767336
 31
0.0
  0
LWPOLYLINE
  5
103
330
1F
100
AcDbEntity
  8
0
  6
Continuous
 62
     7
370
    15
100
AcDbPolyline
 90
       18
 70
   128
 43
0.0
 10
131.9538326944
 20
172.3048410738
 10
132.1525188173
 20
172.320537957
 10
132.3243649686
 20
172.3655066812
 10
132.4461730207
 20
172.4336735332
 10
132.501486131
 20
172.5158355558
 10
132.4828358377
 20
172.6008913839
 10
132.3927434171
 20
172.6773581827
 10
132.2433741773
 20
172.7349064672
 10
132.05489833
 20
172.7657637918
 10
131.8527730191
 20
172.7657637918
 10
131.6642971719
 20
172.7349064672
 10
131.5149219716
 20
172.6773581827
 10
131.424829551
 20
172.6008913839
 10
131.4061792577
 20
172.5158355558
 10
131.461492368
 20
172.4336735332
 10
131.5833004201
 20
172.3655066812
 10
131.7551525319
 20
172.320537957
 10
131.9538326944
 20
172.3048410738
  0
LWPOLYLINE
  5
104
330
1F
100
AcDbEntity
  8
0
  6
Continuous
 62
     7
370
    15
100
AcDbPolyline
 90
       18
 70
   128
 43
0.0
 10
287.5538321222
 20
172.7697215403
 10
287.3551519597
 20
172.7540246571
 10
287.1832998479
 20
172.7090559328
 10
287.0614917958
 20
172.6408890808
 10
287.0061786855
 20
172.5587270582
 10
287.0248289788
 20
172.4736712301
 10
287.1149273599
 20
172.3972044313
 10
287.2642965997
 20
172.3396561468
 10
287.4527724469
 20
172.3087988222
 10
287.6548977578
 20
172.3087988222
 10
287.8433736051
 20
172.3396561468
 10
287.9927428449
 20
172.3972044313
 10
288.0828412259
 20
172.4736712301
 10
288.1014855588
 20
172.5587270582
 10
288.0461724485
 20
172.6408890808
 10
287.9243643964
 20
172.7090559328
 10
287.752518245
 20
172.7540246571
 10
287.5538321222
 20
172.7697215403
  0
ARC
  5
105
330
1F
100
AcDbEntity
  8
0
  6
Continuous
 62
     7
370
    15
100
AcDbCircle
 10
287.5538351024
 20
173.2829853015
 30
0.0
 40
0.852211929402045
100
AcDbArc
 50
232.1804105463
 51
307.8195894537
  0
ARC
  5
106
330
1F
100
AcDbEntity
  8
0
  6
Continuous
 62
     7
370
    15
100
AcDbCircle
 10
132.0354001399
 20
173.1169998051
 30
0.0
 40
0.6721173994473187
100
AcDbArc
 50
263.0294634758
 51
311.004941565
  0
ARC
  5
107
330
1F
100
AcDbEntity
  8
0
  6
Continuous
 62
     7
370
    15
100
AcDbCircle
 10
131.872256052
 20
173.1169533214
 30
0.0
 40
0.6720723756146402
100
AcDbArc
 50
228.9934334743
 51
276.9717957055
  0
LINE
  5
108
330
1F
100
AcDbEntity
  8
0
  6
Continuous
 62
     7
370
    15
100
AcDbLine
 10
129.7538371766
 20
171.3640383804
 30
0.0
 11
129.7538371766
 21
171.6962716902
 31
0.0
  0
LINE
  5
109
330
1F
100
AcDbEntity
  8
0
  6
Continuous
 62
     7
370
    15
100
AcDbLine
 10
289.7538336003
 20
171.3640383804
 30
0.0
 11
289.7538336003
 21
171.6962716902
 31
0.0
  0
SPLINE
  5
10A
330
1F
100
AcDbEntity
  8
0
  6
Continuous
 62
     7
370
    15
100
AcDbSpline
210
0.0
220
0.0
230
1.0
 70
     8
 71
     3
 72
     9
 73
     5
 74
     0
 42
0.00000001
 43
0.00000001
 12
1.0
 22
0.0
 32
0.0
 13
1.0
 23
0.0
 33
0.0
 40
0.0
 40
0.0
 40
0.0
 40
0.0
 40
0.5000303501464187
 40
1.0
 40
1.0
 40
1.0
 40
1.0
 10
183.1878276551433
 20
149.297159853024
 30
0.0
 10
183.1932140690741
 20
149.2387683239939
 30
0.0
 10
183.2039862430618
 20
149.1219923542693
 30
0.0
 10
183.2712133527989
 20
149.0190499886812
 30
0.0
 10
183.3048248673149
 20
148.967581930203
 30
0.0
  0
SPLINE
  5
10B
330
1F
100
AcDbEntity
  8
0
  6
Continuous
 62
     7
370
    15
100
AcDbSpline
210
0.0
220
0.0
230
1.0
 70
     8
 71
     3
 72
    20
 73
    16
 74
     0
 42
0.00000001
 43
0.00000001
 12
1.0
 22
0.0
 32
0.0
 13
1.0
 23
0.0
 33
0.0
 40
0.0
 40
0.0
 40
0.0
 40
0.0
 40
0.1249012278972804
 40
0.2498485390551133
 40
0.3748437476873308
 40
0.4998486956330486
 40
0.6248536772601696
 40
0.7498486777020517
 40
0.8747929740446704
 40
0.9374038225520325
 40
0.9686856672450469
 40
0.9843388908726491
 40
0.9952055081584557
 40
0.9983674213845917
 40
1.0
 40
1.0
 40
1.0
 40
1.0
 10
183.3048248673149
 20
148.967581930203
 30
0.0
 10
183.3954979154384
 20
148.8643561339425
 30
0.0
 10
183.5768774661981
 20
148.6578664554768
 30
0.0
 10
183.9357405407598
 20
148.4261287167857
 30
0.0
 10
184.3324588451109
 20
148.2806250952677
 30
0.0
 10
184.7539294952088
 20
148.2328601284789
 30
0.0
 10
185.1749338580477
 20
148.2808023985072
 30
0.0
 10
185.5730415272675
 20
148.425462866185
 30
0.0
 10
185.8680122620388
 20
148.6213482684162
 30
0.0
 10
186.047036526924
 20
148.786177343358
 30
0.0
 10
186.1271007357494
 20
148.8757655724103
 30
0.0
 10
186.1672816364112
 20
148.9241727860216
 30
0.0
 10
186.1877104800365
 20
148.9490625969795
 30
0.0
 10
186.1984423760456
 20
148.9621962214388
 30
0.0
 10
186.2017256743405
 20
148.9662138741009
 30
0.0
 10
186.2028436744876
 20
148.967581930203
 30
0.0
  0
SPLINE
  5
10C
330
1F
100
AcDbEntity
  8
0
  6
Continuous
 62
     7
370
    15
100
AcDbSpline
210
0.0
220
0.0
230
1.0
 70
     8
 71
     3
 72
     9
 73
     5
 74
     0
 42
0.00000001
 43
0.00000001
 12
1.0
 22
0.0
 32
0.0
 13
1.0
 23
0.0
 33
0.0
 40
0.0
 40
0.0
 40
0.0
 40
0.0
 40
0.4995034851813093
 40
1.0
 40
1.0
 40
1.0
 40
1.0
 10
186.2028436744876
 20
148.967581930203
 30
0.0
 10
186.2364275765662
 20
149.0189991398167
 30
0.0
 10
186.3036621466439
 20
149.1219357781768
 30
0.0
 10
186.314444404287
 20
149.2387131736034
 30
0.0
 10
186.3198408866592
 20
149.297159853024
 30
0.0
  0
LINE
  5
10D
330
1F
100
AcDbEntity
  8
0
  6
Continuous
 62
     7
370
    15
100
AcDbLine
 10
186.3198408867
 20
149.297159853
 30
0.0
 11
186.3198408867
 21
149.3152886057
 31
0.0
  0
LINE
  5
10E
330
1F
100
AcDbEntity
  8
0
  6
Continuous
 62
     7
370
    15
100
AcDbLine
 10
183.1878276551
 20
149.3152886057
 30
0.0
 11
183.1878276551
 21
149.297159853
 31
0.0
  0
SPLINE
  5
10F
330
1F
100
AcDbEntity
  8
0
  6
Continuous
 62
     7
370
    15
100
AcDbSpline
210
0.0
220
0.0
230
1.0
 70
     8
 71
     3
 72
    13
 73
     9
 74
     0
 42
0.00000001
 43
0.00000001
 12
1.0
 22
0.0
 32
0.0
 13
1.0
 23
0.0
 33
0.0
 40
0.0
 40
0.0
 40
0.0
 40
0.0
 40
0.0307398744124306
 40
0.2652349846112776
 40
0.5002295231331683
 40
0.7352241882872276
 40
0.9697187993271361
 40
1.0
 40
1.0
 40
1.0
 40
1.0
 10
183.8958712304302
 20
148.4708070183225
 30
0.0
 10
183.9111359338036
 20
148.4606848548287
 30
0.0
 10
184.0428454297511
 20
148.3733470914248
 30
0.0
 10
184.3360415701121
 20
148.2897267706842
 30
0.0
 10
184.7538555991908
 20
148.2348182693625
 30
0.0
 10
185.1716468822163
 20
148.2897565371054
 30
0.0
 10
185.4646175596481
 20
148.3732260670181
 30
0.0
 10
185.5961028031943
 20
148.460403997695
 30
0.0
 10
185.6111401701637
 20
148.4703741395898
 30
0.0
  0
SPLINE
  5
110
330
1F
100
AcDbEntity
  8
0
  6
Continuous
 62
     7
370
    15
100
AcDbSpline
210
0.0
220
0.0
230
1.0
 70
     8
 71
     3
 72
     9
 73
     5
 74
     0
 42
0.00000001
 43
0.00000001
 12
1.0
 22
0.0
 32
0.0
 13
1.0
 23
0.0
 33
0.0
 40
0.0
 40
0.0
 40
0.0
 40
0.0
 40
0.4999662626773057
 40
1.0
 40
1.0
 40
1.0
 40
1.0
 10
183.4658259535499
 20
149.0723043108411
 30
0.0
 10
183.4434204900499
 20
149.1058528122328
 30
0.0
 10
183.3986065392445
 20
149.1729543426682
 30
0.0
 10
183.3914210483309
 20
149.2501688408228
 30
0.0
 10
183.3878280604549
 20
149.2887786949105
 30
0.0
  0
SPLINE
  5
111
330
1F
100
AcDbEntity
  8
0
  6
Continuous
 62
     7
370
    15
100
AcDbSpline
210
0.0
220
0.0
230
1.0
 70
     8
 71
     3
 72
    11
 73
     7
 74
     0
 42
0.00000001
 43
0.00000001
 12
1.0
 22
0.0
 32
0.0
 13
1.0
 23
0.0
 33
0.0
 40
0.0
 40
0.0
 40
0.0
 40
0.0
 40
0.2906883914205974
 40
0.5815764515248225
 40
0.8731197819642833
 40
1.0
 40
1.0
 40
1.0
 40
1.0
 10
186.0418425882526
 20
149.0723043108411
 30
0.0
 10
185.9614307099644
 20
148.9824677156062
 30
0.0
 10
185.8005517198999
 20
148.8027328179778
 30
0.0
 10
185.4810298809999
 20
148.6063332470871
 30
0.0
 10
185.19608620631
 20
148.4911633711423
 30
0.0
 10
185.0178023196812
 20
148.4761151942404
 30
0.0
 10
184.9637405956455
 20
148.4715520763822
 30
0.0
  0
SPLINE
  5
112
330
1F
100
AcDbEntity
  8
0
  6
Continuous
 62
     7
370
    15
100
AcDbSpline
210
0.0
220
0.0
230
1.0
 70
     8
 71
     3
 72
    11
 73
     7
 74
     0
 42
0.00000001
 43
0.00000001
 12
1.0
 22
0.0
 32
0.0
 13
1.0
 23
0.0
 33
0.0
 40
0.0
 40
0.0
 40
0.0
 40
0.0
 40
0.1266480105176405
 40
0.41827259376906
 40
0.7092350506742188
 40
1.0
 40
1.0
 40
1.0
 40
1.0
 10
184.5435770238109
 20
148.4715923095174
 30
0.0
 10
184.4896299947572
 20
148.476148608036
 30
0.0
 10
184.3114624603743
 20
148.4911964148796
 30
0.0
 10
184.026628479457
 20
148.6063346237214
 30
0.0
 10
183.7071377251314
 20
148.8027633018495
 30
0.0
 10
183.5462450020249
 20
148.9824776466628
 30
0.0
 10
183.4658259535499
 20
149.0723043108411
 30
0.0
  0
SPLINE
  5
113
330
1F
100
AcDbEntity
  8
0
  6
Continuous
 62
     7
370
    15
100
AcDbSpline
210
0.0
220
0.0
230
1.0
 70
     8
 71
     3
 72
     9
 73
     5
 74
     0
 42
0.00000001
 43
0.00000001
 12
1.0
 22
0.0
 32
0.0
 13
1.0
 23
0.0
 33
0.0
 40
0.0
 40
0.0
 40
0.0
 40
0.0
 40
0.5000337373226944
 40
1.0
 40
1.0
 40
1.0
 40
1.0
 10
186.1198404813476
 20
149.2887786949105
 30
0.0
 10
186.1162474934716
 20
149.2501688408228
 30
0.0
 10
186.1090620025579
 20
149.1729543426682
 30
0.0
 10
186.0642480517526
 20
149.1058528122328
 30
0.0
 10
186.0418425882526
 20
149.0723043108411
 30
0.0
  0
ARC
  5
114
330
1F
100
AcDbEntity
  8
0
  6
Continuous
 62
     7
370
    15
100
AcDbCircle
 10
184.7538338984
 20
150.8295761895
 30
0.0
 40
3.238712681892181
100
AcDbArc
 50
235.2478836768
 51
304.7521163232
  0
SPLINE
  5
115
330
1F
100
AcDbEntity
  8
0
  6
Continuous
 62
     7
370
    15
100
AcDbSpline
210
0.0
220
0.0
230
1.0
 70
     8
 71
     3
 72
     9
 73
     5
 74
     0
 42
0.00000001
 43
0.00000001
 12
1.0
 22
0.0
 32
0.0
 13
1.0
 23
0.0
 33
0.0
 40
0.0
 40
0.0
 40
0.0
 40
0.0
 40
0.4999931625858383
 40
1.0
 40
1.0
 40
1.0
 40
1.0
 10
186.1198404813476
 20
149.297159853024
 30
0.0
 10
186.1162464570797
 20
149.2583942571877
 30
0.0
 10
186.1090583102471
 20
149.1808620052749
 30
0.0
 10
186.064248033175
 20
149.1133761106551
 30
0.0
 10
186.0418425882526
 20
149.0796327019162
 30
0.0
  0
SPLINE
  5
116
330
1F
100
AcDbEntity
  8
0
  6
Continuous
 62
     7
370
    15
100
AcDbSpline
210
0.0
220
0.0
230
1.0
 70
     8
 71
     3
 72
    15
 73
    11
 74
     0
 42
0.00000001
 43
0.00000001
 12
1.0
 22
0.0
 32
0.0
 13
1.0
 23
0.0
 33
0.0
 40
0.0
 40
0.0
 40
0.0
 40
0.0
 40
0.1249655547105916
 40
0.2499531111624046
 40
0.3749749828571367
 40
0.5000028948047498
 40
0.6250306752666214
 40
0.7500521848357199
 40
0.8750367005257573
 40
0.9999999999999999
 40
0.9999999999999999
 40
0.9999999999999999
 40
0.9999999999999999
 10
186.0418425882526
 20
149.0796327019162
 30
0.0
 10
185.9613994015649
 20
148.9893886137116
 30
0.0
 10
185.8004988651653
 20
148.8088845487073
 30
0.0
 10
185.4817859620292
 20
148.6059073245354
 30
0.0
 10
185.1285605564391
 20
148.4762280499497
 30
0.0
 10
184.7538283679283
 20
148.4324428372858
 30
0.0
 10
184.3790992195747
 20
148.4762326906251
 30
0.0
 10
184.0258712171347
 20
148.6059053135328
 30
0.0
 10
183.7071910580387
 20
148.8089157308315
 30
0.0
 10
183.5462764354299
 20
148.9893988181781
 30
0.0
 10
183.4658259535499
 20
149.0796327019162
 30
0.0
  0
SPLINE
  5
117
330
1F
100
AcDbEntity
  8
0
  6
Continuous
 62
     7
370
    15
100
AcDbSpline
210
0.0
220
0.0
230
1.0
 70
     8
 71
     3
 72
     9
 73
     5
 74
     0
 42
0.00000001
 43
0.00000001
 12
1.0
 22
0.0
 32
0.0
 13
1.0
 23
0.0
 33
0.0
 40
0.0
 40
0.0
 40
0.0
 40
0.0
 40
0.5000068374141617
 40
1.0
 40
1.0
 40
1.0
 40
1.0
 10
183.4658259535499
 20
149.0796327019162
 30
0.0
 10
183.4434205086274
 20
149.1133761106551
 30
0.0
 10
183.3986102315554
 20
149.1808620052749
 30
0.0
 10
183.3914220847228
 20
149.2583942571877
 30
0.0
 10
183.3878280604549
 20
149.297159853024
 30
0.0
  0
LINE
  5
118
330
1F
100
AcDbEntity
  8
0
  6
Continuous
 62
     7
370
    15
100
AcDbLine
 10
183.3878280605
 20
149.297159853
 30
0.0
 11
183.3878280605
 21
149.3152886057
 31
0.0
  0
LINE
  5
119
330
1F
100
AcDbEntity
  8
0
  6
Continuous
 62
     7
370
    15
100
AcDbLine
 10
186.1198404813
 20
149.3152886057
 30
0.0
 11
186.1198404813
 21
149.297159853
 31
0.0
  0
LINE
  5
11A
330
1F
100
AcDbEntity
  8
0
  6
Continuous
 62
     7
370
    15
100
AcDbLine
 10
183.4658259535
 20
149.0723043108
 30
0.0
 11
183.4658259535
 21
149.0796327019
 31
0.0
  0
LINE
  5
11B
330
1F
100
AcDbEntity
  8
0
  6
Continuous
 62
     7
370
    15
100
AcDbLine
 10
186.0418425883
 20
149.0723043108
 30
0.0
 11
186.0418425883
 21
149.0796327019
 31
0.0
  0
LINE
  5
11C
330
1F
100
AcDbEntity
  8
0
  6
Continuous
 62
     7
370
    15
100
AcDbLine
 10
186.1198404813
 20
149.2887786949
 30
0.0
 11
186.1198404813
 21
149.297159853
 31
0.0
  0
LINE
  5
11D
330
1F
100
AcDbEntity
  8
0
  6
Continuous
 62
     7
370
    15
100
AcDbLine
 10
183.3878280605
 20
149.2887786949
 30
0.0
 11
183.3878280605
 21
149.297159853
 31
0.0
  0
LINE
  5
11E
330
1F
100
AcDbEntity
  8
0
  6
Continuous
 62
     7
370
    15
100
AcDbLine
 10
186.3198408867
 20
166.0572744334
 30
0.0
 11
186.3198408867
 21
167.5601414764
 31
0.0
  0
LINE
  5
11F
330
1F
100
AcDbEntity
  8
0
  6
Continuous
 62
     7
370
    15
100
AcDbLine
 10
186.3211268569
 20
149.3143662239
 30
0.0
 11
186.3211268569
 21
154.5276872242
 31
0.0
  0
LINE
  5
120
330
1F
100
AcDbEntity
  8
0
  6
Continuous
 62
     7
370
    15
100
AcDbLine
 10
183.1865416849
 20
154.5276872242
 30
0.0
 11
183.1865416849
 21
149.3143662239
 31
0.0
  0
LINE
  5
121
330
1F
100
AcDbEntity
  8
0
  6
Continuous
 62
     7
370
    15
100
AcDbLine
 10
183.1865416849
 20
167.5614915216
 30
0.0
 11
183.1865416849
 21
166.0569406474
 31
0.0
  0
LINE
  5
122
330
1F
100
AcDbEntity
  8
0
  6
Continuous
 62
     7
370
    15
100
AcDbLine
 10
183.3878280605
 20
149.3157170141
 30
0.0
 11
183.3878280605
 21
154.4854305113
 31
0.0
  0
LWPOLYLINE
  5
123
330
1F
100
AcDbEntity
  8
0
  6
Continuous
 62
     7
370
    15
100
AcDbPolyline
 90
       26
 70
   128
 43
0.0
 10
184.7538346434
 20
150.5141093755
 10
185.0522624338
 20
150.5482769931
 10
185.331938603
 20
150.6486340785
 10
185.5752909566
 20
150.8088744605
 10
185.7670279229
 20
151.0189294243
 10
185.8951019133
 20
151.2656010116
 10
185.9514663006
 20
151.5333897794
 10
185.9325790787
 20
151.8054685915
 10
185.8396263803
 20
152.0647428358
 10
185.6784502054
 20
152.2949210728
 10
185.4591766382
 20
152.4815409804
 10
185.1955840374
 20
152.6128745997
 10
184.9042342985
 20
152.6806719029
 10
184.6034342433
 20
152.6806719029
 10
184.3120845044
 20
152.6128745997
 10
184.0484919036
 20
152.4815409804
 10
183.8292183364
 20
152.2949210728
 10
183.6680421615
 20
152.0647428358
 10
183.5750894631
 20
151.8054685915
 10
183.5562022412
 20
151.5333897794
 10
183.6125666285
 20
151.2656010116
 10
183.7406406189
 20
151.0189294243
 10
183.9323775852
 20
150.8088744605
 10
184.1757299388
 20
150.6486340785
 10
184.455406108
 20
150.5482769931
 10
184.7538346434
 20
150.5141093755
  0
LINE
  5
124
330
1F
100
AcDbEntity
  8
0
  6
Continuous
 62
     7
370
    15
100
AcDbLine
 10
186.1198404813
 20
154.4854305113
 30
0.0
 11
186.1198404813
 21
149.3157170141
 31
0.0
  0
LINE
  5
125
330
1F
100
AcDbEntity
  8
0
  6
Continuous
 62
     7
370
    15
100
AcDbLine
 10
186.3211268569
 20
149.3059135402
 30
0.0
 11
186.3211268569
 21
149.3143662239
 31
0.0
  0
ARC
  5
126
330
1F
100
AcDbEntity
  8
0
  6
Continuous
 62
     7
370
    15
100
AcDbCircle
 10
186.4021050054
 20
148.4593951644
 30
0.0
 40
0.35176589321824
100
AcDbArc
 50
304.2317449923
 51
359.1726590062
  0
ARC
  5
127
330
1F
100
AcDbEntity
  8
0
  6
Continuous
 62
     7
370
    15
100
AcDbCircle
 10
183.105561289
 20
148.4593934385
 30
0.0
 40
0.3517636212041732
100
AcDbArc
 50
180.827065191
 51
235.7682991716
  0
LINE
  5
128
330
1F
100
AcDbEntity
  8
0
  6
Continuous
 62
     7
370
    15
100
AcDbLine
 10
182.7538343156
 20
153.9980209792
 30
0.0
 11
182.7538343156
 21
148.4543159032
 31
0.0
  0
LINE
  5
129
330
1F
100
AcDbEntity
  8
0
  6
Continuous
 62
     7
370
    15
100
AcDbLine
 10
186.7538342262
 20
148.4543159032
 30
0.0
 11
186.7538342262
 21
153.9980209792
 31
0.0
  0
LWPOLYLINE
  5
12A
330
1F
100
AcDbEntity
  8
0
  6
Continuous
 62
     7
370
    15
100
AcDbPolyline
 90
       14
 70
   128
 43
0.0
 10
185.9538340951
 20
151.5932261372
 10
185.9325790787
 20
151.7970166529
 10
185.8396263803
 20
152.0562908972
 10
185.6784502054
 20
152.2864691341
 10
185.4591766382
 20
152.4730882967
 10
185.1955840374
 20
152.6044226611
 10
184.9042342985
 20
152.6722199643
 10
184.6034342433
 20
152.6722199643
 10
184.3120845044
 20
152.6044226611
 10
184.0484919036
 20
152.4730882967
 10
183.8292183364
 20
152.2864691341
 10
183.6680421615
 20
152.0562908972
 10
183.5750894631
 20
151.7970166529
 10
183.5538344467
 20
151.5932261372
  0
ARC
  5
12B
330
1F
100
AcDbEntity
  8
0
  6
Continuous
 62
     7
370
    15
100
AcDbCircle
 10
184.7858004666
 20
151.6170768431
 30
0.0
 40
0.568534405962298
100
AcDbArc
 50
266.7768474788
 51
357.5956671687
  0
ARC
  5
12C
330
1F
100
AcDbEntity
  8
0
  6
Continuous
 62
     7
370
    15
100
AcDbCircle
 10
184.7262377532
 20
151.6218982122
 30
0.0
 40
0.5731212323830703
100
AcDbArc
 50
182.867586866
 51
272.7599692914
  0
LWPOLYLINE
  5
12D
330
1F
100
AcDbEntity
  8
0
  6
Continuous
 62
     7
370
    15
100
AcDbPolyline
 90
       19
 70
   128
 43
0.0
 10
184.7538346434
 20
151.0578937257
 10
184.9590467299
 20
151.0906882012
 10
185.1395064974
 20
151.1851153696
 10
185.2734493101
 20
151.3297862733
 10
185.3447185839
 20
151.5072516525
 10
185.3447185839
 20
151.6961059893
 10
185.2734493101
 20
151.8735706234
 10
185.1395064974
 20
152.0182415271
 10
184.9590467299
 20
152.1126686955
 10
184.7538346434
 20
152.145463171
 10
184.548622557
 20
152.1126686955
 10
184.3681620444
 20
152.0182415271
 10
184.2342192317
 20
151.8735706234
 10
184.1629499579
 20
151.6961059893
 10
184.1629499579
 20
151.5072516525
 10
184.2342192317
 20
151.3297862733
 10
184.3681620444
 20
151.1851153696
 10
184.548622557
 20
151.0906882012
 10
184.7538346434
 20
151.0578937257
  0
SPLINE
  5
12E
330
1F
100
AcDbEntity
  8
0
  6
Continuous
 62
     7
370
    15
100
AcDbSpline
210
0.0
220
0.0
230
1.0
 70
     8
 71
     3
 72
    11
 73
     7
 74
     0
 42
0.00000001
 43
0.00000001
 12
1.0
 22
0.0
 32
0.0
 13
1.0
 23
0.0
 33
0.0
 40
0.0
 40
0.0
 40
0.0
 40
0.0
 40
0.2842291253984238
 40
0.5684737632357006
 40
0.8525192777678378
 40
1.0
 40
1.0
 40
1.0
 40
1.0
 10
187.0035128677555
 20
154.3336353624291
 30
0.0
 10
186.9634897555514
 20
154.3146599238465
 30
0.0
 10
186.8834413467927
 20
154.2767080110542
 30
0.0
 10
186.7988946568713
 20
154.1782758331584
 30
0.0
 10
186.7585908692238
 20
154.0806844290035
 30
0.0
 10
186.7550458060207
 20
154.0190764520116
 30
0.0
 10
186.7538342261978
 20
153.9980209792085
 30
0.0
  0
SPLINE
  5
12F
330
1F
100
AcDbEntity
  8
0
  6
Continuous
 62
     7
370
    15
100
AcDbSpline
210
0.0
220
0.0
230
1.0
 70
     8
 71
     3
 72
    11
 73
     7
 74
     0
 42
0.00000001
 43
0.00000001
 12
1.0
 22
0.0
 32
0.0
 13
1.0
 23
0.0
 33
0.0
 40
0.0
 40
0.0
 40
0.0
 40
0.0
 40
0.2842285969153563
 40
0.5684681129184159
 40
0.8525120086600326
 40
1.0
 40
1.0
 40
1.0
 40
1.0
 10
182.7538343156047
 20
153.9980209792085
 30
0.0
 10
182.7494308595868
 20
154.0387626744931
 30
0.0
 10
182.7406237783853
 20
154.1202476302184
 30
0.0
 10
182.6716393854486
 20
154.2281912192645
 30
0.0
 10
182.5869272292046
 20
154.2986455292111
 30
0.0
 10
182.5252386961485
 20
154.3247227492167
 30
0.0
 10
182.504154928989
 20
154.3336353624291
 30
0.0
  0
ARC
  5
130
330
1F
100
AcDbEntity
  8
0
  6
Continuous
 62
     7
370
    15
100
AcDbCircle
 10
184.4548281645
 20
159.8329006993
 30
0.0
 40
5.834984602981311
100
AcDbArc
 50
210.633039494
 51
250.4696283717
  0
ARC
  5
131
330
1F
100
AcDbEntity
  8
0
  6
Continuous
 62
     7
370
    15
100
AcDbCircle
 10
185.0927698463
 20
159.7843744266
 30
0.0
 40
5.77594106966069
100
AcDbArc
 50
289.3179881446
 51
329.5793303449
  0
LINE
  5
132
330
1F
100
AcDbEntity
  8
0
  6
Continuous
 62
     7
370
    15
100
AcDbLine
 10
183.3878280605
 20
166.106969806
 30
0.0
 11
183.3878280605
 21
167.5601414764
 31
0.0
  0
LINE
  5
133
330
1F
100
AcDbEntity
  8
0
  6
Continuous
 62
     7
370
    15
100
AcDbLine
 10
186.1198404813
 20
167.5601414764
 30
0.0
 11
186.1198404813
 21
166.106969806
 31
0.0
  0
LWPOLYLINE
  5
134
330
1F
100
AcDbEntity
  8
0
  6
Continuous
 62
     7
370
    15
100
AcDbPolyline
 90
       15
 70
   128
 43
0.0
 10
185.169914552
 20
166.2935397947
 10
185.2734493101
 20
166.4134375179
 10
185.3447185839
 20
166.590901407
 10
185.3447185839
 20
166.7797557438
 10
185.2734493101
 20
166.9572226131
 10
185.1395064974
 20
167.1018920267
 10
184.9590467299
 20
167.1963206852
 10
184.7538346434
 20
167.2291151607
 10
184.548622557
 20
167.1963206852
 10
184.3681620444
 20
167.1018920267
 10
184.2342192317
 20
166.9572226131
 10
184.1629499579
 20
166.7797557438
 10
184.1629499579
 20
166.590901407
 10
184.2342192317
 20
166.4134375179
 10
184.3377539898
 20
166.2935397947
  0
LINE
  5
135
330
1F
100
AcDbEntity
  8
0
  6
Continuous
 62
     7
370
    15
100
AcDbLine
 10
183.1878276551
 20
167.553039583
 30
0.0
 11
183.1865416849
 21
167.553039583
 31
0.0
  0
LINE
  5
136
330
1F
100
AcDbEntity
  8
0
  6
Continuous
 62
     7
370
    15
100
AcDbLine
 10
182.7538343156
 20
168.0753282631
 30
0.0
 11
182.7538343156
 21
165.92762092
 31
0.0
  0
LINE
  5
137
330
1F
100
AcDbEntity
  8
0
  6
Continuous
 62
     7
370
    15
100
AcDbLine
 10
186.7538342262
 20
165.92762092
 30
0.0
 11
186.7538342262
 21
168.0753282631
 31
0.0
  0
LWPOLYLINE
  5
138
330
1F
100
AcDbEntity
  8
0
  6
Continuous
 62
     7
370
    15
100
AcDbPolyline
 90
       11
 70
   128
 43
0.0
 10
185.3538343692
 20
166.6768781269
 10
185.3447185839
 20
166.7713038052
 10
185.2734493101
 20
166.9487706745
 10
185.1395064974
 20
167.0934400881
 10
184.9590467299
 20
167.1878687466
 10
184.7538346434
 20
167.2206632221
 10
184.548622557
 20
167.1878687466
 10
184.3681620444
 20
167.0934400881
 10
184.2342192317
 20
166.9487706745
 10
184.1629499579
 20
166.7713038052
 10
184.1538341726
 20
166.6768781269
  0
LINE
  5
139
330
1F
100
AcDbEntity
  8
0
  6
Continuous
 62
     7
370
    15
100
AcDbLine
 10
185.7198404158
 20
168.4836826647
 30
0.0
 11
183.787828126
 21
168.4836826647
 31
0.0
  0
SPLINE
  5
13A
330
1F
100
AcDbEntity
  8
0
  6
Continuous
 62
     7
370
    15
100
AcDbSpline
210
0.0
220
0.0
230
1.0
 70
     8
 71
     3
 72
    13
 73
     9
 74
     0
 42
0.00000001
 43
0.00000001
 12
1.0
 22
0.0
 32
0.0
 13
1.0
 23
0.0
 33
0.0
 40
0.0
 40
0.0
 40
0.0
 40
0.0
 40
0.2494004732452385
 40
0.4988202307593001
 40
0.6241388963325449
 40
0.7493988477502589
 40
0.8746793122137119
 40
1.0
 40
1.0
 40
1.0
 40
1.0
 10
183.78782812602
 20
168.4836826646752
 30
0.0
 10
183.7094079601273
 20
168.4813243798046
 30
0.0
 10
183.5525615646984
 20
168.476607627715
 30
0.0
 10
183.3858809114418
 20
168.4360526591595
 30
0.0
 10
183.2860218867558
 20
168.3777105996497
 30
0.0
 10
183.2304890825415
 20
168.3182977804706
 30
0.0
 10
183.1945809962125
 20
168.2448233600027
 30
0.0
 10
183.1900790097003
 20
168.1869421668916
 30
0.0
 10
183.1878276551433
 20
168.157996925158
 30
0.0
  0
LINE
  5
13B
330
1F
100
AcDbEntity
  8
0
  6
Continuous
 62
     7
370
    15
100
AcDbLine
 10
183.1878276551
 20
168.1579969252
 30
0.0
 11
183.1878276551
 21
167.5605676496
 31
0.0
  0
SPLINE
  5
13C
330
1F
100
AcDbEntity
  8
0
  6
Continuous
 62
     7
370
    15
100
AcDbSpline
210
0.0
220
0.0
230
1.0
 70
     8
 71
     3
 72
    13
 73
     9
 74
     0
 42
0.00000001
 43
0.00000001
 12
1.0
 22
0.0
 32
0.0
 13
1.0
 23
0.0
 33
0.0
 40
0.0
 40
0.0
 40
0.0
 40
0.0
 40
0.1252386775714427
 40
0.2505132237013689
 40
0.3758005817126454
 40
0.5011269236950654
 40
0.7505487341436461
 40
1.0
 40
1.0
 40
1.0
 40
1.0
 10
186.3198408866592
 20
168.157996925158
 30
0.0
 10
186.3175921634524
 20
168.1869229969082
 30
0.0
 10
186.3130940730008
 20
168.2447834248821
 30
0.0
 10
186.2772093527796
 20
168.3182557470574
 30
0.0
 10
186.2216800535812
 20
168.3776855644715
 30
0.0
 10
186.1218322553039
 20
168.4360392320791
 30
0.0
 10
185.9551386103287
 20
168.4766054929698
 30
0.0
 10
185.7982762345529
 20
168.4813235145833
 30
0.0
 10
185.7198404157825
 20
168.4836826646752
 30
0.0
  0
LINE
  5
13D
330
1F
100
AcDbEntity
  8
0
  6
Continuous
 62
     7
370
    15
100
AcDbLine
 10
186.3198408867
 20
167.5605676496
 30
0.0
 11
186.3198408867
 21
168.1579969252
 31
0.0
  0
SPLINE
  5
13E
330
1F
100
AcDbEntity
  8
0
  6
Continuous
 62
     7
370
    15
100
AcDbSpline
210
0.0
220
0.0
230
1.0
 70
     8
 71
     3
 72
    10
 73
     6
 74
     0
 42
0.00000001
 43
0.00000001
 12
1.0
 22
0.0
 32
0.0
 13
1.0
 23
0.0
 33
0.0
 40
0.0
 40
0.0
 40
0.0
 40
0.0
 40
0.3852666751047736
 40
0.8904001614273025
 40
1.0
 40
1.0
 40
1.0
 40
1.0
 10
186.7432305598922
 20
168.1440583789773
 30
0.0
 10
186.7461818326256
 20
168.1360819597077
 30
0.0
 10
186.7530025983135
 20
168.1176474428802
 30
0.0
 10
186.7530854870576
 20
168.0955373082577
 30
0.0
 10
186.7532555442383
 20
168.0821370572019
 30
0.0
 10
186.7532858634658
 20
168.0797479474969
 30
0.0
  0
SPLINE
  5
13F
330
1F
100
AcDbEntity
  8
0
  6
Continuous
 62
     7
370
    15
100
AcDbSpline
210
0.0
220
0.0
230
1.0
 70
     8
 71
     3
 72
     9
 73
     5
 74
     0
 42
0.00000001
 43
0.00000001
 12
1.0
 22
0.0
 32
0.0
 13
1.0
 23
0.0
 33
0.0
 40
0.0
 40
0.0
 40
0.0
 40
0.0
 40
0.1093180493830506
 40
1.0
 40
1.0
 40
1.0
 40
1.0
 10
182.7543826783367
 20
168.0797479474969
 30
0.0
 10
182.7543862077837
 20
168.082141675089
 30
0.0
 10
182.7544184938242
 20
168.1040385860347
 30
0.0
 10
182.7607968574879
 20
168.1252858321797
 30
0.0
 10
182.7664779508777
 20
168.1442103708215
 30
0.0
  0
LINE
  5
140
330
1F
100
AcDbEntity
  8
0
  6
Continuous
 62
     7
370
    15
100
AcDbLine
 10
183.1878276551
 20
167.5614915216
 30
0.0
 11
183.1878276551
 21
167.553039583
 31
0.0
  0
SPLINE
  5
141
330
1F
100
AcDbEntity
  8
0
  6
Continuous
 62
     7
370
    15
100
AcDbSpline
210
0.0
220
0.0
230
1.0
 70
     8
 71
     3
 72
    13
 73
     9
 74
     0
 42
0.00000001
 43
0.00000001
 12
1.0
 22
0.0
 32
0.0
 13
1.0
 23
0.0
 33
0.0
 40
0.0
 40
0.0
 40
0.0
 40
0.0
 40
0.1254580952843796
 40
0.2502375811777804
 40
0.3760688912613098
 40
0.5019117068474738
 40
0.7508283388456869
 40
0.9999999999999999
 40
0.9999999999999999
 40
0.9999999999999999
 40
0.9999999999999999
 10
183.3878280604549
 20
168.157996925158
 30
0.0
 10
183.389296478922
 20
168.1774511416745
 30
0.0
 10
183.392225373104
 20
168.2162543458342
 30
0.0
 10
183.4162736511973
 20
168.2681325844119
 30
0.0
 10
183.4534172962522
 20
168.3128278185647
 30
0.0
 10
183.5201030586936
 20
168.3605193574633
 30
0.0
 10
183.6312354431957
 20
168.4000329757685
 30
0.0
 10
183.7356127507961
 20
168.4054266291944
 30
0.0
 10
183.78782812602
 20
168.4081248367257
 30
0.0
  0
LINE
  5
142
330
1F
100
AcDbEntity
  8
0
  6
Continuous
 62
     7
370
    15
100
AcDbLine
 10
183.787828126
 20
168.4081248367
 30
0.0
 11
185.7198404158
 21
168.4081248367
 31
0.0
  0
SPLINE
  5
143
330
1F
100
AcDbEntity
  8
0
  6
Continuous
 62
     7
370
    15
100
AcDbSpline
210
0.0
220
0.0
230
1.0
 70
     8
 71
     3
 72
    13
 73
     9
 74
     0
 42
0.00000001
 43
0.00000001
 12
1.0
 22
0.0
 32
0.0
 13
1.0
 23
0.0
 33
0.0
 40
0.0
 40
0.0
 40
0.0
 40
0.0
 40
0.2497359775104721
 40
0.4987714533770925
 40
0.6241108363596403
 40
0.7493662887649056
 40
0.8741847591346956
 40
1.0
 40
1.0
 40
1.0
 40
1.0
 10
185.7198404157825
 20
168.4081248367257
 30
0.0
 10
185.7721732170582
 20
168.4054150812584
 30
0.0
 10
185.876692027731
 20
168.4000031711037
 30
0.0
 10
185.9877978082315
 20
168.360413426351
 30
0.0
 10
186.0542609941324
 20
168.3127578566119
 30
0.0
 10
186.091369897816
 20
168.2682149934792
 30
0.0
 10
186.1153105658855
 20
168.2163545221048
 30
0.0
 10
186.1183265113876
 20
168.1775009643517
 30
0.0
 10
186.1198404813476
 20
168.157996925158
 30
0.0
  0
LINE
  5
144
330
1F
100
AcDbEntity
  8
0
  6
Continuous
 62
     7
370
    15
100
AcDbLine
 10
186.1198404813
 20
168.1579969252
 30
0.0
 11
186.1198404813
 21
167.5605676496
 31
0.0
  0
LINE
  5
145
330
1F
100
AcDbEntity
  8
0
  6
Continuous
 62
     7
370
    15
100
AcDbLine
 10
183.3878280605
 20
167.5605676496
 30
0.0
 11
183.3878280605
 21
168.1579969252
 31
0.0
  0
SPLINE
  5
146
330
1F
100
AcDbEntity
  8
0
  6
Continuous
 62
     7
370
    15
100
AcDbSpline
210
0.0
220
0.0
230
1.0
 70
     8
 71
     3
 72
    13
 73
     9
 74
     0
 42
0.00000001
 43
0.00000001
 12
1.0
 22
0.0
 32
0.0
 13
1.0
 23
0.0
 33
0.0
 40
0.0
 40
0.0
 40
0.0
 40
0.0
 40
0.251585565339396
 40
0.5017865233309255
 40
0.6267335875676348
 40
0.7512403597017387
 40
0.8755683300948134
 40
1.0
 40
1.0
 40
1.0
 40
1.0
 10
183.78782812602
 20
168.4645227516122
 30
0.0
 10
183.709464170418
 20
168.4622160875463
 30
0.0
 10
183.5531675371713
 20
168.4576154541969
 30
0.0
 10
183.3862455696884
 20
168.4179892374352
 30
0.0
 10
183.286090119195
 20
168.3607364101644
 30
0.0
 10
183.2304862615478
 20
168.3024718509718
 30
0.0
 10
183.194557765687
 20
168.2302634105985
 30
0.0
 10
183.1900716486949
 20
168.1733317818154
 30
0.0
 10
183.1878276551433
 20
168.144854100985
 30
0.0
  0
LINE
  5
147
330
1F
100
AcDbEntity
  8
0
  6
Continuous
 62
     7
370
    15
100
AcDbLine
 10
185.7198404158
 20
168.4645227516
 30
0.0
 11
183.787828126
 21
168.4645227516
 31
0.0
  0
SPLINE
  5
148
330
1F
100
AcDbEntity
  8
0
  6
Continuous
 62
     7
370
    15
100
AcDbSpline
210
0.0
220
0.0
230
1.0
 70
     8
 71
     3
 72
    13
 73
     9
 74
     0
 42
0.00000001
 43
0.00000001
 12
1.0
 22
0.0
 32
0.0
 13
1.0
 23
0.0
 33
0.0
 40
0.0
 40
0.0
 40
0.0
 40
0.0
 40
0.1244316516525279
 40
0.2487593656149076
 40
0.373266504366793
 40
0.4982135502752411
 40
0.7484144715652401
 40
1.0
 40
1.0
 40
1.0
 40
1.0
 10
186.3198408866592
 20
168.144854100985
 30
0.0
 10
186.3175968011024
 20
168.1733317620132
 30
0.0
 10
186.3131105044723
 20
168.2302632966949
 30
0.0
 10
186.2771834017304
 20
168.3024720749638
 30
0.0
 10
186.2215782228958
 20
168.3607362832469
 30
0.0
 10
186.121423131939
 20
168.4179892852428
 30
0.0
 10
185.9545009538251
 20
168.4576154389995
 30
0.0
 10
185.7982043544181
 20
168.4622160824712
 30
0.0
 10
185.7198404157825
 20
168.4645227516122
 30
0.0
  0
LINE
  5
149
330
1F
100
AcDbEntity
  8
0
  6
Continuous
 62
     7
370
    15
100
AcDbLine
 10
182.7563690031
 20
168.116071018
 30
0.0
 11
182.7538343156
 21
168.0753282631
 31
0.0
  0
LINE
  5
14A
330
1F
100
AcDbEntity
  8
0
  6
Continuous
 62
     7
370
    15
100
AcDbLine
 10
186.7538342262
 20
168.0753282631
 30
0.0
 11
186.7513002837
 21
168.116071018
 31
0.0
  0
SPLINE
  5
14B
330
1F
100
AcDbEntity
  8
0
  6
Continuous
 62
     7
370
    15
100
AcDbSpline
210
0.0
220
0.0
230
1.0
 70
     8
 71
     3
 72
    11
 73
     7
 74
     0
 42
0.00000001
 43
0.00000001
 12
1.0
 22
0.0
 32
0.0
 13
1.0
 23
0.0
 33
0.0
 40
0.0
 40
0.0
 40
0.0
 40
0.0
 40
0.3703146132422603
 40
0.7441387057439071
 40
0.9441455118413967
 40
1.0
 40
1.0
 40
1.0
 40
1.0
 10
187.9197182143398
 20
156.7942506993241
 30
0.0
 10
187.9206347101374
 20
156.794837514727
 30
0.0
 10
187.9224763873822
 20
156.7960167067945
 30
0.0
 10
187.9246019762129
 20
156.7979906291111
 30
0.0
 10
187.9256071582554
 20
156.7995818351807
 30
0.0
 10
187.9258499416984
 20
156.8002427252789
 30
0.0
 10
187.9259029412933
 20
156.8003869975038
 30
0.0
  0
ARC
  5
14C
330
1F
100
AcDbEntity
  8
0
  6
Continuous
 62
     7
370
    15
100
AcDbCircle
 10
184.7538346434
 20
162.0956796082
 30
0.0
 40
6.174784794675909
100
AcDbArc
 50
239.1553849372
 51
300.8446150628
  0
SPLINE
  5
14D
330
1F
100
AcDbEntity
  8
0
  6
Continuous
 62
     7
370
    15
100
AcDbSpline
210
0.0
220
0.0
230
1.0
 70
     8
 71
     3
 72
    10
 73
     6
 74
     0
 42
0.00000001
 43
0.00000001
 12
1.0
 22
0.0
 32
0.0
 13
1.0
 23
0.0
 33
0.0
 40
0.0
 40
0.0
 40
0.0
 40
0.0
 40
0.2117823460846472
 40
0.487996118801648
 40
1.0
 40
1.0
 40
1.0
 40
1.0
 10
181.5817656005092
 20
156.8003869975038
 30
0.0
 10
181.582015480365
 20
156.7998385873344
 30
0.0
 10
181.5825912620675
 20
156.7985749218821
 30
0.0
 10
181.5847427081918
 20
156.7963436520207
 30
0.0
 10
181.5866876762884
 20
156.7950748664948
 30
0.0
 10
181.5879510725208
 20
156.7942506993241
 30
0.0
  0
LINE
  5
14E
330
1F
100
AcDbEntity
  8
0
  6
Continuous
 62
     7
370
    15
100
AcDbLine
 10
181.9348575557
 20
157.3227695549
 30
0.0
 11
182.4332000697
 21
159.9208346928
 31
0.0
  0
LINE
  5
14F
330
1F
100
AcDbEntity
  8
0
  6
Continuous
 62
     7
370
    15
100
AcDbLine
 10
182.4294285858
 20
159.9061078752
 30
0.0
 11
182.4306564415
 21
159.9122456634
 31
0.0
  0
LINE
  5
150
330
1F
100
AcDbEntity
  8
0
  6
Continuous
 62
     7
370
    15
100
AcDbLine
 10
187.078239956
 20
159.9061078752
 30
0.0
 11
187.0770121003
 21
159.9122456634
 31
0.0
  0
LINE
  5
151
330
1F
100
AcDbEntity
  8
0
  6
Continuous
 62
     7
370
    15
100
AcDbLine
 10
187.0744684721
 20
159.9208346928
 30
0.0
 11
187.5728102411
 21
157.3227695549
 31
0.0
  0
ARC
  5
152
330
1F
100
AcDbEntity
  8
0
  6
Continuous
 62
     7
370
    15
100
AcDbCircle
 10
172.6718965348
 20
162.697534206
 30
0.0
 40
10.14855196013394
100
AcDbArc
 50
344.121072408
 51
15.878927592
  0
ARC
  5
153
330
1F
100
AcDbEntity
  8
0
  6
Continuous
 62
     7
370
    15
100
AcDbCircle
 10
172.6473302602
 20
161.3353734747
 30
0.0
 40
10.11732145867897
100
AcDbArc
 50
1.5092568854
 51
13.5934417228
  0
ARC
  5
154
330
1F
100
AcDbEntity
  8
0
  6
Continuous
 62
     7
370
    15
100
AcDbCircle
 10
196.835772007
 20
162.697534206
 30
0.0
 40
10.14855196013306
100
AcDbArc
 50
164.121072408
 51
195.878927592
  0
ARC
  5
155
330
1F
100
AcDbEntity
  8
0
  6
Continuous
 62
     7
370
    15
100
AcDbCircle
 10
196.8577747074
 20
161.3356109627
 30
0.0
 40
10.11475326503086
100
AcDbArc
 50
166.8159716273
 51
178.4917055523
  0
ARC
  5
156
330
1F
100
AcDbEntity
  8
0
  6
Continuous
 62
     7
370
    15
100
AcDbCircle
 10
184.7538342709
 20
159.7229249656
 30
0.0
 40
0.3009418922808204
100
AcDbArc
 50
184.5337330847
 51
355.4662669153
  0
LINE
  5
157
330
1F
100
AcDbEntity
  8
0
  6
Continuous
 62
     7
370
    15
100
AcDbLine
 10
185.0538345063
 20
159.6991367066
 30
0.0
 11
185.0538345063
 21
166.187148484
 31
0.0
  0
LINE
  5
158
330
1F
100
AcDbEntity
  8
0
  6
Continuous
 62
     7
370
    15
100
AcDbLine
 10
184.4538340355
 20
166.187148484
 30
0.0
 11
184.4538340355
 21
159.6991367066
 31
0.0
  0
LWPOLYLINE
  5
159
330
1F
100
AcDbEntity
  8
0
  6
Continuous
 62
     7
370
    15
100
AcDbPolyline
 90
       51
 70
   128
 43
0.0
 10
188.0946980799
 20
165.2981899107
 10
188.5744387294
 20
165.0107927049
 10
189.1031833375
 20
164.6227396453
 10
189.5842755223
 20
164.1867227281
 10
190.012444743
 20
163.7075162852
 10
190.382999369
 20
163.1903729761
 10
190.6918795789
 20
162.6409597123
 10
190.9357016916
 20
162.0652920926
 10
191.1117935563
 20
161.4696807588
 10
191.2182265902
 20
160.8606509293
 10
191.253834405
 20
160.244873854
 10
191.2182265902
 20
159.6290967787
 10
191.1117935563
 20
159.0200654591
 10
190.9357016916
 20
158.4244541252
 10
190.6918795789
 20
157.8487879956
 10
190.382999369
 20
157.2993732417
 10
190.012444743
 20
156.7822299326
 10
189.5842755223
 20
156.3030249799
 10
189.1031833375
 20
155.8670065725
 10
188.5744387294
 20
155.4789535129
 10
188.0038345242
 20
155.1431171024
 10
187.3976225043
 20
154.8631764377
 10
186.7624448622
 20
154.6421981776
 10
186.1052604402
 20
154.4826052511
 10
185.4332694793
 20
154.3861440742
 10
184.7538346434
 20
154.3538726294
 10
184.0743990625
 20
154.3861440742
 10
183.4024081016
 20
154.4826052511
 10
182.7452244247
 20
154.6421981776
 10
182.1100460375
 20
154.8631764377
 10
181.5038340176
 20
155.1431171024
 10
180.9332298124
 20
155.4789535129
 10
180.4044859493
 20
155.8670065725
 10
179.9233930195
 20
156.3030249799
 10
179.4952245439
 20
156.7822299326
 10
179.1246684278
 20
157.2993732417
 10
178.8157882178
 20
157.8487879956
 10
178.5719664777
 20
158.4244541252
 10
178.3958749855
 20
159.0200654591
 10
178.2894419516
 20
159.6290967787
 10
178.2538341368
 20
160.244873854
 10
178.2894419516
 20
160.8606509293
 10
178.3958749855
 20
161.4696807588
 10
178.5719664777
 20
162.0652920926
 10
178.8157882178
 20
162.6409597123
 10
179.1246684278
 20
163.1903729761
 10
179.4952245439
 20
163.7075162852
 10
179.9233930195
 20
164.1867227281
 10
180.4044859493
 20
164.6227396453
 10
180.9332298124
 20
165.0107927049
 10
181.412971207
 20
165.2981899107
  0
ARC
  5
15A
330
1F
100
AcDbEntity
  8
0
  6
Continuous
 62
     7
370
    15
100
AcDbCircle
 10
185.4040745059
 20
160.9230609964
 30
0.0
 40
5.114974638218913
100
AcDbArc
 50
11.2056358644
 51
55.384461545
  0
SPLINE
  5
15B
330
1F
100
AcDbEntity
  8
0
  6
Continuous
 62
     7
370
    15
100
AcDbSpline
210
0.0
220
0.0
230
1.0
 70
     8
 71
     3
 72
     9
 73
     5
 74
     0
 42
0.00000001
 43
0.00000001
 12
1.0
 22
0.0
 32
0.0
 13
1.0
 23
0.0
 33
0.0
 40
0.0
 40
0.0
 40
0.0
 40
0.0
 40
0.4790265695844696
 40
1.0
 40
1.0
 40
1.0
 40
1.0
 10
187.9197182143398
 20
165.3859681809373
 30
0.0
 10
187.9824655216341
 20
165.347930011102
 30
0.0
 10
188.11345472198
 20
165.2685227876816
 30
0.0
 10
188.2424956736963
 20
165.1791537109431
 30
0.0
 10
188.3097225809761
 20
165.1325947964616
 30
0.0
  0
ARC
  5
15C
330
1F
100
AcDbEntity
  8
0
  6
Continuous
 62
     7
370
    15
100
AcDbCircle
 10
184.6863541092
 20
160.2446798702
 30
0.0
 40
6.002744944739526
100
AcDbArc
 50
103.7498744421
 51
121.0753146089
  0
ARC
  5
15D
330
1F
100
AcDbEntity
  8
0
  6
Continuous
 62
     7
370
    15
100
AcDbCircle
 10
184.8213133855
 20
160.2446724411
 30
0.0
 40
6.00275223271404
100
AcDbArc
 50
58.9247073413
 51
76.2501396118
  0
SPLINE
  5
15E
330
1F
100
AcDbEntity
  8
0
  6
Continuous
 62
     7
370
    15
100
AcDbSpline
210
0.0
220
0.0
230
1.0
 70
     8
 71
     3
 72
     9
 73
     5
 74
     0
 42
0.00000001
 43
0.00000001
 12
1.0
 22
0.0
 32
0.0
 13
1.0
 23
0.0
 33
0.0
 40
0.0
 40
0.0
 40
0.0
 40
0.0
 40
0.5209740534626656
 40
1.0
 40
1.0
 40
1.0
 40
1.0
 10
181.1979459608264
 20
165.1325947964616
 30
0.0
 10
181.2651731366665
 20
165.1791536845786
 30
0.0
 10
181.3942144495558
 20
165.2685226038319
 30
0.0
 10
181.525203783055
 20
165.3479299850075
 30
0.0
 10
181.5879510725208
 20
165.3859681809373
 30
0.0
  0
ARC
  5
15F
330
1F
100
AcDbEntity
  8
0
  6
Continuous
 62
     7
370
    15
100
AcDbCircle
 10
184.1383231291
 20
160.9029654058
 30
0.0
 40
5.151270005988815
100
AcDbArc
 50
124.8064678968
 51
170.1764853321
  0
SPLINE
  5
160
330
1F
100
AcDbEntity
  8
0
  6
Continuous
 62
     7
370
    15
100
AcDbSpline
210
0.0
220
0.0
230
1.0
 70
     8
 71
     3
 72
    14
 73
    10
 74
     0
 42
0.00000001
 43
0.00000001
 12
1.0
 22
0.0
 32
0.0
 13
1.0
 23
0.0
 33
0.0
 40
0.0
 40
0.0
 40
0.0
 40
0.0
 40
0.1175325178450985
 40
0.2938798622546953
 40
0.470164023137272
 40
0.6464416926049676
 40
0.8228169888998903
 40
0.9121599738801616
 40
0.9999999999999999
 40
0.9999999999999999
 40
0.9999999999999999
 40
0.9999999999999999
 10
188.0436966205306
 20
155.7077623331971
 30
0.0
 10
188.0320792026065
 20
155.7209596082216
 30
0.0
 10
188.0030308571622
 20
155.7539582492566
 30
0.0
 10
187.9215608710807
 20
155.7683771613272
 30
0.0
 10
187.8185417235625
 20
155.7508679950344
 30
0.0
 10
187.7131854441983
 20
155.698023058911
 30
0.0
 10
187.6390886090852
 20
155.6313757474275
 30
0.0
 10
187.5928867998564
 20
155.5715794474508
 30
0.0
 10
187.5774700279673
 20
155.5400386704282
 30
0.0
 10
187.5698270285793
 20
155.5244020545907
 30
0.0
  0
SPLINE
  5
161
330
1F
100
AcDbEntity
  8
0
  6
Continuous
 62
     7
370
    15
100
AcDbSpline
210
0.0
220
0.0
230
1.0
 70
     8
 71
     3
 72
    10
 73
     6
 74
     0
 42
0.00000001
 43
0.00000001
 12
1.0
 22
0.0
 32
0.0
 13
1.0
 23
0.0
 33
0.0
 40
0.0
 40
0.0
 40
0.0
 40
0.0
 40
0.3936580578115293
 40
0.7873173852724916
 40
1.0
 40
1.0
 40
1.0
 40
1.0
 10
190.7314030463167
 20
159.9123753035493
 30
0.0
 10
190.7199122981467
 20
159.8859252383704
 30
0.0
 10
190.696930764746
 20
159.8330250227043
 30
0.0
 10
190.6566250108356
 20
159.7956932169505
 30
0.0
 10
190.6310692810566
 20
159.7977649875328
 30
0.0
 10
190.622105264134
 20
159.7984916890092
 30
0.0
  0
SPLINE
  5
162
330
1F
100
AcDbEntity
  8
0
  6
Continuous
 62
     7
370
    15
100
AcDbSpline
210
0.0
220
0.0
230
1.0
 70
     8
 71
     3
 72
    11
 73
     7
 74
     0
 42
0.00000001
 43
0.00000001
 12
1.0
 22
0.0
 32
0.0
 13
1.0
 23
0.0
 33
0.0
 40
0.0
 40
0.0
 40
0.0
 40
0.0
 40
0.2499851144911523
 40
0.4999935431453588
 40
0.7500029565518656
 40
1.0
 40
1.0
 40
1.0
 40
1.0
 10
190.512404405541
 20
160.0456021154351
 30
0.0
 10
190.5043167087962
 20
159.9842662908226
 30
0.0
 10
190.48814056103
 20
159.8615889212833
 30
0.0
 10
190.4966890771573
 20
159.6662614477093
 30
0.0
 10
190.5309274953486
 20
159.4931038952623
 30
0.0
 10
190.5746656101155
 20
159.4222853233141
 30
0.0
 10
190.5965341264673
 20
159.3868769133515
 30
0.0
  0
SPLINE
  5
163
330
1F
100
AcDbEntity
  8
0
  6
Continuous
 62
     7
370
    15
100
AcDbSpline
210
0.0
220
0.0
230
1.0
 70
     8
 71
     3
 72
     9
 73
     5
 74
     0
 42
0.00000001
 43
0.00000001
 12
1.0
 22
0.0
 32
0.0
 13
1.0
 23
0.0
 33
0.0
 40
0.0
 40
0.0
 40
0.0
 40
0.0
 40
0.7087151007440354
 40
1.0
 40
1.0
 40
1.0
 40
1.0
 10
190.5965341264673
 20
159.3868769133515
 30
0.0
 10
190.6445580365999
 20
159.3358637442388
 30
0.0
 10
190.7123199765983
 20
159.2638839471959
 30
0.0
 10
190.7867365642015
 20
159.2741626518108
 30
0.0
 10
190.8084129924245
 20
159.277156683249
 30
0.0
  0
LINE
  5
164
330
1F
100
AcDbEntity
  8
0
  6
Continuous
 62
     7
370
    15
100
AcDbLine
 10
191.1467308188
 20
159.6487841928
 30
0.0
 11
191.1106592054
 21
159.6465669001
 31
0.0
  0
SPLINE
  5
165
330
1F
100
AcDbEntity
  8
0
  6
Continuous
 62
     7
370
    15
100
AcDbSpline
210
0.0
220
0.0
230
1.0
 70
     8
 71
     3
 72
    11
 73
     7
 74
     0
 42
0.00000001
 43
0.00000001
 12
1.0
 22
0.0
 32
0.0
 13
1.0
 23
0.0
 33
0.0
 40
0.0
 40
0.0
 40
0.0
 40
0.0
 40
0.110746812017691
 40
0.4089677093253898
 40
0.70335911649543
 40
1.0
 40
1.0
 40
1.0
 40
1.0
 10
190.6702460730739
 20
160.3270746195741
 30
0.0
 10
190.6632611719062
 20
160.3278256657521
 30
0.0
 10
190.6374672101806
 20
160.3305991418407
 30
0.0
 10
190.5965817785068
 20
160.2914722964137
 30
0.0
 10
190.5526023716959
 20
160.2075979958947
 30
0.0
 10
190.5312530970011
 20
160.1274672387587
 30
0.0
 10
190.5205378318496
 20
160.0872493708558
 30
0.0
  0
LINE
  5
166
330
1F
100
AcDbEntity
  8
0
  6
Continuous
 62
     7
370
    15
100
AcDbLine
 10
190.5205378318
 20
160.0872493709
 30
0.0
 11
190.5312182391
 21
160.0805036152
 31
0.0
  0
SPLINE
  5
167
330
1F
100
AcDbEntity
  8
0
  6
Continuous
 62
     7
370
    15
100
AcDbSpline
210
0.0
220
0.0
230
1.0
 70
     8
 71
     3
 72
    12
 73
     8
 74
     0
 42
0.00000001
 43
0.00000001
 12
1.0
 22
0.0
 32
0.0
 13
1.0
 23
0.0
 33
0.0
 40
0.0
 40
0.0
 40
0.0
 40
0.0
 40
0.1680990067983822
 40
0.3760639037825816
 40
0.5840485108692787
 40
0.7920166702093087
 40
1.0
 40
1.0
 40
1.0
 40
1.0
 10
190.5796991670795
 20
160.145915242476
 30
0.0
 10
190.5846408453345
 20
160.145691010346
 30
0.0
 10
190.595696156435
 20
160.1451893678213
 30
0.0
 10
190.6124497260588
 20
160.1283273508386
 30
0.0
 10
190.6280543760617
 20
160.0999033193701
 30
0.0
 10
190.640506697579
 20
160.0616853113359
 30
0.0
 10
190.6447365961216
 20
160.0316595881437
 30
0.0
 10
190.6468516225286
 20
160.0166461790032
 30
0.0
  0
SPLINE
  5
168
330
1F
100
AcDbEntity
  8
0
  6
Continuous
 62
     7
370
    15
100
AcDbSpline
210
0.0
220
0.0
230
1.0
 70
     8
 71
     3
 72
    11
 73
     7
 74
     0
 42
0.00000001
 43
0.00000001
 12
1.0
 22
0.0
 32
0.0
 13
1.0
 23
0.0
 33
0.0
 40
0.0
 40
0.0
 40
0.0
 40
0.0
 40
0.250015986982042
 40
0.5000224217230155
 40
0.7499949731095352
 40
1.0
 40
1.0
 40
1.0
 40
1.0
 10
190.6468516225286
 20
160.0166461790032
 30
0.0
 10
190.6520102882055
 20
160.0002869647388
 30
0.0
 10
190.6623274224646
 20
159.9675691612386
 30
0.0
 10
190.6837315698287
 20
159.93483218253
 30
0.0
 10
190.707521289566
 20
159.917046709927
 30
0.0
 10
190.7233358233779
 20
159.9205673531562
 30
0.0
 10
190.7312436038919
 20
159.9223277891107
 30
0.0
  0
SPLINE
  5
169
330
1F
100
AcDbEntity
  8
0
  6
Continuous
 62
     7
370
    15
100
AcDbSpline
210
0.0
220
0.0
230
1.0
 70
     8
 71
     3
 72
    12
 73
     8
 74
     0
 42
0.00000001
 43
0.00000001
 12
1.0
 22
0.0
 32
0.0
 13
1.0
 23
0.0
 33
0.0
 40
0.0
 40
0.0
 40
0.0
 40
0.0
 40
0.2648481474583492
 40
0.5021999442838173
 40
0.6218872233534809
 40
0.7416790250521164
 40
1.0
 40
1.0
 40
1.0
 40
1.0
 10
190.7312436038919
 20
159.9223277891107
 30
0.0
 10
190.7314847406307
 20
159.9215184464191
 30
0.0
 10
190.7319419794597
 20
159.9199837864319
 30
0.0
 10
190.7321650330468
 20
159.9176615631434
 30
0.0
 10
190.7321303440548
 20
159.9159274414253
 30
0.0
 10
190.731950450541
 20
159.9141783877952
 30
0.0
 10
190.7316252312535
 20
159.9131071542394
 30
0.0
 10
190.7314030463167
 20
159.9123753035493
 30
0.0
  0
LINE
  5
16A
330
1F
100
AcDbEntity
  8
0
  6
Continuous
 62
     7
370
    15
100
AcDbLine
 10
187.943698653
 20
165.3798333729
 30
0.0
 11
188.2024178291
 21
165.2278549397
 31
0.0
  0
LINE
  5
16B
330
1F
100
AcDbEntity
  8
0
  6
Continuous
 62
     7
370
    15
100
AcDbLine
 10
188.0657034004
 20
165.3115845645
 30
0.0
 11
188.2217438901
 21
165.2226022804
 31
0.0
  0
LINE
  5
16C
330
1F
100
AcDbEntity
  8
0
  6
Continuous
 62
     7
370
    15
100
AcDbLine
 10
187.8492036844
 20
165.4304764593
 30
0.0
 11
187.9261152828
 21
165.3884909475
 31
0.0
  0
LINE
  5
16D
330
1F
100
AcDbEntity
  8
0
  6
Continuous
 62
     7
370
    15
100
AcDbLine
 10
187.9261152828
 20
165.3884909475
 30
0.0
 11
187.943698653
 21
165.3798333729
 31
0.0
  0
SPLINE
  5
16E
330
1F
100
AcDbEntity
  8
0
  6
Continuous
 62
     7
370
    15
100
AcDbSpline
210
0.0
220
0.0
230
1.0
 70
     8
 71
     3
 72
    11
 73
     7
 74
     0
 42
0.00000001
 43
0.00000001
 12
1.0
 22
0.0
 32
0.0
 13
1.0
 23
0.0
 33
0.0
 40
0.0
 40
0.0
 40
0.0
 40
0.0
 40
0.2500019946694642
 40
0.5000047163165464
 40
0.7499995379768795
 40
0.9999999999999999
 40
0.9999999999999999
 40
0.9999999999999999
 40
0.9999999999999999
 10
185.9948465610213
 20
155.5960840905137
 30
0.0
 10
185.956055707364
 20
155.5845393378367
 30
0.0
 10
185.8784738872499
 20
155.561449798912
 30
0.0
 10
185.785739604515
 20
155.4919443047739
 30
0.0
 10
185.7249671937234
 20
155.4069051134109
 30
0.0
 10
185.7223480538514
 20
155.3474257254153
 30
0.0
 10
185.7210384691425
 20
155.317685695929
 30
0.0
  0
LINE
  5
16F
330
1F
100
AcDbEntity
  8
0
  6
Continuous
 62
     7
370
    15
100
AcDbLine
 10
185.7210384691
 20
155.3176856959
 30
0.0
 11
185.734535941
 21
155.2781260932
 31
0.0
  0
SPLINE
  5
170
330
1F
100
AcDbEntity
  8
0
  6
Continuous
 62
     7
370
    15
100
AcDbSpline
210
0.0
220
0.0
230
1.0
 70
     8
 71
     3
 72
     9
 73
     5
 74
     0
 42
0.00000001
 43
0.00000001
 12
1.0
 22
0.0
 32
0.0
 13
1.0
 23
0.0
 33
0.0
 40
0.0
 40
0.0
 40
0.0
 40
0.0
 40
0.6158628273032459
 40
1.0
 40
1.0
 40
1.0
 40
1.0
 10
186.2905235970684
 20
154.9236066067643
 30
0.0
 10
186.2667722782271
 20
154.9429495557778
 30
0.0
 10
186.2282063544721
 20
154.974357441034
 30
0.0
 10
186.2150758929954
 20
155.0183510111397
 30
0.0
 10
186.2100319946475
 20
155.035250576777
 30
0.0
  0
SPLINE
  5
171
330
1F
100
AcDbEntity
  8
0
  6
Continuous
 62
     7
370
    15
100
AcDbSpline
210
0.0
220
0.0
230
1.0
 70
     8
 71
     3
 72
    12
 73
     8
 74
     0
 42
0.00000001
 43
0.00000001
 12
1.0
 22
0.0
 32
0.0
 13
1.0
 23
0.0
 33
0.0
 40
0.0
 40
0.0
 40
0.0
 40
0.0
 40
0.1009845942865283
 40
0.3257403936200879
 40
0.5504959083934864
 40
0.7752498316872974
 40
1.0
 40
1.0
 40
1.0
 40
1.0
 10
186.319501140184
 20
155.4744950855203
 30
0.0
 10
186.3167730404517
 20
155.4841276862383
 30
0.0
 10
186.3079731607581
 20
155.5151990310474
 30
0.0
 10
186.2658877842919
 20
155.5562067320712
 30
0.0
 10
186.1988043181054
 20
155.5917647055099
 30
0.0
 10
186.1150058703498
 20
155.6091608048135
 30
0.0
 10
186.0541085814551
 20
155.6039338260879
 30
0.0
 10
186.0236601913639
 20
155.6013203585572
 30
0.0
  0
SPLINE
  5
172
330
1F
100
AcDbEntity
  8
0
  6
Continuous
 62
     7
370
    15
100
AcDbSpline
210
0.0
220
0.0
230
1.0
 70
     8
 71
     3
 72
    11
 73
     7
 74
     0
 42
0.00000001
 43
0.00000001
 12
1.0
 22
0.0
 32
0.0
 13
1.0
 23
0.0
 33
0.0
 40
0.0
 40
0.0
 40
0.0
 40
0.0
 40
0.2499828949295003
 40
0.4999276362774591
 40
0.7489689250737028
 40
1.0
 40
1.0
 40
1.0
 40
1.0
 10
186.1136602247425
 20
155.5525637591309
 30
0.0
 10
186.1159663105676
 20
155.5459395394861
 30
0.0
 10
186.1205781302521
 20
155.5326921112164
 30
0.0
 10
186.1168870588866
 20
155.5106072208745
 30
0.0
 10
186.1062234871956
 20
155.4888166596529
 30
0.0
 10
186.0931037366305
 20
155.4764938035674
 30
0.0
 10
186.0865177596279
 20
155.4703078592248
 30
0.0
  0
SPLINE
  5
173
330
1F
100
AcDbEntity
  8
0
  6
Continuous
 62
     7
370
    15
100
AcDbSpline
210
0.0
220
0.0
230
1.0
 70
     8
 71
     3
 72
     9
 73
     5
 74
     0
 42
0.00000001
 43
0.00000001
 12
1.0
 22
0.0
 32
0.0
 13
1.0
 23
0.0
 33
0.0
 40
0.0
 40
0.0
 40
0.0
 40
0.0
 40
0.4991474719268892
 40
1.0
 40
1.0
 40
1.0
 40
1.0
 10
186.0865177596279
 20
155.4703078592248
 30
0.0
 10
186.0815693186671
 20
155.4610484584905
 30
0.0
 10
186.0716555331848
 20
155.4424980274955
 30
0.0
 10
186.0727167583019
 20
155.4239813041576
 30
0.0
 10
186.0732482755847
 20
155.4147071564622
 30
0.0
  0
SPLINE
  5
174
330
1F
100
AcDbEntity
  8
0
  6
Continuous
 62
     7
370
    15
100
AcDbSpline
210
0.0
220
0.0
230
1.0
 70
     8
 71
     3
 72
    11
 73
     7
 74
     0
 42
0.00000001
 43
0.00000001
 12
1.0
 22
0.0
 32
0.0
 13
1.0
 23
0.0
 33
0.0
 40
0.0
 40
0.0
 40
0.0
 40
0.0
 40
0.2782767595796078
 40
0.5151599250715887
 40
0.7437938017773718
 40
1.0
 40
1.0
 40
1.0
 40
1.0
 10
186.1029529953666
 20
155.3690529787965
 30
0.0
 10
186.1026722240479
 20
155.3685945082526
 30
0.0
 10
186.1021524460695
 20
155.3677457645365
 30
0.0
 10
186.1008730794212
 20
155.3667195877385
 30
0.0
 10
186.0992911277001
 20
155.3661124098882
 30
0.0
 10
186.0982108449589
 20
155.3660718356442
 30
0.0
 10
186.0976399863429
 20
155.3660503948159
 30
0.0
  0
SPLINE
  5
175
330
1F
100
AcDbEntity
  8
0
  6
Continuous
 62
     7
370
    15
100
AcDbSpline
210
0.0
220
0.0
230
1.0
 70
     8
 71
     3
 72
    11
 73
     7
 74
     0
 42
0.00000001
 43
0.00000001
 12
1.0
 22
0.0
 32
0.0
 13
1.0
 23
0.0
 33
0.0
 40
0.0
 40
0.0
 40
0.0
 40
0.0
 40
0.2499991996535444
 40
0.499989580713786
 40
0.7499891924948713
 40
1.0
 40
1.0
 40
1.0
 40
1.0
 10
186.0976399863429
 20
155.3660503948159
 30
0.0
 10
186.0738598245974
 20
155.3683056880967
 30
0.0
 10
186.0263003399392
 20
155.3728161951041
 30
0.0
 10
185.9687404562525
 20
155.4022861978693
 30
0.0
 10
185.9271624163578
 20
155.4445051097267
 30
0.0
 10
185.9185779816579
 20
155.4802238524431
 30
0.0
 10
185.914285668201
 20
155.4980836236901
 30
0.0
  0
SPLINE
  5
176
330
1F
100
AcDbEntity
  8
0
  6
Continuous
 62
     7
370
    15
100
AcDbSpline
210
0.0
220
0.0
230
1.0
 70
     8
 71
     3
 72
    10
 73
     6
 74
     0
 42
0.00000001
 43
0.00000001
 12
1.0
 22
0.0
 32
0.0
 13
1.0
 23
0.0
 33
0.0
 40
0.0
 40
0.0
 40
0.0
 40
0.0
 40
0.3334609948067361
 40
0.6667152911551069
 40
1.0
 40
1.0
 40
1.0
 40
1.0
 10
189.0709603214927
 20
156.5163932168908
 30
0.0
 10
189.064303398192
 20
156.4820638410781
 30
0.0
 10
189.0509936779377
 20
156.4134263687901
 30
0.0
 10
189.072916909212
 20
156.3276512364826
 30
0.0
 10
189.1126904402456
 20
156.2992039605977
 30
0.0
 10
189.1325781131454
 20
156.2849796736665
 30
0.0
  0
SPLINE
  5
177
330
1F
100
AcDbEntity
  8
0
  6
Continuous
 62
     7
370
    15
100
AcDbSpline
210
0.0
220
0.0
230
1.0
 70
     8
 71
     3
 72
    14
 73
    10
 74
     0
 42
0.00000001
 43
0.00000001
 12
1.0
 22
0.0
 32
0.0
 13
1.0
 23
0.0
 33
0.0
 40
0.0
 40
0.0
 40
0.0
 40
0.0
 40
0.0273984575773108
 40
0.2217577808471113
 40
0.4160493255152682
 40
0.6103309247857382
 40
0.8047216890647921
 40
0.903209832609397
 40
1.0
 40
1.0
 40
1.0
 40
1.0
 10
189.4354807222553
 20
156.798430475039
 30
0.0
 10
189.4331187125543
 20
156.8008227151432
 30
0.0
 10
189.4140010659443
 20
156.8201850407507
 30
0.0
 10
189.3554885939866
 20
156.8189276482289
 30
0.0
 10
189.2707954456725
 20
156.7885116483633
 30
0.0
 10
189.1842860056335
 20
156.7181755018989
 30
0.0
 10
189.1248209029624
 20
156.6381270811609
 30
0.0
 10
189.0883867557716
 20
156.5690083302956
 30
0.0
 10
189.0767353626767
 20
156.5338296265401
 30
0.0
 10
189.0709603214927
 20
156.5163932168908
 30
0.0
  0
SPLINE
  5
178
330
1F
100
AcDbEntity
  8
0
  6
Continuous
 62
     7
370
    15
100
AcDbSpline
210
0.0
220
0.0
230
1.0
 70
     8
 71
     3
 72
    10
 73
     6
 74
     0
 42
0.00000001
 43
0.00000001
 12
1.0
 22
0.0
 32
0.0
 13
1.0
 23
0.0
 33
0.0
 40
0.0
 40
0.0
 40
0.0
 40
0.0
 40
0.3334408904761941
 40
0.6667007399334419
 40
1.0
 40
1.0
 40
1.0
 40
1.0
 10
190.18650893218
 20
157.8646324003167
 30
0.0
 10
190.1845275739952
 20
157.8280675185993
 30
0.0
 10
190.1805659333997
 20
157.7549576079889
 30
0.0
 10
190.2063913166734
 20
157.6673136217727
 30
0.0
 10
190.2412257279599
 20
157.6413527251449
 30
0.0
 10
190.2586439634032
 20
157.628371509356
 30
0.0
  0
SPLINE
  5
179
330
1F
100
AcDbEntity
  8
0
  6
Continuous
 62
     7
370
    15
100
AcDbSpline
210
0.0
220
0.0
230
1.0
 70
     8
 71
     3
 72
    13
 73
     9
 74
     0
 42
0.00000001
 43
0.00000001
 12
1.0
 22
0.0
 32
0.0
 13
1.0
 23
0.0
 33
0.0
 40
0.0
 40
0.0
 40
0.0
 40
0.0
 40
0.1510517639064512
 40
0.3629900156435432
 40
0.5749153956257848
 40
0.7869592637791707
 40
0.8944216550246593
 40
0.9999999999999999
 40
0.9999999999999999
 40
0.9999999999999999
 40
0.9999999999999999
 10
190.4236512268253
 20
158.198781999392
 30
0.0
 10
190.4099037016694
 20
158.2014747608449
 30
0.0
 10
190.3768672495132
 20
158.207945691714
 30
0.0
 10
190.3172197712594
 20
158.1656374216263
 30
0.0
 10
190.2566526500406
 20
158.0866914913596
 30
0.0
 10
190.2173917035762
 20
157.9970172800404
 30
0.0
 10
190.1952605373883
 20
157.921357852901
 30
0.0
 10
190.1894088840294
 20
157.8834290755796
 30
0.0
 10
190.18650893218
 20
157.8646324003167
 30
0.0
  0
SPLINE
  5
17A
330
1F
100
AcDbEntity
  8
0
  6
Continuous
 62
     7
370
    15
100
AcDbSpline
210
0.0
220
0.0
230
1.0
 70
     8
 71
     3
 72
    12
 73
     8
 74
     0
 42
0.00000001
 43
0.00000001
 12
1.0
 22
0.0
 32
0.0
 13
1.0
 23
0.0
 33
0.0
 40
0.0
 40
0.0
 40
0.0
 40
0.0
 40
0.3037198916368208
 40
0.6074489564497704
 40
0.911193061809647
 40
0.9695311506621395
 40
1.0
 40
1.0
 40
1.0
 40
1.0
 10
187.9259029412933
 20
156.8003869975038
 30
0.0
 10
187.931306179318
 20
156.8208222748211
 30
0.0
 10
187.9421128185602
 20
156.8616934466573
 30
0.0
 10
187.9417269492128
 20
156.9307298394178
 30
0.0
 10
187.9321788564599
 20
156.9783601858709
 30
0.0
 10
187.9234917263499
 20
157.0037076254578
 30
0.0
 10
187.9213400676466
 20
157.0092492356912
 30
0.0
 10
187.9206018531985
 20
157.0111505115457
 30
0.0
  0
SPLINE
  5
17B
330
1F
100
AcDbEntity
  8
0
  6
Continuous
 62
     7
370
    15
100
AcDbSpline
210
0.0
220
0.0
230
1.0
 70
     8
 71
     3
 72
    12
 73
     8
 74
     0
 42
0.00000001
 43
0.00000001
 12
1.0
 22
0.0
 32
0.0
 13
1.0
 23
0.0
 33
0.0
 40
0.0
 40
0.0
 40
0.0
 40
0.0
 40
0.0304699129121832
 40
0.0888079377678735
 40
0.3925517099208893
 40
0.6962804415434776
 40
1.0
 40
1.0
 40
1.0
 40
1.0
 10
181.587067433662
 20
157.0111505115457
 30
0.0
 10
181.5863289311678
 20
157.0092492482914
 30
0.0
 10
181.5841764838097
 20
157.0037078058445
 30
0.0
 10
181.5754903831615
 20
156.9783599710817
 30
0.0
 10
181.5659413101742
 20
156.9307299263455
 30
0.0
 10
181.5655557938422
 20
156.8616934249266
 30
0.0
 10
181.5763623860175
 20
156.8208222675776
 30
0.0
 10
181.5817656005092
 20
156.8003869975038
 30
0.0
  0
ARC
  5
17C
330
1F
100
AcDbEntity
  8
0
  6
Continuous
 62
     7
370
    15
100
AcDbCircle
 10
184.7760423721
 20
162.0905071826
 30
0.0
 40
4.221749955557986
100
AcDbArc
 50
58.4717660605
 51
86.227198466
  0
SPLINE
  5
17D
330
1F
100
AcDbEntity
  8
0
  6
Continuous
 62
     7
370
    15
100
AcDbSpline
210
0.0
220
0.0
230
1.0
 70
    24
 71
     3
 72
    11
 73
     7
 74
     0
 42
0.00000001
 43
0.00000001
 12
1.0
 22
0.0
 32
0.0
 13
1.0
 23
0.0
 33
0.0
 40
0.0
 40
0.0
 40
0.0
 40
0.0
 40
0.2947310880028842
 40
0.5894853990893537
 40
0.883777239747531
 40
1.0
 40
1.0
 40
1.0
 40
1.0
 10
185.0538345063396
 20
166.1871484840341
 30
0.0
 10
185.0538345063396
 20
166.2067155531872
 30
0.0
 10
185.0538345063396
 20
166.245851233264
 30
0.0
 10
185.0538345063396
 20
166.2855365922238
 30
0.0
 10
185.0538345063396
 20
166.3019788205376
 30
0.0
 10
185.0538345063396
 20
166.3028587182587
 30
0.0
 10
185.0538345063396
 20
166.3031078303285
 30
0.0
  0
ARC
  5
17E
330
1F
100
AcDbEntity
  8
0
  6
Continuous
 62
     7
370
    15
100
AcDbCircle
 10
184.7316247387
 20
162.0905116796
 30
0.0
 40
4.221745374091757
100
AcDbArc
 50
93.7727861722
 51
121.5282493013
  0
SPLINE
  5
17F
330
1F
100
AcDbEntity
  8
0
  6
Continuous
 62
     7
370
    15
100
AcDbSpline
210
0.0
220
0.0
230
1.0
 70
    24
 71
     3
 72
    11
 73
     7
 74
     0
 42
0.00000001
 43
0.00000001
 12
1.0
 22
0.0
 32
0.0
 13
1.0
 23
0.0
 33
0.0
 40
0.0
 40
0.0
 40
0.0
 40
0.0
 40
0.2933129200002615
 40
0.586596629449008
 40
0.8805064431463548
 40
1.0
 40
1.0
 40
1.0
 40
1.0
 10
184.4538340354629
 20
166.3031078303285
 30
0.0
 10
184.4538340354629
 20
166.3011741872218
 30
0.0
 10
184.4538340354629
 20
166.2973070935768
 30
0.0
 10
184.4538340354629
 20
166.2634650408544
 30
0.0
 10
184.4538340354629
 20
166.2233472623668
 30
0.0
 10
184.4538340354629
 20
166.1952654773104
 30
0.0
 10
184.4538340354629
 20
166.1871484840341
 30
0.0
  0
SPLINE
  5
180
330
1F
100
AcDbEntity
  8
0
  6
Continuous
 62
     7
370
    15
100
AcDbSpline
210
0.0
220
0.0
230
1.0
 70
     8
 71
     3
 72
    10
 73
     6
 74
     0
 42
0.00000001
 43
0.00000001
 12
1.0
 22
0.0
 32
0.0
 13
1.0
 23
0.0
 33
0.0
 40
0.0
 40
0.0
 40
0.0
 40
0.0
 40
0.2119760622186867
 40
0.48830338236143
 40
1.0
 40
1.0
 40
1.0
 40
1.0
 10
187.9259029412933
 20
165.3820402348466
 30
0.0
 10
187.9256530438065
 20
165.3822221599617
 30
0.0
 10
187.9250773854669
 20
165.382641238645
 30
0.0
 10
187.922928673518
 20
165.384013390376
 30
0.0
 10
187.9209821638062
 20
165.3851985849543
 30
0.0
 10
187.9197182143398
 20
165.3859681809373
 30
0.0
  0
SPLINE
  5
181
330
1F
100
AcDbEntity
  8
0
  6
Continuous
 62
     7
370
    15
100
AcDbSpline
210
0.0
220
0.0
230
1.0
 70
     8
 71
     3
 72
    10
 73
     6
 74
     0
 42
0.00000001
 43
0.00000001
 12
1.0
 22
0.0
 32
0.0
 13
1.0
 23
0.0
 33
0.0
 40
0.0
 40
0.0
 40
0.0
 40
0.0
 40
0.3554450524201749
 40
0.7142342342461039
 40
1.0
 40
1.0
 40
1.0
 40
1.0
 10
187.4784180904098
 20
165.5972234332986
 30
0.0
 10
187.5030999173197
 20
165.5886735504721
 30
0.0
 10
187.5526957848743
 20
165.5714933450595
 30
0.0
 10
187.7202817743653
 20
165.4940499041559
 30
0.0
 10
187.8627424748217
 20
165.4164461428988
 30
0.0
 10
187.9259029412933
 20
165.3820402348466
 30
0.0
  0
LINE
  5
182
330
1F
100
AcDbEntity
  8
0
  6
Continuous
 62
     7
370
    15
100
AcDbLine
 10
184.8068589354
 20
166.2578157509
 30
0.0
 11
185.0538345063
 21
166.299433204
 31
0.0
  0
SPLINE
  5
183
330
1F
100
AcDbEntity
  8
0
  6
Continuous
 62
     7
370
    15
100
AcDbSpline
210
0.0
220
0.0
230
1.0
 70
     8
 71
     3
 72
    12
 73
     8
 74
     0
 42
0.00000001
 43
0.00000001
 12
1.0
 22
0.0
 32
0.0
 13
1.0
 23
0.0
 33
0.0
 40
0.0
 40
0.0
 40
0.0
 40
0.0
 40
0.2238944353574212
 40
0.4477797328281712
 40
0.6716934128843952
 40
0.8955897796651459
 40
1.0
 40
1.0
 40
1.0
 40
1.0
 10
184.7569631422229
 20
166.2574119294114
 30
0.0
 10
184.7625843582459
 20
166.2574120255152
 30
0.0
 10
184.7738265608712
 20
166.2574122177187
 30
0.0
 10
184.7888084324403
 20
166.2574554794203
 30
0.0
 10
184.8001279007992
 20
166.2575503828525
 30
0.0
 10
184.8056483584884
 20
166.2576804691763
 30
0.0
 10
184.8065668353648
 20
166.2577831087632
 30
0.0
 10
184.8068589354224
 20
166.2578157508798
 30
0.0
  0
ELLIPSE
  5
184
330
1F
100
AcDbEntity
  8
0
  6
Continuous
 62
     7
370
    15
100
AcDbEllipse
 10
184.7538342794
 20
158.476880024
 30
0.0
 11
0.0
 21
7.780532056322784
 31
0.0
210
0.0
220
0.0
230
1.0
 40
0.893109678
 41
6.282735029799742
 42
6.283635584559446
  0
SPLINE
  5
185
330
1F
100
AcDbEntity
  8
0
  6
Continuous
 62
     7
370
    15
100
AcDbSpline
210
0.0
220
0.0
230
1.0
 70
     8
 71
     3
 72
    12
 73
     8
 74
     0
 42
0.00000001
 43
0.00000001
 12
1.0
 22
0.0
 32
0.0
 13
1.0
 23
0.0
 33
0.0
 40
0.0
 40
0.0
 40
0.0
 40
0.0
 40
0.2238807070559335
 40
0.4477601440461912
 40
0.6716973626141148
 40
0.8955759431879641
 40
1.0
 40
1.0
 40
1.0
 40
1.0
 10
184.70080960638
 20
166.2578157508798
 30
0.0
 10
184.7017236029201
 20
166.2577487008374
 30
0.0
 10
184.7035515908152
 20
166.257614601133
 30
0.0
 10
184.7131239848397
 20
166.2574938138207
 30
0.0
 10
184.7265104882933
 20
166.2574270521403
 30
0.0
 10
184.7398872554103
 20
166.2574078417206
 30
0.0
 10
184.7480948037544
 20
166.2574109429845
 30
0.0
 10
184.7507053995795
 20
166.2574119294114
 30
0.0
  0
LINE
  5
186
330
1F
100
AcDbEntity
  8
0
  6
Continuous
 62
     7
370
    15
100
AcDbLine
 10
184.7008096064
 20
166.2578157509
 30
0.0
 11
184.4538340355
 21
166.299433204
 31
0.0
  0
SPLINE
  5
187
330
1F
100
AcDbEntity
  8
0
  6
Continuous
 62
     7
370
    15
100
AcDbSpline
210
0.0
220
0.0
230
1.0
 70
     8
 71
     3
 72
    11
 73
     7
 74
     0
 42
0.00000001
 43
0.00000001
 12
1.0
 22
0.0
 32
0.0
 13
1.0
 23
0.0
 33
0.0
 40
0.0
 40
0.0
 40
0.0
 40
0.0
 40
0.3701579253853868
 40
0.7441843774774568
 40
0.944023960253561
 40
1.0
 40
1.0
 40
1.0
 40
1.0
 10
181.5879510725208
 20
165.3859681809373
 30
0.0
 10
181.5870337770051
 20
165.3854110722768
 30
0.0
 10
181.5851895993029
 20
165.384291032604
 30
0.0
 10
181.5830699283428
 20
165.3829512702585
 30
0.0
 10
181.5820605366181
 20
165.3822672659924
 30
0.0
 10
181.581818550467
 20
165.3820809938084
 30
0.0
 10
181.5817656005092
 20
165.3820402348466
 30
0.0
  0
SPLINE
  5
188
330
1F
100
AcDbEntity
  8
0
  6
Continuous
 62
     7
370
    15
100
AcDbSpline
210
0.0
220
0.0
230
1.0
 70
     8
 71
     3
 72
    15
 73
    11
 74
     0
 42
0.00000001
 43
0.00000001
 12
1.0
 22
0.0
 32
0.0
 13
1.0
 23
0.0
 33
0.0
 40
0.0
 40
0.0
 40
0.0
 40
0.0
 40
0.125658727692224
 40
0.2500586894642961
 40
0.3750521644728016
 40
0.5000126912884391
 40
0.6249946320214882
 40
0.7499576114488676
 40
0.8744991616511827
 40
1.0
 40
1.0
 40
1.0
 40
1.0
 10
186.0289314771362
 20
155.5887035453744
 30
0.0
 10
186.0384180385479
 20
155.5888807765322
 30
0.0
 10
186.0572961312812
 20
155.5892334634633
 30
0.0
 10
186.0823140050153
 20
155.5817278289159
 30
0.0
 10
186.1022659797232
 20
155.569142160152
 30
0.0
 10
186.1153964816578
 20
155.551765279643
 30
0.0
 10
186.1206508555858
 20
155.5312259828517
 30
0.0
 10
186.1174032504535
 20
155.5093188162689
 30
0.0
 10
186.106616033551
 20
155.4874771357794
 30
0.0
 10
186.0935086245409
 20
155.4751625641388
 30
0.0
 10
186.0869297767348
 20
155.4689816558785
 30
0.0
  0
LINE
  5
189
330
1F
100
AcDbEntity
  8
0
  6
Continuous
 62
     7
370
    15
100
AcDbLine
 10
186.0240580524
 20
155.5999896849
 30
0.0
 11
186.0289314771
 21
155.5887050355
 31
0.0
  0
SPLINE
  5
18A
330
1F
100
AcDbEntity
  8
0
  6
Continuous
 62
     7
370
    15
100
AcDbSpline
210
0.0
220
0.0
230
1.0
 70
     8
 71
     3
 72
    15
 73
    11
 74
     0
 42
0.00000001
 43
0.00000001
 12
1.0
 22
0.0
 32
0.0
 13
1.0
 23
0.0
 33
0.0
 40
0.0
 40
0.0
 40
0.0
 40
0.0
 40
0.125004038670321
 40
0.2499982503897607
 40
0.3749828704690664
 40
0.4999654172077944
 40
0.6249578178670777
 40
0.7499654531489459
 40
0.8749783427955498
 40
1.0
 40
1.0
 40
1.0
 40
1.0
 10
186.240592041082
 20
155.2368185842462
 30
0.0
 10
186.2605275454721
 20
155.2573210840837
 30
0.0
 10
186.3003969870613
 20
155.2983244719945
 30
0.0
 10
186.331091596073
 20
155.3695089549348
 30
0.0
 10
186.3364869125916
 20
155.4396235285352
 30
0.0
 10
186.3144297920546
 20
155.5034313597894
 30
0.0
 10
186.2672887572888
 20
155.5552280824424
 30
0.0
 10
186.1990034734218
 20
155.5903557041815
 30
0.0
 10
186.1154899845819
 20
155.6078589689379
 30
0.0
 10
186.0545360755632
 20
155.6026128408736
 30
0.0
 10
186.0240580523677
 20
155.5999896848626
 30
0.0
  0
SPLINE
  5
18B
330
1F
100
AcDbEntity
  8
0
  6
Continuous
 62
     7
370
    15
100
AcDbSpline
210
0.0
220
0.0
230
1.0
 70
     8
 71
     3
 72
    11
 73
     7
 74
     0
 42
0.00000001
 43
0.00000001
 12
1.0
 22
0.0
 32
0.0
 13
1.0
 23
0.0
 33
0.0
 40
0.0
 40
0.0
 40
0.0
 40
0.0
 40
0.250005798881423
 40
0.5000008694670719
 40
0.7499949192682351
 40
1.0
 40
1.0
 40
1.0
 40
1.0
 10
186.2909765923687
 20
154.9222878539987
 30
0.0
 10
186.2682500351154
 20
154.942028699114
 30
0.0
 10
186.2227978958552
 20
154.9815095422219
 30
0.0
 10
186.1939627026611
 20
155.0621907094055
 30
0.0
 10
186.1957894753863
 20
155.1500575922453
 30
0.0
 10
186.2256576328673
 20
155.207897828224
 30
0.0
 10
186.240592041082
 20
155.2368185842462
 30
0.0
  0
SPLINE
  5
18C
330
1F
100
AcDbEntity
  8
0
  6
Continuous
 62
     7
370
    15
100
AcDbSpline
210
0.0
220
0.0
230
1.0
 70
     8
 71
     3
 72
    11
 73
     7
 74
     0
 42
0.00000001
 43
0.00000001
 12
1.0
 22
0.0
 32
0.0
 13
1.0
 23
0.0
 33
0.0
 40
0.0
 40
0.0
 40
0.0
 40
0.0
 40
0.2590592284857725
 40
0.500041451764117
 40
0.7408518975114959
 40
1.0
 40
1.0
 40
1.0
 40
1.0
 10
186.2816909337707
 20
154.9111790383286
 30
0.0
 10
186.2831511295822
 20
154.9117321322677
 30
0.0
 10
186.2859696295743
 20
154.9127997255661
 30
0.0
 10
186.2891932677837
 20
154.9156109483458
 30
0.0
 10
186.2911007060006
 20
154.9189387465698
 30
0.0
 10
186.2910189629791
 20
154.9211445168478
 30
0.0
 10
186.2909765923687
 20
154.9222878539987
 30
0.0
  0
SPLINE
  5
18D
330
1F
100
AcDbEntity
  8
0
  6
Continuous
 62
     7
370
    15
100
AcDbSpline
210
0.0
220
0.0
230
1.0
 70
     8
 71
     3
 72
    11
 73
     7
 74
     0
 42
0.00000001
 43
0.00000001
 12
1.0
 22
0.0
 32
0.0
 13
1.0
 23
0.0
 33
0.0
 40
0.0
 40
0.0
 40
0.0
 40
0.0
 40
0.2499771891910258
 40
0.4999685495329434
 40
0.7499755104254163
 40
1.0
 40
1.0
 40
1.0
 40
1.0
 10
185.7213350022502
 20
155.316337140841
 30
0.0
 10
185.7344871528521
 20
155.2616273879789
 30
0.0
 10
185.7607921996482
 20
155.1522047807711
 30
0.0
 10
185.8882504779094
 20
155.0213754076201
 30
0.0
 10
186.0644321810995
 20
154.929975789036
 30
0.0
 10
186.2092696571134
 20
154.9174447683234
 30
0.0
 10
186.2816909337707
 20
154.9111790383286
 30
0.0
  0
SPLINE
  5
18E
330
1F
100
AcDbEntity
  8
0
  6
Continuous
 62
     7
370
    15
100
AcDbSpline
210
0.0
220
0.0
230
1.0
 70
     8
 71
     3
 72
    11
 73
     7
 74
     0
 42
0.00000001
 43
0.00000001
 12
1.0
 22
0.0
 32
0.0
 13
1.0
 23
0.0
 33
0.0
 40
0.0
 40
0.0
 40
0.0
 40
0.0
 40
0.2500353518506832
 40
0.5000479912481914
 40
0.7500311679821859
 40
1.0
 40
1.0
 40
1.0
 40
1.0
 10
185.9952354813285
 20
155.594751926703
 30
0.0
 10
185.9564336829116
 20
155.5832053467655
 30
0.0
 10
185.8788336107155
 20
155.560113235747
 30
0.0
 10
185.7860652213198
 20
155.4906073648841
 30
0.0
 10
185.7252695779387
 20
155.4055627996128
 30
0.0
 10
185.7226465023925
 20
155.3460784581864
 30
0.0
 10
185.7213350022502
 20
155.316337140841
 30
0.0
  0
LINE
  5
18F
330
1F
100
AcDbEntity
  8
0
  6
Continuous
 62
     7
370
    15
100
AcDbLine
 10
185.9928788627
 20
155.5846265877
 30
0.0
 11
185.9952354813
 21
155.5947519267
 31
0.0
  0
SPLINE
  5
190
330
1F
100
AcDbEntity
  8
0
  6
Continuous
 62
     7
370
    15
100
AcDbSpline
210
0.0
220
0.0
230
1.0
 70
     8
 71
     3
 72
    11
 73
     7
 74
     0
 42
0.00000001
 43
0.00000001
 12
1.0
 22
0.0
 32
0.0
 13
1.0
 23
0.0
 33
0.0
 40
0.0
 40
0.0
 40
0.0
 40
0.0
 40
0.249951187244921
 40
0.4999495424747747
 40
0.7499577497610272
 40
0.9999999999999999
 40
0.9999999999999999
 40
0.9999999999999999
 40
0.9999999999999999
 10
185.91464702136
 20
155.496746989531
 30
0.0
 10
185.9149501132765
 20
155.5056945988718
 30
0.0
 10
185.9155563543059
 20
155.5235915060459
 30
0.0
 10
185.9325162213911
 20
155.5497859832816
 30
0.0
 10
185.9587713523615
 20
155.5719989874731
 30
0.0
 10
185.981509176588
 20
155.580417196571
 30
0.0
 10
185.9928788626857
 20
155.5846265876717
 30
0.0
  0
SPLINE
  5
191
330
1F
100
AcDbEntity
  8
0
  6
Continuous
 62
     7
370
    15
100
AcDbSpline
210
0.0
220
0.0
230
1.0
 70
     8
 71
     3
 72
    11
 73
     7
 74
     0
 42
0.00000001
 43
0.00000001
 12
1.0
 22
0.0
 32
0.0
 13
1.0
 23
0.0
 33
0.0
 40
0.0
 40
0.0
 40
0.0
 40
0.0
 40
0.2500220505587843
 40
0.5000343284376569
 40
0.7500166762847524
 40
1.0
 40
1.0
 40
1.0
 40
1.0
 10
186.098052748508
 20
155.3647241914697
 30
0.0
 10
186.074265286681
 20
155.3669771828639
 30
0.0
 10
186.0266912928139
 20
155.3714830775891
 30
0.0
 10
185.9691188668332
 20
155.4009501889744
 30
0.0
 10
185.9275251676702
 20
155.443166625974
 30
0.0
 10
185.9189397423826
 20
155.4788868451049
 30
0.0
 10
185.91464702136
 20
155.496746989531
 30
0.0
  0
SPLINE
  5
192
330
1F
100
AcDbEntity
  8
0
  6
Continuous
 62
     7
370
    15
100
AcDbSpline
210
0.0
220
0.0
230
1.0
 70
     8
 71
     3
 72
    12
 73
     8
 74
     0
 42
0.00000001
 43
0.00000001
 12
1.0
 22
0.0
 32
0.0
 13
1.0
 23
0.0
 33
0.0
 40
0.0
 40
0.0
 40
0.0
 40
0.0
 40
0.2781216280294515
 40
0.5145836460246315
 40
0.6279297846965372
 40
0.7437828931739658
 40
1.0
 40
1.0
 40
1.0
 40
1.0
 10
186.1033672476478
 20
155.3677252853341
 30
0.0
 10
186.1030884819071
 20
155.3672651359241
 30
0.0
 10
186.1025727065169
 20
155.3664137625059
 30
0.0
 10
186.101487236825
 20
155.3655392102928
 30
0.0
 10
186.1005280673353
 20
155.3650908767866
 30
0.0
 10
186.0994556357444
 20
155.3647693657483
 30
0.0
 10
186.0986248493546
 20
155.364742613651
 30
0.0
 10
186.098052748508
 20
155.3647241914697
 30
0.0
  0
SPLINE
  5
193
330
1F
100
AcDbEntity
  8
0
  6
Continuous
 62
     7
370
    15
100
AcDbSpline
210
0.0
220
0.0
230
1.0
 70
     8
 71
     3
 72
    11
 73
     7
 74
     0
 42
0.00000001
 43
0.00000001
 12
1.0
 22
0.0
 32
0.0
 13
1.0
 23
0.0
 33
0.0
 40
0.0
 40
0.0
 40
0.0
 40
0.0
 40
0.2500102860373378
 40
0.5000539851755078
 40
0.750007740517393
 40
0.9999999999999999
 40
0.9999999999999999
 40
0.9999999999999999
 40
0.9999999999999999
 10
186.0869297767348
 20
155.4689816558785
 30
0.0
 10
186.082106494045
 20
155.4597364180523
 30
0.0
 10
186.0724592840483
 20
155.4412447068024
 30
0.0
 10
186.0720322046128
 20
155.41301024409
 30
0.0
 10
186.0813390924362
 20
155.3870112659809
 30
0.0
 10
186.0960241522462
 20
155.3741542756169
 30
0.0
 10
186.1033672476478
 20
155.3677252853341
 30
0.0
  0
SPLINE
  5
194
330
1F
100
AcDbEntity
  8
0
  6
Continuous
 62
     7
370
    15
100
AcDbSpline
210
0.0
220
0.0
230
1.0
 70
     8
 71
     3
 72
     9
 73
     5
 74
     0
 42
0.00000001
 43
0.00000001
 12
1.0
 22
0.0
 32
0.0
 13
1.0
 23
0.0
 33
0.0
 40
0.0
 40
0.0
 40
0.0
 40
0.0
 40
0.1372500447300982
 40
1.0
 40
1.0
 40
1.0
 40
1.0
 10
184.853834101028
 20
166.0169965947099
 30
0.0
 10
184.8541323738315
 20
166.0170075509212
 30
0.0
 10
184.8563055811632
 20
166.0170873775719
 30
0.0
 10
184.8584785930995
 20
166.0171626346594
 30
0.0
 10
184.8603533590503
 20
166.0172275627084
 30
0.0
  0
SPLINE
  5
195
330
1F
100
AcDbEntity
  8
0
  6
Continuous
 62
     7
370
    15
100
AcDbSpline
210
0.0
220
0.0
230
1.0
 70
     8
 71
     3
 72
     9
 73
     5
 74
     0
 42
0.00000001
 43
0.00000001
 12
1.0
 22
0.0
 32
0.0
 13
1.0
 23
0.0
 33
0.0
 40
0.0
 40
0.0
 40
0.0
 40
0.0
 40
0.8627499552699018
 40
1.0
 40
1.0
 40
1.0
 40
1.0
 10
184.6473151827522
 20
166.0172275627084
 30
0.0
 10
184.649189948703
 20
166.0171626346594
 30
0.0
 10
184.6513629606393
 20
166.0170873775719
 30
0.0
 10
184.653536167971
 20
166.0170075509212
 30
0.0
 10
184.6538344407745
 20
166.0169965947099
 30
0.0
  0
LINE
  5
196
330
1F
100
AcDbEntity
  8
0
  6
Continuous
 62
     7
370
    15
100
AcDbLine
 10
186.0236601914
 20
155.6013203586
 30
0.0
 11
186.0240580524
 21
155.5999896849
 31
0.0
  0
LINE
  5
197
330
1F
100
AcDbEntity
  8
0
  6
Continuous
 62
     7
370
    15
100
AcDbLine
 10
185.994846561
 20
155.5960840905
 30
0.0
 11
185.9952354813
 21
155.5947519267
 31
0.0
  0
LINE
  5
198
330
1F
100
AcDbEntity
  8
0
  6
Continuous
 62
     7
370
    15
100
AcDbLine
 10
186.0865177596
 20
155.4703078592
 30
0.0
 11
186.0869297767
 21
155.4689816559
 31
0.0
  0
LINE
  5
199
330
1F
100
AcDbEntity
  8
0
  6
Continuous
 62
     7
370
    15
100
AcDbLine
 10
186.2905235971
 20
154.9236066068
 30
0.0
 11
186.2909765924
 21
154.922287854
 31
0.0
  0
LINE
  5
19A
330
1F
100
AcDbEntity
  8
0
  6
Continuous
 62
     7
370
    15
100
AcDbLine
 10
184.7008096064
 20
166.2057287419
 30
0.0
 11
184.7008096064
 21
166.2578157509
 31
0.0
  0
SPLINE
  5
19B
330
1F
100
AcDbEntity
  8
0
  6
Continuous
 62
     7
370
    15
100
AcDbSpline
210
0.0
220
0.0
230
1.0
 70
    11
 71
     3
 72
    23
 73
    19
 74
     0
 42
0.00000001
 43
0.00000001
 12
1.0
 22
0.0
 32
0.0
 13
1.0
 23
0.0
 33
0.0
 40
0.0
 40
0.0
 40
0.0
 40
0.0
 40
0.0623347725821908
 40
0.1250102879141905
 40
0.1875725346487605
 40
0.2500722789096532
 40
0.3126393259229036
 40
0.3751571819659116
 40
0.4377020608710036
 40
0.5002574574377191
 40
0.5627516550012152
 40
0.6253204667734611
 40
0.687795386621724
 40
0.7503586583564636
 40
0.812889711902341
 40
0.8754710733193646
 40
0.9382162478805539
 40
1.0
 40
1.0
 40
1.0
 40
1.0
 10
187.5706689441867
 20
155.5232159221597
 30
0.0
 10
187.5610484221032
 20
155.4916485076974
 30
0.0
 10
187.5417547889394
 20
155.42834112071
 30
0.0
 10
187.5643962971253
 20
155.3452174564633
 30
0.0
 10
187.6249346839938
 20
155.28801418899
 30
0.0
 10
187.7156855538424
 20
155.2655326131868
 30
0.0
 10
187.8216278726054
 20
155.2813510033714
 30
0.0
 10
187.9264849455911
 20
155.3345165582943
 30
0.0
 10
188.0145359893309
 20
155.4159126991323
 30
0.0
 10
188.071964110719
 20
155.5134258196078
 30
0.0
 10
188.0914918192752
 20
155.611127185782
 30
0.0
 10
188.0699402860567
 20
155.6937602517357
 30
0.0
 10
188.0106718097807
 20
155.7484651313343
 30
0.0
 10
187.9228016262006
 20
155.7679979013093
 30
0.0
 10
187.8183591822992
 20
155.7493092472128
 30
0.0
 10
187.7138522925861
 20
155.6962615065825
 30
0.0
 10
187.6227440121464
 20
155.6168102143706
 30
0.0
 10
187.5879377264894
 20
155.5542530291725
 30
0.0
 10
187.5706689441867
 20
155.5232159221597
 30
0.0
  0
SPLINE
  5
19C
330
1F
100
AcDbEntity
  8
0
  6
Continuous
 62
     7
370
    15
100
AcDbSpline
210
0.0
220
0.0
230
1.0
 70
    11
 71
     3
 72
    23
 73
    19
 74
     0
 42
0.00000001
 43
0.00000001
 12
1.0
 22
0.0
 32
0.0
 13
1.0
 23
0.0
 33
0.0
 40
0.0
 40
0.0
 40
0.0
 40
0.0
 40
0.0623371246965227
 40
0.1250102667846022
 40
0.187573817957851
 40
0.2500701650265579
 40
0.3126351103847859
 40
0.3751529215400332
 40
0.4376994439788499
 40
0.500256546360016
 40
0.5627521953538995
 40
0.6253228789483872
 40
0.6877969291505361
 40
0.7503566928399821
 40
0.8128856742024925
 40
0.87546727231892
 40
0.9382141464504565
 40
1.0
 40
1.0
 40
1.0
 40
1.0
 10
189.0722522521682
 20
156.5154976571031
 30
0.0
 10
189.0655129166206
 20
156.4811202675429
 30
0.0
 10
189.0519979183132
 20
156.4121801831038
 30
0.0
 10
189.0752263839184
 20
156.3285451202288
 30
0.0
 10
189.1298658287934
 20
156.2773365785889
 30
0.0
 10
189.2087892689408
 20
156.2664666040203
 30
0.0
 10
189.2986519394143
 20
156.2974511957411
 30
0.0
 10
189.3852695167239
 20
156.3670512719359
 30
0.0
 10
189.455535249454
 20
156.4637443284902
 30
0.0
 10
189.4984671555887
 20
156.5732160215373
 30
0.0
 10
189.5090864875784
 20
156.6780185591145
 30
0.0
 10
189.4859635664226
 20
156.7618098581731
 30
0.0
 10
189.4328951859881
 20
156.8114571408144
 30
0.0
 10
189.3579145314858
 20
156.8203563292165
 30
0.0
 10
189.2710126128832
 20
156.7867138672079
 30
0.0
 10
189.1855228780078
 20
156.7167655174008
 30
0.0
 10
189.1121970792711
 20
156.6208005694076
 30
0.0
 10
189.0854985168249
 20
156.5504175790723
 30
0.0
 10
189.0722522521682
 20
156.5154976571031
 30
0.0
  0
LINE
  5
19D
330
1F
100
AcDbEntity
  8
0
  6
Continuous
 62
     7
370
    15
100
AcDbLine
 10
190.5223706747
 20
160.0872925842
 30
0.0
 11
190.533051082
 21
160.0805483187
 31
0.0
  0
SPLINE
  5
19E
330
1F
100
AcDbEntity
  8
0
  6
Continuous
 62
     7
370
    15
100
AcDbSpline
210
0.0
220
0.0
230
1.0
 70
     8
 71
     3
 72
    15
 73
    11
 74
     0
 42
0.00000001
 43
0.00000001
 12
1.0
 22
0.0
 32
0.0
 13
1.0
 23
0.0
 33
0.0
 40
0.0
 40
0.0
 40
0.0
 40
0.0
 40
0.1253590748828507
 40
0.249291535006415
 40
0.3751213781427503
 40
0.5000080643082342
 40
0.6248181161270058
 40
0.750628201411592
 40
0.8748359987816946
 40
1.0
 40
1.0
 40
1.0
 40
1.0
 10
190.88699054069
 20
159.9428556287713
 30
0.0
 10
190.8780282961483
 20
159.9899326342286
 30
0.0
 10
190.8602057994445
 20
160.0835508981233
 30
0.0
 10
190.8169531596895
 20
160.2046177312692
 30
0.0
 10
190.7637346495775
 20
160.28786084259
 30
0.0
 10
190.7067810019321
 20
160.3342896285614
 30
0.0
 10
190.6504607728058
 20
160.3344536540415
 30
0.0
 10
190.5983223388466
 20
160.2933292349771
 30
0.0
 10
190.5544667617698
 20
160.207244536149
 30
0.0
 10
190.5330966845429
 20
160.127378648799
 30
0.0
 10
190.5223706746764
 20
160.0872925842233
 30
0.0
  0
SPLINE
  5
19F
330
1F
100
AcDbEntity
  8
0
  6
Continuous
 62
     7
370
    15
100
AcDbSpline
210
0.0
220
0.0
230
1.0
 70
     8
 71
     3
 72
    11
 73
     7
 74
     0
 42
0.00000001
 43
0.00000001
 12
1.0
 22
0.0
 32
0.0
 13
1.0
 23
0.0
 33
0.0
 40
0.0
 40
0.0
 40
0.0
 40
0.0
 40
0.2500110228303934
 40
0.5000005860621116
 40
0.7499932356225897
 40
1.0
 40
1.0
 40
1.0
 40
1.0
 10
191.1485755825706
 20
159.6489063823647
 30
0.0
 10
191.1248198035949
 20
159.6434159924012
 30
0.0
 10
191.0773102847116
 20
159.6324356837397
 30
0.0
 10
191.003838147553
 20
159.6882226589628
 30
0.0
 10
190.9370560390513
 20
159.7899074392492
 30
0.0
 10
190.9036793542147
 20
159.891871939456
 30
0.0
 10
190.88699054069
 20
159.9428556287713
 30
0.0
  0
SPLINE
  5
1A0
330
1F
100
AcDbEntity
  8
0
  6
Continuous
 62
     7
370
    15
100
AcDbSpline
210
0.0
220
0.0
230
1.0
 70
     8
 71
     3
 72
    11
 73
     7
 74
     0
 42
0.00000001
 43
0.00000001
 12
1.0
 22
0.0
 32
0.0
 13
1.0
 23
0.0
 33
0.0
 40
0.0
 40
0.0
 40
0.0
 40
0.0
 40
0.2554415892930682
 40
0.4998089730333017
 40
0.7475280397063944
 40
0.9999999999999999
 40
0.9999999999999999
 40
0.9999999999999999
 40
0.9999999999999999
 10
191.1537097776599
 20
159.6250034296937
 30
0.0
 10
191.1538350129057
 20
159.6273810862417
 30
0.0
 10
191.1540800540509
 20
159.6320333203621
 30
0.0
 10
191.153058913168
 20
159.639197343958
 30
0.0
 10
191.1512186689636
 20
159.6454111566425
 30
0.0
 10
191.1494621748624
 20
159.6477339499419
 30
0.0
 10
191.1485755825706
 20
159.6489063823647
 30
0.0
  0
SPLINE
  5
1A1
330
1F
100
AcDbEntity
  8
0
  6
Continuous
 62
     7
370
    15
100
AcDbSpline
210
0.0
220
0.0
230
1.0
 70
     8
 71
     3
 72
    11
 73
     7
 74
     0
 42
0.00000001
 43
0.00000001
 12
1.0
 22
0.0
 32
0.0
 13
1.0
 23
0.0
 33
0.0
 40
0.0
 40
0.0
 40
0.0
 40
0.0
 40
0.2499762902610043
 40
0.500011995619988
 40
0.7500126173998006
 40
0.9999999999999999
 40
0.9999999999999999
 40
0.9999999999999999
 40
0.9999999999999999
 10
190.5983334416814
 20
159.3867740953393
 30
0.0
 10
190.6465262322891
 20
159.3412735229302
 30
0.0
 10
190.7429232681081
 20
159.2502615634024
 30
0.0
 10
190.9045657855998
 20
159.2625588152357
 30
0.0
 10
191.0546223316515
 20
159.3794173053416
 30
0.0
 10
191.120681212048
 20
159.5431428333388
 30
0.0
 10
191.1537097776599
 20
159.6250034296937
 30
0.0
  0
SPLINE
  5
1A2
330
1F
100
AcDbEntity
  8
0
  6
Continuous
 62
     7
370
    15
100
AcDbSpline
210
0.0
220
0.0
230
1.0
 70
     8
 71
     3
 72
    11
 73
     7
 74
     0
 42
0.00000001
 43
0.00000001
 12
1.0
 22
0.0
 32
0.0
 13
1.0
 23
0.0
 33
0.0
 40
0.0
 40
0.0
 40
0.0
 40
0.0
 40
0.2500336401362676
 40
0.5000486790354458
 40
0.7500350990810783
 40
1.0
 40
1.0
 40
1.0
 40
1.0
 10
190.5142346406646
 20
160.0456319177575
 30
0.0
 10
190.506143270496
 20
159.9842767929137
 30
0.0
 10
190.4899611321158
 20
159.8615711077368
 30
0.0
 10
190.4984958874406
 20
159.6662060029255
 30
0.0
 10
190.5327246507927
 20
159.4930140434849
 30
0.0
 10
190.5764644722748
 20
159.4221863951895
 30
0.0
 10
190.5983334416814
 20
159.3867740953393
 30
0.0
  0
LINE
  5
1A3
330
1F
100
AcDbEntity
  8
0
  6
Continuous
 62
     7
370
    15
100
AcDbLine
 10
190.5209796513
 20
160.0312388862
 30
0.0
 11
190.5142346407
 21
160.0456319178
 31
0.0
  0
SPLINE
  5
1A4
330
1F
100
AcDbEntity
  8
0
  6
Continuous
 62
     7
370
    15
100
AcDbSpline
210
0.0
220
0.0
230
1.0
 70
     8
 71
     3
 72
    11
 73
     7
 74
     0
 42
0.00000001
 43
0.00000001
 12
1.0
 22
0.0
 32
0.0
 13
1.0
 23
0.0
 33
0.0
 40
0.0
 40
0.0
 40
0.0
 40
0.0
 40
0.2499642502694165
 40
0.4999546005246557
 40
0.7499608936294991
 40
1.0
 40
1.0
 40
1.0
 40
1.0
 10
190.5537968511052
 20
159.8342827880807
 30
0.0
 10
190.5471098198784
 20
159.844802111865
 30
0.0
 10
190.5337350591991
 20
159.8658418578076
 30
0.0
 10
190.5213445553433
 20
159.9166887856956
 30
0.0
 10
190.5159849694344
 20
159.9745689756612
 30
0.0
 10
190.5193146844982
 20
160.0123480896316
 30
0.0
 10
190.520979651279
 20
160.0312388861604
 30
0.0
  0
SPLINE
  5
1A5
330
1F
100
AcDbEntity
  8
0
  6
Continuous
 62
     7
370
    15
100
AcDbSpline
210
0.0
220
0.0
230
1.0
 70
     8
 71
     3
 72
    11
 73
     7
 74
     0
 42
0.00000001
 43
0.00000001
 12
1.0
 22
0.0
 32
0.0
 13
1.0
 23
0.0
 33
0.0
 40
0.0
 40
0.0
 40
0.0
 40
0.0
 40
0.2500302945711816
 40
0.5000438746248611
 40
0.7500307173739449
 40
1.0
 40
1.0
 40
1.0
 40
1.0
 10
190.7332396144338
 20
159.9124393785424
 30
0.0
 10
190.7217419555499
 20
159.8855862148783
 30
0.0
 10
190.6987474064001
 20
159.8318816826833
 30
0.0
 10
190.6512239893735
 20
159.7936630413744
 30
0.0
 10
190.6004897612853
 20
159.7896438684817
 30
0.0
 10
190.5693607900476
 20
159.8194034966334
 30
0.0
 10
190.5537968511052
 20
159.8342827880807
 30
0.0
  0
SPLINE
  5
1A6
330
1F
100
AcDbEntity
  8
0
  6
Continuous
 62
     7
370
    15
100
AcDbSpline
210
0.0
220
0.0
230
1.0
 70
     8
 71
     3
 72
    11
 73
     7
 74
     0
 42
0.00000001
 43
0.00000001
 12
1.0
 22
0.0
 32
0.0
 13
1.0
 23
0.0
 33
0.0
 40
0.0
 40
0.0
 40
0.0
 40
0.0
 40
0.2647827750828197
 40
0.4995375981415584
 40
0.7414437759591658
 40
0.9999999999999999
 40
0.9999999999999999
 40
0.9999999999999999
 40
0.9999999999999999
 10
190.733080544538
 20
159.922394844336
 30
0.0
 10
190.7333240489259
 20
159.9215880388937
 30
0.0
 10
190.7337834428461
 20
159.9200659245767
 30
0.0
 10
190.7340462029738
 20
159.9173132436619
 30
0.0
 10
190.7338865836827
 20
159.9145968225776
 30
0.0
 10
190.73346000155
 20
159.9131743019874
 30
0.0
 10
190.7332396144338
 20
159.9124393785424
 30
0.0
  0
SPLINE
  5
1A7
330
1F
100
AcDbEntity
  8
0
  6
Continuous
 62
     7
370
    15
100
AcDbSpline
210
0.0
220
0.0
230
1.0
 70
     8
 71
     3
 72
    11
 73
     7
 74
     0
 42
0.00000001
 43
0.00000001
 12
1.0
 22
0.0
 32
0.0
 13
1.0
 23
0.0
 33
0.0
 40
0.0
 40
0.0
 40
0.0
 40
0.0
 40
0.2500101768973068
 40
0.4999871209380854
 40
0.7499826752450732
 40
1.0
 40
1.0
 40
1.0
 40
1.0
 10
190.6486881906457
 20
160.0167102539964
 30
0.0
 10
190.6538371097951
 20
160.0003242258952
 30
0.0
 10
190.6641342636686
 20
159.9675543478223
 30
0.0
 10
190.6855727094341
 20
159.9349235166436
 30
0.0
 10
190.7093525327882
 20
159.9170427191391
 30
0.0
 10
190.725170977711
 20
159.9206107508199
 30
0.0
 10
190.733080544538
 20
159.922394844336
 30
0.0
  0
SPLINE
  5
1A8
330
1F
100
AcDbEntity
  8
0
  6
Continuous
 62
     7
370
    15
100
AcDbSpline
210
0.0
220
0.0
230
1.0
 70
     8
 71
     3
 72
    15
 73
    11
 74
     0
 42
0.00000001
 43
0.00000001
 12
1.0
 22
0.0
 32
0.0
 13
1.0
 23
0.0
 33
0.0
 40
0.0
 40
0.0
 40
0.0
 40
0.0
 40
0.1250185979136274
 40
0.250029390761821
 40
0.3750403222696425
 40
0.5000221207025967
 40
0.6250104448649831
 40
0.7500039591657243
 40
0.8749948890443265
 40
1.0
 40
1.0
 40
1.0
 40
1.0
 10
190.5330510819621
 20
160.0805483186669
 30
0.0
 10
190.5368321854502
 20
160.0923968867608
 30
0.0
 10
190.5443941563672
 20
160.1160932832277
 30
0.0
 10
190.5602193892628
 20
160.1386358442059
 30
0.0
 10
190.5778839212665
 20
160.1489563305492
 30
0.0
 10
190.5964213034717
 20
160.145471899377
 30
0.0
 10
190.6142843675166
 20
160.1286871869141
 30
0.0
 10
190.6298918634369
 20
160.0999066969282
 30
0.0
 10
190.6423567295745
 20
160.0617902149392
 30
0.0
 10
190.6465776238117
 20
160.0317374758933
 30
0.0
 10
190.6486881906457
 20
160.0167102539964
 30
0.0
  0
LINE
  5
1A9
330
1F
100
AcDbEntity
  8
0
  6
Continuous
 62
     7
370
    15
100
AcDbLine
 10
190.5965341265
 20
159.3868769134
 30
0.0
 11
190.5983334417
 21
159.3867740953
 31
0.0
  0
LINE
  5
1AA
330
1F
100
AcDbEntity
  8
0
  6
Continuous
 62
     7
370
    15
100
AcDbLine
 10
190.5124044055
 20
160.0456021154
 30
0.0
 11
190.5142346407
 21
160.0456319178
 31
0.0
  0
SPLINE
  5
1AB
330
1F
100
AcDbEntity
  8
0
  6
Continuous
 62
     7
370
    15
100
AcDbSpline
210
0.0
220
0.0
230
1.0
 70
    11
 71
     3
 72
    23
 73
    19
 74
     0
 42
0.00000001
 43
0.00000001
 12
1.0
 22
0.0
 32
0.0
 13
1.0
 23
0.0
 33
0.0
 40
0.0
 40
0.0
 40
0.0
 40
0.0
 40
0.0623391735347596
 40
0.1250126386194758
 40
0.1875735691857325
 40
0.2500700465668917
 40
0.3126346153675537
 40
0.3751507698996152
 40
0.4376983403030089
 40
0.5002573186032226
 40
0.5627559768833782
 40
0.625323993637508
 40
0.6877975236514421
 40
0.750358103673854
 40
0.8128854862522515
 40
0.8754641594686433
 40
0.9382123371121572
 40
1.0
 40
1.0
 40
1.0
 40
1.0
 10
190.1881372565694
 20
157.8641376817651
 30
0.0
 10
190.1860929049917
 20
157.8275139405637
 30
0.0
 10
190.1819932390754
 20
157.7540700646813
 30
0.0
 10
190.2086654332651
 20
157.668781099089
 30
0.0
 10
190.2576665147666
 20
157.6204512502053
 30
0.0
 10
190.3224456997226
 20
157.6165057114465
 30
0.0
 10
190.3918781232039
 20
157.6570686146196
 30
0.0
 10
190.4545019353698
 20
157.7373518183732
 30
0.0
 10
190.5006733270431
 20
157.8441730312636
 30
0.0
 10
190.5230560736933
 20
157.9618228845064
 30
0.0
 10
190.5197781191689
 20
158.0719022895028
 30
0.0
 10
190.4918596955585
 20
158.157422195524
 30
0.0
 10
190.4441117936332
 20
158.2049965014007
 30
0.0
 10
190.3837117787641
 20
158.2082160433841
 30
0.0
 10
190.3185596014513
 20
158.1657889096965
 30
0.0
 10
190.2581532475226
 20
158.0851925115117
 30
0.0
 10
190.2096539008773
 20
157.9781155231838
 30
0.0
 10
190.1952724979135
 20
157.9019344401613
 30
0.0
 10
190.1881372565694
 20
157.8641376817651
 30
0.0
  0
SPLINE
  5
1AC
330
1F
100
AcDbEntity
  8
0
  6
Continuous
 62
     7
370
    15
100
AcDbSpline
210
0.0
220
0.0
230
1.0
 70
     8
 71
     3
 72
     9
 73
     5
 74
     0
 42
0.00000001
 43
0.00000001
 12
1.0
 22
0.0
 32
0.0
 13
1.0
 23
0.0
 33
0.0
 40
0.0
 40
0.0
 40
0.0
 40
0.0
 40
0.4999919490871354
 40
1.0
 40
1.0
 40
1.0
 40
1.0
 10
190.5205378318496
 20
160.0872493708558
 30
0.0
 10
190.5208433081134
 20
160.0872562006167
 30
0.0
 10
190.5214542704784
 20
160.0872698603583
 30
0.0
 10
190.5220652033314
 20
160.0872850095203
 30
0.0
 10
190.5223706746764
 20
160.0872925842233
 30
0.0
  0
LINE
  5
1AD
330
1F
100
AcDbEntity
  8
0
  6
Continuous
 62
     7
370
    15
100
AcDbLine
 10
190.5312182391
 20
160.0805036152
 30
0.0
 11
190.533051082
 21
160.0805483187
 31
0.0
  0
LINE
  5
1AE
330
1F
100
AcDbEntity
  8
0
  6
Continuous
 62
     7
370
    15
100
AcDbLine
 10
190.6468516225
 20
160.016646179
 30
0.0
 11
190.6486881906
 21
160.016710254
 31
0.0
  0
LINE
  5
1AF
330
1F
100
AcDbEntity
  8
0
  6
Continuous
 62
     7
370
    15
100
AcDbLine
 10
190.7314030463
 20
159.9123753035
 30
0.0
 11
190.7332396144
 21
159.9124393785
 31
0.0
  0
LINE
  5
1B0
330
1F
100
AcDbEntity
  8
0
  6
Continuous
 62
     7
370
    15
100
AcDbLine
 10
191.1467308188
 20
159.6487841928
 30
0.0
 11
191.1485755826
 21
159.6489063824
 31
0.0
  0
SPLINE
  5
1B1
330
1F
100
AcDbEntity
  8
0
  6
Continuous
 62
     7
370
    15
100
AcDbSpline
210
0.0
220
0.0
230
1.0
 70
     8
 71
     3
 72
    12
 73
     8
 74
     0
 42
0.00000001
 43
0.00000001
 12
1.0
 22
0.0
 32
0.0
 13
1.0
 23
0.0
 33
0.0
 40
0.0
 40
0.0
 40
0.0
 40
0.0
 40
0.0304717690451884
 40
0.0888077902912931
 40
0.3925668812738121
 40
0.6962793184156445
 40
1.0
 40
1.0
 40
1.0
 40
1.0
 10
187.9206018531985
 20
165.2462742650933
 30
0.0
 10
187.9213400517578
 20
165.2482167835444
 30
0.0
 10
187.9234914786324
 20
165.2538781145614
 30
0.0
 10
187.9321797828622
 20
165.2785786723894
 30
0.0
 10
187.941726250815
 20
165.3179326571508
 30
0.0
 10
187.9421127251321
 20
165.3610011921184
 30
0.0
 10
187.9313062514635
 20
165.3750271571476
 30
0.0
 10
187.9259029412933
 20
165.3820402348466
 30
0.0
  0
SPLINE
  5
1B2
330
1F
100
AcDbEntity
  8
0
  6
Continuous
 62
     7
370
    15
100
AcDbSpline
210
0.0
220
0.0
230
1.0
 70
     8
 71
     3
 72
    12
 73
     8
 74
     0
 42
0.00000001
 43
0.00000001
 12
1.0
 22
0.0
 32
0.0
 13
1.0
 23
0.0
 33
0.0
 40
0.0
 40
0.0
 40
0.0
 40
0.0
 40
0.0304728325313238
 40
0.0888087897880078
 40
0.392567547573853
 40
0.6962796515701867
 40
1.0
 40
1.0
 40
1.0
 40
1.0
 10
181.587067433662
 20
165.2462742650933
 30
0.0
 10
181.5863289470535
 20
165.2482167713685
 30
0.0
 10
181.584176731571
 20
165.2538779330369
 30
0.0
 10
181.5754894567156
 20
165.2785788929831
 30
0.0
 10
181.5659420086186
 20
165.3179325678831
 30
0.0
 10
181.5655558872603
 20
165.3610012144346
 30
0.0
 10
181.5763623138691
 20
165.3750271645864
 30
0.0
 10
181.5817656005092
 20
165.3820402348466
 30
0.0
  0
SPLINE
  5
1B3
330
1F
100
AcDbEntity
  8
0
  6
Continuous
 62
     7
370
    15
100
AcDbSpline
210
0.0
220
0.0
230
1.0
 70
     8
 71
     3
 72
    11
 73
     7
 74
     0
 42
0.00000001
 43
0.00000001
 12
1.0
 22
0.0
 32
0.0
 13
1.0
 23
0.0
 33
0.0
 40
0.0
 40
0.0
 40
0.0
 40
0.0
 40
0.2499948773724374
 40
0.500000309069007
 40
0.7500225493458988
 40
1.0
 40
1.0
 40
1.0
 40
1.0
 10
184.7507053995795
 20
166.205034347815
 30
0.0
 10
184.7507105263111
 20
166.1986963467902
 30
0.0
 10
184.7507207799908
 20
166.1860200771618
 30
0.0
 10
184.7507377572244
 20
166.1699743652303
 30
0.0
 10
184.7507528154208
 20
166.1585256558646
 30
0.0
 10
184.7507639218537
 20
166.1566673807029
 30
0.0
 10
184.7507694745727
 20
166.1557383263535
 30
0.0
  0
SPLINE
  5
1B4
330
1F
100
AcDbEntity
  8
0
  6
Continuous
 62
     7
370
    15
100
AcDbSpline
210
0.0
220
0.0
230
1.0
 70
     8
 71
     3
 72
    11
 73
     7
 74
     0
 42
0.00000001
 43
0.00000001
 12
1.0
 22
0.0
 32
0.0
 13
1.0
 23
0.0
 33
0.0
 40
0.0
 40
0.0
 40
0.0
 40
0.0
 40
0.2499948773724374
 40
0.500000309069007
 40
0.7500225493458988
 40
1.0
 40
1.0
 40
1.0
 40
1.0
 10
184.7569631422229
 20
166.205034347815
 30
0.0
 10
184.7569580154913
 20
166.1986963467902
 30
0.0
 10
184.7569477618117
 20
166.1860200771618
 30
0.0
 10
184.7569307845781
 20
166.1699743652303
 30
0.0
 10
184.7569157263817
 20
166.1585256558646
 30
0.0
 10
184.7569046199488
 20
166.1566673807029
 30
0.0
 10
184.7568990672298
 20
166.1557383263535
 30
0.0
  0
LINE
  5
1B5
330
1F
100
AcDbEntity
  8
0
  6
Continuous
 62
     7
370
    15
100
AcDbLine
 10
188.0667002881
 20
165.3133190597
 30
0.0
 11
188.2227683449
 21
165.2243203843
 31
0.0
  0
LINE
  5
1B6
330
1F
100
AcDbEntity
  8
0
  6
Continuous
 62
     7
370
    15
100
AcDbLine
 10
188.2034668709
 20
165.2295581425
 30
0.0
 11
188.0667002881
 21
165.3133190597
 31
0.0
  0
LINE
  5
1B7
330
1F
100
AcDbEntity
  8
0
  6
Continuous
 62
     7
370
    15
100
AcDbLine
 10
187.9446702088
 20
165.3815827692
 30
0.0
 11
188.2034668709
 21
165.2295581425
 31
0.0
  0
LINE
  5
1B8
330
1F
100
AcDbEntity
  8
0
  6
Continuous
 62
     7
370
    15
100
AcDbLine
 10
187.9271009947
 20
165.390229913
 30
0.0
 11
187.9446702088
 21
165.3815827692
 31
0.0
  0
LINE
  5
1B9
330
1F
100
AcDbEntity
  8
0
  6
Continuous
 62
     7
370
    15
100
AcDbLine
 10
187.7863096083
 20
165.4670871222
 30
0.0
 11
187.9271009947
 21
165.390229913
 31
0.0
  0
LINE
  5
1BA
330
1F
100
AcDbEntity
  8
0
  6
Continuous
 62
     7
370
    15
100
AcDbLine
 10
187.943698653
 20
165.3798333729
 30
0.0
 11
187.9446702088
 21
165.3815827692
 31
0.0
  0
LINE
  5
1BB
330
1F
100
AcDbEntity
  8
0
  6
Continuous
 62
     7
370
    15
100
AcDbLine
 10
187.9261152828
 20
165.3884909475
 30
0.0
 11
187.9271009947
 21
165.390229913
 31
0.0
  0
LINE
  5
1BC
330
1F
100
AcDbEntity
  8
0
  6
Continuous
 62
     7
370
    15
100
AcDbLine
 10
188.2024178291
 20
165.2278549397
 30
0.0
 11
188.2034668709
 21
165.2295581425
 31
0.0
  0
LINE
  5
1BD
330
1F
100
AcDbEntity
  8
0
  6
Continuous
 62
     7
370
    15
100
AcDbLine
 10
188.2217438901
 20
165.2226022804
 30
0.0
 11
188.2227683449
 21
165.2243203843
 31
0.0
  0
LINE
  5
1BE
330
1F
100
AcDbEntity
  8
0
  6
Continuous
 62
     7
370
    15
100
AcDbLine
 10
129.7538371766
 20
185.4726485336
 30
0.0
 11
289.7538336003
 21
185.4726485336
 31
0.0
  0
LINE
  5
1BF
330
1F
100
AcDbEntity
  8
0
  6
Continuous
 62
     7
370
    15
100
AcDbLine
 10
289.7538336003
 20
185.4726485336
 30
0.0
 11
289.7538336003
 21
182.0583663309
 31
0.0
  0
LINE
  5
1C0
330
1F
100
AcDbEntity
  8
0
  6
Continuous
 62
     7
370
    15
100
AcDbLine
 10
129.7538371766
 20
185.4726485336
 30
0.0
 11
129.7538371766
 21
182.0583663309
 31
0.0
  0
LINE
  5
1C1
330
1F
100
AcDbEntity
  8
0
  6
Continuous
 62
     7
370
    15
100
AcDbLine
 10
129.7538371766
 20
182.0583663309
 30
0.0
 11
129.7538371766
 21
175.8592210138
 31
0.0
  0
LINE
  5
1C2
330
1F
100
AcDbEntity
  8
0
  6
Continuous
 62
     7
370
    15
100
AcDbLine
 10
289.7538336003
 20
182.0583663309
 30
0.0
 11
289.7538336003
 21
175.8592210138
 31
0.0
  0
LINE
  5
1C3
330
1F
100
AcDbEntity
  8
0
  6
Continuous
 62
     7
370
    15
100
AcDbLine
 10
129.7538371766
 20
175.8592210138
 30
0.0
 11
129.7538371766
 21
174.6983669126
 31
0.0
  0
LINE
  5
1C4
330
1F
100
AcDbEntity
  8
0
  6
Continuous
 62
     7
370
    15
100
AcDbLine
 10
289.7538336003
 20
175.8592210138
 30
0.0
 11
289.7538336003
 21
174.6983669126
 31
0.0
  0
LWPOLYLINE
  5
1C5
330
1F
100
AcDbEntity
  8
0
  6
Continuous
 62
     7
370
    15
100
AcDbPolyline
 90
        9
 70
   128
 43
0.0
 10
129.7538371766
 20
173.0586073721
 10
129.7615202153
 20
173.0256281221
 10
129.7842832292
 20
172.9939154709
 10
129.8212440694
 20
172.9646883333
 10
129.8709901059
 20
172.9390732372
 10
129.9316080297
 20
172.918050679
 10
130.0007613385
 20
172.9024283016
 10
130.0757976258
 20
172.8928081119
 10
130.1538320268
 20
172.8895596588
  0
LINE
  5
1C6
330
1F
100
AcDbEntity
  8
0
  6
Continuous
 62
     7
370
    15
100
AcDbLine
 10
289.7538336003
 20
174.6983669126
 30
0.0
 11
289.7538336003
 21
173.0586073721
 31
0.0
  0
LWPOLYLINE
  5
1C7
330
1F
100
AcDbEntity
  8
0
  6
Continuous
 62
     7
370
    15
100
AcDbPolyline
 90
        9
 70
   128
 43
0.0
 10
289.3538327897
 20
172.8895596588
 10
289.4318731511
 20
172.8928081119
 10
289.5069094384
 20
172.9024283016
 10
289.5760627473
 20
172.918050679
 10
289.6366747106
 20
172.9390732372
 10
289.6864207471
 20
172.9646883333
 10
289.7233875478
 20
172.9939154709
 10
289.7461505616
 20
173.0256281221
 10
289.7538336003
 20
173.0586073721
  0
LINE
  5
1C8
330
1F
100
AcDbEntity
  8
0
  6
Continuous
 62
     7
370
    15
100
AcDbLine
 10
130.1538320268
 20
172.8895596588
 30
0.0
 11
289.3538327897
 21
172.8895596588
 31
0.0
  0
LINE
  5
1C9
330
1F
100
AcDbEntity
  8
0
  6
Continuous
 62
     7
370
    15
100
AcDbLine
 10
129.7538371766
 20
174.6983669126
 30
0.0
 11
129.7538371766
 21
173.0586073721
 31
0.0
  0
LINE
  5
1CA
330
1F
100
AcDbEntity
  8
0
  6
Continuous
 62
     7
370
    15
100
AcDbLine
 10
289.7538336003
 20
188.2226488913
 30
0.0
 11
289.7538336003
 21
185.4726485336
 31
0.0
  0
ARC
  5
1CB
330
1F
100
AcDbEntity
  8
0
  6
Continuous
 62
     7
370
    15
100
AcDbCircle
 10
130.1538342793
 20
185.8726499691
 30
0.0
 40
0.4000000000000057
100
AcDbArc
 50
180.0
 51
270.0
  0
LINE
  5
1CC
330
1F
100
AcDbEntity
  8
0
  6
Continuous
 62
     7
370
    15
100
AcDbLine
 10
129.7538371766
 20
188.2226488913
 30
0.0
 11
129.7538371766
 21
185.8726493442
 31
0.0
  0
LINE
  5
1CD
330
1F
100
AcDbEntity
  8
0
  6
Continuous
 62
     7
370
    15
100
AcDbLine
 10
129.7538371766
 20
189.0726498688
 30
0.0
 11
129.7538371766
 21
188.2226488913
 31
0.0
  0
LINE
  5
1CE
330
1F
100
AcDbEntity
  8
0
  6
Continuous
 62
     7
370
    15
100
AcDbLine
 10
129.7538371766
 20
189.0726498688
 30
0.0
 11
289.7538336003
 21
189.0726498688
 31
0.0
  0
LINE
  5
1CF
330
1F
100
AcDbEntity
  8
0
  6
Continuous
 62
     7
370
    15
100
AcDbLine
 10
289.7538336003
 20
189.0726498688
 30
0.0
 11
289.7538336003
 21
188.2226488913
 31
0.0
  0
LINE
  5
1D0
330
1F
100
AcDbEntity
  8
0
  6
Continuous
 62
     7
370
    15
100
AcDbLine
 10
129.7538371766
 20
185.8726493442
 30
0.0
 11
129.7538371766
 21
185.4726485336
 31
0.0
  0
LINE
  5
1D1
330
1F
100
AcDbEntity
  8
0
  6
Continuous
 62
     7
370
    15
100
AcDbLine
 10
129.9138339246
 20
185.5526498878
 30
0.0
 11
129.9138339246
 21
185.4726485336
 31
0.0
  0
LWPOLYLINE
  5
1D2
330
1F
100
AcDbEntity
  8
0
  6
Continuous
 62
     7
370
    15
100
AcDbPolyline
 90
        3
 70
   128
 43
0.0
 10
129.9138339246
 20
185.5526498878
 10
129.9195976937
 20
185.4941240871
 10
129.9246998513
 20
185.4726485336
  0
LINE
  5
1D3
330
1F
100
AcDbEntity
  8
0
  6
Continuous
 62
     7
370
    15
100
AcDbLine
 10
282.4538322175
 20
115.6926504696
 30
0.0
 11
271.8538315976
 21
115.6926504696
 31
0.0
  0
LINE
  5
1D4
330
1F
100
AcDbEntity
  8
0
  6
Continuous
 62
     7
370
    15
100
AcDbLine
 10
282.8538330281
 20
116.8926499212
 30
0.0
 11
271.4538367475
 21
116.8926499212
 31
0.0
  0
LINE
  5
1D5
330
1F
100
AcDbEntity
  8
0
  6
Continuous
 62
     7
370
    15
100
AcDbLine
 10
148.0538340295
 20
116.8926499212
 30
0.0
 11
136.6538317884
 21
116.8926499212
 31
0.0
  0
LINE
  5
1D6
330
1F
100
AcDbEntity
  8
0
  6
Continuous
 62
     7
370
    15
100
AcDbLine
 10
147.6538332189
 20
115.6926504696
 30
0.0
 11
137.053832599
 21
115.6926504696
 31
0.0
  0
LINE
  5
1D7
330
1F
100
AcDbEntity
  8
0
  6
Continuous
 62
     7
370
    15
100
AcDbLine
 10
149.3538351739
 20
135.292649957
 30
0.0
 11
149.3538351739
 21
135.4726500237
 31
0.0
  0
LINE
  5
1D8
330
1F
100
AcDbEntity
  8
0
  6
Continuous
 62
     7
370
    15
100
AcDbLine
 10
135.3538366044
 20
135.292649957
 30
0.0
 11
149.3538351739
 21
135.292649957
 31
0.0
  0
LINE
  5
1D9
330
1F
100
AcDbEntity
  8
0
  6
Continuous
 62
     7
370
    15
100
AcDbLine
 10
135.3538366044
 20
135.292649957
 30
0.0
 11
135.3538366044
 21
135.4726500237
 31
0.0
  0
LINE
  5
1DA
330
1F
100
AcDbEntity
  8
0
  6
Continuous
 62
     7
370
    15
100
AcDbLine
 10
148.5457630838
 20
122.6926497543
 30
0.0
 11
136.1619027341
 21
122.6926497543
 31
0.0
  0
LINE
  5
1DB
330
1F
100
AcDbEntity
  8
0
  6
Continuous
 62
     7
370
    15
100
AcDbLine
 10
284.1538341726
 20
135.292649957
 30
0.0
 11
284.1538341726
 21
135.4726500237
 31
0.0
  0
LINE
  5
1DC
330
1F
100
AcDbEntity
  8
0
  6
Continuous
 62
     7
370
    15
100
AcDbLine
 10
270.1538356031
 20
135.292649957
 30
0.0
 11
284.1538341726
 21
135.292649957
 31
0.0
  0
LINE
  5
1DD
330
1F
100
AcDbEntity
  8
0
  6
Continuous
 62
     7
370
    15
100
AcDbLine
 10
270.1538356031
 20
135.292649957
 30
0.0
 11
270.1538356031
 21
135.4726500237
 31
0.0
  0
LINE
  5
1DE
330
1F
100
AcDbEntity
  8
0
  6
Continuous
 62
     7
370
    15
100
AcDbLine
 10
283.3457620824
 20
122.6926497543
 30
0.0
 11
270.9619017327
 21
122.6926497543
 31
0.0
  0
LINE
  5
1DF
330
1F
100
AcDbEntity
  8
0
  6
Continuous
 62
     8
370
    15
100
AcDbLine
 10
280.6542964662
 20
148.7449667776
 30
0.0
 11
280.6542964662
 21
148.8802052463
 31
0.0
  0
LINE
  5
1E0
330
1F
100
AcDbEntity
  8
0
  6
Continuous
 62
     8
370
    15
100
AcDbLine
 10
287.8541620458
 20
148.7449667776
 30
0.0
 11
287.8541620458
 21
148.8802052463
 31
0.0
  0
LINE
  5
1E1
330
1F
100
AcDbEntity
  8
0
  6
Continuous
 62
     8
370
    15
100
AcDbLine
 10
280.7613762105
 20
149.4585282529
 30
0.0
 11
287.7462895597
 21
149.4585282529
 31
0.0
  0
SPLINE
  5
1E2
330
1F
100
AcDbEntity
  8
0
  6
Continuous
 62
     8
370
    15
100
AcDbSpline
210
0.0
220
0.0
230
1.0
 70
     8
 71
     3
 72
    11
 73
     7
 74
     0
 42
0.00000001
 43
0.00000001
 12
1.0
 22
0.0
 32
0.0
 13
1.0
 23
0.0
 33
0.0
 40
0.0
 40
0.0
 40
0.0
 40
0.0
 40
0.2514410213970892
 40
0.5021698367729902
 40
0.7628306018994647
 40
1.0
 40
1.0
 40
1.0
 40
1.0
 10
287.7462895596691
 20
149.4585282528825
 30
0.0
 10
287.7570040419384
 20
149.4112769381788
 30
0.0
 10
287.7784026577346
 20
149.316908147994
 30
0.0
 10
287.8088581881041
 20
149.1620525031806
 30
0.0
 10
287.8352687456484
 20
149.0115636041287
 30
0.0
 10
287.8480655623882
 20
148.9225919146428
 30
0.0
 10
287.8541620457836
 20
148.8802052462525
 30
0.0
  0
SPLINE
  5
1E3
330
1F
100
AcDbEntity
  8
0
  6
Continuous
 62
     8
370
    15
100
AcDbSpline
210
0.0
220
0.0
230
1.0
 70
     8
 71
     3
 72
    11
 73
     7
 74
     0
 42
0.00000001
 43
0.00000001
 12
1.0
 22
0.0
 32
0.0
 13
1.0
 23
0.0
 33
0.0
 40
0.0
 40
0.0
 40
0.0
 40
0.0
 40
0.2514197556354079
 40
0.5021376066483518
 40
0.762799519104336
 40
1.0
 40
1.0
 40
1.0
 40
1.0
 10
280.7613762105174
 20
149.4585282528825
 30
0.0
 10
280.7507421845289
 20
149.4112765752248
 30
0.0
 10
280.7295038202429
 20
149.3169051354419
 30
0.0
 10
280.699273221519
 20
149.1620479650155
 30
0.0
 10
280.6730557827784
 20
149.011559243435
 30
0.0
 10
280.6603499876862
 20
148.9225924112024
 30
0.0
 10
280.6542964661784
 20
148.8802052462525
 30
0.0
  0
SPLINE
  5
1E4
330
1F
100
AcDbEntity
  8
0
  6
Continuous
 62
     8
370
    15
100
AcDbSpline
210
0.0
220
0.0
230
1.0
 70
     8
 71
     3
 72
    11
 73
     7
 74
     0
 42
0.00000001
 43
0.00000001
 12
1.0
 22
0.0
 32
0.0
 13
1.0
 23
0.0
 33
0.0
 40
0.0
 40
0.0
 40
0.0
 40
0.0
 40
0.2371395809639757
 40
0.497795964783429
 40
0.7485347101733435
 40
1.0
 40
1.0
 40
1.0
 40
1.0
 10
280.2538366997906
 20
149.2416373813577
 30
0.0
 10
280.2824206957728
 20
149.2636892771451
 30
0.0
 10
280.3424233229156
 20
149.3099799245949
 30
0.0
 10
280.4670962913899
 20
149.3716010077073
 30
0.0
 10
280.6102357796599
 20
149.4245529769132
 30
0.0
 10
280.7109474999581
 20
149.4471922433958
 30
0.0
 10
280.7613762105174
 20
149.4585282528825
 30
0.0
  0
SPLINE
  5
1E5
330
1F
100
AcDbEntity
  8
0
  6
Continuous
 62
     8
370
    15
100
AcDbSpline
210
0.0
220
0.0
230
1.0
 70
     8
 71
     3
 72
    11
 73
     7
 74
     0
 42
0.00000001
 43
0.00000001
 12
1.0
 22
0.0
 32
0.0
 13
1.0
 23
0.0
 33
0.0
 40
0.0
 40
0.0
 40
0.0
 40
0.0
 40
0.2514415034393221
 40
0.5021686123632386
 40
0.7628225344787831
 40
1.0
 40
1.0
 40
1.0
 40
1.0
 10
287.7462895596691
 20
149.4585282528825
 30
0.0
 10
287.7967188181489
 20
149.4472705665471
 30
0.0
 10
287.8974340557168
 20
149.4247871791663
 30
0.0
 10
288.0405714417695
 20
149.3720592987053
 30
0.0
 10
288.1652511813808
 20
149.310629831739
 30
0.0
 10
288.2252502147519
 20
149.2644372513017
 30
0.0
 10
288.2538350308604
 20
149.2424301231332
 30
0.0
  0
SPLINE
  5
1E6
330
1F
100
AcDbEntity
  8
0
  6
Continuous
 62
     8
370
    15
100
AcDbSpline
210
0.0
220
0.0
230
1.0
 70
     8
 71
     3
 72
    11
 73
     7
 74
     0
 42
0.00000001
 43
0.00000001
 12
1.0
 22
0.0
 32
0.0
 13
1.0
 23
0.0
 33
0.0
 40
0.0
 40
0.0
 40
0.0
 40
0.0
 40
0.2371519711556331
 40
0.4977965586609104
 40
0.7485344124733667
 40
0.9999999999999999
 40
0.9999999999999999
 40
0.9999999999999999
 40
0.9999999999999999
 10
280.2538366997906
 20
159.3943945491738
 30
0.0
 10
280.2824226457143
 20
159.4053085084682
 30
0.0
 10
280.3424263025997
 20
159.4282175796078
 30
0.0
 10
280.4670978370502
 20
159.4416007163614
 30
0.0
 10
280.6102363051582
 20
159.4389188106431
 30
0.0
 10
280.7109475957752
 20
159.4224751501277
 30
0.0
 10
280.7613762105174
 20
159.4142414057679
 30
0.0
  0
LINE
  5
1E7
330
1F
100
AcDbEntity
  8
0
  6
Continuous
 62
     8
370
    15
100
AcDbLine
 10
280.7613762105
 20
159.4142414058
 30
0.0
 11
280.7613762105
 21
149.4585282529
 31
0.0
  0
LINE
  5
1E8
330
1F
100
AcDbEntity
  8
0
  6
Continuous
 62
     8
370
    15
100
AcDbLine
 10
287.7462895597
 20
149.4585282529
 30
0.0
 11
287.7462895597
 21
159.4142414058
 31
0.0
  0
SPLINE
  5
1E9
330
1F
100
AcDbEntity
  8
0
  6
Continuous
 62
     8
370
    15
100
AcDbSpline
210
0.0
220
0.0
230
1.0
 70
     8
 71
     3
 72
    11
 73
     7
 74
     0
 42
0.00000001
 43
0.00000001
 12
1.0
 22
0.0
 32
0.0
 13
1.0
 23
0.0
 33
0.0
 40
0.0
 40
0.0
 40
0.0
 40
0.0
 40
0.2514402237348971
 40
0.5021688926024208
 40
0.7628293354729915
 40
1.0
 40
1.0
 40
1.0
 40
1.0
 10
287.7462895596691
 20
159.4142414057679
 30
0.0
 10
287.7967188773682
 20
159.4223963429728
 30
0.0
 10
287.8974348020025
 20
159.4386831395904
 30
0.0
 10
288.0405732402684
 20
159.4411404322464
 30
0.0
 10
288.1652476191543
 20
159.4275622305164
 30
0.0
 10
288.2252496095654
 20
159.404560170257
 30
0.0
 10
288.2538350308605
 20
159.3936018073983
 30
0.0
  0
LINE
  5
1EA
330
1F
100
AcDbEntity
  8
0
  6
Continuous
 62
     8
370
    15
100
AcDbLine
 10
287.7462895597
 20
159.4142414058
 30
0.0
 11
280.7613762105
 21
159.4142414058
 31
0.0
  0
SPLINE
  5
1EB
330
1F
100
AcDbEntity
  8
0
  6
Continuous
 62
     8
370
    15
100
AcDbSpline
210
0.0
220
0.0
230
1.0
 70
     8
 71
     3
 72
    11
 73
     7
 74
     0
 42
0.00000001
 43
0.00000001
 12
1.0
 22
0.0
 32
0.0
 13
1.0
 23
0.0
 33
0.0
 40
0.0
 40
0.0
 40
0.0
 40
0.0
 40
0.2371704659067345
 40
0.4978297119668006
 40
0.748555617681134
 40
1.0
 40
1.0
 40
1.0
 40
1.0
 10
287.8541620457836
 20
159.7558982098527
 30
0.0
 10
287.8480655767577
 20
159.746472189817
 30
0.0
 10
287.8352688593942
 20
159.7266866198836
 30
0.0
 10
287.8088583378716
 20
159.6511904206778
 30
0.0
 10
287.7784021834827
 20
159.5465818308853
 30
0.0
 10
287.7570039727201
 20
159.4583969374456
 30
0.0
 10
287.7462895596691
 20
159.4142414057679
 30
0.0
  0
SPLINE
  5
1EC
330
1F
100
AcDbEntity
  8
0
  6
Continuous
 62
     8
370
    15
100
AcDbSpline
210
0.0
220
0.0
230
1.0
 70
     8
 71
     3
 72
    11
 73
     7
 74
     0
 42
0.00000001
 43
0.00000001
 12
1.0
 22
0.0
 32
0.0
 13
1.0
 23
0.0
 33
0.0
 40
0.0
 40
0.0
 40
0.0
 40
0.0
 40
0.237195301122984
 40
0.4978624492501299
 40
0.7485771356929806
 40
1.0
 40
1.0
 40
1.0
 40
1.0
 10
280.6542964661784
 20
159.7558982098527
 30
0.0
 10
280.6603501049395
 20
159.7464732966541
 30
0.0
 10
280.6730564250319
 20
159.7266908205815
 30
0.0
 10
280.6992725234712
 20
159.6511935060178
 30
0.0
 10
280.7295043581418
 20
159.5465845321224
 30
0.0
 10
280.7507422755934
 20
159.4583972388432
 30
0.0
 10
280.7613762105174
 20
159.4142414057679
 30
0.0
  0
LINE
  5
1ED
330
1F
100
AcDbEntity
  8
0
  6
Continuous
 62
     8
370
    15
100
AcDbLine
 10
287.7538355077
 20
190.9726492489
 30
0.0
 11
285.8538361276
 21
190.9726492489
 31
0.0
  0
LINE
  5
1EE
330
1F
100
AcDbEntity
  8
0
  6
Continuous
 62
     8
370
    15
100
AcDbLine
 10
289.6538348878
 20
190.9726492489
 30
0.0
 11
287.7538355077
 21
190.9726492489
 31
0.0
  0
LINE
  5
1EF
330
1F
100
AcDbEntity
  8
0
  6
Continuous
 62
     8
370
    15
100
AcDbLine
 10
131.7538352693
 20
190.9726492489
 30
0.0
 11
129.8538358892
 21
190.9726492489
 31
0.0
  0
LINE
  5
1F0
330
1F
100
AcDbEntity
  8
0
  6
Continuous
 62
     8
370
    15
100
AcDbLine
 10
133.6538346494
 20
190.9726492489
 30
0.0
 11
131.7538352693
 21
190.9726492489
 31
0.0
  0
LINE
  5
1F1
330
1F
100
AcDbEntity
  8
0
  6
Continuous
 62
     8
370
    15
100
AcDbLine
 10
284.1538341726
 20
185.5726502264
 30
0.0
 11
284.1538341726
 21
188.7726507509
 31
0.0
  0
LINE
  5
1F2
330
1F
100
AcDbEntity
  8
0
  6
Continuous
 62
     8
370
    15
100
AcDbLine
 10
135.3538366044
 20
185.5726502264
 30
0.0
 11
284.1538341726
 21
185.5726502264
 31
0.0
  0
LINE
  5
1F3
330
1F
100
AcDbEntity
  8
0
  6
Continuous
 62
     8
370
    15
100
AcDbLine
 10
135.3538366044
 20
188.7726507509
 30
0.0
 11
135.3538366044
 21
185.5726502264
 31
0.0
  0
LINE
  5
1F4
330
1F
100
AcDbEntity
  8
0
  6
Continuous
 62
     8
370
    15
100
AcDbLine
 10
284.1538341726
 20
188.7726507509
 30
0.0
 11
135.3538366044
 21
188.7726507509
 31
0.0
  0
LINE
  5
1F5
330
1F
100
AcDbEntity
  8
0
  6
Continuous
 62
     8
370
    15
100
AcDbLine
 10
135.3538366044
 20
185.5726502264
 30
0.0
 11
135.2538319314
 21
185.5726502264
 31
0.0
  0
LINE
  5
1F6
330
1F
100
AcDbEntity
  8
0
  6
Continuous
 62
     8
370
    15
100
AcDbLine
 10
135.3538366044
 20
185.4726485336
 30
0.0
 11
135.3538366044
 21
185.5726502264
 31
0.0
  0
LINE
  5
1F7
330
1F
100
AcDbEntity
  8
0
  6
Continuous
 62
     8
370
    15
100
AcDbLine
 10
284.2538328851
 20
188.7726507509
 30
0.0
 11
284.1538341726
 21
188.7726507509
 31
0.0
  0
LINE
  5
1F8
330
1F
100
AcDbEntity
  8
0
  6
Continuous
 62
     8
370
    15
100
AcDbLine
 10
284.1538341726
 20
188.7726507509
 30
0.0
 11
284.1538341726
 21
188.9726511562
 31
0.0
  0
LINE
  5
1F9
330
1F
100
AcDbEntity
  8
0
  6
Continuous
 62
     8
370
    15
100
AcDbLine
 10
135.3538366044
 20
188.9726511562
 30
0.0
 11
135.3538366044
 21
188.7726507509
 31
0.0
  0
LINE
  5
1FA
330
1F
100
AcDbEntity
  8
0
  6
Continuous
 62
     8
370
    15
100
AcDbLine
 10
135.2538319314
 20
188.7726507509
 30
0.0
 11
135.3538366044
 21
188.7726507509
 31
0.0
  0
LINE
  5
1FB
330
1F
100
AcDbEntity
  8
0
  6
Continuous
 62
     8
370
    15
100
AcDbLine
 10
284.1538341726
 20
185.4726485336
 30
0.0
 11
284.1538341726
 21
185.5726502264
 31
0.0
  0
LINE
  5
1FC
330
1F
100
AcDbEntity
  8
0
  6
Continuous
 62
     8
370
    15
100
AcDbLine
 10
284.2538328851
 20
185.5726502264
 30
0.0
 11
284.1538341726
 21
185.5726502264
 31
0.0
  0
LINE
  5
1FD
330
1F
100
AcDbEntity
  8
0
  6
Continuous
 62
     8
370
    15
100
AcDbLine
 10
269.0553577626
 20
189.0726498688
 30
0.0
 11
268.4683652604
 21
195.7820049847
 31
0.0
  0
ARC
  5
1FE
330
1F
100
AcDbEntity
  8
0
  6
Continuous
 62
     8
370
    15
100
AcDbCircle
 10
268.6676027263
 20
194.6287266377
 30
0.0
 40
1.170361701941113
100
AcDbArc
 50
80.1984704946
 51
99.8015295054
  0
LINE
  5
1FF
330
1F
100
AcDbEntity
  8
0
  6
Continuous
 62
     8
370
    15
100
AcDbLine
 10
249.0956636155
 20
191.7075149143
 30
0.0
 11
234.8085971559
 21
191.7075149143
 31
0.0
  0
LINE
  5
200
330
1F
100
AcDbEntity
  8
0
  6
Continuous
 62
     8
370
    15
100
AcDbLine
 10
249.2379458631
 20
195.7820049847
 30
0.0
 11
249.0956636155
 21
191.7075149143
 31
0.0
  0
LINE
  5
201
330
1F
100
AcDbEntity
  8
0
  6
Continuous
 62
     8
370
    15
100
AcDbLine
 10
250.2697201455
 20
195.7820049847
 30
0.0
 11
249.2379458631
 21
195.7820049847
 31
0.0
  0
LINE
  5
202
330
1F
100
AcDbEntity
  8
0
  6
Continuous
 62
     8
370
    15
100
AcDbLine
 10
250.4120023931
 20
191.7075149143
 30
0.0
 11
250.2697201455
 21
195.7820049847
 31
0.0
  0
LINE
  5
203
330
1F
100
AcDbEntity
  8
0
  6
Continuous
 62
     8
370
    15
100
AcDbLine
 10
267.0956643308
 20
191.7075149143
 30
0.0
 11
250.4120023931
 21
191.7075149143
 31
0.0
  0
LINE
  5
204
330
1F
100
AcDbEntity
  8
0
  6
Continuous
 62
     8
370
    15
100
AcDbLine
 10
267.2379465783
 20
195.7820049847
 30
0.0
 11
267.0956643308
 21
191.7075149143
 31
0.0
  0
LINE
  5
205
330
1F
100
AcDbEntity
  8
0
  6
Continuous
 62
     8
370
    15
100
AcDbLine
 10
268.4683652604
 20
195.7820049847
 30
0.0
 11
267.2379465783
 21
195.7820049847
 31
0.0
  0
LINE
  5
206
330
1F
100
AcDbEntity
  8
0
  6
Continuous
 62
     8
370
    15
100
AcDbLine
 10
151.0393055165
 20
195.7820049847
 30
0.0
 11
150.4523130143
 21
189.0726498688
 31
0.0
  0
LINE
  5
207
330
1F
100
AcDbEntity
  8
0
  6
Continuous
 62
     8
370
    15
100
AcDbLine
 10
152.2697212184
 20
195.7820049847
 30
0.0
 11
151.0393055165
 21
195.7820049847
 31
0.0
  0
LINE
  5
208
330
1F
100
AcDbEntity
  8
0
  6
Continuous
 62
     8
370
    15
100
AcDbLine
 10
152.412003466
 20
191.7075149143
 30
0.0
 11
152.2697212184
 21
195.7820049847
 31
0.0
  0
LINE
  5
209
330
1F
100
AcDbEntity
  8
0
  6
Continuous
 62
     8
370
    15
100
AcDbLine
 10
167.6990719522
 20
191.7075149143
 30
0.0
 11
152.412003466
 21
191.7075149143
 31
0.0
  0
LINE
  5
20A
330
1F
100
AcDbEntity
  8
0
  6
Continuous
 62
     8
370
    15
100
AcDbLine
 10
170.6503005708
 20
195.7820049847
 30
0.0
 11
168.8573690141
 21
195.7820049847
 31
0.0
  0
LINE
  5
20B
330
1F
100
AcDbEntity
  8
0
  6
Continuous
 62
     8
370
    15
100
AcDbLine
 10
186.0956640924
 20
191.7075149143
 30
0.0
 11
171.8085961426
 21
191.7075149143
 31
0.0
  0
LINE
  5
20C
330
1F
100
AcDbEntity
  8
0
  6
Continuous
 62
     8
370
    15
100
AcDbLine
 10
186.2379485751
 20
195.7820049847
 30
0.0
 11
186.0956640924
 21
191.7075149143
 31
0.0
  0
LINE
  5
20D
330
1F
100
AcDbEntity
  8
0
  6
Continuous
 62
     8
370
    15
100
AcDbLine
 10
187.2697198773
 20
195.7820049847
 30
0.0
 11
186.2379485751
 21
195.7820049847
 31
0.0
  0
LINE
  5
20E
330
1F
100
AcDbEntity
  8
0
  6
Continuous
 62
     8
370
    15
100
AcDbLine
 10
187.41200436
 20
191.7075149143
 30
0.0
 11
187.2697198773
 21
195.7820049847
 31
0.0
  0
LINE
  5
20F
330
1F
100
AcDbEntity
  8
0
  6
Continuous
 62
     8
370
    15
100
AcDbLine
 10
209.0956645096
 20
191.7075149143
 30
0.0
 11
187.41200436
 21
191.7075149143
 31
0.0
  0
LINE
  5
210
330
1F
100
AcDbEntity
  8
0
  6
Continuous
 62
     8
370
    15
100
AcDbLine
 10
209.2379482473
 20
195.7820049847
 30
0.0
 11
209.0956645096
 21
191.7075149143
 31
0.0
  0
LINE
  5
211
330
1F
100
AcDbEntity
  8
0
  6
Continuous
 62
     8
370
    15
100
AcDbLine
 10
210.2697195495
 20
195.7820049847
 30
0.0
 11
209.2379482473
 21
195.7820049847
 31
0.0
  0
LINE
  5
212
330
1F
100
AcDbEntity
  8
0
  6
Continuous
 62
     8
370
    15
100
AcDbLine
 10
210.4120047773
 20
191.7075149143
 30
0.0
 11
210.2697195495
 21
195.7820049847
 31
0.0
  0
LINE
  5
213
330
1F
100
AcDbEntity
  8
0
  6
Continuous
 62
     8
370
    15
100
AcDbLine
 10
230.6990714753
 20
191.7075149143
 30
0.0
 11
210.4120047773
 21
191.7075149143
 31
0.0
  0
LINE
  5
214
330
1F
100
AcDbEntity
  8
0
  6
Continuous
 62
     8
370
    15
100
AcDbLine
 10
233.650300094
 20
195.7820049847
 30
0.0
 11
231.8573685373
 21
195.7820049847
 31
0.0
  0
ARC
  5
215
330
1F
100
AcDbEntity
  8
0
  6
Continuous
 62
     8
370
    15
100
AcDbCircle
 10
150.8400665606
 20
194.628719595
 30
0.0
 40
1.170368895521996
100
AcDbArc
 50
80.1984573038
 51
99.8015426962
  0
LWPOLYLINE
  5
216
330
1F
100
AcDbEntity
  8
0
  6
Continuous
 62
     8
370
    15
100
AcDbPolyline
 90
        9
 70
   128
 43
0.0
 10
171.7639686549
 20
192.0726470077
 10
171.7648061002
 20
192.0657924736
 10
171.767293104
 20
192.0454553688
 10
171.7713402594
 20
192.0123330677
 10
171.7768119658
 20
191.9675580585
 10
171.7835204685
 20
191.9126800621
 10
171.7912347997
 20
191.8495647037
 10
171.7996897186
 20
191.780387553
 10
171.8085961426
 20
191.7075149143
  0
LWPOLYLINE
  5
217
330
1F
100
AcDbEntity
  8
0
  6
Continuous
 62
     8
370
    15
100
AcDbPolyline
 90
        9
 70
   128
 43
0.0
 10
230.6990714753
 20
191.7075149143
 10
230.7079793895
 20
191.780387553
 10
230.7164343084
 20
191.8495647037
 10
230.7241471494
 20
191.9126800621
 10
230.7308556522
 20
191.9675580585
 10
230.7363273586
 20
192.0123330677
 10
230.7403774942
 20
192.0454553688
 10
230.7428630079
 20
192.0657924736
 10
230.7437004531
 20
192.0726470077
  0
LWPOLYLINE
  5
218
330
1F
100
AcDbEntity
  8
0
  6
Continuous
 62
     8
370
    15
100
AcDbPolyline
 90
        9
 70
   128
 43
0.0
 10
234.7639681781
 20
192.0726470077
 10
234.7648056234
 20
192.0657924736
 10
234.767291137
 20
192.0454553688
 10
234.7713412727
 20
192.0123330677
 10
234.776812979
 20
191.9675580585
 10
234.7835214818
 20
191.9126800621
 10
234.7912343229
 20
191.8495647037
 10
234.7996892417
 20
191.780387553
 10
234.8085971559
 20
191.7075149143
  0
LWPOLYLINE
  5
219
330
1F
100
AcDbEntity
  8
0
  6
Continuous
 62
     8
370
    15
100
AcDbPolyline
 90
        9
 70
   128
 43
0.0
 10
167.6990719522
 20
191.7075149143
 10
167.7079798663
 20
191.780387553
 10
167.7164347852
 20
191.8495647037
 10
167.7241476262
 20
191.9126800621
 10
167.730856129
 20
191.9675580585
 10
167.7363278354
 20
192.0123330677
 10
167.7403749908
 20
192.0454553688
 10
167.7428605045
 20
192.0657924736
 10
167.7437009299
 20
192.0726470077
  0
ELLIPSE
  5
21A
330
1F
100
AcDbEntity
  8
0
  6
Continuous
 62
     8
370
    15
100
AcDbEllipse
 10
152.4120041559
 20
191.6726499691
 30
0.0
 11
1.274839786027229
 21
0.3987373999121644
 31
0.0
210
0.0
220
0.0
230
1.0
 40
0.0249103201
 41
0.0794753068698339
 42
1.563005171064915
  0
ELLIPSE
  5
21B
330
1F
100
AcDbEntity
  8
0
  6
Continuous
 62
     8
370
    15
100
AcDbEllipse
 10
152.4120041559
 20
191.6726499691
 30
0.0
 11
0.3553215480789049
 21
1.283584328491258
 31
0.0
210
0.0
220
0.0
230
1.0
 40
0.0069855534
 41
0.062036795799621
 42
1.545566659991303
  0
ARC
  5
21C
330
1F
100
AcDbEntity
  8
0
  6
Continuous
 62
     8
370
    15
100
AcDbCircle
 10
153.6835713448
 20
192.9908762161
 30
0.0
 40
0.9182304979097142
100
AcDbArc
 50
182.3066456477
 51
269.9039737416
  0
ARC
  5
21D
330
1F
100
AcDbEntity
  8
0
  6
Continuous
 62
     8
370
    15
100
AcDbCircle
 10
250.4092010868
 20
194.6165135596
 30
0.0
 40
1.173807988884723
100
AcDbArc
 50
77.1889827851
 51
96.8244525096
  0
ELLIPSE
  5
21E
330
1F
100
AcDbEntity
  8
0
  6
Continuous
 62
     8
370
    15
100
AcDbEllipse
 10
250.3631150786
 20
193.0726499691
 30
0.0
 11
0.4013944813440276
 21
-0.03727821267767695
 31
0.0
210
0.0
220
0.0
230
1.0
 40
0.2143980219
 41
6.226441233507912
 42
6.310665999860414
  0
ELLIPSE
  5
21F
330
1F
100
AcDbEntity
  8
0
  6
Continuous
 62
     8
370
    15
100
AcDbEllipse
 10
250.4120041559
 20
191.6726499691
 30
0.0
 11
0.352646687192248
 21
1.36048299471301
 31
0.0
210
0.0
220
0.0
230
1.0
 40
0.00622578
 41
0.0632525135184531
 42
1.546782377719471
  0
ARC
  5
220
330
1F
100
AcDbEntity
  8
0
  6
Continuous
 62
     8
370
    15
100
AcDbCircle
 10
209.098466677
 20
194.6165255875
 30
0.0
 40
1.173796120942659
100
AcDbArc
 50
83.1754472428
 51
102.8111174624
  0
ELLIPSE
  5
221
330
1F
100
AcDbEntity
  8
0
  6
Continuous
 62
     8
370
    15
100
AcDbEllipse
 10
209.0956644028
 20
191.6726499691
 30
0.0
 11
-0.3526466871922764
 21
1.36048299471301
 31
0.0
210
0.0
220
0.0
230
1.0
 40
0.00622578
 41
4.736402929460286
 42
6.219932793657579
  0
ELLIPSE
  5
222
330
1F
100
AcDbEntity
  8
0
  6
Continuous
 62
     8
370
    15
100
AcDbEllipse
 10
209.1445534801
 20
193.0726499691
 30
0.0
 11
0.4013944813439708
 21
0.03727821267770538
 31
0.0
210
0.0
220
0.0
230
1.0
 40
0.2143980219
 41
3.114111960908228
 42
3.198336727261233
  0
ARC
  5
223
330
1F
100
AcDbEntity
  8
0
  6
Continuous
 62
     8
370
    15
100
AcDbCircle
 10
207.746996945
 20
193.0707149099
 30
0.0
 40
0.9980692974594031
100
AcDbArc
 50
270.095806105
 51
357.6938326488
  0
ELLIPSE
  5
224
330
1F
100
AcDbEntity
  8
0
  6
Continuous
 62
     8
370
    15
100
AcDbEllipse
 10
209.0956644028
 20
191.6726499691
 30
0.0
 11
1.352110762817688
 21
-0.398711987733833
 31
0.0
210
0.0
220
0.0
230
1.0
 40
0.0237215373
 41
1.577791247109545
 42
3.06132111130468
  0
ARC
  5
225
330
1F
100
AcDbEntity
  8
0
  6
Continuous
 62
     8
370
    15
100
AcDbCircle
 10
188.7606711774
 20
193.0707149089
 30
0.0
 40
0.9980692952666425
100
AcDbArc
 50
182.3061673021
 51
269.90423679
  0
ELLIPSE
  5
226
330
1F
100
AcDbEntity
  8
0
  6
Continuous
 62
     8
370
    15
100
AcDbEllipse
 10
187.4120041559
 20
191.6726499691
 30
0.0
 11
1.352110762817745
 21
0.3987119877338614
 31
0.0
210
0.0
220
0.0
230
1.0
 40
0.0237215373
 41
0.0802715422847877
 42
1.563801406480248
  0
ELLIPSE
  5
227
330
1F
100
AcDbEntity
  8
0
  6
Continuous
 62
     8
370
    15
100
AcDbEllipse
 10
187.4120041559
 20
191.6726499691
 30
0.0
 11
0.3526466871922764
 21
1.360482994712982
 31
0.0
210
0.0
220
0.0
230
1.0
 40
0.00622578
 41
0.0632525135221983
 42
1.546782377719397
  0
ARC
  5
228
330
1F
100
AcDbEntity
  8
0
  6
Continuous
 62
     8
370
    15
100
AcDbCircle
 10
186.0984670048
 20
194.6165255875
 30
0.0
 40
1.173796120943079
100
AcDbArc
 50
83.1754472429
 51
102.8111174624
  0
ELLIPSE
  5
229
330
1F
100
AcDbEntity
  8
0
  6
Continuous
 62
     8
370
    15
100
AcDbEllipse
 10
186.0956644028
 20
191.6726499691
 30
0.0
 11
-0.352646687192248
 21
1.360482994712839
 31
0.0
210
0.0
220
0.0
230
1.0
 40
0.00622578
 41
4.736402929460212
 42
6.219932793658809
  0
ELLIPSE
  5
22A
330
1F
100
AcDbEntity
  8
0
  6
Continuous
 62
     8
370
    15
100
AcDbEllipse
 10
186.1445534801
 20
193.0726499691
 30
0.0
 11
0.4013944813440276
 21
0.03727821267770537
 31
0.0
210
0.0
220
0.0
230
1.0
 40
0.2143980219
 41
3.114111960908611
 42
3.198336727261301
  0
ELLIPSE
  5
22B
330
1F
100
AcDbEntity
  8
0
  6
Continuous
 62
     8
370
    15
100
AcDbEllipse
 10
249.0956644028
 20
191.6726499691
 30
0.0
 11
1.352110762817716
 21
-0.398711987733833
 31
0.0
210
0.0
220
0.0
230
1.0
 40
0.0237215373
 41
1.577791247109545
 42
3.061321111304194
  0
ARC
  5
22C
330
1F
100
AcDbEntity
  8
0
  6
Continuous
 62
     8
370
    15
100
AcDbCircle
 10
187.4092014476
 20
194.6165255875
 30
0.0
 40
1.173796120942486
100
AcDbArc
 50
77.1888825375
 51
96.8245527572
  0
ELLIPSE
  5
22D
330
1F
100
AcDbEntity
  8
0
  6
Continuous
 62
     8
370
    15
100
AcDbEllipse
 10
187.3631150786
 20
193.0726499691
 30
0.0
 11
0.4013944813440276
 21
-0.03727821267767695
 31
0.0
210
0.0
220
0.0
230
1.0
 40
0.2143980219
 41
6.226441233507914
 42
6.310665999860438
  0
ARC
  5
22E
330
1F
100
AcDbEntity
  8
0
  6
Continuous
 62
     8
370
    15
100
AcDbCircle
 10
211.7606711613
 20
193.070715233
 30
0.0
 40
0.9980696198251705
100
AcDbArc
 50
182.3061851687
 51
269.9042189233
  0
ELLIPSE
  5
22F
330
1F
100
AcDbEntity
  8
0
  6
Continuous
 62
     8
370
    15
100
AcDbEllipse
 10
210.4120041559
 20
191.6726499691
 30
0.0
 11
1.352110762817716
 21
0.3987119877338615
 31
0.0
210
0.0
220
0.0
230
1.0
 40
0.0237215373
 41
0.0802715422845286
 42
1.563801406480246
  0
ELLIPSE
  5
230
330
1F
100
AcDbEntity
  8
0
  6
Continuous
 62
     8
370
    15
100
AcDbEllipse
 10
210.4120041559
 20
191.6726499691
 30
0.0
 11
0.3526466871923048
 21
1.360482994713124
 31
0.0
210
0.0
220
0.0
230
1.0
 40
0.00622578
 41
0.0632525135244085
 42
1.546782377719399
  0
ARC
  5
231
330
1F
100
AcDbEntity
  8
0
  6
Continuous
 62
     8
370
    15
100
AcDbCircle
 10
267.0984660811
 20
194.6165050665
 30
0.0
 40
1.173816369085964
100
AcDbArc
 50
83.1756182761
 51
102.8109464292
  0
ELLIPSE
  5
232
330
1F
100
AcDbEntity
  8
0
  6
Continuous
 62
     8
370
    15
100
AcDbEllipse
 10
267.0956644028
 20
191.6726499691
 30
0.0
 11
-0.3553215480789049
 21
1.283584328491258
 31
0.0
210
0.0
220
0.0
230
1.0
 40
0.0069855534
 41
4.73761864718821
 42
6.221148511384662
  0
ELLIPSE
  5
233
330
1F
100
AcDbEntity
  8
0
  6
Continuous
 62
     8
370
    15
100
AcDbEllipse
 10
267.1417598185
 20
192.9926499691
 30
0.0
 11
0.4013185568745143
 21
0.03399684565093253
 31
0.0
210
0.0
220
0.0
230
1.0
 40
0.1976046802
 41
3.117886787956687
 42
3.202111554309231
  0
ARC
  5
234
330
1F
100
AcDbEntity
  8
0
  6
Continuous
 62
     8
370
    15
100
AcDbCircle
 10
152.409202236
 20
194.6165521266
 30
0.0
 40
1.173769704233366
100
AcDbArc
 50
77.1887108335
 51
96.8246799114
  0
ELLIPSE
  5
235
330
1F
100
AcDbEntity
  8
0
  6
Continuous
 62
     8
370
    15
100
AcDbEllipse
 10
152.3659087401
 20
192.9926499691
 30
0.0
 11
0.4013185568745428
 21
-0.03399684565096095
 31
0.0
210
0.0
220
0.0
230
1.0
 40
0.1976046802
 41
6.222666406460576
 42
6.306891172812961
  0
ARC
  5
236
330
1F
100
AcDbEntity
  8
0
  6
Continuous
 62
     8
370
    15
100
AcDbCircle
 10
249.0984647692
 20
194.616590693
 30
0.0
 40
1.173731420209156
100
AcDbArc
 50
83.1750926758
 51
102.8115611296
  0
ELLIPSE
  5
237
330
1F
100
AcDbEntity
  8
0
  6
Continuous
 62
     8
370
    15
100
AcDbEllipse
 10
249.0956644028
 20
191.6726499691
 30
0.0
 11
-0.3526466871923333
 21
1.360482994713124
 31
0.0
210
0.0
220
0.0
230
1.0
 40
0.00622578
 41
4.736402929460207
 42
6.219932793654391
  0
ELLIPSE
  5
238
330
1F
100
AcDbEntity
  8
0
  6
Continuous
 62
     8
370
    15
100
AcDbEllipse
 10
249.1445534801
 20
193.0726499691
 30
0.0
 11
0.4013944813440276
 21
0.03727821267770537
 31
0.0
210
0.0
220
0.0
230
1.0
 40
0.2143980219
 41
3.11411196090864
 42
3.198336727261336
  0
ELLIPSE
  5
239
330
1F
100
AcDbEntity
  8
0
  6
Continuous
 62
     8
370
    15
100
AcDbEllipse
 10
186.0956644028
 20
191.6726499691
 30
0.0
 11
1.352110762817688
 21
-0.3987119877338046
 31
0.0
210
0.0
220
0.0
230
1.0
 40
0.0237215373
 41
1.577791247109545
 42
3.061321111303862
  0
ARC
  5
23A
330
1F
100
AcDbEntity
  8
0
  6
Continuous
 62
     8
370
    15
100
AcDbCircle
 10
184.7469972729
 20
193.0707149099
 30
0.0
 40
0.9980692974594315
100
AcDbArc
 50
270.095806105
 51
357.6938326488
  0
ARC
  5
23B
330
1F
100
AcDbEntity
  8
0
  6
Continuous
 62
     8
370
    15
100
AcDbCircle
 10
247.7469972358
 20
193.0707152311
 30
0.0
 40
0.9980696154417176
100
AcDbArc
 50
270.095695287
 51
357.6938149295
  0
ELLIPSE
  5
23C
330
1F
100
AcDbEntity
  8
0
  6
Continuous
 62
     8
370
    15
100
AcDbEllipse
 10
250.4120041559
 20
191.6726499691
 30
0.0
 11
1.352110762817659
 21
0.3987119877338329
 31
0.0
210
0.0
220
0.0
230
1.0
 40
0.0237215373
 41
0.0802715422851151
 42
1.563801406480248
  0
ELLIPSE
  5
23D
330
1F
100
AcDbEntity
  8
0
  6
Continuous
 62
     8
370
    15
100
AcDbEllipse
 10
267.0956644028
 20
191.6726499691
 30
0.0
 11
1.274839786027201
 21
-0.3987373999121644
 31
0.0
210
0.0
220
0.0
230
1.0
 40
0.0249103201
 41
1.578587482524876
 42
3.062117346720195
  0
ARC
  5
23E
330
1F
100
AcDbEntity
  8
0
  6
Continuous
 62
     8
370
    15
100
AcDbCircle
 10
265.8240959757
 20
192.9908767058
 30
0.0
 40
0.9182309934264657
100
AcDbArc
 50
270.0962418808
 51
357.6933250155
  0
ARC
  5
23F
330
1F
100
AcDbEntity
  8
0
  6
Continuous
 62
     8
370
    15
100
AcDbCircle
 10
251.7606722021
 20
193.0707187953
 30
0.0
 40
0.9980731853294217
100
AcDbArc
 50
182.3063815887
 51
269.9041081948
  0
ARC
  5
240
330
1F
100
AcDbEntity
  8
0
  6
Continuous
 62
     8
370
    15
100
AcDbCircle
 10
210.4092011197
 20
194.6165255875
 30
0.0
 40
1.173796120942767
100
AcDbArc
 50
77.1888825376
 51
96.8245527571
  0
ELLIPSE
  5
241
330
1F
100
AcDbEntity
  8
0
  6
Continuous
 62
     8
370
    15
100
AcDbEllipse
 10
210.3631150786
 20
193.0726499691
 30
0.0
 11
0.4013944813440276
 21
-0.03727821267767695
 31
0.0
210
0.0
220
0.0
230
1.0
 40
0.2143980219
 41
6.226441233507881
 42
6.310665999860438
  0
ARC
  5
242
330
1F
100
AcDbEntity
  8
0
  6
Continuous
 62
     8
370
    15
100
AcDbCircle
 10
232.3295248405
 20
198.5610629748
 30
0.0
 40
0.3933642447231212
100
AcDbArc
 50
88.9960616535
 51
177.1108414081
  0
LINE
  5
243
330
1F
100
AcDbEntity
  8
0
  6
Continuous
 62
     8
370
    15
100
AcDbLine
 10
232.3364170278
 20
198.9543668354
 30
0.0
 11
232.2379501546
 21
196.134572419
 31
0.0
  0
LINE
  5
244
330
1F
100
AcDbEntity
  8
0
  6
Continuous
 62
     8
370
    15
100
AcDbLine
 10
233.2697184766
 20
196.134572419
 30
0.0
 11
233.1712516034
 21
198.9543668354
 31
0.0
  0
ARC
  5
245
330
1F
100
AcDbEntity
  8
0
  6
Continuous
 62
     8
370
    15
100
AcDbCircle
 10
233.1781437907
 20
198.5610629748
 30
0.0
 40
0.3933642447231794
100
AcDbArc
 50
2.8891585919
 51
91.0039383464
  0
LINE
  5
246
330
1F
100
AcDbEntity
  8
0
  6
Continuous
 62
     8
370
    15
100
AcDbLine
 10
170.2697189534
 20
196.134572419
 30
0.0
 11
170.1712491
 21
198.9543668354
 31
0.0
  0
ARC
  5
247
330
1F
100
AcDbEntity
  8
0
  6
Continuous
 62
     8
370
    15
100
AcDbCircle
 10
170.178145439
 20
198.5610674186
 30
0.0
 40
0.3933598742964818
100
AcDbArc
 50
2.8885426122
 51
91.0045543261
  0
ARC
  5
248
330
1F
100
AcDbEntity
  8
0
  6
Continuous
 62
     8
370
    15
100
AcDbCircle
 10
169.3295253174
 20
198.5610629748
 30
0.0
 40
0.3933642447230928
100
AcDbArc
 50
88.9960616536
 51
177.1108414081
  0
LINE
  5
249
330
1F
100
AcDbEntity
  8
0
  6
Continuous
 62
     8
370
    15
100
AcDbLine
 10
169.3364175046
 20
198.9543668354
 30
0.0
 11
169.2379476512
 21
196.134572419
 31
0.0
  0
LINE
  5
24A
330
1F
100
AcDbEntity
  8
0
  6
Continuous
 62
     8
370
    15
100
AcDbLine
 10
169.2379476512
 20
196.134572419
 30
0.0
 11
170.2697189534
 21
196.134572419
 31
0.0
  0
ARC
  5
24B
330
1F
100
AcDbEntity
  8
0
  6
Continuous
 62
     8
370
    15
100
AcDbCircle
 10
152.2766231625
 20
195.7412818202
 30
0.0
 40
0.3933511559404597
100
AcDbArc
 50
2.8881899262
 51
91.0053931526
  0
LINE
  5
24C
330
1F
100
AcDbEntity
  8
0
  6
Continuous
 62
     8
370
    15
100
AcDbLine
 10
152.2697212184
 20
196.134572419
 30
0.0
 11
152.2697212184
 21
195.7820049847
 31
0.0
  0
LINE
  5
24D
330
1F
100
AcDbEntity
  8
0
  6
Continuous
 62
     8
370
    15
100
AcDbLine
 10
151.0393055165
 20
196.134572419
 30
0.0
 11
152.2697212184
 21
196.134572419
 31
0.0
  0
LINE
  5
24E
330
1F
100
AcDbEntity
  8
0
  6
Continuous
 62
     8
370
    15
100
AcDbLine
 10
151.0393055165
 20
195.7820049847
 30
0.0
 11
151.0393055165
 21
196.134572419
 31
0.0
  0
LINE
  5
24F
330
1F
100
AcDbEntity
  8
0
  6
Continuous
 62
     8
370
    15
100
AcDbLine
 10
267.2379465783
 20
196.134572419
 30
0.0
 11
268.4683652604
 21
196.134572419
 31
0.0
  0
LINE
  5
250
330
1F
100
AcDbEntity
  8
0
  6
Continuous
 62
     8
370
    15
100
AcDbLine
 10
268.4683652604
 20
196.134572419
 30
0.0
 11
268.4683652604
 21
195.7820049847
 31
0.0
  0
LINE
  5
251
330
1F
100
AcDbEntity
  8
0
  6
Continuous
 62
     8
370
    15
100
AcDbLine
 10
267.2379465783
 20
195.7820049847
 30
0.0
 11
267.2379465783
 21
196.134572419
 31
0.0
  0
LINE
  5
252
330
1F
100
AcDbEntity
  8
0
  6
Continuous
 62
     8
370
    15
100
AcDbLine
 10
209.2379482473
 20
196.134572419
 30
0.0
 11
210.2697195495
 21
196.134572419
 31
0.0
  0
LINE
  5
253
330
1F
100
AcDbEntity
  8
0
  6
Continuous
 62
     8
370
    15
100
AcDbLine
 10
210.2697195495
 20
196.134572419
 30
0.0
 11
210.2697195495
 21
195.7820049847
 31
0.0
  0
LINE
  5
254
330
1F
100
AcDbEntity
  8
0
  6
Continuous
 62
     8
370
    15
100
AcDbLine
 10
209.2379482473
 20
195.7820049847
 30
0.0
 11
209.2379482473
 21
196.134572419
 31
0.0
  0
ARC
  5
255
330
1F
100
AcDbEntity
  8
0
  6
Continuous
 62
     8
370
    15
100
AcDbCircle
 10
151.0313364845
 20
195.7421120715
 30
0.0
 40
0.392541246016929
100
AcDbArc
 50
88.8367508508
 51
174.1671137322
  0
ARC
  5
256
330
1F
100
AcDbEntity
  8
0
  6
Continuous
 62
     8
370
    15
100
AcDbCircle
 10
187.2766208796
 20
195.7412776773
 30
0.0
 40
0.3933552817493114
100
AcDbArc
 50
2.888763836
 51
91.0052454053
  0
LINE
  5
257
330
1F
100
AcDbEntity
  8
0
  6
Continuous
 62
     8
370
    15
100
AcDbLine
 10
187.2697198773
 20
196.134572419
 30
0.0
 11
187.2697198773
 21
195.7820049847
 31
0.0
  0
ARC
  5
258
330
1F
100
AcDbEntity
  8
0
  6
Continuous
 62
     8
370
    15
100
AcDbCircle
 10
249.2310422063
 20
195.7412867883
 30
0.0
 40
0.3933462186668238
100
AcDbArc
 50
88.9943447114
 51
177.1124983757
  0
LINE
  5
259
330
1F
100
AcDbEntity
  8
0
  6
Continuous
 62
     8
370
    15
100
AcDbLine
 10
249.2379458631
 20
195.7820049847
 30
0.0
 11
249.2379458631
 21
196.134572419
 31
0.0
  0
LINE
  5
25A
330
1F
100
AcDbEntity
  8
0
  6
Continuous
 62
     8
370
    15
100
AcDbLine
 10
232.2379501546
 20
196.134572419
 30
0.0
 11
233.2697184766
 21
196.134572419
 31
0.0
  0
ARC
  5
25B
330
1F
100
AcDbEntity
  8
0
  6
Continuous
 62
     8
370
    15
100
AcDbCircle
 10
186.2310475728
 20
195.7412776773
 30
0.0
 40
0.3933552817493456
100
AcDbArc
 50
88.9947545947
 51
177.111236164
  0
LINE
  5
25C
330
1F
100
AcDbEntity
  8
0
  6
Continuous
 62
     8
370
    15
100
AcDbLine
 10
186.2379485751
 20
195.7820049847
 30
0.0
 11
186.2379485751
 21
196.134572419
 31
0.0
  0
ARC
  5
25D
330
1F
100
AcDbEntity
  8
0
  6
Continuous
 62
     8
370
    15
100
AcDbCircle
 10
210.2766217024
 20
195.7412789089
 30
0.0
 40
0.3933540705250919
100
AcDbArc
 50
2.8885931159
 51
91.0054161254
  0
ARC
  5
25E
330
1F
100
AcDbEntity
  8
0
  6
Continuous
 62
     8
370
    15
100
AcDbCircle
 10
250.2766179561
 20
195.741274261
 30
0.0
 40
0.3933586415151817
100
AcDbArc
 50
2.8892373816
 51
91.0047718597
  0
LINE
  5
25F
330
1F
100
AcDbEntity
  8
0
  6
Continuous
 62
     8
370
    15
100
AcDbLine
 10
250.2697201455
 20
196.134572419
 30
0.0
 11
250.2697201455
 21
195.7820049847
 31
0.0
  0
ARC
  5
260
330
1F
100
AcDbEntity
  8
0
  6
Continuous
 62
     8
370
    15
100
AcDbCircle
 10
268.4763355986
 20
195.7421168486
 30
0.0
 40
0.3925364963522927
100
AcDbArc
 50
5.832256172
 51
91.1634539163
  0
LINE
  5
261
330
1F
100
AcDbEntity
  8
0
  6
Continuous
 62
     8
370
    15
100
AcDbLine
 10
186.2379485751
 20
196.134572419
 30
0.0
 11
187.2697198773
 21
196.134572419
 31
0.0
  0
ARC
  5
262
330
1F
100
AcDbEntity
  8
0
  6
Continuous
 62
     8
370
    15
100
AcDbCircle
 10
209.2310483956
 20
195.7412764457
 30
0.0
 40
0.3933564929878213
100
AcDbArc
 50
88.9949253153
 51
177.1110654434
  0
ARC
  5
263
330
1F
100
AcDbEntity
  8
0
  6
Continuous
 62
     8
370
    15
100
AcDbCircle
 10
267.2310487677
 20
195.741274261
 30
0.0
 40
0.3933586415149745
100
AcDbArc
 50
88.9952281403
 51
177.1107626184
  0
LINE
  5
264
330
1F
100
AcDbEntity
  8
0
  6
Continuous
 62
     8
370
    15
100
AcDbLine
 10
249.2379458631
 20
196.134572419
 30
0.0
 11
250.2697201455
 21
196.134572419
 31
0.0
  0
LINE
  5
265
330
1F
100
AcDbEntity
  8
0
  6
Continuous
 62
     8
370
    15
100
AcDbLine
 10
151.2860031808
 20
198.9543668354
 30
0.0
 11
151.0393055165
 21
196.134572419
 31
0.0
  0
LINE
  5
266
330
1F
100
AcDbEntity
  8
0
  6
Continuous
 62
     8
370
    15
100
AcDbLine
 10
152.171251365
 20
198.9543668354
 30
0.0
 11
151.2860031808
 21
198.9543668354
 31
0.0
  0
LINE
  5
267
330
1F
100
AcDbEntity
  8
0
  6
Continuous
 62
     8
370
    15
100
AcDbLine
 10
152.2697212184
 20
196.134572419
 30
0.0
 11
152.171251365
 21
198.9543668354
 31
0.0
  0
LINE
  5
268
330
1F
100
AcDbEntity
  8
0
  6
Continuous
 62
     8
370
    15
100
AcDbLine
 10
186.3364176834
 20
198.9543668354
 30
0.0
 11
186.2379485751
 21
196.134572419
 31
0.0
  0
LINE
  5
269
330
1F
100
AcDbEntity
  8
0
  6
Continuous
 62
     8
370
    15
100
AcDbLine
 10
187.171250769
 20
198.9543668354
 30
0.0
 11
186.3364176834
 21
198.9543668354
 31
0.0
  0
LINE
  5
26A
330
1F
100
AcDbEntity
  8
0
  6
Continuous
 62
     8
370
    15
100
AcDbLine
 10
187.2697198773
 20
196.134572419
 30
0.0
 11
187.171250769
 21
198.9543668354
 31
0.0
  0
LINE
  5
26B
330
1F
100
AcDbEntity
  8
0
  6
Continuous
 62
     8
370
    15
100
AcDbLine
 10
170.1712491
 20
198.9543668354
 30
0.0
 11
169.3364175046
 21
198.9543668354
 31
0.0
  0
ARC
  5
26C
330
1F
100
AcDbEntity
  8
0
  6
Continuous
 62
     8
370
    15
100
AcDbCircle
 10
267.3295243529
 20
198.5610660486
 30
0.0
 40
0.3933612216542153
100
AcDbArc
 50
88.9956355763
 51
177.1112674854
  0
LINE
  5
26D
330
1F
100
AcDbEntity
  8
0
  6
Continuous
 62
     8
370
    15
100
AcDbLine
 10
267.336419412
 20
198.9543668354
 30
0.0
 11
267.2379465783
 21
196.134572419
 31
0.0
  0
LINE
  5
26E
330
1F
100
AcDbEntity
  8
0
  6
Continuous
 62
     8
370
    15
100
AcDbLine
 10
250.2697201455
 20
196.134572419
 30
0.0
 11
250.1712532724
 21
198.9543668354
 31
0.0
  0
ARC
  5
26F
330
1F
100
AcDbEntity
  8
0
  6
Continuous
 62
     8
370
    15
100
AcDbCircle
 10
250.1781425878
 20
198.5610599008
 30
0.0
 40
0.3933672678963047
100
AcDbArc
 50
2.8895846742
 51
91.0035122641
  0
LINE
  5
270
330
1F
100
AcDbEntity
  8
0
  6
Continuous
 62
     8
370
    15
100
AcDbLine
 10
268.2216616357
 20
198.9543668354
 30
0.0
 11
267.336419412
 21
198.9543668354
 31
0.0
  0
LINE
  5
271
330
1F
100
AcDbEntity
  8
0
  6
Continuous
 62
     8
370
    15
100
AcDbLine
 10
268.4683652604
 20
196.134572419
 30
0.0
 11
268.2216616357
 21
198.9543668354
 31
0.0
  0
ARC
  5
272
330
1F
100
AcDbEntity
  8
0
  6
Continuous
 62
     8
370
    15
100
AcDbCircle
 10
187.1781432762
 20
198.5610633173
 30
0.0
 40
0.3933639078759456
100
AcDbArc
 50
2.8891111164
 51
91.0039858219
  0
ARC
  5
273
330
1F
100
AcDbEntity
  8
0
  6
Continuous
 62
     8
370
    15
100
AcDbCircle
 10
268.2296232642
 20
198.5618954939
 30
0.0
 40
0.3925520875640169
100
AcDbArc
 50
5.8334631256
 51
91.1621362007
  0
LINE
  5
274
330
1F
100
AcDbEntity
  8
0
  6
Continuous
 62
     8
370
    15
100
AcDbLine
 10
249.3364186967
 20
198.9543668354
 30
0.0
 11
249.2379458631
 21
196.134572419
 31
0.0
  0
LINE
  5
275
330
1F
100
AcDbEntity
  8
0
  6
Continuous
 62
     8
370
    15
100
AcDbLine
 10
250.1712532724
 20
198.9543668354
 30
0.0
 11
249.3364186967
 21
198.9543668354
 31
0.0
  0
ARC
  5
276
330
1F
100
AcDbEntity
  8
0
  6
Continuous
 62
     8
370
    15
100
AcDbCircle
 10
186.3295244454
 20
198.5610648832
 30
0.0
 40
0.393362354955396
100
AcDbArc
 50
88.9959037504
 51
177.1111058517
  0
ARC
  5
277
330
1F
100
AcDbEntity
  8
0
  6
Continuous
 62
     8
370
    15
100
AcDbCircle
 10
249.3295236376
 20
198.5610660486
 30
0.0
 40
0.3933612216541258
100
AcDbArc
 50
88.9956355762
 51
177.1112674854
  0
LINE
  5
278
330
1F
100
AcDbEntity
  8
0
  6
Continuous
 62
     8
370
    15
100
AcDbLine
 10
210.2697195495
 20
196.134572419
 30
0.0
 11
210.1712511862
 21
198.9543668354
 31
0.0
  0
ARC
  5
279
330
1F
100
AcDbEntity
  8
0
  6
Continuous
 62
     8
370
    15
100
AcDbCircle
 10
210.1781440044
 20
198.5610652176
 30
0.0
 40
0.393362013293919
100
AcDbArc
 50
2.8888478965
 51
91.0040359608
  0
LINE
  5
27A
330
1F
100
AcDbEntity
  8
0
  6
Continuous
 62
     8
370
    15
100
AcDbLine
 10
233.1712516034
 20
198.9543668354
 30
0.0
 11
232.3364170278
 21
198.9543668354
 31
0.0
  0
ARC
  5
27B
330
1F
100
AcDbEntity
  8
0
  6
Continuous
 62
     8
370
    15
100
AcDbCircle
 10
209.3295244428
 20
198.5610645489
 30
0.0
 40
0.3933626966187995
100
AcDbArc
 50
88.9958434619
 51
177.1110595998
  0
LINE
  5
27C
330
1F
100
AcDbEntity
  8
0
  6
Continuous
 62
     8
370
    15
100
AcDbLine
 10
209.3364181007
 20
198.9543668354
 30
0.0
 11
209.2379482473
 21
196.134572419
 31
0.0
  0
ARC
  5
27D
330
1F
100
AcDbEntity
  8
0
  6
Continuous
 62
     8
370
    15
100
AcDbCircle
 10
152.1781435523
 20
198.5610629748
 30
0.0
 40
0.393364244723151
100
AcDbArc
 50
2.8891585919
 51
91.0039383464
  0
LINE
  5
27E
330
1F
100
AcDbEntity
  8
0
  6
Continuous
 62
     8
370
    15
100
AcDbLine
 10
210.1712511862
 20
198.9543668354
 30
0.0
 11
209.3364181007
 21
198.9543668354
 31
0.0
  0
ARC
  5
27F
330
1F
100
AcDbEntity
  8
0
  6
Continuous
 62
     8
370
    15
100
AcDbCircle
 10
151.2780448852
 20
198.5618950279
 30
0.0
 40
0.3925524858057747
100
AcDbArc
 50
88.8383515452
 51
174.1664744545
  0
SPLINE
  5
280
330
1F
100
AcDbEntity
  8
0
  6
Continuous
 62
     8
370
    15
100
AcDbSpline
210
0.0
220
0.0
230
1.0
 70
     8
 71
     3
 72
    12
 73
     8
 74
     0
 42
0.00000001
 43
0.00000001
 12
1.0
 22
0.0
 32
0.0
 13
1.0
 23
0.0
 33
0.0
 40
0.0
 40
0.0
 40
0.0
 40
0.0
 40
0.0468078787448921
 40
0.1652507588214062
 40
0.3631789302113079
 40
0.848684901511992
 40
1.0
 40
1.0
 40
1.0
 40
1.0
 10
152.7903290475078
 20
192.935674580378
 30
0.0
 10
152.7903941649819
 20
192.9352057684355
 30
0.0
 10
152.7906240560237
 20
192.9335506725132
 30
0.0
 10
152.7936151322745
 20
192.911947094918
 30
0.0
 10
152.8022687718688
 20
192.8487865711037
 30
0.0
 10
152.8137527812938
 20
192.7661221980734
 30
0.0
 10
152.8225886529197
 20
192.6965109805156
 30
0.0
 10
152.8246881449886
 20
192.6799706542916
 30
0.0
  0
SPLINE
  5
281
330
1F
100
AcDbEntity
  8
0
  6
Continuous
 62
     8
370
    15
100
AcDbSpline
210
0.0
220
0.0
230
1.0
 70
     8
 71
     3
 72
    12
 73
     8
 74
     0
 42
0.00000001
 43
0.00000001
 12
1.0
 22
0.0
 32
0.0
 13
1.0
 23
0.0
 33
0.0
 40
0.0
 40
0.0
 40
0.0
 40
0.0
 40
0.1513252131397905
 40
0.6368645526930332
 40
0.844500818809089
 40
0.9532217859810088
 40
1.0
 40
1.0
 40
1.0
 40
1.0
 10
266.6829796517559
 20
192.6799706542916
 30
0.0
 10
266.6850788653227
 20
192.6965104201696
 30
0.0
 10
266.6939135775394
 20
192.7661193794368
 30
0.0
 10
266.7055490361261
 20
192.8497801941377
 30
0.0
 10
266.7141394747297
 20
192.9126344473936
 30
0.0
 10
266.7170841341839
 20
192.9338032783559
 30
0.0
 10
266.7172592482599
 20
192.9350906192846
 30
0.0
 10
266.7173119271465
 20
192.9354778850503
 30
0.0
  0
LINE
  5
282
330
1F
100
AcDbEntity
  8
0
  6
Continuous
 62
     8
370
    15
100
AcDbLine
 10
152.171251365
 20
198.9543668354
 30
0.0
 11
152.171251365
 21
198.9669314945
 31
0.0
  0
LINE
  5
283
330
1F
100
AcDbEntity
  8
0
  6
Continuous
 62
     8
370
    15
100
AcDbLine
 10
151.2860031808
 20
198.9669314945
 30
0.0
 11
151.2860031808
 21
198.9543668354
 31
0.0
  0
LINE
  5
284
330
1F
100
AcDbEntity
  8
0
  6
Continuous
 62
     8
370
    15
100
AcDbLine
 10
187.171250769
 20
198.9543668354
 30
0.0
 11
187.171250769
 21
198.9669314945
 31
0.0
  0
LINE
  5
285
330
1F
100
AcDbEntity
  8
0
  6
Continuous
 62
     8
370
    15
100
AcDbLine
 10
267.336419412
 20
198.9669314945
 30
0.0
 11
267.336419412
 21
198.9543668354
 31
0.0
  0
LINE
  5
286
330
1F
100
AcDbEntity
  8
0
  6
Continuous
 62
     8
370
    15
100
AcDbLine
 10
250.1712532724
 20
198.9543668354
 30
0.0
 11
250.1712532724
 21
198.9669314945
 31
0.0
  0
LINE
  5
287
330
1F
100
AcDbEntity
  8
0
  6
Continuous
 62
     8
370
    15
100
AcDbLine
 10
233.1712516034
 20
198.9543668354
 30
0.0
 11
233.1712516034
 21
198.9669314945
 31
0.0
  0
LINE
  5
288
330
1F
100
AcDbEntity
  8
0
  6
Continuous
 62
     8
370
    15
100
AcDbLine
 10
232.3364170278
 20
198.9669314945
 30
0.0
 11
232.3364170278
 21
198.9543668354
 31
0.0
  0
LINE
  5
289
330
1F
100
AcDbEntity
  8
0
  6
Continuous
 62
     8
370
    15
100
AcDbLine
 10
170.1712491
 20
198.9543668354
 30
0.0
 11
170.1712491
 21
198.9669314945
 31
0.0
  0
LINE
  5
28A
330
1F
100
AcDbEntity
  8
0
  6
Continuous
 62
     8
370
    15
100
AcDbLine
 10
186.3364176834
 20
198.9669314945
 30
0.0
 11
186.3364176834
 21
198.9543668354
 31
0.0
  0
LINE
  5
28B
330
1F
100
AcDbEntity
  8
0
  6
Continuous
 62
     8
370
    15
100
AcDbLine
 10
210.1712511862
 20
198.9543668354
 30
0.0
 11
210.1712511862
 21
198.9669314945
 31
0.0
  0
LINE
  5
28C
330
1F
100
AcDbEntity
  8
0
  6
Continuous
 62
     8
370
    15
100
AcDbLine
 10
209.3364181007
 20
198.9669314945
 30
0.0
 11
209.3364181007
 21
198.9543668354
 31
0.0
  0
LINE
  5
28D
330
1F
100
AcDbEntity
  8
0
  6
Continuous
 62
     8
370
    15
100
AcDbLine
 10
169.3364175046
 20
198.9669314945
 30
0.0
 11
169.3364175046
 21
198.9543668354
 31
0.0
  0
LINE
  5
28E
330
1F
100
AcDbEntity
  8
0
  6
Continuous
 62
     8
370
    15
100
AcDbLine
 10
268.2216616357
 20
198.9543668354
 30
0.0
 11
268.2216616357
 21
198.9669314945
 31
0.0
  0
LINE
  5
28F
330
1F
100
AcDbEntity
  8
0
  6
Continuous
 62
     8
370
    15
100
AcDbLine
 10
249.3364186967
 20
198.9669314945
 30
0.0
 11
249.3364186967
 21
198.9543668354
 31
0.0
  0
LINE
  5
290
330
1F
100
AcDbEntity
  8
0
  6
Continuous
 62
     8
370
    15
100
AcDbLine
 10
289.7538336003
 20
147.3855055297
 30
0.0
 11
129.7538371766
 21
147.3855055297
 31
0.0
  0
LINE
  5
291
330
1F
100
AcDbEntity
  8
0
  6
Continuous
 62
     8
370
    15
100
AcDbLine
 10
289.7538336003
 20
145.5597943986
 30
0.0
 11
129.7538371766
 21
145.5597943986
 31
0.0
  0
LINE
  5
292
330
1F
100
AcDbEntity
  8
0
  6
Continuous
 62
     8
370
    15
100
AcDbLine
 10
289.7538336003
 20
136.7197945142
 30
0.0
 11
129.7538371766
 21
136.7197945142
 31
0.0
  0
LINE
  5
293
330
1F
100
AcDbEntity
  8
0
  6
Continuous
 62
     8
370
    15
100
AcDbLine
 10
289.7538336003
 20
171.3640383804
 30
0.0
 11
129.7538371766
 21
171.3640383804
 31
0.0
  0
LINE
  5
294
330
1F
100
AcDbEntity
  8
0
  6
Continuous
 62
     8
370
    15
100
AcDbLine
 10
289.7538336003
 20
171.6962716902
 30
0.0
 11
129.7538371766
 21
171.6962716902
 31
0.0
  0
SPLINE
  5
295
330
1F
100
AcDbEntity
  8
0
  6
Continuous
 62
     8
370
    15
100
AcDbSpline
210
0.0
220
0.0
230
1.0
 70
     8
 71
     3
 72
    11
 73
     7
 74
     0
 42
0.00000001
 43
0.00000001
 12
1.0
 22
0.0
 32
0.0
 13
1.0
 23
0.0
 33
0.0
 40
0.0
 40
0.0
 40
0.0
 40
0.0
 40
0.2501475085861985
 40
0.5002869636980938
 40
0.7504143218741042
 40
1.0
 40
1.0
 40
1.0
 40
1.0
 10
183.1840680921741
 20
148.8082132661767
 30
0.0
 10
183.1539401645127
 20
148.7734470427204
 30
0.0
 10
183.0936852791556
 20
148.7039157151029
 30
0.0
 10
183.0144312610639
 20
148.5973604562728
 30
0.0
 10
182.9529629728009
 20
148.5023342592178
 30
0.0
 10
182.9354318994926
 20
148.4604542417125
 30
0.0
 10
182.9266758645244
 20
148.4395369315572
 30
0.0
  0
SPLINE
  5
296
330
1F
100
AcDbEntity
  8
0
  6
Continuous
 62
     8
370
    15
100
AcDbSpline
210
0.0
220
0.0
230
1.0
 70
     8
 71
     3
 72
    20
 73
    16
 74
     0
 42
0.00000001
 43
0.00000001
 12
1.0
 22
0.0
 32
0.0
 13
1.0
 23
0.0
 33
0.0
 40
0.0
 40
0.0
 40
0.0
 40
0.0
 40
0.2104455607863854
 40
0.4203268152094672
 40
0.7010897564460167
 40
0.8834420892270256
 40
0.9282222207496126
 40
0.9524743961439152
 40
0.9674985289792344
 40
0.9773811800498045
 40
0.984092006727576
 40
0.9887381184997135
 40
0.9919932571336529
 40
0.9977340518469219
 40
1.0
 40
1.0
 40
1.0
 40
1.0
 10
183.1840680921741
 20
148.8082132661767
 30
0.0
 10
183.2861228703272
 20
148.7075889876116
 30
0.0
 10
183.4899587683985
 20
148.5066102528549
 30
0.0
 10
183.8381008068512
 20
148.1699466831411
 30
0.0
 10
184.2044843154131
 20
147.9104293160642
 30
0.0
 10
184.4889534128699
 20
147.7571444006925
 30
0.0
 10
184.6265570285239
 20
147.6928288785433
 30
0.0
 10
184.6721941160955
 20
147.6728103540409
 30
0.0
 10
184.6987483440151
 20
147.6616353432079
 30
0.0
 10
184.715764815914
 20
147.6546819717061
 30
0.0
 10
184.7271751116473
 20
147.6501177651732
 30
0.0
 10
184.7350114552371
 20
147.6470312345941
 30
0.0
 10
184.7423157998511
 20
147.6441849326159
 30
0.0
 10
184.7483430515038
 20
147.641865959915
 30
0.0
 10
184.7526233091694
 20
147.6402422013552
 30
0.0
 10
184.7538346434303
 20
147.6397826695867
 30
0.0
  0
SPLINE
  5
297
330
1F
100
AcDbEntity
  8
0
  6
Continuous
 62
     8
370
    15
100
AcDbSpline
210
0.0
220
0.0
230
1.0
 70
     8
 71
     3
 72
    14
 73
    10
 74
     0
 42
0.00000001
 43
0.00000001
 12
1.0
 22
0.0
 32
0.0
 13
1.0
 23
0.0
 33
0.0
 40
0.0
 40
0.0
 40
0.0
 40
0.0
 40
0.0024047280000233
 40
0.0051904647989546
 40
0.0347287412744376
 40
0.2932233761459547
 40
0.574671667384589
 40
0.7873325268940493
 40
0.9999999999999999
 40
0.9999999999999999
 40
0.9999999999999999
 40
0.9999999999999999
 10
184.7538346434303
 20
147.6397826695867
 30
0.0
 10
184.7522575087931
 20
147.6399822954495
 30
0.0
 10
184.7488533558838
 20
147.6404131762035
 30
0.0
 10
184.7260854920109
 20
147.6433472418765
 30
0.0
 10
184.5355981054043
 20
147.6699872358183
 30
0.0
 10
184.1659990802731
 20
147.7588324101741
 30
0.0
 10
183.6999302594174
 20
147.9576225317899
 30
0.0
 10
183.2762275600173
 20
148.1893026591802
 30
0.0
 10
183.0431943041971
 20
148.3561246427714
 30
0.0
 10
182.9266758645244
 20
148.4395369315572
 30
0.0
  0
LINE
  5
298
330
1F
100
AcDbEntity
  8
0
  6
Continuous
 62
     8
370
    15
100
AcDbLine
 10
186.3236004496
 20
148.8082132662
 30
0.0
 11
186.3218406225
 21
149.3170685494
 31
0.0
  0
SPLINE
  5
299
330
1F
100
AcDbEntity
  8
0
  6
Continuous
 62
     8
370
    15
100
AcDbSpline
210
0.0
220
0.0
230
1.0
 70
     8
 71
     3
 72
    13
 73
     9
 74
     0
 42
0.00000001
 43
0.00000001
 12
1.0
 22
0.0
 32
0.0
 13
1.0
 23
0.0
 33
0.0
 40
0.0
 40
0.0
 40
0.0
 40
0.0
 40
0.002267514315904
 40
0.0027175161667728
 40
0.298338420509235
 40
0.5793303577030557
 40
0.7893827955400105
 40
1.0
 40
1.0
 40
1.0
 40
1.0
 10
184.7538346434303
 20
147.6397826695867
 30
0.0
 10
184.7550463289565
 20
147.6402422495513
 30
0.0
 10
184.7564984807615
 20
147.6407930359234
 30
0.0
 10
184.9156986978202
 20
147.7015524238423
 30
0.0
 10
185.2420064849434
 20
147.8682080686207
 30
0.0
 10
185.6695008085259
 20
148.1696897156081
 30
0.0
 10
186.0177244875215
 20
148.5066667484833
 30
0.0
 10
186.221550580569
 20
148.7076078363353
 30
0.0
 10
186.3236004496284
 20
148.8082132661767
 30
0.0
  0
SPLINE
  5
29A
330
1F
100
AcDbEntity
  8
0
  6
Continuous
 62
     8
370
    15
100
AcDbSpline
210
0.0
220
0.0
230
1.0
 70
     8
 71
     3
 72
     9
 73
     5
 74
     0
 42
0.00000001
 43
0.00000001
 12
1.0
 22
0.0
 32
0.0
 13
1.0
 23
0.0
 33
0.0
 40
0.0
 40
0.0
 40
0.0
 40
0.0
 40
0.0000205346317604
 40
1.0
 40
1.0
 40
1.0
 40
1.0
 10
183.1858279193111
 20
149.317068549437
 30
0.0
 10
183.1858279193112
 20
149.3170648241442
 30
0.0
 10
183.1858279253656
 20
149.135649699231
 30
0.0
 10
183.1849479997354
 20
148.9719298017399
 30
0.0
 10
183.1840680921741
 20
148.8082132661767
 30
0.0
  0
SPLINE
  5
29B
330
1F
100
AcDbEntity
  8
0
  6
Continuous
 62
     8
370
    15
100
AcDbSpline
210
0.0
220
0.0
230
1.0
 70
     8
 71
     3
 72
    11
 73
     7
 74
     0
 42
0.00000001
 43
0.00000001
 12
1.0
 22
0.0
 32
0.0
 13
1.0
 23
0.0
 33
0.0
 40
0.0
 40
0.0
 40
0.0
 40
0.0
 40
0.2501474915643699
 40
0.5002861550303261
 40
0.7504146578625395
 40
1.0
 40
1.0
 40
1.0
 40
1.0
 10
186.3236004496284
 20
148.8082132661767
 30
0.0
 10
186.3537284769103
 20
148.7734470916181
 30
0.0
 10
186.4139834682088
 20
148.703915969454
 30
0.0
 10
186.4932360501846
 20
148.5973599257411
 30
0.0
 10
186.5547068815361
 20
148.5023346028497
 30
0.0
 10
186.572237096815
 20
148.4604543148196
 30
0.0
 10
186.5809926772781
 20
148.4395369315572
 30
0.0
  0
SPLINE
  5
29C
330
1F
100
AcDbEntity
  8
0
  6
Continuous
 62
     8
370
    15
100
AcDbSpline
210
0.0
220
0.0
230
1.0
 70
     8
 71
     3
 72
    14
 73
    10
 74
     0
 42
0.00000001
 43
0.00000001
 12
1.0
 22
0.0
 32
0.0
 13
1.0
 23
0.0
 33
0.0
 40
0.0
 40
0.0
 40
0.0
 40
0.0
 40
0.2126675482183545
 40
0.4253284828378829
 40
0.7067768734817409
 40
0.9652715996514387
 40
0.9948098865595983
 40
0.9975956243424289
 40
0.9999999999999999
 40
0.9999999999999999
 40
0.9999999999999999
 40
0.9999999999999999
 10
186.5809926772781
 20
148.4395369315572
 30
0.0
 10
186.4644742391432
 20
148.3561246400787
 30
0.0
 10
186.2314409863987
 20
148.1893026511021
 30
0.0
 10
185.8077382614448
 20
147.9576225684561
 30
0.0
 10
185.3416695651138
 20
147.7588322287989
 30
0.0
 10
184.9720702173745
 20
147.6699876193264
 30
0.0
 10
184.7815831031862
 20
147.6433471483831
 30
0.0
 10
184.7588154024552
 20
147.6404132323305
 30
0.0
 10
184.7554115257724
 20
147.6399823024642
 30
0.0
 10
184.7538346434303
 20
147.6397826695867
 30
0.0
  0
LINE
  5
29D
330
1F
100
AcDbEntity
  8
0
  6
Continuous
 62
     8
370
    15
100
AcDbLine
 10
183.3878280605
 20
149.3068426276
 30
0.0
 11
183.1878276551
 21
149.3068426276
 31
0.0
  0
LINE
  5
29E
330
1F
100
AcDbEntity
  8
0
  6
Continuous
 62
     8
370
    15
100
AcDbLine
 10
186.3198408867
 20
149.3068426276
 30
0.0
 11
186.1198404813
 21
149.3068426276
 31
0.0
  0
LINE
  5
29F
330
1F
100
AcDbEntity
  8
0
  6
Continuous
 62
     8
370
    15
100
AcDbLine
 10
186.5809926773
 20
148.4395369316
 30
0.0
 11
186.5999879325
 21
148.1685660208
 31
0.0
  0
LINE
  5
2A0
330
1F
100
AcDbEntity
  8
0
  6
Continuous
 62
     8
370
    15
100
AcDbLine
 10
182.9266758645
 20
148.4395369316
 30
0.0
 11
182.9076798642
 21
148.1685660208
 31
0.0
  0
LINE
  5
2A1
330
1F
100
AcDbEntity
  8
0
  6
Continuous
 62
     8
370
    15
100
AcDbLine
 10
183.3878280605
 20
149.3170685494
 30
0.0
 11
186.1198404813
 21
149.3170685494
 31
0.0
  0
SPLINE
  5
2A2
330
1F
100
AcDbEntity
  8
0
  6
Continuous
 62
     8
370
    15
100
AcDbSpline
210
0.0
220
0.0
230
1.0
 70
     8
 71
     3
 72
    11
 73
     7
 74
     0
 42
0.00000001
 43
0.00000001
 12
1.0
 22
0.0
 32
0.0
 13
1.0
 23
0.0
 33
0.0
 40
0.0
 40
0.0
 40
0.0
 40
0.0
 40
0.249977395640035
 40
0.4998073367202198
 40
0.7495414928614053
 40
1.0
 40
1.0
 40
1.0
 40
1.0
 10
183.1840680921741
 20
148.8082132661767
 30
0.0
 10
183.1333746440422
 20
148.8054070423062
 30
0.0
 10
183.0320176504027
 20
148.799796249877
 30
0.0
 10
182.9026662104038
 20
148.7743430596589
 30
0.0
 10
182.809207198441
 20
148.7402644826747
 30
0.0
 10
182.7927244246364
 20
148.7143456523366
 30
0.0
 10
182.7844711030193
 20
148.7013674700684
 30
0.0
  0
LINE
  5
2A3
330
1F
100
AcDbEntity
  8
0
  6
Continuous
 62
     8
370
    15
100
AcDbLine
 10
182.784471103
 20
148.7013674701
 30
0.0
 11
182.7863754714
 21
149.1568684006
 31
0.0
  0
LWPOLYLINE
  5
2A4
330
1F
100
AcDbEntity
  8
0
  6
Continuous
 62
     8
370
    15
100
AcDbPolyline
 90
        9
 70
   128
 43
0.0
 10
183.1858279193
 20
149.3170685494
 10
183.1103609884
 20
149.3140324378
 10
183.0376045788
 20
149.3050343717
 10
182.970172354
 20
149.2903954709
 10
182.9104857529
 20
149.2706439817
 10
182.8606890524
 20
149.2464877093
 10
182.822570392
 20
149.2187946463
 10
182.7974991883
 20
149.1885594452
 10
182.7863754714
 20
149.1568684006
  0
SPLINE
  5
2A5
330
1F
100
AcDbEntity
  8
0
  6
Continuous
 62
     8
370
    15
100
AcDbSpline
210
0.0
220
0.0
230
1.0
 70
     8
 71
     3
 72
    11
 73
     7
 74
     0
 42
0.00000001
 43
0.00000001
 12
1.0
 22
0.0
 32
0.0
 13
1.0
 23
0.0
 33
0.0
 40
0.0
 40
0.0
 40
0.0
 40
0.0
 40
0.2440008685547697
 40
0.4919439403053836
 40
0.7439103380787405
 40
1.0
 40
1.0
 40
1.0
 40
1.0
 10
182.9266758645244
 20
148.4395369315572
 30
0.0
 10
182.9062590692226
 20
148.4561410906101
 30
0.0
 10
182.8650956144012
 20
148.489617674027
 30
0.0
 10
182.8205948868481
 20
148.553772883235
 30
0.0
 10
182.790341653258
 20
148.6253226738924
 30
0.0
 10
182.7864385120924
 20
148.6758824276313
 30
0.0
 10
182.7844711030193
 20
148.7013674700684
 30
0.0
  0
SPLINE
  5
2A6
330
1F
100
AcDbEntity
  8
0
  6
Continuous
 62
     8
370
    15
100
AcDbSpline
210
0.0
220
0.0
230
1.0
 70
     8
 71
     3
 72
    11
 73
     7
 74
     0
 42
0.00000001
 43
0.00000001
 12
1.0
 22
0.0
 32
0.0
 13
1.0
 23
0.0
 33
0.0
 40
0.0
 40
0.0
 40
0.0
 40
0.0
 40
0.2499774275261995
 40
0.4998074004737399
 40
0.7495408703341977
 40
0.9999999999999999
 40
0.9999999999999999
 40
0.9999999999999999
 40
0.9999999999999999
 10
186.3236004496284
 20
148.8082132661767
 30
0.0
 10
186.3742938733264
 20
148.8054070386891
 30
0.0
 10
186.4756508181127
 20
148.7997962390278
 30
0.0
 10
186.6050025003667
 20
148.7743431274057
 30
0.0
 10
186.6984601559825
 20
148.7402643625
 30
0.0
 10
186.7149442030853
 20
148.7143456348368
 30
0.0
 10
186.7231981838412
 20
148.7013674700684
 30
0.0
  0
SPLINE
  5
2A7
330
1F
100
AcDbEntity
  8
0
  6
Continuous
 62
     8
370
    15
100
AcDbSpline
210
0.0
220
0.0
230
1.0
 70
     8
 71
     3
 72
    11
 73
     7
 74
     0
 42
0.00000001
 43
0.00000001
 12
1.0
 22
0.0
 32
0.0
 13
1.0
 23
0.0
 33
0.0
 40
0.0
 40
0.0
 40
0.0
 40
0.0
 40
0.2560895829146151
 40
0.5080574209037361
 40
0.7559992067223412
 40
1.0
 40
1.0
 40
1.0
 40
1.0
 10
186.7231981838412
 20
148.7013674700684
 30
0.0
 10
186.721230938887
 20
148.6758823695348
 30
0.0
 10
186.7173281116561
 20
148.6253223494776
 30
0.0
 10
186.687072393609
 20
148.5537733898777
 30
0.0
 10
186.6425731240802
 20
148.4896174465651
 30
0.0
 10
186.6014095713411
 20
148.4561410424825
 30
0.0
 10
186.5809926772781
 20
148.4395369315572
 30
0.0
  0
LWPOLYLINE
  5
2A8
330
1F
100
AcDbEntity
  8
0
  6
Continuous
 62
     8
370
    15
100
AcDbPolyline
 90
        9
 70
   128
 43
0.0
 10
186.3218406225
 20
149.3170685494
 10
186.3973075534
 20
149.3140324378
 10
186.470063963
 20
149.3050343717
 10
186.5374961878
 20
149.2903954709
 10
186.5971827889
 20
149.2706439817
 10
186.6469794894
 20
149.2464877093
 10
186.6850981498
 20
149.2187946463
 10
186.7101693536
 20
149.1885594452
 10
186.7212923253
 20
149.1568684006
  0
LINE
  5
2A9
330
1F
100
AcDbEntity
  8
0
  6
Continuous
 62
     8
370
    15
100
AcDbLine
 10
186.7212923253
 20
149.1568684006
 30
0.0
 11
186.7231981838
 21
148.7013674701
 31
0.0
  0
LINE
  5
2AA
330
1F
100
AcDbEntity
  8
0
  6
Continuous
 62
     8
370
    15
100
AcDbLine
 10
186.3218406225
 20
149.3170685494
 30
0.0
 11
186.3218406225
 21
154.4405616248
 31
0.0
  0
LWPOLYLINE
  5
2AB
330
1F
100
AcDbEntity
  8
0
  6
Continuous
 62
     8
370
    15
100
AcDbPolyline
 90
        9
 70
   128
 43
0.0
 10
186.3218406225
 20
154.4405616248
 10
186.3973075534
 20
154.4375247682
 10
186.470063963
 20
154.4285259569
 10
186.5374961878
 20
154.4138885463
 10
186.5971827889
 20
154.394135567
 10
186.6469794894
 20
154.3699792946
 10
186.6850981498
 20
154.3422869766
 10
186.7101693536
 20
154.3120525206
 10
186.7212923253
 20
154.2803607309
  0
LINE
  5
2AC
330
1F
100
AcDbEntity
  8
0
  6
Continuous
 62
     8
370
    15
100
AcDbLine
 10
186.7212923253
 20
154.2803607309
 30
0.0
 11
186.7212923253
 21
149.1568684006
 31
0.0
  0
LINE
  5
2AD
330
1F
100
AcDbEntity
  8
0
  6
Continuous
 62
     8
370
    15
100
AcDbLine
 10
186.3218406225
 20
166.056755873
 30
0.0
 11
186.3218406225
 21
167.558788451
 31
0.0
  0
LINE
  5
2AE
330
1F
100
AcDbEntity
  8
0
  6
Continuous
 62
     8
370
    15
100
AcDbLine
 10
186.3403962935
 20
154.5393667543
 30
0.0
 11
186.3218406225
 21
154.4405616248
 31
0.0
  0
LINE
  5
2AF
330
1F
100
AcDbEntity
  8
0
  6
Continuous
 62
     8
370
    15
100
AcDbLine
 10
183.1858279193
 20
154.4405616248
 30
0.0
 11
183.1858279193
 21
149.3170685494
 31
0.0
  0
LINE
  5
2B0
330
1F
100
AcDbEntity
  8
0
  6
Continuous
 62
     8
370
    15
100
AcDbLine
 10
183.1858279193
 20
154.4405616248
 30
0.0
 11
183.174197563
 21
154.5588515127
 31
0.0
  0
LINE
  5
2B1
330
1F
100
AcDbEntity
  8
0
  6
Continuous
 62
     8
370
    15
100
AcDbLine
 10
183.1858279193
 20
167.558788451
 30
0.0
 11
183.1858279193
 21
166.056755873
 31
0.0
  0
LINE
  5
2B2
330
1F
100
AcDbEntity
  8
0
  6
Continuous
 62
     8
370
    15
100
AcDbLine
 10
182.7863754714
 20
149.1568684006
 30
0.0
 11
182.7863754714
 21
154.2803607309
 31
0.0
  0
LWPOLYLINE
  5
2B3
330
1F
100
AcDbEntity
  8
0
  6
Continuous
 62
     8
370
    15
100
AcDbPolyline
 90
        9
 70
   128
 43
0.0
 10
183.1858279193
 20
154.4405616248
 10
183.1103609884
 20
154.4375247682
 10
183.0376045788
 20
154.4285259569
 10
182.970172354
 20
154.4138885463
 10
182.9104857529
 20
154.394135567
 10
182.8606890524
 20
154.3699792946
 10
182.822570392
 20
154.3422869766
 10
182.7974991883
 20
154.3120525206
 10
182.7863754714
 20
154.2803607309
  0
LINE
  5
2B4
330
1F
100
AcDbEntity
  8
0
  6
Continuous
 62
     8
370
    15
100
AcDbLine
 10
186.7231981838
 20
148.7013674701
 30
0.0
 11
186.7538342262
 21
148.4543159032
 31
0.0
  0
LINE
  5
2B5
330
1F
100
AcDbEntity
  8
0
  6
Continuous
 62
     8
370
    15
100
AcDbLine
 10
182.784471103
 20
148.7013674701
 30
0.0
 11
182.7538343156
 21
148.4543159032
 31
0.0
  0
LWPOLYLINE
  5
2B6
330
1F
100
AcDbEntity
  8
0
  6
Continuous
 62
     8
370
    15
100
AcDbPolyline
 90
        3
 70
   128
 43
0.0
 10
182.7863754714
 20
154.2803607309
 10
182.7805714691
 20
154.2299962962
 10
182.7538343156
 20
153.9980209792
  0
LWPOLYLINE
  5
2B7
330
1F
100
AcDbEntity
  8
0
  6
Continuous
 62
     8
370
    15
100
AcDbPolyline
 90
        3
 70
   128
 43
0.0
 10
186.7538342262
 20
153.9980209792
 10
186.7270970727
 20
154.2299962962
 10
186.7212923253
 20
154.2803607309
  0
SPLINE
  5
2B8
330
1F
100
AcDbEntity
  8
0
  6
Continuous
 62
     8
370
    15
100
AcDbSpline
210
0.0
220
0.0
230
1.0
 70
     8
 71
     3
 72
    11
 73
     7
 74
     0
 42
0.00000001
 43
0.00000001
 12
1.0
 22
0.0
 32
0.0
 13
1.0
 23
0.0
 33
0.0
 40
0.0
 40
0.0
 40
0.0
 40
0.0
 40
0.2835220268451751
 40
0.5667795424974574
 40
0.8499313842242485
 40
0.9999999999999999
 40
0.9999999999999999
 40
0.9999999999999999
 40
0.9999999999999999
 10
182.5354205454059
 20
154.6164415204949
 30
0.0
 10
182.5755797769097
 20
154.5982173565831
 30
0.0
 10
182.655860773459
 20
154.5617860309494
 30
0.0
 10
182.7408933660111
 20
154.4638363836083
 30
0.0
 10
182.7816463816184
 20
154.3651658202589
 30
0.0
 10
182.7851587711714
 20
154.3021793847483
 30
0.0
 10
182.7863754714199
 20
154.2803607309289
 30
0.0
  0
LWPOLYLINE
  5
2B9
330
1F
100
AcDbEntity
  8
0
  6
Continuous
 62
     8
370
    15
100
AcDbPolyline
 90
        3
 70
   128
 43
0.0
 10
182.547773608
 20
154.7035373176
 10
182.5395556176
 20
154.6574912394
 10
182.5354205454
 20
154.6164415205
  0
LWPOLYLINE
  5
2BA
330
1F
100
AcDbEntity
  8
0
  6
Continuous
 62
     8
370
    15
100
AcDbPolyline
 90
        3
 70
   128
 43
0.0
 10
186.9598949338
 20
154.7035373176
 10
186.9681121791
 20
154.6574912394
 10
186.9722472513
 20
154.6164415205
  0
SPLINE
  5
2BB
330
1F
100
AcDbEntity
  8
0
  6
Continuous
 62
     8
370
    15
100
AcDbSpline
210
0.0
220
0.0
230
1.0
 70
     8
 71
     3
 72
    11
 73
     7
 74
     0
 42
0.00000001
 43
0.00000001
 12
1.0
 22
0.0
 32
0.0
 13
1.0
 23
0.0
 33
0.0
 40
0.0
 40
0.0
 40
0.0
 40
0.0
 40
0.2835218881009179
 40
0.5667771877033562
 40
0.8499292468046615
 40
1.0
 40
1.0
 40
1.0
 40
1.0
 10
186.7212923253246
 20
154.2803607309289
 30
0.0
 10
186.7256183631778
 20
154.3217113623816
 30
0.0
 10
186.7342663712197
 20
154.4043737443285
 30
0.0
 10
186.8032473037757
 20
154.512680501655
 30
0.0
 10
186.8884384830054
 20
154.5826746621553
 30
0.0
 10
186.9506847899431
 20
154.607753926179
 30
0.0
 10
186.9722472513385
 20
154.6164415204949
 30
0.0
  0
ARC
  5
2BC
330
1F
100
AcDbEntity
  8
0
  6
Continuous
 62
     8
370
    15
100
AcDbCircle
 10
184.8953190752
 20
160.3736629922
 30
0.0
 40
6.120394572503241
100
AcDbArc
 50
289.8370016254
 51
306.5013197774
  0
ARC
  5
2BD
330
1F
100
AcDbEntity
  8
0
  6
Continuous
 62
     8
370
    15
100
AcDbCircle
 10
184.6123681925
 20
160.3736993524
 30
0.0
 40
6.120435382598763
100
AcDbArc
 50
233.4987361751
 51
250.1629424221
  0
LINE
  5
2BE
330
1F
100
AcDbEntity
  8
0
  6
Continuous
 62
     8
370
    15
100
AcDbLine
 10
186.9722472513
 20
154.6164415205
 30
0.0
 11
187.0035128678
 21
154.3336353624
 31
0.0
  0
LINE
  5
2BF
330
1F
100
AcDbEntity
  8
0
  6
Continuous
 62
     8
370
    15
100
AcDbLine
 10
182.504154929
 20
154.3336353624
 30
0.0
 11
182.5354205454
 21
154.6164415205
 31
0.0
  0
LINE
  5
2C0
330
1F
100
AcDbEntity
  8
0
  6
Continuous
 62
     8
370
    15
100
AcDbLine
 10
183.3878280605
 20
167.558788451
 30
0.0
 11
186.1198404813
 21
167.558788451
 31
0.0
  0
LINE
  5
2C1
330
1F
100
AcDbEntity
  8
0
  6
Continuous
 62
     8
370
    15
100
AcDbLine
 10
183.1878276551
 20
167.5521097506
 30
0.0
 11
183.3878280605
 21
167.5521097506
 31
0.0
  0
LINE
  5
2C2
330
1F
100
AcDbEntity
  8
0
  6
Continuous
 62
     8
370
    15
100
AcDbLine
 10
186.1198404813
 20
167.5521097506
 30
0.0
 11
186.3198408867
 21
167.5521097506
 31
0.0
  0
LINE
  5
2C3
330
1F
100
AcDbEntity
  8
0
  6
Continuous
 62
     8
370
    15
100
AcDbLine
 10
182.7863754714
 20
165.9385688031
 30
0.0
 11
182.7863754714
 21
167.3985890472
 31
0.0
  0
LWPOLYLINE
  5
2C4
330
1F
100
AcDbEntity
  8
0
  6
Continuous
 62
     8
370
    15
100
AcDbPolyline
 90
        9
 70
   128
 43
0.0
 10
183.1858279193
 20
167.558788451
 10
183.1103609884
 20
167.5557545746
 10
183.0376045788
 20
167.5467542732
 10
182.970172354
 20
167.5321153725
 10
182.9104857529
 20
167.5123653734
 10
182.8606890524
 20
167.4882076109
 10
182.822570392
 20
167.4605152929
 10
182.7974991883
 20
167.4302808369
 10
182.7863754714
 20
167.3985890472
  0
LWPOLYLINE
  5
2C5
330
1F
100
AcDbEntity
  8
0
  6
Continuous
 62
     8
370
    15
100
AcDbPolyline
 90
        9
 70
   128
 43
0.0
 10
186.3218406225
 20
167.558788451
 10
186.3973075534
 20
167.5557545746
 10
186.470063963
 20
167.5467542732
 10
186.5374961878
 20
167.5321153725
 10
186.5971827889
 20
167.5123653734
 10
186.6469794894
 20
167.4882076109
 10
186.6850981498
 20
167.4605152929
 10
186.7101693536
 20
167.4302808369
 10
186.7212923253
 20
167.3985890472
  0
LINE
  5
2C6
330
1F
100
AcDbEntity
  8
0
  6
Continuous
 62
     8
370
    15
100
AcDbLine
 10
186.7212923253
 20
167.3985890472
 30
0.0
 11
186.7212923253
 21
165.9385688031
 31
0.0
  0
LINE
  5
2C7
330
1F
100
AcDbEntity
  8
0
  6
Continuous
 62
     8
370
    15
100
AcDbLine
 10
182.7543826783
 20
168.0797479475
 30
0.0
 11
182.7538343156
 21
168.0753282631
 31
0.0
  0
SPLINE
  5
2C8
330
1F
100
AcDbEntity
  8
0
  6
Continuous
 62
     8
370
    15
100
AcDbSpline
210
0.0
220
0.0
230
1.0
 70
     8
 71
     3
 72
    13
 73
     9
 74
     0
 42
0.00000001
 43
0.00000001
 12
1.0
 22
0.0
 32
0.0
 13
1.0
 23
0.0
 33
0.0
 40
0.0
 40
0.0
 40
0.0
 40
0.0
 40
0.2359770669511083
 40
0.4700679769128817
 40
0.6281578190049756
 40
0.7867776619959892
 40
0.8916097892128284
 40
1.0
 40
1.0
 40
1.0
 40
1.0
 10
182.7863754714199
 20
167.398589047236
 30
0.0
 10
182.7863276234726
 20
167.4949166308439
 30
0.0
 10
182.7862323100252
 20
167.68680185483
 30
0.0
 10
182.7837212987837
 20
167.9229844350508
 30
0.0
 10
182.7777840680957
 20
168.0809003029761
 30
0.0
 10
182.7701577087974
 20
168.135885336719
 30
0.0
 10
182.762082125352
 20
168.139182714494
 30
0.0
 10
182.7569775543391
 20
168.099778717276
 30
0.0
 10
182.7543826783367
 20
168.0797479474969
 30
0.0
  0
SPLINE
  5
2C9
330
1F
100
AcDbEntity
  8
0
  6
Continuous
 62
     8
370
    15
100
AcDbSpline
210
0.0
220
0.0
230
1.0
 70
     8
 71
     3
 72
    13
 73
     9
 74
     0
 42
0.00000001
 43
0.00000001
 12
1.0
 22
0.0
 32
0.0
 13
1.0
 23
0.0
 33
0.0
 40
0.0
 40
0.0
 40
0.0
 40
0.0
 40
0.1084786923862164
 40
0.2133963966508356
 40
0.3721457249269699
 40
0.5303646196513953
 40
0.8824108711384214
 40
1.0
 40
1.0
 40
1.0
 40
1.0
 10
186.7532858634658
 20
168.0797479474969
 30
0.0
 10
186.7506909888783
 20
168.0997789855532
 30
0.0
 10
186.7455864206487
 20
168.1391835105191
 30
0.0
 10
186.7375108134115
 20
168.135881621636
 30
0.0
 10
186.7298845903638
 20
168.0809224220396
 30
0.0
 10
186.7226782149737
 20
167.8891253710424
 30
0.0
 10
186.7214517377341
 20
167.6373452467201
 30
0.0
 10
186.7213242469595
 20
167.4463989275582
 30
0.0
 10
186.7212923253246
 20
167.398589047236
 30
0.0
  0
LINE
  5
2CA
330
1F
100
AcDbEntity
  8
0
  6
Continuous
 62
     8
370
    15
100
AcDbLine
 10
186.7532858635
 20
168.0797479475
 30
0.0
 11
186.7538342262
 21
168.0753282631
 31
0.0
  0
SPLINE
  5
2CB
330
1F
100
AcDbEntity
  8
0
  6
Continuous
 62
     8
370
    15
100
AcDbSpline
210
0.0
220
0.0
230
1.0
 70
     8
 71
     3
 72
    12
 73
     8
 74
     0
 42
0.00000001
 43
0.00000001
 12
1.0
 22
0.0
 32
0.0
 13
1.0
 23
0.0
 33
0.0
 40
0.0
 40
0.0
 40
0.0
 40
0.0
 40
0.0742673505842297
 40
0.2964484182049078
 40
0.5147135625570107
 40
0.8681165346508465
 40
1.0
 40
1.0
 40
1.0
 40
1.0
 10
183.1652881587215
 20
168.5166857564874
 30
0.0
 10
183.1662880567827
 20
168.5188726585264
 30
0.0
 10
183.1702792884115
 20
168.5276019809696
 30
0.0
 10
183.1772890756527
 20
168.4319175309512
 30
0.0
 10
183.1832931264711
 20
168.1765547906685
 30
0.0
 10
183.1856701236403
 20
167.852154374908
 30
0.0
 10
183.1857941998446
 20
167.6214780191152
 30
0.0
 10
183.1858279193111
 20
167.5587884509988
 30
0.0
  0
SPLINE
  5
2CC
330
1F
100
AcDbEntity
  8
0
  6
Continuous
 62
     8
370
    15
100
AcDbSpline
210
0.0
220
0.0
230
1.0
 70
     8
 71
     3
 72
    13
 73
     9
 74
     0
 42
0.00000001
 43
0.00000001
 12
1.0
 22
0.0
 32
0.0
 13
1.0
 23
0.0
 33
0.0
 40
0.0
 40
0.0
 40
0.0
 40
0.0
 40
0.0000084015029319
 40
0.2403418286468867
 40
0.4855794621432791
 40
0.7037203362722971
 40
0.9257749409781127
 40
1.0
 40
1.0
 40
1.0
 40
1.0
 10
186.3218406224914
 20
167.5587884509988
 30
0.0
 10
186.3218406224913
 20
167.5587924246415
 30
0.0
 10
186.3218406202895
 20
167.6724664373141
 30
0.0
 10
186.3222212994574
 20
167.9035910001087
 30
0.0
 10
186.325202604967
 20
168.2116850807361
 30
0.0
 10
186.3303750349195
 20
168.4318157647306
 30
0.0
 10
186.3373910113493
 20
168.527609127788
 30
0.0
 10
186.3413808373572
 20
168.518874089941
 30
0.0
 10
186.342380383081
 20
168.5166857564874
 30
0.0
  0
LINE
  5
2CD
330
1F
100
AcDbEntity
  8
0
  6
Continuous
 62
     8
370
    15
100
AcDbLine
 10
183.787828126
 20
168.4645227516
 30
0.0
 11
183.787828126
 21
168.4836826647
 31
0.0
  0
LINE
  5
2CE
330
1F
100
AcDbEntity
  8
0
  6
Continuous
 62
     8
370
    15
100
AcDbLine
 10
185.7198404158
 20
168.4645227516
 30
0.0
 11
185.7198404158
 21
168.4836826647
 31
0.0
  0
LINE
  5
2CF
330
1F
100
AcDbEntity
  8
0
  6
Continuous
 62
     8
370
    15
100
AcDbLine
 10
182.523994335
 20
159.7724370087
 30
0.0
 11
182.0292504514
 21
157.147707733
 31
0.0
  0
ARC
  5
2D0
330
1F
100
AcDbEntity
  8
0
  6
Continuous
 62
     8
370
    15
100
AcDbCircle
 10
184.7538342709
 20
163.4273387222
 30
0.0
 40
4.281412462639748
100
AcDbArc
 50
238.6128115675
 51
301.3871884325
  0
LINE
  5
2D1
330
1F
100
AcDbEntity
  8
0
  6
Continuous
 62
     8
370
    15
100
AcDbLine
 10
187.4784180904
 20
157.147707733
 30
0.0
 11
186.9836742068
 21
159.7724370087
 31
0.0
  0
SPLINE
  5
2D2
330
1F
100
AcDbEntity
  8
0
  6
Continuous
 62
     8
370
    15
100
AcDbSpline
210
0.0
220
0.0
230
1.0
 70
     8
 71
     3
 72
    10
 73
     6
 74
     0
 42
0.00000001
 43
0.00000001
 12
1.0
 22
0.0
 32
0.0
 13
1.0
 23
0.0
 33
0.0
 40
0.0
 40
0.0
 40
0.0
 40
0.0
 40
0.2857659901718465
 40
0.6445558581981756
 40
1.0
 40
1.0
 40
1.0
 40
1.0
 10
187.9259029412933
 20
156.8003869975038
 30
0.0
 10
187.8627424582653
 20
156.805772571225
 30
0.0
 10
187.7202816310765
 20
156.8179199337916
 30
0.0
 10
187.552696140822
 20
156.9417179396524
 30
0.0
 10
187.503099998555
 20
157.0792592326407
 30
0.0
 10
187.4784180904098
 20
157.1477077329583
 30
0.0
  0
SPLINE
  5
2D3
330
1F
100
AcDbEntity
  8
0
  6
Continuous
 62
     8
370
    15
100
AcDbSpline
210
0.0
220
0.0
230
1.0
 70
     8
 71
     3
 72
    10
 73
     6
 74
     0
 42
0.00000001
 43
0.00000001
 12
1.0
 22
0.0
 32
0.0
 13
1.0
 23
0.0
 33
0.0
 40
0.0
 40
0.0
 40
0.0
 40
0.0
 40
0.3554440830227795
 40
0.7142333800811537
 40
1.0
 40
1.0
 40
1.0
 40
1.0
 10
182.0292504513927
 20
157.1477077329583
 30
0.0
 10
182.0045684828097
 20
157.0792592490707
 30
0.0
 10
181.9549722546262
 20
156.9417180876237
 30
0.0
 10
181.7873876619376
 20
156.8179197796005
 30
0.0
 10
181.6449264067294
 20
156.8057725317447
 30
0.0
 10
181.5817656005092
 20
156.8003869975038
 30
0.0
  0
LWPOLYLINE
  5
2D4
330
1F
100
AcDbEntity
  8
0
  6
Continuous
 62
     8
370
    15
100
AcDbPolyline
 90
        9
 70
   128
 43
0.0
 10
182.0292504514
 20
157.147707733
 10
181.9999055947
 20
157.1642852748
 10
181.9743679846
 20
157.1837327803
 10
181.9534407938
 20
157.2054393018
 10
181.9377781833
 20
157.2287223661
 10
181.9278748716
 20
157.2528533066
 10
181.9240393127
 20
157.2770751441
 10
181.9263907159
 20
157.3006264294
 10
181.9348575557
 20
157.3227695549
  0
ARC
  5
2D5
330
1F
100
AcDbEntity
  8
0
  6
Continuous
 62
     8
370
    15
100
AcDbCircle
 10
182.5662825372
 20
159.9026396976
 30
0.0
 40
0.1368978898657421
100
AcDbArc
 50
178.548310727
 51
252.0068527352
  0
ARC
  5
2D6
330
1F
100
AcDbEntity
  8
0
  6
Continuous
 62
     8
370
    15
100
AcDbCircle
 10
186.9413867359
 20
159.9026391803
 30
0.0
 40
0.136897171976026
100
AcDbArc
 50
287.99292307
 51
1.4519134678
  0
LWPOLYLINE
  5
2D7
330
1F
100
AcDbEntity
  8
0
  6
Continuous
 62
     8
370
    15
100
AcDbPolyline
 90
        9
 70
   128
 43
0.0
 10
187.4784180904
 20
157.147707733
 10
187.5077636922
 20
157.1642852748
 10
187.5333005572
 20
157.1837327803
 10
187.554227748
 20
157.2054393018
 10
187.5698896135
 20
157.2287223661
 10
187.5797936702
 20
157.2528533066
 10
187.5836299742
 20
157.2770751441
 10
187.5812770808
 20
157.3006264294
 10
187.5728102411
 20
157.3227695549
  0
LINE
  5
2D8
330
1F
100
AcDbEntity
  8
0
  6
Continuous
 62
     8
370
    15
100
AcDbLine
 10
182.4332000697
 20
165.4742337192
 30
0.0
 11
181.9348575557
 21
165.3557411755
 31
0.0
  0
LWPOLYLINE
  5
2D9
330
1F
100
AcDbEntity
  8
0
  6
Continuous
 62
     8
370
    15
100
AcDbPolyline
 90
        3
 70
   128
 43
0.0
 10
181.9348575557
 20
165.3557411755
 10
182.2603719319
 20
164.4917107547
 10
182.4812443937
 20
163.7132562125
  0
LINE
  5
2DA
330
1F
100
AcDbEntity
  8
0
  6
Continuous
 62
     8
370
    15
100
AcDbLine
 10
187.5728102411
 20
165.3557411755
 30
0.0
 11
187.0744684721
 21
165.4742337192
 31
0.0
  0
LWPOLYLINE
  5
2DB
330
1F
100
AcDbEntity
  8
0
  6
Continuous
 62
     8
370
    15
100
AcDbPolyline
 90
        3
 70
   128
 43
0.0
 10
187.0096208537
 20
163.6425785149
 10
187.2472966099
 20
164.4917107547
 10
187.5728102411
 20
165.3557411755
  0
ARC
  5
2DC
330
1F
100
AcDbEntity
  8
0
  6
Continuous
 62
     8
370
    15
100
AcDbCircle
 10
183.1972990779
 20
159.5222423706
 30
0.0
 40
0.7182872918744947
100
AcDbArc
 50
142.5747535823
 51
159.6153380056
  0
ARC
  5
2DD
330
1F
100
AcDbEntity
  8
0
  6
Continuous
 62
     8
370
    15
100
AcDbCircle
 10
184.7538342709
 20
163.4478840409
 30
0.0
 40
4.086308880934995
100
AcDbArc
 50
238.6335950028
 51
301.3664049972
  0
ARC
  5
2DE
330
1F
100
AcDbEntity
  8
0
  6
Continuous
 62
     8
370
    15
100
AcDbCircle
 10
186.3103933058
 20
159.5222555347
 30
0.0
 40
0.718260357734249
100
AcDbArc
 50
20.3843401145
 51
37.4255682976
  0
ARC
  5
2DF
330
1F
100
AcDbEntity
  8
0
  6
Continuous
 62
     8
370
    15
100
AcDbCircle
 10
184.7754407749
 20
162.1709299116
 30
0.0
 40
4.025855771330215
100
AcDbArc
 50
58.4691076651
 51
86.0347496866
  0
ARC
  5
2E0
330
1F
100
AcDbEntity
  8
0
  6
Continuous
 62
     8
370
    15
100
AcDbCircle
 10
196.800717139
 20
162.7805828476
 30
0.0
 40
10.31346276773432
100
AcDbArc
 50
164.1210797782
 51
195.8789202218
  0
ARC
  5
2E1
330
1F
100
AcDbEntity
  8
0
  6
Continuous
 62
     8
370
    15
100
AcDbCircle
 10
172.7069621095
 20
162.7805828476
 30
0.0
 40
10.31345246952796
100
AcDbArc
 50
344.121063504
 51
15.878936496
  0
ARC
  5
2E2
330
1F
100
AcDbEntity
  8
0
  6
Continuous
 62
     8
370
    15
100
AcDbCircle
 10
184.7322277669
 20
162.1709299116
 30
0.0
 40
4.025855771330357
100
AcDbArc
 50
93.9652503134
 51
121.5308923349
  0
ARC
  5
2E3
330
1F
100
AcDbEntity
  8
0
  6
Continuous
 62
     8
370
    15
100
AcDbCircle
 10
184.7538342709
 20
159.5802794526
 30
0.0
 40
0.1003135873872583
100
AcDbArc
 50
184.5328140577
 51
355.4671859423
  0
ARC
  5
2E4
330
1F
100
AcDbEntity
  8
0
  6
Continuous
 62
     8
370
    15
100
AcDbCircle
 10
184.8771249469
 20
159.8350415661
 30
0.0
 40
0.2637203950270235
100
AcDbArc
 50
264.9332396244
 51
309.3331343726
  0
ARC
  5
2E5
330
1F
100
AcDbEntity
  8
0
  6
Continuous
 62
     8
370
    15
100
AcDbCircle
 10
184.6218266727
 20
159.8067650555
 30
0.0
 40
0.2365885331933723
100
AcDbArc
 50
227.9583084922
 51
277.7753175107
  0
LWPOLYLINE
  5
2E6
330
1F
100
AcDbEntity
  8
0
  6
Continuous
 62
     8
370
    15
100
AcDbPolyline
 90
        9
 70
   128
 43
0.0
 10
182.626873442
 20
159.9587641085
 10
182.5894983495
 20
159.9658823932
 10
182.5535284365
 20
159.9695570195
 10
182.5203137482
 20
159.9696494067
 10
182.4911059821
 20
159.9661565745
 10
182.4669988836
 20
159.9592081631
 10
182.4489014233
 20
159.9490664328
 10
182.4374916042
 20
159.9361128533
 10
182.4344621981
 20
159.9288127745
  0
LWPOLYLINE
  5
2E7
330
1F
100
AcDbEntity
  8
0
  6
Continuous
 62
     8
370
    15
100
AcDbPolyline
 90
        9
 70
   128
 43
0.0
 10
187.0732055987
 20
159.9288127745
 10
187.0701769376
 20
159.9361128533
 10
187.0587678636
 20
159.9490664328
 10
187.0406696583
 20
159.9592081631
 10
187.0165633047
 20
159.9661565745
 10
186.9873540486
 20
159.9696494067
 10
186.9541401053
 20
159.9695570195
 10
186.9181701923
 20
159.9658823932
 10
186.8807950998
 20
159.9587641085
  0
LINE
  5
2E8
330
1F
100
AcDbEntity
  8
0
  6
Continuous
 62
     8
370
    15
100
AcDbLine
 10
184.853834101
 20
159.5723516667
 30
0.0
 11
184.853834101
 21
165.9016452158
 31
0.0
  0
LWPOLYLINE
  5
2E9
330
1F
100
AcDbEntity
  8
0
  6
Continuous
 62
     8
370
    15
100
AcDbPolyline
 90
        9
 70
   128
 43
0.0
 10
185.0538345063
 20
165.9861690724
 10
185.0499914969
 20
165.9696794475
 10
185.0386099899
 20
165.9538231218
 10
185.0201280797
 20
165.9392110432
 10
184.9952558065
 20
165.926402005
 10
184.9649483348
 20
165.9158907259
 10
184.9303709353
 20
165.9080795372
 10
184.8928520466
 20
165.9032694424
 10
184.853834101
 20
165.9016452158
  0
LINE
  5
2EA
330
1F
100
AcDbEntity
  8
0
  6
Continuous
 62
     8
370
    15
100
AcDbLine
 10
184.6538344408
 20
165.9016452158
 30
0.0
 11
184.6538344408
 21
159.5723516667
 31
0.0
  0
LWPOLYLINE
  5
2EB
330
1F
100
AcDbEntity
  8
0
  6
Continuous
 62
     8
370
    15
100
AcDbPolyline
 90
        9
 70
   128
 43
0.0
 10
184.6538344408
 20
165.9016452158
 10
184.6148164952
 20
165.9032694424
 10
184.5772976065
 20
165.9080795372
 10
184.542720207
 20
165.9158907259
 10
184.5124127353
 20
165.926402005
 10
184.4875404621
 20
165.9392110432
 10
184.4690585519
 20
165.9538231218
 10
184.4576770449
 20
165.9696794475
 10
184.4538340355
 20
165.9861690724
  0
ARC
  5
2EC
330
1F
100
AcDbEntity
  8
0
  6
Continuous
 62
     8
370
    15
100
AcDbCircle
 10
182.6447835963
 20
165.3649246805
 30
0.0
 40
0.238151327218201
100
AcDbArc
 50
94.3129972878
 51
152.6780573384
  0
ARC
  5
2ED
330
1F
100
AcDbEntity
  8
0
  6
Continuous
 62
     8
370
    15
100
AcDbCircle
 10
186.8628867473
 20
165.3649274032
 30
0.0
 40
0.2381484767208236
100
AcDbArc
 50
27.3215596564
 51
85.6873857174
  0
LINE
  5
2EE
330
1F
100
AcDbEntity
  8
0
  6
Continuous
 62
     8
370
    15
100
AcDbLine
 10
184.853834101
 20
165.9016452158
 30
0.0
 11
184.6538344408
 21
165.9016452158
 31
0.0
  0
SPLINE
  5
2EF
330
1F
100
AcDbEntity
  8
0
  6
Continuous
 62
     8
370
    15
100
AcDbSpline
210
0.0
220
0.0
230
1.0
 70
     8
 71
     3
 72
     9
 73
     5
 74
     0
 42
0.00000001
 43
0.00000001
 12
1.0
 22
0.0
 32
0.0
 13
1.0
 23
0.0
 33
0.0
 40
0.0
 40
0.0
 40
0.0
 40
0.0
 40
0.5209780659750809
 40
1.0
 40
1.0
 40
1.0
 40
1.0
 10
188.3097225809761
 20
156.9413609230943
 30
0.0
 10
188.2424960046764
 20
156.899550601189
 30
0.0
 10
188.1134568364461
 20
156.8192970845134
 30
0.0
 10
187.9824657959149
 20
156.8023626600718
 30
0.0
 10
187.9197182143398
 20
156.7942506993241
 30
0.0
  0
ARC
  5
2F0
330
1F
100
AcDbEntity
  8
0
  6
Continuous
 62
     8
370
    15
100
AcDbCircle
 10
185.5164829496
 20
161.0628873938
 30
0.0
 40
4.978872170208906
100
AcDbArc
 50
304.126266368
 51
9.8784819599
  0
ARC
  5
2F1
330
1F
100
AcDbEntity
  8
0
  6
Continuous
 62
     8
370
    15
100
AcDbCircle
 10
183.9958793824
 20
161.0669073182
 30
0.0
 40
4.984833446540939
100
AcDbArc
 50
171.7540701232
 51
235.8549951299
  0
SPLINE
  5
2F2
330
1F
100
AcDbEntity
  8
0
  6
Continuous
 62
     8
370
    15
100
AcDbSpline
210
0.0
220
0.0
230
1.0
 70
     8
 71
     3
 72
     9
 73
     5
 74
     0
 42
0.00000001
 43
0.00000001
 12
1.0
 22
0.0
 32
0.0
 13
1.0
 23
0.0
 33
0.0
 40
0.0
 40
0.0
 40
0.0
 40
0.0
 40
0.4790213109882518
 40
1.0
 40
1.0
 40
1.0
 40
1.0
 10
181.5879510725208
 20
156.7942506993241
 30
0.0
 10
181.5252035087746
 20
156.8023626862084
 30
0.0
 10
181.3942123350902
 20
156.8192971872382
 30
0.0
 10
181.2651728056861
 20
156.899550603501
 30
0.0
 10
181.1979459608264
 20
156.9413609230943
 30
0.0
  0
SPLINE
  5
2F3
330
1F
100
AcDbEntity
  8
0
  6
Continuous
 62
     8
370
    15
100
AcDbSpline
210
0.0
220
0.0
230
1.0
 70
     8
 71
     3
 72
    11
 73
     7
 74
     0
 42
0.00000001
 43
0.00000001
 12
1.0
 22
0.0
 32
0.0
 13
1.0
 23
0.0
 33
0.0
 40
0.0
 40
0.0
 40
0.0
 40
0.0
 40
0.2421660404950179
 40
0.6716897510009765
 40
0.9785766967665064
 40
1.0
 40
1.0
 40
1.0
 40
1.0
 10
187.6074517155357
 20
157.2478405559487
 30
0.0
 10
187.6200145508429
 20
157.2154607041338
 30
0.0
 10
187.6548597657299
 20
157.1256495375532
 30
0.0
 10
187.7653864156261
 20
157.0406213420473
 30
0.0
 10
187.8694701064674
 20
157.0123189554386
 30
0.0
 10
187.9174697233011
 20
157.0112220858275
 30
0.0
 10
187.9206018531985
 20
157.0111505115457
 30
0.0
  0
SPLINE
  5
2F4
330
1F
100
AcDbEntity
  8
0
  6
Continuous
 62
     8
370
    15
100
AcDbSpline
210
0.0
220
0.0
230
1.0
 70
     8
 71
     3
 72
    11
 73
     7
 74
     0
 42
0.00000001
 43
0.00000001
 12
1.0
 22
0.0
 32
0.0
 13
1.0
 23
0.0
 33
0.0
 40
0.0
 40
0.0
 40
0.0
 40
0.0
 40
0.2802144443796756
 40
0.3266861781210595
 40
0.7537443685455413
 40
1.0
 40
1.0
 40
1.0
 40
1.0
 10
181.587067433662
 20
157.0111505115457
 30
0.0
 10
181.6276849104832
 20
157.0157722713888
 30
0.0
 10
181.6750385303047
 20
157.021160519888
 30
0.0
 10
181.7706460789953
 20
157.063738698634
 30
0.0
 10
181.8535262331384
 20
157.1261136984825
 30
0.0
 10
181.8884301765608
 20
157.2167942777056
 30
0.0
 10
181.9011958325572
 20
157.2499595010705
 30
0.0
  0
ARC
  5
2F5
330
1F
100
AcDbEntity
  8
0
  6
Continuous
 62
     8
370
    15
100
AcDbCircle
 10
172.5029305883
 20
161.0901101852
 30
0.0
 40
9.660310210492067
100
AcDbArc
 50
335.7780665504
 51
24.2219334496
  0
SPLINE
  5
2F6
330
1F
100
AcDbEntity
  8
0
  6
Continuous
 62
     8
370
    15
100
AcDbSpline
210
0.0
220
0.0
230
1.0
 70
     8
 71
     3
 72
     9
 73
     5
 74
     0
 42
0.00000001
 43
0.00000001
 12
1.0
 22
0.0
 32
0.0
 13
1.0
 23
0.0
 33
0.0
 40
0.0
 40
0.0
 40
0.0
 40
0.0
 40
0.4684414050294667
 40
1.0
 40
1.0
 40
1.0
 40
1.0
 10
181.587067433662
 20
165.2462742650933
 30
0.0
 10
181.542682463877
 20
165.2194316901373
 30
0.0
 10
181.4479321507996
 20
165.1621298063417
 30
0.0
 10
181.3596855358643
 20
165.0911804111253
 30
0.0
 10
181.3127772892185
 20
165.05346665029
 30
0.0
  0
SPLINE
  5
2F7
330
1F
100
AcDbEntity
  8
0
  6
Continuous
 62
     8
370
    15
100
AcDbSpline
210
0.0
220
0.0
230
1.0
 70
     8
 71
     3
 72
    11
 73
     7
 74
     0
 42
0.00000001
 43
0.00000001
 12
1.0
 22
0.0
 32
0.0
 13
1.0
 23
0.0
 33
0.0
 40
0.0
 40
0.0
 40
0.0
 40
0.0
 40
0.365830602051222
 40
0.7252606787603019
 40
0.982066488115986
 40
1.0
 40
1.0
 40
1.0
 40
1.0
 10
181.9348575556941
 20
165.3557411754556
 30
0.0
 10
181.9133455678889
 20
165.3574335893598
 30
0.0
 10
181.8706979632609
 20
165.3607888069116
 30
0.0
 10
181.7431012018307
 20
165.3211575249977
 30
0.0
 10
181.6381702492143
 20
165.2733610212358
 30
0.0
 10
181.5901987558972
 20
165.2479340045983
 30
0.0
 10
181.587067433662
 20
165.2462742650933
 30
0.0
  0
SPLINE
  5
2F8
330
1F
100
AcDbEntity
  8
0
  6
Continuous
 62
     8
370
    15
100
AcDbSpline
210
0.0
220
0.0
230
1.0
 70
     8
 71
     3
 72
     9
 73
     5
 74
     0
 42
0.00000001
 43
0.00000001
 12
1.0
 22
0.0
 32
0.0
 13
1.0
 23
0.0
 33
0.0
 40
0.0
 40
0.0
 40
0.0
 40
0.0
 40
0.531556549395559
 40
1.0
 40
1.0
 40
1.0
 40
1.0
 10
181.3127772892185
 20
157.1267537200875
 30
0.0
 10
181.359685647009
 20
157.0925352269089
 30
0.0
 10
181.4479328106341
 20
157.0281610917062
 30
0.0
 10
181.5426825423794
 20
157.0165770023403
 30
0.0
 10
181.587067433662
 20
157.0111505115457
 30
0.0
  0
ARC
  5
2F9
330
1F
100
AcDbEntity
  8
0
  6
Continuous
 62
     8
370
    15
100
AcDbCircle
 10
197.0047379535
 20
161.0901101852
 30
0.0
 40
9.6603102104923
100
AcDbArc
 50
155.7780665504
 51
204.2219334496
  0
SPLINE
  5
2FA
330
1F
100
AcDbEntity
  8
0
  6
Continuous
 62
     8
370
    15
100
AcDbSpline
210
0.0
220
0.0
230
1.0
 70
     8
 71
     3
 72
     9
 73
     5
 74
     0
 42
0.00000001
 43
0.00000001
 12
1.0
 22
0.0
 32
0.0
 13
1.0
 23
0.0
 33
0.0
 40
0.0
 40
0.0
 40
0.0
 40
0.0
 40
0.4684407245780927
 40
1.0
 40
1.0
 40
1.0
 40
1.0
 10
187.9206018531985
 20
157.0111505115457
 30
0.0
 10
187.9649861847907
 20
157.0165770908998
 30
0.0
 10
188.0597352731244
 20
157.0281614367294
 30
0.0
 10
188.1479825787485
 20
157.0925352320766
 30
0.0
 10
188.194891252584
 20
157.1267537200875
 30
0.0
  0
SPLINE
  5
2FB
330
1F
100
AcDbEntity
  8
0
  6
Continuous
 62
     8
370
    15
100
AcDbSpline
210
0.0
220
0.0
230
1.0
 70
     8
 71
     3
 72
    11
 73
     7
 74
     0
 42
0.00000001
 43
0.00000001
 12
1.0
 22
0.0
 32
0.0
 13
1.0
 23
0.0
 33
0.0
 40
0.0
 40
0.0
 40
0.0
 40
0.0
 40
0.2357953848966075
 40
0.2749027327267633
 40
0.6342507634053904
 40
1.0
 40
1.0
 40
1.0
 40
1.0
 10
187.9206018531985
 20
165.2462742650933
 30
0.0
 10
187.8800032804783
 20
165.266626086137
 30
0.0
 10
187.8326713168333
 20
165.2903533156726
 30
0.0
 10
187.7369362751811
 20
165.3295419087338
 30
0.0
 10
187.6367070203078
 20
165.3609512689546
 30
0.0
 10
187.594234151886
 20
165.3574880644204
 30
0.0
 10
187.5728102410503
 20
165.3557411754556
 30
0.0
  0
SPLINE
  5
2FC
330
1F
100
AcDbEntity
  8
0
  6
Continuous
 62
     8
370
    15
100
AcDbSpline
210
0.0
220
0.0
230
1.0
 70
     8
 71
     3
 72
     9
 73
     5
 74
     0
 42
0.00000001
 43
0.00000001
 12
1.0
 22
0.0
 32
0.0
 13
1.0
 23
0.0
 33
0.0
 40
0.0
 40
0.0
 40
0.0
 40
0.0
 40
0.5315613210354613
 40
0.9999999999999999
 40
0.9999999999999999
 40
0.9999999999999999
 40
0.9999999999999999
 10
188.194891252584
 20
165.05346665029
 30
0.0
 10
188.1479826898955
 20
165.0911803257923
 30
0.0
 10
188.0597359329699
 20
165.1621291966183
 30
0.0
 10
187.964986263294
 20
165.2194316020101
 30
0.0
 10
187.9206018531985
 20
165.2462742650933
 30
0.0
  0
ARC
  5
2FD
330
1F
100
AcDbEntity
  8
0
  6
Continuous
 62
     8
370
    15
100
AcDbCircle
 10
182.6286376489
 20
165.5182284007
 30
0.0
 40
0.2003281791043483
100
AcDbArc
 50
121.4906510188
 51
192.6863063409
  0
ARC
  5
2FE
330
1F
100
AcDbEntity
  8
0
  6
Continuous
 62
     8
370
    15
100
AcDbCircle
 10
182.4740721065
 20
165.5253835467
 30
0.0
 40
0.1711140748981928
100
AcDbArc
 50
26.7499481709
 51
73.0373509743
  0
ARC
  5
2FF
330
1F
100
AcDbEntity
  8
0
  6
Continuous
 62
     8
370
    15
100
AcDbCircle
 10
187.0335992917
 20
165.5253801553
 30
0.0
 40
0.171118152076963
100
AcDbArc
 50
106.9632325493
 51
153.2494683055
  0
ARC
  5
300
330
1F
100
AcDbEntity
  8
0
  6
Continuous
 62
     8
370
    15
100
AcDbCircle
 10
186.8790314074
 20
165.5182286182
 30
0.0
 40
0.2003277250011085
100
AcDbArc
 50
347.3136006829
 51
58.5094419575
  0
ARC
  5
301
330
1F
100
AcDbEntity
  8
0
  6
Continuous
 62
     8
370
    15
100
AcDbCircle
 10
182.1235035573
 20
165.4211911493
 30
0.0
 40
0.1996772720824142
100
AcDbArc
 50
118.1659678622
 51
199.1340121675
  0
LINE
  5
302
330
1F
100
AcDbEntity
  8
0
  6
Continuous
 62
     8
370
    15
100
AcDbLine
 10
182.0292504514
 20
165.5972234333
 30
0.0
 11
182.523994335
 21
165.6890533293
 31
0.0
  0
LINE
  5
303
330
1F
100
AcDbEntity
  8
0
  6
Continuous
 62
     8
370
    15
100
AcDbLine
 10
186.9836742068
 20
165.6890533293
 30
0.0
 11
187.4784180904
 21
165.5972234333
 31
0.0
  0
ARC
  5
304
330
1F
100
AcDbEntity
  8
0
  6
Continuous
 62
     8
370
    15
100
AcDbCircle
 10
187.3841668779
 20
165.4211924714
 30
0.0
 40
0.1996752127556565
100
AcDbArc
 50
340.8653812476
 51
61.8343320282
  0
SPLINE
  5
305
330
1F
100
AcDbEntity
  8
0
  6
Continuous
 62
     8
370
    15
100
AcDbSpline
210
0.0
220
0.0
230
1.0
 70
     8
 71
     3
 72
    10
 73
     6
 74
     0
 42
0.00000001
 43
0.00000001
 12
1.0
 22
0.0
 32
0.0
 13
1.0
 23
0.0
 33
0.0
 40
0.0
 40
0.0
 40
0.0
 40
0.0
 40
0.2857663954984936
 40
0.6445550063585725
 40
1.0
 40
1.0
 40
1.0
 40
1.0
 10
181.5817656005092
 20
165.3820402348466
 30
0.0
 10
181.6449263901731
 20
165.4164461235358
 30
0.0
 10
181.7873875186498
 20
165.4940496771801
 30
0.0
 10
181.9549726105725
 20
165.5714934288993
 30
0.0
 10
182.0045685640446
 20
165.5886735742419
 30
0.0
 10
182.0292504513927
 20
165.5972234332986
 30
0.0
  0
ARC
  5
306
330
1F
100
AcDbEntity
  8
0
  6
Continuous
 62
     8
370
    15
100
AcDbCircle
 10
187.7197049885
 20
156.704166474
 30
0.0
 40
0.6359103444025025
100
AcDbArc
 50
21.9007438288
 51
41.6469710615
  0
ARC
  5
307
330
1F
100
AcDbEntity
  8
0
  6
Continuous
 62
     8
370
    15
100
AcDbCircle
 10
181.7879635533
 20
156.704166474
 30
0.0
 40
0.6359103444020799
100
AcDbArc
 50
138.3530289385
 51
158.0992561712
  0
LINE
  5
308
330
1F
100
AcDbEntity
  8
0
  6
Continuous
 62
     8
370
    15
100
AcDbLine
 10
184.853834101
 20
166.0169965947
 30
0.0
 11
184.853834101
 21
165.9016452158
 31
0.0
  0
LINE
  5
309
330
1F
100
AcDbEntity
  8
0
  6
Continuous
 62
     8
370
    15
100
AcDbLine
 10
184.6538344408
 20
165.9016452158
 30
0.0
 11
184.6538344408
 21
166.0169965947
 31
0.0
  0
LINE
  5
30A
330
1F
100
AcDbEntity
  8
0
  6
Continuous
 62
     8
370
    15
100
AcDbLine
 10
185.7210384691
 20
155.3176856959
 30
0.0
 11
185.7213350023
 21
155.3163371408
 31
0.0
  0
ARC
  5
30B
330
1F
100
AcDbEntity
  8
0
  6
Continuous
 62
     8
370
    15
100
AcDbCircle
 10
183.9828810704
 20
161.0901101852
 30
0.0
 40
4.778875251764952
100
AcDbArc
 50
123.9680548556
 51
236.0319451444
  0
ARC
  5
30C
330
1F
100
AcDbEntity
  8
0
  6
Continuous
 62
     8
370
    15
100
AcDbCircle
 10
181.1745678757
 20
164.9757822599
 30
0.0
 40
0.158545597542263
100
AcDbArc
 50
29.3393576427
 51
81.5206247609
  0
ARC
  5
30D
330
1F
100
AcDbEntity
  8
0
  6
Continuous
 62
     8
370
    15
100
AcDbCircle
 10
185.5247884246
 20
161.0901101852
 30
0.0
 40
4.778874719183409
100
AcDbArc
 50
303.9680453776
 51
56.0319546224
  0
ARC
  5
30E
330
1F
100
AcDbEntity
  8
0
  6
Continuous
 62
     8
370
    15
100
AcDbCircle
 10
188.3331006661
 20
164.9757822599
 30
0.0
 40
0.1585455975422382
100
AcDbArc
 50
98.4793752391
 51
150.6606423573
  0
LINE
  5
30F
330
1F
100
AcDbEntity
  8
0
  6
Continuous
 62
     8
370
    15
100
AcDbLine
 10
186.0976399863
 20
155.3660503948
 30
0.0
 11
186.0980527485
 21
155.3647241915
 31
0.0
  0
LINE
  5
310
330
1F
100
AcDbEntity
  8
0
  6
Continuous
 62
     8
370
    15
100
AcDbLine
 10
184.6538344408
 20
166.0169965947
 30
0.0
 11
184.853834101
 21
166.0169965947
 31
0.0
  0
SPLINE
  5
311
330
1F
100
AcDbEntity
  8
0
  6
Continuous
 62
     8
370
    15
100
AcDbSpline
210
0.0
220
0.0
230
1.0
 70
     8
 71
     3
 72
     9
 73
     5
 74
     0
 42
0.00000001
 43
0.00000001
 12
1.0
 22
0.0
 32
0.0
 13
1.0
 23
0.0
 33
0.0
 40
0.0
 40
0.0
 40
0.0
 40
0.0
 40
0.5599877252189833
 40
1.0
 40
1.0
 40
1.0
 40
1.0
 10
184.4538340354629
 20
166.2202663147874
 30
0.0
 10
184.4999349156804
 20
166.2181738492655
 30
0.0
 10
184.5822597205669
 20
166.2144372217866
 30
0.0
 10
184.6645853284032
 20
166.2083897178782
 30
0.0
 10
184.70080960638
 20
166.2057287419267
 30
0.0
  0
SPLINE
  5
312
330
1F
100
AcDbEntity
  8
0
  6
Continuous
 62
     8
370
    15
100
AcDbSpline
210
0.0
220
0.0
230
1.0
 70
     8
 71
     3
 72
    13
 73
     9
 74
     0
 42
0.00000001
 43
0.00000001
 12
1.0
 22
0.0
 32
0.0
 13
1.0
 23
0.0
 33
0.0
 40
0.0
 40
0.0
 40
0.0
 40
0.0
 40
0.239500730602522
 40
0.3683936736399428
 40
0.4999962365679636
 40
0.6316007178042421
 40
0.7604962978242624
 40
0.9999999999999999
 40
0.9999999999999999
 40
0.9999999999999999
 40
0.9999999999999999
 10
184.7507694745727
 20
166.1557383263535
 30
0.0
 10
184.7444959946859
 20
166.156418187662
 30
0.0
 10
184.7348462942604
 20
166.1574639323005
 30
0.0
 10
184.7232336359842
 20
166.1637078059902
 30
0.0
 10
184.7152377823284
 20
166.1701569572647
 30
0.0
 10
184.7087903605911
 20
166.1781586599516
 30
0.0
 10
184.7025477073027
 20
166.1897840585569
 30
0.0
 10
184.7014943893412
 20
166.1994468009011
 30
0.0
 10
184.70080960638
 20
166.2057287419267
 30
0.0
  0
SPLINE
  5
313
330
1F
100
AcDbEntity
  8
0
  6
Continuous
 62
     8
370
    15
100
AcDbSpline
210
0.0
220
0.0
230
1.0
 70
     8
 71
     3
 72
    10
 73
     6
 74
     0
 42
0.00000001
 43
0.00000001
 12
1.0
 22
0.0
 32
0.0
 13
1.0
 23
0.0
 33
0.0
 40
0.0
 40
0.0
 40
0.0
 40
0.0
 40
0.2799059170540247
 40
0.5601531011078451
 40
1.0
 40
1.0
 40
1.0
 40
1.0
 10
184.7507694745727
 20
166.1557383263535
 30
0.0
 10
184.7352307937876
 20
166.1428194221068
 30
0.0
 10
184.7041344871411
 20
166.1169658626221
 30
0.0
 10
184.7163783884939
 20
166.0707601621446
 30
0.0
 10
184.6735037883353
 20
166.0375269988179
 30
0.0
 10
184.6473151827522
 20
166.0172275627084
 30
0.0
  0
SPLINE
  5
314
330
1F
100
AcDbEntity
  8
0
  6
Continuous
 62
     8
370
    15
100
AcDbSpline
210
0.0
220
0.0
230
1.0
 70
     8
 71
     3
 72
     9
 73
     5
 74
     0
 42
0.00000001
 43
0.00000001
 12
1.0
 22
0.0
 32
0.0
 13
1.0
 23
0.0
 33
0.0
 40
0.0
 40
0.0
 40
0.0
 40
0.0
 40
0.5599654641564736
 40
1.0
 40
1.0
 40
1.0
 40
1.0
 10
184.8603533590503
 20
166.0172275627084
 30
0.0
 10
184.8390560981311
 20
166.0430793034143
 30
0.0
 10
184.8010229295118
 20
166.089245973255
 30
0.0
 10
184.7703820933487
 20
166.1354201110576
 30
0.0
 10
184.7568990672298
 20
166.1557383263535
 30
0.0
  0
SPLINE
  5
315
330
1F
100
AcDbEntity
  8
0
  6
Continuous
 62
     8
370
    15
100
AcDbSpline
210
0.0
220
0.0
230
1.0
 70
     8
 71
     3
 72
    13
 73
     9
 74
     0
 42
0.00000001
 43
0.00000001
 12
1.0
 22
0.0
 32
0.0
 13
1.0
 23
0.0
 33
0.0
 40
0.0
 40
0.0
 40
0.0
 40
0.0
 40
0.2395037021757375
 40
0.3683992821957579
 40
0.5000037634320363
 40
0.6316063263600572
 40
0.760499269397478
 40
1.0
 40
1.0
 40
1.0
 40
1.0
 10
184.8068589354224
 20
166.2057287419267
 30
0.0
 10
184.8061741524613
 20
166.1994468009011
 30
0.0
 10
184.8051208344998
 20
166.1897840585569
 30
0.0
 10
184.7988781812114
 20
166.1781586599516
 30
0.0
 10
184.7924307594741
 20
166.1701569572647
 30
0.0
 10
184.7844349058182
 20
166.1637078059902
 30
0.0
 10
184.7728222475421
 20
166.1574639323005
 30
0.0
 10
184.7631725471166
 20
166.156418187662
 30
0.0
 10
184.7568990672298
 20
166.1557383263535
 30
0.0
  0
SPLINE
  5
316
330
1F
100
AcDbEntity
  8
0
  6
Continuous
 62
     8
370
    15
100
AcDbSpline
210
0.0
220
0.0
230
1.0
 70
     8
 71
     3
 72
    10
 73
     6
 74
     0
 42
0.00000001
 43
0.00000001
 12
1.0
 22
0.0
 32
0.0
 13
1.0
 23
0.0
 33
0.0
 40
0.0
 40
0.0
 40
0.0
 40
0.0
 40
0.2798936695881415
 40
0.5601307443942267
 40
1.0
 40
1.0
 40
1.0
 40
1.0
 10
184.8068589354224
 20
166.2057287419267
 30
0.0
 10
184.8298988846119
 20
166.2008424218258
 30
0.0
 10
184.8760070510069
 20
166.1910637865337
 30
0.0
 10
184.9583446781415
 20
166.23932642101
 30
0.0
 10
185.0176242273012
 20
166.2274940140915
 30
0.0
 10
185.0538345063396
 20
166.2202663147874
 30
0.0
  0
LINE
  5
317
330
1F
100
AcDbEntity
  8
0
  6
Continuous
 62
     8
370
    15
100
AcDbLine
 10
184.7568990672
 20
166.1557383264
 30
0.0
 11
184.7507694746
 21
166.1557383264
 31
0.0
  0
LINE
  5
318
330
1F
100
AcDbEntity
  8
0
  6
Continuous
 62
     8
370
    15
100
AcDbLine
 10
184.8068589354
 20
166.2578157509
 30
0.0
 11
184.8068589354
 21
166.2057287419
 31
0.0
  0
SPLINE
  5
319
330
1F
100
AcDbEntity
  8
0
  6
Continuous
 62
     8
370
    15
100
AcDbSpline
210
0.0
220
0.0
230
1.0
 70
     8
 71
     3
 72
    11
 73
     7
 74
     0
 42
0.00000001
 43
0.00000001
 12
1.0
 22
0.0
 32
0.0
 13
1.0
 23
0.0
 33
0.0
 40
0.0
 40
0.0
 40
0.0
 40
0.0
 40
0.2499964737345214
 40
0.4999833249279662
 40
0.7500004670563931
 40
1.0
 40
1.0
 40
1.0
 40
1.0
 10
184.8068589354224
 20
166.2057287419267
 30
0.0
 10
184.8057653280569
 20
166.2056393716495
 30
0.0
 10
184.8035781554195
 20
166.2054606345352
 30
0.0
 10
184.7918905864788
 20
166.2052365626192
 30
0.0
 10
184.7758105329504
 20
166.2050776739795
 30
0.0
 10
184.7632454582965
 20
166.2050487895308
 30
0.0
 10
184.7569631422229
 20
166.205034347815
 30
0.0
  0
LINE
  5
31A
330
1F
100
AcDbEntity
  8
0
  6
Continuous
 62
     8
370
    15
100
AcDbLine
 10
184.7569631422
 20
166.2050343478
 30
0.0
 11
184.7569631422
 21
166.2574119294
 31
0.0
  0
LINE
  5
31B
330
1F
100
AcDbEntity
  8
0
  6
Continuous
 62
     8
370
    15
100
AcDbLine
 10
184.7507053996
 20
166.2574119294
 30
0.0
 11
184.7507053996
 21
166.2050343478
 31
0.0
  0
SPLINE
  5
31C
330
1F
100
AcDbEntity
  8
0
  6
Continuous
 62
     8
370
    15
100
AcDbSpline
210
0.0
220
0.0
230
1.0
 70
     8
 71
     3
 72
    11
 73
     7
 74
     0
 42
0.00000001
 43
0.00000001
 12
1.0
 22
0.0
 32
0.0
 13
1.0
 23
0.0
 33
0.0
 40
0.0
 40
0.0
 40
0.0
 40
0.0
 40
0.2499995329436069
 40
0.5000166750720338
 40
0.7500035262654786
 40
1.0
 40
1.0
 40
1.0
 40
1.0
 10
184.7507053995795
 20
166.205034347815
 30
0.0
 10
184.744423083506
 20
166.2050487895308
 30
0.0
 10
184.7318580088521
 20
166.2050776739795
 30
0.0
 10
184.7157779553237
 20
166.2052365626192
 30
0.0
 10
184.704090386383
 20
166.2054606345352
 30
0.0
 10
184.7019032137456
 20
166.2056393716495
 30
0.0
 10
184.70080960638
 20
166.2057287419267
 30
0.0
  0
LINE
  5
31D
330
1F
100
AcDbEntity
  8
0
  6
Continuous
 62
     8
370
    15
100
AcDbLine
 10
184.7507053996
 20
166.2050343478
 30
0.0
 11
184.7569631422
 21
166.2050343478
 31
0.0
  0
LINE
  5
31E
330
1F
100
AcDbEntity
  8
0
  6
Continuous
 62
     8
370
    15
100
AcDbLine
 10
129.7538371766
 20
182.0583663309
 30
0.0
 11
289.7538336003
 21
182.0583663309
 31
0.0
  0
LINE
  5
31F
330
1F
100
AcDbEntity
  8
0
  6
Continuous
 62
     8
370
    15
100
AcDbLine
 10
129.7538371766
 20
175.8592210138
 30
0.0
 11
289.7538336003
 21
175.8592210138
 31
0.0
  0
LINE
  5
320
330
1F
100
AcDbEntity
  8
0
  6
Continuous
 62
     8
370
    15
100
AcDbLine
 10
129.7538371766
 20
174.6983669126
 30
0.0
 11
289.7538336003
 21
174.6983669126
 31
0.0
  0
LINE
  5
321
330
1F
100
AcDbEntity
  8
0
  6
Continuous
 62
     8
370
    15
100
AcDbLine
 10
129.7538371766
 20
188.2226488913
 30
0.0
 11
135.2538319314
 21
188.2226488913
 31
0.0
  0
LINE
  5
322
330
1F
100
AcDbEntity
  8
0
  6
Continuous
 62
     8
370
    15
100
AcDbLine
 10
284.2538328851
 20
188.2226488913
 30
0.0
 11
289.7538336003
 21
188.2226488913
 31
0.0
  0
LINE
  5
323
330
1F
100
AcDbEntity
  8
0
  6
Continuous
 62
     8
370
    15
100
AcDbLine
 10
282.8538330281
 20
116.0926512802
 30
0.0
 11
271.4538367475
 21
116.0926512802
 31
0.0
  0
LINE
  5
324
330
1F
100
AcDbEntity
  8
0
  6
Continuous
 62
     8
370
    15
100
AcDbLine
 10
148.0538340295
 20
116.0926512802
 30
0.0
 11
136.6538317884
 21
116.0926512802
 31
0.0
  0
LINE
  5
325
330
1F
100
AcDbEntity
  8
0
  6
Continuous
 62
     8
370
    15
100
AcDbLine
 10
148.7338336194
 20
134.9926500941
 30
0.0
 11
135.9738321984
 21
134.9926500941
 31
0.0
  0
LINE
  5
326
330
1F
100
AcDbEntity
  8
0
  6
Continuous
 62
     8
370
    15
100
AcDbLine
 10
148.7210514034
 20
123.7446702445
 30
0.0
 11
135.9866173948
 21
123.7446702445
 31
0.0
  0
LINE
  5
327
330
1F
100
AcDbEntity
  8
0
  6
Continuous
 62
     8
370
    15
100
AcDbLine
 10
148.7338336194
 20
123.8991625035
 30
0.0
 11
135.9738321984
 21
123.8991625035
 31
0.0
  0
LINE
  5
328
330
1F
100
AcDbEntity
  8
0
  6
Continuous
 62
     8
370
    15
100
AcDbLine
 10
283.5338326181
 20
134.9926500941
 30
0.0
 11
270.7738371576
 21
134.9926500941
 31
0.0
  0
LINE
  5
329
330
1F
100
AcDbEntity
  8
0
  6
Continuous
 62
     8
370
    15
100
AcDbLine
 10
283.5338326181
 20
123.8991625035
 30
0.0
 11
270.7738371576
 21
123.8991625035
 31
0.0
  0
LINE
  5
32A
330
1F
100
AcDbEntity
  8
0
  6
Continuous
 62
     8
370
    15
100
AcDbLine
 10
283.5210533822
 20
123.7446702445
 30
0.0
 11
270.7866163934
 21
123.7446702445
 31
0.0
  0
ENDSEC
  0
SECTION
  2
OBJECTS
  0
DICTIONARY
  5
C
330
0
100
AcDbDictionary
281
     1
  3
ACAD_GROUP
350
D
  3
ACAD_LAYOUT
350
1A
  3
ACAD_MLINESTYLE
350
17
  3
ACAD_PLOTSETTINGS
350
19
  3
ACAD_PLOTSTYLENAME
350
E
  0
DICTIONARY
  5
D
102
{ACAD_REACTORS
330
C
102
}
330
C
100
AcDbDictionary
281
     1
  0
DICTIONARY
  5
1A
102
{ACAD_REACTORS
330
C
102
}
330
C
100
AcDbDictionary
281
     1
  3
Layout1
350
1E
  3
Layout2
350
26
  3
Model
350
22
  0
DICTIONARY
  5
17
102
{ACAD_REACTORS
330
C
102
}
330
C
100
AcDbDictionary
281
     1
  3
Standard
350
18
  0
DICTIONARY
  5
19
102
{ACAD_REACTORS
330
C
102
}
330
C
100
AcDbDictionary
281
     1
  0
ACDBDICTIONARYWDFLT
  5
E
102
{ACAD_REACTORS
330
C
102
}
330
C
100
AcDbDictionary
281
     1
  3
Normal
350
F
100
AcDbDictionaryWithDefault
340
F
  0
LAYOUT
  5
1E
102
{ACAD_REACTORS
330
1A
102
}
330
1A
100
AcDbPlotSettings
  1

  2
none_device
  4

  6

 40
0.0
 41
0.0
 42
0.0
 43
0.0
 44
0.0
 45
0.0
 46
0.0
 47
0.0
 48
0.0
 49
0.0
140
0.0
141
0.0
142
1.0
143
1.0
 70
   688
 72
     0
 73
     0
 74
     5
  7

 75
    16
147
1.0
148
0.0
149
0.0
100
AcDbLayout
  1
Layout1
 70
     1
 71
     1
 10
0.0
 20
0.0
 11
420.0
 21
297.0
 12
0.0
 22
0.0
 32
0.0
 14
1.0000000000E+20
 24
1.0000000000E+20
 34
1.0000000000E+20
 15
-1.0000000000E+20
 25
-1.0000000000E+20
 35
-1.0000000000E+20
146
0.0
 13
0.0
 23
0.0
 33
0.0
 16
1.0
 26
0.0
 36
0.0
 17
0.0
 27
1.0
 37
0.0
 76
     0
330
1B
  0
LAYOUT
  5
26
102
{ACAD_REACTORS
330
1A
102
}
330
1A
100
AcDbPlotSettings
  1

  2
none_device
  4

  6

 40
0.0
 41
0.0
 42
0.0
 43
0.0
 44
0.0
 45
0.0
 46
0.0
 47
0.0
 48
0.0
 49
0.0
140
0.0
141
0.0
142
1.0
143
1.0
 70
   688
 72
     0
 73
     0
 74
     5
  7

 75
    16
147
1.0
148
0.0
149
0.0
100
AcDbLayout
  1
Layout2
 70
     1
 71
     2
 10
0.0
 20
0.0
 11
0.0
 21
0.0
 12
0.0
 22
0.0
 32
0.0
 14
0.0
 24
0.0
 34
0.0
 15
0.0
 25
0.0
 35
0.0
146
0.0
 13
0.0
 23
0.0
 33
0.0
 16
1.0
 26
0.0
 36
0.0
 17
0.0
 27
1.0
 37
0.0
 76
     0
330
23
  0
LAYOUT
  5
22
102
{ACAD_REACTORS
330
1A
102
}
330
1A
100
AcDbPlotSettings
  1

  2
none_device
  4

  6

 40
0.0
 41
0.0
 42
0.0
 43
0.0
 44
0.0
 45
0.0
 46
0.0
 47
0.0
 48
0.0
 49
0.0
140
0.0
141
0.0
142
1.0
143
1.0
 70
  1712
 72
     0
 73
     0
 74
     0
  7

 75
     0
147
1.0
148
0.0
149
0.0
100
AcDbLayout
  1
Model
 70
     1
 71
     0
 10
0.0
 20
0.0
 11
431.8
 21
279.4
 12
0.0
 22
0.0
 32
0.0
 14
0.0
 24
0.0
 34
0.0
 15
431.8
 25
279.4
 35
0.0
146
0.0
 13
0.0
 23
0.0
 33
0.0
 16
1.0
 26
0.0
 36
0.0
 17
0.0
 27
1.0
 37
0.0
 76
     0
330
1F
331
29
  0
MLINESTYLE
  5
18
102
{ACAD_REACTORS
330
17
102
}
330
17
100
AcDbMlineStyle
  2
Standard
 70
     0
  3

 62
   256
 51
90.0
 52
90.0
 71
     2
 49
0.5
 62
   256
  6
BYLAYER
 49
-0.5
 62
   256
  6
BYLAYER
  0
ACDBPLACEHOLDER
  5
F
102
{ACAD_REACTORS
330
E
102
}
330
E
  0
ENDSEC
  0
EOF
