  0
SECTION
  2
HEADER
  9
$ACADVER
  1
AC1015
  9
$ACADMAINTVER
 70
     6
  9
$DWGCODEPAGE
  3
ANSI_1252
  9
$INSBASE
 10
0.0
 20
0.0
 30
0.0
  9
$EXTMIN
 10
0.0
 20
0.0
 30
0.0
  9
$EXTMAX
 10
900.0
 20
1200.0
 30
0.0
  9
$LIMMIN
 10
0.0
 20
0.0
  9
$LIMMAX
 10
900.0
 20
1200.0
  9
$ORTHOMODE
 70
     0
  9
$REGENMODE
 70
     1
  9
$FILLMODE
 70
     1
  9
$QTEXTMODE
 70
     0
  9
$MIRRTEXT
 70
     1
  9
$LTSCALE
 40
1.0
  9
$ATTMODE
 70
     1
  9
$TEXTSIZE
 40
3.5
  9
$TRACEWID
 40
1.0
  9
$TEXTSTYLE
  7
Standard
  9
$CLAYER
  8
0
  9
$CELTYPE
  6
ByLayer
  9
$CECOLOR
 62
   256
  9
$CELTSCALE
 40
1.0
  9
$DISPSILH
 70
     0
  9
$DIMSCALE
 40
1.0
  9
$DIMASZ
 40
3.302
  9
$DIMEXO
 40
1.0
  9
$DIMDLI
 40
3.75
  9
$DIMRND
 40
0.0
  9
$DIMDLE
 40
0.0
  9
$DIMEXE
 40
1.0
  9
$DIMTP
 40
0.0
  9
$DIMTM
 40
0.0
  9
$DIMTXT
 40
3.5
  9
$DIMCEN
 40
2.5
  9
$DIMTSZ
 40
0.0
  9
$DIMTOL
 70
     0
  9
$DIMLIM
 70
     0
  9
$DIMTIH
 70
     1
  9
$DIMTOH
 70
     1
  9
$DIMSE1
 70
     0
  9
$DIMSE2
 70
     0
  9
$DIMTAD
 70
     1
  9
$DIMZIN
 70
     0
  9
$DIMBLK
  1

  9
$DIMASO
 70
     1
  9
$DIMSHO
 70
     1
  9
$DIMPOST
  1

  9
$DIMAPOST
  1

  9
$DIMALT
 70
     0
  9
$DIMALTD
 70
     3
  9
$DIMALTF
 40
0.0393700787
  9
$DIMLFAC
 40
1.0
  9
$DIMTOFL
 70
     1
  9
$DIMTVP
 40
0.0
  9
$DIMTIX
 70
     0
  9
$DIMSOXD
 70
     0
  9
$DIMSAH
 70
     0
  9
$DIMBLK1
  1

  9
$DIMBLK2
  1

  9
$DIMSTYLE
  2
ISO-25
  9
$DIMCLRD
 70
     0
  9
$DIMCLRE
 70
     0
  9
$DIMCLRT
 70
     0
  9
$DIMTFAC
 40
1.0
  9
$DIMGAP
 40
1.524
  9
$DIMJUST
 70
     0
  9
$DIMSD1
 70
     0
  9
$DIMSD2
 70
     0
  9
$DIMTOLJ
 70
     0
  9
$DIMTZIN
 70
     0
  9
$DIMALTZ
 70
     0
  9
$DIMALTTZ
 70
     0
  9
$DIMUPT
 70
     0
  9
$DIMDEC
 70
     3
  9
$DIMTDEC
 70
     3
  9
$DIMALTU
 70
     2
  9
$DIMALTTD
 70
     3
  9
$DIMTXSTY
  7
Standard
  9
$DIMAUNIT
 70
     0
  9
$DIMADEC
 70
     2
  9
$DIMALTRND
 40
0.0
  9
$DIMAZIN
 70
     0
  9
$DIMDSEP
 70
    44
  9
$DIMATFIT
 70
     3
  9
$DIMFRAC
 70
     0
  9
$DIMLDRBLK
  1

  9
$DIMLUNIT
 70
     2
  9
$DIMLWD
 70
    -2
  9
$DIMLWE
 70
    -2
  9
$DIMTMOVE
 70
     0
  9
$LUNITS
 70
     2
  9
$LUPREC
 70
     8
  9
$SKETCHINC
 40
1.0
  9
$FILLETRAD
 40
10.0
  9
$AUNITS
 70
     0
  9
$AUPREC
 70
     8
  9
$MENU
  1
.
  9
$ELEVATION
 40
0.0
  9
$PELEVATION
 40
0.0
  9
$THICKNESS
 40
0.0
  9
$LIMCHECK
 70
     0
  9
$CHAMFERA
 40
0.0
  9
$CHAMFERB
 40
0.0
  9
$CHAMFERC
 40
0.0
  9
$CHAMFERD
 40
0.0
  9
$SKPOLY
 70
     0
  9
$TDCREATE
 40
2458432.415553229
  9
$TDUCREATE
 40
2458432.415553229
  9
$TDUPDATE
 40
2458432.415554503
  9
$TDUUPDATE
 40
2458432.415554503
  9
$TDINDWG
 40
0.0000000116
  9
$TDUSRTIMER
 40
0.0000000116
  9
$USRTIMER
 70
     1
  9
$ANGBASE
 50
0.0
  9
$ANGDIR
 70
     0
  9
$PDMODE
 70
     0
  9
$PDSIZE
 40
-1.0
  9
$PLINEWID
 40
0.0
  9
$SPLFRAME
 70
     0
  9
$SPLINETYPE
 70
     6
  9
$SPLINESEGS
 70
     8
  9
$HANDSEED
  5
528
  9
$SURFTAB1
 70
     6
  9
$SURFTAB2
 70
     6
  9
$SURFTYPE
 70
     6
  9
$SURFU
 70
     6
  9
$SURFV
 70
     6
  9
$UCSBASE
  2

  9
$UCSNAME
  2

  9
$UCSORG
 10
0.0
 20
0.0
 30
0.0
  9
$UCSXDIR
 10
1.0
 20
0.0
 30
0.0
  9
$UCSYDIR
 10
0.0
 20
1.0
 30
0.0
  9
$UCSORTHOREF
  2

  9
$UCSORTHOVIEW
 70
     0
  9
$UCSORGTOP
 10
0.0
 20
0.0
 30
0.0
  9
$UCSORGBOTTOM
 10
0.0
 20
0.0
 30
0.0
  9
$UCSORGLEFT
 10
0.0
 20
0.0
 30
0.0
  9
$UCSORGRIGHT
 10
0.0
 20
0.0
 30
0.0
  9
$UCSORGFRONT
 10
0.0
 20
0.0
 30
0.0
  9
$UCSORGBACK
 10
0.0
 20
0.0
 30
0.0
  9
$PUCSBASE
  2

  9
$PUCSNAME
  2

  9
$PUCSORG
 10
0.0
 20
0.0
 30
0.0
  9
$PUCSXDIR
 10
1.0
 20
0.0
 30
0.0
  9
$PUCSYDIR
 10
0.0
 20
1.0
 30
0.0
  9
$PUCSORTHOREF
  2

  9
$PUCSORTHOVIEW
 70
     0
  9
$PUCSORGTOP
 10
0.0
 20
0.0
 30
0.0
  9
$PUCSORGBOTTOM
 10
0.0
 20
0.0
 30
0.0
  9
$PUCSORGLEFT
 10
0.0
 20
0.0
 30
0.0
  9
$PUCSORGRIGHT
 10
0.0
 20
0.0
 30
0.0
  9
$PUCSORGFRONT
 10
0.0
 20
0.0
 30
0.0
  9
$PUCSORGBACK
 10
0.0
 20
0.0
 30
0.0
  9
$USERI1
 70
     0
  9
$USERI2
 70
     0
  9
$USERI3
 70
     0
  9
$USERI4
 70
     0
  9
$USERI5
 70
     0
  9
$USERR1
 40
0.0
  9
$USERR2
 40
0.0
  9
$USERR3
 40
0.0
  9
$USERR4
 40
0.0
  9
$USERR5
 40
0.0
  9
$WORLDVIEW
 70
     1
  9
$SHADEDGE
 70
     3
  9
$SHADEDIF
 70
    70
  9
$TILEMODE
 70
     1
  9
$MAXACTVP
 70
    64
  9
$PINSBASE
 10
0.0
 20
0.0
 30
0.0
  9
$PLIMCHECK
 70
     0
  9
$PEXTMIN
 10
1.0000000000E+20
 20
1.0000000000E+20
 30
1.0000000000E+20
  9
$PEXTMAX
 10
-1.0000000000E+20
 20
-1.0000000000E+20
 30
-1.0000000000E+20
  9
$PLIMMIN
 10
0.0
 20
0.0
  9
$PLIMMAX
 10
420.0
 20
297.0
  9
$UNITMODE
 70
     0
  9
$VISRETAIN
 70
     1
  9
$PLINEGEN
 70
     0
  9
$PSLTSCALE
 70
     1
  9
$TREEDEPTH
 70
  3020
  9
$CMLSTYLE
  2
Standard
  9
$CMLJUST
 70
     0
  9
$CMLSCALE
 40
20.0
  9
$PROXYGRAPHICS
 70
     1
  9
$MEASUREMENT
 70
     1
  9
$CELWEIGHT
370
    -1
  9
$ENDCAPS
280
     0
  9
$JOINSTYLE
280
     0
  9
$LWDISPLAY
290
     1
  9
$INSUNITS
 70
     4
  9
$HYPERLINKBASE
  1

  9
$STYLESHEET
  1

  9
$XEDIT
290
     1
  9
$CEPSNTYPE
380
     0
  9
$PSTYLEMODE
290
     1
  9
$FINGERPRINTGUID
  2
{887513C6-3A4B-4143-BC1F-DED6C98BD428}
  9
$VERSIONGUID
  2
{FAEB1C32-E019-11D5-929B-00C0DF256EC4}
  9
$EXTNAMES
290
     1
  9
$PSVPSCALE
 40
0.0
  9
$OLESTARTUP
290
     0
  0
ENDSEC
  0
SECTION
  2
CLASSES
  0
CLASS
  1
ACDBDICTIONARYWDFLT
  2
AcDbDictionaryWithDefault
  3
ObjectDBX Classes
 90
        0
280
     0
281
     0
  0
CLASS
  1
VISUALSTYLE
  2
AcDbVisualStyle
  3
ObjectDBX Classes
 90
     4095
280
     0
281
     0
  0
CLASS
  1
MATERIAL
  2
AcDbMaterial
  3
ObjectDBX Classes
 90
     1153
280
     0
281
     0
  0
CLASS
  1
SCALE
  2
AcDbScale
  3
ObjectDBX Classes
 90
     1153
280
     0
281
     0
  0
CLASS
  1
TABLESTYLE
  2
AcDbTableStyle
  3
ObjectDBX Classes
 90
     4095
280
     0
281
     0
  0
CLASS
  1
MLEADERSTYLE
  2
AcDbMLeaderStyle
  3
ACDB_MLEADERSTYLE_CLASS
 90
     4095
280
     0
281
     0
  0
CLASS
  1
SUN
  2
AcDbSun
  3
SCENEOE
 90
     1153
280
     0
281
     0
  0
CLASS
  1
ACDBPLACEHOLDER
  2
AcDbPlaceHolder
  3
ObjectDBX Classes
 90
        0
280
     0
281
     0
  0
CLASS
  1
LAYOUT
  2
AcDbLayout
  3
ObjectDBX Classes
 90
        0
280
     0
281
     0
  0
ENDSEC
  0
SECTION
  2
TABLES
  0
TABLE
  2
VPORT
  5
8
330
0
100
AcDbSymbolTable
 70
     1
  0
VPORT
  5
29
330
8
100
AcDbSymbolTableRecord
100
AcDbViewportTableRecord
  2
*Active
 70
     0
 10
0.0
 20
0.0
 11
1.0
 21
1.0
 12
450.0
 22
600.0
 13
0.0
 23
0.0
 14
10.0
 24
10.0
 15
10.0
 25
10.0
 16
0.0
 26
0.0
 36
1.0
 17
0.0
 27
0.0
 37
0.0
 40
1200.0
 41
0.75
 42
50.0
 43
0.0
 44
0.0
 50
0.0
 51
0.0
 71
     0
 72
  2000
 73
     1
 74
     3
 75
     0
 76
     0
 77
     0
 78
     0
281
     0
 65
     1
110
0.0
120
0.0
130
0.0
111
1.0
121
0.0
131
0.0
112
0.0
122
1.0
132
0.0
 79
     0
146
0.0
  0
ENDTAB
  0
TABLE
  2
LTYPE
  5
5
330
0
100
AcDbSymbolTable
 70
     6
  0
LTYPE
  5
14
330
5
100
AcDbSymbolTableRecord
100
AcDbLinetypeTableRecord
  2
ByBlock
 70
     0
  3

 72
    65
 73
     0
 40
0.0
  0
LTYPE
  5
15
330
5
100
AcDbSymbolTableRecord
100
AcDbLinetypeTableRecord
  2
ByLayer
 70
     0
  3

 72
    65
 73
     0
 40
0.0
  0
LTYPE
  5
16
330
5
100
AcDbSymbolTableRecord
100
AcDbLinetypeTableRecord
  2
Continuous
 70
     0
  3
Solid line
 72
    65
 73
     0
 40
0.0
  0
LTYPE
  5
6E
330
5
100
AcDbSymbolTableRecord
100
AcDbLinetypeTableRecord
  2
HIDDEN
 70
     0
  3
Hidden __ __ __ __ __ __ __ __ __ __ __ __ __ __
 72
    65
 73
     2
 40
1.905
 49
1.27
 74
     0
 49
-0.635
 74
     0
  0
LTYPE
  5
6F
330
5
100
AcDbSymbolTableRecord
100
AcDbLinetypeTableRecord
  2
PHANTOM
 70
     0
  3
Phantom ______  __  __  ______  __  __  ______
 72
    65
 73
     6
 40
12.7
 49
6.35
 74
     0
 49
-1.27
 74
     0
 49
1.27
 74
     0
 49
-1.27
 74
     0
 49
1.27
 74
     0
 49
-1.27
 74
     0
  0
LTYPE
  5
70
330
5
100
AcDbSymbolTableRecord
100
AcDbLinetypeTableRecord
  2
CENTER
 70
     0
  3
Center ____ _ ____ _ ____ _ ____ _ ____ _ ____
 72
    65
 73
     4
 40
10.16
 49
6.35
 74
     0
 49
-1.27
 74
     0
 49
1.27
 74
     0
 49
-1.27
 74
     0
  0
LTYPE
  5
71
330
5
100
AcDbSymbolTableRecord
100
AcDbLinetypeTableRecord
  2
CENTERX2
 70
     0
  3
Center (2x) ________  __  ________  __  _____
 72
    65
 73
     4
 40
20.32
 49
12.7
 74
     0
 49
-2.54
 74
     0
 49
2.54
 74
     0
 49
-2.54
 74
     0
  0
LTYPE
  5
72
330
5
100
AcDbSymbolTableRecord
100
AcDbLinetypeTableRecord
  2
DOT2
 70
     0
  3
Dot (.5x) ........................................
 72
    65
 73
     2
 40
0.635
 49
0.0
 74
     0
 49
-0.635
 74
     0
  0
ENDTAB
  0
TABLE
  2
LAYER
  5
2
330
0
100
AcDbSymbolTable
 70
     4
  0
LAYER
  5
10
330
2
100
AcDbSymbolTableRecord
100
AcDbLayerTableRecord
  2
0
 70
     0
 62
     7
  6
Continuous
370
    -3
390
F
  0
LAYER
  5
73
330
2
100
AcDbSymbolTableRecord
100
AcDbLayerTableRecord
  2
FORMAT
 70
     0
 62
     7
  6
Continuous
370
    -3
390
F
  0
LAYER
  5
74
330
2
100
AcDbSymbolTableRecord
100
AcDbLayerTableRecord
  2
SLD-0
 70
     0
 62
     1
  6
Continuous
370
    -3
390
F
  0
LAYER
  5
75
330
2
100
AcDbSymbolTableRecord
100
AcDbLayerTableRecord
  2
WATERMARK
 70
     0
 62
     1
  6
Continuous
370
    -3
390
F
  0
ENDTAB
  0
TABLE
  2
STYLE
  5
3
330
0
100
AcDbSymbolTable
 70
     1
  0
STYLE
  5
11
330
3
100
AcDbSymbolTableRecord
100
AcDbTextStyleTableRecord
  2
Standard
 70
     0
 40
0.0
 41
1.0
 50
0.0
 71
     0
 42
3.5
  3
txt
  4

  0
ENDTAB
  0
TABLE
  2
VIEW
  5
6
330
0
100
AcDbSymbolTable
 70
     0
  0
ENDTAB
  0
TABLE
  2
UCS
  5
7
330
0
100
AcDbSymbolTable
 70
     0
  0
ENDTAB
  0
TABLE
  2
APPID
  5
9
330
0
100
AcDbSymbolTable
 70
     1
  0
APPID
  5
12
330
9
100
AcDbSymbolTableRecord
100
AcDbRegAppTableRecord
  2
ACAD
 70
     0
  0
ENDTAB
  0
TABLE
  2
DIMSTYLE
  5
A
330
0
100
AcDbSymbolTable
 70
     1
100
AcDbDimStyleTable
  0
DIMSTYLE
105
27
330
A
100
AcDbSymbolTableRecord
100
AcDbDimStyleTableRecord
  2
ISO-25
 70
     0
 41
2.5
 42
0.625
 43
3.75
 44
1.25
 73
     0
 74
     0
 77
     1
 78
     8
140
2.5
141
2.5
143
0.0393700787
147
0.625
171
     3
172
     1
178
     0
271
     2
272
     2
274
     3
278
    44
283
     0
284
     8
340
11
  0
ENDTAB
  0
TABLE
  2
BLOCK_RECORD
  5
1
330
0
100
AcDbSymbolTable
 70
     1
  0
BLOCK_RECORD
  5
1F
330
1
100
AcDbSymbolTableRecord
100
AcDbBlockTableRecord
  2
*Model_Space
340
22
  0
BLOCK_RECORD
  5
1B
330
1
100
AcDbSymbolTableRecord
100
AcDbBlockTableRecord
  2
*Paper_Space
340
1E
  0
BLOCK_RECORD
  5
23
330
1
100
AcDbSymbolTableRecord
100
AcDbBlockTableRecord
  2
*Paper_Space0
340
26
  0
ENDTAB
  0
ENDSEC
  0
SECTION
  2
BLOCKS
  0
BLOCK
  5
20
330
1F
100
AcDbEntity
  8
0
100
AcDbBlockBegin
  2
*Model_Space
 70
     0
 10
0.0
 20
0.0
 30
0.0
  3
*Model_Space
  1

  0
ENDBLK
  5
21
330
1F
100
AcDbEntity
  8
0
100
AcDbBlockEnd
  0
BLOCK
  5
1C
330
1B
100
AcDbEntity
 67
     1
  8
0
100
AcDbBlockBegin
  2
*Paper_Space
 70
     0
 10
0.0
 20
0.0
 30
0.0
  3
*Paper_Space
  1

  0
ENDBLK
  5
1D
330
1B
100
AcDbEntity
 67
     1
  8
0
100
AcDbBlockEnd
  0
BLOCK
  5
24
330
23
100
AcDbEntity
  8
0
100
AcDbBlockBegin
  2
*Paper_Space0
 70
     0
 10
0.0
 20
0.0
 30
0.0
  3
*Paper_Space0
  1

  0
ENDBLK
  5
25
330
23
100
AcDbEntity
  8
0
100
AcDbBlockEnd
  0
ENDSEC
  0
SECTION
  2
ENTITIES
  0
LINE
  5
76
330
1F
100
AcDbEntity
  8
0
  6
Continuous
 62
     7
370
    25
100
AcDbLine
 10
487.2766184701
 20
225.6537292852
 30
0.0
 11
487.8750368697
 21
224.6537292852
 31
0.0
  0
LINE
  5
77
330
1F
100
AcDbEntity
  8
0
  6
Continuous
 62
     7
370
    25
100
AcDbLine
 10
512.3065998178
 20
224.6537292852
 30
0.0
 11
512.9050182174
 21
225.6537292852
 31
0.0
  0
LINE
  5
78
330
1F
100
AcDbEntity
  8
0
  6
Continuous
 62
     7
370
    25
100
AcDbLine
 10
621.7766184701
 20
225.6537292852
 30
0.0
 11
622.3750368697
 21
224.6537292852
 31
0.0
  0
LINE
  5
79
330
1F
100
AcDbEntity
  8
0
  6
Continuous
 62
     7
370
    25
100
AcDbLine
 10
646.8065998178
 20
224.6537292852
 30
0.0
 11
647.4050182174
 21
225.6537292852
 31
0.0
  0
LINE
  5
7A
330
1F
100
AcDbEntity
  8
0
  6
Continuous
 62
     7
370
    25
100
AcDbLine
 10
428.9766184701
 20
225.6537292852
 30
0.0
 11
429.5750368697
 21
224.6537292852
 31
0.0
  0
LINE
  5
7B
330
1F
100
AcDbEntity
  8
0
  6
Continuous
 62
     7
370
    25
100
AcDbLine
 10
454.0065998178
 20
224.6537292852
 30
0.0
 11
454.6050182174
 21
225.6537292852
 31
0.0
  0
LINE
  5
7C
330
1F
100
AcDbEntity
  8
0
  6
Continuous
 62
     7
370
    25
100
AcDbLine
 10
294.4766184701
 20
225.6537292852
 30
0.0
 11
295.0750368697
 21
224.6537292852
 31
0.0
  0
LINE
  5
7D
330
1F
100
AcDbEntity
  8
0
  6
Continuous
 62
     7
370
    25
100
AcDbLine
 10
319.5065998178
 20
224.6537292852
 30
0.0
 11
320.1050182174
 21
225.6537292852
 31
0.0
  0
LINE
  5
7E
330
1F
100
AcDbEntity
  8
0
  6
Continuous
 62
     7
370
    25
100
AcDbLine
 10
357.4408183437
 20
211.1537292852
 30
0.0
 11
357.4408183437
 21
210.2537292852
 31
0.0
  0
LINE
  5
7F
330
1F
100
AcDbEntity
  8
0
  6
Continuous
 62
     7
370
    25
100
AcDbLine
 10
443.4408183437
 20
210.2537292852
 30
0.0
 11
443.4408183437
 21
211.1537292852
 31
0.0
  0
LINE
  5
80
330
1F
100
AcDbEntity
  8
0
  6
Continuous
 62
     7
370
    25
100
AcDbLine
 10
492.4408183437
 20
211.1537292852
 30
0.0
 11
492.4408183437
 21
210.2537292852
 31
0.0
  0
LINE
  5
81
330
1F
100
AcDbEntity
  8
0
  6
Continuous
 62
     7
370
    25
100
AcDbLine
 10
578.4408183437
 20
210.2537292852
 30
0.0
 11
578.4408183437
 21
211.1537292852
 31
0.0
  0
LINE
  5
82
330
1F
100
AcDbEntity
  8
0
  6
Continuous
 62
     7
370
    25
100
AcDbLine
 10
667.2262244643
 20
942.8537292852
 30
0.0
 11
677.4322718176
 21
953.0598388756
 31
0.0
  0
LINE
  5
83
330
1F
100
AcDbEntity
  8
0
  6
Continuous
 62
     7
370
    25
100
AcDbLine
 10
668.9469645715
 20
961.545094378
 30
0.0
 11
650.2557134593
 21
942.8537292852
 31
0.0
  0
SPLINE
  5
84
330
1F
100
AcDbEntity
  8
0
  6
Continuous
 62
     7
370
    25
100
AcDbSpline
210
0.0
220
0.0
230
1.0
 70
     8
 71
     3
 72
    15
 73
    11
 74
     0
 42
0.000000001
 43
0.00000001
 40
0.0
 40
0.0
 40
0.0
 40
0.0
 40
0.0636035855879987
 40
0.1964977718683123
 40
0.3294384457994209
 40
0.4623791678747141
 40
0.595319902317604
 40
0.7282606549732479
 40
0.8612014309338599
 40
1.0
 40
1.0
 40
1.0
 40
1.0
 10
677.4408183405146
 20
982.0512039683322
 30
0.0
 10
677.4335019423851
 20
981.5685040179949
 30
0.0
 10
677.4108985637033
 20
980.0772443060564
 30
0.0
 10
677.1457374887274
 20
977.5852888041242
 30
0.0
 10
676.5273105076344
 20
974.6180206050124
 30
0.0
 10
675.5985466866179
 20
971.7315155628444
 30
0.0
 10
674.3762334645406
 20
968.9562877948184
 30
0.0
 10
672.8667455069024
 20
966.328054550496
 30
0.0
 10
671.0818452470106
 20
963.8184339906096
 30
0.0
 10
669.6687453686552
 20
962.3136866916401
 30
0.0
 10
668.9469645715316
 20
961.5450943779928
 30
0.0
  0
SPLINE
  5
85
330
1F
100
AcDbEntity
  8
0
  6
Continuous
 62
     7
370
    25
100
AcDbSpline
210
0.0
220
0.0
230
1.0
 70
     8
 71
     3
 72
    17
 73
    13
 74
     0
 42
0.000000001
 43
0.00000001
 40
0.0
 40
0.0
 40
0.0
 40
0.0
 40
0.0635945708701517
 40
0.175360686575676
 40
0.2871510699272611
 40
0.3989414803372568
 40
0.5107319018686204
 40
0.6225223338031564
 40
0.7343127751127245
 40
0.8461032244808423
 40
0.9578936803431789
 40
1.0
 40
1.0
 40
1.0
 40
1.0
 10
677.4322718175594
 20
953.0598388756223
 30
0.0
 10
677.90759865705
 20
953.5496388153471
 30
0.0
 10
679.2183023819188
 20
954.9002518085574
 30
0.0
 10
681.1781046101083
 20
957.2848833761341
 30
0.0
 10
683.2262163966433
 20
960.2483733764441
 30
0.0
 10
685.0033724065502
 20
963.3833094983545
 30
0.0
 10
686.4997369315245
 20
966.661198861495
 30
0.0
 10
687.7024185945675
 20
970.0578786971816
 30
0.0
 10
688.6035988126104
 20
973.5469418627976
 30
0.0
 10
689.1919084924435
 20
977.1013694298977
 30
0.0
 10
689.419404827058
 20
979.9479661716186
 30
0.0
 10
689.4362181874315
 20
981.5993763943582
 30
0.0
 10
689.4408183405146
 20
982.0512039683191
 30
0.0
  0
LINE
  5
86
330
1F
100
AcDbEntity
  8
0
  6
Continuous
 62
     7
370
    25
100
AcDbLine
 10
689.4408183405
 20
982.0512039683
 30
0.0
 11
689.4408183405
 21
1002.5537292853
 31
0.0
  0
LINE
  5
87
330
1F
100
AcDbEntity
  8
0
  6
Continuous
 62
     7
370
    25
100
AcDbLine
 10
677.4408183405
 20
1002.5537292853
 30
0.0
 11
677.4408183405
 21
982.0512039683
 31
0.0
  0
LINE
  5
88
330
1F
100
AcDbEntity
  8
0
  6
Continuous
 62
     7
370
    25
100
AcDbLine
 10
677.4408183412
 20
1037.5537292853
 30
0.0
 11
677.4408183405
 21
1002.5537292853
 31
0.0
  0
LINE
  5
89
330
1F
100
AcDbEntity
  8
0
  6
Continuous
 62
     7
370
    25
100
AcDbLine
 10
689.4408183405
 20
1002.5537292853
 30
0.0
 11
689.4408183412
 21
1037.5537292853
 31
0.0
  0
LINE
  5
8A
330
1F
100
AcDbEntity
  8
0
  6
Continuous
 62
     7
370
    25
100
AcDbLine
 10
252.4408183487
 20
1037.5537292868
 30
0.0
 11
252.4408183487
 21
1002.5537292868
 31
0.0
  0
LINE
  5
8B
330
1F
100
AcDbEntity
  8
0
  6
Continuous
 62
     7
370
    25
100
AcDbLine
 10
264.4408183487
 20
1002.5537292868
 30
0.0
 11
264.4408183487
 21
1037.5537292868
 31
0.0
  0
ARC
  5
8C
330
1F
100
AcDbEntity
  8
0
  6
Continuous
 62
     7
370
    25
100
AcDbCircle
 10
293.4408183487
 20
982.0512039699
 30
0.0
 40
29.0
100
AcDbArc
 50
180.0
 51
225.0
  0
ARC
  5
8D
330
1F
100
AcDbEntity
  8
0
  6
Continuous
 62
     7
370
    25
100
AcDbCircle
 10
293.4408183487
 20
982.0512039699
 30
0.0
 40
41.00000000000003
100
AcDbArc
 50
180.0
 51
225.0
  0
LINE
  5
8E
330
1F
100
AcDbEntity
  8
0
  6
Continuous
 62
     7
370
    25
100
AcDbLine
 10
264.4408183487
 20
982.0512039699
 30
0.0
 11
264.4408183487
 21
1002.5537292868
 31
0.0
  0
LINE
  5
8F
330
1F
100
AcDbEntity
  8
0
  6
Continuous
 62
     7
370
    25
100
AcDbLine
 10
252.4408183487
 20
1002.5537292868
 30
0.0
 11
252.4408183487
 21
982.0512039699
 31
0.0
  0
LINE
  5
90
330
1F
100
AcDbEntity
  8
0
  6
Continuous
 62
     7
370
    25
100
AcDbLine
 10
291.6260997245
 20
942.8537292852
 30
0.0
 11
272.9347216943
 21
961.5451073154
 31
0.0
  0
LINE
  5
91
330
1F
100
AcDbEntity
  8
0
  6
Continuous
 62
     7
370
    25
100
AcDbLine
 10
264.44944032
 20
953.0598259412
 30
0.0
 11
274.655536976
 21
942.8537292852
 31
0.0
  0
ARC
  5
92
330
1F
100
AcDbEntity
  8
0
  6
Continuous
 62
     7
370
    25
100
AcDbCircle
 10
487.9408183437
 20
960.7775346046
 30
0.0
 40
2.0
100
AcDbArc
 50
0.0
 51
57.5027570594
  0
ARC
  5
93
330
1F
100
AcDbEntity
  8
0
  6
Continuous
 62
     7
370
    25
100
AcDbCircle
 10
453.9408183437
 20
960.7775346046
 30
0.0
 40
2.0
100
AcDbArc
 50
122.4972429406
 51
180.0
  0
ARC
  5
94
330
1F
100
AcDbEntity
  8
0
  6
Continuous
 62
     7
370
    25
100
AcDbCircle
 10
453.9408183437
 20
959.8537292852
 30
0.0
 40
2.0
100
AcDbArc
 50
180.0
 51
270.0
  0
ARC
  5
95
330
1F
100
AcDbEntity
  8
0
  6
Continuous
 62
     7
370
    25
100
AcDbCircle
 10
487.9408183437
 20
959.8537292852
 30
0.0
 40
2.0
100
AcDbArc
 50
270.0
 51
0.0
  0
LINE
  5
96
330
1F
100
AcDbEntity
  8
0
  6
Continuous
 62
     7
370
    25
100
AcDbLine
 10
451.9408183437
 20
960.7775346046
 30
0.0
 11
451.9408183437
 21
959.8537292852
 31
0.0
  0
LINE
  5
97
330
1F
100
AcDbEntity
  8
0
  6
Continuous
 62
     7
370
    25
100
AcDbLine
 10
489.9408183437
 20
959.8537292852
 30
0.0
 11
489.9408183437
 21
960.7775346046
 31
0.0
  0
ARC
  5
98
330
1F
100
AcDbEntity
  8
0
  6
Continuous
 62
     7
370
    25
100
AcDbCircle
 10
470.4625931942
 20
933.3393031366
 30
0.0
 40
34.53221327345199
100
AcDbArc
 50
57.5027570594
 51
89.2065044192
  0
ARC
  5
99
330
1F
100
AcDbEntity
  8
0
  6
Continuous
 62
     7
370
    25
100
AcDbCircle
 10
471.4190434932
 20
933.3393031366
 30
0.0
 40
34.53221327345199
100
AcDbArc
 50
90.7934955808
 51
122.4972429406
  0
ARC
  5
9A
330
1F
100
AcDbEntity
  8
0
  6
Continuous
 62
     7
370
    25
100
AcDbCircle
 10
456.0686793188
 20
955.8537292852
 30
0.0
 40
2.0
100
AcDbArc
 50
42.8789036033
 51
90.0
  0
ARC
  5
9B
330
1F
100
AcDbEntity
  8
0
  6
Continuous
 62
     7
370
    25
100
AcDbCircle
 10
485.8129573687
 20
955.8537292852
 30
0.0
 40
2.0
100
AcDbArc
 50
90.0
 51
137.1210963967
  0
LINE
  5
9C
330
1F
100
AcDbEntity
  8
0
  6
Continuous
 62
     7
370
    25
100
AcDbLine
 10
457.534266302
 20
957.214631484
 30
0.0
 11
462.906405327
 21
951.4292509956
 31
0.0
  0
LINE
  5
9D
330
1F
100
AcDbEntity
  8
0
  6
Continuous
 62
     7
370
    25
100
AcDbLine
 10
478.9752313605
 20
951.4292509956
 30
0.0
 11
484.3473703854
 21
957.214631484
 31
0.0
  0
ARC
  5
9E
330
1F
100
AcDbEntity
  8
0
  6
Continuous
 62
     7
370
    25
100
AcDbCircle
 10
461.4408183437
 20
950.0683487969
 30
0.0
 40
2.0
100
AcDbArc
 50
0.0
 51
42.8789036033
  0
ARC
  5
9F
330
1F
100
AcDbEntity
  8
0
  6
Continuous
 62
     7
370
    25
100
AcDbCircle
 10
480.4408183437
 20
950.0683487969
 30
0.0
 40
1.999999999999953
100
AcDbArc
 50
137.1210963967
 51
180.0
  0
LINE
  5
A0
330
1F
100
AcDbEntity
  8
0
  6
Continuous
 62
     7
370
    25
100
AcDbLine
 10
463.4408183437
 20
950.0683487969
 30
0.0
 11
463.4408183437
 21
942.8537292852
 31
0.0
  0
LINE
  5
A1
330
1F
100
AcDbEntity
  8
0
  6
Continuous
 62
     7
370
    25
100
AcDbLine
 10
478.4408183437
 20
942.8537292852
 30
0.0
 11
478.4408183437
 21
950.0683487969
 31
0.0
  0
SPLINE
  5
A2
330
1F
100
AcDbEntity
  8
0
  6
Continuous
 62
     7
370
    25
100
AcDbSpline
210
0.0
220
0.0
230
1.0
 70
     8
 71
     3
 72
    40
 73
    36
 74
     0
 42
0.000000001
 43
0.00000001
 40
0.0
 40
0.0
 40
0.0
 40
0.0
 40
0.0178203308133717
 40
0.0471253763484805
 40
0.0755677245938006
 40
0.1035676218250223
 40
0.1316541640454713
 40
0.1604973552464272
 40
0.190520718236555
 40
0.2217475607940736
 40
0.2538199922269497
 40
0.2862560418732791
 40
0.3186612969744435
 40
0.3509130560299704
 40
0.3830001133961795
 40
0.4149478714496384
 40
0.4467919775223084
 40
0.4785687598999103
 40
0.5103128487788394
 40
0.5420575556984004
 40
0.5738271445887823
 40
0.6056542934568712
 40
0.6375764262492652
 40
0.6696349811237103
 40
0.7018749098294023
 40
0.7343392495399426
 40
0.7670508286398414
 40
0.7999647233277187
 40
0.832762363735597
 40
0.8648773507716105
 40
0.8925070131454722
 40
0.9219735197876794
 40
0.9503962351457931
 40
0.9783946283088306
 40
1.0
 40
1.0
 40
1.0
 40
1.0
 10
594.0678136183101
 20
1047.489401435601
 30
0.0
 10
594.198703175036
 20
1047.795567909212
 30
0.0
 10
594.5448370198785
 20
1048.6052167561
 30
0.0
 10
594.8415344937769
 20
1049.977611469599
 30
0.0
 10
594.8636923741968
 20
1051.562617320175
 30
0.0
 10
594.5619940535353
 20
1053.100750163607
 30
0.0
 10
593.9642886489529
 20
1054.572658150015
 30
0.0
 10
593.0799559347053
 20
1055.977345773503
 30
0.0
 10
591.9066655904793
 20
1057.315501163851
 30
0.0
 10
590.4416917084468
 20
1058.578127713689
 30
0.0
 10
588.6955512357349
 20
1059.746876293393
 30
0.0
 10
586.6962039993037
 20
1060.800657892918
 30
0.0
 10
584.4806100598468
 20
1061.723474661971
 30
0.0
 10
582.0855991714371
 20
1062.505836167467
 30
0.0
 10
579.5434084341472
 20
1063.142683098953
 30
0.0
 10
576.8848818135797
 20
1063.630471996427
 30
0.0
 10
574.1410939355412
 20
1063.966425757584
 30
0.0
 10
571.3438060063289
 20
1064.148536611366
 30
0.0
 10
568.5253928649392
 20
1064.175721132851
 30
0.0
 10
565.7187629577501
 20
1064.047953391655
 30
0.0
 10
562.9566738123341
 20
1063.766347798109
 30
0.0
 10
560.2711329813418
 20
1063.333066427963
 30
0.0
 10
557.6926662221507
 20
1062.750998670958
 30
0.0
 10
555.2501635524383
 20
1062.023346715943
 30
0.0
 10
552.9708124265842
 20
1061.153053370075
 30
0.0
 10
550.8805019944788
 20
1060.142136148626
 30
0.0
 10
549.0052398680375
 20
1058.991348276924
 30
0.0
 10
547.3758120005574
 20
1057.702671369022
 30
0.0
 10
546.0292853922133
 20
1056.284576212722
 30
0.0
 10
545.0388747778967
 20
1054.809908903829
 30
0.0
 10
544.372894172259
 20
1053.276687647409
 30
0.0
 10
544.031714992832
 20
1051.726048855275
 30
0.0
 10
544.0255783578277
 20
1050.138505266232
 30
0.0
 10
544.2990040864935
 20
1048.715984324372
 30
0.0
 10
544.6576232328424
 20
1047.861555635293
 30
0.0
 10
544.8138230691898
 20
1047.489401435598
 30
0.0
  0
SPLINE
  5
A3
330
1F
100
AcDbEntity
  8
0
  6
Continuous
 62
     7
370
    25
100
AcDbSpline
210
0.0
220
0.0
230
1.0
 70
     8
 71
     3
 72
    38
 73
    34
 74
     0
 42
0.000000001
 43
0.00000001
 40
0.0
 40
0.0
 40
0.0
 40
0.0
 40
0.0169629990783894
 40
0.0532052788226769
 40
0.0936034551887774
 40
0.1270646584146219
 40
0.1584266075690034
 40
0.1918074515521077
 40
0.2242928332145522
 40
0.2566523154376946
 40
0.2891372102780415
 40
0.3218760994789737
 40
0.3548783716880571
 40
0.3881089884158834
 40
0.421519609894106
 40
0.4550609765420499
 40
0.4886869068371897
 40
0.5223546057088034
 40
0.5560212725011382
 40
0.5896354195876866
 40
0.6231544705145299
 40
0.6565321091779989
 40
0.6897176922264244
 40
0.7226582724339677
 40
0.7553066944579159
 40
0.7876429773046036
 40
0.8197231502040541
 40
0.8517536215374878
 40
0.8841301828607774
 40
0.9179563456633184
 40
0.9556341267789459
 40
0.991378521589477
 40
1.0
 40
1.0
 40
1.0
 40
1.0
 10
549.342181962887
 20
1049.609299010925
 30
0.0
 10
549.2872788009147
 20
1049.738402151808
 30
0.0
 10
549.1150723398121
 20
1050.143340487052
 30
0.0
 10
549.0090890759327
 20
1050.774372428617
 30
0.0
 10
549.0785333126091
 20
1051.498552299655
 30
0.0
 10
549.3830663034853
 20
1052.286815887634
 30
0.0
 10
549.9234918527306
 20
1053.113458929064
 30
0.0
 10
550.745988673105
 20
1053.988200251169
 30
0.0
 10
551.8751503820076
 20
1054.8819778073
 30
0.0
 10
553.2679682493184
 20
1055.738435243262
 30
0.0
 10
554.9132091549646
 20
1056.53809930611
 30
0.0
 10
556.7908906028723
 20
1057.260713376531
 30
0.0
 10
558.874959348876
 20
1057.887966536603
 30
0.0
 10
561.1332676502554
 20
1058.403987596401
 30
0.0
 10
563.5294984962566
 20
1058.796045747332
 30
0.0
 10
566.0245717506155
 20
1059.054708556624
 30
0.0
 10
568.5776806687522
 20
1059.173806331118
 30
0.0
 10
571.1470302599486
 20
1059.150355685101
 30
0.0
 10
573.6902610436895
 20
1058.984538650984
 30
0.0
 10
576.165327508733
 20
1058.679758126653
 30
0.0
 10
578.531156622392
 20
1058.242697607739
 30
0.0
 10
580.7484399760156
 20
1057.683403135858
 30
0.0
 10
582.7800669394318
 20
1057.015578516657
 30
0.0
 10
584.5920714549593
 20
1056.256970838606
 30
0.0
 10
586.1550044948691
 20
1055.429804817247
 30
0.0
 10
587.4460044728269
 20
1054.561053210096
 30
0.0
 10
588.451527867141
 20
1053.682181368366
 30
0.0
 10
589.1704279715906
 20
1052.828159419499
 30
0.0
 10
589.6207929528236
 20
1052.028558117404
 30
0.0
 10
589.8411583356141
 20
1051.285351049019
 30
0.0
 10
589.8576276734756
 20
1050.587325876389
 30
0.0
 10
589.7208402326996
 20
1050.01620616465
 30
0.0
 10
589.5689676403138
 20
1049.675506155327
 30
0.0
 10
589.539454724612
 20
1049.609299010925
 30
0.0
  0
LINE
  5
A4
330
1F
100
AcDbEntity
  8
0
  6
Continuous
 62
     7
370
    25
100
AcDbLine
 10
589.532149708
 20
1049.59355247
 30
0.0
 11
578.8505185245
 21
1026.35747981
 31
0.0
  0
LINE
  5
A5
330
1F
100
AcDbEntity
  8
0
  6
Continuous
 62
     7
370
    25
100
AcDbLine
 10
583.3934874515
 20
1024.2690753164
 30
0.0
 11
594.0751186349
 21
1047.5051479765
 31
0.0
  0
LINE
  5
A6
330
1F
100
AcDbEntity
  8
0
  6
Continuous
 62
     7
370
    25
100
AcDbLine
 10
560.031118163
 20
1026.35747981
 30
0.0
 11
549.34763402
 21
1049.5975832685
 31
0.0
  0
LINE
  5
A7
330
1F
100
AcDbEntity
  8
0
  6
Continuous
 62
     7
370
    25
100
AcDbLine
 10
544.8083710121
 20
1047.5011171781
 30
0.0
 11
555.488149236
 21
1024.2690753164
 31
0.0
  0
SPLINE
  5
A8
330
1F
100
AcDbEntity
  8
0
  6
Continuous
 62
     7
370
    25
100
AcDbSpline
210
0.0
220
0.0
230
1.0
 70
     8
 71
     3
 72
     9
 73
     5
 74
     0
 42
0.000000001
 43
0.00000001
 40
0.0
 40
0.0
 40
0.0
 40
0.0
 40
0.4827447561666136
 40
1.0
 40
1.0
 40
1.0
 40
1.0
 10
578.850518524504
 20
1026.357479809964
 30
0.0
 10
578.7361299111955
 20
1026.073384113029
 30
0.0
 10
578.4991752641542
 20
1025.484883268005
 30
0.0
 10
578.4607130998993
 20
1024.84622225587
 30
0.0
 10
578.4408183437491
 20
1024.515871498312
 30
0.0
  0
SPLINE
  5
A9
330
1F
100
AcDbEntity
  8
0
  6
Continuous
 62
     7
370
    25
100
AcDbSpline
210
0.0
220
0.0
230
1.0
 70
     8
 71
     3
 72
     9
 73
     5
 74
     0
 42
0.000000001
 43
0.00000001
 40
0.0
 40
0.0
 40
0.0
 40
0.0
 40
0.4927905271861355
 40
1.0
 40
1.0
 40
1.0
 40
1.0
 10
560.4408183437517
 20
1024.515871498312
 30
0.0
 10
560.4227695823637
 20
1024.830567885119
 30
0.0
 10
560.3861439566822
 20
1025.469168607832
 30
0.0
 10
560.1505922300715
 20
1026.058543355109
 30
0.0
 10
560.0311181629969
 20
1026.357479809965
 30
0.0
  0
LINE
  5
AA
330
1F
100
AcDbEntity
  8
0
  6
Continuous
 62
     7
370
    25
100
AcDbLine
 10
578.4408183437
 20
1024.5158714983
 30
0.0
 11
578.4408183438
 21
942.8537292852
 31
0.0
  0
LINE
  5
AB
330
1F
100
AcDbEntity
  8
0
  6
Continuous
 62
     7
370
    25
100
AcDbLine
 10
583.4408183438
 20
942.8537292852
 30
0.0
 11
583.4408183437
 21
1024.3720356259
 31
0.0
  0
LINE
  5
AC
330
1F
100
AcDbEntity
  8
0
  6
Continuous
 62
     7
370
    25
100
AcDbLine
 10
560.4408183438
 20
942.8537292852
 30
0.0
 11
560.4408183438
 21
1024.5158714983
 31
0.0
  0
LINE
  5
AD
330
1F
100
AcDbEntity
  8
0
  6
Continuous
 62
     7
370
    25
100
AcDbLine
 10
555.4408183438
 20
1024.3720356259
 30
0.0
 11
555.4408183438
 21
942.8537292852
 31
0.0
  0
LINE
  5
AE
330
1F
100
AcDbEntity
  8
0
  6
Continuous
 62
     7
370
    25
100
AcDbLine
 10
575.5408183438
 20
942.8537292852
 30
0.0
 11
575.5408183438
 21
1023.6061055291
 31
0.0
  0
LINE
  5
AF
330
1F
100
AcDbEntity
  8
0
  6
Continuous
 62
     7
370
    25
100
AcDbLine
 10
570.5408183438
 20
1023.6061055291
 30
0.0
 11
570.5408183438
 21
942.8537292852
 31
0.0
  0
LINE
  5
B0
330
1F
100
AcDbEntity
  8
0
  6
Continuous
 62
     7
370
    25
100
AcDbLine
 10
563.3408183438
 20
1023.6061055291
 30
0.0
 11
563.3408183438
 21
942.8537292852
 31
0.0
  0
LINE
  5
B1
330
1F
100
AcDbEntity
  8
0
  6
Continuous
 62
     7
370
    25
100
AcDbLine
 10
568.3408183438
 20
942.8537292852
 30
0.0
 11
568.3408183438
 21
1023.6061055291
 31
0.0
  0
SPLINE
  5
B2
330
1F
100
AcDbEntity
  8
0
  6
Continuous
 62
     7
370
    25
100
AcDbSpline
210
0.0
220
0.0
230
1.0
 70
     8
 71
     3
 72
    40
 73
    36
 74
     0
 42
0.000000001
 43
0.00000001
 40
0.0
 40
0.0
 40
0.0
 40
0.0
 40
0.0178203308133717
 40
0.0471253763484805
 40
0.0755677245938006
 40
0.1035676218250231
 40
0.1316541640454721
 40
0.1604973552464273
 40
0.1905207182365548
 40
0.2217475607940747
 40
0.2538199922269523
 40
0.2862560418732812
 40
0.3186612969744431
 40
0.3509130560299706
 40
0.3830001133961812
 40
0.4149478714496349
 40
0.4467919775223065
 40
0.4785687598998998
 40
0.510312848778828
 40
0.5420575556983942
 40
0.5738271445887803
 40
0.6056542934568696
 40
0.6375764262492647
 40
0.6696349811237048
 40
0.7018749098293979
 40
0.7343392495399426
 40
0.7670508286398383
 40
0.799964723327721
 40
0.8327623637355999
 40
0.8648773507716133
 40
0.8925070131454763
 40
0.9219735197876839
 40
0.950396235145798
 40
0.9783946283088347
 40
1.0
 40
1.0
 40
1.0
 40
1.0
 10
397.0678136182843
 20
1047.886017500357
 30
0.0
 10
397.1987031750103
 20
1048.192183973968
 30
0.0
 10
397.5448370198529
 20
1049.001832820856
 30
0.0
 10
397.8415344937512
 20
1050.374227534355
 30
0.0
 10
397.8636923741711
 20
1051.959233384931
 30
0.0
 10
397.5619940535096
 20
1053.497366228364
 30
0.0
 10
396.9642886489273
 20
1054.969274214772
 30
0.0
 10
396.0799559346796
 20
1056.373961838259
 30
0.0
 10
394.9066655904537
 20
1057.712117228608
 30
0.0
 10
393.4416917084213
 20
1058.974743778447
 30
0.0
 10
391.6955512357093
 20
1060.143492358148
 30
0.0
 10
389.6962039992781
 20
1061.197273957675
 30
0.0
 10
387.4806100598212
 20
1062.120090726728
 30
0.0
 10
385.0855991714115
 20
1062.902452232223
 30
0.0
 10
382.5434084341217
 20
1063.539299163709
 30
0.0
 10
379.8848818135542
 20
1064.027088061183
 30
0.0
 10
377.1410939355162
 20
1064.363041822341
 30
0.0
 10
374.3438060063041
 20
1064.545152676122
 30
0.0
 10
371.5253928649145
 20
1064.572337197608
 30
0.0
 10
368.718762957725
 20
1064.444569456411
 30
0.0
 10
365.9566738123087
 20
1064.162963862865
 30
0.0
 10
363.2711329813163
 20
1063.72968249272
 30
0.0
 10
360.6926662221255
 20
1063.147614735714
 30
0.0
 10
358.250163552413
 20
1062.4199627807
 30
0.0
 10
355.9708124265588
 20
1061.549669434832
 30
0.0
 10
353.8805019944534
 20
1060.538752213382
 30
0.0
 10
352.0052398680119
 20
1059.387964341681
 30
0.0
 10
350.3758120005318
 20
1058.099287433778
 30
0.0
 10
349.0292853921875
 20
1056.681192277478
 30
0.0
 10
348.038874777871
 20
1055.206524968586
 30
0.0
 10
347.3728941722332
 20
1053.673303712165
 30
0.0
 10
347.0317149928063
 20
1052.122664920031
 30
0.0
 10
347.025578357802
 20
1050.535121330988
 30
0.0
 10
347.2990040864678
 20
1049.112600389129
 30
0.0
 10
347.6576232328168
 20
1048.258171700049
 30
0.0
 10
347.8138230691641
 20
1047.886017500355
 30
0.0
  0
SPLINE
  5
B3
330
1F
100
AcDbEntity
  8
0
  6
Continuous
 62
     7
370
    25
100
AcDbSpline
210
0.0
220
0.0
230
1.0
 70
     8
 71
     3
 72
    38
 73
    34
 74
     0
 42
0.000000001
 43
0.00000001
 40
0.0
 40
0.0
 40
0.0
 40
0.0
 40
0.0169629990783894
 40
0.0532052788226787
 40
0.0936034551887816
 40
0.1270646584146263
 40
0.1584266075690073
 40
0.191807451552111
 40
0.2242928332145553
 40
0.2566523154376964
 40
0.289137210278044
 40
0.3218760994789733
 40
0.3548783716880548
 40
0.3881089884158824
 40
0.4215196098941048
 40
0.4550609765420485
 40
0.4886869068371935
 40
0.522354605708807
 40
0.55602127250114
 40
0.5896354195876867
 40
0.6231544705145349
 40
0.6565321091780028
 40
0.6897176922264323
 40
0.7226582724339767
 40
0.7553066944579265
 40
0.7876429773046137
 40
0.8197231502040643
 40
0.8517536215375002
 40
0.884130182860789
 40
0.9179563456633298
 40
0.9556341267789569
 40
0.9913785215894885
 40
1.0
 40
1.0
 40
1.0
 40
1.0
 10
352.3421819628612
 20
1050.005915075681
 30
0.0
 10
352.2872788008891
 20
1050.135018216564
 30
0.0
 10
352.1150723397864
 20
1050.539956551808
 30
0.0
 10
352.009089075907
 20
1051.170988493374
 30
0.0
 10
352.0785333125835
 20
1051.89516836441
 30
0.0
 10
352.3830663034597
 20
1052.683431952391
 30
0.0
 10
352.923491852705
 20
1053.510074993821
 30
0.0
 10
353.7459886730794
 20
1054.384816315925
 30
0.0
 10
354.8751503819822
 20
1055.278593872057
 30
0.0
 10
356.2679682492929
 20
1056.135051308018
 30
0.0
 10
357.9132091549392
 20
1056.934715370866
 30
0.0
 10
359.7908906028468
 20
1057.657329441287
 30
0.0
 10
361.8749593488503
 20
1058.284582601359
 30
0.0
 10
364.1332676502297
 20
1058.800603661157
 30
0.0
 10
366.5294984962309
 20
1059.192661812089
 30
0.0
 10
369.0245717505898
 20
1059.451324621381
 30
0.0
 10
371.5776806687268
 20
1059.570422395874
 30
0.0
 10
374.1470302599232
 20
1059.546971749857
 30
0.0
 10
376.690261043664
 20
1059.381154715741
 30
0.0
 10
379.1653275087075
 20
1059.07637419141
 30
0.0
 10
381.5311566223667
 20
1058.639313672496
 30
0.0
 10
383.7484399759902
 20
1058.080019200615
 30
0.0
 10
385.7800669394066
 20
1057.412194581413
 30
0.0
 10
387.5920714549341
 20
1056.653586903362
 30
0.0
 10
389.1550044948439
 20
1055.826420882004
 30
0.0
 10
390.4460044728017
 20
1054.957669274852
 30
0.0
 10
391.4515278671156
 20
1054.078797433122
 30
0.0
 10
392.1704279715651
 20
1053.224775484255
 30
0.0
 10
392.6207929527982
 20
1052.425174182161
 30
0.0
 10
392.8411583355885
 20
1051.681967113775
 30
0.0
 10
392.8576276734498
 20
1050.983941941145
 30
0.0
 10
392.720840232674
 20
1050.412822229407
 30
0.0
 10
392.568967640288
 20
1050.072122220083
 30
0.0
 10
392.5394547245863
 20
1050.005915075682
 30
0.0
  0
LINE
  5
B4
330
1F
100
AcDbEntity
  8
0
  6
Continuous
 62
     7
370
    25
100
AcDbLine
 10
392.532149708
 20
1049.9901685348
 30
0.0
 11
381.8505185245
 21
1026.7540958747
 31
0.0
  0
LINE
  5
B5
330
1F
100
AcDbEntity
  8
0
  6
Continuous
 62
     7
370
    25
100
AcDbLine
 10
386.3934874514
 20
1024.6656913812
 30
0.0
 11
397.0751186349
 21
1047.9017640412
 31
0.0
  0
LINE
  5
B6
330
1F
100
AcDbEntity
  8
0
  6
Continuous
 62
     7
370
    25
100
AcDbLine
 10
363.031118163
 20
1026.7540958747
 30
0.0
 11
352.34763402
 21
1049.9941993332
 31
0.0
  0
LINE
  5
B7
330
1F
100
AcDbEntity
  8
0
  6
Continuous
 62
     7
370
    25
100
AcDbLine
 10
347.8083710121
 20
1047.8977332428
 30
0.0
 11
358.488149236
 21
1024.6656913812
 31
0.0
  0
SPLINE
  5
B8
330
1F
100
AcDbEntity
  8
0
  6
Continuous
 62
     7
370
    25
100
AcDbSpline
210
0.0
220
0.0
230
1.0
 70
     8
 71
     3
 72
     9
 73
     5
 74
     0
 42
0.000000001
 43
0.00000001
 40
0.0
 40
0.0
 40
0.0
 40
0.0
 40
0.4827447561666136
 40
1.0
 40
1.0
 40
1.0
 40
1.0
 10
381.850518524478
 20
1026.754095874721
 30
0.0
 10
381.7361299111696
 20
1026.470000177786
 30
0.0
 10
381.4991752641284
 20
1025.881499332761
 30
0.0
 10
381.4607130998734
 20
1025.242838320627
 30
0.0
 10
381.4408183437233
 20
1024.912487563068
 30
0.0
  0
SPLINE
  5
B9
330
1F
100
AcDbEntity
  8
0
  6
Continuous
 62
     7
370
    25
100
AcDbSpline
210
0.0
220
0.0
230
1.0
 70
     8
 71
     3
 72
     9
 73
     5
 74
     0
 42
0.000000001
 43
0.00000001
 40
0.0
 40
0.0
 40
0.0
 40
0.0
 40
0.4927905271861723
 40
1.0
 40
1.0
 40
1.0
 40
1.0
 10
363.4408183437258
 20
1024.912487563068
 30
0.0
 10
363.4227695823378
 20
1025.227183949876
 30
0.0
 10
363.3861439566563
 20
1025.865784672589
 30
0.0
 10
363.1505922300456
 20
1026.455159419865
 30
0.0
 10
363.031118162971
 20
1026.754095874721
 30
0.0
  0
LINE
  5
BA
330
1F
100
AcDbEntity
  8
0
  6
Continuous
 62
     7
370
    25
100
AcDbLine
 10
381.4408183437
 20
1024.9124875631
 30
0.0
 11
381.4408183437
 21
942.8537292852
 31
0.0
  0
LINE
  5
BB
330
1F
100
AcDbEntity
  8
0
  6
Continuous
 62
     7
370
    25
100
AcDbLine
 10
386.4408183437
 20
942.8537292852
 30
0.0
 11
386.4408183437
 21
1024.7686516906
 31
0.0
  0
LINE
  5
BC
330
1F
100
AcDbEntity
  8
0
  6
Continuous
 62
     7
370
    25
100
AcDbLine
 10
363.4408183437
 20
942.8537292852
 30
0.0
 11
363.4408183437
 21
1024.9124875631
 31
0.0
  0
LINE
  5
BD
330
1F
100
AcDbEntity
  8
0
  6
Continuous
 62
     7
370
    25
100
AcDbLine
 10
358.4408183437
 20
1024.7686516906
 30
0.0
 11
358.4408183437
 21
942.8537292852
 31
0.0
  0
LINE
  5
BE
330
1F
100
AcDbEntity
  8
0
  6
Continuous
 62
     7
370
    25
100
AcDbLine
 10
366.3408183437
 20
1024.0027215939
 30
0.0
 11
366.3408183437
 21
942.8537292852
 31
0.0
  0
LINE
  5
BF
330
1F
100
AcDbEntity
  8
0
  6
Continuous
 62
     7
370
    25
100
AcDbLine
 10
371.3408183437
 20
942.8537292852
 30
0.0
 11
371.3408183437
 21
1024.0027215939
 31
0.0
  0
LINE
  5
C0
330
1F
100
AcDbEntity
  8
0
  6
Continuous
 62
     7
370
    25
100
AcDbLine
 10
378.5408183437
 20
942.8537292852
 30
0.0
 11
378.5408183437
 21
1024.0027215939
 31
0.0
  0
LINE
  5
C1
330
1F
100
AcDbEntity
  8
0
  6
Continuous
 62
     7
370
    25
100
AcDbLine
 10
373.5408183437
 20
1024.0027215939
 30
0.0
 11
373.5408183437
 21
942.8537292852
 31
0.0
  0
LINE
  5
C2
330
1F
100
AcDbEntity
  8
0
  6
Continuous
 62
     7
370
    25
100
AcDbLine
 10
695.9408183437
 20
1142.883184445
 30
0.0
 11
245.9408183437
 21
1142.883184445
 31
0.0
  0
LINE
  5
C3
330
1F
100
AcDbEntity
  8
0
  6
Continuous
 62
     7
370
    25
100
AcDbLine
 10
668.2992683437
 20
754.6037292852
 30
0.0
 11
668.2992683437
 21
764.3614507557
 31
0.0
  0
LINE
  5
C4
330
1F
100
AcDbEntity
  8
0
  6
Continuous
 62
     7
370
    25
100
AcDbLine
 10
551.3082183437
 20
764.4536561238
 30
0.0
 11
551.3082183437
 21
763.5537292834
 31
0.0
  0
LINE
  5
C5
330
1F
100
AcDbEntity
  8
0
  6
Continuous
 62
     7
370
    25
100
AcDbLine
 10
553.0234183437
 20
763.5537292834
 30
0.0
 11
553.0234183437
 21
764.4536561238
 31
0.0
  0
LINE
  5
C6
330
1F
100
AcDbEntity
  8
0
  6
Continuous
 62
     7
370
    25
100
AcDbLine
 10
668.2992683437
 20
764.3614507557
 30
0.0
 11
668.2992683437
 21
765.5660547581
 31
0.0
  0
LINE
  5
C7
330
1F
100
AcDbEntity
  8
0
  6
Continuous
 62
     7
370
    25
100
AcDbLine
 10
388.9082183437
 20
764.453656129
 30
0.0
 11
388.9082183437
 21
763.5537292834
 31
0.0
  0
LINE
  5
C8
330
1F
100
AcDbEntity
  8
0
  6
Continuous
 62
     7
370
    25
100
AcDbLine
 10
390.6234183437
 20
763.5537292834
 30
0.0
 11
390.6234183437
 21
764.453656129
 31
0.0
  0
LINE
  5
C9
330
1F
100
AcDbEntity
  8
0
  6
Continuous
 62
     7
370
    25
100
AcDbLine
 10
507.2408184906
 20
764.4536561238
 30
0.0
 11
604.8052704906
 21
764.4536561238
 31
0.0
  0
ARC
  5
CA
330
1F
100
AcDbEntity
  8
0
  6
Continuous
 62
     7
370
    25
100
AcDbCircle
 10
604.8052704906
 20
758.9536561238
 30
0.0
 40
5.500000000000114
100
AcDbArc
 50
56.7594878031
 51
90.0
  0
LWPOLYLINE
  5
CB
330
1F
100
AcDbEntity
  8
0
  6
Continuous
 62
     7
370
    25
100
AcDbPolyline
 90
        3
 70
   128
 43
0.0
 10
618.5562459806
 20
763.5537292834
 10
617.7248650914
 20
765.53651837
 10
617.7097729723
 20
765.5660547581
  0
LINE
  5
CC
330
1F
100
AcDbEntity
  8
0
  6
Continuous
 62
     7
370
    25
100
AcDbLine
 10
497.2408184906
 20
764.4536561238
 30
0.0
 11
507.2408184906
 21
764.4536561238
 31
0.0
  0
ARC
  5
CD
330
1F
100
AcDbEntity
  8
0
  6
Continuous
 62
     7
370
    25
100
AcDbCircle
 10
348.0052704906
 20
758.953656129
 30
0.0
 40
5.500000000000114
100
AcDbArc
 50
90.0
 51
123.2405122969
  0
LWPOLYLINE
  5
CE
330
1F
100
AcDbEntity
  8
0
  6
Continuous
 62
     7
370
    25
100
AcDbPolyline
 90
        3
 70
   128
 43
0.0
 10
335.1007680062
 20
765.5660547581
 10
335.0856758899
 20
765.5365183753
 10
334.2542949989
 20
763.5537292834
  0
LINE
  5
CF
330
1F
100
AcDbEntity
  8
0
  6
Continuous
 62
     7
370
    25
100
AcDbLine
 10
434.3612704906
 20
764.453656129
 30
0.0
 11
444.3612704906
 21
764.453656129
 31
0.0
  0
LINE
  5
D0
330
1F
100
AcDbEntity
  8
0
  6
Continuous
 62
     7
370
    25
100
AcDbLine
 10
348.0052704906
 20
764.453656129
 30
0.0
 11
434.3612704906
 21
764.453656129
 31
0.0
  0
LINE
  5
D1
330
1F
100
AcDbEntity
  8
0
  6
Continuous
 62
     7
370
    25
100
AcDbLine
 10
267.2408183437
 20
225.1537292852
 30
0.0
 11
266.7408183437
 21
225.6537292852
 31
0.0
  0
LINE
  5
D2
330
1F
100
AcDbEntity
  8
0
  6
Continuous
 62
     7
370
    25
100
AcDbLine
 10
250.7408183437
 20
225.6537292852
 30
0.0
 11
250.2408183437
 21
225.1537292852
 31
0.0
  0
LINE
  5
D3
330
1F
100
AcDbEntity
  8
0
  6
Continuous
 62
     7
370
    25
100
AcDbLine
 10
250.2408183437
 20
225.1537292852
 30
0.0
 11
250.2408183437
 21
223.6537292852
 31
0.0
  0
LINE
  5
D4
330
1F
100
AcDbEntity
  8
0
  6
Continuous
 62
     7
370
    25
100
AcDbLine
 10
267.2408183437
 20
223.6537292852
 30
0.0
 11
267.2408183437
 21
225.1537292852
 31
0.0
  0
LINE
  5
D5
330
1F
100
AcDbEntity
  8
0
  6
Continuous
 62
     7
370
    25
100
AcDbLine
 10
250.2408183437
 20
223.6537292852
 30
0.0
 11
250.7408183437
 21
223.1537292852
 31
0.0
  0
LINE
  5
D6
330
1F
100
AcDbEntity
  8
0
  6
Continuous
 62
     7
370
    25
100
AcDbLine
 10
266.7408183437
 20
223.1537292852
 30
0.0
 11
267.2408183437
 21
223.6537292852
 31
0.0
  0
LINE
  5
D7
330
1F
100
AcDbEntity
  8
0
  6
Continuous
 62
     7
370
    25
100
AcDbLine
 10
267.2408183437
 20
749.3537292852
 30
0.0
 11
267.2408183437
 21
750.8537292852
 31
0.0
  0
LINE
  5
D8
330
1F
100
AcDbEntity
  8
0
  6
Continuous
 62
     7
370
    25
100
AcDbLine
 10
250.2408183437
 20
750.8537292852
 30
0.0
 11
250.2408183437
 21
749.3537292852
 31
0.0
  0
LINE
  5
D9
330
1F
100
AcDbEntity
  8
0
  6
Continuous
 62
     7
370
    25
100
AcDbLine
 10
250.2408183437
 20
749.3537292852
 30
0.0
 11
250.7408183437
 21
748.8537292852
 31
0.0
  0
LINE
  5
DA
330
1F
100
AcDbEntity
  8
0
  6
Continuous
 62
     7
370
    25
100
AcDbLine
 10
266.7408183437
 20
748.8537292852
 30
0.0
 11
267.2408183437
 21
749.3537292852
 31
0.0
  0
LINE
  5
DB
330
1F
100
AcDbEntity
  8
0
  6
Continuous
 62
     7
370
    25
100
AcDbLine
 10
267.2408183437
 20
750.8537292852
 30
0.0
 11
266.7408183437
 21
751.3537292852
 31
0.0
  0
LINE
  5
DC
330
1F
100
AcDbEntity
  8
0
  6
Continuous
 62
     7
370
    25
100
AcDbLine
 10
250.7408183437
 20
751.3537292852
 30
0.0
 11
250.2408183437
 21
750.8537292852
 31
0.0
  0
LINE
  5
DD
330
1F
100
AcDbEntity
  8
0
  6
Continuous
 62
     7
370
    25
100
AcDbLine
 10
582.7408183437
 20
714.773109545
 30
0.0
 11
657.7408183437
 21
714.773109545
 31
0.0
  0
SPLINE
  5
DE
330
1F
100
AcDbEntity
  8
0
  6
Continuous
 62
     7
370
    25
100
AcDbSpline
210
0.0
220
0.0
230
1.0
 70
     8
 71
     3
 72
    12
 73
     8
 74
     0
 42
0.000000001
 43
0.00000001
 40
0.0
 40
0.0
 40
0.0
 40
0.0
 40
0.0715055978010848
 40
0.2076814571357802
 40
0.3963017263579047
 40
0.6631738080232369
 40
1.0
 40
1.0
 40
1.0
 40
1.0
 10
657.7408183437215
 20
714.7731095450238
 30
0.0
 10
657.7875345132662
 20
714.7698039717334
 30
0.0
 10
657.923217347355
 20
714.7602032369839
 30
0.0
 10
658.1635933739162
 20
714.6451309433118
 30
0.0
 10
658.4411832778882
 20
714.3705769412347
 30
0.0
 10
658.6864443003807
 20
713.9004686326454
 30
0.0
 10
658.7213455892845
 20
713.504886730197
 30
0.0
 10
658.7408183437213
 20
713.2841765648147
 30
0.0
  0
SPLINE
  5
DF
330
1F
100
AcDbEntity
  8
0
  6
Continuous
 62
     7
370
    25
100
AcDbSpline
210
0.0
220
0.0
230
1.0
 70
     8
 71
     3
 72
    12
 73
     8
 74
     0
 42
0.000000001
 43
0.00000001
 40
0.0
 40
0.0
 40
0.0
 40
0.0
 40
0.1763962382128109
 40
0.5365638846233318
 40
0.757781401121813
 40
0.9056519226795463
 40
1.0
 40
1.0
 40
1.0
 40
1.0
 10
581.7408183437213
 20
713.2841765648147
 30
0.0
 10
581.7465164833461
 20
713.3991005802532
 30
0.0
 10
581.7638491428356
 20
713.7486776278412
 30
0.0
 10
581.9377821954961
 20
714.2298646487314
 30
0.0
 10
582.2502666122341
 20
714.5963078929735
 30
0.0
 10
582.5207839668167
 20
714.7524908748608
 30
0.0
 10
582.6791371914461
 20
714.7673296148515
 30
0.0
 10
582.7408183437213
 20
714.7731095450238
 30
0.0
  0
LINE
  5
E0
330
1F
100
AcDbEntity
  8
0
  6
Continuous
 62
     7
370
    25
100
AcDbLine
 10
272.9408183437
 20
753.3537292852
 30
0.0
 11
272.4408183437
 21
753.3537292852
 31
0.0
  0
LINE
  5
E1
330
1F
100
AcDbEntity
  8
0
  6
Continuous
 62
     7
370
    25
100
AcDbLine
 10
262.6408183437
 20
220.1537292852
 30
0.0
 11
262.6408183437
 21
220.6537292852
 31
0.0
  0
LINE
  5
E2
330
1F
100
AcDbEntity
  8
0
  6
Continuous
 62
     7
370
    25
100
AcDbLine
 10
254.8408183437
 20
220.6537292852
 30
0.0
 11
254.8408183437
 21
220.1537292852
 31
0.0
  0
LINE
  5
E3
330
1F
100
AcDbEntity
  8
0
  6
Continuous
 62
     7
370
    25
100
AcDbLine
 10
253.7408183437
 20
754.6537292852
 30
0.0
 11
253.7408183437
 21
751.3537292852
 31
0.0
  0
LINE
  5
E4
330
1F
100
AcDbEntity
  8
0
  6
Continuous
 62
     7
370
    25
100
AcDbLine
 10
263.7408183437
 20
751.3537292852
 30
0.0
 11
263.7408183437
 21
754.6537292852
 31
0.0
  0
LINE
  5
E5
330
1F
100
AcDbEntity
  8
0
  6
Continuous
 62
     7
370
    25
100
AcDbLine
 10
254.8408183437
 20
757.6537292852
 30
0.0
 11
254.8408183437
 21
757.1537292852
 31
0.0
  0
LINE
  5
E6
330
1F
100
AcDbEntity
  8
0
  6
Continuous
 62
     7
370
    25
100
AcDbLine
 10
262.6408183437
 20
757.1537292852
 30
0.0
 11
262.6408183437
 21
757.6537292852
 31
0.0
  0
LINE
  5
E7
330
1F
100
AcDbEntity
  8
0
  6
Continuous
 62
     7
370
    25
100
AcDbLine
 10
667.0408183437
 20
225.4037292852
 30
0.0
 11
667.0408183437
 21
225.1537292852
 31
0.0
  0
ARC
  5
E8
330
1F
100
AcDbEntity
  8
0
  6
Continuous
 62
     7
370
    25
100
AcDbCircle
 10
667.5408183437
 20
225.4037292852
 30
0.0
 40
0.5000000000000075
100
AcDbArc
 50
149.9999999998
 51
180.0
  0
ARC
  5
E9
330
1F
100
AcDbEntity
  8
0
  6
Continuous
 62
     7
370
    25
100
AcDbCircle
 10
667.5408183437
 20
225.1537292852
 30
0.0
 40
0.5
100
AcDbArc
 50
180.0
 51
270.0
  0
ARC
  5
EA
330
1F
100
AcDbEntity
  8
0
  6
Continuous
 62
     7
370
    25
100
AcDbCircle
 10
274.3408183437
 20
225.1537292852
 30
0.0
 40
0.5
100
AcDbArc
 50
270.0
 51
0.0
  0
ARC
  5
EB
330
1F
100
AcDbEntity
  8
0
  6
Continuous
 62
     7
370
    25
100
AcDbCircle
 10
274.3408183437
 20
225.4037292852
 30
0.0
 40
0.5000000000000075
100
AcDbArc
 50
0.0
 51
30.0000000002
  0
LINE
  5
EC
330
1F
100
AcDbEntity
  8
0
  6
Continuous
 62
     7
370
    25
100
AcDbLine
 10
274.8408183437
 20
225.1537292852
 30
0.0
 11
274.8408183437
 21
225.4037292852
 31
0.0
  0
LINE
  5
ED
330
1F
100
AcDbEntity
  8
0
  6
Continuous
 62
     7
370
    25
100
AcDbLine
 10
324.4408183437
 20
56.6537292852
 30
0.0
 11
324.4408183437
 21
59.1537292852
 31
0.0
  0
LINE
  5
EE
330
1F
100
AcDbEntity
  8
0
  6
Continuous
 62
     7
370
    25
100
AcDbLine
 10
267.4408183437
 20
59.1537292852
 30
0.0
 11
267.4408183437
 21
56.6537292852
 31
0.0
  0
LINE
  5
EF
330
1F
100
AcDbEntity
  8
0
  6
Continuous
 62
     7
370
    25
100
AcDbLine
 10
674.4408183437
 20
55.1537292852
 30
0.0
 11
674.4408183437
 21
59.1537292852
 31
0.0
  0
LINE
  5
F0
330
1F
100
AcDbEntity
  8
0
  6
Continuous
 62
     7
370
    25
100
AcDbLine
 10
617.4408183437
 20
59.1537292852
 30
0.0
 11
617.4408183437
 21
55.1537292852
 31
0.0
  0
ARC
  5
F1
330
1F
100
AcDbEntity
  8
0
  6
Continuous
 62
     7
370
    25
100
AcDbCircle
 10
672.4408183437
 20
55.1537292852
 30
0.0
 40
2.0
100
AcDbArc
 50
270.0
 51
0.0
  0
ARC
  5
F2
330
1F
100
AcDbEntity
  8
0
  6
Continuous
 62
     7
370
    25
100
AcDbCircle
 10
619.4408183437
 20
55.1537292852
 30
0.0
 40
2.0
100
AcDbArc
 50
180.0
 51
270.0
  0
LINE
  5
F3
330
1F
100
AcDbEntity
  8
0
  6
Continuous
 62
     7
370
    25
100
AcDbLine
 10
324.4408183437
 20
52.6537292852
 30
0.0
 11
324.4408183437
 21
56.6537292852
 31
0.0
  0
LINE
  5
F4
330
1F
100
AcDbEntity
  8
0
  6
Continuous
 62
     7
370
    25
100
AcDbLine
 10
267.4408183437
 20
56.6537292852
 30
0.0
 11
267.4408183437
 21
52.6537292852
 31
0.0
  0
ARC
  5
F5
330
1F
100
AcDbEntity
  8
0
  6
Continuous
 62
     7
370
    25
100
AcDbCircle
 10
322.4408183437
 20
52.6537292852
 30
0.0
 40
2.000000000000057
100
AcDbArc
 50
270.0
 51
0.0
  0
ARC
  5
F6
330
1F
100
AcDbEntity
  8
0
  6
Continuous
 62
     7
370
    25
100
AcDbCircle
 10
269.4408183437
 20
52.6537292852
 30
0.0
 40
2.0
100
AcDbArc
 50
180.0
 51
270.0
  0
LINE
  5
F7
330
1F
100
AcDbEntity
  8
0
  6
Continuous
 62
     7
370
    25
100
AcDbLine
 10
674.2408183437
 20
59.1537292852
 30
0.0
 11
674.2408183437
 21
127.1537292852
 31
0.0
  0
LINE
  5
F8
330
1F
100
AcDbEntity
  8
0
  6
Continuous
 62
     7
370
    25
100
AcDbLine
 10
617.6408183437
 20
127.1537292852
 30
0.0
 11
617.6408183437
 21
59.1537292852
 31
0.0
  0
LINE
  5
F9
330
1F
100
AcDbEntity
  8
0
  6
Continuous
 62
     7
370
    25
100
AcDbLine
 10
324.2408183437
 20
56.6537292852
 30
0.0
 11
324.2408183437
 21
124.6537292852
 31
0.0
  0
LINE
  5
FA
330
1F
100
AcDbEntity
  8
0
  6
Continuous
 62
     7
370
    25
100
AcDbLine
 10
267.6408183437
 20
124.6537292852
 30
0.0
 11
267.6408183437
 21
56.6537292852
 31
0.0
  0
ARC
  5
FB
330
1F
100
AcDbEntity
  8
0
  6
Continuous
 62
     7
370
    25
100
AcDbCircle
 10
262.5408183437
 20
217.1537292852
 30
0.0
 40
1.5
100
AcDbArc
 50
0.0
 51
90.0
  0
ARC
  5
FC
330
1F
100
AcDbEntity
  8
0
  6
Continuous
 62
     7
370
    25
100
AcDbCircle
 10
323.1408183437
 20
130.6862952309
 30
0.0
 40
4.700000000000006
100
AcDbArc
 50
350.5402980318
 51
0.0
  0
ARC
  5
FD
330
1F
100
AcDbEntity
  8
0
  6
Continuous
 62
     7
370
    25
100
AcDbCircle
 10
268.7408183437
 20
130.6862952309
 30
0.0
 40
4.700000000000006
100
AcDbArc
 50
180.0
 51
189.4597019682
  0
LINE
  5
FE
330
1F
100
AcDbEntity
  8
0
  6
Continuous
 62
     7
370
    25
100
AcDbLine
 10
327.8408183437
 20
130.6862952309
 30
0.0
 11
327.8408183437
 21
211.1537292852
 31
0.0
  0
LINE
  5
FF
330
1F
100
AcDbEntity
  8
0
  6
Continuous
 62
     7
370
    25
100
AcDbLine
 10
264.0408183437
 20
217.1537292852
 30
0.0
 11
264.0408183437
 21
130.6862952309
 31
0.0
  0
LINE
  5
100
330
1F
100
AcDbEntity
  8
0
  6
Continuous
 62
     7
370
    25
100
AcDbLine
 10
264.1047315707
 20
129.9138320064
 30
0.0
 11
264.9811681234
 21
124.6537292852
 31
0.0
  0
LINE
  5
101
330
1F
100
AcDbEntity
  8
0
  6
Continuous
 62
     7
370
    25
100
AcDbLine
 10
326.9004685641
 20
124.6537292852
 30
0.0
 11
327.7769051167
 21
129.9138320064
 31
0.0
  0
ARC
  5
102
330
1F
100
AcDbEntity
  8
0
  6
Continuous
 62
     7
370
    25
100
AcDbCircle
 10
679.3408183437
 20
219.6537292852
 30
0.0
 40
1.500000000000114
100
AcDbArc
 50
90.0
 51
180.0
  0
LINE
  5
103
330
1F
100
AcDbEntity
  8
0
  6
Continuous
 62
     7
370
    25
100
AcDbLine
 10
677.8408183437
 20
133.1862952309
 30
0.0
 11
677.8408183437
 21
219.6537292852
 31
0.0
  0
LINE
  5
104
330
1F
100
AcDbEntity
  8
0
  6
Continuous
 62
     7
370
    25
100
AcDbLine
 10
614.0408183437
 20
211.1537292852
 30
0.0
 11
614.0408183437
 21
133.1862952309
 31
0.0
  0
ARC
  5
105
330
1F
100
AcDbEntity
  8
0
  6
Continuous
 62
     7
370
    25
100
AcDbCircle
 10
673.1408183437
 20
133.1862952309
 30
0.0
 40
4.700000000000006
100
AcDbArc
 50
350.5402980318
 51
0.0
  0
ARC
  5
106
330
1F
100
AcDbEntity
  8
0
  6
Continuous
 62
     7
370
    25
100
AcDbCircle
 10
618.7408183437
 20
133.1862952309
 30
0.0
 40
4.699999999999932
100
AcDbArc
 50
180.0
 51
189.4597019682
  0
LINE
  5
107
330
1F
100
AcDbEntity
  8
0
  6
Continuous
 62
     7
370
    25
100
AcDbLine
 10
614.1047315707
 20
132.4138320064
 30
0.0
 11
614.9811681234
 21
127.1537292852
 31
0.0
  0
LINE
  5
108
330
1F
100
AcDbEntity
  8
0
  6
Continuous
 62
     7
370
    25
100
AcDbLine
 10
676.9004685641
 20
127.1537292852
 30
0.0
 11
677.7769051167
 21
132.4138320064
 31
0.0
  0
LINE
  5
109
330
1F
100
AcDbEntity
  8
0
  6
Continuous
 62
     7
370
    25
100
AcDbLine
 10
357.4408183437
 20
210.2537292852
 30
0.0
 11
443.4408183437
 21
210.2537292852
 31
0.0
  0
LINE
  5
10A
330
1F
100
AcDbEntity
  8
0
  6
Continuous
 62
     7
370
    25
100
AcDbLine
 10
492.4408183437
 20
210.2537292852
 30
0.0
 11
578.4408183437
 21
210.2537292852
 31
0.0
  0
ARC
  5
10B
330
1F
100
AcDbEntity
  8
0
  6
Continuous
 62
     7
370
    25
100
AcDbCircle
 10
683.4408183412
 20
1037.5537292853
 30
0.0
 40
6.0
100
AcDbArc
 50
359.9999999989
 51
179.9999999989
  0
ARC
  5
10C
330
1F
100
AcDbEntity
  8
0
  6
Continuous
 62
     7
370
    25
100
AcDbCircle
 10
258.4408183487
 20
1037.5537292868
 30
0.0
 40
6.0
100
AcDbArc
 50
0.0
 51
180.0
  0
LINE
  5
10D
330
1F
100
AcDbEntity
  8
0
  6
Continuous
 62
     7
370
    25
100
AcDbLine
 10
695.9408183437
 20
1037.9030941895
 30
0.0
 11
696.1425242652
 21
1037.5537292853
 31
0.0
  0
LINE
  5
10E
330
1F
100
AcDbEntity
  8
0
  6
Continuous
 62
     7
370
    25
100
AcDbLine
 10
696.1425242652
 20
1037.5537292853
 30
0.0
 11
695.9408183437
 21
1037.204364381
 31
0.0
  0
LINE
  5
10F
330
1F
100
AcDbEntity
  8
0
  6
Continuous
 62
     7
370
    25
100
AcDbLine
 10
245.9408183437
 20
468.7543643777
 30
0.0
 11
245.7391124215
 21
469.1037292832
 31
0.0
  0
LINE
  5
110
330
1F
100
AcDbEntity
  8
0
  6
Continuous
 62
     7
370
    25
100
AcDbLine
 10
245.7391124215
 20
469.1037292832
 30
0.0
 11
245.9408183437
 21
469.4530941887
 31
0.0
  0
LINE
  5
111
330
1F
100
AcDbEntity
  8
0
  6
Continuous
 62
     7
370
    25
100
AcDbLine
 10
245.7391124265
 20
1037.5537292868
 30
0.0
 11
245.9408183437
 21
1037.9030941836
 31
0.0
  0
LINE
  5
112
330
1F
100
AcDbEntity
  8
0
  6
Continuous
 62
     7
370
    25
100
AcDbLine
 10
245.9408183437
 20
1037.20436439
 30
0.0
 11
245.7391124265
 21
1037.5537292868
 31
0.0
  0
LINE
  5
113
330
1F
100
AcDbEntity
  8
0
  6
Continuous
 62
     7
370
    25
100
AcDbLine
 10
696.1425242659
 20
504.3537292878
 30
0.0
 11
696.1425242659
 21
489.3537292878
 31
0.0
  0
LINE
  5
114
330
1F
100
AcDbEntity
  8
0
  6
Continuous
 62
     7
370
    25
100
AcDbLine
 10
695.9408183437
 20
489.3537292878
 30
0.0
 11
696.1425242659
 21
489.3537292878
 31
0.0
  0
LINE
  5
115
330
1F
100
AcDbEntity
  8
0
  6
Continuous
 62
     7
370
    25
100
AcDbLine
 10
696.1425242659
 20
504.3537292878
 30
0.0
 11
695.9408183437
 21
504.3537292878
 31
0.0
  0
LINE
  5
116
330
1F
100
AcDbEntity
  8
0
  6
Continuous
 62
     7
370
    25
100
AcDbLine
 10
245.7391124215
 20
489.1037292832
 30
0.0
 11
245.9408183437
 21
489.1037292832
 31
0.0
  0
LINE
  5
117
330
1F
100
AcDbEntity
  8
0
  6
Continuous
 62
     7
370
    25
100
AcDbLine
 10
245.7391124215
 20
504.1037292832
 30
0.0
 11
245.7391124215
 21
489.1037292832
 31
0.0
  0
LINE
  5
118
330
1F
100
AcDbEntity
  8
0
  6
Continuous
 62
     7
370
    25
100
AcDbLine
 10
245.7391124215
 20
504.1037292832
 30
0.0
 11
245.9408183437
 21
504.1037292832
 31
0.0
  0
LINE
  5
119
330
1F
100
AcDbEntity
  8
0
  6
Continuous
 62
     7
370
    25
100
AcDbLine
 10
245.7391124265
 20
1002.5537292868
 30
0.0
 11
245.7391124265
 21
1017.5537292868
 31
0.0
  0
LINE
  5
11A
330
1F
100
AcDbEntity
  8
0
  6
Continuous
 62
     7
370
    25
100
AcDbLine
 10
245.9408183437
 20
1002.5537292868
 30
0.0
 11
245.7391124265
 21
1002.5537292868
 31
0.0
  0
LINE
  5
11B
330
1F
100
AcDbEntity
  8
0
  6
Continuous
 62
     7
370
    25
100
AcDbLine
 10
245.9408183437
 20
1017.5537292868
 30
0.0
 11
245.7391124265
 21
1017.5537292868
 31
0.0
  0
LINE
  5
11C
330
1F
100
AcDbEntity
  8
0
  6
Continuous
 62
     7
370
    25
100
AcDbLine
 10
696.1425242659
 20
469.3537292878
 30
0.0
 11
695.9408183437
 21
469.7030941932
 31
0.0
  0
LINE
  5
11D
330
1F
100
AcDbEntity
  8
0
  6
Continuous
 62
     7
370
    25
100
AcDbLine
 10
695.9408183437
 20
469.0043643824
 30
0.0
 11
696.1425242659
 21
469.3537292878
 31
0.0
  0
LINE
  5
11E
330
1F
100
AcDbEntity
  8
0
  6
Continuous
 62
     7
370
    25
100
AcDbLine
 10
696.1425242659
 20
1002.5537292853
 30
0.0
 11
696.1425242659
 21
1017.5537292853
 31
0.0
  0
LINE
  5
11F
330
1F
100
AcDbEntity
  8
0
  6
Continuous
 62
     7
370
    25
100
AcDbLine
 10
696.1425242659
 20
1002.5537292853
 30
0.0
 11
695.9408183437
 21
1002.5537292853
 31
0.0
  0
LINE
  5
120
330
1F
100
AcDbEntity
  8
0
  6
Continuous
 62
     7
370
    25
100
AcDbLine
 10
696.1425242659
 20
1017.5537292853
 30
0.0
 11
695.9408183437
 21
1017.5537292853
 31
0.0
  0
LINE
  5
121
330
1F
100
AcDbEntity
  8
0
  6
Continuous
 62
     7
370
    25
100
AcDbLine
 10
266.4724635311
 20
1140.3317453328
 30
0.0
 11
266.9408183437
 21
1140.3537292852
 31
0.0
  0
LINE
  5
122
330
1F
100
AcDbEntity
  8
0
  6
Continuous
 62
     7
370
    25
100
AcDbLine
 10
266.9408183437
 20
1140.3537292852
 30
0.0
 11
428.8824976633
 21
1140.3537292852
 31
0.0
  0
LINE
  5
123
330
1F
100
AcDbEntity
  8
0
  6
Continuous
 62
     7
370
    25
100
AcDbLine
 10
442.9198742728
 20
1140.3537292852
 30
0.0
 11
508.877016652
 21
1140.3537292852
 31
0.0
  0
LINE
  5
124
330
1F
100
AcDbEntity
  8
0
  6
Continuous
 62
     7
370
    25
100
AcDbLine
 10
522.9325037653
 20
1140.3537292852
 30
0.0
 11
674.9408183437
 21
1140.3537292852
 31
0.0
  0
LINE
  5
125
330
1F
100
AcDbEntity
  8
0
  6
Continuous
 62
     7
370
    25
100
AcDbLine
 10
674.9408183437
 20
1140.3537292852
 30
0.0
 11
675.4091731569
 21
1140.3317453327
 31
0.0
  0
LINE
  5
126
330
1F
100
AcDbEntity
  8
0
  6
Continuous
 62
     7
370
    25
100
AcDbLine
 10
470.9408183437
 20
957.8537292852
 30
0.0
 11
453.9408183437
 21
957.8537292852
 31
0.0
  0
LINE
  5
127
330
1F
100
AcDbEntity
  8
0
  6
Continuous
 62
     7
370
    25
100
AcDbLine
 10
487.9408183437
 20
957.8537292852
 30
0.0
 11
470.9408183437
 21
957.8537292852
 31
0.0
  0
LINE
  5
128
330
1F
100
AcDbEntity
  8
0
  6
Continuous
 62
     7
370
    25
100
AcDbLine
 10
581.6408183437
 20
1020.5889485715
 30
0.0
 11
581.6408183438
 21
1017.7628772842
 31
0.0
  0
ARC
  5
129
330
1F
100
AcDbEntity
  8
0
  6
Continuous
 62
     7
370
    25
100
AcDbCircle
 10
580.9408183437
 20
1023.3201141177
 30
0.0
 40
2.819444136885807
100
AcDbArc
 50
255.6244883863
 51
284.3755116137
  0
LINE
  5
12A
330
1F
100
AcDbEntity
  8
0
  6
Continuous
 62
     7
370
    25
100
AcDbLine
 10
580.2408183437
 20
1017.7628772842
 30
0.0
 11
580.2408183438
 21
1020.5889485715
 31
0.0
  0
ARC
  5
12B
330
1F
100
AcDbEntity
  8
0
  6
Continuous
 62
     7
370
    25
100
AcDbCircle
 10
580.9408183437
 20
1020.4940428304
 30
0.0
 40
2.819444136900773
100
AcDbArc
 50
255.6244883851
 51
284.3755116149
  0
LINE
  5
12C
330
1F
100
AcDbEntity
  8
0
  6
Continuous
 62
     7
370
    25
100
AcDbLine
 10
581.6408183437
 20
956.5313327256
 30
0.0
 11
581.6408183438
 21
953.7052614383
 31
0.0
  0
ARC
  5
12D
330
1F
100
AcDbEntity
  8
0
  6
Continuous
 62
     7
370
    25
100
AcDbCircle
 10
580.9408183438
 20
959.2624982719
 30
0.0
 40
2.819444136888118
100
AcDbArc
 50
255.624488386
 51
284.375511614
  0
LINE
  5
12E
330
1F
100
AcDbEntity
  8
0
  6
Continuous
 62
     7
370
    25
100
AcDbLine
 10
580.2408183438
 20
953.7052614383
 30
0.0
 11
580.2408183438
 21
956.5313327256
 31
0.0
  0
ARC
  5
12F
330
1F
100
AcDbEntity
  8
0
  6
Continuous
 62
     7
370
    25
100
AcDbCircle
 10
580.9408183438
 20
956.4364269846
 30
0.0
 40
2.819444136889456
100
AcDbArc
 50
255.6244883858
 51
284.3755116142
  0
LINE
  5
130
330
1F
100
AcDbEntity
  8
0
  6
Continuous
 62
     7
370
    25
100
AcDbLine
 10
558.6408183437
 20
1020.5889485715
 30
0.0
 11
558.6408183437
 21
1017.7628772842
 31
0.0
  0
ARC
  5
131
330
1F
100
AcDbEntity
  8
0
  6
Continuous
 62
     7
370
    25
100
AcDbCircle
 10
557.9408183438
 20
1023.3201141177
 30
0.0
 40
2.819444136884458
100
AcDbArc
 50
255.6244883863
 51
284.3755116137
  0
LINE
  5
132
330
1F
100
AcDbEntity
  8
0
  6
Continuous
 62
     7
370
    25
100
AcDbLine
 10
557.2408183438
 20
1017.7628772842
 30
0.0
 11
557.2408183438
 21
1020.5889485715
 31
0.0
  0
ARC
  5
133
330
1F
100
AcDbEntity
  8
0
  6
Continuous
 62
     7
370
    25
100
AcDbCircle
 10
557.9408183438
 20
1020.4940428304
 30
0.0
 40
2.819444136889351
100
AcDbArc
 50
255.6244883864
 51
284.3755116136
  0
LINE
  5
134
330
1F
100
AcDbEntity
  8
0
  6
Continuous
 62
     7
370
    25
100
AcDbLine
 10
558.6408183437
 20
956.5313327256
 30
0.0
 11
558.6408183437
 21
953.7052614383
 31
0.0
  0
ARC
  5
135
330
1F
100
AcDbEntity
  8
0
  6
Continuous
 62
     7
370
    25
100
AcDbCircle
 10
557.9408183438
 20
959.2624982719
 30
0.0
 40
2.819444136886963
100
AcDbArc
 50
255.624488386
 51
284.375511614
  0
LINE
  5
136
330
1F
100
AcDbEntity
  8
0
  6
Continuous
 62
     7
370
    25
100
AcDbLine
 10
557.2408183438
 20
953.7052614383
 30
0.0
 11
557.2408183438
 21
956.5313327256
 31
0.0
  0
ARC
  5
137
330
1F
100
AcDbEntity
  8
0
  6
Continuous
 62
     7
370
    25
100
AcDbCircle
 10
557.9408183438
 20
956.4364269846
 30
0.0
 40
2.819444136882535
100
AcDbArc
 50
255.6244883863
 51
284.3755116137
  0
LWPOLYLINE
  5
138
330
1F
100
AcDbEntity
  8
0
  6
Continuous
 62
     7
370
    25
100
AcDbPolyline
 90
       17
 70
   128
 43
0.0
 10
573.0408183438
 20
1025.8114226942
 10
573.9975269247
 20
1025.6435529206
 10
574.8085852967
 20
1025.1655002512
 10
575.350517175
 20
1024.4500438713
 10
575.5408183438
 20
1023.6061055291
 10
575.350517175
 20
1022.762167187
 10
574.8085852967
 20
1022.0467108071
 10
573.9975269247
 20
1021.5686581376
 10
573.0408183438
 20
1021.4007883641
 10
572.0841097628
 20
1021.5686581376
 10
571.2730513908
 20
1022.0467108071
 10
570.7311195125
 20
1022.762167187
 10
570.5408183438
 20
1023.6061055291
 10
570.7311195125
 20
1024.4500438713
 10
571.2730513908
 20
1025.1655002512
 10
572.0841097628
 20
1025.6435529206
 10
573.0408183438
 20
1025.8114226942
  0
LINE
  5
139
330
1F
100
AcDbEntity
  8
0
  6
Continuous
 62
     7
370
    25
100
AcDbLine
 10
573.2833005621
 20
1020.5889485715
 30
0.0
 11
573.2833005621
 21
1017.7628772842
 31
0.0
  0
ARC
  5
13A
330
1F
100
AcDbEntity
  8
0
  6
Continuous
 62
     7
370
    25
100
AcDbCircle
 10
573.0408183438
 20
1023.4108807157
 30
0.0
 40
2.832330957545625
100
AcDbArc
 50
265.0887676058
 51
274.9112323942
  0
LINE
  5
13B
330
1F
100
AcDbEntity
  8
0
  6
Continuous
 62
     7
370
    25
100
AcDbLine
 10
572.7983361254
 20
1017.7628772842
 30
0.0
 11
572.7983361254
 21
1020.5889485715
 31
0.0
  0
ARC
  5
13C
330
1F
100
AcDbEntity
  8
0
  6
Continuous
 62
     7
370
    25
100
AcDbCircle
 10
573.0408183438
 20
1020.5848094284
 30
0.0
 40
2.832330957552039
100
AcDbArc
 50
265.0887676059
 51
274.9112323941
  0
LINE
  5
13D
330
1F
100
AcDbEntity
  8
0
  6
Continuous
 62
     7
370
    25
100
AcDbLine
 10
573.2833005621
 20
956.5313327256
 30
0.0
 11
573.2833005621
 21
953.7052614383
 31
0.0
  0
ARC
  5
13E
330
1F
100
AcDbEntity
  8
0
  6
Continuous
 62
     7
370
    25
100
AcDbCircle
 10
573.0408183438
 20
959.3532648699
 30
0.0
 40
2.832330957576485
100
AcDbArc
 50
265.0887676048
 51
274.9112323952
  0
LINE
  5
13F
330
1F
100
AcDbEntity
  8
0
  6
Continuous
 62
     7
370
    25
100
AcDbLine
 10
572.7983361254
 20
953.7052614383
 30
0.0
 11
572.7983361254
 21
956.5313327256
 31
0.0
  0
ARC
  5
140
330
1F
100
AcDbEntity
  8
0
  6
Continuous
 62
     7
370
    25
100
AcDbCircle
 10
573.0408183438
 20
956.5271935826
 30
0.0
 40
2.832330957556457
100
AcDbArc
 50
265.0887676058
 51
274.9112323942
  0
LWPOLYLINE
  5
141
330
1F
100
AcDbEntity
  8
0
  6
Continuous
 62
     7
370
    25
100
AcDbPolyline
 90
       17
 70
   128
 43
0.0
 10
565.8408183438
 20
1025.8114226942
 10
564.8841097628
 20
1025.6435529206
 10
564.0730513908
 20
1025.1655002512
 10
563.5311195125
 20
1024.4500438713
 10
563.3408183438
 20
1023.6061055291
 10
563.5311195125
 20
1022.762167187
 10
564.0730513908
 20
1022.0467108071
 10
564.8841097628
 20
1021.5686581376
 10
565.8408183438
 20
1021.4007883641
 10
566.7975269247
 20
1021.5686581376
 10
567.6085852967
 20
1022.0467108071
 10
568.150517175
 20
1022.762167187
 10
568.3408183438
 20
1023.6061055291
 10
568.150517175
 20
1024.4500438713
 10
567.6085852967
 20
1025.1655002512
 10
566.7975269247
 20
1025.6435529206
 10
565.8408183438
 20
1025.8114226942
  0
LINE
  5
142
330
1F
100
AcDbEntity
  8
0
  6
Continuous
 62
     7
370
    25
100
AcDbLine
 10
566.0833005621
 20
1020.5889485715
 30
0.0
 11
566.0833005623
 21
1017.7628772842
 31
0.0
  0
ARC
  5
143
330
1F
100
AcDbEntity
  8
0
  6
Continuous
 62
     7
370
    25
100
AcDbCircle
 10
565.8408183438
 20
1023.4108807157
 30
0.0
 40
2.832330957534702
100
AcDbArc
 50
265.0887676058
 51
274.9112323942
  0
LINE
  5
144
330
1F
100
AcDbEntity
  8
0
  6
Continuous
 62
     7
370
    25
100
AcDbLine
 10
565.5983361253
 20
1017.7628772842
 30
0.0
 11
565.5983361254
 21
1020.5889485715
 31
0.0
  0
ARC
  5
145
330
1F
100
AcDbEntity
  8
0
  6
Continuous
 62
     7
370
    25
100
AcDbCircle
 10
565.8408183438
 20
1020.5848094285
 30
0.0
 40
2.832330957637587
100
AcDbArc
 50
265.0887676023
 51
274.9112323977
  0
LINE
  5
146
330
1F
100
AcDbEntity
  8
0
  6
Continuous
 62
     7
370
    25
100
AcDbLine
 10
566.0833005621
 20
956.5313327256
 30
0.0
 11
566.0833005621
 21
953.7052614383
 31
0.0
  0
ARC
  5
147
330
1F
100
AcDbEntity
  8
0
  6
Continuous
 62
     7
370
    25
100
AcDbCircle
 10
565.8408183438
 20
959.3532648699
 30
0.0
 40
2.832330957579607
100
AcDbArc
 50
265.0887676049
 51
274.9112323951
  0
LINE
  5
148
330
1F
100
AcDbEntity
  8
0
  6
Continuous
 62
     7
370
    25
100
AcDbLine
 10
565.5983361254
 20
953.7052614383
 30
0.0
 11
565.5983361254
 21
956.5313327256
 31
0.0
  0
ARC
  5
149
330
1F
100
AcDbEntity
  8
0
  6
Continuous
 62
     7
370
    25
100
AcDbCircle
 10
565.8408183438
 20
956.5271935826
 30
0.0
 40
2.832330957581265
100
AcDbArc
 50
265.0887676044
 51
274.9112323956
  0
LINE
  5
14A
330
1F
100
AcDbEntity
  8
0
  6
Continuous
 62
     7
370
    25
100
AcDbLine
 10
581.6408183438
 20
1017.7628772842
 30
0.0
 11
580.2408183437
 21
1017.7628772842
 31
0.0
  0
LINE
  5
14B
330
1F
100
AcDbEntity
  8
0
  6
Continuous
 62
     7
370
    25
100
AcDbLine
 10
573.2833005621
 20
1017.7628772842
 30
0.0
 11
572.7983361254
 21
1017.7628772842
 31
0.0
  0
LINE
  5
14C
330
1F
100
AcDbEntity
  8
0
  6
Continuous
 62
     7
370
    25
100
AcDbLine
 10
566.0833005623
 20
1017.7628772842
 30
0.0
 11
565.5983361253
 21
1017.7628772842
 31
0.0
  0
LINE
  5
14D
330
1F
100
AcDbEntity
  8
0
  6
Continuous
 62
     7
370
    25
100
AcDbLine
 10
558.6408183437
 20
1017.7628772842
 30
0.0
 11
557.2408183438
 21
1017.7628772842
 31
0.0
  0
LINE
  5
14E
330
1F
100
AcDbEntity
  8
0
  6
Continuous
 62
     7
370
    25
100
AcDbLine
 10
581.6408183438
 20
953.7052614383
 30
0.0
 11
580.2408183438
 21
953.7052614383
 31
0.0
  0
LINE
  5
14F
330
1F
100
AcDbEntity
  8
0
  6
Continuous
 62
     7
370
    25
100
AcDbLine
 10
566.0833005621
 20
953.7052614383
 30
0.0
 11
565.5983361254
 21
953.7052614383
 31
0.0
  0
LINE
  5
150
330
1F
100
AcDbEntity
  8
0
  6
Continuous
 62
     7
370
    25
100
AcDbLine
 10
573.2833005621
 20
953.7052614383
 30
0.0
 11
572.7983361254
 21
953.7052614383
 31
0.0
  0
LINE
  5
151
330
1F
100
AcDbEntity
  8
0
  6
Continuous
 62
     7
370
    25
100
AcDbLine
 10
558.6408183437
 20
953.7052614383
 30
0.0
 11
557.2408183438
 21
953.7052614383
 31
0.0
  0
LINE
  5
152
330
1F
100
AcDbEntity
  8
0
  6
Continuous
 62
     7
370
    25
100
AcDbLine
 10
384.6408183437
 20
1020.9855646362
 30
0.0
 11
384.6408183438
 21
1018.1594933489
 31
0.0
  0
ARC
  5
153
330
1F
100
AcDbEntity
  8
0
  6
Continuous
 62
     7
370
    25
100
AcDbCircle
 10
383.9408183437
 20
1023.7167301825
 30
0.0
 40
2.819444136893751
100
AcDbArc
 50
255.6244883864
 51
284.3755116136
  0
LINE
  5
154
330
1F
100
AcDbEntity
  8
0
  6
Continuous
 62
     7
370
    25
100
AcDbLine
 10
383.2408183437
 20
1018.1594933489
 30
0.0
 11
383.2408183437
 21
1020.9855646362
 31
0.0
  0
ARC
  5
155
330
1F
100
AcDbEntity
  8
0
  6
Continuous
 62
     7
370
    25
100
AcDbCircle
 10
383.9408183437
 20
1020.8906588952
 30
0.0
 40
2.819444136907821
100
AcDbArc
 50
255.6244883852
 51
284.3755116148
  0
LINE
  5
156
330
1F
100
AcDbEntity
  8
0
  6
Continuous
 62
     7
370
    25
100
AcDbLine
 10
384.6408183437
 20
956.9279487904
 30
0.0
 11
384.6408183437
 21
954.1018775031
 31
0.0
  0
ARC
  5
157
330
1F
100
AcDbEntity
  8
0
  6
Continuous
 62
     7
370
    25
100
AcDbCircle
 10
383.9408183437
 20
959.6591143366
 30
0.0
 40
2.819444136889894
100
AcDbArc
 50
255.624488386
 51
284.375511614
  0
LINE
  5
158
330
1F
100
AcDbEntity
  8
0
  6
Continuous
 62
     7
370
    25
100
AcDbLine
 10
383.2408183437
 20
954.1018775031
 30
0.0
 11
383.2408183437
 21
956.9279487904
 31
0.0
  0
ARC
  5
159
330
1F
100
AcDbEntity
  8
0
  6
Continuous
 62
     7
370
    25
100
AcDbCircle
 10
383.9408183437
 20
956.8330430493
 30
0.0
 40
2.819444136889676
100
AcDbArc
 50
255.6244883858
 51
284.3755116142
  0
LINE
  5
15A
330
1F
100
AcDbEntity
  8
0
  6
Continuous
 62
     7
370
    25
100
AcDbLine
 10
361.6408183437
 20
1020.9855646362
 30
0.0
 11
361.6408183437
 21
1018.1594933489
 31
0.0
  0
ARC
  5
15B
330
1F
100
AcDbEntity
  8
0
  6
Continuous
 62
     7
370
    25
100
AcDbCircle
 10
360.9408183437
 20
1023.7167301825
 30
0.0
 40
2.819444136891932
100
AcDbArc
 50
255.6244883864
 51
284.3755116136
  0
LINE
  5
15C
330
1F
100
AcDbEntity
  8
0
  6
Continuous
 62
     7
370
    25
100
AcDbLine
 10
360.2408183438
 20
1018.1594933489
 30
0.0
 11
360.2408183438
 21
1020.9855646362
 31
0.0
  0
ARC
  5
15D
330
1F
100
AcDbEntity
  8
0
  6
Continuous
 62
     7
370
    25
100
AcDbCircle
 10
360.9408183437
 20
1020.8906588952
 30
0.0
 40
2.819444136887135
100
AcDbArc
 50
255.6244883864
 51
284.3755116136
  0
LINE
  5
15E
330
1F
100
AcDbEntity
  8
0
  6
Continuous
 62
     7
370
    25
100
AcDbLine
 10
361.6408183437
 20
956.9279487904
 30
0.0
 11
361.6408183437
 21
954.1018775031
 31
0.0
  0
ARC
  5
15F
330
1F
100
AcDbEntity
  8
0
  6
Continuous
 62
     7
370
    25
100
AcDbCircle
 10
360.9408183437
 20
959.6591143366
 30
0.0
 40
2.819444136888573
100
AcDbArc
 50
255.624488386
 51
284.375511614
  0
LINE
  5
160
330
1F
100
AcDbEntity
  8
0
  6
Continuous
 62
     7
370
    25
100
AcDbLine
 10
360.2408183438
 20
954.1018775031
 30
0.0
 11
360.2408183437
 21
956.9279487904
 31
0.0
  0
ARC
  5
161
330
1F
100
AcDbEntity
  8
0
  6
Continuous
 62
     7
370
    25
100
AcDbCircle
 10
360.9408183437
 20
956.8330430493
 30
0.0
 40
2.819444136883388
100
AcDbArc
 50
255.6244883863
 51
284.3755116137
  0
LWPOLYLINE
  5
162
330
1F
100
AcDbEntity
  8
0
  6
Continuous
 62
     7
370
    25
100
AcDbPolyline
 90
       17
 70
   128
 43
0.0
 10
368.8408183437
 20
1026.2080387589
 10
367.8841097628
 20
1026.0401689854
 10
367.0730513908
 20
1025.5621163159
 10
366.5311195125
 20
1024.8466599361
 10
366.3408183437
 20
1024.0027215939
 10
366.5311195125
 20
1023.1587832517
 10
367.0730513908
 20
1022.4433268718
 10
367.8841097628
 20
1021.9652742024
 10
368.8408183437
 20
1021.7974044288
 10
369.7975269246
 20
1021.9652742024
 10
370.6085852967
 20
1022.4433268718
 10
371.150517175
 20
1023.1587832517
 10
371.3408183437
 20
1024.0027215939
 10
371.150517175
 20
1024.8466599361
 10
370.6085852967
 20
1025.5621163159
 10
369.7975269246
 20
1026.0401689854
 10
368.8408183437
 20
1026.2080387589
  0
LINE
  5
163
330
1F
100
AcDbEntity
  8
0
  6
Continuous
 62
     7
370
    25
100
AcDbLine
 10
369.083300562
 20
1020.9855646362
 30
0.0
 11
369.0833005622
 21
1018.1594933489
 31
0.0
  0
ARC
  5
164
330
1F
100
AcDbEntity
  8
0
  6
Continuous
 62
     7
370
    25
100
AcDbCircle
 10
368.8408183437
 20
1023.8074967805
 30
0.0
 40
2.83233095758137
100
AcDbArc
 50
265.0887676059
 51
274.9112323941
  0
LINE
  5
165
330
1F
100
AcDbEntity
  8
0
  6
Continuous
 62
     7
370
    25
100
AcDbLine
 10
368.5983361252
 20
1018.1594933489
 30
0.0
 11
368.5983361254
 21
1020.9855646362
 31
0.0
  0
ARC
  5
166
330
1F
100
AcDbEntity
  8
0
  6
Continuous
 62
     7
370
    25
100
AcDbCircle
 10
368.8408183437
 20
1020.9814254932
 30
0.0
 40
2.83233095756374
100
AcDbArc
 50
265.0887676022
 51
274.9112323978
  0
LINE
  5
167
330
1F
100
AcDbEntity
  8
0
  6
Continuous
 62
     7
370
    25
100
AcDbLine
 10
369.0833005621
 20
956.9279487904
 30
0.0
 11
369.0833005621
 21
954.1018775031
 31
0.0
  0
ARC
  5
168
330
1F
100
AcDbEntity
  8
0
  6
Continuous
 62
     7
370
    25
100
AcDbCircle
 10
368.8408183437
 20
959.7498809347
 30
0.0
 40
2.832330957578706
100
AcDbArc
 50
265.0887676048
 51
274.9112323952
  0
LINE
  5
169
330
1F
100
AcDbEntity
  8
0
  6
Continuous
 62
     7
370
    25
100
AcDbLine
 10
368.5983361253
 20
954.1018775031
 30
0.0
 11
368.5983361254
 21
956.9279487904
 31
0.0
  0
ARC
  5
16A
330
1F
100
AcDbEntity
  8
0
  6
Continuous
 62
     7
370
    25
100
AcDbCircle
 10
368.8408183437
 20
956.9238096474
 30
0.0
 40
2.832330957580813
100
AcDbArc
 50
265.0887676044
 51
274.9112323956
  0
LWPOLYLINE
  5
16B
330
1F
100
AcDbEntity
  8
0
  6
Continuous
 62
     7
370
    25
100
AcDbPolyline
 90
       17
 70
   128
 43
0.0
 10
376.0408183437
 20
1026.2080387589
 10
376.9975269246
 20
1026.0401689854
 10
377.8085852967
 20
1025.5621163159
 10
378.350517175
 20
1024.8466599361
 10
378.5408183437
 20
1024.0027215939
 10
378.350517175
 20
1023.1587832517
 10
377.8085852967
 20
1022.4433268718
 10
376.9975269246
 20
1021.9652742024
 10
376.0408183437
 20
1021.7974044288
 10
375.0841097628
 20
1021.9652742024
 10
374.2730513908
 20
1022.4433268718
 10
373.7311195125
 20
1023.1587832517
 10
373.5408183437
 20
1024.0027215939
 10
373.7311195125
 20
1024.8466599361
 10
374.2730513908
 20
1025.5621163159
 10
375.0841097628
 20
1026.0401689854
 10
376.0408183437
 20
1026.2080387589
  0
LINE
  5
16C
330
1F
100
AcDbEntity
  8
0
  6
Continuous
 62
     7
370
    25
100
AcDbLine
 10
376.283300562
 20
1020.9855646362
 30
0.0
 11
376.283300562
 21
1018.1594933489
 31
0.0
  0
ARC
  5
16D
330
1F
100
AcDbEntity
  8
0
  6
Continuous
 62
     7
370
    25
100
AcDbCircle
 10
376.0408183437
 20
1023.8074967805
 30
0.0
 40
2.832330957593651
100
AcDbArc
 50
265.0887676059
 51
274.9112323941
  0
LINE
  5
16E
330
1F
100
AcDbEntity
  8
0
  6
Continuous
 62
     7
370
    25
100
AcDbLine
 10
375.7983361254
 20
1018.1594933489
 30
0.0
 11
375.7983361254
 21
1020.9855646362
 31
0.0
  0
ARC
  5
16F
330
1F
100
AcDbEntity
  8
0
  6
Continuous
 62
     7
370
    25
100
AcDbCircle
 10
376.0408183437
 20
1020.9814254932
 30
0.0
 40
2.832330957552034
100
AcDbArc
 50
265.0887676059
 51
274.9112323941
  0
LINE
  5
170
330
1F
100
AcDbEntity
  8
0
  6
Continuous
 62
     7
370
    25
100
AcDbLine
 10
376.2833005621
 20
956.9279487904
 30
0.0
 11
376.283300562
 21
954.1018775031
 31
0.0
  0
ARC
  5
171
330
1F
100
AcDbEntity
  8
0
  6
Continuous
 62
     7
370
    25
100
AcDbCircle
 10
376.0408183437
 20
959.7498809347
 30
0.0
 40
2.832330957576026
100
AcDbArc
 50
265.0887676048
 51
274.9112323952
  0
LINE
  5
172
330
1F
100
AcDbEntity
  8
0
  6
Continuous
 62
     7
370
    25
100
AcDbLine
 10
375.7983361254
 20
954.1018775031
 30
0.0
 11
375.7983361254
 21
956.9279487904
 31
0.0
  0
ARC
  5
173
330
1F
100
AcDbEntity
  8
0
  6
Continuous
 62
     7
370
    25
100
AcDbCircle
 10
376.0408183437
 20
956.9238096474
 30
0.0
 40
2.832330957557024
100
AcDbArc
 50
265.0887676058
 51
274.9112323942
  0
LINE
  5
174
330
1F
100
AcDbEntity
  8
0
  6
Continuous
 62
     7
370
    25
100
AcDbLine
 10
384.6408183438
 20
1018.1594933489
 30
0.0
 11
383.2408183437
 21
1018.1594933489
 31
0.0
  0
LINE
  5
175
330
1F
100
AcDbEntity
  8
0
  6
Continuous
 62
     7
370
    25
100
AcDbLine
 10
376.283300562
 20
1018.1594933489
 30
0.0
 11
375.7983361254
 21
1018.1594933489
 31
0.0
  0
LINE
  5
176
330
1F
100
AcDbEntity
  8
0
  6
Continuous
 62
     7
370
    25
100
AcDbLine
 10
361.6408183437
 20
1018.1594933489
 30
0.0
 11
360.2408183438
 21
1018.1594933489
 31
0.0
  0
LINE
  5
177
330
1F
100
AcDbEntity
  8
0
  6
Continuous
 62
     7
370
    25
100
AcDbLine
 10
369.0833005622
 20
1018.1594933489
 30
0.0
 11
368.5983361252
 21
1018.1594933489
 31
0.0
  0
LINE
  5
178
330
1F
100
AcDbEntity
  8
0
  6
Continuous
 62
     7
370
    25
100
AcDbLine
 10
376.283300562
 20
954.1018775031
 30
0.0
 11
375.7983361254
 21
954.1018775031
 31
0.0
  0
LINE
  5
179
330
1F
100
AcDbEntity
  8
0
  6
Continuous
 62
     7
370
    25
100
AcDbLine
 10
361.6408183437
 20
954.1018775031
 30
0.0
 11
360.2408183438
 21
954.1018775031
 31
0.0
  0
LINE
  5
17A
330
1F
100
AcDbEntity
  8
0
  6
Continuous
 62
     7
370
    25
100
AcDbLine
 10
384.6408183437
 20
954.1018775031
 30
0.0
 11
383.2408183437
 21
954.1018775031
 31
0.0
  0
LINE
  5
17B
330
1F
100
AcDbEntity
  8
0
  6
Continuous
 62
     7
370
    25
100
AcDbLine
 10
369.0833005621
 20
954.1018775031
 30
0.0
 11
368.5983361253
 21
954.1018775031
 31
0.0
  0
LINE
  5
17C
330
1F
100
AcDbEntity
  8
0
  6
Continuous
 62
     7
370
    25
100
AcDbLine
 10
245.9408183437
 20
1108.4705545858
 30
0.0
 11
245.9408183437
 21
942.8537292852
 31
0.0
  0
LINE
  5
17D
330
1F
100
AcDbEntity
  8
0
  6
Continuous
 62
     7
370
    25
100
AcDbLine
 10
245.9408183437
 20
1108.4705545858
 30
0.0
 11
247.9908183437
 21
1108.4705545858
 31
0.0
  0
LINE
  5
17E
330
1F
100
AcDbEntity
  8
0
  6
Continuous
 62
     7
370
    25
100
AcDbLine
 10
247.1508183437
 20
942.8537292852
 30
0.0
 11
245.9408183437
 21
942.8537292852
 31
0.0
  0
LINE
  5
17F
330
1F
100
AcDbEntity
  8
0
  6
Continuous
 62
     7
370
    25
100
AcDbLine
 10
693.8908183437
 20
1108.4705545858
 30
0.0
 11
695.9408183437
 21
1108.4705545858
 31
0.0
  0
LINE
  5
180
330
1F
100
AcDbEntity
  8
0
  6
Continuous
 62
     7
370
    25
100
AcDbLine
 10
695.9408183437
 20
942.8537292852
 30
0.0
 11
695.9408183437
 21
1108.4705545858
 31
0.0
  0
LINE
  5
181
330
1F
100
AcDbEntity
  8
0
  6
Continuous
 62
     7
370
    25
100
AcDbLine
 10
695.9408183437
 20
942.8537292852
 30
0.0
 11
694.7308183437
 21
942.8537292852
 31
0.0
  0
LINE
  5
182
330
1F
100
AcDbEntity
  8
0
  6
Continuous
 62
     7
370
    25
100
AcDbLine
 10
672.2735227053
 20
1133.891440904
 30
0.0
 11
671.7408183437
 21
1133.8840601723
 31
0.0
  0
LINE
  5
183
330
1F
100
AcDbEntity
  8
0
  6
Continuous
 62
     7
370
    25
100
AcDbLine
 10
270.1408183437
 20
1133.8840601723
 30
0.0
 11
269.6081139822
 21
1133.891440904
 31
0.0
  0
LINE
  5
184
330
1F
100
AcDbEntity
  8
0
  6
Continuous
 62
     7
370
    25
100
AcDbLine
 10
415.358932499
 20
1133.8840601723
 30
0.0
 11
270.1408183437
 21
1133.8840601723
 31
0.0
  0
LINE
  5
185
330
1F
100
AcDbEntity
  8
0
  6
Continuous
 62
     7
370
    25
100
AcDbLine
 10
415.8916368605
 20
1133.891440904
 30
0.0
 11
415.358932499
 21
1133.8840601723
 31
0.0
  0
LINE
  5
186
330
1F
100
AcDbEntity
  8
0
  6
Continuous
 62
     7
370
    25
100
AcDbLine
 10
436.5924389347
 20
1133.8840601723
 30
0.0
 11
436.0597345732
 21
1133.891440904
 31
0.0
  0
LINE
  5
187
330
1F
100
AcDbEntity
  8
0
  6
Continuous
 62
     7
370
    25
100
AcDbLine
 10
495.3739435155
 20
1133.8840601723
 30
0.0
 11
436.5924389347
 21
1133.8840601723
 31
0.0
  0
LINE
  5
188
330
1F
100
AcDbEntity
  8
0
  6
Continuous
 62
     7
370
    25
100
AcDbLine
 10
495.906647877
 20
1133.891440904
 30
0.0
 11
495.3739435155
 21
1133.8840601723
 31
0.0
  0
LINE
  5
189
330
1F
100
AcDbEntity
  8
0
  6
Continuous
 62
     7
370
    25
100
AcDbLine
 10
516.5845763993
 20
1133.8840601723
 30
0.0
 11
516.0518720378
 21
1133.891440904
 31
0.0
  0
LINE
  5
18A
330
1F
100
AcDbEntity
  8
0
  6
Continuous
 62
     7
370
    25
100
AcDbLine
 10
671.7408183437
 20
1133.8840601723
 30
0.0
 11
516.5845763993
 21
1133.8840601723
 31
0.0
  0
LINE
  5
18B
330
1F
100
AcDbEntity
  8
0
  6
Continuous
 62
     7
370
    25
100
AcDbLine
 10
245.9408183437
 20
1133.891440904
 30
0.0
 11
245.9408183437
 21
1108.9705545858
 31
0.0
  0
LINE
  5
18C
330
1F
100
AcDbEntity
  8
0
  6
Continuous
 62
     7
370
    25
100
AcDbLine
 10
695.9408183437
 20
1133.891440904
 30
0.0
 11
695.9408183437
 21
1108.9705545858
 31
0.0
  0
ARC
  5
18D
330
1F
100
AcDbEntity
  8
0
  6
Continuous
 62
     7
370
    25
100
AcDbCircle
 10
258.4408183437
 20
1037.5537292852
 30
0.0
 40
6.500000000000026
100
AcDbArc
 50
341.9761650375
 51
88.180780706
  0
LINE
  5
18E
330
1F
100
AcDbEntity
  8
0
  6
Continuous
 62
     7
370
    25
100
AcDbLine
 10
257.6164200222
 20
1043.6954202094
 30
0.0
 11
257.6031095343
 21
1043.7945821076
 31
0.0
  0
ARC
  5
18F
330
1F
100
AcDbEntity
  8
0
  6
Continuous
 62
     7
370
    25
100
AcDbCircle
 10
258.4408183437
 20
1037.5537292852
 30
0.0
 40
6.500000000000083
100
AcDbArc
 50
99.4643267526
 51
203.5758559618
  0
ARC
  5
190
330
1F
100
AcDbEntity
  8
0
  6
Continuous
 62
     7
370
    25
100
AcDbCircle
 10
257.4048873121
 20
1043.7679747662
 30
0.0
 40
0.2000000000000774
100
AcDbArc
 50
7.6451074586
 51
99.4643267526
  0
LINE
  5
191
330
1F
100
AcDbEntity
  8
0
  6
Continuous
 62
     7
370
    25
100
AcDbLine
 10
693.4908183437
 20
1108.8705545858
 30
0.0
 11
693.4908183437
 21
1108.4705545858
 31
0.0
  0
LINE
  5
192
330
1F
100
AcDbEntity
  8
0
  6
Continuous
 62
     7
370
    25
100
AcDbLine
 10
695.9408183437
 20
1108.9705545858
 30
0.0
 11
695.9408183437
 21
1108.8705545858
 31
0.0
  0
LINE
  5
193
330
1F
100
AcDbEntity
  8
0
  6
Continuous
 62
     7
370
    25
100
AcDbLine
 10
258.4408183437
 20
1043.8505538818
 30
0.0
 11
258.4408183437
 21
1043.7505026392
 31
0.0
  0
ARC
  5
194
330
1F
100
AcDbEntity
  8
0
  6
Continuous
 62
     7
370
    25
100
AcDbCircle
 10
258.6408183437
 20
1043.7505026392
 30
0.0
 40
0.2000000000000455
100
AcDbArc
 50
180.0
 51
268.1514283548
  0
ARC
  5
195
330
1F
100
AcDbEntity
  8
0
  6
Continuous
 62
     7
370
    25
100
AcDbCircle
 10
257.4181977999
 20
1043.6688128679
 30
0.0
 40
0.1999999999999475
100
AcDbArc
 50
279.4936791038
 51
7.6451074585
  0
ARC
  5
196
330
1F
100
AcDbEntity
  8
0
  6
Continuous
 62
     7
370
    25
100
AcDbCircle
 10
258.6408183437
 20
1043.8505538818
 30
0.0
 40
0.2000000000000455
100
AcDbArc
 50
88.180780706
 51
180.0
  0
LINE
  5
197
330
1F
100
AcDbEntity
  8
0
  6
Continuous
 62
     7
370
    25
100
AcDbLine
 10
684.2785271531
 20
1043.7945821076
 30
0.0
 11
684.2652166653
 21
1043.6954202094
 31
0.0
  0
LWPOLYLINE
  5
198
330
1F
100
AcDbEntity
  8
0
  6
Continuous
 62
     7
370
    25
100
AcDbPolyline
 90
        3
 70
   128
 43
0.0
 10
681.4264014108
 20
1043.2054656928
 10
681.8760917478
 20
1043.3461062308
 10
683.2472699566
 20
1043.5506067245
  0
LINE
  5
199
330
1F
100
AcDbEntity
  8
0
  6
Continuous
 62
     7
370
    25
100
AcDbLine
 10
693.4908183437
 20
1108.4705545858
 30
0.0
 11
693.8908183437
 21
1108.4705545858
 31
0.0
  0
LINE
  5
19A
330
1F
100
AcDbEntity
  8
0
  6
Continuous
 62
     7
370
    25
100
AcDbLine
 10
695.9408183437
 20
1108.8705545858
 30
0.0
 11
693.4908183437
 21
1108.8705545858
 31
0.0
  0
ARC
  5
19B
330
1F
100
AcDbEntity
  8
0
  6
Continuous
 62
     7
370
    25
100
AcDbCircle
 10
264.431664009
 20
1035.6044298688
 30
0.0
 40
0.1999999999999924
100
AcDbArc
 50
272.6234417242
 51
341.9761650375
  0
ARC
  5
19C
330
1F
100
AcDbEntity
  8
0
  6
Continuous
 62
     7
370
    25
100
AcDbCircle
 10
677.4499726784
 20
1035.6044298688
 30
0.0
 40
0.1999999999999383
100
AcDbArc
 50
198.0238349625
 51
267.3699846605
  0
ARC
  5
19D
330
1F
100
AcDbEntity
  8
0
  6
Continuous
 62
     7
370
    25
100
AcDbCircle
 10
683.4408183437
 20
1037.5537292852
 30
0.0
 40
6.499999999999972
100
AcDbArc
 50
91.819219294
 51
198.0238349625
  0
ARC
  5
19E
330
1F
100
AcDbEntity
  8
0
  6
Continuous
 62
     7
370
    25
100
AcDbCircle
 10
683.4408183437
 20
1037.5537292852
 30
0.0
 40
6.500000000000065
100
AcDbArc
 50
336.4241440382
 51
80.5356732474
  0
ARC
  5
19F
330
1F
100
AcDbEntity
  8
0
  6
Continuous
 62
     7
370
    25
100
AcDbCircle
 10
683.2408183437
 20
1043.7505026392
 30
0.0
 40
0.2000000000000455
100
AcDbArc
 50
271.8485716453
 51
0.0
  0
LINE
  5
1A0
330
1F
100
AcDbEntity
  8
0
  6
Continuous
 62
     7
370
    25
100
AcDbLine
 10
248.3908183437
 20
1108.8705545858
 30
0.0
 11
245.9408183437
 21
1108.8705545858
 31
0.0
  0
ARC
  5
1A1
330
1F
100
AcDbEntity
  8
0
  6
Continuous
 62
     7
370
    25
100
AcDbCircle
 10
684.4767493754
 20
1043.7679747662
 30
0.0
 40
0.2000000000000774
100
AcDbArc
 50
80.5356732474
 51
172.3548925414
  0
LINE
  5
1A2
330
1F
100
AcDbEntity
  8
0
  6
Continuous
 62
     7
370
    25
100
AcDbLine
 10
684.430451128
 20
1043.4715521072
 30
0.0
 11
685.2134972856
 21
1043.2858850201
 31
0.0
  0
LWPOLYLINE
  5
1A3
330
1F
100
AcDbEntity
  8
0
  6
Continuous
 62
     7
370
    25
100
AcDbPolyline
 90
        3
 70
   128
 43
0.0
 10
689.4265970351
 20
1037.9665893796
 10
689.4352587576
 20
1037.8119619798
 10
689.4383199528
 20
1037.3805979781
  0
ARC
  5
1A4
330
1F
100
AcDbEntity
  8
0
  6
Continuous
 62
     7
370
    25
100
AcDbCircle
 10
684.4634388875
 20
1043.6688128679
 30
0.0
 40
0.2000000000000602
100
AcDbArc
 50
172.3548925415
 51
260.5063208962
  0
ARC
  5
1A5
330
1F
100
AcDbEntity
  8
0
  6
Continuous
 62
     7
370
    25
100
AcDbCircle
 10
683.2408183437
 20
1043.8505538818
 30
0.0
 40
0.2000000000000455
100
AcDbArc
 50
0.0
 51
91.819219294
  0
LINE
  5
1A6
330
1F
100
AcDbEntity
  8
0
  6
Continuous
 62
     7
370
    25
100
AcDbLine
 10
248.3908183437
 20
1108.4705545858
 30
0.0
 11
248.3908183437
 21
1108.8705545858
 31
0.0
  0
LINE
  5
1A7
330
1F
100
AcDbEntity
  8
0
  6
Continuous
 62
     7
370
    25
100
AcDbLine
 10
683.4408183437
 20
1043.7505026392
 30
0.0
 11
683.4408183437
 21
1043.8505538818
 31
0.0
  0
LINE
  5
1A8
330
1F
100
AcDbEntity
  8
0
  6
Continuous
 62
     7
370
    25
100
AcDbLine
 10
245.9408183437
 20
1108.9705545858
 30
0.0
 11
245.9408183437
 21
1108.8705545858
 31
0.0
  0
LINE
  5
1A9
330
1F
100
AcDbEntity
  8
0
  6
Continuous
 62
     7
370
    25
100
AcDbLine
 10
247.9908183437
 20
1108.4705545858
 30
0.0
 11
248.3908183437
 21
1108.4705545858
 31
0.0
  0
LINE
  5
1AA
330
1F
100
AcDbEntity
  8
0
  6
Continuous
 62
     7
370
    25
100
AcDbLine
 10
695.9408183437
 20
1108.8705545858
 30
0.0
 11
695.9408183437
 21
1108.4705545858
 31
0.0
  0
LINE
  5
1AB
330
1F
100
AcDbEntity
  8
0
  6
Continuous
 62
     7
370
    25
100
AcDbLine
 10
695.1408183437
 20
1108.8705545858
 30
0.0
 11
695.1408183437
 21
1108.4705545858
 31
0.0
  0
LINE
  5
1AC
330
1F
100
AcDbEntity
  8
0
  6
Continuous
 62
     7
370
    25
100
AcDbLine
 10
245.9408183437
 20
1108.8705545858
 30
0.0
 11
245.9408183437
 21
1108.4705545858
 31
0.0
  0
LINE
  5
1AD
330
1F
100
AcDbEntity
  8
0
  6
Continuous
 62
     7
370
    25
100
AcDbLine
 10
246.7408183437
 20
1108.8705545858
 30
0.0
 11
246.7408183437
 21
1108.4705545858
 31
0.0
  0
LWPOLYLINE
  5
1AE
330
1F
100
AcDbEntity
  8
0
  6
Continuous
 62
     7
370
    25
100
AcDbPolyline
 90
        9
 70
   128
 43
0.0
 10
432.1355132837
 20
1135.7647149183
 10
431.722512628
 20
1135.4714272437
 10
431.5928751898
 20
1135.1610760342
 10
431.7541440978
 20
1134.8517194926
 10
432.1969357037
 20
1134.5613579457
 10
432.8954855816
 20
1134.306886471
 10
433.8091476668
 20
1134.1031118336
 10
434.8847593009
 20
1133.9618909353
 10
436.0597345732
 20
1133.891440904
  0
LINE
  5
1AF
330
1F
100
AcDbEntity
  8
0
  6
Continuous
 62
     7
370
    25
100
AcDbLine
 10
432.1355132837
 20
1134.9919742572
 30
0.0
 11
431.820490959
 21
1134.7918002279
 31
0.0
  0
LWPOLYLINE
  5
1B0
330
1F
100
AcDbEntity
  8
0
  6
Continuous
 62
     7
370
    25
100
AcDbPolyline
 90
        9
 70
   128
 43
0.0
 10
512.1295437784
 20
1135.7656774965
 10
511.7154788691
 20
1135.4723476645
 10
511.5849722894
 20
1135.1618860398
 10
511.7456242623
 20
1134.8523727657
 10
512.1880790078
 20
1134.5618327565
 10
512.8865695893
 20
1134.3071859938
 10
513.8004184844
 20
1134.1032621683
 10
514.8764064952
 20
1133.9619370534
 10
516.0518720378
 20
1133.891440904
  0
LINE
  5
1B1
330
1F
100
AcDbEntity
  8
0
  6
Continuous
 62
     7
370
    25
100
AcDbLine
 10
512.1295437784
 20
1134.9929368355
 30
0.0
 11
511.8126284235
 21
1134.7918002278
 31
0.0
  0
LWPOLYLINE
  5
1B2
330
1F
100
AcDbEntity
  8
0
  6
Continuous
 62
     7
370
    25
100
AcDbPolyline
 90
        9
 70
   128
 43
0.0
 10
265.1408183437
 20
1135.1781705584
 10
265.2243134682
 20
1134.9426623201
 10
265.4720102674
 20
1134.7150195976
 10
265.8756361513
 20
1134.5028452141
 10
266.4217108024
 20
1134.31322538
 10
267.0919963924
 20
1134.152493028
 10
267.8641066898
 20
1134.0260163053
 10
268.7122547164
 20
1133.9380192877
 10
269.6081139822
 20
1133.891440904
  0
LWPOLYLINE
  5
1B3
330
1F
100
AcDbEntity
  8
0
  6
Continuous
 62
     7
370
    25
100
AcDbPolyline
 90
        9
 70
   128
 43
0.0
 10
672.2735227053
 20
1133.891440904
 10
673.169381971
 20
1133.9380192877
 10
674.0175299976
 20
1134.0260163053
 10
674.789640295
 20
1134.152493028
 10
675.459925885
 20
1134.31322538
 10
676.0060005362
 20
1134.5028452141
 10
676.40962642
 20
1134.7150195976
 10
676.6573232192
 20
1134.9426623201
 10
676.7408183437
 20
1135.1781705584
  0
LINE
  5
1B4
330
1F
100
AcDbEntity
  8
0
  6
Continuous
 62
     7
370
    25
100
AcDbLine
 10
499.8308691665
 20
1134.5916261985
 30
0.0
 11
509.7461234038
 21
1139.638597578
 31
0.0
  0
LWPOLYLINE
  5
1B5
330
1F
100
AcDbEntity
  8
0
  6
Continuous
 62
     7
370
    25
100
AcDbPolyline
 90
        9
 70
   128
 43
0.0
 10
509.7461234038
 20
1139.638597578
 10
510.1738084129
 20
1139.9487286869
 10
510.2852190765
 20
1140.2767573164
 10
510.0731416499
 20
1140.6014438945
 10
509.5513079642
 20
1140.9017652441
 10
508.7535063025
 20
1141.1582758156
 10
507.7313936373
 20
1141.35436677
 10
506.5511508859
 20
1141.4773413861
 10
505.2891977528
 20
1141.5192371634
  0
LINE
  5
1B6
330
1F
100
AcDbEntity
  8
0
  6
Continuous
 62
     7
370
    25
100
AcDbLine
 10
505.2891977528
 20
1141.5192371634
 30
0.0
 11
446.507693172
 21
1141.5192371634
 31
0.0
  0
ARC
  5
1B7
330
1F
100
AcDbEntity
  8
0
  6
Continuous
 62
     7
370
    25
100
AcDbCircle
 10
446.0070125571
 20
1130.2820083591
 30
0.0
 40
11.2483773175733
100
AcDbArc
 50
87.448843823
 51
110.5923678587
  0
LINE
  5
1B8
330
1F
100
AcDbEntity
  8
0
  6
Continuous
 62
     7
370
    25
100
AcDbLine
 10
442.050767521
 20
1140.8116862978
 30
0.0
 11
432.1355132837
 21
1135.7647149183
 31
0.0
  0
LINE
  5
1B9
330
1F
100
AcDbEntity
  8
0
  6
Continuous
 62
     7
370
    25
100
AcDbLine
 10
419.8139651199
 20
1134.5906636202
 30
0.0
 11
429.7497113851
 21
1139.6376349997
 31
0.0
  0
LWPOLYLINE
  5
1BA
330
1F
100
AcDbEntity
  8
0
  6
Continuous
 62
     7
370
    25
100
AcDbPolyline
 90
        9
 70
   128
 43
0.0
 10
429.7497113851
 20
1139.6376349997
 10
430.1785081708
 20
1139.9478054861
 10
430.2908239454
 20
1140.275947878
 10
430.0793804428
 20
1140.6007979528
 10
429.5578795859
 20
1140.9013048358
 10
428.7601155769
 20
1141.1579951357
 10
427.7377849716
 20
1141.3542348549
 10
426.5571366492
 20
1141.4773073035
 10
425.2946787641
 20
1141.5192371634
  0
LINE
  5
1BB
330
1F
100
AcDbEntity
  8
0
  6
Continuous
 62
     7
370
    25
100
AcDbLine
 10
425.2946787641
 20
1141.5192371634
 30
0.0
 11
270.1408183437
 21
1141.5192371634
 31
0.0
  0
LWPOLYLINE
  5
1BC
330
1F
100
AcDbEntity
  8
0
  6
Continuous
 62
     7
370
    25
100
AcDbPolyline
 90
        9
 70
   128
 43
0.0
 10
270.1408183437
 20
1141.5192371634
 10
269.1653667336
 20
1141.4943714865
 10
268.2274011819
 20
1141.4207300299
 10
267.3629671786
 20
1141.3011427933
 10
266.6052844378
 20
1141.1402054473
 10
265.9834702822
 20
1140.9441027239
 10
265.5214206812
 20
1140.7203707406
 10
265.2368919417
 20
1140.4776073921
 10
265.1408183437
 20
1140.2251419379
  0
LINE
  5
1BD
330
1F
100
AcDbEntity
  8
0
  6
Continuous
 62
     7
370
    25
100
AcDbLine
 10
265.1408183437
 20
1140.2251419379
 30
0.0
 11
265.1408183437
 21
1135.1781705584
 31
0.0
  0
LINE
  5
1BE
330
1F
100
AcDbEntity
  8
0
  6
Continuous
 62
     7
370
    25
100
AcDbLine
 10
695.9408183437
 20
1142.8133323889
 30
0.0
 11
695.9408183437
 21
1133.891440904
 31
0.0
  0
LINE
  5
1BF
330
1F
100
AcDbEntity
  8
0
  6
Continuous
 62
     7
370
    25
100
AcDbLine
 10
676.7408183437
 20
1135.1781705584
 30
0.0
 11
676.7408183437
 21
1140.2251419379
 31
0.0
  0
LWPOLYLINE
  5
1C0
330
1F
100
AcDbEntity
  8
0
  6
Continuous
 62
     7
370
    25
100
AcDbPolyline
 90
        9
 70
   128
 43
0.0
 10
676.7408183437
 20
1140.2251419379
 10
676.6447447457
 20
1140.4776073921
 10
676.3602160063
 20
1140.7203707406
 10
675.8981664052
 20
1140.9441027239
 10
675.2763522497
 20
1141.1402054473
 10
674.5186695088
 20
1141.3011427933
 10
673.6542355056
 20
1141.4207300299
 10
672.7162699538
 20
1141.4943714865
 10
671.7408183437
 20
1141.5192371634
  0
LINE
  5
1C1
330
1F
100
AcDbEntity
  8
0
  6
Continuous
 62
     7
370
    25
100
AcDbLine
 10
671.7408183437
 20
1141.5192371634
 30
0.0
 11
526.5203226645
 21
1141.5192371634
 31
0.0
  0
ARC
  5
1C2
330
1F
100
AcDbEntity
  8
0
  6
Continuous
 62
     7
370
    25
100
AcDbCircle
 10
526.0206216084
 20
1130.2720838107
 30
0.0
 40
11.258248517592
100
AcDbArc
 50
87.4560722712
 51
110.5685284269
  0
LINE
  5
1C3
330
1F
100
AcDbEntity
  8
0
  6
Continuous
 62
     7
370
    25
100
AcDbLine
 10
522.0652900435
 20
1140.812648876
 30
0.0
 11
512.1295437784
 21
1135.7656774965
 31
0.0
  0
LINE
  5
1C4
330
1F
100
AcDbEntity
  8
0
  6
Continuous
 62
     7
370
    25
100
AcDbLine
 10
245.9408183437
 20
1142.8133323889
 30
0.0
 11
245.9408183437
 21
1133.891440904
 31
0.0
  0
ARC
  5
1C5
330
1F
100
AcDbEntity
  8
0
  6
Continuous
 62
     7
370
    25
100
AcDbCircle
 10
496.076516388
 20
1144.286238564
 30
0.0
 40
10.39618553622802
100
AcDbArc
 50
269.0637737425
 51
291.1694811426
  0
ARC
  5
1C6
330
1F
100
AcDbEntity
  8
0
  6
Continuous
 62
     7
370
    25
100
AcDbCircle
 10
416.0603161543
 20
1144.2960944732
 30
0.0
 40
10.40602078603519
100
AcDbArc
 50
269.0712074178
 51
291.144356201
  0
LINE
  5
1C7
330
1F
100
AcDbEntity
  8
0
  6
Continuous
 62
     7
370
    25
100
AcDbLine
 10
442.050767521
 20
1140.0389456367
 30
0.0
 11
432.1355132837
 21
1134.9919742572
 31
0.0
  0
LINE
  5
1C8
330
1F
100
AcDbEntity
  8
0
  6
Continuous
 62
     7
370
    25
100
AcDbLine
 10
522.0652900435
 20
1140.039908215
 30
0.0
 11
512.1295437784
 21
1134.9929368355
 31
0.0
  0
ARC
  5
1C9
330
1F
100
AcDbEntity
  8
0
  6
Continuous
 62
     7
370
    25
100
AcDbCircle
 10
425.9657674281
 20
1131.2774097345
 30
0.0
 40
9.49283752165177
100
AcDbArc
 50
64.4057588997
 51
94.053861396
  0
ARC
  5
1CA
330
1F
100
AcDbEntity
  8
0
  6
Continuous
 62
     7
370
    25
100
AcDbCircle
 10
505.9599701692
 20
1131.2757472076
 30
0.0
 40
9.494473541998222
100
AcDbArc
 50
64.4083718265
 51
94.0512484713
  0
LWPOLYLINE
  5
1CB
330
1F
100
AcDbEntity
  8
0
  6
Continuous
 62
     7
370
    25
100
AcDbPolyline
 90
        9
 70
   128
 43
0.0
 10
676.7408183437
 20
1139.4524012768
 10
676.6447447457
 20
1139.7048667311
 10
676.3602160063
 20
1139.9476300796
 10
675.8981664052
 20
1140.1713620628
 10
675.2763522497
 20
1140.3674647863
 10
674.5186695088
 20
1140.5284021323
 10
673.6542355056
 20
1140.6479893688
 10
672.7162699538
 20
1140.7216308255
 10
671.7408183437
 20
1140.7464965024
  0
LWPOLYLINE
  5
1CC
330
1F
100
AcDbEntity
  8
0
  6
Continuous
 62
     7
370
    25
100
AcDbPolyline
 90
        9
 70
   128
 43
0.0
 10
270.1408183437
 20
1140.7464965024
 10
269.1653667336
 20
1140.7216308255
 10
268.2274011819
 20
1140.6479893688
 10
267.3629671786
 20
1140.5284021323
 10
266.6052844378
 20
1140.3674647863
 10
265.9834702822
 20
1140.1713620628
 10
265.5214206812
 20
1139.9476300796
 10
265.2368919417
 20
1139.7048667311
 10
265.1408183437
 20
1139.4524012768
  0
ARC
  5
1CD
330
1F
100
AcDbEntity
  8
0
  6
Continuous
 62
     7
370
    25
100
AcDbCircle
 10
446.0070125571
 20
1129.5092676981
 30
0.0
 40
11.24837731756638
100
AcDbArc
 50
87.448843823
 51
110.5923678587
  0
ARC
  5
1CE
330
1F
100
AcDbEntity
  8
0
  6
Continuous
 62
     7
370
    25
100
AcDbCircle
 10
526.0206216084
 20
1129.4993431497
 30
0.0
 40
11.25824851758888
100
AcDbArc
 50
87.4560722712
 51
110.5685284269
  0
LINE
  5
1CF
330
1F
100
AcDbEntity
  8
0
  6
Continuous
 62
     7
370
    25
100
AcDbLine
 10
505.2891977528
 20
1140.7464965024
 30
0.0
 11
446.507693172
 21
1140.7464965024
 31
0.0
  0
LINE
  5
1D0
330
1F
100
AcDbEntity
  8
0
  6
Continuous
 62
     7
370
    25
100
AcDbLine
 10
425.2946787641
 20
1140.7464965024
 30
0.0
 11
270.1408183437
 21
1140.7464965024
 31
0.0
  0
LINE
  5
1D1
330
1F
100
AcDbEntity
  8
0
  6
Continuous
 62
     7
370
    25
100
AcDbLine
 10
671.7408183437
 20
1140.7464965024
 30
0.0
 11
526.5203226645
 21
1140.7464965024
 31
0.0
  0
LINE
  5
1D2
330
1F
100
AcDbEntity
  8
0
  6
Continuous
 62
     7
370
    25
100
AcDbLine
 10
695.9408183437
 20
1142.883184445
 30
0.0
 11
695.9408183437
 21
1142.8133323889
 31
0.0
  0
LINE
  5
1D3
330
1F
100
AcDbEntity
  8
0
  6
Continuous
 62
     7
370
    25
100
AcDbLine
 10
245.9408183437
 20
1142.883184445
 30
0.0
 11
245.9408183437
 21
1142.8133323889
 31
0.0
  0
LINE
  5
1D4
330
1F
100
AcDbEntity
  8
0
  6
Continuous
 62
     7
370
    25
100
AcDbLine
 10
671.9408183437
 20
985.2450346977
 30
0.0
 11
671.9408183437
 21
982.2971350843
 31
0.0
  0
LINE
  5
1D5
330
1F
100
AcDbEntity
  8
0
  6
Continuous
 62
     7
370
    25
100
AcDbLine
 10
269.9408183437
 20
985.2450346977
 30
0.0
 11
269.9408183437
 21
982.2971350843
 31
0.0
  0
LINE
  5
1D6
330
1F
100
AcDbEntity
  8
0
  6
Continuous
 62
     7
370
    25
100
AcDbLine
 10
671.9408183437
 20
1051.969484748
 30
0.0
 11
671.9408183437
 21
985.2450346977
 31
0.0
  0
LINE
  5
1D7
330
1F
100
AcDbEntity
  8
0
  6
Continuous
 62
     7
370
    25
100
AcDbLine
 10
269.9408183437
 20
1051.969484748
 30
0.0
 11
269.9408183437
 21
985.2450346977
 31
0.0
  0
LINE
  5
1D8
330
1F
100
AcDbEntity
  8
0
  6
Continuous
 62
     7
370
    25
100
AcDbLine
 10
671.9408183437
 20
982.2971350843
 30
0.0
 11
671.9408183437
 21
973.1282869327
 31
0.0
  0
LINE
  5
1D9
330
1F
100
AcDbEntity
  8
0
  6
Continuous
 62
     7
370
    25
100
AcDbLine
 10
269.9408183437
 20
982.2971350843
 30
0.0
 11
269.9408183437
 21
973.1282869327
 31
0.0
  0
LWPOLYLINE
  5
1DA
330
1F
100
AcDbEntity
  8
0
  6
Continuous
 62
     7
370
    25
100
AcDbPolyline
 90
       24
 70
   128
 43
0.0
 10
513.9408183437
 20
981.1684219295
 10
511.2174853618
 20
981.1360745595
 10
508.5448829206
 20
981.03963502
 10
505.9727965468
 20
980.880899797
 10
503.549139343
 20
980.6628258274
 10
501.3190594572
 20
980.3894754167
 10
499.3240990582
 20
980.0659405658
 10
497.6014204835
 20
979.6982481168
 10
496.1831139757
 20
979.2932474843
 10
495.0955999014
 20
978.858483064
 10
494.3591365901
 20
978.4020536942
 10
493.9874429599
 20
977.9324617905
 10
493.9874429599
 20
977.4584549617
 10
494.3591365901
 20
976.9888630581
 10
495.0955999014
 20
976.5324336883
 10
496.1831139757
 20
976.0976692679
 10
497.6014204835
 20
975.6926686355
 10
499.3240990582
 20
975.3249761865
 10
501.3190594572
 20
975.0014413356
 10
503.549139343
 20
974.7280909249
 10
505.9727965468
 20
974.5100169553
 10
508.5448829206
 20
974.3512817323
 10
511.2174853618
 20
974.2548421928
 10
513.9408183437
 20
974.2224948228
  0
LINE
  5
1DB
330
1F
100
AcDbEntity
  8
0
  6
Continuous
 62
     7
370
    25
100
AcDbLine
 10
513.9408183437
 20
974.2224948228
 30
0.0
 11
555.4408183438
 21
974.2224948228
 31
0.0
  0
LINE
  5
1DC
330
1F
100
AcDbEntity
  8
0
  6
Continuous
 62
     7
370
    25
100
AcDbLine
 10
560.4408183438
 20
974.2224948228
 30
0.0
 11
563.3408183438
 21
974.2224948228
 31
0.0
  0
LINE
  5
1DD
330
1F
100
AcDbEntity
  8
0
  6
Continuous
 62
     7
370
    25
100
AcDbLine
 10
568.3408183438
 20
974.2224948228
 30
0.0
 11
570.5408183438
 21
974.2224948228
 31
0.0
  0
LINE
  5
1DE
330
1F
100
AcDbEntity
  8
0
  6
Continuous
 62
     7
370
    25
100
AcDbLine
 10
575.5408183438
 20
974.2224948228
 30
0.0
 11
578.4408183438
 21
974.2224948228
 31
0.0
  0
LINE
  5
1DF
330
1F
100
AcDbEntity
  8
0
  6
Continuous
 62
     7
370
    25
100
AcDbLine
 10
583.4408183438
 20
974.2224948228
 30
0.0
 11
623.9408183437
 21
974.2224948228
 31
0.0
  0
LWPOLYLINE
  5
1E0
330
1F
100
AcDbEntity
  8
0
  6
Continuous
 62
     7
370
    25
100
AcDbPolyline
 90
       24
 70
   128
 43
0.0
 10
623.9408183437
 20
974.2224948228
 10
626.6641513257
 20
974.2548421928
 10
629.3367537669
 20
974.3512817323
 10
631.9088401407
 20
974.5100169553
 10
634.3324973444
 20
974.7280909249
 10
636.5625772302
 20
975.0014413356
 10
638.5575376293
 20
975.3249761865
 10
640.2802162039
 20
975.6926686355
 10
641.6985227118
 20
976.0976692679
 10
642.7860367861
 20
976.5324336883
 10
643.5225000974
 20
976.9888630581
 10
643.8941937275
 20
977.4584549617
 10
643.8941937275
 20
977.9324617905
 10
643.5225000974
 20
978.4020536942
 10
642.7860367861
 20
978.858483064
 10
641.6985227118
 20
979.2932474843
 10
640.2802162039
 20
979.6982481168
 10
638.5575376293
 20
980.0659405658
 10
636.5625772302
 20
980.3894754167
 10
634.3324973444
 20
980.6628258274
 10
631.9088401407
 20
980.880899797
 10
629.3367537669
 20
981.03963502
 10
626.6641513257
 20
981.1360745595
 10
623.9408183437
 20
981.1684219295
  0
LINE
  5
1E1
330
1F
100
AcDbEntity
  8
0
  6
Continuous
 62
     7
370
    25
100
AcDbLine
 10
623.9408183437
 20
981.1684219295
 30
0.0
 11
583.4408183438
 21
981.1684219295
 31
0.0
  0
LINE
  5
1E2
330
1F
100
AcDbEntity
  8
0
  6
Continuous
 62
     7
370
    25
100
AcDbLine
 10
578.4408183438
 20
981.1684219295
 30
0.0
 11
575.5408183438
 21
981.1684219295
 31
0.0
  0
LINE
  5
1E3
330
1F
100
AcDbEntity
  8
0
  6
Continuous
 62
     7
370
    25
100
AcDbLine
 10
570.5408183438
 20
981.1684219295
 30
0.0
 11
568.3408183438
 21
981.1684219295
 31
0.0
  0
LINE
  5
1E4
330
1F
100
AcDbEntity
  8
0
  6
Continuous
 62
     7
370
    25
100
AcDbLine
 10
563.3408183438
 20
981.1684219295
 30
0.0
 11
560.4408183438
 21
981.1684219295
 31
0.0
  0
LINE
  5
1E5
330
1F
100
AcDbEntity
  8
0
  6
Continuous
 62
     7
370
    25
100
AcDbLine
 10
555.4408183438
 20
981.1684219295
 30
0.0
 11
513.9408183437
 21
981.1684219295
 31
0.0
  0
LWPOLYLINE
  5
1E6
330
1F
100
AcDbEntity
  8
0
  6
Continuous
 62
     7
370
    25
100
AcDbPolyline
 90
       24
 70
   128
 43
0.0
 10
317.9408183437
 20
981.1684219295
 10
315.2174853618
 20
981.1360745595
 10
312.5448829206
 20
981.03963502
 10
309.9727965468
 20
980.880899797
 10
307.549139343
 20
980.6628258274
 10
305.3190594572
 20
980.3894754167
 10
303.3240990582
 20
980.0659405658
 10
301.6014204835
 20
979.6982481168
 10
300.1831139757
 20
979.2932474843
 10
299.0955999014
 20
978.858483064
 10
298.3591365901
 20
978.4020536942
 10
297.9874429599
 20
977.9324617905
 10
297.9874429599
 20
977.4584549617
 10
298.3591365901
 20
976.9888630581
 10
299.0955999014
 20
976.5324336883
 10
300.1831139757
 20
976.0976692679
 10
301.6014204835
 20
975.6926686355
 10
303.3240990582
 20
975.3249761865
 10
305.3190594572
 20
975.0014413356
 10
307.549139343
 20
974.7280909249
 10
309.9727965468
 20
974.5100169553
 10
312.5448829206
 20
974.3512817323
 10
315.2174853618
 20
974.2548421928
 10
317.9408183437
 20
974.2224948228
  0
LINE
  5
1E7
330
1F
100
AcDbEntity
  8
0
  6
Continuous
 62
     7
370
    25
100
AcDbLine
 10
317.9408183437
 20
974.2224948228
 30
0.0
 11
358.4408183437
 21
974.2224948228
 31
0.0
  0
LINE
  5
1E8
330
1F
100
AcDbEntity
  8
0
  6
Continuous
 62
     7
370
    25
100
AcDbLine
 10
363.4408183437
 20
974.2224948228
 30
0.0
 11
366.3408183437
 21
974.2224948228
 31
0.0
  0
LINE
  5
1E9
330
1F
100
AcDbEntity
  8
0
  6
Continuous
 62
     7
370
    25
100
AcDbLine
 10
371.3408183437
 20
974.2224948228
 30
0.0
 11
373.5408183437
 21
974.2224948228
 31
0.0
  0
LINE
  5
1EA
330
1F
100
AcDbEntity
  8
0
  6
Continuous
 62
     7
370
    25
100
AcDbLine
 10
378.5408183437
 20
974.2224948228
 30
0.0
 11
381.4408183437
 21
974.2224948228
 31
0.0
  0
LINE
  5
1EB
330
1F
100
AcDbEntity
  8
0
  6
Continuous
 62
     7
370
    25
100
AcDbLine
 10
386.4408183437
 20
974.2224948228
 30
0.0
 11
427.9408183437
 21
974.2224948228
 31
0.0
  0
LWPOLYLINE
  5
1EC
330
1F
100
AcDbEntity
  8
0
  6
Continuous
 62
     7
370
    25
100
AcDbPolyline
 90
       24
 70
   128
 43
0.0
 10
427.9408183437
 20
974.2224948228
 10
430.6641513257
 20
974.2548421928
 10
433.3367537669
 20
974.3512817323
 10
435.9088401407
 20
974.5100169553
 10
438.3324973444
 20
974.7280909249
 10
440.5625772302
 20
975.0014413356
 10
442.5575376293
 20
975.3249761865
 10
444.2802162039
 20
975.6926686355
 10
445.6985227118
 20
976.0976692679
 10
446.7860367861
 20
976.5324336883
 10
447.5225000974
 20
976.9888630581
 10
447.8941937275
 20
977.4584549617
 10
447.8941937275
 20
977.9324617905
 10
447.5225000974
 20
978.4020536942
 10
446.7860367861
 20
978.858483064
 10
445.6985227118
 20
979.2932474843
 10
444.2802162039
 20
979.6982481168
 10
442.5575376293
 20
980.0659405658
 10
440.5625772302
 20
980.3894754167
 10
438.3324973444
 20
980.6628258274
 10
435.9088401407
 20
980.880899797
 10
433.3367537669
 20
981.03963502
 10
430.6641513257
 20
981.1360745595
 10
427.9408183437
 20
981.1684219295
  0
LINE
  5
1ED
330
1F
100
AcDbEntity
  8
0
  6
Continuous
 62
     7
370
    25
100
AcDbLine
 10
427.9408183437
 20
981.1684219295
 30
0.0
 11
386.4408183437
 21
981.1684219295
 31
0.0
  0
LINE
  5
1EE
330
1F
100
AcDbEntity
  8
0
  6
Continuous
 62
     7
370
    25
100
AcDbLine
 10
381.4408183437
 20
981.1684219295
 30
0.0
 11
378.5408183437
 21
981.1684219295
 31
0.0
  0
LINE
  5
1EF
330
1F
100
AcDbEntity
  8
0
  6
Continuous
 62
     7
370
    25
100
AcDbLine
 10
373.5408183437
 20
981.1684219295
 30
0.0
 11
371.3408183437
 21
981.1684219295
 31
0.0
  0
LINE
  5
1F0
330
1F
100
AcDbEntity
  8
0
  6
Continuous
 62
     7
370
    25
100
AcDbLine
 10
366.3408183437
 20
981.1684219295
 30
0.0
 11
363.4408183437
 21
981.1684219295
 31
0.0
  0
LINE
  5
1F1
330
1F
100
AcDbEntity
  8
0
  6
Continuous
 62
     7
370
    25
100
AcDbLine
 10
358.4408183437
 20
981.1684219295
 30
0.0
 11
317.9408183437
 21
981.1684219295
 31
0.0
  0
LINE
  5
1F2
330
1F
100
AcDbEntity
  8
0
  6
Continuous
 62
     7
370
    25
100
AcDbLine
 10
671.9408183437
 20
1054.3861024777
 30
0.0
 11
671.9408183437
 21
1051.969484748
 31
0.0
  0
LINE
  5
1F3
330
1F
100
AcDbEntity
  8
0
  6
Continuous
 62
     7
370
    25
100
AcDbLine
 10
269.9408183437
 20
1054.3861024777
 30
0.0
 11
269.9408183437
 21
1051.969484748
 31
0.0
  0
LINE
  5
1F4
330
1F
100
AcDbEntity
  8
0
  6
Continuous
 62
     7
370
    25
100
AcDbLine
 10
649.4408183437
 20
1065.620192971
 30
0.0
 11
648.4408183437
 21
1065.620192971
 31
0.0
  0
ARC
  5
1F5
330
1F
100
AcDbEntity
  8
0
  6
Continuous
 62
     7
370
    25
100
AcDbCircle
 10
648.0909385805
 20
1063.8801328059
 30
0.0
 40
1.77488738435087
100
AcDbArc
 50
78.6309454912
 51
130.3906919069
  0
LINE
  5
1F6
330
1F
100
AcDbEntity
  8
0
  6
Continuous
 62
     7
370
    25
100
AcDbLine
 10
646.9408183437
 20
1065.2319644034
 30
0.0
 11
646.9408183437
 21
1062.9025929975
 31
0.0
  0
ARC
  5
1F7
330
1F
100
AcDbEntity
  8
0
  6
Continuous
 62
     7
370
    25
100
AcDbCircle
 10
648.0909385805
 20
1064.254424595
 30
0.0
 40
1.774887384351306
100
AcDbArc
 50
229.6093080931
 51
281.3690545088
  0
LINE
  5
1F8
330
1F
100
AcDbEntity
  8
0
  6
Continuous
 62
     7
370
    25
100
AcDbLine
 10
648.4408183437
 20
1062.5143644298
 30
0.0
 11
667.4408183437
 21
1062.5143644298
 31
0.0
  0
ARC
  5
1F9
330
1F
100
AcDbEntity
  8
0
  6
Continuous
 62
     7
370
    25
100
AcDbCircle
 10
667.7906981069
 20
1064.254424595
 30
0.0
 40
1.77488738435129
100
AcDbArc
 50
258.6309454912
 51
310.3906919069
  0
LINE
  5
1FA
330
1F
100
AcDbEntity
  8
0
  6
Continuous
 62
     7
370
    25
100
AcDbLine
 10
668.9408183437
 20
1062.9025929975
 30
0.0
 11
668.9408183437
 21
1065.2319644034
 31
0.0
  0
ARC
  5
1FB
330
1F
100
AcDbEntity
  8
0
  6
Continuous
 62
     7
370
    25
100
AcDbCircle
 10
667.7906981069
 20
1063.8801328059
 30
0.0
 40
1.77488738435045
100
AcDbArc
 50
49.609308093
 51
101.3690545088
  0
LINE
  5
1FC
330
1F
100
AcDbEntity
  8
0
  6
Continuous
 62
     7
370
    25
100
AcDbLine
 10
667.4408183437
 20
1065.620192971
 30
0.0
 11
666.4408183437
 21
1065.620192971
 31
0.0
  0
ARC
  5
1FD
330
1F
100
AcDbEntity
  8
0
  6
Continuous
 62
     7
370
    25
100
AcDbCircle
 10
666.0909385805
 20
1067.3602531362
 30
0.0
 40
1.774887384351484
100
AcDbArc
 50
229.6093080931
 51
281.3690545088
  0
LINE
  5
1FE
330
1F
100
AcDbEntity
  8
0
  6
Continuous
 62
     7
370
    25
100
AcDbLine
 10
664.9408183437
 20
1066.0084215387
 30
0.0
 11
664.9408183437
 21
1066.8463220024
 31
0.0
  0
LINE
  5
1FF
330
1F
100
AcDbEntity
  8
0
  6
Continuous
 62
     7
370
    25
100
AcDbLine
 10
671.9408183437
 20
1066.8463220024
 30
0.0
 11
671.9408183437
 21
1054.3861024777
 31
0.0
  0
LINE
  5
200
330
1F
100
AcDbEntity
  8
0
  6
Continuous
 62
     7
370
    25
100
AcDbLine
 10
276.9408183437
 20
1066.8463220024
 30
0.0
 11
276.9408183437
 21
1066.0084215387
 31
0.0
  0
ARC
  5
201
330
1F
100
AcDbEntity
  8
0
  6
Continuous
 62
     7
370
    25
100
AcDbCircle
 10
275.7906981069
 20
1067.3602531362
 30
0.0
 40
1.774887384351896
100
AcDbArc
 50
258.6309454912
 51
310.3906919069
  0
LINE
  5
202
330
1F
100
AcDbEntity
  8
0
  6
Continuous
 62
     7
370
    25
100
AcDbLine
 10
275.4408183437
 20
1065.620192971
 30
0.0
 11
274.4408183437
 21
1065.620192971
 31
0.0
  0
ARC
  5
203
330
1F
100
AcDbEntity
  8
0
  6
Continuous
 62
     7
370
    25
100
AcDbCircle
 10
274.0909385805
 20
1063.8801328059
 30
0.0
 40
1.774887384350476
100
AcDbArc
 50
78.6309454912
 51
130.3906919069
  0
LINE
  5
204
330
1F
100
AcDbEntity
  8
0
  6
Continuous
 62
     7
370
    25
100
AcDbLine
 10
272.9408183437
 20
1065.2319644034
 30
0.0
 11
272.9408183437
 21
1062.9025929975
 31
0.0
  0
ARC
  5
205
330
1F
100
AcDbEntity
  8
0
  6
Continuous
 62
     7
370
    25
100
AcDbCircle
 10
274.0909385805
 20
1064.254424595
 30
0.0
 40
1.774887384352229
100
AcDbArc
 50
229.6093080931
 51
281.3690545088
  0
LINE
  5
206
330
1F
100
AcDbEntity
  8
0
  6
Continuous
 62
     7
370
    25
100
AcDbLine
 10
274.4408183437
 20
1062.5143644298
 30
0.0
 11
293.4408183437
 21
1062.5143644298
 31
0.0
  0
ARC
  5
207
330
1F
100
AcDbEntity
  8
0
  6
Continuous
 62
     7
370
    25
100
AcDbCircle
 10
293.7906981069
 20
1064.254424595
 30
0.0
 40
1.774887384352193
100
AcDbArc
 50
258.6309454912
 51
310.3906919069
  0
LINE
  5
208
330
1F
100
AcDbEntity
  8
0
  6
Continuous
 62
     7
370
    25
100
AcDbLine
 10
294.9408183437
 20
1062.9025929975
 30
0.0
 11
294.9408183437
 21
1065.2319644034
 31
0.0
  0
ARC
  5
209
330
1F
100
AcDbEntity
  8
0
  6
Continuous
 62
     7
370
    25
100
AcDbCircle
 10
293.7906981069
 20
1063.8801328059
 30
0.0
 40
1.774887384349636
100
AcDbArc
 50
49.609308093
 51
101.3690545088
  0
LINE
  5
20A
330
1F
100
AcDbEntity
  8
0
  6
Continuous
 62
     7
370
    25
100
AcDbLine
 10
293.4408183437
 20
1065.620192971
 30
0.0
 11
292.4408183437
 21
1065.620192971
 31
0.0
  0
ARC
  5
20B
330
1F
100
AcDbEntity
  8
0
  6
Continuous
 62
     7
370
    25
100
AcDbCircle
 10
292.0909385805
 20
1067.3602531362
 30
0.0
 40
1.774887384351896
100
AcDbArc
 50
229.6093080931
 51
281.3690545088
  0
LINE
  5
20C
330
1F
100
AcDbEntity
  8
0
  6
Continuous
 62
     7
370
    25
100
AcDbLine
 10
290.9408183437
 20
1066.0084215387
 30
0.0
 11
290.9408183437
 21
1066.8463220024
 31
0.0
  0
LINE
  5
20D
330
1F
100
AcDbEntity
  8
0
  6
Continuous
 62
     7
370
    25
100
AcDbLine
 10
650.9408183437
 20
1066.0084215387
 30
0.0
 11
650.9408183437
 21
1066.8463220024
 31
0.0
  0
ARC
  5
20E
330
1F
100
AcDbEntity
  8
0
  6
Continuous
 62
     7
370
    25
100
AcDbCircle
 10
649.7906981069
 20
1067.3602531362
 30
0.0
 40
1.77488738435129
100
AcDbArc
 50
258.6309454912
 51
310.3906919069
  0
LWPOLYLINE
  5
20F
330
1F
100
AcDbEntity
  8
0
  6
Continuous
 62
     7
370
    25
100
AcDbPolyline
 90
       16
 70
   128
 43
0.0
 10
502.9408183437
 20
1060.8565786053
 10
501.0696131264
 20
1060.8056762513
 10
499.280188556
 20
1060.6551938664
 10
497.6507510731
 20
1060.411708253
 10
496.2525149144
 20
1060.0858609007
 10
495.1465897097
 20
1059.6918929023
 10
494.3813096971
 20
1059.24702255
 10
493.9901212854
 20
1058.7706928128
 10
493.9901212854
 20
1058.2837215859
 10
494.3813096971
 20
1057.8073918487
 10
495.1465897097
 20
1057.3625214964
 10
496.2525149144
 20
1056.9685534981
 10
497.6507510731
 20
1056.6427061458
 10
499.280188556
 20
1056.3992205323
 10
501.0696131264
 20
1056.2487381475
 10
502.9408183437
 20
1056.1978357935
  0
LINE
  5
210
330
1F
100
AcDbEntity
  8
0
  6
Continuous
 62
     7
370
    25
100
AcDbLine
 10
502.9408183437
 20
1056.1978357935
 30
0.0
 11
546.035259538
 21
1056.1978357935
 31
0.0
  0
LINE
  5
211
330
1F
100
AcDbEntity
  8
0
  6
Continuous
 62
     7
370
    25
100
AcDbLine
 10
554.2764592847
 20
1056.1978357935
 30
0.0
 11
584.6416782083
 21
1056.1978357935
 31
0.0
  0
LINE
  5
212
330
1F
100
AcDbEntity
  8
0
  6
Continuous
 62
     7
370
    25
100
AcDbLine
 10
592.8263813369
 20
1056.1978357935
 30
0.0
 11
634.9408183437
 21
1056.1978357935
 31
0.0
  0
LWPOLYLINE
  5
213
330
1F
100
AcDbEntity
  8
0
  6
Continuous
 62
     7
370
    25
100
AcDbPolyline
 90
       16
 70
   128
 43
0.0
 10
634.9408183437
 20
1056.1978357935
 10
636.8120235611
 20
1056.2487381475
 10
638.6014481314
 20
1056.3992205323
 10
640.2308856144
 20
1056.6427061458
 10
641.629121773
 20
1056.9685534981
 10
642.7350469778
 20
1057.3625214964
 10
643.5003269904
 20
1057.8073918487
 10
643.891515402
 20
1058.2837215859
 10
643.891515402
 20
1058.7706928128
 10
643.5003269904
 20
1059.24702255
 10
642.7350469778
 20
1059.6918929023
 10
641.629121773
 20
1060.0858609007
 10
640.2308856144
 20
1060.411708253
 10
638.6014481314
 20
1060.6551938664
 10
636.8120235611
 20
1060.8056762513
 10
634.9408183437
 20
1060.8565786053
  0
LINE
  5
214
330
1F
100
AcDbEntity
  8
0
  6
Continuous
 62
     7
370
    25
100
AcDbLine
 10
634.9408183437
 20
1060.8565786053
 30
0.0
 11
586.4734277456
 21
1060.8565786053
 31
0.0
  0
LINE
  5
215
330
1F
100
AcDbEntity
  8
0
  6
Continuous
 62
     7
370
    25
100
AcDbLine
 10
552.4391956013
 20
1060.8565786053
 30
0.0
 11
502.9408183437
 21
1060.8565786053
 31
0.0
  0
LWPOLYLINE
  5
216
330
1F
100
AcDbEntity
  8
0
  6
Continuous
 62
     7
370
    25
100
AcDbPolyline
 90
       16
 70
   128
 43
0.0
 10
306.9408183437
 20
1060.8565786053
 10
305.0696131264
 20
1060.8056762513
 10
303.280188556
 20
1060.6551938664
 10
301.6507510731
 20
1060.411708253
 10
300.2525149144
 20
1060.0858609007
 10
299.1465897097
 20
1059.6918929023
 10
298.3813096971
 20
1059.24702255
 10
297.9901212854
 20
1058.7706928128
 10
297.9901212854
 20
1058.2837215859
 10
298.3813096971
 20
1057.8073918487
 10
299.1465897097
 20
1057.3625214964
 10
300.2525149144
 20
1056.9685534981
 10
301.6507510731
 20
1056.6427061458
 10
303.280188556
 20
1056.3992205323
 10
305.0696131264
 20
1056.2487381475
 10
306.9408183437
 20
1056.1978357935
  0
LINE
  5
217
330
1F
100
AcDbEntity
  8
0
  6
Continuous
 62
     7
370
    25
100
AcDbLine
 10
306.9408183437
 20
1056.1978357935
 30
0.0
 11
348.770535107
 21
1056.1978357935
 31
0.0
  0
LINE
  5
218
330
1F
100
AcDbEntity
  8
0
  6
Continuous
 62
     7
370
    25
100
AcDbLine
 10
356.4591311934
 20
1056.1978357935
 30
0.0
 11
388.3925612035
 21
1056.1978357935
 31
0.0
  0
LINE
  5
219
330
1F
100
AcDbEntity
  8
0
  6
Continuous
 62
     7
370
    25
100
AcDbLine
 10
396.138473054
 20
1056.1978357935
 30
0.0
 11
438.9408183437
 21
1056.1978357935
 31
0.0
  0
LWPOLYLINE
  5
21A
330
1F
100
AcDbEntity
  8
0
  6
Continuous
 62
     7
370
    25
100
AcDbPolyline
 90
       16
 70
   128
 43
0.0
 10
438.9408183437
 20
1056.1978357935
 10
440.8120235611
 20
1056.2487381475
 10
442.6014481314
 20
1056.3992205323
 10
444.2308856144
 20
1056.6427061458
 10
445.629121773
 20
1056.9685534981
 10
446.7350469778
 20
1057.3625214964
 10
447.5003269904
 20
1057.8073918487
 10
447.891515402
 20
1058.2837215859
 10
447.891515402
 20
1058.7706928128
 10
447.5003269904
 20
1059.24702255
 10
446.7350469778
 20
1059.6918929023
 10
445.629121773
 20
1060.0858609007
 10
444.2308856144
 20
1060.411708253
 10
442.6014481314
 20
1060.6551938664
 10
440.8120235611
 20
1060.8056762513
 10
438.9408183437
 20
1060.8565786053
  0
LINE
  5
21B
330
1F
100
AcDbEntity
  8
0
  6
Continuous
 62
     7
370
    25
100
AcDbLine
 10
438.9408183437
 20
1060.8565786053
 30
0.0
 11
390.264150872
 21
1060.8565786053
 31
0.0
  0
LINE
  5
21C
330
1F
100
AcDbEntity
  8
0
  6
Continuous
 62
     7
370
    25
100
AcDbLine
 10
354.6200253656
 20
1060.8565786053
 30
0.0
 11
306.9408183437
 21
1060.8565786053
 31
0.0
  0
LINE
  5
21D
330
1F
100
AcDbEntity
  8
0
  6
Continuous
 62
     7
370
    25
100
AcDbLine
 10
269.9408183437
 20
1066.8463220024
 30
0.0
 11
269.9408183437
 21
1054.3861024777
 31
0.0
  0
LWPOLYLINE
  5
21E
330
1F
100
AcDbEntity
  8
0
  6
Continuous
 62
     7
370
    25
100
AcDbPolyline
 90
       11
 70
   128
 43
0.0
 10
298.3983500651
 20
978.434064191
 10
299.0955999014
 20
978.0096453178
 10
300.1831139757
 20
977.5748808975
 10
301.6014204835
 20
977.169880265
 10
303.3240990582
 20
976.802187816
 10
305.3190594572
 20
976.4786529651
 10
307.549139343
 20
976.2053025544
 10
309.9727965468
 20
975.9872285848
 10
312.5448829206
 20
975.8284933618
 10
315.2174853618
 20
975.7320538223
 10
317.9408183437
 20
975.6997064523
  0
LWPOLYLINE
  5
21F
330
1F
100
AcDbEntity
  8
0
  6
Continuous
 62
     7
370
    25
100
AcDbPolyline
 90
       11
 70
   128
 43
0.0
 10
427.9408183437
 20
975.6997064523
 10
430.6641513257
 20
975.7320538223
 10
433.3367537669
 20
975.8284933618
 10
435.9088401407
 20
975.9872285848
 10
438.3324973444
 20
976.2053025544
 10
440.5625772302
 20
976.4786529651
 10
442.5575376293
 20
976.802187816
 10
444.2802162039
 20
977.169880265
 10
445.6985227118
 20
977.5748808975
 10
446.7860367861
 20
978.0096453178
 10
447.4832866222
 20
978.4340641908
  0
LWPOLYLINE
  5
220
330
1F
100
AcDbEntity
  8
0
  6
Continuous
 62
     7
370
    25
100
AcDbPolyline
 90
       11
 70
   128
 43
0.0
 10
494.3983500651
 20
978.4340641909
 10
495.0955999014
 20
978.0096453178
 10
496.1831139757
 20
977.5748808975
 10
497.6014204835
 20
977.169880265
 10
499.3240990582
 20
976.802187816
 10
501.3190594572
 20
976.4786529651
 10
503.549139343
 20
976.2053025544
 10
505.9727965468
 20
975.9872285848
 10
508.5448829206
 20
975.8284933618
 10
511.2174853618
 20
975.7320538223
 10
513.9408183437
 20
975.6997064523
  0
LWPOLYLINE
  5
221
330
1F
100
AcDbEntity
  8
0
  6
Continuous
 62
     7
370
    25
100
AcDbPolyline
 90
       11
 70
   128
 43
0.0
 10
623.9408183437
 20
975.6997064523
 10
626.6641513257
 20
975.7320538223
 10
629.3367537669
 20
975.8284933618
 10
631.9088401407
 20
975.9872285848
 10
634.3324973444
 20
976.2053025544
 10
636.5625772302
 20
976.4786529651
 10
638.5575376293
 20
976.802187816
 10
640.2802162039
 20
977.169880265
 10
641.6985227118
 20
977.5748808975
 10
642.7860367861
 20
978.0096453178
 10
643.4832866223
 20
978.4340641909
  0
ARC
  5
222
330
1F
100
AcDbEntity
  8
0
  6
Continuous
 62
     7
370
    25
100
AcDbCircle
 10
305.6655734284
 20
1042.6078261551
 30
0.0
 40
16.84819486755206
100
AcDbArc
 50
85.659113703
 51
115.5945961567
  0
ARC
  5
223
330
1F
100
AcDbEntity
  8
0
  6
Continuous
 62
     7
370
    25
100
AcDbCircle
 10
440.2160632591
 20
1042.607826155
 30
0.0
 40
16.84819486764214
100
AcDbArc
 50
64.4054038434
 51
94.3408862969
  0
ARC
  5
224
330
1F
100
AcDbEntity
  8
0
  6
Continuous
 62
     7
370
    25
100
AcDbCircle
 10
501.6655734284
 20
1042.6078261555
 30
0.0
 40
16.84819486717052
100
AcDbArc
 50
85.6591137028
 51
115.5945961575
  0
ARC
  5
225
330
1F
100
AcDbEntity
  8
0
  6
Continuous
 62
     7
370
    25
100
AcDbCircle
 10
636.2160632591
 20
1042.6078261558
 30
0.0
 40
16.8481948668745
100
AcDbArc
 50
64.4054038419
 51
94.3408862974
  0
LINE
  5
226
330
1F
100
AcDbEntity
  8
0
  6
Continuous
 62
     7
370
    25
100
AcDbLine
 10
438.9408183437
 20
1059.4076898659
 30
0.0
 11
392.7228447694
 21
1059.4076898659
 31
0.0
  0
LINE
  5
227
330
1F
100
AcDbEntity
  8
0
  6
Continuous
 62
     7
370
    25
100
AcDbLine
 10
352.1152213093
 20
1059.4076898659
 30
0.0
 11
306.9408183437
 21
1059.4076898659
 31
0.0
  0
LINE
  5
228
330
1F
100
AcDbEntity
  8
0
  6
Continuous
 62
     7
370
    25
100
AcDbLine
 10
634.9408183437
 20
1059.4076898659
 30
0.0
 11
589.1314582529
 21
1059.4076898659
 31
0.0
  0
LINE
  5
229
330
1F
100
AcDbEntity
  8
0
  6
Continuous
 62
     7
370
    25
100
AcDbLine
 10
549.7603904108
 20
1059.4076898659
 30
0.0
 11
502.9408183437
 21
1059.4076898659
 31
0.0
  0
LINE
  5
22A
330
1F
100
AcDbEntity
  8
0
  6
Continuous
 62
     7
370
    25
100
AcDbLine
 10
317.9408183437
 20
975.6997064523
 30
0.0
 11
358.4408183437
 21
975.6997064523
 31
0.0
  0
LINE
  5
22B
330
1F
100
AcDbEntity
  8
0
  6
Continuous
 62
     7
370
    25
100
AcDbLine
 10
363.4408183437
 20
975.6997064523
 30
0.0
 11
366.3408183437
 21
975.6997064523
 31
0.0
  0
LINE
  5
22C
330
1F
100
AcDbEntity
  8
0
  6
Continuous
 62
     7
370
    25
100
AcDbLine
 10
371.3408183437
 20
975.6997064523
 30
0.0
 11
373.5408183437
 21
975.6997064523
 31
0.0
  0
LINE
  5
22D
330
1F
100
AcDbEntity
  8
0
  6
Continuous
 62
     7
370
    25
100
AcDbLine
 10
378.5408183437
 20
975.6997064523
 30
0.0
 11
381.4408183437
 21
975.6997064523
 31
0.0
  0
LINE
  5
22E
330
1F
100
AcDbEntity
  8
0
  6
Continuous
 62
     7
370
    25
100
AcDbLine
 10
386.4408183437
 20
975.6997064523
 30
0.0
 11
427.9408183437
 21
975.6997064523
 31
0.0
  0
LINE
  5
22F
330
1F
100
AcDbEntity
  8
0
  6
Continuous
 62
     7
370
    25
100
AcDbLine
 10
513.9408183437
 20
975.6997064523
 30
0.0
 11
555.4408183438
 21
975.6997064523
 31
0.0
  0
LINE
  5
230
330
1F
100
AcDbEntity
  8
0
  6
Continuous
 62
     7
370
    25
100
AcDbLine
 10
560.4408183438
 20
975.6997064523
 30
0.0
 11
563.3408183438
 21
975.6997064523
 31
0.0
  0
LINE
  5
231
330
1F
100
AcDbEntity
  8
0
  6
Continuous
 62
     7
370
    25
100
AcDbLine
 10
568.3408183438
 20
975.6997064523
 30
0.0
 11
570.5408183438
 21
975.6997064523
 31
0.0
  0
LINE
  5
232
330
1F
100
AcDbEntity
  8
0
  6
Continuous
 62
     7
370
    25
100
AcDbLine
 10
575.5408183438
 20
975.6997064523
 30
0.0
 11
578.4408183438
 21
975.6997064523
 31
0.0
  0
LINE
  5
233
330
1F
100
AcDbEntity
  8
0
  6
Continuous
 62
     7
370
    25
100
AcDbLine
 10
583.4408183438
 20
975.6997064523
 30
0.0
 11
623.9408183437
 21
975.6997064523
 31
0.0
  0
ARC
  5
234
330
1F
100
AcDbEntity
  8
0
  6
Continuous
 62
     7
370
    25
100
AcDbCircle
 10
274.0909385805
 20
1062.4312440664
 30
0.0
 40
1.774887384350413
100
AcDbArc
 50
78.6309454912
 51
130.390691907
  0
ARC
  5
235
330
1F
100
AcDbEntity
  8
0
  6
Continuous
 62
     7
370
    25
100
AcDbCircle
 10
293.7906981069
 20
1062.4312440664
 30
0.0
 40
1.774887384349573
100
AcDbArc
 50
49.609308093
 51
101.3690545088
  0
ARC
  5
236
330
1F
100
AcDbEntity
  8
0
  6
Continuous
 62
     7
370
    25
100
AcDbCircle
 10
648.0909385805
 20
1062.4312440664
 30
0.0
 40
1.774887384349835
100
AcDbArc
 50
78.6309454912
 51
130.390691907
  0
ARC
  5
237
330
1F
100
AcDbEntity
  8
0
  6
Continuous
 62
     7
370
    25
100
AcDbCircle
 10
667.7906981069
 20
1062.4312440664
 30
0.0
 40
1.774887384348943
100
AcDbArc
 50
49.609308093
 51
101.3690545088
  0
LINE
  5
238
330
1F
100
AcDbEntity
  8
0
  6
Continuous
 62
     7
370
    25
100
AcDbLine
 10
290.9408183437
 20
1064.5595327993
 30
0.0
 11
290.9408183437
 21
1066.0084215387
 31
0.0
  0
ARC
  5
239
330
1F
100
AcDbEntity
  8
0
  6
Continuous
 62
     7
370
    25
100
AcDbCircle
 10
292.0909385805
 20
1065.9113643968
 30
0.0
 40
1.774887384351518
100
AcDbArc
 50
229.6093080931
 51
281.3690545088
  0
LINE
  5
23A
330
1F
100
AcDbEntity
  8
0
  6
Continuous
 62
     7
370
    25
100
AcDbLine
 10
276.9408183437
 20
1064.5595327993
 30
0.0
 11
276.9408183437
 21
1066.0084215387
 31
0.0
  0
ARC
  5
23B
330
1F
100
AcDbEntity
  8
0
  6
Continuous
 62
     7
370
    25
100
AcDbCircle
 10
275.7906981069
 20
1065.9113643968
 30
0.0
 40
1.77488738435066
100
AcDbArc
 50
258.6309454912
 51
310.3906919069
  0
LINE
  5
23C
330
1F
100
AcDbEntity
  8
0
  6
Continuous
 62
     7
370
    25
100
AcDbLine
 10
275.4408183437
 20
1064.1713042316
 30
0.0
 11
274.4408183437
 21
1064.1713042316
 31
0.0
  0
LINE
  5
23D
330
1F
100
AcDbEntity
  8
0
  6
Continuous
 62
     7
370
    25
100
AcDbLine
 10
293.4408183437
 20
1064.1713042316
 30
0.0
 11
292.4408183437
 21
1064.1713042316
 31
0.0
  0
LINE
  5
23E
330
1F
100
AcDbEntity
  8
0
  6
Continuous
 62
     7
370
    25
100
AcDbLine
 10
667.4408183437
 20
1064.1713042316
 30
0.0
 11
666.4408183437
 21
1064.1713042316
 31
0.0
  0
LINE
  5
23F
330
1F
100
AcDbEntity
  8
0
  6
Continuous
 62
     7
370
    25
100
AcDbLine
 10
664.9408183437
 20
1064.5595327993
 30
0.0
 11
664.9408183437
 21
1066.0084215387
 31
0.0
  0
ARC
  5
240
330
1F
100
AcDbEntity
  8
0
  6
Continuous
 62
     7
370
    25
100
AcDbCircle
 10
666.0909385805
 20
1065.9113643968
 30
0.0
 40
1.774887384353646
100
AcDbArc
 50
229.6093080931
 51
281.3690545088
  0
LINE
  5
241
330
1F
100
AcDbEntity
  8
0
  6
Continuous
 62
     7
370
    25
100
AcDbLine
 10
650.9408183437
 20
1064.5595327993
 30
0.0
 11
650.9408183437
 21
1066.0084215387
 31
0.0
  0
ARC
  5
242
330
1F
100
AcDbEntity
  8
0
  6
Continuous
 62
     7
370
    25
100
AcDbCircle
 10
649.7906981069
 20
1065.9113643968
 30
0.0
 40
1.7748873843532
100
AcDbArc
 50
258.6309454912
 51
310.3906919069
  0
LINE
  5
243
330
1F
100
AcDbEntity
  8
0
  6
Continuous
 62
     7
370
    25
100
AcDbLine
 10
649.4408183437
 20
1064.1713042316
 30
0.0
 11
648.4408183437
 21
1064.1713042316
 31
0.0
  0
LINE
  5
244
330
1F
100
AcDbEntity
  8
0
  6
Continuous
 62
     7
370
    25
100
AcDbLine
 10
671.9408183437
 20
973.1282869327
 30
0.0
 11
671.9408183437
 21
971.8972772414
 31
0.0
  0
LINE
  5
245
330
1F
100
AcDbEntity
  8
0
  6
Continuous
 62
     7
370
    25
100
AcDbLine
 10
269.9408183437
 20
973.1282869327
 30
0.0
 11
269.9408183437
 21
971.8972772414
 31
0.0
  0
LINE
  5
246
330
1F
100
AcDbEntity
  8
0
  6
Continuous
 62
     7
370
    25
100
AcDbLine
 10
276.9408183437
 20
1067.6971657111
 30
0.0
 11
277.0266047814
 21
1068.0537292852
 31
0.0
  0
LINE
  5
247
330
1F
100
AcDbEntity
  8
0
  6
Continuous
 62
     7
370
    25
100
AcDbLine
 10
276.9408183437
 20
1066.8463220024
 30
0.0
 11
276.9408183437
 21
1067.6971657111
 31
0.0
  0
LINE
  5
248
330
1F
100
AcDbEntity
  8
0
  6
Continuous
 62
     7
370
    25
100
AcDbLine
 10
269.9408183437
 20
1068.0537292852
 30
0.0
 11
269.9408183437
 21
1066.8463220024
 31
0.0
  0
LINE
  5
249
330
1F
100
AcDbEntity
  8
0
  6
Continuous
 62
     7
370
    25
100
AcDbLine
 10
290.8550319061
 20
1068.0537292852
 30
0.0
 11
290.9408183437
 21
1067.6971657111
 31
0.0
  0
LINE
  5
24A
330
1F
100
AcDbEntity
  8
0
  6
Continuous
 62
     7
370
    25
100
AcDbLine
 10
650.9408183437
 20
1067.6971657111
 30
0.0
 11
651.0266047814
 21
1068.0537292852
 31
0.0
  0
LINE
  5
24B
330
1F
100
AcDbEntity
  8
0
  6
Continuous
 62
     7
370
    25
100
AcDbLine
 10
650.9408183437
 20
1066.8463220024
 30
0.0
 11
650.9408183437
 21
1067.6971657111
 31
0.0
  0
LINE
  5
24C
330
1F
100
AcDbEntity
  8
0
  6
Continuous
 62
     7
370
    25
100
AcDbLine
 10
290.9408183437
 20
1067.6971657111
 30
0.0
 11
290.9408183437
 21
1066.8463220024
 31
0.0
  0
LINE
  5
24D
330
1F
100
AcDbEntity
  8
0
  6
Continuous
 62
     7
370
    25
100
AcDbLine
 10
664.9408183437
 20
1067.6971657111
 30
0.0
 11
664.9408183437
 21
1066.8463220024
 31
0.0
  0
LINE
  5
24E
330
1F
100
AcDbEntity
  8
0
  6
Continuous
 62
     7
370
    25
100
AcDbLine
 10
664.8550319061
 20
1068.0537292852
 30
0.0
 11
664.9408183437
 21
1067.6971657111
 31
0.0
  0
LINE
  5
24F
330
1F
100
AcDbEntity
  8
0
  6
Continuous
 62
     7
370
    25
100
AcDbLine
 10
671.9408183437
 20
1066.8463220024
 30
0.0
 11
671.9408183437
 21
1068.0537292852
 31
0.0
  0
LINE
  5
250
330
1F
100
AcDbEntity
  8
0
  6
Continuous
 62
     7
370
    25
100
AcDbLine
 10
290.8550319061
 20
1068.0537292852
 30
0.0
 11
290.9408183437
 21
1067.2692894221
 31
0.0
  0
LINE
  5
251
330
1F
100
AcDbEntity
  8
0
  6
Continuous
 62
     7
370
    25
100
AcDbLine
 10
276.9408183437
 20
1067.2692894221
 30
0.0
 11
277.0266047814
 21
1068.0537292852
 31
0.0
  0
LINE
  5
252
330
1F
100
AcDbEntity
  8
0
  6
Continuous
 62
     7
370
    25
100
AcDbLine
 10
664.8550319061
 20
1068.0537292852
 30
0.0
 11
664.9408183437
 21
1067.2692894221
 31
0.0
  0
LINE
  5
253
330
1F
100
AcDbEntity
  8
0
  6
Continuous
 62
     7
370
    25
100
AcDbLine
 10
650.9408183437
 20
1067.2692894221
 30
0.0
 11
651.0266047814
 21
1068.0537292852
 31
0.0
  0
LINE
  5
254
330
1F
100
AcDbEntity
  8
0
  6
Continuous
 62
     7
370
    25
100
AcDbLine
 10
289.4408183437
 20
1069.0537292852
 30
0.0
 11
289.0408183437
 21
1069.0537292852
 31
0.0
  0
ARC
  5
255
330
1F
100
AcDbEntity
  8
0
  6
Continuous
 62
     7
370
    25
100
AcDbCircle
 10
289.0408183437
 20
1070.5537292852
 30
0.0
 40
1.5
100
AcDbArc
 50
180.0
 51
270.0
  0
LINE
  5
256
330
1F
100
AcDbEntity
  8
0
  6
Continuous
 62
     7
370
    25
100
AcDbLine
 10
287.5408183437
 20
1070.5537292852
 30
0.0
 11
287.5408183437
 21
1073.898925349
 31
0.0
  0
LINE
  5
257
330
1F
100
AcDbEntity
  8
0
  6
Continuous
 62
     7
370
    25
100
AcDbLine
 10
280.3408183437
 20
1074.1575862198
 30
0.0
 11
280.3408183437
 21
1070.5537292852
 31
0.0
  0
ARC
  5
258
330
1F
100
AcDbEntity
  8
0
  6
Continuous
 62
     7
370
    25
100
AcDbCircle
 10
278.8408183437
 20
1070.5537292852
 30
0.0
 40
1.5
100
AcDbArc
 50
270.0
 51
0.0
  0
LINE
  5
259
330
1F
100
AcDbEntity
  8
0
  6
Continuous
 62
     7
370
    25
100
AcDbLine
 10
278.8408183437
 20
1069.0537292852
 30
0.0
 11
278.4408183437
 21
1069.0537292852
 31
0.0
  0
LINE
  5
25A
330
1F
100
AcDbEntity
  8
0
  6
Continuous
 62
     7
370
    25
100
AcDbLine
 10
269.9408183437
 20
1104.0945800683
 30
0.0
 11
269.9408183437
 21
1068.0537292852
 31
0.0
  0
ARC
  5
25B
330
1F
100
AcDbEntity
  8
0
  6
Continuous
 62
     7
370
    25
100
AcDbCircle
 10
274.9408183437
 20
1104.0945800683
 30
0.0
 40
5.0
100
AcDbArc
 50
90.0
 51
180.0
  0
LINE
  5
25C
330
1F
100
AcDbEntity
  8
0
  6
Continuous
 62
     7
370
    25
100
AcDbLine
 10
666.9408183437
 20
1109.0945800683
 30
0.0
 11
274.9408183437
 21
1109.0945800683
 31
0.0
  0
ARC
  5
25D
330
1F
100
AcDbEntity
  8
0
  6
Continuous
 62
     7
370
    25
100
AcDbCircle
 10
666.9408183437
 20
1104.0945800683
 30
0.0
 40
5.0
100
AcDbArc
 50
0.0
 51
90.0
  0
LINE
  5
25E
330
1F
100
AcDbEntity
  8
0
  6
Continuous
 62
     7
370
    25
100
AcDbLine
 10
671.9408183437
 20
1104.0945800683
 30
0.0
 11
671.9408183437
 21
1068.0537292852
 31
0.0
  0
ARC
  5
25F
330
1F
100
AcDbEntity
  8
0
  6
Continuous
 62
     7
370
    25
100
AcDbCircle
 10
663.4408183437
 20
1067.5537292852
 30
0.0
 40
1.500000000000011
100
AcDbArc
 50
19.4712206345
 51
90.0
  0
LINE
  5
260
330
1F
100
AcDbEntity
  8
0
  6
Continuous
 62
     7
370
    25
100
AcDbLine
 10
663.4408183437
 20
1069.0537292852
 30
0.0
 11
663.0408183437
 21
1069.0537292852
 31
0.0
  0
ARC
  5
261
330
1F
100
AcDbEntity
  8
0
  6
Continuous
 62
     7
370
    25
100
AcDbCircle
 10
663.0408183437
 20
1070.5537292852
 30
0.0
 40
1.500000000000114
100
AcDbArc
 50
180.0
 51
270.0
  0
LINE
  5
262
330
1F
100
AcDbEntity
  8
0
  6
Continuous
 62
     7
370
    25
100
AcDbLine
 10
661.5408183437
 20
1070.5537292852
 30
0.0
 11
661.5408183437
 21
1073.898925349
 31
0.0
  0
LINE
  5
263
330
1F
100
AcDbEntity
  8
0
  6
Continuous
 62
     7
370
    25
100
AcDbLine
 10
654.3408183437
 20
1074.1575862198
 30
0.0
 11
654.3408183437
 21
1070.5537292852
 31
0.0
  0
ARC
  5
264
330
1F
100
AcDbEntity
  8
0
  6
Continuous
 62
     7
370
    25
100
AcDbCircle
 10
652.8408183437
 20
1070.5537292852
 30
0.0
 40
1.500000000000114
100
AcDbArc
 50
270.0
 51
0.0
  0
LINE
  5
265
330
1F
100
AcDbEntity
  8
0
  6
Continuous
 62
     7
370
    25
100
AcDbLine
 10
652.8408183437
 20
1069.0537292852
 30
0.0
 11
652.4408183437
 21
1069.0537292852
 31
0.0
  0
ARC
  5
266
330
1F
100
AcDbEntity
  8
0
  6
Continuous
 62
     7
370
    25
100
AcDbCircle
 10
652.4408183437
 20
1067.5537292852
 30
0.0
 40
1.500000000000118
100
AcDbArc
 50
90.0
 51
160.5287793655
  0
ARC
  5
267
330
1F
100
AcDbEntity
  8
0
  6
Continuous
 62
     7
370
    25
100
AcDbCircle
 10
289.4408183437
 20
1067.5537292852
 30
0.0
 40
1.500000000000011
100
AcDbArc
 50
19.4712206345
 51
90.0
  0
ARC
  5
268
330
1F
100
AcDbEntity
  8
0
  6
Continuous
 62
     7
370
    25
100
AcDbCircle
 10
278.4408183437
 20
1067.5537292852
 30
0.0
 40
1.5
100
AcDbArc
 50
90.0
 51
160.5287793655
  0
LINE
  5
269
330
1F
100
AcDbEntity
  8
0
  6
Continuous
 62
     7
370
    25
100
AcDbLine
 10
269.9408183437
 20
971.8972772414
 30
0.0
 11
269.9408183437
 21
965.0585585088
 31
0.0
  0
LINE
  5
26A
330
1F
100
AcDbEntity
  8
0
  6
Continuous
 62
     7
370
    25
100
AcDbLine
 10
671.9408183437
 20
971.8972772414
 30
0.0
 11
671.9408183437
 21
965.1260211782
 31
0.0
  0
LINE
  5
26B
330
1F
100
AcDbEntity
  8
0
  6
Continuous
 62
     7
370
    25
100
AcDbLine
 10
656.3477482516
 20
948.9458012272
 30
0.0
 11
583.4408183438
 21
948.9458012272
 31
0.0
  0
LINE
  5
26C
330
1F
100
AcDbEntity
  8
0
  6
Continuous
 62
     7
370
    25
100
AcDbLine
 10
578.4408183438
 20
948.9458012272
 30
0.0
 11
575.5408183438
 21
948.9458012272
 31
0.0
  0
LINE
  5
26D
330
1F
100
AcDbEntity
  8
0
  6
Continuous
 62
     7
370
    25
100
AcDbLine
 10
570.5408183438
 20
948.9458012272
 30
0.0
 11
568.3408183438
 21
948.9458012272
 31
0.0
  0
LINE
  5
26E
330
1F
100
AcDbEntity
  8
0
  6
Continuous
 62
     7
370
    25
100
AcDbLine
 10
563.3408183438
 20
948.9458012272
 30
0.0
 11
560.4408183438
 21
948.9458012272
 31
0.0
  0
LINE
  5
26F
330
1F
100
AcDbEntity
  8
0
  6
Continuous
 62
     7
370
    25
100
AcDbLine
 10
555.4408183438
 20
948.9458012272
 30
0.0
 11
478.4408183437
 21
948.9458012272
 31
0.0
  0
LINE
  5
270
330
1F
100
AcDbEntity
  8
0
  6
Continuous
 62
     7
370
    25
100
AcDbLine
 10
463.4408183437
 20
948.9458012272
 30
0.0
 11
386.4408183437
 21
948.9458012272
 31
0.0
  0
LINE
  5
271
330
1F
100
AcDbEntity
  8
0
  6
Continuous
 62
     7
370
    25
100
AcDbLine
 10
381.4408183437
 20
948.9458012272
 30
0.0
 11
378.5408183437
 21
948.9458012272
 31
0.0
  0
LINE
  5
272
330
1F
100
AcDbEntity
  8
0
  6
Continuous
 62
     7
370
    25
100
AcDbLine
 10
373.5408183437
 20
948.9458012272
 30
0.0
 11
371.3408183437
 21
948.9458012272
 31
0.0
  0
LINE
  5
273
330
1F
100
AcDbEntity
  8
0
  6
Continuous
 62
     7
370
    25
100
AcDbLine
 10
366.3408183437
 20
948.9458012272
 30
0.0
 11
363.4408183437
 21
948.9458012272
 31
0.0
  0
LINE
  5
274
330
1F
100
AcDbEntity
  8
0
  6
Continuous
 62
     7
370
    25
100
AcDbLine
 10
358.4408183437
 20
948.9458012272
 30
0.0
 11
285.5340277825
 21
948.9458012272
 31
0.0
  0
LINE
  5
275
330
1F
100
AcDbEntity
  8
0
  6
Continuous
 62
     7
370
    25
100
AcDbLine
 10
647.9675231979
 20
1083.7625368745
 30
0.0
 11
648.4815951688
 21
1084.2085262449
 31
0.0
  0
LINE
  5
276
330
1F
100
AcDbEntity
  8
0
  6
Continuous
 62
     7
370
    25
100
AcDbLine
 10
648.4815951688
 20
1084.2085262449
 30
0.0
 11
648.0875951925
 21
1084.7516443355
 31
0.0
  0
LINE
  5
277
330
1F
100
AcDbEntity
  8
0
  6
Continuous
 62
     7
370
    25
100
AcDbLine
 10
648.0881108041
 20
1084.754663927
 30
0.0
 11
648.6441392104
 21
1085.1471036385
 31
0.0
  0
LINE
  5
278
330
1F
100
AcDbEntity
  8
0
  6
Continuous
 62
     7
370
    25
100
AcDbLine
 10
648.6441392104
 20
1085.1471036385
 30
0.0
 11
648.3063289274
 21
1085.7268427649
 31
0.0
  0
LINE
  5
279
330
1F
100
AcDbEntity
  8
0
  6
Continuous
 62
     7
370
    25
100
AcDbLine
 10
648.3071434193
 20
1085.7297957955
 30
0.0
 11
648.8995725968
 21
1086.0647647276
 31
0.0
  0
LINE
  5
27A
330
1F
100
AcDbEntity
  8
0
  6
Continuous
 62
     7
370
    25
100
AcDbLine
 10
648.8995725968
 20
1086.0647647276
 30
0.0
 11
648.621327296
 21
1086.6753323277
 31
0.0
  0
LINE
  5
27B
330
1F
100
AcDbEntity
  8
0
  6
Continuous
 62
     7
370
    25
100
AcDbLine
 10
648.6224325299
 20
1086.6781892921
 30
0.0
 11
649.2453431221
 21
1086.9523405458
 31
0.0
  0
LINE
  5
27C
330
1F
100
AcDbEntity
  8
0
  6
Continuous
 62
     7
370
    25
100
AcDbLine
 10
649.2453431221
 20
1086.9523405458
 30
0.0
 11
649.0294429383
 21
1087.5876360303
 31
0.0
  0
LINE
  5
27D
330
1F
100
AcDbEntity
  8
0
  6
Continuous
 62
     7
370
    25
100
AcDbLine
 10
649.0308278796
 20
1087.590368371
 30
0.0
 11
649.6779959615
 21
1087.8009627291
 31
0.0
  0
LINE
  5
27E
330
1F
100
AcDbEntity
  8
0
  6
Continuous
 62
     7
370
    25
100
AcDbLine
 10
649.6779959615
 20
1087.8009627291
 30
0.0
 11
649.5265980982
 21
1088.4546384351
 31
0.0
  0
LINE
  5
27F
330
1F
100
AcDbEntity
  8
0
  6
Continuous
 62
     7
370
    25
100
AcDbLine
 10
649.5282488922
 20
1088.4572188744
 30
0.0
 11
650.1932081907
 21
1088.602152125
 31
0.0
  0
LINE
  5
280
330
1F
100
AcDbEntity
  8
0
  6
Continuous
 62
     7
370
    25
100
AcDbLine
 10
650.1932081907
 20
1088.602152125
 30
0.0
 11
650.1078253652
 21
1089.2676767412
 31
0.0
  0
LINE
  5
281
330
1F
100
AcDbEntity
  8
0
  6
Continuous
 62
     7
370
    25
100
AcDbLine
 10
650.1097255322
 20
1089.2700794718
 30
0.0
 11
650.7858319796
 21
1089.3479035139
 31
0.0
  0
LINE
  5
282
330
1F
100
AcDbEntity
  8
0
  6
Continuous
 62
     7
370
    25
100
AcDbLine
 10
650.7858319796
 20
1089.3479035139
 30
0.0
 11
650.7673173089
 21
1090.0186273383
 31
0.0
  0
LINE
  5
283
330
1F
100
AcDbEntity
  8
0
  6
Continuous
 62
     7
370
    25
100
AcDbLine
 10
650.7694478558
 20
1090.0208283652
 30
0.0
 11
651.4499460272
 21
1090.0307655945
 31
0.0
  0
LINE
  5
284
330
1F
100
AcDbEntity
  8
0
  6
Continuous
 62
     7
370
    25
100
AcDbLine
 10
651.4499460272
 20
1090.0307655945
 30
0.0
 11
651.4984845037
 21
1090.6999869766
 31
0.0
  0
LINE
  5
285
330
1F
100
AcDbEntity
  8
0
  6
Continuous
 62
     7
370
    25
100
AcDbLine
 10
651.5008241428
 20
1090.7019643075
 30
0.0
 11
652.1789147253
 21
1090.6439154347
 31
0.0
  0
LINE
  5
286
330
1F
100
AcDbEntity
  8
0
  6
Continuous
 62
     7
370
    25
100
AcDbLine
 10
652.1789147253
 20
1090.6439154347
 30
0.0
 11
652.2940213687
 21
1091.3049477354
 31
0.0
  0
LINE
  5
287
330
1F
100
AcDbEntity
  8
0
  6
Continuous
 62
     7
370
    25
100
AcDbLine
 10
652.2965467211
 20
1091.3066816277
 30
0.0
 11
652.9654544597
 21
1091.1812266438
 31
0.0
  0
LINE
  5
288
330
1F
100
AcDbEntity
  8
0
  6
Continuous
 62
     7
370
    25
100
AcDbLine
 10
652.9654544597
 20
1091.1812266438
 30
0.0
 11
653.1459791624
 21
1091.8274650467
 31
0.0
  0
LINE
  5
289
330
1F
100
AcDbEntity
  8
0
  6
Continuous
 62
     7
370
    25
100
AcDbLine
 10
653.1486649995
 20
1091.8289381483
 30
0.0
 11
653.8017063855
 21
1091.6373305859
 31
0.0
  0
LINE
  5
28A
330
1F
100
AcDbEntity
  8
0
  6
Continuous
 62
     7
370
    25
100
AcDbLine
 10
653.8017063855
 20
1091.6373305859
 30
0.0
 11
654.0458454044
 21
1092.2623180908
 31
0.0
  0
LINE
  5
28B
330
1F
100
AcDbEntity
  8
0
  6
Continuous
 62
     7
370
    25
100
AcDbLine
 10
654.0486648891
 20
1092.2635157107
 30
0.0
 11
654.6793149497
 21
1092.0076700211
 31
0.0
  0
LINE
  5
28C
330
1F
100
AcDbEntity
  8
0
  6
Continuous
 62
     7
370
    25
100
AcDbLine
 10
654.6793149497
 20
1092.0076700211
 30
0.0
 11
654.9846289283
 21
1092.6051619593
 31
0.0
  0
LINE
  5
28D
330
1F
100
AcDbEntity
  8
0
  6
Continuous
 62
     7
370
    25
100
AcDbLine
 10
654.9875538899
 20
1092.6060721174
 30
0.0
 11
655.5895113777
 21
1092.2885446403
 31
0.0
  0
LINE
  5
28E
330
1F
100
AcDbEntity
  8
0
  6
Continuous
 62
     7
370
    25
100
AcDbLine
 10
655.5895113777
 20
1092.2885446403
 30
0.0
 11
655.9529497199
 21
1092.85257107
 31
0.0
  0
LINE
  5
28F
330
1F
100
AcDbEntity
  8
0
  6
Continuous
 62
     7
370
    25
100
AcDbLine
 10
655.9559509329
 20
1092.8531846721
 30
0.0
 11
656.5232012877
 21
1092.4771480371
 31
0.0
  0
LINE
  5
290
330
1F
100
AcDbEntity
  8
0
  6
Continuous
 62
     7
370
    25
100
AcDbLine
 10
656.5232012877
 20
1092.4771480371
 30
0.0
 11
656.9411326374
 21
1093.0020733924
 31
0.0
  0
LINE
  5
291
330
1F
100
AcDbEntity
  8
0
  6
Continuous
 62
     7
370
    25
100
AcDbLine
 10
656.944180115
 20
1093.0023843078
 30
0.0
 11
657.4710555587
 21
1092.5715957487
 31
0.0
  0
LINE
  5
292
330
1F
100
AcDbEntity
  8
0
  6
Continuous
 62
     7
370
    25
100
AcDbLine
 10
657.4710555587
 20
1092.5715957487
 30
0.0
 11
657.9393040842
 21
1093.0521751491
 31
0.0
  0
LINE
  5
293
330
1F
100
AcDbEntity
  8
0
  6
Continuous
 62
     7
370
    25
100
AcDbLine
 10
657.9423673704
 20
1093.0521802585
 30
0.0
 11
658.3455621582
 21
1092.6489854708
 31
0.0
  0
LINE
  5
294
330
1F
100
AcDbEntity
  8
0
  6
Continuous
 62
     7
370
    25
100
AcDbLine
 10
658.3455621582
 20
1092.6489854708
 30
0.0
 11
658.7700742164
 21
1093.0177273124
 31
0.0
  0
LINE
  5
295
330
1F
100
AcDbEntity
  8
0
  6
Continuous
 62
     7
370
    25
100
AcDbLine
 10
658.7731273419
 20
1093.0174778895
 30
0.0
 11
659.212713814
 21
1092.4979201454
 31
0.0
  0
LINE
  5
296
330
1F
100
AcDbEntity
  8
0
  6
Continuous
 62
     7
370
    25
100
AcDbLine
 10
659.212713814
 20
1092.4979201454
 30
0.0
 11
659.7606713575
 21
1092.885161378
 31
0.0
  0
LINE
  5
297
330
1F
100
AcDbEntity
  8
0
  6
Continuous
 62
     7
370
    25
100
AcDbLine
 10
659.7636843209
 20
1092.884608386
 30
0.0
 11
660.1492054754
 21
1092.3237608584
 31
0.0
  0
LINE
  5
298
330
1F
100
AcDbEntity
  8
0
  6
Continuous
 62
     7
370
    25
100
AcDbLine
 10
660.1492054754
 20
1092.3237608584
 30
0.0
 11
660.7330851291
 21
1092.6543630241
 31
0.0
  0
LINE
  5
299
330
1F
100
AcDbEntity
  8
0
  6
Continuous
 62
     7
370
    25
100
AcDbLine
 10
660.7360278331
 20
1092.6535120002
 30
0.0
 11
661.0636316627
 21
1092.0569784801
 31
0.0
  0
LINE
  5
29A
330
1F
100
AcDbEntity
  8
0
  6
Continuous
 62
     7
370
    25
100
AcDbLine
 10
661.0636316627
 20
1092.0569784801
 30
0.0
 11
661.6775994937
 21
1092.3276383113
 31
0.0
  0
LINE
  5
29B
330
1F
100
AcDbEntity
  8
0
  6
Continuous
 62
     7
370
    25
100
AcDbLine
 10
661.6804425465
 20
1092.3264977682
 30
0.0
 11
661.9468557315
 21
1091.700238612
 31
0.0
  0
LINE
  5
29C
330
1F
100
AcDbEntity
  8
0
  6
Continuous
 62
     7
370
    25
100
AcDbLine
 10
661.9468557315
 20
1091.700238612
 30
0.0
 11
662.5847771766
 21
1091.9082517651
 31
0.0
  0
LINE
  5
29D
330
1F
100
AcDbEntity
  8
0
  6
Continuous
 62
     7
370
    25
100
AcDbLine
 10
662.5874921501
 20
1091.9068330801
 30
0.0
 11
662.790052799
 21
1091.2571056809
 31
0.0
  0
LINE
  5
29E
330
1F
100
AcDbEntity
  8
0
  6
Continuous
 62
     7
370
    25
100
AcDbLine
 10
662.790052799
 20
1091.2571056809
 30
0.0
 11
663.4455539576
 21
1091.4003937572
 31
0.0
  0
LINE
  5
29F
330
1F
100
AcDbEntity
  8
0
  6
Continuous
 62
     7
370
    25
100
AcDbLine
 10
663.4481137477
 20
1091.3987111217
 30
0.0
 11
663.5847979188
 21
1090.7320073244
 31
0.0
  0
LINE
  5
2A0
330
1F
100
AcDbEntity
  8
0
  6
Continuous
 62
     7
370
    25
100
AcDbLine
 10
663.5847979188
 20
1090.7320073244
 30
0.0
 11
664.2513292403
 21
1090.809138637
 31
0.0
  0
LINE
  5
2A1
330
1F
100
AcDbEntity
  8
0
  6
Continuous
 62
     7
370
    25
100
AcDbLine
 10
664.2537082458
 20
1090.8072088492
 30
0.0
 11
664.3231502602
 21
1090.1301901519
 31
0.0
  0
LINE
  5
2A2
330
1F
100
AcDbEntity
  8
0
  6
Continuous
 62
     7
370
    25
100
AcDbLine
 10
664.3231502602
 20
1090.1301901519
 30
0.0
 11
664.9940519837
 21
1090.14039403
 31
0.0
  0
LINE
  5
2A3
330
1F
100
AcDbEntity
  8
0
  6
Continuous
 62
     7
370
    25
100
AcDbLine
 10
664.9962264604
 20
1090.1382363834
 30
0.0
 11
664.9977324509
 21
1089.4576673216
 31
0.0
  0
LINE
  5
2A4
330
1F
100
AcDbEntity
  8
0
  6
Continuous
 62
     7
370
    25
100
AcDbLine
 10
664.9977324509
 20
1089.4576673216
 30
0.0
 11
665.6663011485
 21
1089.4008418115
 31
0.0
  0
LINE
  5
2A5
330
1F
100
AcDbEntity
  8
0
  6
Continuous
 62
     7
370
    25
100
AcDbLine
 10
665.6682493427
 20
1089.3984778556
 30
0.0
 11
665.6018042886
 21
1088.7211584593
 31
0.0
  0
LINE
  5
2A6
330
1F
100
AcDbEntity
  8
0
  6
Continuous
 62
     7
370
    25
100
AcDbLine
 10
665.6018042886
 20
1088.7211584593
 30
0.0
 11
666.2613598426
 21
1088.5978713428
 31
0.0
  0
LINE
  5
2A7
330
1F
100
AcDbEntity
  8
0
  6
Continuous
 62
     7
370
    25
100
AcDbLine
 10
666.2630623021
 20
1088.5953247019
 30
0.0
 11
666.129330087
 21
1087.9280225181
 31
0.0
  0
LINE
  5
2A8
330
1F
100
AcDbEntity
  8
0
  6
Continuous
 62
     7
370
    25
100
AcDbLine
 10
666.129330087
 20
1087.9280225181
 30
0.0
 11
666.7732824364
 21
1087.7395056392
 31
0.0
  0
LINE
  5
2A9
330
1F
100
AcDbEntity
  8
0
  6
Continuous
 62
     7
370
    25
100
AcDbLine
 10
666.7747221509
 20
1087.7368017585
 30
0.0
 11
666.5750389829
 21
1087.0861842501
 31
0.0
  0
LINE
  5
2AA
330
1F
100
AcDbEntity
  8
0
  6
Continuous
 62
     7
370
    25
100
AcDbLine
 10
666.5750389829
 20
1087.0861842501
 30
0.0
 11
667.1969539685
 21
1086.8343212072
 31
0.0
  0
LINE
  5
2AB
330
1F
100
AcDbEntity
  8
0
  6
Continuous
 62
     7
370
    25
100
AcDbLine
 10
667.1981165529
 20
1086.8314871031
 30
0.0
 11
666.9344776003
 21
1086.2040550251
 31
0.0
  0
LINE
  5
2AC
330
1F
100
AcDbEntity
  8
0
  6
Continuous
 62
     7
370
    25
100
AcDbLine
 10
666.9344776003
 20
1086.2040550251
 30
0.0
 11
667.5281412535
 21
1085.8913623504
 31
0.0
  0
SPLINE
  5
2AD
330
1F
100
AcDbEntity
  8
0
  6
Continuous
 62
     7
370
    25
100
AcDbSpline
210
0.0
220
0.0
230
1.0
 70
    24
 71
     3
 72
     9
 73
     5
 74
     0
 42
0.000000001
 43
0.00000001
 40
0.0
 40
0.0
 40
0.0
 40
0.0
 40
0.499962775429669
 40
1.0
 40
1.0
 40
1.0
 40
1.0
 10
667.5290151243324
 20
1085.888426400991
 30
0.0
 10
667.4752063860664
 20
1085.789410018056
 30
0.0
 10
667.3675808969091
 20
1085.591362507718
 30
0.0
 10
667.2585660358301
 20
1085.390758338617
 30
0.0
 10
667.2040545472591
 20
1085.290448786663
 30
0.0
  0
LINE
  5
2AE
330
1F
100
AcDbEntity
  8
0
  6
Continuous
 62
     7
370
    25
100
AcDbLine
 10
667.2040545473
 20
1085.2904487867
 30
0.0
 11
667.7635351767
 21
1084.9200508021
 31
0.0
  0
LINE
  5
2AF
330
1F
100
AcDbEntity
  8
0
  6
Continuous
 62
     7
370
    25
100
AcDbLine
 10
667.7641115508
 20
1084.9170422176
 30
0.0
 11
667.3810763001
 21
1084.3544939863
 31
0.0
  0
LINE
  5
2B0
330
1F
100
AcDbEntity
  8
0
  6
Continuous
 62
     7
370
    25
100
AcDbLine
 10
667.3810763001
 20
1084.3544939863
 30
0.0
 11
667.9007837605
 21
1083.9300915861
 31
0.0
  0
LINE
  5
2B1
330
1F
100
AcDbEntity
  8
0
  6
Continuous
 62
     7
370
    25
100
AcDbLine
 10
667.9010568979
 20
1083.9270404906
 30
0.0
 11
667.463774116
 21
1083.405542375
 31
0.0
  0
SPLINE
  5
2B2
330
1F
100
AcDbEntity
  8
0
  6
Continuous
 62
     7
370
    25
100
AcDbSpline
210
0.0
220
0.0
230
1.0
 70
    24
 71
     3
 72
     9
 73
     5
 74
     0
 42
0.000000001
 43
0.00000001
 40
0.0
 40
0.0
 40
0.0
 40
0.0
 40
0.7418901379650148
 40
0.9999999999999999
 40
0.9999999999999999
 40
0.9999999999999999
 40
0.9999999999999999
 10
667.4637741159801
 20
1083.405542375035
 30
0.0
 10
667.5815413030074
 20
1083.287917880166
 30
0.0
 10
667.7402806917669
 20
1083.129370827376
 30
0.0
 10
667.8970911573527
 20
1082.972750360588
 30
0.0
 10
667.9375654849906
 20
1082.932325073513
 30
0.0
  0
LWPOLYLINE
  5
2B3
330
1F
100
AcDbEntity
  8
0
  6
Continuous
 62
     7
370
    25
100
AcDbPolyline
 90
        9
 70
   128
 43
0.0
 10
667.937565485
 20
1082.9323250735
 10
667.9375579254
 20
1082.9317041877
 10
667.9375503273
 20
1082.9310833023
 10
667.9375426906
 20
1082.9304624174
 10
667.9375350154
 20
1082.929841533
 10
667.9375273016
 20
1082.9292206491
 10
667.9375195492
 20
1082.9285997656
 10
667.9375117583
 20
1082.9279788827
 10
667.9375039288
 20
1082.9273580002
  0
LINE
  5
2B4
330
1F
100
AcDbEntity
  8
0
  6
Continuous
 62
     7
370
    25
100
AcDbLine
 10
667.9375039288
 20
1082.9273580002
 30
0.0
 11
667.4513217057
 21
1082.4530755637
 31
0.0
  0
LINE
  5
2B5
330
1F
100
AcDbEntity
  8
0
  6
Continuous
 62
     7
370
    25
100
AcDbLine
 10
667.4513217057
 20
1082.4530755637
 30
0.0
 11
667.8763538771
 21
1081.9338830222
 31
0.0
  0
LINE
  5
2B6
330
1F
100
AcDbEntity
  8
0
  6
Continuous
 62
     7
370
    25
100
AcDbLine
 10
667.8760154107
 20
1081.9308384815
 30
0.0
 11
667.3438434895
 21
1081.5066102857
 31
0.0
  0
LINE
  5
2B7
330
1F
100
AcDbEntity
  8
0
  6
Continuous
 62
     7
370
    25
100
AcDbLine
 10
667.3438434895
 20
1081.5066102857
 30
0.0
 11
667.7149195051
 21
1080.9475791306
 31
0.0
  0
LINE
  5
2B8
330
1F
100
AcDbEntity
  8
0
  6
Continuous
 62
     7
370
    25
100
AcDbLine
 10
667.7142787717
 20
1080.944583599
 30
0.0
 11
667.1424133543
 21
1080.5756033094
 31
0.0
  0
LINE
  5
2B9
330
1F
100
AcDbEntity
  8
0
  6
Continuous
 62
     7
370
    25
100
AcDbLine
 10
667.1424133543
 20
1080.5756033094
 30
0.0
 11
667.4558255452
 21
1079.9823191951
 31
0.0
  0
LINE
  5
2BA
330
1F
100
AcDbEntity
  8
0
  6
Continuous
 62
     7
370
    25
100
AcDbLine
 10
667.4548889688
 20
1079.9794025853
 30
0.0
 11
666.8490439234
 21
1079.6693569487
 31
0.0
  0
LINE
  5
2BB
330
1F
100
AcDbEntity
  8
0
  6
Continuous
 62
     7
370
    25
100
AcDbLine
 10
666.8490439234
 20
1079.6693569487
 30
0.0
 11
667.1016607786
 21
1079.0477477739
 31
0.0
  0
LINE
  5
2BC
330
1F
100
AcDbEntity
  8
0
  6
Continuous
 62
     7
370
    25
100
AcDbLine
 10
667.100437697
 20
1079.0449392475
 30
0.0
 11
666.4666664472
 21
1078.7969261177
 31
0.0
  0
LINE
  5
2BD
330
1F
100
AcDbEntity
  8
0
  6
Continuous
 62
     7
370
    25
100
AcDbLine
 10
666.4666664472
 20
1078.7969261177
 30
0.0
 11
666.6559639026
 21
1078.1532027958
 31
0.0
  0
LINE
  5
2BE
330
1F
100
AcDbEntity
  8
0
  6
Continuous
 62
     7
370
    25
100
AcDbLine
 10
666.6544665466
 20
1078.1505304048
 30
0.0
 11
665.999101515
 21
1077.9670278568
 31
0.0
  0
LINE
  5
2BF
330
1F
100
AcDbEntity
  8
0
  6
Continuous
 62
     7
370
    25
100
AcDbLine
 10
665.999101515
 20
1077.9670278568
 30
0.0
 11
666.123188173
 21
1077.3076222585
 31
0.0
  0
LINE
  5
2C0
330
1F
100
AcDbEntity
  8
0
  6
Continuous
 62
     7
370
    25
100
AcDbLine
 10
666.1214315036
 20
1077.3051127045
 30
0.0
 11
665.451020881
 21
1077.1879542351
 31
0.0
  0
LINE
  5
2C1
330
1F
100
AcDbEntity
  8
0
  6
Continuous
 62
     7
370
    25
100
AcDbLine
 10
665.451020881
 20
1077.1879542351
 30
0.0
 11
665.5086569088
 21
1076.5194549232
 31
0.0
  0
LINE
  5
2C2
330
1F
100
AcDbEntity
  8
0
  6
Continuous
 62
     7
370
    25
100
AcDbLine
 10
665.5066584835
 20
1076.5171332677
 30
0.0
 11
664.8279007859
 21
1076.4674894987
 31
0.0
  0
LINE
  5
2C3
330
1F
100
AcDbEntity
  8
0
  6
Continuous
 62
     7
370
    25
100
AcDbLine
 10
664.8279007859
 20
1076.4674894987
 30
0.0
 11
664.8185103032
 21
1075.7965758973
 31
0.0
  0
LINE
  5
2C4
330
1F
100
AcDbEntity
  8
0
  6
Continuous
 62
     7
370
    25
100
AcDbLine
 10
664.8162900829
 20
1075.7944653501
 30
0.0
 11
664.1359672395
 21
1075.8128322932
 31
0.0
  0
LINE
  5
2C5
330
1F
100
AcDbEntity
  8
0
  6
Continuous
 62
     7
370
    25
100
AcDbLine
 10
664.1359672395
 20
1075.8128322932
 30
0.0
 11
664.0596440731
 21
1075.1462079492
 31
0.0
  0
LINE
  5
2C6
330
1F
100
AcDbEntity
  8
0
  6
Continuous
 62
     7
370
    25
100
AcDbLine
 10
664.0572242388
 20
1075.144329612
 30
0.0
 11
663.3821338133
 21
1075.2305237369
 31
0.0
  0
LINE
  5
2C7
330
1F
100
AcDbEntity
  8
0
  6
Continuous
 62
     7
370
    25
100
AcDbLine
 10
663.3821338133
 20
1075.2305237369
 30
0.0
 11
663.2396405589
 21
1074.5748493403
 31
0.0
  0
LINE
  5
2C8
330
1F
100
AcDbEntity
  8
0
  6
Continuous
 62
     7
370
    25
100
AcDbLine
 10
663.2370452942
 20
1074.5732219533
 30
0.0
 11
662.5739325615
 21
1074.7263820645
 31
0.0
  0
LINE
  5
2C9
330
1F
100
AcDbEntity
  8
0
  6
Continuous
 62
     7
370
    25
100
AcDbLine
 10
662.5739325615
 20
1074.7263820645
 30
0.0
 11
662.3666929646
 21
1074.0882088972
 31
0.0
  0
LINE
  5
2CA
330
1F
100
AcDbEntity
  8
0
  6
Continuous
 62
     7
370
    25
100
AcDbLine
 10
662.3639481979
 20
1074.0868487487
 30
0.0
 11
661.719438764
 21
1074.3054444928
 31
0.0
  0
LINE
  5
2CB
330
1F
100
AcDbEntity
  8
0
  6
Continuous
 62
     7
370
    25
100
AcDbLine
 10
661.719438764
 20
1074.3054444928
 30
0.0
 11
661.4495234942
 21
1073.6911489703
 31
0.0
  0
LINE
  5
2CC
330
1F
100
AcDbEntity
  8
0
  6
Continuous
 62
     7
370
    25
100
AcDbLine
 10
661.4466566516
 20
1073.6900696362
 30
0.0
 11
660.8271902402
 21
1073.9719168909
 31
0.0
  0
LINE
  5
2CD
330
1F
100
AcDbEntity
  8
0
  6
Continuous
 62
     7
370
    25
100
AcDbLine
 10
660.8271902402
 20
1073.9719168909
 30
0.0
 11
660.4972962017
 21
1073.387636851
 31
0.0
  0
LINE
  5
2CE
330
1F
100
AcDbEntity
  8
0
  6
Continuous
 62
     7
370
    25
100
AcDbLine
 10
660.4943359277
 20
1073.3868491157
 30
0.0
 11
659.9061020426
 21
1073.7291317565
 31
0.0
  0
LINE
  5
2CF
330
1F
100
AcDbEntity
  8
0
  6
Continuous
 62
     7
370
    25
100
AcDbLine
 10
659.9061020426
 20
1073.7291317565
 30
0.0
 11
659.5195254274
 21
1073.1807051319
 31
0.0
  0
LINE
  5
2D0
330
1F
100
AcDbEntity
  8
0
  6
Continuous
 62
     7
370
    25
100
AcDbLine
 10
659.5165013003
 20
1073.1802168664
 30
0.0
 11
658.9653773799
 21
1073.5795149182
 31
0.0
  0
LINE
  5
2D1
330
1F
100
AcDbEntity
  8
0
  6
Continuous
 62
     7
370
    25
100
AcDbLine
 10
658.9653773799
 20
1073.5795149182
 30
0.0
 11
658.5259807339
 21
1073.0724214067
 31
0.0
  0
LINE
  5
2D2
330
1F
100
AcDbEntity
  8
0
  6
Continuous
 62
     7
370
    25
100
AcDbLine
 10
658.5229229696
 20
1073.0722374895
 30
0.0
 11
658.014415662
 21
1073.5245612982
 31
0.0
  0
LINE
  5
2D3
330
1F
100
AcDbEntity
  8
0
  6
Continuous
 62
     7
370
    25
100
AcDbLine
 10
658.014415662
 20
1073.5245612982
 30
0.0
 11
657.5265892912
 21
1073.0638676105
 31
0.0
  0
LINE
  5
2D4
330
1F
100
AcDbEntity
  8
0
  6
Continuous
 62
     7
370
    25
100
AcDbLine
 10
657.5235284419
 20
1073.0639898791
 30
0.0
 11
657.062718584
 21
1073.5648199748
 31
0.0
  0
LINE
  5
2D5
330
1F
100
AcDbEntity
  8
0
  6
Continuous
 62
     7
370
    25
100
AcDbLine
 10
657.062718584
 20
1073.5648199748
 30
0.0
 11
656.5313366883
 21
1073.1551292099
 31
0.0
  0
LINE
  5
2D6
330
1F
100
AcDbEntity
  8
0
  6
Continuous
 62
     7
370
    25
100
AcDbLine
 10
656.5283033289
 20
1073.1555564311
 30
0.0
 11
656.1197951886
 21
1073.6998886965
 31
0.0
  0
LINE
  5
2D7
330
1F
100
AcDbEntity
  8
0
  6
Continuous
 62
     7
370
    25
100
AcDbLine
 10
656.1197951886
 20
1073.6998886965
 30
0.0
 11
655.5501671603
 21
1073.3452943493
 31
0.0
  0
LINE
  5
2D8
330
1F
100
AcDbEntity
  8
0
  6
Continuous
 62
     7
370
    25
100
AcDbLine
 10
655.547191615
 20
1073.3460222775
 30
0.0
 11
655.1950668546
 21
1073.9284179015
 31
0.0
  0
LINE
  5
2D9
330
1F
100
AcDbEntity
  8
0
  6
Continuous
 62
     7
370
    25
100
AcDbLine
 10
655.1950668546
 20
1073.9284179015
 30
0.0
 11
654.5928842284
 21
1073.6324629613
 31
0.0
  0
LINE
  5
2DA
330
1F
100
AcDbEntity
  8
0
  6
Continuous
 62
     7
370
    25
100
AcDbLine
 10
654.5899962202
 20
1073.6334843118
 30
0.0
 11
654.2977731618
 21
1074.2481242014
 31
0.0
  0
LINE
  5
2DB
330
1F
100
AcDbEntity
  8
0
  6
Continuous
 62
     7
370
    25
100
AcDbLine
 10
654.2977731618
 20
1074.2481242014
 30
0.0
 11
653.6690527476
 21
1074.0137657521
 31
0.0
  0
LINE
  5
2DC
330
1F
100
AcDbEntity
  8
0
  6
Continuous
 62
     7
370
    25
100
AcDbLine
 10
653.6662811212
 20
1074.0150703111
 30
0.0
 11
653.4368795722
 21
1074.6558131965
 31
0.0
  0
LINE
  5
2DD
330
1F
100
AcDbEntity
  8
0
  6
Continuous
 62
     7
370
    25
100
AcDbLine
 10
653.4368795722
 20
1074.6558131965
 30
0.0
 11
652.7879033366
 21
1074.4853928704
 31
0.0
  0
LINE
  5
2DE
330
1F
100
AcDbEntity
  8
0
  6
Continuous
 62
     7
370
    25
100
AcDbLine
 10
652.7852758073
 20
1074.4869676206
 30
0.0
 11
652.6209878501
 21
1075.1474113932
 31
0.0
  0
LINE
  5
2DF
330
1F
100
AcDbEntity
  8
0
  6
Continuous
 62
     7
370
    25
100
AcDbLine
 10
652.6209878501
 20
1075.1474113932
 30
0.0
 11
651.9582401492
 21
1075.0426319738
 31
0.0
  0
LINE
  5
2E0
330
1F
100
AcDbEntity
  8
0
  6
Continuous
 62
     7
370
    25
100
AcDbLine
 10
651.9557829591
 20
1075.044461172
 30
0.0
 11
651.8582501157
 21
1075.7180069048
 31
0.0
  0
LINE
  5
2E1
330
1F
100
AcDbEntity
  8
0
  6
Continuous
 62
     7
370
    25
100
AcDbLine
 10
651.8582501157
 20
1075.7180069048
 30
0.0
 11
651.1883529054
 21
1075.6799153135
 31
0.0
  0
LINE
  5
2E2
330
1F
100
AcDbEntity
  8
0
  6
Continuous
 62
     7
370
    25
100
AcDbLine
 10
651.1860905929
 20
1075.6819806779
 30
0.0
 11
651.1562873925
 21
1076.3618985296
 31
0.0
  0
LINE
  5
2E3
330
1F
100
AcDbEntity
  8
0
  6
Continuous
 62
     7
370
    25
100
AcDbLine
 10
651.1562873925
 20
1076.3618985296
 30
0.0
 11
650.485934064
 21
1076.3908753648
 31
0.0
  0
LINE
  5
2E4
330
1F
100
AcDbEntity
  8
0
  6
Continuous
 62
     7
370
    25
100
AcDbLine
 10
650.4838892462
 20
1076.3931562654
 30
0.0
 11
650.5221134598
 21
1077.0726527153
 31
0.0
  0
LINE
  5
2E5
330
1F
100
AcDbEntity
  8
0
  6
Continuous
 62
     7
370
    25
100
AcDbLine
 10
650.5221134598
 20
1077.0726527153
 30
0.0
 11
649.8580019623
 21
1077.1684084502
 31
0.0
  0
LINE
  5
2E6
330
1F
100
AcDbEntity
  8
0
  6
Continuous
 62
     7
370
    25
100
AcDbLine
 10
649.8561950841
 20
1077.1708820992
 30
0.0
 11
649.962064774
 21
1077.8431678409
 31
0.0
  0
LINE
  5
2E7
330
1F
100
AcDbEntity
  8
0
  6
Continuous
 62
     7
370
    25
100
AcDbLine
 10
649.962064774
 20
1077.8431678409
 30
0.0
 11
649.3108306901
 21
1078.0047457158
 31
0.0
  0
LINE
  5
2E8
330
1F
100
AcDbEntity
  8
0
  6
Continuous
 62
     7
370
    25
100
AcDbLine
 10
649.3092797774
 20
1078.0073873928
 30
0.0
 11
649.4817371565
 21
1078.6657451741
 31
0.0
  0
LINE
  5
2E9
330
1F
100
AcDbEntity
  8
0
  6
Continuous
 62
     7
370
    25
100
AcDbLine
 10
649.4817371565
 20
1078.6657451741
 30
0.0
 11
648.8498874017
 21
1078.8915307563
 31
0.0
  0
LINE
  5
2EA
330
1F
100
AcDbEntity
  8
0
  6
Continuous
 62
     7
370
    25
100
AcDbLine
 10
648.8486079789
 20
1078.8943140684
 30
0.0
 11
649.085929882
 21
1079.5321657941
 31
0.0
  0
LINE
  5
2EB
330
1F
100
AcDbEntity
  8
0
  6
Continuous
 62
     7
370
    25
100
AcDbLine
 10
649.085929882
 20
1079.5321657941
 30
0.0
 11
648.4797776902
 21
1079.8199031087
 31
0.0
  0
LINE
  5
2EC
330
1F
100
AcDbEntity
  8
0
  6
Continuous
 62
     7
370
    25
100
AcDbLine
 10
648.4787825128
 20
1079.8228002468
 30
0.0
 11
648.778597726
 21
1080.4337727125
 31
0.0
  0
LINE
  5
2ED
330
1F
100
AcDbEntity
  8
0
  6
Continuous
 62
     7
370
    25
100
AcDbLine
 10
648.778597726
 20
1080.4337727125
 30
0.0
 11
648.2041995696
 21
1080.7805867832
 31
0.0
  0
LINE
  5
2EE
330
1F
100
AcDbEntity
  8
0
  6
Continuous
 62
     7
370
    25
100
AcDbLine
 10
648.2034986088
 20
1080.7835687965
 30
0.0
 11
648.5628114498
 21
1081.3615573708
 31
0.0
  0
LINE
  5
2EF
330
1F
100
AcDbEntity
  8
0
  6
Continuous
 62
     7
370
    25
100
AcDbLine
 10
648.5628114498
 20
1081.3615573708
 30
0.0
 11
648.0259065253
 21
1081.7639829463
 31
0.0
  0
LINE
  5
2F0
330
1F
100
AcDbEntity
  8
0
  6
Continuous
 62
     7
370
    25
100
AcDbLine
 10
648.0255067576
 20
1081.7670200458
 30
0.0
 11
648.4407271185
 21
1082.3062496516
 31
0.0
  0
LINE
  5
2F1
330
1F
100
AcDbEntity
  8
0
  6
Continuous
 62
     7
370
    25
100
AcDbLine
 10
648.4407271185
 20
1082.3062496516
 30
0.0
 11
647.9466800024
 21
1082.7602658284
 31
0.0
  0
SPLINE
  5
2F2
330
1F
100
AcDbEntity
  8
0
  6
Continuous
 62
     7
370
    25
100
AcDbSpline
210
0.0
220
0.0
230
1.0
 70
     8
 71
     3
 72
     9
 73
     5
 74
     0
 42
0.000000001
 43
0.00000001
 40
0.0
 40
0.0
 40
0.0
 40
0.0
 40
0.5886511107999512
 40
1.0
 40
1.0
 40
1.0
 40
1.0
 10
647.9465854358652
 20
1082.763327665263
 30
0.0
 10
648.037659453623
 20
1082.859882690341
 30
0.0
 10
648.1923759165442
 20
1083.023910283777
 30
0.0
 10
648.3490973102616
 20
1083.190063485343
 30
0.0
 10
648.4135644814811
 20
1083.258410420245
 30
0.0
  0
LINE
  5
2F3
330
1F
100
AcDbEntity
  8
0
  6
Continuous
 62
     7
370
    25
100
AcDbLine
 10
648.4135644918
 20
1083.2584105079
 30
0.0
 11
647.9673116061
 21
1083.7594809005
 31
0.0
  0
CIRCLE
  5
2F4
330
1F
100
AcDbEntity
  8
0
  6
Continuous
 62
     7
370
    25
100
AcDbCircle
 10
657.9408183437
 20
1083.0537292852
 30
0.0
 40
9.497484303027932
  0
LINE
  5
2F5
330
1F
100
AcDbEntity
  8
0
  6
Continuous
 62
     7
370
    25
100
AcDbLine
 10
667.9383026467
 20
1082.9315888049
 30
0.0
 11
667.9383026467
 21
1082.9281371687
 31
0.0
  0
LINE
  5
2F6
330
1F
100
AcDbEntity
  8
0
  6
Continuous
 62
     7
370
    25
100
AcDbLine
 10
667.937565485
 20
1082.9323250735
 30
0.0
 11
667.9383026467
 21
1082.9315888049
 31
0.0
  0
LINE
  5
2F7
330
1F
100
AcDbEntity
  8
0
  6
Continuous
 62
     7
370
    25
100
AcDbLine
 10
667.9383026467
 20
1082.9281371687
 30
0.0
 11
667.9375039288
 21
1082.9273580002
 31
0.0
  0
CIRCLE
  5
2F8
330
1F
100
AcDbEntity
  8
0
  6
Continuous
 62
     7
370
    25
100
AcDbCircle
 10
283.9408183437
 20
1083.0537292852
 30
0.0
 40
9.497484303028045
  0
LINE
  5
2F9
330
1F
100
AcDbEntity
  8
0
  6
Continuous
 62
     7
370
    25
100
AcDbLine
 10
273.9675231979
 20
1083.7625368745
 30
0.0
 11
274.4815951688
 21
1084.2085262449
 31
0.0
  0
LINE
  5
2FA
330
1F
100
AcDbEntity
  8
0
  6
Continuous
 62
     7
370
    25
100
AcDbLine
 10
274.4815951688
 20
1084.2085262449
 30
0.0
 11
274.0875951925
 21
1084.7516443355
 31
0.0
  0
LINE
  5
2FB
330
1F
100
AcDbEntity
  8
0
  6
Continuous
 62
     7
370
    25
100
AcDbLine
 10
274.0881108041
 20
1084.754663927
 30
0.0
 11
274.6441392104
 21
1085.1471036385
 31
0.0
  0
LINE
  5
2FC
330
1F
100
AcDbEntity
  8
0
  6
Continuous
 62
     7
370
    25
100
AcDbLine
 10
274.6441392104
 20
1085.1471036385
 30
0.0
 11
274.3063289274
 21
1085.7268427649
 31
0.0
  0
LINE
  5
2FD
330
1F
100
AcDbEntity
  8
0
  6
Continuous
 62
     7
370
    25
100
AcDbLine
 10
274.3071434193
 20
1085.7297957955
 30
0.0
 11
274.8995725968
 21
1086.0647647276
 31
0.0
  0
LINE
  5
2FE
330
1F
100
AcDbEntity
  8
0
  6
Continuous
 62
     7
370
    25
100
AcDbLine
 10
274.8995725968
 20
1086.0647647276
 30
0.0
 11
274.621327296
 21
1086.6753323277
 31
0.0
  0
LINE
  5
2FF
330
1F
100
AcDbEntity
  8
0
  6
Continuous
 62
     7
370
    25
100
AcDbLine
 10
274.6224325299
 20
1086.6781892921
 30
0.0
 11
275.2453431221
 21
1086.9523405458
 31
0.0
  0
LINE
  5
300
330
1F
100
AcDbEntity
  8
0
  6
Continuous
 62
     7
370
    25
100
AcDbLine
 10
275.2453431221
 20
1086.9523405458
 30
0.0
 11
275.0294429383
 21
1087.5876360303
 31
0.0
  0
LINE
  5
301
330
1F
100
AcDbEntity
  8
0
  6
Continuous
 62
     7
370
    25
100
AcDbLine
 10
275.0308278796
 20
1087.590368371
 30
0.0
 11
275.6779959615
 21
1087.8009627291
 31
0.0
  0
LINE
  5
302
330
1F
100
AcDbEntity
  8
0
  6
Continuous
 62
     7
370
    25
100
AcDbLine
 10
275.6779959615
 20
1087.8009627291
 30
0.0
 11
275.5265980982
 21
1088.4546384351
 31
0.0
  0
LINE
  5
303
330
1F
100
AcDbEntity
  8
0
  6
Continuous
 62
     7
370
    25
100
AcDbLine
 10
275.5282488922
 20
1088.4572188744
 30
0.0
 11
276.1932081907
 21
1088.602152125
 31
0.0
  0
LINE
  5
304
330
1F
100
AcDbEntity
  8
0
  6
Continuous
 62
     7
370
    25
100
AcDbLine
 10
276.1932081907
 20
1088.602152125
 30
0.0
 11
276.1078253652
 21
1089.2676767412
 31
0.0
  0
LINE
  5
305
330
1F
100
AcDbEntity
  8
0
  6
Continuous
 62
     7
370
    25
100
AcDbLine
 10
276.1097255322
 20
1089.2700794718
 30
0.0
 11
276.7858319796
 21
1089.3479035139
 31
0.0
  0
LINE
  5
306
330
1F
100
AcDbEntity
  8
0
  6
Continuous
 62
     7
370
    25
100
AcDbLine
 10
276.7858319796
 20
1089.3479035139
 30
0.0
 11
276.7673173089
 21
1090.0186273383
 31
0.0
  0
LINE
  5
307
330
1F
100
AcDbEntity
  8
0
  6
Continuous
 62
     7
370
    25
100
AcDbLine
 10
276.7694478558
 20
1090.0208283652
 30
0.0
 11
277.4499460272
 21
1090.0307655945
 31
0.0
  0
LINE
  5
308
330
1F
100
AcDbEntity
  8
0
  6
Continuous
 62
     7
370
    25
100
AcDbLine
 10
277.4499460272
 20
1090.0307655945
 30
0.0
 11
277.4984845037
 21
1090.6999869766
 31
0.0
  0
LINE
  5
309
330
1F
100
AcDbEntity
  8
0
  6
Continuous
 62
     7
370
    25
100
AcDbLine
 10
277.5008241428
 20
1090.7019643075
 30
0.0
 11
278.1789147253
 21
1090.6439154347
 31
0.0
  0
LINE
  5
30A
330
1F
100
AcDbEntity
  8
0
  6
Continuous
 62
     7
370
    25
100
AcDbLine
 10
278.1789147253
 20
1090.6439154347
 30
0.0
 11
278.2940213687
 21
1091.3049477354
 31
0.0
  0
LINE
  5
30B
330
1F
100
AcDbEntity
  8
0
  6
Continuous
 62
     7
370
    25
100
AcDbLine
 10
278.2965467211
 20
1091.3066816277
 30
0.0
 11
278.9654544597
 21
1091.1812266438
 31
0.0
  0
LINE
  5
30C
330
1F
100
AcDbEntity
  8
0
  6
Continuous
 62
     7
370
    25
100
AcDbLine
 10
278.9654544597
 20
1091.1812266438
 30
0.0
 11
279.1459791624
 21
1091.8274650467
 31
0.0
  0
LINE
  5
30D
330
1F
100
AcDbEntity
  8
0
  6
Continuous
 62
     7
370
    25
100
AcDbLine
 10
279.1486649995
 20
1091.8289381483
 30
0.0
 11
279.8017063855
 21
1091.6373305859
 31
0.0
  0
LINE
  5
30E
330
1F
100
AcDbEntity
  8
0
  6
Continuous
 62
     7
370
    25
100
AcDbLine
 10
279.8017063855
 20
1091.6373305859
 30
0.0
 11
280.0458454044
 21
1092.2623180908
 31
0.0
  0
LINE
  5
30F
330
1F
100
AcDbEntity
  8
0
  6
Continuous
 62
     7
370
    25
100
AcDbLine
 10
280.0486648891
 20
1092.2635157107
 30
0.0
 11
280.6793149497
 21
1092.0076700211
 31
0.0
  0
LINE
  5
310
330
1F
100
AcDbEntity
  8
0
  6
Continuous
 62
     7
370
    25
100
AcDbLine
 10
280.6793149497
 20
1092.0076700211
 30
0.0
 11
280.9846289283
 21
1092.6051619593
 31
0.0
  0
LINE
  5
311
330
1F
100
AcDbEntity
  8
0
  6
Continuous
 62
     7
370
    25
100
AcDbLine
 10
280.9875538899
 20
1092.6060721174
 30
0.0
 11
281.5895113777
 21
1092.2885446403
 31
0.0
  0
LINE
  5
312
330
1F
100
AcDbEntity
  8
0
  6
Continuous
 62
     7
370
    25
100
AcDbLine
 10
281.5895113777
 20
1092.2885446403
 30
0.0
 11
281.9529497199
 21
1092.85257107
 31
0.0
  0
LINE
  5
313
330
1F
100
AcDbEntity
  8
0
  6
Continuous
 62
     7
370
    25
100
AcDbLine
 10
281.9559509329
 20
1092.8531846721
 30
0.0
 11
282.5232012877
 21
1092.4771480371
 31
0.0
  0
LINE
  5
314
330
1F
100
AcDbEntity
  8
0
  6
Continuous
 62
     7
370
    25
100
AcDbLine
 10
282.5232012877
 20
1092.4771480371
 30
0.0
 11
282.9411326374
 21
1093.0020733924
 31
0.0
  0
LINE
  5
315
330
1F
100
AcDbEntity
  8
0
  6
Continuous
 62
     7
370
    25
100
AcDbLine
 10
282.944180115
 20
1093.0023843078
 30
0.0
 11
283.4710555587
 21
1092.5715957487
 31
0.0
  0
LINE
  5
316
330
1F
100
AcDbEntity
  8
0
  6
Continuous
 62
     7
370
    25
100
AcDbLine
 10
283.4710555587
 20
1092.5715957487
 30
0.0
 11
283.9393040842
 21
1093.0521751491
 31
0.0
  0
LINE
  5
317
330
1F
100
AcDbEntity
  8
0
  6
Continuous
 62
     7
370
    25
100
AcDbLine
 10
283.9423673704
 20
1093.0521802585
 30
0.0
 11
284.3455621582
 21
1092.6489854708
 31
0.0
  0
LINE
  5
318
330
1F
100
AcDbEntity
  8
0
  6
Continuous
 62
     7
370
    25
100
AcDbLine
 10
284.3455621582
 20
1092.6489854708
 30
0.0
 11
284.7700742164
 21
1093.0177273124
 31
0.0
  0
LINE
  5
319
330
1F
100
AcDbEntity
  8
0
  6
Continuous
 62
     7
370
    25
100
AcDbLine
 10
284.7731273419
 20
1093.0174778895
 30
0.0
 11
285.212713814
 21
1092.4979201454
 31
0.0
  0
LINE
  5
31A
330
1F
100
AcDbEntity
  8
0
  6
Continuous
 62
     7
370
    25
100
AcDbLine
 10
285.212713814
 20
1092.4979201454
 30
0.0
 11
285.7606713575
 21
1092.885161378
 31
0.0
  0
LINE
  5
31B
330
1F
100
AcDbEntity
  8
0
  6
Continuous
 62
     7
370
    25
100
AcDbLine
 10
285.7636843209
 20
1092.884608386
 30
0.0
 11
286.1492054754
 21
1092.3237608584
 31
0.0
  0
LINE
  5
31C
330
1F
100
AcDbEntity
  8
0
  6
Continuous
 62
     7
370
    25
100
AcDbLine
 10
286.1492054754
 20
1092.3237608584
 30
0.0
 11
286.7330851291
 21
1092.6543630241
 31
0.0
  0
LINE
  5
31D
330
1F
100
AcDbEntity
  8
0
  6
Continuous
 62
     7
370
    25
100
AcDbLine
 10
286.7360278331
 20
1092.6535120002
 30
0.0
 11
287.0636316627
 21
1092.0569784801
 31
0.0
  0
LINE
  5
31E
330
1F
100
AcDbEntity
  8
0
  6
Continuous
 62
     7
370
    25
100
AcDbLine
 10
287.0636316627
 20
1092.0569784801
 30
0.0
 11
287.6775994937
 21
1092.3276383113
 31
0.0
  0
LINE
  5
31F
330
1F
100
AcDbEntity
  8
0
  6
Continuous
 62
     7
370
    25
100
AcDbLine
 10
287.6804425465
 20
1092.3264977682
 30
0.0
 11
287.9468557315
 21
1091.700238612
 31
0.0
  0
LINE
  5
320
330
1F
100
AcDbEntity
  8
0
  6
Continuous
 62
     7
370
    25
100
AcDbLine
 10
287.9468557315
 20
1091.700238612
 30
0.0
 11
288.5847771766
 21
1091.9082517651
 31
0.0
  0
LINE
  5
321
330
1F
100
AcDbEntity
  8
0
  6
Continuous
 62
     7
370
    25
100
AcDbLine
 10
288.5874921501
 20
1091.9068330801
 30
0.0
 11
288.790052799
 21
1091.2571056809
 31
0.0
  0
LINE
  5
322
330
1F
100
AcDbEntity
  8
0
  6
Continuous
 62
     7
370
    25
100
AcDbLine
 10
288.790052799
 20
1091.2571056809
 30
0.0
 11
289.4455539576
 21
1091.4003937572
 31
0.0
  0
LINE
  5
323
330
1F
100
AcDbEntity
  8
0
  6
Continuous
 62
     7
370
    25
100
AcDbLine
 10
289.4481137477
 20
1091.3987111217
 30
0.0
 11
289.5847979188
 21
1090.7320073244
 31
0.0
  0
LINE
  5
324
330
1F
100
AcDbEntity
  8
0
  6
Continuous
 62
     7
370
    25
100
AcDbLine
 10
289.5847979188
 20
1090.7320073244
 30
0.0
 11
290.2513292403
 21
1090.809138637
 31
0.0
  0
LINE
  5
325
330
1F
100
AcDbEntity
  8
0
  6
Continuous
 62
     7
370
    25
100
AcDbLine
 10
290.2537082458
 20
1090.8072088492
 30
0.0
 11
290.3231502602
 21
1090.1301901519
 31
0.0
  0
LINE
  5
326
330
1F
100
AcDbEntity
  8
0
  6
Continuous
 62
     7
370
    25
100
AcDbLine
 10
290.3231502602
 20
1090.1301901519
 30
0.0
 11
290.9940519837
 21
1090.14039403
 31
0.0
  0
LINE
  5
327
330
1F
100
AcDbEntity
  8
0
  6
Continuous
 62
     7
370
    25
100
AcDbLine
 10
290.9962264604
 20
1090.1382363834
 30
0.0
 11
290.9977324509
 21
1089.4576673216
 31
0.0
  0
LINE
  5
328
330
1F
100
AcDbEntity
  8
0
  6
Continuous
 62
     7
370
    25
100
AcDbLine
 10
290.9977324509
 20
1089.4576673216
 30
0.0
 11
291.6663011485
 21
1089.4008418115
 31
0.0
  0
LINE
  5
329
330
1F
100
AcDbEntity
  8
0
  6
Continuous
 62
     7
370
    25
100
AcDbLine
 10
291.6682493427
 20
1089.3984778556
 30
0.0
 11
291.6018042886
 21
1088.7211584593
 31
0.0
  0
LINE
  5
32A
330
1F
100
AcDbEntity
  8
0
  6
Continuous
 62
     7
370
    25
100
AcDbLine
 10
291.6018042886
 20
1088.7211584593
 30
0.0
 11
292.2613598426
 21
1088.5978713427
 31
0.0
  0
LINE
  5
32B
330
1F
100
AcDbEntity
  8
0
  6
Continuous
 62
     7
370
    25
100
AcDbLine
 10
292.2630623021
 20
1088.5953247018
 30
0.0
 11
292.129330087
 21
1087.9280225181
 31
0.0
  0
LINE
  5
32C
330
1F
100
AcDbEntity
  8
0
  6
Continuous
 62
     7
370
    25
100
AcDbLine
 10
292.129330087
 20
1087.9280225181
 30
0.0
 11
292.7732824364
 21
1087.7395056392
 31
0.0
  0
LINE
  5
32D
330
1F
100
AcDbEntity
  8
0
  6
Continuous
 62
     7
370
    25
100
AcDbLine
 10
292.7747221509
 20
1087.7368017585
 30
0.0
 11
292.5750389829
 21
1087.0861842501
 31
0.0
  0
LINE
  5
32E
330
1F
100
AcDbEntity
  8
0
  6
Continuous
 62
     7
370
    25
100
AcDbLine
 10
292.5750389829
 20
1087.0861842501
 30
0.0
 11
293.1969539685
 21
1086.8343212072
 31
0.0
  0
LINE
  5
32F
330
1F
100
AcDbEntity
  8
0
  6
Continuous
 62
     7
370
    25
100
AcDbLine
 10
293.1981165529
 20
1086.831487103
 30
0.0
 11
292.9344776003
 21
1086.2040550251
 31
0.0
  0
LINE
  5
330
330
1F
100
AcDbEntity
  8
0
  6
Continuous
 62
     7
370
    25
100
AcDbLine
 10
292.9344776003
 20
1086.2040550251
 30
0.0
 11
293.5281412535
 21
1085.8913623504
 31
0.0
  0
SPLINE
  5
331
330
1F
100
AcDbEntity
  8
0
  6
Continuous
 62
     7
370
    25
100
AcDbSpline
210
0.0
220
0.0
230
1.0
 70
    24
 71
     3
 72
     9
 73
     5
 74
     0
 42
0.000000001
 43
0.00000001
 40
0.0
 40
0.0
 40
0.0
 40
0.0
 40
0.499962775429669
 40
1.0
 40
1.0
 40
1.0
 40
1.0
 10
293.5290151243324
 20
1085.888426400988
 30
0.0
 10
293.4752063860664
 20
1085.789410018053
 30
0.0
 10
293.3675808969091
 20
1085.591362507716
 30
0.0
 10
293.2585660358301
 20
1085.390758338615
 30
0.0
 10
293.2040545472592
 20
1085.29044878666
 30
0.0
  0
LINE
  5
332
330
1F
100
AcDbEntity
  8
0
  6
Continuous
 62
     7
370
    25
100
AcDbLine
 10
293.2040545473
 20
1085.2904487867
 30
0.0
 11
293.7635351767
 21
1084.9200508021
 31
0.0
  0
LINE
  5
333
330
1F
100
AcDbEntity
  8
0
  6
Continuous
 62
     7
370
    25
100
AcDbLine
 10
293.7641115508
 20
1084.9170422176
 30
0.0
 11
293.3810763001
 21
1084.3544939863
 31
0.0
  0
LINE
  5
334
330
1F
100
AcDbEntity
  8
0
  6
Continuous
 62
     7
370
    25
100
AcDbLine
 10
293.3810763001
 20
1084.3544939863
 30
0.0
 11
293.9007837605
 21
1083.9300915861
 31
0.0
  0
LINE
  5
335
330
1F
100
AcDbEntity
  8
0
  6
Continuous
 62
     7
370
    25
100
AcDbLine
 10
293.9010568979
 20
1083.9270404906
 30
0.0
 11
293.463774116
 21
1083.405542375
 31
0.0
  0
SPLINE
  5
336
330
1F
100
AcDbEntity
  8
0
  6
Continuous
 62
     7
370
    25
100
AcDbSpline
210
0.0
220
0.0
230
1.0
 70
    24
 71
     3
 72
     9
 73
     5
 74
     0
 42
0.000000001
 43
0.00000001
 40
0.0
 40
0.0
 40
0.0
 40
0.0
 40
0.7418901379650148
 40
0.9999999999999999
 40
0.9999999999999999
 40
0.9999999999999999
 40
0.9999999999999999
 10
293.4637741159801
 20
1083.405542375032
 30
0.0
 10
293.5815413030075
 20
1083.287917880164
 30
0.0
 10
293.7402806917672
 20
1083.129370827374
 30
0.0
 10
293.8970911573527
 20
1082.972750360585
 30
0.0
 10
293.9375654849907
 20
1082.932325073511
 30
0.0
  0
LWPOLYLINE
  5
337
330
1F
100
AcDbEntity
  8
0
  6
Continuous
 62
     7
370
    25
100
AcDbPolyline
 90
        9
 70
   128
 43
0.0
 10
293.937565485
 20
1082.9323250735
 10
293.9375579254
 20
1082.9317041877
 10
293.9375503273
 20
1082.9310833023
 10
293.9375426906
 20
1082.9304624174
 10
293.9375350154
 20
1082.929841533
 10
293.9375273016
 20
1082.9292206491
 10
293.9375195492
 20
1082.9285997656
 10
293.9375117583
 20
1082.9279788827
 10
293.9375039288
 20
1082.9273580002
  0
LINE
  5
338
330
1F
100
AcDbEntity
  8
0
  6
Continuous
 62
     7
370
    25
100
AcDbLine
 10
293.9375039288
 20
1082.9273580002
 30
0.0
 11
293.4513217057
 21
1082.4530755637
 31
0.0
  0
LINE
  5
339
330
1F
100
AcDbEntity
  8
0
  6
Continuous
 62
     7
370
    25
100
AcDbLine
 10
293.4513217057
 20
1082.4530755637
 30
0.0
 11
293.8763538771
 21
1081.9338830222
 31
0.0
  0
LINE
  5
33A
330
1F
100
AcDbEntity
  8
0
  6
Continuous
 62
     7
370
    25
100
AcDbLine
 10
293.8760154107
 20
1081.9308384815
 30
0.0
 11
293.3438434895
 21
1081.5066102857
 31
0.0
  0
LINE
  5
33B
330
1F
100
AcDbEntity
  8
0
  6
Continuous
 62
     7
370
    25
100
AcDbLine
 10
293.3438434895
 20
1081.5066102857
 30
0.0
 11
293.7149195051
 21
1080.9475791306
 31
0.0
  0
LINE
  5
33C
330
1F
100
AcDbEntity
  8
0
  6
Continuous
 62
     7
370
    25
100
AcDbLine
 10
293.7142787717
 20
1080.944583599
 30
0.0
 11
293.1424133543
 21
1080.5756033094
 31
0.0
  0
LINE
  5
33D
330
1F
100
AcDbEntity
  8
0
  6
Continuous
 62
     7
370
    25
100
AcDbLine
 10
293.1424133543
 20
1080.5756033094
 30
0.0
 11
293.4558255452
 21
1079.9823191951
 31
0.0
  0
LINE
  5
33E
330
1F
100
AcDbEntity
  8
0
  6
Continuous
 62
     7
370
    25
100
AcDbLine
 10
293.4548889688
 20
1079.9794025853
 30
0.0
 11
292.8490439234
 21
1079.6693569487
 31
0.0
  0
LINE
  5
33F
330
1F
100
AcDbEntity
  8
0
  6
Continuous
 62
     7
370
    25
100
AcDbLine
 10
292.8490439234
 20
1079.6693569487
 30
0.0
 11
293.1016607786
 21
1079.0477477739
 31
0.0
  0
LINE
  5
340
330
1F
100
AcDbEntity
  8
0
  6
Continuous
 62
     7
370
    25
100
AcDbLine
 10
293.100437697
 20
1079.0449392475
 30
0.0
 11
292.4666664472
 21
1078.7969261177
 31
0.0
  0
LINE
  5
341
330
1F
100
AcDbEntity
  8
0
  6
Continuous
 62
     7
370
    25
100
AcDbLine
 10
292.4666664472
 20
1078.7969261177
 30
0.0
 11
292.6559639026
 21
1078.1532027958
 31
0.0
  0
LINE
  5
342
330
1F
100
AcDbEntity
  8
0
  6
Continuous
 62
     7
370
    25
100
AcDbLine
 10
292.6544665466
 20
1078.1505304048
 30
0.0
 11
291.999101515
 21
1077.9670278568
 31
0.0
  0
LINE
  5
343
330
1F
100
AcDbEntity
  8
0
  6
Continuous
 62
     7
370
    25
100
AcDbLine
 10
291.999101515
 20
1077.9670278568
 30
0.0
 11
292.123188173
 21
1077.3076222585
 31
0.0
  0
LINE
  5
344
330
1F
100
AcDbEntity
  8
0
  6
Continuous
 62
     7
370
    25
100
AcDbLine
 10
292.1214315036
 20
1077.3051127045
 30
0.0
 11
291.451020881
 21
1077.1879542351
 31
0.0
  0
LINE
  5
345
330
1F
100
AcDbEntity
  8
0
  6
Continuous
 62
     7
370
    25
100
AcDbLine
 10
291.451020881
 20
1077.1879542351
 30
0.0
 11
291.5086569088
 21
1076.5194549232
 31
0.0
  0
LINE
  5
346
330
1F
100
AcDbEntity
  8
0
  6
Continuous
 62
     7
370
    25
100
AcDbLine
 10
291.5066584835
 20
1076.5171332677
 30
0.0
 11
290.8279007859
 21
1076.4674894987
 31
0.0
  0
LINE
  5
347
330
1F
100
AcDbEntity
  8
0
  6
Continuous
 62
     7
370
    25
100
AcDbLine
 10
290.8279007859
 20
1076.4674894987
 30
0.0
 11
290.8185103032
 21
1075.7965758973
 31
0.0
  0
LINE
  5
348
330
1F
100
AcDbEntity
  8
0
  6
Continuous
 62
     7
370
    25
100
AcDbLine
 10
290.8162900829
 20
1075.7944653501
 30
0.0
 11
290.1359672395
 21
1075.8128322932
 31
0.0
  0
LINE
  5
349
330
1F
100
AcDbEntity
  8
0
  6
Continuous
 62
     7
370
    25
100
AcDbLine
 10
290.1359672395
 20
1075.8128322932
 30
0.0
 11
290.0596440731
 21
1075.1462079492
 31
0.0
  0
LINE
  5
34A
330
1F
100
AcDbEntity
  8
0
  6
Continuous
 62
     7
370
    25
100
AcDbLine
 10
290.0572242388
 20
1075.144329612
 30
0.0
 11
289.3821338133
 21
1075.2305237369
 31
0.0
  0
LINE
  5
34B
330
1F
100
AcDbEntity
  8
0
  6
Continuous
 62
     7
370
    25
100
AcDbLine
 10
289.3821338133
 20
1075.2305237369
 30
0.0
 11
289.2396405589
 21
1074.5748493403
 31
0.0
  0
LINE
  5
34C
330
1F
100
AcDbEntity
  8
0
  6
Continuous
 62
     7
370
    25
100
AcDbLine
 10
289.2370452942
 20
1074.5732219533
 30
0.0
 11
288.5739325615
 21
1074.7263820645
 31
0.0
  0
LINE
  5
34D
330
1F
100
AcDbEntity
  8
0
  6
Continuous
 62
     7
370
    25
100
AcDbLine
 10
288.5739325615
 20
1074.7263820645
 30
0.0
 11
288.3666929646
 21
1074.0882088972
 31
0.0
  0
LINE
  5
34E
330
1F
100
AcDbEntity
  8
0
  6
Continuous
 62
     7
370
    25
100
AcDbLine
 10
288.3639481979
 20
1074.0868487487
 30
0.0
 11
287.719438764
 21
1074.3054444928
 31
0.0
  0
LINE
  5
34F
330
1F
100
AcDbEntity
  8
0
  6
Continuous
 62
     7
370
    25
100
AcDbLine
 10
287.719438764
 20
1074.3054444928
 30
0.0
 11
287.4495234942
 21
1073.6911489703
 31
0.0
  0
LINE
  5
350
330
1F
100
AcDbEntity
  8
0
  6
Continuous
 62
     7
370
    25
100
AcDbLine
 10
287.4466566516
 20
1073.6900696362
 30
0.0
 11
286.8271902402
 21
1073.9719168909
 31
0.0
  0
LINE
  5
351
330
1F
100
AcDbEntity
  8
0
  6
Continuous
 62
     7
370
    25
100
AcDbLine
 10
286.8271902402
 20
1073.9719168909
 30
0.0
 11
286.4972962017
 21
1073.387636851
 31
0.0
  0
LINE
  5
352
330
1F
100
AcDbEntity
  8
0
  6
Continuous
 62
     7
370
    25
100
AcDbLine
 10
286.4943359277
 20
1073.3868491157
 30
0.0
 11
285.9061020426
 21
1073.7291317565
 31
0.0
  0
LINE
  5
353
330
1F
100
AcDbEntity
  8
0
  6
Continuous
 62
     7
370
    25
100
AcDbLine
 10
285.9061020426
 20
1073.7291317565
 30
0.0
 11
285.5195254274
 21
1073.1807051319
 31
0.0
  0
LINE
  5
354
330
1F
100
AcDbEntity
  8
0
  6
Continuous
 62
     7
370
    25
100
AcDbLine
 10
285.5165013003
 20
1073.1802168664
 30
0.0
 11
284.9653773799
 21
1073.5795149182
 31
0.0
  0
LINE
  5
355
330
1F
100
AcDbEntity
  8
0
  6
Continuous
 62
     7
370
    25
100
AcDbLine
 10
284.9653773799
 20
1073.5795149182
 30
0.0
 11
284.5259807339
 21
1073.0724214067
 31
0.0
  0
LINE
  5
356
330
1F
100
AcDbEntity
  8
0
  6
Continuous
 62
     7
370
    25
100
AcDbLine
 10
284.5229229696
 20
1073.0722374895
 30
0.0
 11
284.014415662
 21
1073.5245612982
 31
0.0
  0
LINE
  5
357
330
1F
100
AcDbEntity
  8
0
  6
Continuous
 62
     7
370
    25
100
AcDbLine
 10
284.014415662
 20
1073.5245612982
 30
0.0
 11
283.5265892912
 21
1073.0638676105
 31
0.0
  0
LINE
  5
358
330
1F
100
AcDbEntity
  8
0
  6
Continuous
 62
     7
370
    25
100
AcDbLine
 10
283.5235284419
 20
1073.0639898791
 30
0.0
 11
283.062718584
 21
1073.5648199748
 31
0.0
  0
LINE
  5
359
330
1F
100
AcDbEntity
  8
0
  6
Continuous
 62
     7
370
    25
100
AcDbLine
 10
283.062718584
 20
1073.5648199748
 30
0.0
 11
282.5313366883
 21
1073.1551292099
 31
0.0
  0
LINE
  5
35A
330
1F
100
AcDbEntity
  8
0
  6
Continuous
 62
     7
370
    25
100
AcDbLine
 10
282.5283033289
 20
1073.1555564311
 30
0.0
 11
282.1197951886
 21
1073.6998886965
 31
0.0
  0
LINE
  5
35B
330
1F
100
AcDbEntity
  8
0
  6
Continuous
 62
     7
370
    25
100
AcDbLine
 10
282.1197951886
 20
1073.6998886965
 30
0.0
 11
281.5501671603
 21
1073.3452943493
 31
0.0
  0
LINE
  5
35C
330
1F
100
AcDbEntity
  8
0
  6
Continuous
 62
     7
370
    25
100
AcDbLine
 10
281.547191615
 20
1073.3460222775
 30
0.0
 11
281.1950668546
 21
1073.9284179015
 31
0.0
  0
LINE
  5
35D
330
1F
100
AcDbEntity
  8
0
  6
Continuous
 62
     7
370
    25
100
AcDbLine
 10
281.1950668546
 20
1073.9284179015
 30
0.0
 11
280.5928842284
 21
1073.6324629613
 31
0.0
  0
LINE
  5
35E
330
1F
100
AcDbEntity
  8
0
  6
Continuous
 62
     7
370
    25
100
AcDbLine
 10
280.5899962202
 20
1073.6334843118
 30
0.0
 11
280.2977731618
 21
1074.2481242014
 31
0.0
  0
LINE
  5
35F
330
1F
100
AcDbEntity
  8
0
  6
Continuous
 62
     7
370
    25
100
AcDbLine
 10
280.2977731618
 20
1074.2481242014
 30
0.0
 11
279.6690527476
 21
1074.0137657521
 31
0.0
  0
LINE
  5
360
330
1F
100
AcDbEntity
  8
0
  6
Continuous
 62
     7
370
    25
100
AcDbLine
 10
279.6662811212
 20
1074.0150703111
 30
0.0
 11
279.4368795722
 21
1074.6558131965
 31
0.0
  0
LINE
  5
361
330
1F
100
AcDbEntity
  8
0
  6
Continuous
 62
     7
370
    25
100
AcDbLine
 10
279.4368795722
 20
1074.6558131965
 30
0.0
 11
278.7879033366
 21
1074.4853928704
 31
0.0
  0
LINE
  5
362
330
1F
100
AcDbEntity
  8
0
  6
Continuous
 62
     7
370
    25
100
AcDbLine
 10
278.7852758073
 20
1074.4869676206
 30
0.0
 11
278.6209878501
 21
1075.1474113932
 31
0.0
  0
LINE
  5
363
330
1F
100
AcDbEntity
  8
0
  6
Continuous
 62
     7
370
    25
100
AcDbLine
 10
278.6209878501
 20
1075.1474113932
 30
0.0
 11
277.9582401492
 21
1075.0426319738
 31
0.0
  0
LINE
  5
364
330
1F
100
AcDbEntity
  8
0
  6
Continuous
 62
     7
370
    25
100
AcDbLine
 10
277.9557829591
 20
1075.044461172
 30
0.0
 11
277.8582501157
 21
1075.7180069048
 31
0.0
  0
LINE
  5
365
330
1F
100
AcDbEntity
  8
0
  6
Continuous
 62
     7
370
    25
100
AcDbLine
 10
277.8582501157
 20
1075.7180069048
 30
0.0
 11
277.1883529054
 21
1075.6799153135
 31
0.0
  0
LINE
  5
366
330
1F
100
AcDbEntity
  8
0
  6
Continuous
 62
     7
370
    25
100
AcDbLine
 10
277.1860905929
 20
1075.6819806779
 30
0.0
 11
277.1562873925
 21
1076.3618985296
 31
0.0
  0
LINE
  5
367
330
1F
100
AcDbEntity
  8
0
  6
Continuous
 62
     7
370
    25
100
AcDbLine
 10
277.1562873925
 20
1076.3618985296
 30
0.0
 11
276.485934064
 21
1076.3908753648
 31
0.0
  0
LINE
  5
368
330
1F
100
AcDbEntity
  8
0
  6
Continuous
 62
     7
370
    25
100
AcDbLine
 10
276.4838892462
 20
1076.3931562654
 30
0.0
 11
276.5221134598
 21
1077.0726527153
 31
0.0
  0
LINE
  5
369
330
1F
100
AcDbEntity
  8
0
  6
Continuous
 62
     7
370
    25
100
AcDbLine
 10
276.5221134598
 20
1077.0726527153
 30
0.0
 11
275.8580019623
 21
1077.1684084502
 31
0.0
  0
LINE
  5
36A
330
1F
100
AcDbEntity
  8
0
  6
Continuous
 62
     7
370
    25
100
AcDbLine
 10
275.8561950841
 20
1077.1708820992
 30
0.0
 11
275.962064774
 21
1077.8431678409
 31
0.0
  0
LINE
  5
36B
330
1F
100
AcDbEntity
  8
0
  6
Continuous
 62
     7
370
    25
100
AcDbLine
 10
275.962064774
 20
1077.8431678409
 30
0.0
 11
275.3108306901
 21
1078.0047457158
 31
0.0
  0
LINE
  5
36C
330
1F
100
AcDbEntity
  8
0
  6
Continuous
 62
     7
370
    25
100
AcDbLine
 10
275.3092797774
 20
1078.0073873928
 30
0.0
 11
275.4817371565
 21
1078.6657451741
 31
0.0
  0
LINE
  5
36D
330
1F
100
AcDbEntity
  8
0
  6
Continuous
 62
     7
370
    25
100
AcDbLine
 10
275.4817371565
 20
1078.6657451741
 30
0.0
 11
274.8498874017
 21
1078.8915307563
 31
0.0
  0
LINE
  5
36E
330
1F
100
AcDbEntity
  8
0
  6
Continuous
 62
     7
370
    25
100
AcDbLine
 10
274.8486079789
 20
1078.8943140684
 30
0.0
 11
275.085929882
 21
1079.5321657941
 31
0.0
  0
LINE
  5
36F
330
1F
100
AcDbEntity
  8
0
  6
Continuous
 62
     7
370
    25
100
AcDbLine
 10
275.085929882
 20
1079.5321657941
 30
0.0
 11
274.4797776902
 21
1079.8199031087
 31
0.0
  0
LINE
  5
370
330
1F
100
AcDbEntity
  8
0
  6
Continuous
 62
     7
370
    25
100
AcDbLine
 10
274.4787825128
 20
1079.8228002468
 30
0.0
 11
274.778597726
 21
1080.4337727125
 31
0.0
  0
LINE
  5
371
330
1F
100
AcDbEntity
  8
0
  6
Continuous
 62
     7
370
    25
100
AcDbLine
 10
274.778597726
 20
1080.4337727125
 30
0.0
 11
274.2041995696
 21
1080.7805867832
 31
0.0
  0
LINE
  5
372
330
1F
100
AcDbEntity
  8
0
  6
Continuous
 62
     7
370
    25
100
AcDbLine
 10
274.2034986088
 20
1080.7835687964
 30
0.0
 11
274.5628114498
 21
1081.3615573708
 31
0.0
  0
LINE
  5
373
330
1F
100
AcDbEntity
  8
0
  6
Continuous
 62
     7
370
    25
100
AcDbLine
 10
274.5628114498
 20
1081.3615573708
 30
0.0
 11
274.0259065253
 21
1081.7639829463
 31
0.0
  0
LINE
  5
374
330
1F
100
AcDbEntity
  8
0
  6
Continuous
 62
     7
370
    25
100
AcDbLine
 10
274.0255067576
 20
1081.7670200458
 30
0.0
 11
274.4407271185
 21
1082.3062496516
 31
0.0
  0
LINE
  5
375
330
1F
100
AcDbEntity
  8
0
  6
Continuous
 62
     7
370
    25
100
AcDbLine
 10
274.4407271185
 20
1082.3062496516
 30
0.0
 11
273.9466800024
 21
1082.7602658284
 31
0.0
  0
SPLINE
  5
376
330
1F
100
AcDbEntity
  8
0
  6
Continuous
 62
     7
370
    25
100
AcDbSpline
210
0.0
220
0.0
230
1.0
 70
     8
 71
     3
 72
     9
 73
     5
 74
     0
 42
0.000000001
 43
0.00000001
 40
0.0
 40
0.0
 40
0.0
 40
0.0
 40
0.5886511107999512
 40
1.0
 40
1.0
 40
1.0
 40
1.0
 10
273.9465854358653
 20
1082.763327665261
 30
0.0
 10
274.037659453623
 20
1082.859882690338
 30
0.0
 10
274.1923759165444
 20
1083.023910283775
 30
0.0
 10
274.3490973102616
 20
1083.190063485341
 30
0.0
 10
274.4135644814811
 20
1083.258410420242
 30
0.0
  0
LINE
  5
377
330
1F
100
AcDbEntity
  8
0
  6
Continuous
 62
     7
370
    25
100
AcDbLine
 10
274.4135644918
 20
1083.2584105079
 30
0.0
 11
273.9673116061
 21
1083.7594809005
 31
0.0
  0
LINE
  5
378
330
1F
100
AcDbEntity
  8
0
  6
Continuous
 62
     7
370
    25
100
AcDbLine
 10
293.9383026467
 20
1082.9315888049
 30
0.0
 11
293.9383026467
 21
1082.9281371687
 31
0.0
  0
LINE
  5
379
330
1F
100
AcDbEntity
  8
0
  6
Continuous
 62
     7
370
    25
100
AcDbLine
 10
293.937565485
 20
1082.9323250735
 30
0.0
 11
293.9383026467
 21
1082.9315888049
 31
0.0
  0
LINE
  5
37A
330
1F
100
AcDbEntity
  8
0
  6
Continuous
 62
     7
370
    25
100
AcDbLine
 10
293.9383026467
 20
1082.9281371687
 30
0.0
 11
293.9375039288
 21
1082.9273580002
 31
0.0
  0
LINE
  5
37B
330
1F
100
AcDbEntity
  8
0
  6
Continuous
 62
     7
370
    25
100
AcDbLine
 10
668.3408183437
 20
754.6037292852
 30
0.0
 11
667.4408183437
 21
754.6037292852
 31
0.0
  0
LINE
  5
37C
330
1F
100
AcDbEntity
  8
0
  6
Continuous
 62
     7
370
    25
100
AcDbLine
 10
667.4408183437
 20
752.3537292838
 30
0.0
 11
667.4408183437
 21
754.6037292852
 31
0.0
  0
LINE
  5
37D
330
1F
100
AcDbEntity
  8
0
  6
Continuous
 62
     7
370
    25
100
AcDbLine
 10
274.4408183437
 20
754.6037292854
 30
0.0
 11
272.9408183437
 21
754.6037292854
 31
0.0
  0
LINE
  5
37E
330
1F
100
AcDbEntity
  8
0
  6
Continuous
 62
     7
370
    25
100
AcDbLine
 10
272.9408183437
 20
752.6537292852
 30
0.0
 11
272.9408183437
 21
754.6037292854
 31
0.0
  0
LINE
  5
37F
330
1F
100
AcDbEntity
  8
0
  6
Continuous
 62
     7
370
    25
100
AcDbLine
 10
274.4408183437
 20
752.3537292838
 30
0.0
 11
274.4408183437
 21
754.6037292854
 31
0.0
  0
LINE
  5
380
330
1F
100
AcDbEntity
  8
0
  6
Continuous
 62
     7
370
    25
100
AcDbLine
 10
665.1408183437
 20
754.3537292838
 30
0.0
 11
665.1408183437
 21
754.7537292867
 31
0.0
  0
LINE
  5
381
330
1F
100
AcDbEntity
  8
0
  6
Continuous
 62
     7
370
    25
100
AcDbLine
 10
666.6408183437
 20
753.9537292828
 30
0.0
 11
666.6408183437
 21
754.7537292867
 31
0.0
  0
LINE
  5
382
330
1F
100
AcDbEntity
  8
0
  6
Continuous
 62
     7
370
    25
100
AcDbLine
 10
276.7408183437
 20
754.3537292838
 30
0.0
 11
276.7408183437
 21
754.7537292867
 31
0.0
  0
LINE
  5
383
330
1F
100
AcDbEntity
  8
0
  6
Continuous
 62
     7
370
    25
100
AcDbLine
 10
275.2408183437
 20
753.9537292849
 30
0.0
 11
275.2408183437
 21
754.7537292867
 31
0.0
  0
LINE
  5
384
330
1F
100
AcDbEntity
  8
0
  6
Continuous
 62
     7
370
    25
100
AcDbLine
 10
665.1408183437
 20
756.7537292864
 30
0.0
 11
666.6408183437
 21
756.7537292864
 31
0.0
  0
LINE
  5
385
330
1F
100
AcDbEntity
  8
0
  6
Continuous
 62
     7
370
    25
100
AcDbLine
 10
665.1408183437
 20
754.7537292867
 30
0.0
 11
665.1408183437
 21
756.7537292864
 31
0.0
  0
LINE
  5
386
330
1F
100
AcDbEntity
  8
0
  6
Continuous
 62
     7
370
    25
100
AcDbLine
 10
666.6408183437
 20
756.7537292864
 30
0.0
 11
666.6408183437
 21
754.7537292867
 31
0.0
  0
LINE
  5
387
330
1F
100
AcDbEntity
  8
0
  6
Continuous
 62
     7
370
    25
100
AcDbLine
 10
275.4657817803
 20
756.7537292864
 30
0.0
 11
276.7408183437
 21
756.7537292864
 31
0.0
  0
LINE
  5
388
330
1F
100
AcDbEntity
  8
0
  6
Continuous
 62
     7
370
    25
100
AcDbLine
 10
276.7408183437
 20
756.7537292864
 30
0.0
 11
276.7408183437
 21
754.7537292867
 31
0.0
  0
LINE
  5
389
330
1F
100
AcDbEntity
  8
0
  6
Continuous
 62
     7
370
    25
100
AcDbLine
 10
275.2408183437
 20
754.7537292867
 30
0.0
 11
275.2408183437
 21
756.7537292864
 31
0.0
  0
LINE
  5
38A
330
1F
100
AcDbEntity
  8
0
  6
Continuous
 62
     7
370
    25
100
AcDbLine
 10
665.1408183437
 20
756.7537292859
 30
0.0
 11
665.1408183437
 21
758.7537292856
 31
0.0
  0
LINE
  5
38B
330
1F
100
AcDbEntity
  8
0
  6
Continuous
 62
     7
370
    25
100
AcDbLine
 10
666.6408183437
 20
758.7537292856
 30
0.0
 11
666.6408183437
 21
756.7537292859
 31
0.0
  0
LINE
  5
38C
330
1F
100
AcDbEntity
  8
0
  6
Continuous
 62
     7
370
    25
100
AcDbLine
 10
276.7408183437
 20
758.7537292856
 30
0.0
 11
276.7408183437
 21
756.7537292859
 31
0.0
  0
LINE
  5
38D
330
1F
100
AcDbEntity
  8
0
  6
Continuous
 62
     7
370
    25
100
AcDbLine
 10
665.1408183437
 20
758.7537292856
 30
0.0
 11
665.1408183437
 21
765.5660547581
 31
0.0
  0
LINE
  5
38E
330
1F
100
AcDbEntity
  8
0
  6
Continuous
 62
     7
370
    25
100
AcDbLine
 10
666.6408183437
 20
758.7537292856
 30
0.0
 11
666.6408183437
 21
765.5660547581
 31
0.0
  0
LINE
  5
38F
330
1F
100
AcDbEntity
  8
0
  6
Continuous
 62
     7
370
    25
100
AcDbLine
 10
276.7408183437
 20
758.7537292856
 30
0.0
 11
276.7408183437
 21
765.5660547581
 31
0.0
  0
LINE
  5
390
330
1F
100
AcDbEntity
  8
0
  6
Continuous
 62
     7
370
    25
100
AcDbLine
 10
666.7408183437
 20
755.353729284
 30
0.0
 11
668.2408183437
 21
755.353729284
 31
0.0
  0
LINE
  5
391
330
1F
100
AcDbEntity
  8
0
  6
Continuous
 62
     7
370
    25
100
AcDbLine
 10
668.2408183437
 20
755.353729284
 30
0.0
 11
668.2408183437
 21
754.6037292852
 31
0.0
  0
LINE
  5
392
330
1F
100
AcDbEntity
  8
0
  6
Continuous
 62
     7
370
    25
100
AcDbLine
 10
666.7408183437
 20
753.873597698
 30
0.0
 11
666.7408183437
 21
755.353729284
 31
0.0
  0
LINE
  5
393
330
1F
100
AcDbEntity
  8
0
  6
Continuous
 62
     7
370
    25
100
AcDbLine
 10
273.6408183437
 20
754.6037292854
 30
0.0
 11
273.6408183437
 21
754.6537292852
 31
0.0
  0
LINE
  5
394
330
1F
100
AcDbEntity
  8
0
  6
Continuous
 62
     7
370
    25
100
AcDbLine
 10
275.1408183437
 20
755.353729284
 30
0.0
 11
275.1408183437
 21
753.8735977004
 31
0.0
  0
LINE
  5
395
330
1F
100
AcDbEntity
  8
0
  6
Continuous
 62
     7
370
    25
100
AcDbLine
 10
666.7408183437
 20
755.3537292818
 30
0.0
 11
666.6408183437
 21
755.3537292818
 31
0.0
  0
LINE
  5
396
330
1F
100
AcDbEntity
  8
0
  6
Continuous
 62
     7
370
    25
100
AcDbLine
 10
275.2408183437
 20
755.3537292818
 30
0.0
 11
275.1408183437
 21
755.3537292818
 31
0.0
  0
LINE
  5
397
330
1F
100
AcDbEntity
  8
0
  6
Continuous
 62
     7
370
    25
100
AcDbLine
 10
274.4408183423
 20
748.8537292852
 30
0.0
 11
274.4408183423
 21
752.3537292838
 31
0.0
  0
ARC
  5
398
330
1F
100
AcDbEntity
  8
0
  6
Continuous
 62
     7
370
    25
100
AcDbCircle
 10
276.4408183423
 20
752.3537292838
 30
0.0
 40
2.0
100
AcDbArc
 50
90.0
 51
180.0
  0
LINE
  5
399
330
1F
100
AcDbEntity
  8
0
  6
Continuous
 62
     7
370
    25
100
AcDbLine
 10
276.4408183423
 20
754.3537292838
 30
0.0
 11
277.4408183423
 21
754.3537292838
 31
0.0
  0
ARC
  5
39A
330
1F
100
AcDbEntity
  8
0
  6
Continuous
 62
     7
370
    25
100
AcDbCircle
 10
277.4408183423
 20
756.3537292838
 30
0.0
 40
2.0
100
AcDbArc
 50
270.0
 51
0.0
  0
LINE
  5
39B
330
1F
100
AcDbEntity
  8
0
  6
Continuous
 62
     7
370
    25
100
AcDbLine
 10
279.4408183423
 20
756.3537292838
 30
0.0
 11
279.4408183423
 21
761.1037292838
 31
0.0
  0
LINE
  5
39C
330
1F
100
AcDbEntity
  8
0
  6
Continuous
 62
     7
370
    25
100
AcDbLine
 10
662.4408183423
 20
761.1037292838
 30
0.0
 11
662.4408183423
 21
756.3537292838
 31
0.0
  0
ARC
  5
39D
330
1F
100
AcDbEntity
  8
0
  6
Continuous
 62
     7
370
    25
100
AcDbCircle
 10
664.4408183423
 20
756.3537292838
 30
0.0
 40
2.0
100
AcDbArc
 50
180.0
 51
270.0
  0
LINE
  5
39E
330
1F
100
AcDbEntity
  8
0
  6
Continuous
 62
     7
370
    25
100
AcDbLine
 10
664.4408183423
 20
754.3537292838
 30
0.0
 11
665.4408183423
 21
754.3537292838
 31
0.0
  0
ARC
  5
39F
330
1F
100
AcDbEntity
  8
0
  6
Continuous
 62
     7
370
    25
100
AcDbCircle
 10
665.4408183423
 20
752.3537292838
 30
0.0
 40
2.0
100
AcDbArc
 50
0.0
 51
90.0
  0
LINE
  5
3A0
330
1F
100
AcDbEntity
  8
0
  6
Continuous
 62
     7
370
    25
100
AcDbLine
 10
667.4408183423
 20
752.3537292838
 30
0.0
 11
667.4408183423
 21
748.8537292852
 31
0.0
  0
LINE
  5
3A1
330
1F
100
AcDbEntity
  8
0
  6
Continuous
 62
     7
370
    25
100
AcDbLine
 10
279.4408183423
 20
761.1037292838
 30
0.0
 11
279.4408183423
 21
763.5537292834
 31
0.0
  0
LINE
  5
3A2
330
1F
100
AcDbEntity
  8
0
  6
Continuous
 62
     7
370
    25
100
AcDbLine
 10
662.4408183423
 20
763.5537292834
 30
0.0
 11
279.4408183423
 21
763.5537292834
 31
0.0
  0
LINE
  5
3A3
330
1F
100
AcDbEntity
  8
0
  6
Continuous
 62
     7
370
    25
100
AcDbLine
 10
662.4408183423
 20
763.5537292834
 30
0.0
 11
662.4408183423
 21
761.1037292838
 31
0.0
  0
ARC
  5
3A4
330
1F
100
AcDbEntity
  8
0
  6
Continuous
 62
     7
370
    25
100
AcDbCircle
 10
497.2408184906
 20
768.9536561238
 30
0.0
 40
4.499999999999997
100
AcDbArc
 50
228.8335345708
 51
270.0
  0
ARC
  5
3A5
330
1F
100
AcDbEntity
  8
0
  6
Continuous
 62
     7
370
    25
100
AcDbCircle
 10
444.3612704906
 20
768.953656129
 30
0.0
 40
4.499999999999964
100
AcDbArc
 50
270.0
 51
311.1664653274
  0
LINE
  5
3A6
330
1F
100
AcDbEntity
  8
0
  6
Continuous
 62
     7
370
    25
100
AcDbLine
 10
444.1554991247
 20
764.453656129
 30
0.0
 11
444.3285020479
 21
764.3537728447
 31
0.0
  0
LINE
  5
3A7
330
1F
100
AcDbEntity
  8
0
  6
Continuous
 62
     7
370
    25
100
AcDbLine
 10
444.3940389333
 20
764.3537728447
 30
0.0
 11
444.5759133835
 21
764.4587781075
 31
0.0
  0
ARC
  5
3A8
330
1F
100
AcDbEntity
  8
0
  6
Continuous
 62
     7
370
    25
100
AcDbCircle
 10
444.3612704906
 20
768.953656129
 30
0.0
 40
4.599999999999866
100
AcDbArc
 50
269.591845794
 51
270.4081542061
  0
LINE
  5
3A9
330
1F
100
AcDbEntity
  8
0
  6
Continuous
 62
     7
370
    25
100
AcDbLine
 10
437.9554991247
 20
764.453656129
 30
0.0
 11
439.5142181443
 21
763.5537292834
 31
0.0
  0
LINE
  5
3AA
330
1F
100
AcDbEntity
  8
0
  6
Continuous
 62
     7
370
    25
100
AcDbLine
 10
451.4612704906
 20
765.2671944108
 30
0.0
 11
451.4612704906
 21
765.5660547581
 31
0.0
  0
ARC
  5
3AB
330
1F
100
AcDbEntity
  8
0
  6
Continuous
 62
     7
370
    25
100
AcDbCircle
 10
444.3612704906
 20
768.953656129
 30
0.0
 40
7.999999999999999
100
AcDbArc
 50
327.4392401507
 51
332.5607598493
  0
LINE
  5
3AC
330
1F
100
AcDbEntity
  8
0
  6
Continuous
 62
     7
370
    25
100
AcDbLine
 10
449.2083228369
 20
763.5537292834
 30
0.0
 11
451.1038399887
 21
764.6481066213
 31
0.0
  0
ARC
  5
3AD
330
1F
100
AcDbEntity
  8
0
  6
Continuous
 62
     7
370
    25
100
AcDbCircle
 10
497.2408184906
 20
768.9536561238
 30
0.0
 40
4.550000000000068
100
AcDbArc
 50
268.4635032319
 51
271.5364967681
  0
LINE
  5
3AE
330
1F
100
AcDbEntity
  8
0
  6
Continuous
 62
     7
370
    25
100
AcDbLine
 10
497.0261755978
 20
764.4587781022
 30
0.0
 11
497.1188160945
 21
764.4052920865
 31
0.0
  0
LINE
  5
3AF
330
1F
100
AcDbEntity
  8
0
  6
Continuous
 62
     7
370
    25
100
AcDbLine
 10
497.3628208868
 20
764.4052920865
 30
0.0
 11
497.4465898566
 21
764.4536561238
 31
0.0
  0
LINE
  5
3B0
330
1F
100
AcDbEntity
  8
0
  6
Continuous
 62
     7
370
    25
100
AcDbLine
 10
502.3215430983
 20
763.5537292834
 30
0.0
 11
502.8411161018
 21
764.4536561238
 31
0.0
  0
LINE
  5
3B1
330
1F
100
AcDbEntity
  8
0
  6
Continuous
 62
     7
370
    25
100
AcDbLine
 10
490.9982772285
 20
765.5660547581
 30
0.0
 11
492.160093883
 21
763.5537292834
 31
0.0
  0
LINE
  5
3B2
330
1F
100
AcDbEntity
  8
0
  6
Continuous
 62
     7
370
    25
100
AcDbLine
 10
695.9408183437
 20
781.0983730567
 30
0.0
 11
695.9408183437
 21
798.1891595458
 31
0.0
  0
LINE
  5
3B3
330
1F
100
AcDbEntity
  8
0
  6
Continuous
 62
     7
370
    25
100
AcDbLine
 10
245.9408183437
 20
781.0983730567
 30
0.0
 11
245.9408183437
 21
798.1891595458
 31
0.0
  0
LINE
  5
3B4
330
1F
100
AcDbEntity
  8
0
  6
Continuous
 62
     7
370
    25
100
AcDbLine
 10
695.9408183437
 20
766.2983401582
 30
0.0
 11
695.9408183437
 21
781.0983730567
 31
0.0
  0
LINE
  5
3B5
330
1F
100
AcDbEntity
  8
0
  6
Continuous
 62
     7
370
    25
100
AcDbLine
 10
245.9408183437
 20
766.2983401582
 30
0.0
 11
245.9408183437
 21
781.0983730567
 31
0.0
  0
LINE
  5
3B6
330
1F
100
AcDbEntity
  8
0
  6
Continuous
 62
     7
370
    25
100
AcDbLine
 10
245.9408183437
 20
798.1891595458
 30
0.0
 11
245.9408183437
 21
805.2685235553
 31
0.0
  0
LINE
  5
3B7
330
1F
100
AcDbEntity
  8
0
  6
Continuous
 62
     7
370
    25
100
AcDbLine
 10
695.9408183437
 20
798.1891595458
 30
0.0
 11
695.9408183437
 21
805.2685235553
 31
0.0
  0
LINE
  5
3B8
330
1F
100
AcDbEntity
  8
0
  6
Continuous
 62
     7
370
    25
100
AcDbLine
 10
695.9408183437
 20
765.5660547581
 30
0.0
 11
695.9408183437
 21
766.2983401582
 31
0.0
  0
LINE
  5
3B9
330
1F
100
AcDbEntity
  8
0
  6
Continuous
 62
     7
370
    25
100
AcDbLine
 10
695.9408183437
 20
765.5660547581
 30
0.0
 11
245.9408183437
 21
765.5660547581
 31
0.0
  0
LINE
  5
3BA
330
1F
100
AcDbEntity
  8
0
  6
Continuous
 62
     7
370
    25
100
AcDbLine
 10
245.9408183437
 20
765.5660547581
 30
0.0
 11
245.9408183437
 21
766.2983401582
 31
0.0
  0
LINE
  5
3BB
330
1F
100
AcDbEntity
  8
0
  6
Continuous
 62
     7
370
    25
100
AcDbLine
 10
245.9408183437
 20
805.2685235553
 30
0.0
 11
245.9408183437
 21
811.5752798195
 31
0.0
  0
LINE
  5
3BC
330
1F
100
AcDbEntity
  8
0
  6
Continuous
 62
     7
370
    25
100
AcDbLine
 10
695.9408183437
 20
805.2685235553
 30
0.0
 11
695.9408183437
 21
811.5752798195
 31
0.0
  0
LINE
  5
3BD
330
1F
100
AcDbEntity
  8
0
  6
Continuous
 62
     7
370
    25
100
AcDbLine
 10
260.8408183437
 20
886.4372141237
 30
0.0
 11
260.8408183437
 21
885.4654878025
 31
0.0
  0
ARC
  5
3BE
330
1F
100
AcDbEntity
  8
0
  6
Continuous
 62
     7
370
    25
100
AcDbCircle
 10
261.1408183437
 20
885.4776078436
 30
0.0
 40
0.3002447258423225
100
AcDbArc
 50
182.3134992123
 51
357.6865007877
  0
ARC
  5
3BF
330
1F
100
AcDbEntity
  8
0
  6
Continuous
 62
     7
370
    25
100
AcDbCircle
 10
276.7408183437
 20
885.4776078436
 30
0.0
 40
0.3002447258422565
100
AcDbArc
 50
182.3134992123
 51
357.6865007877
  0
LINE
  5
3C0
330
1F
100
AcDbEntity
  8
0
  6
Continuous
 62
     7
370
    25
100
AcDbLine
 10
277.0408183437
 20
885.4654878025
 30
0.0
 11
277.0408183437
 21
887.3009428807
 31
0.0
  0
LINE
  5
3C1
330
1F
100
AcDbEntity
  8
0
  6
Continuous
 62
     7
370
    25
100
AcDbLine
 10
295.8408183437
 20
887.3009428807
 30
0.0
 11
277.0408183437
 21
887.3009428807
 31
0.0
  0
LINE
  5
3C2
330
1F
100
AcDbEntity
  8
0
  6
Continuous
 62
     7
370
    25
100
AcDbLine
 10
295.8408183437
 20
887.0913217257
 30
0.0
 11
295.8408183437
 21
887.3009428807
 31
0.0
  0
ARC
  5
3C3
330
1F
100
AcDbEntity
  8
0
  6
Continuous
 62
     7
370
    25
100
AcDbCircle
 10
296.1408183437
 20
887.1034417668
 30
0.0
 40
0.3002447258422703
100
AcDbArc
 50
182.3134992124
 51
357.6865007876
  0
ARC
  5
3C4
330
1F
100
AcDbEntity
  8
0
  6
Continuous
 62
     7
370
    25
100
AcDbCircle
 10
645.7408183437
 20
887.1034417668
 30
0.0
 40
0.3002447258423317
100
AcDbArc
 50
182.3134992124
 51
357.6865007877
  0
LINE
  5
3C5
330
1F
100
AcDbEntity
  8
0
  6
Continuous
 62
     7
370
    25
100
AcDbLine
 10
646.0408183437
 20
887.3009428807
 30
0.0
 11
646.0408183437
 21
887.0913217257
 31
0.0
  0
LINE
  5
3C6
330
1F
100
AcDbEntity
  8
0
  6
Continuous
 62
     7
370
    25
100
AcDbLine
 10
664.8408183437
 20
887.3009428807
 30
0.0
 11
646.0408183437
 21
887.3009428807
 31
0.0
  0
LINE
  5
3C7
330
1F
100
AcDbEntity
  8
0
  6
Continuous
 62
     7
370
    25
100
AcDbLine
 10
664.8408183437
 20
887.3009428807
 30
0.0
 11
664.8408183437
 21
885.4654878025
 31
0.0
  0
ARC
  5
3C8
330
1F
100
AcDbEntity
  8
0
  6
Continuous
 62
     7
370
    25
100
AcDbCircle
 10
665.1408183437
 20
885.4776078436
 30
0.0
 40
0.3002447258423225
100
AcDbArc
 50
182.3134992123
 51
357.6865007877
  0
ARC
  5
3C9
330
1F
100
AcDbEntity
  8
0
  6
Continuous
 62
     7
370
    25
100
AcDbCircle
 10
680.7408183437
 20
885.4776078436
 30
0.0
 40
0.3002447258423133
100
AcDbArc
 50
182.3134992123
 51
357.6865007877
  0
LINE
  5
3CA
330
1F
100
AcDbEntity
  8
0
  6
Continuous
 62
     7
370
    25
100
AcDbLine
 10
681.0408183437
 20
885.4654878025
 30
0.0
 11
681.0408183437
 21
886.4372141237
 31
0.0
  0
LINE
  5
3CB
330
1F
100
AcDbEntity
  8
0
  6
Continuous
 62
     7
370
    25
100
AcDbLine
 10
245.9408183437
 20
811.5752798195
 30
0.0
 11
245.9408183437
 21
886.4372141237
 31
0.0
  0
LINE
  5
3CC
330
1F
100
AcDbEntity
  8
0
  6
Continuous
 62
     7
370
    25
100
AcDbLine
 10
695.9408183437
 20
811.5752798195
 30
0.0
 11
695.9408183437
 21
886.4372141237
 31
0.0
  0
LWPOLYLINE
  5
3CD
330
1F
100
AcDbEntity
  8
0
  6
Continuous
 62
     7
370
    25
100
AcDbPolyline
 90
        9
 70
   128
 43
0.0
 10
261.4408183437
 20
890.6032731503
 10
261.5368919417
 20
891.0000250637
 10
261.8214206812
 20
891.3815300235
 10
262.2834702822
 20
891.7331270082
 10
262.9052844378
 20
892.0413043427
 10
263.6629671786
 20
892.294218945
 10
264.5274011819
 20
892.4821514486
 10
265.4653667336
 20
892.597879713
 10
266.4408183437
 20
892.6369563657
  0
LINE
  5
3CE
330
1F
100
AcDbEntity
  8
0
  6
Continuous
 62
     7
370
    25
100
AcDbLine
 10
266.4408183437
 20
892.6369563657
 30
0.0
 11
271.4408183437
 21
892.6369563657
 31
0.0
  0
LWPOLYLINE
  5
3CF
330
1F
100
AcDbEntity
  8
0
  6
Continuous
 62
     7
370
    25
100
AcDbPolyline
 90
        9
 70
   128
 43
0.0
 10
271.4408183437
 20
892.6369563657
 10
272.4162699538
 20
892.597879713
 10
273.3542355055
 20
892.4821514486
 10
274.2186695088
 20
892.294218945
 10
274.9763522497
 20
892.0413043427
 10
275.5981664052
 20
891.7331270082
 10
276.0602160063
 20
891.3815300235
 10
276.3447447457
 20
891.0000250637
 10
276.4408183437
 20
890.6032731503
  0
LINE
  5
3D0
330
1F
100
AcDbEntity
  8
0
  6
Continuous
 62
     7
370
    25
100
AcDbLine
 10
276.4408183437
 20
890.6032731503
 30
0.0
 11
276.4408183437
 21
886.9936908676
 31
0.0
  0
LINE
  5
3D1
330
1F
100
AcDbEntity
  8
0
  6
Continuous
 62
     7
370
    25
100
AcDbLine
 10
261.4408183437
 20
886.9936908676
 30
0.0
 11
261.4408183437
 21
890.6032731503
 31
0.0
  0
LWPOLYLINE
  5
3D2
330
1F
100
AcDbEntity
  8
0
  6
Continuous
 62
     7
370
    25
100
AcDbPolyline
 90
       10
 70
   128
 43
0.0
 10
271.9408183437
 20
889.4847473819
 10
271.7598962061
 20
889.067411007
 10
271.2389516731
 20
888.7004115581
 10
270.4408183437
 20
888.4280145852
 10
269.4617628767
 20
888.2830751833
 10
268.4198738107
 20
888.2830751833
 10
267.4408183437
 20
888.4280145852
 10
266.6426850144
 20
888.7004115581
 10
266.1217404814
 20
889.067411007
 10
265.9408183437
 20
889.4847473819
  0
LINE
  5
3D3
330
1F
100
AcDbEntity
  8
0
  6
Continuous
 62
     7
370
    25
100
AcDbLine
 10
271.9408183437
 20
890.5015889896
 30
0.0
 11
271.9408183437
 21
889.4847473819
 31
0.0
  0
LWPOLYLINE
  5
3D4
330
1F
100
AcDbEntity
  8
0
  6
Continuous
 62
     7
370
    25
100
AcDbPolyline
 90
       10
 70
   128
 43
0.0
 10
265.9408183437
 20
890.5015889896
 10
266.1217404814
 20
890.9189253644
 10
266.6426850144
 20
891.2859248133
 10
267.4408183437
 20
891.5583217862
 10
268.4198738107
 20
891.7032611882
 10
269.4617628767
 20
891.7032611882
 10
270.4408183437
 20
891.5583217862
 10
271.2389516731
 20
891.2859248133
 10
271.7598962061
 20
890.9189253644
 10
271.9408183437
 20
890.5015889896
  0
LINE
  5
3D5
330
1F
100
AcDbEntity
  8
0
  6
Continuous
 62
     7
370
    25
100
AcDbLine
 10
265.9408183437
 20
889.4847473819
 30
0.0
 11
265.9408183437
 21
890.5015889896
 31
0.0
  0
LINE
  5
3D6
330
1F
100
AcDbEntity
  8
0
  6
Continuous
 62
     7
370
    25
100
AcDbLine
 10
261.4408183437
 20
891.3341095164
 30
0.0
 11
261.4408183437
 21
890.6032731503
 31
0.0
  0
LWPOLYLINE
  5
3D7
330
1F
100
AcDbEntity
  8
0
  6
Continuous
 62
     7
370
    25
100
AcDbPolyline
 90
        9
 70
   128
 43
0.0
 10
261.4408183437
 20
891.3341095164
 10
261.5368919417
 20
891.7308614298
 10
261.8214206812
 20
892.1123663896
 10
262.2834702822
 20
892.4639633743
 10
262.9052844378
 20
892.7721407088
 10
263.6629671786
 20
893.0250553111
 10
264.5274011819
 20
893.2129878147
 10
265.4653667336
 20
893.3287160791
 10
266.4408183437
 20
893.3677927318
  0
LWPOLYLINE
  5
3D8
330
1F
100
AcDbEntity
  8
0
  6
Continuous
 62
     7
370
    25
100
AcDbPolyline
 90
        9
 70
   128
 43
0.0
 10
271.4408183437
 20
893.3677927318
 10
272.4162699538
 20
893.3287160791
 10
273.3542355055
 20
893.2129878147
 10
274.2186695088
 20
893.0250553111
 10
274.9763522497
 20
892.7721407088
 10
275.5981664052
 20
892.4639633743
 10
276.0602160063
 20
892.1123663896
 10
276.3447447457
 20
891.7308614298
 10
276.4408183437
 20
891.3341095164
  0
LINE
  5
3D9
330
1F
100
AcDbEntity
  8
0
  6
Continuous
 62
     7
370
    25
100
AcDbLine
 10
276.4408183437
 20
891.3341095164
 30
0.0
 11
276.4408183437
 21
890.6032731503
 31
0.0
  0
LINE
  5
3DA
330
1F
100
AcDbEntity
  8
0
  6
Continuous
 62
     7
370
    25
100
AcDbLine
 10
266.4408183437
 20
893.3677927318
 30
0.0
 11
271.4408183437
 21
893.3677927318
 31
0.0
  0
LWPOLYLINE
  5
3DB
330
1F
100
AcDbEntity
  8
0
  6
Continuous
 62
     7
370
    25
100
AcDbPolyline
 90
        9
 70
   128
 43
0.0
 10
675.4408183437
 20
893.3677927318
 10
676.4162699538
 20
893.3287160791
 10
677.3542355055
 20
893.2129878147
 10
678.2186695088
 20
893.0250553111
 10
678.9763522497
 20
892.7721407088
 10
679.5981664052
 20
892.4639633743
 10
680.0602160063
 20
892.1123663896
 10
680.3447447457
 20
891.7308614298
 10
680.4408183437
 20
891.3341095164
  0
LINE
  5
3DC
330
1F
100
AcDbEntity
  8
0
  6
Continuous
 62
     7
370
    25
100
AcDbLine
 10
680.4408183437
 20
891.3341095164
 30
0.0
 11
680.4408183437
 21
890.6032731503
 31
0.0
  0
LWPOLYLINE
  5
3DD
330
1F
100
AcDbEntity
  8
0
  6
Continuous
 62
     7
370
    25
100
AcDbPolyline
 90
        9
 70
   128
 43
0.0
 10
675.4408183437
 20
892.6369563657
 10
676.4162699538
 20
892.597879713
 10
677.3542355055
 20
892.4821514486
 10
678.2186695088
 20
892.294218945
 10
678.9763522497
 20
892.0413043427
 10
679.5981664052
 20
891.7331270082
 10
680.0602160063
 20
891.3815300235
 10
680.3447447457
 20
891.0000250637
 10
680.4408183437
 20
890.6032731503
  0
LINE
  5
3DE
330
1F
100
AcDbEntity
  8
0
  6
Continuous
 62
     7
370
    25
100
AcDbLine
 10
670.4408183437
 20
893.3677927318
 30
0.0
 11
675.4408183437
 21
893.3677927318
 31
0.0
  0
LINE
  5
3DF
330
1F
100
AcDbEntity
  8
0
  6
Continuous
 62
     7
370
    25
100
AcDbLine
 10
670.4408183437
 20
892.6369563657
 30
0.0
 11
675.4408183437
 21
892.6369563657
 31
0.0
  0
LINE
  5
3E0
330
1F
100
AcDbEntity
  8
0
  6
Continuous
 62
     7
370
    25
100
AcDbLine
 10
665.4408183437
 20
891.3341095164
 30
0.0
 11
665.4408183437
 21
890.6032731503
 31
0.0
  0
LWPOLYLINE
  5
3E1
330
1F
100
AcDbEntity
  8
0
  6
Continuous
 62
     7
370
    25
100
AcDbPolyline
 90
        9
 70
   128
 43
0.0
 10
665.4408183437
 20
891.3341095164
 10
665.5368919417
 20
891.7308614298
 10
665.8214206812
 20
892.1123663896
 10
666.2834702822
 20
892.4639633743
 10
666.9052844378
 20
892.7721407088
 10
667.6629671786
 20
893.0250553111
 10
668.5274011819
 20
893.2129878147
 10
669.4653667336
 20
893.3287160791
 10
670.4408183437
 20
893.3677927318
  0
LWPOLYLINE
  5
3E2
330
1F
100
AcDbEntity
  8
0
  6
Continuous
 62
     7
370
    25
100
AcDbPolyline
 90
        9
 70
   128
 43
0.0
 10
665.4408183437
 20
890.6032731503
 10
665.5368919417
 20
891.0000250637
 10
665.8214206812
 20
891.3815300235
 10
666.2834702822
 20
891.7331270082
 10
666.9052844378
 20
892.0413043427
 10
667.6629671786
 20
892.294218945
 10
668.5274011819
 20
892.4821514486
 10
669.4653667336
 20
892.597879713
 10
670.4408183437
 20
892.6369563657
  0
LINE
  5
3E3
330
1F
100
AcDbEntity
  8
0
  6
Continuous
 62
     7
370
    25
100
AcDbLine
 10
680.4408183437
 20
890.6032731503
 30
0.0
 11
680.4408183437
 21
886.9936908676
 31
0.0
  0
LINE
  5
3E4
330
1F
100
AcDbEntity
  8
0
  6
Continuous
 62
     7
370
    25
100
AcDbLine
 10
665.4408183437
 20
886.9936908676
 30
0.0
 11
665.4408183437
 21
890.6032731503
 31
0.0
  0
LWPOLYLINE
  5
3E5
330
1F
100
AcDbEntity
  8
0
  6
Continuous
 62
     7
370
    25
100
AcDbPolyline
 90
       10
 70
   128
 43
0.0
 10
675.9408183437
 20
889.4847473819
 10
675.7598962061
 20
889.067411007
 10
675.2389516731
 20
888.7004115581
 10
674.4408183437
 20
888.4280145852
 10
673.4617628767
 20
888.2830751833
 10
672.4198738107
 20
888.2830751833
 10
671.4408183437
 20
888.4280145852
 10
670.6426850144
 20
888.7004115581
 10
670.1217404814
 20
889.067411007
 10
669.9408183437
 20
889.4847473819
  0
LINE
  5
3E6
330
1F
100
AcDbEntity
  8
0
  6
Continuous
 62
     7
370
    25
100
AcDbLine
 10
675.9408183437
 20
890.5015889896
 30
0.0
 11
675.9408183437
 21
889.4847473819
 31
0.0
  0
LWPOLYLINE
  5
3E7
330
1F
100
AcDbEntity
  8
0
  6
Continuous
 62
     7
370
    25
100
AcDbPolyline
 90
       10
 70
   128
 43
0.0
 10
669.9408183437
 20
890.5015889896
 10
670.1217404814
 20
890.9189253644
 10
670.6426850144
 20
891.2859248133
 10
671.4408183437
 20
891.5583217862
 10
672.4198738107
 20
891.7032611882
 10
673.4617628767
 20
891.7032611882
 10
674.4408183437
 20
891.5583217862
 10
675.2389516731
 20
891.2859248133
 10
675.7598962061
 20
890.9189253644
 10
675.9408183437
 20
890.5015889896
  0
LINE
  5
3E8
330
1F
100
AcDbEntity
  8
0
  6
Continuous
 62
     7
370
    25
100
AcDbLine
 10
669.9408183437
 20
889.4847473819
 30
0.0
 11
669.9408183437
 21
890.5015889896
 31
0.0
  0
LINE
  5
3E9
330
1F
100
AcDbEntity
  8
0
  6
Continuous
 62
     7
370
    25
100
AcDbLine
 10
665.4408183437
 20
886.9936908676
 30
0.0
 11
665.4408183437
 21
885.4654878025
 31
0.0
  0
LINE
  5
3EA
330
1F
100
AcDbEntity
  8
0
  6
Continuous
 62
     7
370
    25
100
AcDbLine
 10
680.4408183437
 20
885.4654878025
 30
0.0
 11
680.4408183437
 21
886.9936908676
 31
0.0
  0
LINE
  5
3EB
330
1F
100
AcDbEntity
  8
0
  6
Continuous
 62
     7
370
    25
100
AcDbLine
 10
276.4408183437
 20
885.4654878025
 30
0.0
 11
276.4408183437
 21
886.9936908676
 31
0.0
  0
LINE
  5
3EC
330
1F
100
AcDbEntity
  8
0
  6
Continuous
 62
     7
370
    25
100
AcDbLine
 10
261.4408183437
 20
886.9936908676
 30
0.0
 11
261.4408183437
 21
885.4654878025
 31
0.0
  0
LINE
  5
3ED
330
1F
100
AcDbEntity
  8
0
  6
Continuous
 62
     7
370
    25
100
AcDbLine
 10
245.9408183437
 20
886.4372141237
 30
0.0
 11
245.9408183437
 21
887.8537292852
 31
0.0
  0
LINE
  5
3EE
330
1F
100
AcDbEntity
  8
0
  6
Continuous
 62
     7
370
    25
100
AcDbLine
 10
260.8408183437
 20
887.8537292852
 30
0.0
 11
247.1408183437
 21
887.8537292852
 31
0.0
  0
LINE
  5
3EF
330
1F
100
AcDbEntity
  8
0
  6
Continuous
 62
     7
370
    25
100
AcDbLine
 10
260.8408183437
 20
887.8537292852
 30
0.0
 11
260.8408183437
 21
886.4372141237
 31
0.0
  0
LINE
  5
3F0
330
1F
100
AcDbEntity
  8
0
  6
Continuous
 62
     7
370
    25
100
AcDbLine
 10
694.7408183437
 20
887.8537292852
 30
0.0
 11
681.0408183437
 21
887.8537292852
 31
0.0
  0
LINE
  5
3F1
330
1F
100
AcDbEntity
  8
0
  6
Continuous
 62
     7
370
    25
100
AcDbLine
 10
681.0408183437
 20
886.4372141237
 30
0.0
 11
681.0408183437
 21
887.8537292852
 31
0.0
  0
LINE
  5
3F2
330
1F
100
AcDbEntity
  8
0
  6
Continuous
 62
     7
370
    25
100
AcDbLine
 10
695.9408183437
 20
887.8537292852
 30
0.0
 11
695.9408183437
 21
886.4372141237
 31
0.0
  0
LINE
  5
3F3
330
1F
100
AcDbEntity
  8
0
  6
Continuous
 62
     7
370
    25
100
AcDbLine
 10
296.4408183437
 20
887.0913217257
 30
0.0
 11
296.4408183437
 21
887.7199429117
 31
0.0
  0
LINE
  5
3F4
330
1F
100
AcDbEntity
  8
0
  6
Continuous
 62
     7
370
    25
100
AcDbLine
 10
645.4408183437
 20
887.7199429117
 30
0.0
 11
645.4408183437
 21
887.0913217257
 31
0.0
  0
ARC
  5
3F5
330
1F
100
AcDbEntity
  8
0
  6
Continuous
 62
     7
370
    25
100
AcDbCircle
 10
300.9670195285
 20
889.3090313995
 30
0.0
 40
4.56596210485108
100
AcDbArc
 50
84.0438340645
 51
172.4331460208
  0
LINE
  5
3F6
330
1F
100
AcDbEntity
  8
0
  6
Continuous
 62
     7
370
    25
100
AcDbLine
 10
640.4408183437
 20
893.8503444944
 30
0.0
 11
301.4408183437
 21
893.8503444944
 31
0.0
  0
ARC
  5
3F7
330
1F
100
AcDbEntity
  8
0
  6
Continuous
 62
     7
370
    25
100
AcDbCircle
 10
640.914617159
 20
889.3090313995
 30
0.0
 40
4.565962104851123
100
AcDbArc
 50
7.5668539792
 51
95.9561659355
  0
LINE
  5
3F8
330
1F
100
AcDbEntity
  8
0
  6
Continuous
 62
     7
370
    25
100
AcDbLine
 10
645.4408183437
 20
887.7199429117
 30
0.0
 11
645.4408183437
 21
889.9102907263
 31
0.0
  0
LINE
  5
3F9
330
1F
100
AcDbEntity
  8
0
  6
Continuous
 62
     7
370
    25
100
AcDbLine
 10
296.4408183437
 20
889.9102907263
 30
0.0
 11
296.4408183437
 21
887.7199429117
 31
0.0
  0
LINE
  5
3FA
330
1F
100
AcDbEntity
  8
0
  6
Continuous
 62
     7
370
    25
100
AcDbLine
 10
653.9408183437
 20
887.3009428807
 30
0.0
 11
653.9408183437
 21
888.1111473336
 31
0.0
  0
LINE
  5
3FB
330
1F
100
AcDbEntity
  8
0
  6
Continuous
 62
     7
370
    25
100
AcDbLine
 10
506.316025528
 20
764.4536561238
 30
0.0
 11
505.8425623519
 21
763.5537292834
 31
0.0
  0
ARC
  5
3FC
330
1F
100
AcDbEntity
  8
0
  6
Continuous
 62
     7
370
    25
100
AcDbCircle
 10
497.2408183437
 20
768.6537292852
 30
0.0
 40
10.00000000000002
100
AcDbArc
 50
197.9849671659
 51
210.6638297543
  0
LINE
  5
3FD
330
1F
100
AcDbEntity
  8
0
  6
Continuous
 62
     7
370
    25
100
AcDbLine
 10
505.7619324398
 20
764.4536561238
 30
0.0
 11
505.2558043064
 21
763.5537292834
 31
0.0
  0
LWPOLYLINE
  5
3FE
330
1F
100
AcDbEntity
  8
0
  6
Continuous
 62
     7
370
    25
100
AcDbPolyline
 90
        3
 70
   128
 43
0.0
 10
489.2258323811
 20
763.5537292834
 10
488.394935534
 20
765.1895760962
 10
488.2565951712
 20
765.5660547581
  0
LWPOLYLINE
  5
3FF
330
1F
100
AcDbEntity
  8
0
  6
Continuous
 62
     7
370
    25
100
AcDbPolyline
 90
        3
 70
   128
 43
0.0
 10
454.1521939548
 20
765.5660547581
 10
453.7149853272
 20
764.4514092647
 10
453.2425623519
 20
763.5537292834
  0
LINE
  5
400
330
1F
100
AcDbEntity
  8
0
  6
Continuous
 62
     7
370
    25
100
AcDbLine
 10
436.0390743356
 20
763.5537292834
 30
0.0
 11
435.565611157
 21
764.453656129
 31
0.0
  0
ARC
  5
401
330
1F
100
AcDbEntity
  8
0
  6
Continuous
 62
     7
370
    25
100
AcDbCircle
 10
444.6408183437
 20
768.6537292852
 30
0.0
 40
9.500000000000087
100
AcDbArc
 50
327.5310750821
 51
341.0333119895
  0
LINE
  5
402
330
1F
100
AcDbEntity
  8
0
  6
Continuous
 62
     7
370
    25
100
AcDbLine
 10
436.6258323811
 20
763.5537292834
 30
0.0
 11
436.1197042451
 21
764.453656129
 31
0.0
  0
LINE
  5
403
330
1F
100
AcDbEntity
  8
0
  6
Continuous
 62
     7
370
    25
100
AcDbLine
 10
287.9408183437
 20
887.3009428807
 30
0.0
 11
287.9408183437
 21
888.1111473336
 31
0.0
  0
LINE
  5
404
330
1F
100
AcDbEntity
  8
0
  6
Continuous
 62
     7
370
    25
100
AcDbLine
 10
248.3908183437
 20
942.8537292852
 30
0.0
 11
247.1508183437
 21
942.8537292852
 31
0.0
  0
LINE
  5
405
330
1F
100
AcDbEntity
  8
0
  6
Continuous
 62
     7
370
    25
100
AcDbLine
 10
693.4908183437
 20
942.8537292852
 30
0.0
 11
248.3908183437
 21
942.8537292852
 31
0.0
  0
LINE
  5
406
330
1F
100
AcDbEntity
  8
0
  6
Continuous
 62
     7
370
    25
100
AcDbLine
 10
694.7308183437
 20
942.8537292852
 30
0.0
 11
693.4908183437
 21
942.8537292852
 31
0.0
  0
LINE
  5
407
330
1F
100
AcDbEntity
  8
0
  6
Continuous
 62
     7
370
    25
100
AcDbLine
 10
694.7308183437
 20
898.1862295521
 30
0.0
 11
694.7308183437
 21
942.8537292852
 31
0.0
  0
LINE
  5
408
330
1F
100
AcDbEntity
  8
0
  6
Continuous
 62
     7
370
    25
100
AcDbLine
 10
247.1508183437
 20
898.1862295521
 30
0.0
 11
247.1508183437
 21
942.8537292852
 31
0.0
  0
LINE
  5
409
330
1F
100
AcDbEntity
  8
0
  6
Continuous
 62
     7
370
    25
100
AcDbLine
 10
695.9408183437
 20
941.6423145727
 30
0.0
 11
694.7408183437
 21
941.6423145727
 31
0.0
  0
LINE
  5
40A
330
1F
100
AcDbEntity
  8
0
  6
Continuous
 62
     7
370
    25
100
AcDbLine
 10
694.7408183437
 20
941.6423145727
 30
0.0
 11
694.7408183437
 21
899.2958722421
 31
0.0
  0
LINE
  5
40B
330
1F
100
AcDbEntity
  8
0
  6
Continuous
 62
     7
370
    25
100
AcDbLine
 10
695.9408183437
 20
941.6423145727
 30
0.0
 11
695.9408183437
 21
899.2958722421
 31
0.0
  0
LINE
  5
40C
330
1F
100
AcDbEntity
  8
0
  6
Continuous
 62
     7
370
    25
100
AcDbLine
 10
245.9408183437
 20
941.6423145727
 30
0.0
 11
247.1408183437
 21
941.6423145727
 31
0.0
  0
LINE
  5
40D
330
1F
100
AcDbEntity
  8
0
  6
Continuous
 62
     7
370
    25
100
AcDbLine
 10
245.9408183437
 20
899.2958722421
 30
0.0
 11
245.9408183437
 21
941.6423145727
 31
0.0
  0
LINE
  5
40E
330
1F
100
AcDbEntity
  8
0
  6
Continuous
 62
     7
370
    25
100
AcDbLine
 10
247.1408183437
 20
899.2958722421
 30
0.0
 11
247.1408183437
 21
941.6423145727
 31
0.0
  0
LWPOLYLINE
  5
40F
330
1F
100
AcDbEntity
  8
0
  6
Continuous
 62
     7
370
    25
100
AcDbPolyline
 90
        9
 70
   128
 43
0.0
 10
647.9308183437
 20
893.2948852296
 10
647.8923889045
 20
893.4504693981
 10
647.7785774088
 20
893.6000745543
 10
647.5937575683
 20
893.7379514559
 10
647.3450319061
 20
893.8588015709
 10
647.0419588098
 20
893.9579806971
 10
646.6961852085
 20
894.0316774364
 10
646.3209989878
 20
894.0770596644
 10
645.9308183437
 20
894.0923833675
  0
LINE
  5
410
330
1F
100
AcDbEntity
  8
0
  6
Continuous
 62
     7
370
    25
100
AcDbLine
 10
645.9308183437
 20
894.0923833675
 30
0.0
 11
295.9508183437
 21
894.0923833675
 31
0.0
  0
LWPOLYLINE
  5
411
330
1F
100
AcDbEntity
  8
0
  6
Continuous
 62
     7
370
    25
100
AcDbPolyline
 90
        9
 70
   128
 43
0.0
 10
295.9508183437
 20
894.0923833675
 10
295.5606376997
 20
894.0770596644
 10
295.185451479
 20
894.0316774364
 10
294.8396778777
 20
893.9579806971
 10
294.5366047814
 20
893.8588015709
 10
294.2878791191
 20
893.7379514559
 10
294.1030592787
 20
893.6000745543
 10
293.9892477829
 20
893.4504693981
 10
293.9508183437
 20
893.2948852296
  0
LINE
  5
412
330
1F
100
AcDbEntity
  8
0
  6
Continuous
 62
     7
370
    25
100
AcDbLine
 10
293.9508183437
 20
893.2948852296
 30
0.0
 11
293.9508183437
 21
888.9086454714
 31
0.0
  0
LWPOLYLINE
  5
413
330
1F
100
AcDbEntity
  8
0
  6
Continuous
 62
     7
370
    25
100
AcDbPolyline
 90
        9
 70
   128
 43
0.0
 10
291.9508183437
 20
888.1111473336
 10
292.3409989878
 20
888.1264710367
 10
292.7161852085
 20
888.1718532647
 10
293.0619588098
 20
888.2455500039
 10
293.3650319061
 20
888.3447291302
 10
293.6137575683
 20
888.4655792452
 10
293.7985774088
 20
888.6034561467
 10
293.9123889045
 20
888.7530613029
 10
293.9508183437
 20
888.9086454714
  0
LINE
  5
414
330
1F
100
AcDbEntity
  8
0
  6
Continuous
 62
     7
370
    25
100
AcDbLine
 10
291.9508183437
 20
888.1111473336
 30
0.0
 11
276.4408183437
 21
888.1111473336
 31
0.0
  0
LINE
  5
415
330
1F
100
AcDbEntity
  8
0
  6
Continuous
 62
     7
370
    25
100
AcDbLine
 10
261.4408183437
 20
888.1111473336
 30
0.0
 11
247.1508183437
 21
888.1111473336
 31
0.0
  0
LINE
  5
416
330
1F
100
AcDbEntity
  8
0
  6
Continuous
 62
     7
370
    25
100
AcDbLine
 10
247.1508183437
 20
888.1111473336
 30
0.0
 11
247.1508183437
 21
898.1862295521
 31
0.0
  0
LINE
  5
417
330
1F
100
AcDbEntity
  8
0
  6
Continuous
 62
     7
370
    25
100
AcDbLine
 10
694.7308183437
 20
888.1111473336
 30
0.0
 11
680.4408183437
 21
888.1111473336
 31
0.0
  0
LINE
  5
418
330
1F
100
AcDbEntity
  8
0
  6
Continuous
 62
     7
370
    25
100
AcDbLine
 10
665.4408183437
 20
888.1111473336
 30
0.0
 11
649.9308183437
 21
888.1111473336
 31
0.0
  0
LWPOLYLINE
  5
419
330
1F
100
AcDbEntity
  8
0
  6
Continuous
 62
     7
370
    25
100
AcDbPolyline
 90
        9
 70
   128
 43
0.0
 10
647.9308183437
 20
888.9086454714
 10
647.9692477829
 20
888.7530613029
 10
648.0830592787
 20
888.6034561467
 10
648.2678791191
 20
888.4655792452
 10
648.5166047814
 20
888.3447291302
 10
648.8196778777
 20
888.2455500039
 10
649.165451479
 20
888.1718532647
 10
649.5406376997
 20
888.1264710367
 10
649.9308183437
 20
888.1111473336
  0
LINE
  5
41A
330
1F
100
AcDbEntity
  8
0
  6
Continuous
 62
     7
370
    25
100
AcDbLine
 10
647.9308183437
 20
888.9086454714
 30
0.0
 11
647.9308183437
 21
893.2948852296
 31
0.0
  0
LINE
  5
41B
330
1F
100
AcDbEntity
  8
0
  6
Continuous
 62
     7
370
    25
100
AcDbLine
 10
694.7308183437
 20
888.1111473336
 30
0.0
 11
694.7308183437
 21
898.1862295521
 31
0.0
  0
LINE
  5
41C
330
1F
100
AcDbEntity
  8
0
  6
Continuous
 62
     7
370
    25
100
AcDbLine
 10
245.9408183437
 20
890.802517074
 30
0.0
 11
247.1408183437
 21
890.802517074
 31
0.0
  0
LINE
  5
41D
330
1F
100
AcDbEntity
  8
0
  6
Continuous
 62
     7
370
    25
100
AcDbLine
 10
245.9408183437
 20
890.802517074
 30
0.0
 11
245.9408183437
 21
899.2958722421
 31
0.0
  0
LINE
  5
41E
330
1F
100
AcDbEntity
  8
0
  6
Continuous
 62
     7
370
    25
100
AcDbLine
 10
247.1408183437
 20
890.802517074
 30
0.0
 11
247.1408183437
 21
899.2958722421
 31
0.0
  0
LINE
  5
41F
330
1F
100
AcDbEntity
  8
0
  6
Continuous
 62
     7
370
    25
100
AcDbLine
 10
695.9408183437
 20
890.802517074
 30
0.0
 11
694.7408183437
 21
890.802517074
 31
0.0
  0
LINE
  5
420
330
1F
100
AcDbEntity
  8
0
  6
Continuous
 62
     7
370
    25
100
AcDbLine
 10
694.7408183437
 20
899.2958722421
 30
0.0
 11
694.7408183437
 21
890.802517074
 31
0.0
  0
LINE
  5
421
330
1F
100
AcDbEntity
  8
0
  6
Continuous
 62
     7
370
    25
100
AcDbLine
 10
695.9408183437
 20
899.2958722421
 30
0.0
 11
695.9408183437
 21
890.802517074
 31
0.0
  0
LINE
  5
422
330
1F
100
AcDbEntity
  8
0
  6
Continuous
 62
     7
370
    25
100
AcDbLine
 10
694.7408183437
 20
940.4037292852
 30
0.0
 11
694.7308183437
 21
940.5615266236
 31
0.0
  0
ARC
  5
423
330
1F
100
AcDbEntity
  8
0
  6
Continuous
 62
     7
370
    25
100
AcDbCircle
 10
693.4908183437
 20
940.4037292852
 30
0.0
 40
2.450000000000042
100
AcDbArc
 50
30.3675383763
 51
59.5941085903
  0
ARC
  5
424
330
1F
100
AcDbEntity
  8
0
  6
Continuous
 62
     7
370
    25
100
AcDbCircle
 10
248.3908183437
 20
940.4037292852
 30
0.0
 40
2.450000000000042
100
AcDbArc
 50
120.4058914097
 51
149.6324616237
  0
LINE
  5
425
330
1F
100
AcDbEntity
  8
0
  6
Continuous
 62
     7
370
    25
100
AcDbLine
 10
247.1508183437
 20
940.5615266236
 30
0.0
 11
247.1408183437
 21
940.4037292852
 31
0.0
  0
LINE
  5
426
330
1F
100
AcDbEntity
  8
0
  6
Continuous
 62
     7
370
    25
100
AcDbLine
 10
245.9408183437
 20
888.5197257425
 30
0.0
 11
247.1408183437
 21
888.5197257425
 31
0.0
  0
LINE
  5
427
330
1F
100
AcDbEntity
  8
0
  6
Continuous
 62
     7
370
    25
100
AcDbLine
 10
245.9408183437
 20
890.1147220182
 30
0.0
 11
247.1408183437
 21
890.1147220182
 31
0.0
  0
LINE
  5
428
330
1F
100
AcDbEntity
  8
0
  6
Continuous
 62
     7
370
    25
100
AcDbLine
 10
245.9408183437
 20
888.5197257425
 30
0.0
 11
245.9408183437
 21
890.1147220182
 31
0.0
  0
LINE
  5
429
330
1F
100
AcDbEntity
  8
0
  6
Continuous
 62
     7
370
    25
100
AcDbLine
 10
247.1408183437
 20
888.5197257425
 30
0.0
 11
247.1408183437
 21
890.1147220182
 31
0.0
  0
LINE
  5
42A
330
1F
100
AcDbEntity
  8
0
  6
Continuous
 62
     7
370
    25
100
AcDbLine
 10
245.9408183437
 20
890.1147220182
 30
0.0
 11
245.9408183437
 21
890.802517074
 31
0.0
  0
LINE
  5
42B
330
1F
100
AcDbEntity
  8
0
  6
Continuous
 62
     7
370
    25
100
AcDbLine
 10
247.1408183437
 20
890.1147220182
 30
0.0
 11
247.1408183437
 21
890.802517074
 31
0.0
  0
LINE
  5
42C
330
1F
100
AcDbEntity
  8
0
  6
Continuous
 62
     7
370
    25
100
AcDbLine
 10
695.9408183437
 20
890.1141545995
 30
0.0
 11
694.7408183437
 21
890.1141545995
 31
0.0
  0
LINE
  5
42D
330
1F
100
AcDbEntity
  8
0
  6
Continuous
 62
     7
370
    25
100
AcDbLine
 10
695.9408183437
 20
888.5197257425
 30
0.0
 11
694.7408183437
 21
888.5197257425
 31
0.0
  0
LINE
  5
42E
330
1F
100
AcDbEntity
  8
0
  6
Continuous
 62
     7
370
    25
100
AcDbLine
 10
694.7408183437
 20
890.1141545995
 30
0.0
 11
694.7408183437
 21
888.5197257425
 31
0.0
  0
LINE
  5
42F
330
1F
100
AcDbEntity
  8
0
  6
Continuous
 62
     7
370
    25
100
AcDbLine
 10
695.9408183437
 20
890.1141545995
 30
0.0
 11
695.9408183437
 21
888.5197257425
 31
0.0
  0
LINE
  5
430
330
1F
100
AcDbEntity
  8
0
  6
Continuous
 62
     7
370
    25
100
AcDbLine
 10
694.7408183437
 20
890.802517074
 30
0.0
 11
694.7408183437
 21
890.1141545995
 31
0.0
  0
LINE
  5
431
330
1F
100
AcDbEntity
  8
0
  6
Continuous
 62
     7
370
    25
100
AcDbLine
 10
695.9408183437
 20
890.802517074
 30
0.0
 11
695.9408183437
 21
890.1141545995
 31
0.0
  0
LINE
  5
432
330
1F
100
AcDbEntity
  8
0
  6
Continuous
 62
     7
370
    25
100
AcDbLine
 10
245.9408183437
 20
887.8537292852
 30
0.0
 11
247.1408183437
 21
887.8537292852
 31
0.0
  0
LINE
  5
433
330
1F
100
AcDbEntity
  8
0
  6
Continuous
 62
     7
370
    25
100
AcDbLine
 10
245.9408183437
 20
887.8537292852
 30
0.0
 11
245.9408183437
 21
888.5197257425
 31
0.0
  0
LINE
  5
434
330
1F
100
AcDbEntity
  8
0
  6
Continuous
 62
     7
370
    25
100
AcDbLine
 10
247.1408183437
 20
887.8537292852
 30
0.0
 11
247.1408183437
 21
888.5197257425
 31
0.0
  0
LINE
  5
435
330
1F
100
AcDbEntity
  8
0
  6
Continuous
 62
     7
370
    25
100
AcDbLine
 10
695.9408183437
 20
887.8537292852
 30
0.0
 11
694.7408183437
 21
887.8537292852
 31
0.0
  0
LINE
  5
436
330
1F
100
AcDbEntity
  8
0
  6
Continuous
 62
     7
370
    25
100
AcDbLine
 10
694.7408183437
 20
888.5197257425
 30
0.0
 11
694.7408183437
 21
887.8537292852
 31
0.0
  0
LINE
  5
437
330
1F
100
AcDbEntity
  8
0
  6
Continuous
 62
     7
370
    25
100
AcDbLine
 10
695.9408183437
 20
888.5197257425
 30
0.0
 11
695.9408183437
 21
887.8537292852
 31
0.0
  0
LINE
  5
438
330
1F
100
AcDbEntity
  8
0
  6
Continuous
 62
     7
370
    25
100
AcDbLine
 10
247.1508183437
 20
905.2537292852
 30
0.0
 11
247.1408183437
 21
905.2537292852
 31
0.0
  0
LINE
  5
439
330
1F
100
AcDbEntity
  8
0
  6
Continuous
 62
     7
370
    25
100
AcDbLine
 10
694.7408183437
 20
905.2537292852
 30
0.0
 11
694.7308183437
 21
905.2537292852
 31
0.0
  0
LINE
  5
43A
330
1F
100
AcDbEntity
  8
0
  6
Continuous
 62
     7
370
    25
100
AcDbLine
 10
287.0908183437
 20
887.3009428807
 30
0.0
 11
287.0908183437
 21
888.1111473336
 31
0.0
  0
LINE
  5
43B
330
1F
100
AcDbEntity
  8
0
  6
Continuous
 62
     7
370
    25
100
AcDbLine
 10
287.8908183437
 20
887.3009428807
 30
0.0
 11
287.8908183437
 21
888.1111473336
 31
0.0
  0
LINE
  5
43C
330
1F
100
AcDbEntity
  8
0
  6
Continuous
 62
     7
370
    25
100
AcDbLine
 10
654.7908183437
 20
888.1111473336
 30
0.0
 11
654.7908183437
 21
887.3009428807
 31
0.0
  0
LINE
  5
43D
330
1F
100
AcDbEntity
  8
0
  6
Continuous
 62
     7
370
    25
100
AcDbLine
 10
653.9908183437
 20
888.1111473336
 30
0.0
 11
653.9908183437
 21
887.3009428807
 31
0.0
  0
LINE
  5
43E
330
1F
100
AcDbEntity
  8
0
  6
Continuous
 62
     7
370
    25
100
AcDbLine
 10
433.3998492804
 20
764.453656129
 30
0.0
 11
433.7784981504
 21
763.5537292834
 31
0.0
  0
LWPOLYLINE
  5
43F
330
1F
100
AcDbEntity
  8
0
  6
Continuous
 62
     7
370
    25
100
AcDbPolyline
 90
        3
 70
   128
 43
0.0
 10
455.503138537
 20
763.5537292834
 10
455.9171297932
 20
764.5494875653
 10
456.2367773819
 20
765.5660547581
  0
LWPOLYLINE
  5
440
330
1F
100
AcDbEntity
  8
0
  6
Continuous
 62
     7
370
    25
100
AcDbPolyline
 90
        3
 70
   128
 43
0.0
 10
485.6448593056
 20
765.5660547581
 10
485.9645068943
 20
764.5494875653
 10
486.3784981504
 20
763.5537292834
  0
LINE
  5
441
330
1F
100
AcDbEntity
  8
0
  6
Continuous
 62
     7
370
    25
100
AcDbLine
 10
508.103138537
 20
763.5537292834
 30
0.0
 11
508.4817874051
 21
764.4536561238
 31
0.0
  0
LINE
  5
442
330
1F
100
AcDbEntity
  8
0
  6
Continuous
 62
     7
370
    25
100
AcDbLine
 10
495.9408183438
 20
894.0923833675
 30
0.0
 11
495.9408183438
 21
893.8503444944
 31
0.0
  0
LINE
  5
443
330
1F
100
AcDbEntity
  8
0
  6
Continuous
 62
     7
370
    25
100
AcDbLine
 10
495.1408183438
 20
893.8503444944
 30
0.0
 11
495.1408183438
 21
894.0923833675
 31
0.0
  0
LINE
  5
444
330
1F
100
AcDbEntity
  8
0
  6
Continuous
 62
     7
370
    25
100
AcDbLine
 10
445.9408183438
 20
893.8503444944
 30
0.0
 11
445.9408183438
 21
894.0923833675
 31
0.0
  0
LINE
  5
445
330
1F
100
AcDbEntity
  8
0
  6
Continuous
 62
     7
370
    25
100
AcDbLine
 10
446.7408183438
 20
894.0923833675
 30
0.0
 11
446.7408183438
 21
893.8503444944
 31
0.0
  0
LINE
  5
446
330
1F
100
AcDbEntity
  8
0
  6
Continuous
 62
     7
370
    25
100
AcDbLine
 10
691.4337472759
 20
747.5037292852
 30
0.0
 11
691.4337472759
 21
746.8037292852
 31
0.0
  0
LINE
  5
447
330
1F
100
AcDbEntity
  8
0
  6
Continuous
 62
     7
370
    25
100
AcDbLine
 10
691.4108183437
 20
747.5037292852
 30
0.0
 11
691.4337472759
 21
747.5037292852
 31
0.0
  0
LINE
  5
448
330
1F
100
AcDbEntity
  8
0
  6
Continuous
 62
     7
370
    25
100
AcDbLine
 10
250.4478894115
 20
746.8037292852
 30
0.0
 11
250.4478894115
 21
747.5037292852
 31
0.0
  0
LINE
  5
449
330
1F
100
AcDbEntity
  8
0
  6
Continuous
 62
     7
370
    25
100
AcDbLine
 10
250.4478894115
 20
747.5037292852
 30
0.0
 11
250.4708183437
 21
747.5037292852
 31
0.0
  0
LINE
  5
44A
330
1F
100
AcDbEntity
  8
0
  6
Continuous
 62
     7
370
    25
100
AcDbLine
 10
250.2408183437
 20
225.1537292852
 30
0.0
 11
267.2408183437
 21
225.1537292852
 31
0.0
  0
LWPOLYLINE
  5
44B
330
1F
100
AcDbEntity
  8
0
  6
Continuous
 62
     7
370
    25
100
AcDbPolyline
 90
        3
 70
   128
 43
0.0
 10
265.3266891008
 20
225.6537292852
 10
265.4865506689
 20
225.4628326463
 10
265.4941739919
 20
225.4537292852
  0
LINE
  5
44C
330
1F
100
AcDbEntity
  8
0
  6
Continuous
 62
     7
370
    25
100
AcDbLine
 10
265.7129516473
 20
225.4537292852
 30
0.0
 11
265.4941739919
 21
225.4537292852
 31
0.0
  0
LWPOLYLINE
  5
44D
330
1F
100
AcDbEntity
  8
0
  6
Continuous
 62
     7
370
    25
100
AcDbPolyline
 90
        3
 70
   128
 43
0.0
 10
265.7129516473
 20
225.4537292852
 10
265.7053283243
 20
225.4628326463
 10
265.5454667562
 20
225.6537292852
  0
LINE
  5
44E
330
1F
100
AcDbEntity
  8
0
  6
Continuous
 62
     7
370
    25
100
AcDbLine
 10
250.2408183437
 20
223.6537292852
 30
0.0
 11
267.2408183437
 21
223.6537292852
 31
0.0
  0
LINE
  5
44F
330
1F
100
AcDbEntity
  8
0
  6
Continuous
 62
     7
370
    25
100
AcDbLine
 10
250.7408183437
 20
223.1537292852
 30
0.0
 11
263.6051361204
 21
223.1537292852
 31
0.0
  0
LINE
  5
450
330
1F
100
AcDbEntity
  8
0
  6
Continuous
 62
     7
370
    25
100
AcDbLine
 10
265.5454667562
 20
225.4537292852
 30
0.0
 11
265.5454667562
 21
225.6537292852
 31
0.0
  0
LINE
  5
451
330
1F
100
AcDbEntity
  8
0
  6
Continuous
 62
     7
370
    25
100
AcDbLine
 10
267.2408183437
 20
749.3537292852
 30
0.0
 11
250.2408183437
 21
749.3537292852
 31
0.0
  0
LINE
  5
452
330
1F
100
AcDbEntity
  8
0
  6
Continuous
 62
     7
370
    25
100
AcDbLine
 10
267.2408183437
 20
750.8537292852
 30
0.0
 11
250.2408183437
 21
750.8537292852
 31
0.0
  0
LINE
  5
453
330
1F
100
AcDbEntity
  8
0
  6
Continuous
 62
     7
370
    25
100
AcDbLine
 10
266.7408183437
 20
751.3537292852
 30
0.0
 11
250.7408183437
 21
751.3537292852
 31
0.0
  0
LINE
  5
454
330
1F
100
AcDbEntity
  8
0
  6
Continuous
 62
     7
370
    25
100
AcDbLine
 10
317.9408183437
 20
313.2549808501
 30
0.0
 11
317.9408183437
 21
257.2520840335
 31
0.0
  0
SPLINE
  5
455
330
1F
100
AcDbEntity
  8
0
  6
Continuous
 62
     7
370
    25
100
AcDbSpline
210
0.0
220
0.0
230
1.0
 70
     8
 71
     3
 72
    11
 73
     7
 74
     0
 42
0.000000001
 43
0.00000001
 40
0.0
 40
0.0
 40
0.0
 40
0.0
 40
0.2833048031626436
 40
0.558036263566171
 40
0.7754301448953662
 40
0.9999999999999999
 40
0.9999999999999999
 40
0.9999999999999999
 40
0.9999999999999999
 10
315.942463595479
 20
315.2537292852441
 30
0.0
 10
316.239582879438
 20
315.214782467109
 30
0.0
 10
316.824830052105
 20
315.1380674357108
 30
0.0
 10
317.4739658874891
 20
314.6035358467333
 30
0.0
 10
317.8691108863716
 20
313.9521316403261
 30
0.0
 10
317.9166585211535
 20
313.4898663141361
 30
0.0
 10
317.9408183437211
 20
313.2549808500933
 30
0.0
  0
LINE
  5
456
330
1F
100
AcDbEntity
  8
0
  6
Continuous
 62
     7
370
    25
100
AcDbLine
 10
279.9431421393
 20
315.2537292852
 30
0.0
 11
315.9424635955
 21
315.2537292852
 31
0.0
  0
SPLINE
  5
457
330
1F
100
AcDbEntity
  8
0
  6
Continuous
 62
     7
370
    25
100
AcDbSpline
210
0.0
220
0.0
230
1.0
 70
     8
 71
     3
 72
    11
 73
     7
 74
     0
 42
0.000000001
 43
0.00000001
 40
0.0
 40
0.0
 40
0.0
 40
0.0
 40
0.2833534124411242
 40
0.558111699096266
 40
0.77548354242117
 40
1.0
 40
1.0
 40
1.0
 40
1.0
 10
277.9408183437212
 20
313.2593514055175
 30
0.0
 10
277.9803964657555
 20
313.5563999803242
 30
0.0
 10
278.0583521633606
 20
314.1414865807329
 30
0.0
 10
278.5940183837317
 20
314.7895963511403
 30
0.0
 10
279.2460443599045
 20
315.1835017532525
 30
0.0
 10
279.7082849867836
 20
315.2300691350027
 30
0.0
 10
279.9431421393348
 20
315.2537292852441
 30
0.0
  0
LINE
  5
458
330
1F
100
AcDbEntity
  8
0
  6
Continuous
 62
     7
370
    25
100
AcDbLine
 10
315.9424635955
 20
255.2537292852
 30
0.0
 11
279.9431421393
 21
255.2537292852
 31
0.0
  0
SPLINE
  5
459
330
1F
100
AcDbEntity
  8
0
  6
Continuous
 62
     7
370
    25
100
AcDbSpline
210
0.0
220
0.0
230
1.0
 70
     8
 71
     3
 72
    11
 73
     7
 74
     0
 42
0.000000001
 43
0.00000001
 40
0.0
 40
0.0
 40
0.0
 40
0.0
 40
0.2833229682742949
 40
0.5580462786215565
 40
0.7754268978867181
 40
1.0
 40
1.0
 40
1.0
 40
1.0
 10
317.9408183437212
 20
257.2520840334863
 30
0.0
 10
317.9018930823222
 20
256.9549703408331
 30
0.0
 10
317.8252240519206
 20
256.3697612011628
 30
0.0
 10
317.2908650867859
 20
255.7205870059687
 30
0.0
 10
316.6395522250993
 20
255.3254268889192
 30
0.0
 10
316.1773338969945
 20
255.277886382459
 30
0.0
 10
315.942463595479
 20
255.2537292852441
 30
0.0
  0
LINE
  5
45A
330
1F
100
AcDbEntity
  8
0
  6
Continuous
 62
     7
370
    25
100
AcDbLine
 10
277.9408183437
 20
257.2477126152
 30
0.0
 11
277.9408183437
 21
313.2593514055
 31
0.0
  0
SPLINE
  5
45B
330
1F
100
AcDbEntity
  8
0
  6
Continuous
 62
     7
370
    25
100
AcDbSpline
210
0.0
220
0.0
230
1.0
 70
     8
 71
     3
 72
    11
 73
     7
 74
     0
 42
0.000000001
 43
0.00000001
 40
0.0
 40
0.0
 40
0.0
 40
0.0
 40
0.2832771686238256
 40
0.5580022489005109
 40
0.7754022428539223
 40
1.0
 40
1.0
 40
1.0
 40
1.0
 10
279.9431421393348
 20
255.2537292852441
 30
0.0
 10
279.6460265273367
 20
255.2920131174209
 30
0.0
 10
279.0607651718811
 20
255.3674249995539
 30
0.0
 10
278.4105761859662
 20
255.9003636656746
 30
0.0
 10
278.0140382256153
 20
256.550788095572
 30
0.0
 10
277.9654885088341
 20
257.012896025388
 30
0.0
 10
277.9408183437212
 20
257.247712615151
 30
0.0
  0
SPLINE
  5
45C
330
1F
100
AcDbEntity
  8
0
  6
Continuous
 62
     7
370
    25
100
AcDbSpline
210
0.0
220
0.0
230
1.0
 70
     8
 71
     3
 72
    13
 73
     9
 74
     0
 42
0.000000001
 43
0.00000001
 40
0.0
 40
0.0
 40
0.0
 40
0.0
 40
0.1275360740474418
 40
0.254588719859239
 40
0.4999418984797897
 40
0.7453299828649776
 40
0.8725055605771206
 40
1.0
 40
1.0
 40
1.0
 40
1.0
 10
279.9431421393348
 20
315.2537292852441
 30
0.0
 10
279.8099796159256
 20
315.2464620413729
 30
0.0
 10
279.5441593245205
 20
315.2319551002749
 30
0.0
 10
279.0438031458951
 20
315.0714639752983
 30
0.0
 10
278.4948832815434
 20
314.705684569928
 30
0.0
 10
278.1268200510535
 20
314.1581095796883
 30
0.0
 10
277.9643898840151
 20
313.658262595752
 30
0.0
 10
277.9486820795149
 20
313.3924327470859
 30
0.0
 10
277.9408183437212
 20
313.2593514055175
 30
0.0
  0
SPLINE
  5
45D
330
1F
100
AcDbEntity
  8
0
  6
Continuous
 62
     7
370
    25
100
AcDbSpline
210
0.0
220
0.0
230
1.0
 70
     8
 71
     3
 72
    13
 73
     9
 74
     0
 42
0.000000001
 43
0.00000001
 40
0.0
 40
0.0
 40
0.0
 40
0.0
 40
0.127569317728521
 40
0.2546459829165801
 40
0.5000146894810296
 40
0.7453717616663829
 40
0.8725249485133846
 40
1.0
 40
1.0
 40
1.0
 40
1.0
 10
317.9408183437211
 20
313.2549808500933
 30
0.0
 10
317.9332635544798
 20
313.3881762852508
 30
0.0
 10
317.918183151399
 20
313.6540527758492
 30
0.0
 10
317.7566762908893
 20
314.154215193102
 30
0.0
 10
317.3898647177485
 20
314.7025382383612
 30
0.0
 10
316.8415699066954
 20
315.0696089593187
 30
0.0
 10
316.3414063323062
 20
315.23102075654
 30
0.0
 10
316.075556524203
 20
315.2461533995009
 30
0.0
 10
315.942463595479
 20
315.2537292852441
 30
0.0
  0
SPLINE
  5
45E
330
1F
100
AcDbEntity
  8
0
  6
Continuous
 62
     7
370
    25
100
AcDbSpline
210
0.0
220
0.0
230
1.0
 70
     8
 71
     3
 72
    13
 73
     9
 74
     0
 42
0.000000001
 43
0.00000001
 40
0.0
 40
0.0
 40
0.0
 40
0.0
 40
0.1275872441294484
 40
0.2546759233236651
 40
0.5000487292309116
 40
0.7453982611490086
 40
0.8725397565424716
 40
1.0
 40
1.0
 40
1.0
 40
1.0
 10
277.9408183437212
 20
257.247712615151
 30
0.0
 10
277.9486635152045
 20
257.1145411136991
 30
0.0
 10
277.9643232020703
 20
256.8487184969943
 30
0.0
 10
278.1269095472612
 20
256.3489746638552
 30
0.0
 10
278.4948852350055
 20
255.8015712886339
 30
0.0
 10
279.0438842291481
 20
255.4358185124553
 30
0.0
 10
279.5442716126227
 20
255.2755581742743
 30
0.0
 10
279.8100743733781
 20
255.2610116520825
 30
0.0
 10
279.9431421393348
 20
255.253729285244
 30
0.0
  0
SPLINE
  5
45F
330
1F
100
AcDbEntity
  8
0
  6
Continuous
 62
     7
370
    25
100
AcDbSpline
210
0.0
220
0.0
230
1.0
 70
     8
 71
     3
 72
    13
 73
     9
 74
     0
 42
0.000000001
 43
0.00000001
 40
0.0
 40
0.0
 40
0.0
 40
0.0
 40
0.1275744813590969
 40
0.2546483440425835
 40
0.5000017710082002
 40
0.7453551979738158
 40
0.8725131741728116
 40
1.0
 40
1.0
 40
1.0
 40
1.0
 10
315.942463595479
 20
255.2537292852441
 30
0.0
 10
316.0756533434487
 20
255.2612835476887
 30
0.0
 10
316.3415101856839
 20
255.2763624286803
 30
0.0
 10
316.8416150135303
 20
255.4378649339514
 30
0.0
 10
317.3898405886032
 20
255.804695848055
 30
0.0
 10
317.756778288866
 20
256.3529955962452
 30
0.0
 10
317.9181201895797
 20
256.8531456005618
 30
0.0
 10
317.9332457812513
 20
257.1189901181783
 30
0.0
 10
317.9408183437212
 20
257.2520840334863
 30
0.0
  0
LINE
  5
460
330
1F
100
AcDbEntity
  8
0
  6
Continuous
 62
     7
370
    25
100
AcDbLine
 10
658.7408183437
 20
689.3106599539
 30
0.0
 11
658.7408183437
 21
713.2841765648
 31
0.0
  0
LINE
  5
461
330
1F
100
AcDbEntity
  8
0
  6
Continuous
 62
     7
370
    25
100
AcDbLine
 10
581.7408183437
 20
713.2841765648
 30
0.0
 11
581.7408183437
 21
689.3106599539
 31
0.0
  0
LINE
  5
462
330
1F
100
AcDbEntity
  8
0
  6
Continuous
 62
     7
370
    25
100
AcDbLine
 10
576.2408183437
 20
679.7583167759
 30
0.0
 11
664.2408183437
 21
679.7583167759
 31
0.0
  0
LINE
  5
463
330
1F
100
AcDbEntity
  8
0
  6
Continuous
 62
     7
370
    25
100
AcDbLine
 10
576.2408183437
 20
720.7583167759
 30
0.0
 11
664.2408183437
 21
720.7583167759
 31
0.0
  0
ARC
  5
464
330
1F
100
AcDbEntity
  8
0
  6
Continuous
 62
     7
370
    25
100
AcDbCircle
 10
576.2408183437
 20
682.7583167759
 30
0.0
 40
3.0
100
AcDbArc
 50
180.0
 51
270.0
  0
ARC
  5
465
330
1F
100
AcDbEntity
  8
0
  6
Continuous
 62
     7
370
    25
100
AcDbCircle
 10
576.2408183437
 20
717.7583167759
 30
0.0
 40
3.0
100
AcDbArc
 50
90.0
 51
180.0
  0
ARC
  5
466
330
1F
100
AcDbEntity
  8
0
  6
Continuous
 62
     7
370
    25
100
AcDbCircle
 10
664.2408183437
 20
682.7583167759
 30
0.0
 40
3.0
100
AcDbArc
 50
270.0
 51
0.0
  0
LINE
  5
467
330
1F
100
AcDbEntity
  8
0
  6
Continuous
 62
     7
370
    25
100
AcDbLine
 10
573.2408183437
 20
717.7583167759
 30
0.0
 11
573.2408183437
 21
682.7583167759
 31
0.0
  0
LINE
  5
468
330
1F
100
AcDbEntity
  8
0
  6
Continuous
 62
     7
370
    25
100
AcDbLine
 10
667.2408183437
 20
717.7583167759
 30
0.0
 11
667.2408183437
 21
682.7583167759
 31
0.0
  0
ARC
  5
469
330
1F
100
AcDbEntity
  8
0
  6
Continuous
 62
     7
370
    25
100
AcDbCircle
 10
664.2408183437
 20
717.7583167759
 30
0.0
 40
3.0
100
AcDbArc
 50
0.0
 51
90.0
  0
LINE
  5
46A
330
1F
100
AcDbEntity
  8
0
  6
Continuous
 62
     7
370
    25
100
AcDbLine
 10
691.4908183437
 20
746.8037292852
 30
0.0
 11
693.5408183437
 21
746.8037292852
 31
0.0
  0
LINE
  5
46B
330
1F
100
AcDbEntity
  8
0
  6
Continuous
 62
     7
370
    25
100
AcDbLine
 10
693.5408183437
 20
227.7037292852
 30
0.0
 11
693.5408183437
 21
746.8037292852
 31
0.0
  0
LINE
  5
46C
330
1F
100
AcDbEntity
  8
0
  6
Continuous
 62
     7
370
    25
100
AcDbLine
 10
693.5408183437
 20
227.7037292852
 30
0.0
 11
691.4908183437
 21
227.7037292852
 31
0.0
  0
LINE
  5
46D
330
1F
100
AcDbEntity
  8
0
  6
Continuous
 62
     7
370
    25
100
AcDbLine
 10
691.4908183437
 20
746.8037292852
 30
0.0
 11
691.4108183437
 21
746.8037292852
 31
0.0
  0
LINE
  5
46E
330
1F
100
AcDbEntity
  8
0
  6
Continuous
 62
     7
370
    25
100
AcDbLine
 10
250.3908183437
 20
227.7037292852
 30
0.0
 11
250.4708183437
 21
227.7037292852
 31
0.0
  0
LINE
  5
46F
330
1F
100
AcDbEntity
  8
0
  6
Continuous
 62
     7
370
    25
100
AcDbLine
 10
250.4708183437
 20
746.8037292852
 30
0.0
 11
250.3908183437
 21
746.8037292852
 31
0.0
  0
LINE
  5
470
330
1F
100
AcDbEntity
  8
0
  6
Continuous
 62
     7
370
    25
100
AcDbLine
 10
691.4108183437
 20
227.7037292852
 30
0.0
 11
691.4908183437
 21
227.7037292852
 31
0.0
  0
LINE
  5
471
330
1F
100
AcDbEntity
  8
0
  6
Continuous
 62
     7
370
    25
100
AcDbLine
 10
691.4108183437
 20
748.8537292852
 30
0.0
 11
250.4708183437
 21
748.8537292852
 31
0.0
  0
LINE
  5
472
330
1F
100
AcDbEntity
  8
0
  6
Continuous
 62
     7
370
    25
100
AcDbLine
 10
250.4708183437
 20
746.8037292852
 30
0.0
 11
250.4708183437
 21
748.8537292852
 31
0.0
  0
LINE
  5
473
330
1F
100
AcDbEntity
  8
0
  6
Continuous
 62
     7
370
    25
100
AcDbLine
 10
691.4108183437
 20
748.8537292852
 30
0.0
 11
691.4108183437
 21
746.8037292852
 31
0.0
  0
LINE
  5
474
330
1F
100
AcDbEntity
  8
0
  6
Continuous
 62
     7
370
    25
100
AcDbLine
 10
691.4108183437
 20
227.7037292852
 30
0.0
 11
691.4108183437
 21
225.6537292852
 31
0.0
  0
LINE
  5
475
330
1F
100
AcDbEntity
  8
0
  6
Continuous
 62
     7
370
    25
100
AcDbLine
 10
250.4708183437
 20
225.6537292852
 30
0.0
 11
691.4108183437
 21
225.6537292852
 31
0.0
  0
LINE
  5
476
330
1F
100
AcDbEntity
  8
0
  6
Continuous
 62
     7
370
    25
100
AcDbLine
 10
250.4708183437
 20
225.6537292852
 30
0.0
 11
250.4708183437
 21
227.7037292852
 31
0.0
  0
LINE
  5
477
330
1F
100
AcDbEntity
  8
0
  6
Continuous
 62
     7
370
    25
100
AcDbLine
 10
248.3408183437
 20
227.7037292852
 30
0.0
 11
248.3408183437
 21
746.8037292852
 31
0.0
  0
LINE
  5
478
330
1F
100
AcDbEntity
  8
0
  6
Continuous
 62
     7
370
    25
100
AcDbLine
 10
248.3408183437
 20
746.8037292852
 30
0.0
 11
250.3908183437
 21
746.8037292852
 31
0.0
  0
LINE
  5
479
330
1F
100
AcDbEntity
  8
0
  6
Continuous
 62
     7
370
    25
100
AcDbLine
 10
250.3908183437
 20
227.7037292852
 30
0.0
 11
248.3408183437
 21
227.7037292852
 31
0.0
  0
LINE
  5
47A
330
1F
100
AcDbEntity
  8
0
  6
Continuous
 62
     7
370
    25
100
AcDbLine
 10
250.3908183437
 20
748.0537292852
 30
0.0
 11
250.3908183437
 21
748.8537292852
 31
0.0
  0
LINE
  5
47B
330
1F
100
AcDbEntity
  8
0
  6
Continuous
 62
     7
370
    25
100
AcDbLine
 10
250.3908183437
 20
748.0537292852
 30
0.0
 11
250.4708183437
 21
748.0537292852
 31
0.0
  0
LINE
  5
47C
330
1F
100
AcDbEntity
  8
0
  6
Continuous
 62
     7
370
    25
100
AcDbLine
 10
250.3908183437
 20
748.8537292852
 30
0.0
 11
250.4708183437
 21
748.8537292852
 31
0.0
  0
SPLINE
  5
47D
330
1F
100
AcDbEntity
  8
0
  6
Continuous
 62
     7
370
    25
100
AcDbSpline
210
0.0
220
0.0
230
1.0
 70
     8
 71
     3
 72
    11
 73
     7
 74
     0
 42
0.000000001
 43
0.00000001
 40
0.0
 40
0.0
 40
0.0
 40
0.0
 40
0.2500000000000225
 40
0.5000000000000132
 40
0.750000000000011
 40
1.0
 40
1.0
 40
1.0
 40
1.0
 10
250.3908183437215
 20
748.0537292852441
 30
0.0
 10
250.2270220389636
 20
748.0349398192601
 30
0.0
 10
249.8994294294479
 20
747.9973608872917
 30
0.0
 10
249.486248258077
 20
747.7082993708884
 30
0.0
 10
249.1971867416738
 20
747.2951181995176
 30
0.0
 10
249.1596078097055
 20
746.9675255900017
 30
0.0
 10
249.1408183437214
 20
746.803729285244
 30
0.0
  0
SPLINE
  5
47E
330
1F
100
AcDbEntity
  8
0
  6
Continuous
 62
     7
370
    25
100
AcDbSpline
210
0.0
220
0.0
230
1.0
 70
     8
 71
     3
 72
    11
 73
     7
 74
     0
 42
0.000000001
 43
0.00000001
 40
0.0
 40
0.0
 40
0.0
 40
0.0
 40
0.2499999999999894
 40
0.4999999999999927
 40
0.7500000000000004
 40
1.0
 40
1.0
 40
1.0
 40
1.0
 10
250.3908183437215
 20
748.8537292852442
 30
0.0
 10
250.1221924039187
 20
748.8229145610302
 30
0.0
 10
249.5849405243131
 20
748.761285112602
 30
0.0
 10
248.9073234032642
 20
748.2872242257013
 30
0.0
 10
248.4332625163635
 20
747.6096071046522
 30
0.0
 10
248.3716330679355
 20
747.0723552250466
 30
0.0
 10
248.3408183437215
 20
746.8037292852439
 30
0.0
  0
LINE
  5
47F
330
1F
100
AcDbEntity
  8
0
  6
Continuous
 62
     7
370
    25
100
AcDbLine
 10
691.4908183437
 20
748.0537292852
 30
0.0
 11
691.4908183437
 21
748.8537292852
 31
0.0
  0
LINE
  5
480
330
1F
100
AcDbEntity
  8
0
  6
Continuous
 62
     7
370
    25
100
AcDbLine
 10
691.4108183437
 20
748.0537292852
 30
0.0
 11
691.4908183437
 21
748.0537292852
 31
0.0
  0
LINE
  5
481
330
1F
100
AcDbEntity
  8
0
  6
Continuous
 62
     7
370
    25
100
AcDbLine
 10
691.4108183437
 20
748.8537292852
 30
0.0
 11
691.4908183437
 21
748.8537292852
 31
0.0
  0
SPLINE
  5
482
330
1F
100
AcDbEntity
  8
0
  6
Continuous
 62
     7
370
    25
100
AcDbSpline
210
0.0
220
0.0
230
1.0
 70
     8
 71
     3
 72
    11
 73
     7
 74
     0
 42
0.000000001
 43
0.00000001
 40
0.0
 40
0.0
 40
0.0
 40
0.0
 40
0.2500000000000139
 40
0.4999999999999901
 40
0.7500000000000056
 40
1.0
 40
1.0
 40
1.0
 40
1.0
 10
692.7408183437216
 20
746.803729285244
 30
0.0
 10
692.7220288777374
 20
746.9675255900016
 30
0.0
 10
692.6844499457692
 20
747.2951181995174
 30
0.0
 10
692.3953884293661
 20
747.7082993708884
 30
0.0
 10
691.9822072579951
 20
747.9973608872917
 30
0.0
 10
691.6546146484794
 20
748.0349398192599
 30
0.0
 10
691.4908183437216
 20
748.0537292852439
 30
0.0
  0
SPLINE
  5
483
330
1F
100
AcDbEntity
  8
0
  6
Continuous
 62
     7
370
    25
100
AcDbSpline
210
0.0
220
0.0
230
1.0
 70
     8
 71
     3
 72
    11
 73
     7
 74
     0
 42
0.000000001
 43
0.00000001
 40
0.0
 40
0.0
 40
0.0
 40
0.0
 40
0.2499999999999936
 40
0.5000000000000022
 40
0.7500000000000011
 40
0.9999999999999999
 40
0.9999999999999999
 40
0.9999999999999999
 40
0.9999999999999999
 10
693.5408183437216
 20
746.803729285244
 30
0.0
 10
693.5100036195076
 20
747.0723552250467
 30
0.0
 10
693.4483741710795
 20
747.6096071046524
 30
0.0
 10
692.9743132841786
 20
748.2872242257009
 30
0.0
 10
692.29669616313
 20
748.761285112602
 30
0.0
 10
691.7594442835244
 20
748.8229145610297
 30
0.0
 10
691.4908183437216
 20
748.853729285244
 30
0.0
  0
LINE
  5
484
330
1F
100
AcDbEntity
  8
0
  6
Continuous
 62
     7
370
    25
100
AcDbLine
 10
250.3908183437
 20
226.4537292852
 30
0.0
 11
250.3908183437
 21
225.6537292852
 31
0.0
  0
LINE
  5
485
330
1F
100
AcDbEntity
  8
0
  6
Continuous
 62
     7
370
    25
100
AcDbLine
 10
250.4708183437
 20
225.6537292852
 30
0.0
 11
250.3908183437
 21
225.6537292852
 31
0.0
  0
LINE
  5
486
330
1F
100
AcDbEntity
  8
0
  6
Continuous
 62
     7
370
    25
100
AcDbLine
 10
250.4708183437
 20
226.4537292852
 30
0.0
 11
250.3908183437
 21
226.4537292852
 31
0.0
  0
SPLINE
  5
487
330
1F
100
AcDbEntity
  8
0
  6
Continuous
 62
     7
370
    25
100
AcDbSpline
210
0.0
220
0.0
230
1.0
 70
     8
 71
     3
 72
    11
 73
     7
 74
     0
 42
0.000000001
 43
0.00000001
 40
0.0
 40
0.0
 40
0.0
 40
0.0
 40
0.2499999999999915
 40
0.4999999999999867
 40
0.7499999999999845
 40
1.0
 40
1.0
 40
1.0
 40
1.0
 10
249.1408183437216
 20
227.7037292852439
 30
0.0
 10
249.1596078097058
 20
227.5399329804861
 30
0.0
 10
249.197186741674
 20
227.2123403709705
 30
0.0
 10
249.486248258077
 20
226.7991591995995
 30
0.0
 10
249.899429429448
 20
226.5100976831965
 30
0.0
 10
250.2270220389636
 20
226.4725187512281
 30
0.0
 10
250.3908183437214
 20
226.453729285244
 30
0.0
  0
SPLINE
  5
488
330
1F
100
AcDbEntity
  8
0
  6
Continuous
 62
     7
370
    25
100
AcDbSpline
210
0.0
220
0.0
230
1.0
 70
     8
 71
     3
 72
    11
 73
     7
 74
     0
 42
0.000000001
 43
0.00000001
 40
0.0
 40
0.0
 40
0.0
 40
0.0
 40
0.2499999999999967
 40
0.5000000000000011
 40
0.7499999999999999
 40
1.0
 40
1.0
 40
1.0
 40
1.0
 10
248.3408183437216
 20
227.7037292852439
 30
0.0
 10
248.3716330679355
 20
227.4351033454411
 30
0.0
 10
248.4332625163636
 20
226.8978514658356
 30
0.0
 10
248.9073234032645
 20
226.220234344787
 30
0.0
 10
249.584940524313
 20
225.746173457886
 30
0.0
 10
250.1221924039185
 20
225.684544009458
 30
0.0
 10
250.3908183437213
 20
225.653729285244
 30
0.0
  0
LINE
  5
489
330
1F
100
AcDbEntity
  8
0
  6
Continuous
 62
     7
370
    25
100
AcDbLine
 10
691.4908183437
 20
226.4537292852
 30
0.0
 11
691.4908183437
 21
225.6537292852
 31
0.0
  0
LINE
  5
48A
330
1F
100
AcDbEntity
  8
0
  6
Continuous
 62
     7
370
    25
100
AcDbLine
 10
691.4908183437
 20
225.6537292852
 30
0.0
 11
691.4108183437
 21
225.6537292852
 31
0.0
  0
LINE
  5
48B
330
1F
100
AcDbEntity
  8
0
  6
Continuous
 62
     7
370
    25
100
AcDbLine
 10
691.4908183437
 20
226.4537292852
 30
0.0
 11
691.4108183437
 21
226.4537292852
 31
0.0
  0
SPLINE
  5
48C
330
1F
100
AcDbEntity
  8
0
  6
Continuous
 62
     7
370
    25
100
AcDbSpline
210
0.0
220
0.0
230
1.0
 70
     8
 71
     3
 72
    11
 73
     7
 74
     0
 42
0.000000001
 43
0.00000001
 40
0.0
 40
0.0
 40
0.0
 40
0.0
 40
0.2500000000000038
 40
0.4999999999999986
 40
0.7499999999999994
 40
1.0
 40
1.0
 40
1.0
 40
1.0
 10
691.4908183437216
 20
225.6537292852439
 30
0.0
 10
691.7594442835244
 20
225.6845440094579
 30
0.0
 10
692.29669616313
 20
225.746173457886
 30
0.0
 10
692.9743132841787
 20
226.2202343447868
 30
0.0
 10
693.4483741710795
 20
226.8978514658355
 30
0.0
 10
693.5100036195076
 20
227.4351033454411
 30
0.0
 10
693.5408183437216
 20
227.7037292852439
 30
0.0
  0
SPLINE
  5
48D
330
1F
100
AcDbEntity
  8
0
  6
Continuous
 62
     7
370
    25
100
AcDbSpline
210
0.0
220
0.0
230
1.0
 70
     8
 71
     3
 72
    11
 73
     7
 74
     0
 42
0.000000001
 43
0.00000001
 40
0.0
 40
0.0
 40
0.0
 40
0.0
 40
0.250000000000002
 40
0.5000000000000002
 40
0.7500000000000018
 40
1.0
 40
1.0
 40
1.0
 40
1.0
 10
691.4908183437216
 20
226.4537292852439
 30
0.0
 10
691.6546146484794
 20
226.472518751228
 30
0.0
 10
691.9822072579951
 20
226.5100976831964
 30
0.0
 10
692.3953884293662
 20
226.7991591995994
 30
0.0
 10
692.6844499457692
 20
227.2123403709705
 30
0.0
 10
692.7220288777374
 20
227.5399329804861
 30
0.0
 10
692.7408183437216
 20
227.7037292852439
 30
0.0
  0
LINE
  5
48E
330
1F
100
AcDbEntity
  8
0
  6
Continuous
 62
     7
370
    25
100
AcDbLine
 10
251.7408183437
 20
754.6537292852
 30
0.0
 11
251.7408183437
 21
757.1537292852
 31
0.0
  0
LINE
  5
48F
330
1F
100
AcDbEntity
  8
0
  6
Continuous
 62
     7
370
    25
100
AcDbLine
 10
251.7408183437
 20
757.1537292852
 30
0.0
 11
265.587786023
 21
757.1537292852
 31
0.0
  0
LINE
  5
490
330
1F
100
AcDbEntity
  8
0
  6
Continuous
 62
     7
370
    25
100
AcDbLine
 10
251.7408183437
 20
754.6537292852
 30
0.0
 11
265.587786023
 21
754.6537292852
 31
0.0
  0
LINE
  5
491
330
1F
100
AcDbEntity
  8
0
  6
Continuous
 62
     7
370
    25
100
AcDbLine
 10
275.1030075004
 20
757.1537292852
 30
0.0
 11
275.1030075004
 21
754.6537292852
 31
0.0
  0
LINE
  5
492
330
1F
100
AcDbEntity
  8
0
  6
Continuous
 62
     7
370
    25
100
AcDbLine
 10
265.587786023
 20
757.1537292852
 30
0.0
 11
275.1030075004
 21
757.1537292852
 31
0.0
  0
LINE
  5
493
330
1F
100
AcDbEntity
  8
0
  6
Continuous
 62
     7
370
    25
100
AcDbLine
 10
265.587786023
 20
754.6537292852
 30
0.0
 11
275.1030075004
 21
754.6537292852
 31
0.0
  0
SPLINE
  5
494
330
1F
100
AcDbEntity
  8
0
  6
Continuous
 62
     7
370
    25
100
AcDbSpline
210
0.0
220
0.0
230
1.0
 70
     8
 71
     3
 72
    12
 73
     8
 74
     0
 42
0.000000001
 43
0.00000001
 40
0.0
 40
0.0
 40
0.0
 40
0.0
 40
0.2152788140908876
 40
0.4305597103602788
 40
0.6458406093150395
 40
0.8611214901206032
 40
1.0
 40
1.0
 40
1.0
 40
1.0
 10
275.1030075003813
 20
754.6537292852422
 30
0.0
 10
275.1487932751373
 20
754.7148641875588
 30
0.0
 10
275.2403652674896
 20
754.8371345834889
 30
0.0
 10
275.3777368945965
 20
755.790440992181
 30
0.0
 10
275.5150560578492
 20
757.1928228386644
 30
0.0
 10
275.6363105721625
 20
758.7383409344061
 30
0.0
 10
275.7113806806796
 20
759.7550438599641
 30
0.0
 10
275.7408183437248
 20
760.1537292852423
 30
0.0
  0
SPLINE
  5
495
330
1F
100
AcDbEntity
  8
0
  6
Continuous
 62
     7
370
    25
100
AcDbSpline
210
0.0
220
0.0
230
1.0
 70
     8
 71
     3
 72
    12
 73
     8
 74
     0
 42
0.000000001
 43
0.00000001
 40
0.0
 40
0.0
 40
0.0
 40
0.0
 40
0.2166694938786086
 40
0.4333389848626241
 40
0.6500003492899687
 40
0.8666616527448244
 40
1.0
 40
1.0
 40
1.0
 40
1.0
 10
275.1030075003813
 20
757.1537292852424
 30
0.0
 10
275.1490893897391
 20
757.1875120579728
 30
0.0
 10
275.2412531678393
 20
757.2550776029823
 30
0.0
 10
275.3795117028524
 20
757.7816164527943
 30
0.0
 10
275.5177104296486
 20
758.5552920288519
 30
0.0
 10
275.638385878439
 20
759.3970269944756
 30
0.0
 10
275.7125603220424
 20
759.9449779906207
 30
0.0
 10
275.7408183437248
 20
760.1537292852423
 30
0.0
  0
LINE
  5
496
330
1F
100
AcDbEntity
  8
0
  6
Continuous
 62
     7
370
    25
100
AcDbLine
 10
254.7408183437
 20
760.1537292852
 30
0.0
 11
254.7408183437
 21
757.1537292852
 31
0.0
  0
ARC
  5
497
330
1F
100
AcDbEntity
  8
0
  6
Continuous
 62
     7
370
    25
100
AcDbCircle
 10
261.4408183437
 20
767.6537292852
 30
0.0
 40
3.200000000000017
100
AcDbArc
 50
220.7226676461
 51
270.0
  0
LINE
  5
498
330
1F
100
AcDbEntity
  8
0
  6
Continuous
 62
     7
370
    25
100
AcDbLine
 10
275.7408183437
 20
765.5660547581
 30
0.0
 11
275.7408183437
 21
760.1537292852
 31
0.0
  0
ARC
  5
499
330
1F
100
AcDbEntity
  8
0
  6
Continuous
 62
     7
370
    25
100
AcDbCircle
 10
262.4408183437
 20
767.6537292852
 30
0.0
 40
3.199999999999974
100
AcDbArc
 50
270.0
 51
319.2773323539
  0
LINE
  5
49A
330
1F
100
AcDbEntity
  8
0
  6
Continuous
 62
     7
370
    25
100
AcDbLine
 10
254.7408183437
 20
760.1537292852
 30
0.0
 11
254.7408183437
 21
765.5660547581
 31
0.0
  0
LINE
  5
49B
330
1F
100
AcDbEntity
  8
0
  6
Continuous
 62
     7
370
    25
100
AcDbLine
 10
262.4408183437
 20
764.4537292852
 30
0.0
 11
261.4408183437
 21
764.4537292852
 31
0.0
  0
LINE
  5
49C
330
1F
100
AcDbEntity
  8
0
  6
Continuous
 62
     7
370
    25
100
AcDbLine
 10
247.9908183437
 20
764.6537292852
 30
0.0
 11
249.2408183437
 21
764.6537292852
 31
0.0
  0
ARC
  5
49D
330
1F
100
AcDbEntity
  8
0
  6
Continuous
 62
     7
370
    25
100
AcDbCircle
 10
249.2408183437
 20
762.6537292852
 30
0.0
 40
2.0
100
AcDbArc
 50
0.0
 51
90.0
  0
LINE
  5
49E
330
1F
100
AcDbEntity
  8
0
  6
Continuous
 62
     7
370
    25
100
AcDbLine
 10
251.2408183437
 20
762.6537292852
 30
0.0
 11
251.2408183437
 21
754.6537292852
 31
0.0
  0
ARC
  5
49F
330
1F
100
AcDbEntity
  8
0
  6
Continuous
 62
     7
370
    25
100
AcDbCircle
 10
253.2408183437
 20
754.6537292852
 30
0.0
 40
2.0
100
AcDbArc
 50
180.0
 51
270.0
  0
LINE
  5
4A0
330
1F
100
AcDbEntity
  8
0
  6
Continuous
 62
     7
370
    25
100
AcDbLine
 10
253.2408183437
 20
752.6537292852
 30
0.0
 11
253.7408183437
 21
752.6537292852
 31
0.0
  0
LINE
  5
4A1
330
1F
100
AcDbEntity
  8
0
  6
Continuous
 62
     7
370
    25
100
AcDbLine
 10
263.7408183437
 20
752.6537292852
 30
0.0
 11
271.4908183437
 21
752.6537292852
 31
0.0
  0
LINE
  5
4A2
330
1F
100
AcDbEntity
  8
0
  6
Continuous
 62
     7
370
    25
100
AcDbLine
 10
248.3408183437
 20
234.1537292852
 30
0.0
 11
247.9908183437
 21
234.1537292852
 31
0.0
  0
LINE
  5
4A3
330
1F
100
AcDbEntity
  8
0
  6
Continuous
 62
     7
370
    25
100
AcDbLine
 10
273.5408183437
 20
748.8537292852
 30
0.0
 11
273.5408183437
 21
752.6537292852
 31
0.0
  0
LINE
  5
4A4
330
1F
100
AcDbEntity
  8
0
  6
Continuous
 62
     7
370
    25
100
AcDbLine
 10
271.4908183437
 20
752.6537292852
 30
0.0
 11
273.5408183437
 21
752.6537292852
 31
0.0
  0
LINE
  5
4A5
330
1F
100
AcDbEntity
  8
0
  6
Continuous
 62
     7
370
    25
100
AcDbLine
 10
247.9908183437
 20
234.1537292852
 30
0.0
 11
245.9408183437
 21
234.1537292852
 31
0.0
  0
LINE
  5
4A6
330
1F
100
AcDbEntity
  8
0
  6
Continuous
 62
     7
370
    25
100
AcDbLine
 10
245.9408183437
 20
234.1537292852
 30
0.0
 11
245.9408183437
 21
764.6537292852
 31
0.0
  0
LINE
  5
4A7
330
1F
100
AcDbEntity
  8
0
  6
Continuous
 62
     7
370
    25
100
AcDbLine
 10
245.9408183437
 20
764.6537292852
 30
0.0
 11
247.9908183437
 21
764.6537292852
 31
0.0
  0
LINE
  5
4A8
330
1F
100
AcDbEntity
  8
0
  6
Continuous
 62
     7
370
    25
100
AcDbLine
 10
246.7408183437
 20
223.1537292852
 30
0.0
 11
245.9408183437
 21
223.1537292852
 31
0.0
  0
LINE
  5
4A9
330
1F
100
AcDbEntity
  8
0
  6
Continuous
 62
     7
370
    25
100
AcDbLine
 10
245.9408183437
 20
223.1537292852
 30
0.0
 11
245.9408183437
 21
228.1537292852
 31
0.0
  0
LINE
  5
4AA
330
1F
100
AcDbEntity
  8
0
  6
Continuous
 62
     7
370
    25
100
AcDbLine
 10
246.7408183437
 20
228.1537292852
 30
0.0
 11
246.7408183437
 21
223.1537292852
 31
0.0
  0
LINE
  5
4AB
330
1F
100
AcDbEntity
  8
0
  6
Continuous
 62
     7
370
    25
100
AcDbLine
 10
245.9408183437
 20
234.1537292852
 30
0.0
 11
245.9408183437
 21
228.1537292852
 31
0.0
  0
LINE
  5
4AC
330
1F
100
AcDbEntity
  8
0
  6
Continuous
 62
     7
370
    25
100
AcDbLine
 10
246.7408183437
 20
234.1537292852
 30
0.0
 11
246.7408183437
 21
228.1537292852
 31
0.0
  0
LINE
  5
4AD
330
1F
100
AcDbEntity
  8
0
  6
Continuous
 62
     7
370
    25
100
AcDbLine
 10
276.7408183437
 20
885.1801708476
 30
0.0
 11
276.7408183437
 21
888.1111473336
 31
0.0
  0
LINE
  5
4AE
330
1F
100
AcDbEntity
  8
0
  6
Continuous
 62
     7
370
    25
100
AcDbLine
 10
245.9408183437
 20
764.6537292852
 30
0.0
 11
245.9408183437
 21
765.5660547581
 31
0.0
  0
LINE
  5
4AF
330
1F
100
AcDbEntity
  8
0
  6
Continuous
 62
     7
370
    25
100
AcDbLine
 10
246.7408183437
 20
764.6537292852
 30
0.0
 11
246.7408183437
 21
765.5660547581
 31
0.0
  0
LINE
  5
4B0
330
1F
100
AcDbEntity
  8
0
  6
Continuous
 62
     7
370
    25
100
AcDbLine
 10
247.9908183437
 20
223.1537292852
 30
0.0
 11
250.7408183437
 21
223.1537292852
 31
0.0
  0
LINE
  5
4B1
330
1F
100
AcDbEntity
  8
0
  6
Continuous
 62
     7
370
    25
100
AcDbLine
 10
247.9908183437
 20
222.3537292852
 30
0.0
 11
250.7408183437
 21
222.3537292852
 31
0.0
  0
ARC
  5
4B2
330
1F
100
AcDbEntity
  8
0
  6
Continuous
 62
     7
370
    25
100
AcDbCircle
 10
247.9908183437
 20
224.4037292852
 30
0.0
 40
1.249999999999972
100
AcDbArc
 50
180.0
 51
270.0
  0
ARC
  5
4B3
330
1F
100
AcDbEntity
  8
0
  6
Continuous
 62
     7
370
    25
100
AcDbCircle
 10
247.9908183437
 20
224.4037292852
 30
0.0
 40
2.050000000000034
100
AcDbArc
 50
217.5718693195
 51
270.0
  0
LINE
  5
4B4
330
1F
100
AcDbEntity
  8
0
  6
Continuous
 62
     7
370
    25
100
AcDbLine
 10
668.3408183437
 20
764.6537292852
 30
0.0
 11
668.3408183437
 21
748.8537292852
 31
0.0
  0
LINE
  5
4B5
330
1F
100
AcDbEntity
  8
0
  6
Continuous
 62
     7
370
    25
100
AcDbLine
 10
668.3408183437
 20
764.6537292852
 30
0.0
 11
670.3908183437
 21
764.6537292852
 31
0.0
  0
LINE
  5
4B6
330
1F
100
AcDbEntity
  8
0
  6
Continuous
 62
     7
370
    25
100
AcDbLine
 10
693.8908183437
 20
764.6537292852
 30
0.0
 11
670.3908183437
 21
764.6537292852
 31
0.0
  0
LINE
  5
4B7
330
1F
100
AcDbEntity
  8
0
  6
Continuous
 62
     7
370
    25
100
AcDbLine
 10
693.5408183437
 20
229.1537292852
 30
0.0
 11
693.8908183437
 21
229.1537292852
 31
0.0
  0
LINE
  5
4B8
330
1F
100
AcDbEntity
  8
0
  6
Continuous
 62
     7
370
    25
100
AcDbLine
 10
695.9408183437
 20
229.1537292852
 30
0.0
 11
693.8908183437
 21
229.1537292852
 31
0.0
  0
LINE
  5
4B9
330
1F
100
AcDbEntity
  8
0
  6
Continuous
 62
     7
370
    25
100
AcDbLine
 10
693.8908183437
 20
764.6537292852
 30
0.0
 11
695.9408183437
 21
764.6537292852
 31
0.0
  0
LINE
  5
4BA
330
1F
100
AcDbEntity
  8
0
  6
Continuous
 62
     7
370
    25
100
AcDbLine
 10
695.9408183437
 20
764.6537292852
 30
0.0
 11
695.9408183437
 21
229.1537292852
 31
0.0
  0
LINE
  5
4BB
330
1F
100
AcDbEntity
  8
0
  6
Continuous
 62
     7
370
    25
100
AcDbLine
 10
695.9408183437
 20
223.1537292852
 30
0.0
 11
695.1408183437
 21
223.1537292852
 31
0.0
  0
LINE
  5
4BC
330
1F
100
AcDbEntity
  8
0
  6
Continuous
 62
     7
370
    25
100
AcDbLine
 10
695.1408183437
 20
223.1537292852
 30
0.0
 11
695.1408183437
 21
228.1537292852
 31
0.0
  0
LINE
  5
4BD
330
1F
100
AcDbEntity
  8
0
  6
Continuous
 62
     7
370
    25
100
AcDbLine
 10
695.9408183437
 20
228.1537292852
 30
0.0
 11
695.9408183437
 21
223.1537292852
 31
0.0
  0
LINE
  5
4BE
330
1F
100
AcDbEntity
  8
0
  6
Continuous
 62
     7
370
    25
100
AcDbLine
 10
695.1408183437
 20
229.1537292852
 30
0.0
 11
695.1408183437
 21
228.1537292852
 31
0.0
  0
LINE
  5
4BF
330
1F
100
AcDbEntity
  8
0
  6
Continuous
 62
     7
370
    25
100
AcDbLine
 10
695.9408183437
 20
229.1537292852
 30
0.0
 11
695.9408183437
 21
228.1537292852
 31
0.0
  0
LINE
  5
4C0
330
1F
100
AcDbEntity
  8
0
  6
Continuous
 62
     7
370
    25
100
AcDbLine
 10
665.1408183437
 20
888.1111473336
 30
0.0
 11
665.1408183437
 21
885.1801708476
 31
0.0
  0
LINE
  5
4C1
330
1F
100
AcDbEntity
  8
0
  6
Continuous
 62
     7
370
    25
100
AcDbLine
 10
695.1408183437
 20
765.5660547581
 30
0.0
 11
695.1408183437
 21
764.6537292852
 31
0.0
  0
LINE
  5
4C2
330
1F
100
AcDbEntity
  8
0
  6
Continuous
 62
     7
370
    25
100
AcDbLine
 10
695.9408183437
 20
764.6537292852
 30
0.0
 11
695.9408183437
 21
765.5660547581
 31
0.0
  0
LINE
  5
4C3
330
1F
100
AcDbEntity
  8
0
  6
Continuous
 62
     7
370
    25
100
AcDbLine
 10
688.1408183437
 20
222.3537292852
 30
0.0
 11
685.1408183437
 21
222.3537292852
 31
0.0
  0
LINE
  5
4C4
330
1F
100
AcDbEntity
  8
0
  6
Continuous
 62
     7
370
    25
100
AcDbLine
 10
685.1408183437
 20
222.3537292852
 30
0.0
 11
685.1408183437
 21
223.1537292852
 31
0.0
  0
LINE
  5
4C5
330
1F
100
AcDbEntity
  8
0
  6
Continuous
 62
     7
370
    25
100
AcDbLine
 10
688.1408183437
 20
223.1537292852
 30
0.0
 11
685.312391219
 21
223.1537292852
 31
0.0
  0
LINE
  5
4C6
330
1F
100
AcDbEntity
  8
0
  6
Continuous
 62
     7
370
    25
100
AcDbLine
 10
693.8908183437
 20
222.3537292852
 30
0.0
 11
688.1408183437
 21
222.3537292852
 31
0.0
  0
LINE
  5
4C7
330
1F
100
AcDbEntity
  8
0
  6
Continuous
 62
     7
370
    25
100
AcDbLine
 10
693.8908183437
 20
223.1537292852
 30
0.0
 11
688.1408183437
 21
223.1537292852
 31
0.0
  0
ARC
  5
4C8
330
1F
100
AcDbEntity
  8
0
  6
Continuous
 62
     7
370
    25
100
AcDbCircle
 10
693.8908183437
 20
224.4037292852
 30
0.0
 40
1.25
100
AcDbArc
 50
270.0
 51
0.0
  0
ARC
  5
4C9
330
1F
100
AcDbEntity
  8
0
  6
Continuous
 62
     7
370
    25
100
AcDbCircle
 10
693.8908183437
 20
224.4037292852
 30
0.0
 40
2.050000000000011
100
AcDbArc
 50
270.0
 51
322.4281306801
  0
LINE
  5
4CA
330
1F
100
AcDbEntity
  8
0
  6
Continuous
 62
     7
370
    25
100
AcDbLine
 10
685.1408183437
 20
222.3537292852
 30
0.0
 11
683.1408183437
 21
222.3537292852
 31
0.0
  0
LINE
  5
4CB
330
1F
100
AcDbEntity
  8
0
  6
Continuous
 62
     7
370
    25
100
AcDbLine
 10
683.1408183437
 20
222.3537292852
 30
0.0
 11
681.1408183437
 21
222.3537292852
 31
0.0
  0
LINE
  5
4CC
330
1F
100
AcDbEntity
  8
0
  6
Continuous
 62
     7
370
    25
100
AcDbLine
 10
681.1408183437
 20
222.3537292852
 30
0.0
 11
680.9408183437
 21
222.3537292852
 31
0.0
  0
LWPOLYLINE
  5
4CD
330
1F
100
AcDbEntity
  8
0
  6
Continuous
 62
     7
370
    25
100
AcDbPolyline
 90
        3
 70
   128
 43
0.0
 10
672.9308183437
 20
888.8488645032
 10
674.1098390414
 20
888.9197257125
 10
674.6410770007
 20
889.0020084432
  0
LWPOLYLINE
  5
4CE
330
1F
100
AcDbEntity
  8
0
  6
Continuous
 62
     7
370
    25
100
AcDbPolyline
 90
        3
 70
   128
 43
0.0
 10
671.284011268
 20
888.990310951
 10
671.7517976461
 20
888.9197257125
 10
672.9308183437
 20
888.8488645032
  0
LWPOLYLINE
  5
4CF
330
1F
100
AcDbEntity
  8
0
  6
Continuous
 62
     7
370
    25
100
AcDbPolyline
 90
       19
 70
   128
 43
0.0
 10
672.9308183437
 20
889.2675510255
 10
673.9397777665
 20
889.3384911839
 10
674.8270417923
 20
889.5427552289
 10
675.4855932849
 20
889.8557059022
 10
675.8360012151
 20
890.2395967338
 10
675.8360012151
 20
890.6481248239
 10
675.4855932849
 20
891.0320156555
 10
674.8270417923
 20
891.3449663288
 10
673.9397777665
 20
891.5492303738
 10
672.9308183437
 20
891.6201705322
 10
671.9218589209
 20
891.5492303738
 10
671.0345948952
 20
891.3449663288
 10
670.3760434026
 20
891.0320156555
 10
670.0256354723
 20
890.6481248239
 10
670.0256354723
 20
890.2395967338
 10
670.3760434026
 20
889.8557059022
 10
671.0345948952
 20
889.5427552289
 10
671.9218589209
 20
889.3384911839
 10
672.9308183437
 20
889.2675510255
  0
ARC
  5
4D0
330
1F
100
AcDbEntity
  8
0
  6
Continuous
 62
     7
370
    25
100
AcDbCircle
 10
673.0869599183
 20
896.4530797361
 30
0.0
 40
5.537022575962984
100
AcDbArc
 50
268.3840702782
 51
290.5740413032
  0
ARC
  5
4D1
330
1F
100
AcDbEntity
  8
0
  6
Continuous
 62
     7
370
    25
100
AcDbCircle
 10
672.7746767692
 20
896.4530797361
 30
0.0
 40
5.537022575965812
100
AcDbArc
 50
249.4259586968
 51
271.6159297218
  0
LWPOLYLINE
  5
4D2
330
1F
100
AcDbEntity
  8
0
  6
Continuous
 62
     7
370
    25
100
AcDbPolyline
 90
        3
 70
   128
 43
0.0
 10
672.9308183437
 20
891.0877275137
 10
673.8970940105
 20
891.1643687517
 10
674.712885711
 20
891.381280397
  0
LWPOLYLINE
  5
4D3
330
1F
100
AcDbEntity
  8
0
  6
Continuous
 62
     7
370
    25
100
AcDbPolyline
 90
        3
 70
   128
 43
0.0
 10
671.1487509765
 20
891.381280397
 10
671.964542677
 20
891.1643687517
 10
672.9308183437
 20
891.0877275137
  0
ARC
  5
4D4
330
1F
100
AcDbEntity
  8
0
  6
Continuous
 62
     7
370
    25
100
AcDbCircle
 10
261.9408183437
 20
767.6537292852
 30
0.0
 40
2.950000000000045
100
AcDbArc
 50
270.0
 51
314.9530248054
  0
ARC
  5
4D5
330
1F
100
AcDbEntity
  8
0
  6
Continuous
 62
     7
370
    25
100
AcDbCircle
 10
261.9408183437
 20
767.6537292852
 30
0.0
 40
2.950000000000045
100
AcDbArc
 50
225.0469751946
 51
270.0
  0
LWPOLYLINE
  5
4D6
330
1F
100
AcDbEntity
  8
0
  6
Continuous
 62
     7
370
    25
100
AcDbPolyline
 90
        3
 70
   128
 43
0.0
 10
261.9408183437
 20
765.1287292852
 10
262.9070940105
 20
765.3209334657
 10
263.3611141118
 20
765.5660547581
  0
LWPOLYLINE
  5
4D7
330
1F
100
AcDbEntity
  8
0
  6
Continuous
 62
     7
370
    25
100
AcDbPolyline
 90
        3
 70
   128
 43
0.0
 10
260.5205225757
 20
765.5660547581
 10
260.974542677
 20
765.3209334657
 10
261.9408183437
 20
765.1287292852
  0
LWPOLYLINE
  5
4D8
330
1F
100
AcDbEntity
  8
0
  6
Continuous
 62
     7
370
    25
100
AcDbPolyline
 90
        3
 70
   128
 43
0.0
 10
261.7136288441
 20
765.5660547581
 10
261.9408183437
 20
765.5537292852
 10
262.1408183437
 20
765.5632747892
  0
LWPOLYLINE
  5
4D9
330
1F
100
AcDbEntity
  8
0
  6
Continuous
 62
     7
370
    25
100
AcDbPolyline
 90
        3
 70
   128
 43
0.0
 10
268.9508183437
 20
888.8488645032
 10
270.1298390414
 20
888.9197257125
 10
270.5976254194
 20
888.990310951
  0
LWPOLYLINE
  5
4DA
330
1F
100
AcDbEntity
  8
0
  6
Continuous
 62
     7
370
    25
100
AcDbPolyline
 90
        3
 70
   128
 43
0.0
 10
267.2405596867
 20
889.0020084432
 10
267.7717976461
 20
888.9197257125
 10
268.9508183437
 20
888.8488645032
  0
LWPOLYLINE
  5
4DB
330
1F
100
AcDbEntity
  8
0
  6
Continuous
 62
     7
370
    25
100
AcDbPolyline
 90
       19
 70
   128
 43
0.0
 10
268.9508183437
 20
889.2675510255
 10
269.9597777665
 20
889.3384911839
 10
270.8470417923
 20
889.5427552289
 10
271.5055932849
 20
889.8557059022
 10
271.8560012151
 20
890.2395967338
 10
271.8560012151
 20
890.6481248239
 10
271.5055932849
 20
891.0320156555
 10
270.8470417923
 20
891.3449663288
 10
269.9597777665
 20
891.5492303738
 10
268.9508183437
 20
891.6201705322
 10
267.9418589209
 20
891.5492303738
 10
267.0545948952
 20
891.3449663288
 10
266.3960434026
 20
891.0320156555
 10
266.0456354723
 20
890.6481248239
 10
266.0456354723
 20
890.2395967338
 10
266.3960434026
 20
889.8557059022
 10
267.0545948952
 20
889.5427552289
 10
267.9418589209
 20
889.3384911839
 10
268.9508183437
 20
889.2675510255
  0
ARC
  5
4DC
330
1F
100
AcDbEntity
  8
0
  6
Continuous
 62
     7
370
    25
100
AcDbCircle
 10
269.1069599183
 20
896.4530797361
 30
0.0
 40
5.537022575963208
100
AcDbArc
 50
268.3840702782
 51
290.5740413032
  0
ARC
  5
4DD
330
1F
100
AcDbEntity
  8
0
  6
Continuous
 62
     7
370
    25
100
AcDbCircle
 10
268.7946767692
 20
896.4530797361
 30
0.0
 40
5.537022575963436
100
AcDbArc
 50
249.4259586968
 51
271.6159297218
  0
LWPOLYLINE
  5
4DE
330
1F
100
AcDbEntity
  8
0
  6
Continuous
 62
     7
370
    25
100
AcDbPolyline
 90
        3
 70
   128
 43
0.0
 10
268.9508183437
 20
891.0877275137
 10
269.9170940105
 20
891.1643687517
 10
270.7328857054
 20
891.3812803948
  0
LWPOLYLINE
  5
4DF
330
1F
100
AcDbEntity
  8
0
  6
Continuous
 62
     7
370
    25
100
AcDbPolyline
 90
        3
 70
   128
 43
0.0
 10
267.1687509822
 20
891.3812803948
 10
267.984542677
 20
891.1643687517
 10
268.9508183437
 20
891.0877275137
  0
LINE
  5
4E0
330
1F
100
AcDbEntity
  8
0
  6
Continuous
 62
     7
370
    25
100
AcDbLine
 10
248.2408183437
 20
765.5660547581
 30
0.0
 11
248.2408183437
 21
764.6537292852
 31
0.0
  0
LWPOLYLINE
  5
4E1
330
1F
100
AcDbEntity
  8
0
  6
Continuous
 62
     7
370
    25
100
AcDbPolyline
 90
        3
 70
   128
 43
0.0
 10
248.2408183437
 20
229.6537292852
 10
248.3368919417
 20
228.6782776752
 10
248.3408183437
 20
228.6587418482
  0
LWPOLYLINE
  5
4E2
330
1F
100
AcDbEntity
  8
0
  6
Continuous
 62
     7
370
    25
100
AcDbPolyline
 90
        3
 70
   128
 43
0.0
 10
250.1490911597
 20
225.7241971223
 10
250.4629671786
 20
225.4963812237
 10
250.5357496035
 20
225.448660545
  0
LINE
  5
4E3
330
1F
100
AcDbEntity
  8
0
  6
Continuous
 62
     7
370
    25
100
AcDbLine
 10
248.2408183437
 20
234.1537292852
 30
0.0
 11
248.2408183437
 21
229.6537292852
 31
0.0
  0
LINE
  5
4E4
330
1F
100
AcDbEntity
  8
0
  6
Continuous
 62
     7
370
    25
100
AcDbLine
 10
280.9408183437
 20
887.3009428807
 30
0.0
 11
280.9408183437
 21
888.1111473336
 31
0.0
  0
LINE
  5
4E5
330
1F
100
AcDbEntity
  8
0
  6
Continuous
 62
     7
370
    25
100
AcDbLine
 10
272.4408183437
 20
754.6537292852
 30
0.0
 11
272.4408183437
 21
752.6537292852
 31
0.0
  0
LINE
  5
4E6
330
1F
100
AcDbEntity
  8
0
  6
Continuous
 62
     7
370
    25
100
AcDbLine
 10
272.4408183437
 20
225.6537292852
 30
0.0
 11
272.4408183437
 21
224.6537292852
 31
0.0
  0
LINE
  5
4E7
330
1F
100
AcDbEntity
  8
0
  6
Continuous
 62
     7
370
    25
100
AcDbLine
 10
660.9408183437
 20
887.3009428807
 30
0.0
 11
660.9408183437
 21
888.1111473336
 31
0.0
  0
ARC
  5
4E8
330
1F
100
AcDbEntity
  8
0
  6
Continuous
 62
     7
370
    25
100
AcDbCircle
 10
688.6408183437
 20
229.6537292852
 30
0.0
 40
5.0
100
AcDbArc
 50
270.0
 51
306.9154720599
  0
LWPOLYLINE
  5
4E9
330
1F
100
AcDbEntity
  8
0
  6
Continuous
 62
     7
370
    25
100
AcDbPolyline
 90
        3
 70
   128
 43
0.0
 10
693.5408183437
 20
228.6587418481
 10
693.5447447457
 20
228.6782776752
 10
693.6157555293
 20
229.1537292852
  0
LINE
  5
4EA
330
1F
100
AcDbEntity
  8
0
  6
Continuous
 62
     7
370
    25
100
AcDbLine
 10
688.6408183437
 20
224.6537292852
 30
0.0
 11
676.6643177432
 21
224.6537292852
 31
0.0
  0
LINE
  5
4EB
330
1F
100
AcDbEntity
  8
0
  6
Continuous
 62
     7
370
    25
100
AcDbLine
 10
669.4408183437
 20
224.6537292852
 30
0.0
 11
669.4408183437
 21
225.6537292852
 31
0.0
  0
LINE
  5
4EC
330
1F
100
AcDbEntity
  8
0
  6
Continuous
 62
     7
370
    25
100
AcDbLine
 10
669.4408183437
 20
764.6537292852
 30
0.0
 11
669.4408183437
 21
765.5660547581
 31
0.0
  0
LINE
  5
4ED
330
1F
100
AcDbEntity
  8
0
  6
Continuous
 62
     7
370
    25
100
AcDbLine
 10
690.8408183437
 20
764.6537292852
 30
0.0
 11
690.8408183437
 21
765.5660547581
 31
0.0
  0
LINE
  5
4EE
330
1F
100
AcDbEntity
  8
0
  6
Continuous
 62
     7
370
    25
100
AcDbLine
 10
691.6408183437
 20
765.5660547581
 30
0.0
 11
691.6408183437
 21
764.6537292852
 31
0.0
  0
LINE
  5
4EF
330
1F
100
AcDbEntity
  8
0
  6
Continuous
 62
     7
370
    25
100
AcDbLine
 10
692.8408183437
 20
765.5660547581
 30
0.0
 11
692.8408183437
 21
764.6537292852
 31
0.0
  0
LINE
  5
4F0
330
1F
100
AcDbEntity
  8
0
  6
Continuous
 62
     7
370
    25
100
AcDbLine
 10
693.6408183437
 20
765.5660547581
 30
0.0
 11
693.6408183437
 21
764.6537292852
 31
0.0
  0
LINE
  5
4F1
330
1F
100
AcDbEntity
  8
0
  6
Continuous
 62
     7
370
    25
100
AcDbLine
 10
254.8408183437
 20
220.1537292852
 30
0.0
 11
262.6408183437
 21
220.1537292852
 31
0.0
  0
LINE
  5
4F2
330
1F
100
AcDbEntity
  8
0
  6
Continuous
 62
     7
370
    25
100
AcDbLine
 10
262.6408183437
 20
757.6537292852
 30
0.0
 11
254.8408183437
 21
757.6537292852
 31
0.0
  0
LINE
  5
4F3
330
1F
100
AcDbEntity
  8
0
  6
Continuous
 62
     7
370
    25
100
AcDbLine
 10
250.7408183437
 20
220.6537292852
 30
0.0
 11
250.7408183437
 21
223.1537292852
 31
0.0
  0
LINE
  5
4F4
330
1F
100
AcDbEntity
  8
0
  6
Continuous
 62
     7
370
    25
100
AcDbLine
 10
250.7408183437
 20
220.6537292852
 30
0.0
 11
263.6051361204
 21
220.6537292852
 31
0.0
  0
LINE
  5
4F5
330
1F
100
AcDbEntity
  8
0
  6
Continuous
 62
     7
370
    25
100
AcDbLine
 10
263.6051361204
 20
223.1537292852
 30
0.0
 11
313.1568977879
 21
223.1537292852
 31
0.0
  0
LINE
  5
4F6
330
1F
100
AcDbEntity
  8
0
  6
Continuous
 62
     7
370
    25
100
AcDbLine
 10
263.6051361204
 20
220.6537292852
 30
0.0
 11
313.1568977879
 21
220.6537292852
 31
0.0
  0
LINE
  5
4F7
330
1F
100
AcDbEntity
  8
0
  6
Continuous
 62
     7
370
    25
100
AcDbLine
 10
313.9408183437
 20
220.6537292852
 30
0.0
 11
313.9408183437
 21
223.1537292852
 31
0.0
  0
LINE
  5
4F8
330
1F
100
AcDbEntity
  8
0
  6
Continuous
 62
     7
370
    25
100
AcDbLine
 10
313.1568977879
 20
223.1537292852
 30
0.0
 11
313.9408183437
 21
223.1537292852
 31
0.0
  0
LINE
  5
4F9
330
1F
100
AcDbEntity
  8
0
  6
Continuous
 62
     7
370
    25
100
AcDbLine
 10
313.1568977879
 20
220.6537292852
 30
0.0
 11
313.9408183437
 21
220.6537292852
 31
0.0
  0
LINE
  5
4FA
330
1F
100
AcDbEntity
  8
0
  6
Continuous
 62
     7
370
    25
100
AcDbLine
 10
313.9408183437
 20
220.6537292852
 30
0.0
 11
315.9408183437
 21
220.6537292852
 31
0.0
  0
LINE
  5
4FB
330
1F
100
AcDbEntity
  8
0
  6
Continuous
 62
     7
370
    25
100
AcDbLine
 10
315.9408183437
 20
220.6537292852
 30
0.0
 11
316.3908183437
 21
220.6537292852
 31
0.0
  0
LINE
  5
4FC
330
1F
100
AcDbEntity
  8
0
  6
Continuous
 62
     7
370
    25
100
AcDbLine
 10
316.3908183437
 20
221.9037292852
 30
0.0
 11
316.3908183437
 21
216.1537292852
 31
0.0
  0
LINE
  5
4FD
330
1F
100
AcDbEntity
  8
0
  6
Continuous
 62
     7
370
    25
100
AcDbLine
 10
625.4408183437
 20
216.1537292852
 30
0.0
 11
625.4408183437
 21
221.9037292852
 31
0.0
  0
ARC
  5
4FE
330
1F
100
AcDbEntity
  8
0
  6
Continuous
 62
     7
370
    25
100
AcDbCircle
 10
620.4408183437
 20
216.1537292852
 30
0.0
 40
5.0
100
AcDbArc
 50
270.0
 51
0.0
  0
LINE
  5
4FF
330
1F
100
AcDbEntity
  8
0
  6
Continuous
 62
     7
370
    25
100
AcDbLine
 10
321.3908183437
 20
211.1537292852
 30
0.0
 11
620.4408183437
 21
211.1537292852
 31
0.0
  0
ARC
  5
500
330
1F
100
AcDbEntity
  8
0
  6
Continuous
 62
     7
370
    25
100
AcDbCircle
 10
321.3908183437
 20
216.1537292852
 30
0.0
 40
5.000000000000057
100
AcDbArc
 50
180.0
 51
270.0
  0
LINE
  5
501
330
1F
100
AcDbEntity
  8
0
  6
Continuous
 62
     7
370
    25
100
AcDbLine
 10
316.3908183437
 20
224.6537292852
 30
0.0
 11
625.4408183437
 21
224.6537292852
 31
0.0
  0
LINE
  5
502
330
1F
100
AcDbEntity
  8
0
  6
Continuous
 62
     7
370
    25
100
AcDbLine
 10
316.3908183437
 20
221.9037292852
 30
0.0
 11
316.3908183437
 21
224.6537292852
 31
0.0
  0
LINE
  5
503
330
1F
100
AcDbEntity
  8
0
  6
Continuous
 62
     7
370
    25
100
AcDbLine
 10
625.4408183437
 20
224.6537292852
 30
0.0
 11
625.4408183437
 21
221.9037292852
 31
0.0
  0
LINE
  5
504
330
1F
100
AcDbEntity
  8
0
  6
Continuous
 62
     7
370
    25
100
AcDbLine
 10
626.9408183437
 20
223.1537292852
 30
0.0
 11
625.4408183437
 21
223.1537292852
 31
0.0
  0
LINE
  5
505
330
1F
100
AcDbEntity
  8
0
  6
Continuous
 62
     7
370
    25
100
AcDbLine
 10
625.4408183437
 20
224.6537292852
 30
0.0
 11
626.9408183437
 21
224.6537292852
 31
0.0
  0
LINE
  5
506
330
1F
100
AcDbEntity
  8
0
  6
Continuous
 62
     7
370
    25
100
AcDbLine
 10
316.3908183437
 20
223.1537292852
 30
0.0
 11
314.8908183437
 21
223.1537292852
 31
0.0
  0
LINE
  5
507
330
1F
100
AcDbEntity
  8
0
  6
Continuous
 62
     7
370
    25
100
AcDbLine
 10
314.8908183437
 20
224.6537292852
 30
0.0
 11
316.3908183437
 21
224.6537292852
 31
0.0
  0
LINE
  5
508
330
1F
100
AcDbEntity
  8
0
  6
Continuous
 62
     7
370
    25
100
AcDbLine
 10
676.7908183437
 20
224.6537292852
 30
0.0
 11
676.7908183437
 21
223.1537292852
 31
0.0
  0
LINE
  5
509
330
1F
100
AcDbEntity
  8
0
  6
Continuous
 62
     7
370
    25
100
AcDbLine
 10
676.7908183437
 20
223.1537292852
 30
0.0
 11
674.7908183437
 21
223.1537292852
 31
0.0
  0
LINE
  5
50A
330
1F
100
AcDbEntity
  8
0
  6
Continuous
 62
     7
370
    25
100
AcDbLine
 10
674.7908183437
 20
224.6537292852
 30
0.0
 11
676.6643177432
 21
224.6537292852
 31
0.0
  0
LINE
  5
50B
330
1F
100
AcDbEntity
  8
0
  6
Continuous
 62
     7
370
    25
100
AcDbLine
 10
313.9408183437
 20
223.1537292852
 30
0.0
 11
314.8908183437
 21
223.1537292852
 31
0.0
  0
LINE
  5
50C
330
1F
100
AcDbEntity
  8
0
  6
Continuous
 62
     7
370
    25
100
AcDbLine
 10
267.2408183437
 20
224.6537292852
 30
0.0
 11
314.8908183437
 21
224.6537292852
 31
0.0
  0
LINE
  5
50D
330
1F
100
AcDbEntity
  8
0
  6
Continuous
 62
     7
370
    25
100
AcDbLine
 10
626.9408183437
 20
223.1537292852
 30
0.0
 11
674.7908183437
 21
223.1537292852
 31
0.0
  0
LINE
  5
50E
330
1F
100
AcDbEntity
  8
0
  6
Continuous
 62
     7
370
    25
100
AcDbLine
 10
626.9408183437
 20
224.6537292852
 30
0.0
 11
674.7908183437
 21
224.6537292852
 31
0.0
  0
SPLINE
  5
50F
330
1F
100
AcDbEntity
  8
0
  6
Continuous
 62
     7
370
    25
100
AcDbSpline
210
0.0
220
0.0
230
1.0
 70
     8
 71
     3
 72
    13
 73
     9
 74
     0
 42
0.000000001
 43
0.00000001
 40
0.0
 40
0.0
 40
0.0
 40
0.0
 40
0.2575520435716995
 40
0.4679181941714951
 40
0.5989059325550865
 40
0.7308660834003969
 40
0.8643777285770331
 40
1.0
 40
1.0
 40
1.0
 40
1.0
 10
249.4908183437229
 20
223.1537292852422
 30
0.0
 10
249.3303092204018
 20
223.1929672074957
 30
0.0
 10
249.0386977150499
 20
223.2642543053159
 30
0.0
 10
248.7046845767655
 20
223.7247251195965
 30
0.0
 10
248.508448685551
 20
224.223478853773
 30
0.0
 10
248.3821419989559
 20
224.7260518565113
 30
0.0
 10
248.2911539023576
 20
225.2948869266159
 30
0.0
 10
248.262386110266
 20
225.6997235502864
 30
0.0
 10
248.2478894115347
 20
225.9037292852422
 30
0.0
  0
LINE
  5
510
330
1F
100
AcDbEntity
  8
0
  6
Continuous
 62
     7
370
    25
100
AcDbLine
 10
248.2478894115
 20
225.9037292852
 30
0.0
 11
248.2478894115
 21
229.3879085222
 31
0.0
  0
LINE
  5
511
330
1F
100
AcDbEntity
  8
0
  6
Continuous
 62
     7
370
    25
100
AcDbLine
 10
677.3908183437
 20
223.1537292852
 30
0.0
 11
677.3908183437
 21
224.6537292852
 31
0.0
  0
SPLINE
  5
512
330
1F
100
AcDbEntity
  8
0
  6
Continuous
 62
     7
370
    25
100
AcDbSpline
210
0.0
220
0.0
230
1.0
 70
     8
 71
     3
 72
    13
 73
     9
 74
     0
 42
0.000000001
 43
0.00000001
 40
0.0
 40
0.0
 40
0.0
 40
0.0
 40
0.1356222713497105
 40
0.2691339164924343
 40
0.4010940673425418
 40
0.5320818057684683
 40
0.7424479560557732
 40
1.0
 40
1.0
 40
1.0
 40
1.0
 10
693.6337472759112
 20
225.9037292852423
 30
0.0
 10
693.6192505771764
 20
225.6997235503997
 30
0.0
 10
693.5904827850737
 20
225.2948869268961
 30
0.0
 10
693.4994946884676
 20
224.7260518569183
 30
0.0
 10
693.3731880018648
 20
224.2234788541134
 30
0.0
 10
693.1769521108336
 20
223.7247251201371
 30
0.0
 10
692.8429389727347
 20
223.264254305518
 30
0.0
 10
692.5513274673008
 20
223.1929672076008
 30
0.0
 10
692.390818343723
 20
223.1537292852422
 30
0.0
  0
LINE
  5
513
330
1F
100
AcDbEntity
  8
0
  6
Continuous
 62
     7
370
    25
100
AcDbLine
 10
685.312391219
 20
223.1537292852
 30
0.0
 11
680.9408183437
 21
223.1537292852
 31
0.0
  0
LINE
  5
514
330
1F
100
AcDbEntity
  8
0
  6
Continuous
 62
     7
370
    25
100
AcDbLine
 10
693.6337472759
 20
225.9037292852
 30
0.0
 11
693.6337472759
 21
229.1537292852
 31
0.0
  0
LINE
  5
515
330
1F
100
AcDbEntity
  8
0
  6
Continuous
 62
     7
370
    25
100
AcDbLine
 10
693.6408183437
 20
225.9037292852
 30
0.0
 11
695.1408183437
 21
225.9037292852
 31
0.0
  0
SPLINE
  5
516
330
1F
100
AcDbEntity
  8
0
  6
Continuous
 62
     7
370
    25
100
AcDbSpline
210
0.0
220
0.0
230
1.0
 70
     8
 71
     3
 72
    12
 73
     8
 74
     0
 42
0.000000001
 43
0.00000001
 40
0.0
 40
0.0
 40
0.0
 40
0.0
 40
0.2234356531983941
 40
0.446897164863639
 40
0.6703588044539909
 40
0.8938202392987397
 40
1.0
 40
1.0
 40
1.0
 40
1.0
 10
692.390818343723
 20
223.1537292852423
 30
0.0
 10
692.7125816594513
 20
223.1866790744302
 30
0.0
 10
693.3561455289487
 20
223.2525824661231
 30
0.0
 10
694.2047507834751
 20
223.7650322518029
 30
0.0
 10
694.8278632167264
 20
224.513828938873
 30
0.0
 10
695.1093930982569
 20
225.2787418509591
 30
0.0
 10
695.1331621606145
 20
225.751462591174
 30
0.0
 10
695.1408183437231
 20
225.9037292852424
 30
0.0
  0
SPLINE
  5
517
330
1F
100
AcDbEntity
  8
0
  6
Continuous
 62
     7
370
    25
100
AcDbSpline
210
0.0
220
0.0
230
1.0
 70
     8
 71
     3
 72
    12
 73
     8
 74
     0
 42
0.000000001
 43
0.00000001
 40
0.0
 40
0.0
 40
0.0
 40
0.0
 40
0.2234363863880435
 40
0.4468979002808093
 40
0.6703595416995656
 40
0.8938209783772908
 40
1.0
 40
1.0
 40
1.0
 40
1.0
 10
246.740818343723
 20
225.9037292852422
 30
0.0
 10
246.773768347115
 20
225.5819649043319
 30
0.0
 10
246.8396720594339
 20
224.9383999571068
 30
0.0
 10
247.3521234225726
 20
224.0897943637659
 30
0.0
 10
248.1009208253076
 20
223.466682787529
 30
0.0
 10
248.8658330406981
 20
223.1851542158417
 30
0.0
 10
249.3385527129727
 20
223.1613853642826
 30
0.0
 10
249.490818343723
 20
223.1537292852422
 30
0.0
  0
LINE
  5
518
330
1F
100
AcDbEntity
  8
0
  6
Continuous
 62
     7
370
    25
100
AcDbLine
 10
248.2408183437
 20
225.9037292852
 30
0.0
 11
246.7408183437
 21
225.9037292852
 31
0.0
  0
LINE
  5
519
330
1F
100
AcDbEntity
  8
0
  6
Continuous
 62
     7
370
    25
100
AcDbLine
 10
248.2408183437
 20
225.9037292852
 30
0.0
 11
248.2408183437
 21
229.6537292852
 31
0.0
  0
LINE
  5
51A
330
1F
100
AcDbEntity
  8
0
  6
Continuous
 62
     7
370
    25
100
AcDbLine
 10
693.6408183437
 20
225.9037292852
 30
0.0
 11
693.6408183437
 21
229.1537292852
 31
0.0
  0
LINE
  5
51B
330
1F
100
AcDbEntity
  8
0
  6
Continuous
 62
     7
370
    25
100
AcDbLine
 10
324.4408183437
 20
59.1537292852
 30
0.0
 11
324.2408183437
 21
59.1537292852
 31
0.0
  0
LINE
  5
51C
330
1F
100
AcDbEntity
  8
0
  6
Continuous
 62
     7
370
    25
100
AcDbLine
 10
267.6408183437
 20
59.1537292852
 30
0.0
 11
267.4408183437
 21
59.1537292852
 31
0.0
  0
LINE
  5
51D
330
1F
100
AcDbEntity
  8
0
  6
Continuous
 62
     7
370
    25
100
AcDbLine
 10
674.4408183437
 20
59.1537292852
 30
0.0
 11
617.4408183437
 21
59.1537292852
 31
0.0
  0
LINE
  5
51E
330
1F
100
AcDbEntity
  8
0
  6
Continuous
 62
     7
370
    25
100
AcDbLine
 10
672.4408182729
 20
53.1537292852
 30
0.0
 11
619.4408183437
 21
53.1537292852
 31
0.0
  0
LINE
  5
51F
330
1F
100
AcDbEntity
  8
0
  6
Continuous
 62
     7
370
    25
100
AcDbLine
 10
324.4408183437
 20
56.6537292852
 30
0.0
 11
267.4408183437
 21
56.6537292852
 31
0.0
  0
LINE
  5
520
330
1F
100
AcDbEntity
  8
0
  6
Continuous
 62
     7
370
    25
100
AcDbLine
 10
322.4408182729
 20
50.6537292852
 30
0.0
 11
269.4408183437
 21
50.6537292852
 31
0.0
  0
LINE
  5
521
330
1F
100
AcDbEntity
  8
0
  6
Continuous
 62
     7
370
    25
100
AcDbLine
 10
260.9408183437
 20
218.6537292852
 30
0.0
 11
260.9408183437
 21
220.1537292852
 31
0.0
  0
LINE
  5
522
330
1F
100
AcDbEntity
  8
0
  6
Continuous
 62
     7
370
    25
100
AcDbLine
 10
260.9408183437
 20
218.6537292852
 30
0.0
 11
316.3908183437
 21
218.6537292852
 31
0.0
  0
LINE
  5
523
330
1F
100
AcDbEntity
  8
0
  6
Continuous
 62
     7
370
    25
100
AcDbLine
 10
326.9004685641
 20
124.6537292852
 30
0.0
 11
264.9811681234
 21
124.6537292852
 31
0.0
  0
LINE
  5
524
330
1F
100
AcDbEntity
  8
0
  6
Continuous
 62
     7
370
    25
100
AcDbLine
 10
680.9408183437
 20
221.1537292852
 30
0.0
 11
680.9408183437
 21
223.1537292852
 31
0.0
  0
LINE
  5
525
330
1F
100
AcDbEntity
  8
0
  6
Continuous
 62
     7
370
    25
100
AcDbLine
 10
676.7908183437
 20
223.1537292852
 30
0.0
 11
680.9408183437
 21
223.1537292852
 31
0.0
  0
LINE
  5
526
330
1F
100
AcDbEntity
  8
0
  6
Continuous
 62
     7
370
    25
100
AcDbLine
 10
625.4408183437
 20
221.1537292852
 30
0.0
 11
680.9408183437
 21
221.1537292852
 31
0.0
  0
LINE
  5
527
330
1F
100
AcDbEntity
  8
0
  6
Continuous
 62
     7
370
    25
100
AcDbLine
 10
676.9004685641
 20
127.1537292852
 30
0.0
 11
614.9811681234
 21
127.1537292852
 31
0.0
  0
ENDSEC
  0
SECTION
  2
OBJECTS
  0
DICTIONARY
  5
C
330
0
100
AcDbDictionary
281
     1
  3
ACAD_GROUP
350
D
  3
ACAD_LAYOUT
350
1A
  3
ACAD_MLINESTYLE
350
17
  3
ACAD_PLOTSETTINGS
350
19
  3
ACAD_PLOTSTYLENAME
350
E
  3
ACAD_SCALELIST
350
47
  0
DICTIONARY
  5
D
102
{ACAD_REACTORS
330
C
102
}
330
C
100
AcDbDictionary
281
     1
  0
DICTIONARY
  5
1A
102
{ACAD_REACTORS
330
C
102
}
330
C
100
AcDbDictionary
281
     1
  3
Layout1
350
1E
  3
Layout2
350
26
  3
Model
350
22
  0
DICTIONARY
  5
17
102
{ACAD_REACTORS
330
C
102
}
330
C
100
AcDbDictionary
281
     1
  3
Standard
350
18
  0
DICTIONARY
  5
19
102
{ACAD_REACTORS
330
C
102
}
330
C
100
AcDbDictionary
281
     1
  0
ACDBDICTIONARYWDFLT
  5
E
102
{ACAD_REACTORS
330
C
102
}
330
C
100
AcDbDictionary
281
     1
  3
Normal
350
F
100
AcDbDictionaryWithDefault
340
F
  0
DICTIONARY
  5
47
102
{ACAD_REACTORS
330
C
102
}
330
C
100
AcDbDictionary
281
     1
  3
A0
350
48
  3
A1
350
49
  3
A2
350
4A
  3
A3
350
4B
  3
A4
350
4C
  3
A5
350
4D
  3
A6
350
4E
  3
A7
350
4F
  3
A8
350
50
  3
A9
350
51
  3
B0
350
52
  3
B1
350
53
  3
B2
350
54
  3
B3
350
55
  3
B4
350
56
  3
B5
350
57
  3
B6
350
58
  3
B7
350
59
  3
B8
350
5A
  3
B9
350
5B
  3
C0
350
5C
  3
C1
350
5D
  3
C2
350
5E
  3
C3
350
5F
  3
C4
350
60
  3
C5
350
61
  3
C6
350
62
  3
C7
350
63
  3
C8
350
64
  3
C9
350
65
  3
D0
350
66
  3
D1
350
67
  3
D2
350
68
  0
LAYOUT
  5
1E
102
{ACAD_REACTORS
330
1A
102
}
330
1A
100
AcDbPlotSettings
  1

  2
none_device
  4

  6

 40
0.0
 41
0.0
 42
0.0
 43
0.0
 44
0.0
 45
0.0
 46
0.0
 47
0.0
 48
0.0
 49
0.0
140
0.0
141
0.0
142
1.0
143
1.0
 70
   688
 72
     1
 73
     0
 74
     5
  7

 75
    16
147
1.0
148
0.0
149
0.0
100
AcDbLayout
  1
Layout1
 70
     1
 71
     1
 10
0.0
 20
0.0
 11
420.0
 21
297.0
 12
0.0
 22
0.0
 32
0.0
 14
1.0000000000E+20
 24
1.0000000000E+20
 34
1.0000000000E+20
 15
-1.0000000000E+20
 25
-1.0000000000E+20
 35
-1.0000000000E+20
146
0.0
 13
0.0
 23
0.0
 33
0.0
 16
1.0
 26
0.0
 36
0.0
 17
0.0
 27
1.0
 37
0.0
 76
     0
330
1B
  0
LAYOUT
  5
26
102
{ACAD_REACTORS
330
1A
102
}
330
1A
100
AcDbPlotSettings
  1

  2
none_device
  4

  6

 40
0.0
 41
0.0
 42
0.0
 43
0.0
 44
0.0
 45
0.0
 46
0.0
 47
0.0
 48
0.0
 49
0.0
140
0.0
141
0.0
142
1.0
143
1.0
 70
   688
 72
     1
 73
     0
 74
     5
  7

 75
    16
147
1.0
148
0.0
149
0.0
100
AcDbLayout
  1
Layout2
 70
     1
 71
     2
 10
0.0
 20
0.0
 11
0.0
 21
0.0
 12
0.0
 22
0.0
 32
0.0
 14
0.0
 24
0.0
 34
0.0
 15
0.0
 25
0.0
 35
0.0
146
0.0
 13
0.0
 23
0.0
 33
0.0
 16
1.0
 26
0.0
 36
0.0
 17
0.0
 27
1.0
 37
0.0
 76
     0
330
23
  0
LAYOUT
  5
22
102
{ACAD_REACTORS
330
1A
102
}
330
1A
100
AcDbPlotSettings
  1

  2
none_device
  4
Letter_(8.50_x_11.00_Inches)
  6

 40
6.35
 41
6.35
 42
6.35000508
 43
6.35000508
 44
215.9
 45
279.4
 46
0.0
 47
0.0
 48
0.0
 49
0.0
140
0.0
141
0.0
142
1.0
143
1.0
 70
  1712
 72
     1
 73
     0
 74
     0
  7

 75
     0
147
1.0
148
0.0
149
0.0
100
AcDbLayout
  1
Model
 70
     1
 71
     0
 10
0.0
 20
0.0
 11
900.0
 21
1200.0
 12
0.0
 22
0.0
 32
0.0
 14
0.0
 24
0.0
 34
0.0
 15
900.0
 25
1200.0
 35
0.0
146
0.0
 13
0.0
 23
0.0
 33
0.0
 16
1.0
 26
0.0
 36
0.0
 17
0.0
 27
1.0
 37
0.0
 76
     0
330
1F
331
29
  0
MLINESTYLE
  5
18
102
{ACAD_REACTORS
330
17
102
}
330
17
100
AcDbMlineStyle
  2
Standard
 70
     0
  3

 62
   256
 51
90.0
 52
90.0
 71
     2
 49
0.5
 62
   256
  6
BYLAYER
 49
-0.5
 62
   256
  6
BYLAYER
  0
ACDBPLACEHOLDER
  5
F
102
{ACAD_REACTORS
330
E
102
}
330
E
  0
SCALE
  5
48
102
{ACAD_REACTORS
330
47
102
}
330
47
100
AcDbScale
 70
     0
300
1:1
140
1.0
141
1.0
290
     1
  0
SCALE
  5
49
102
{ACAD_REACTORS
330
47
102
}
330
47
100
AcDbScale
 70
     0
300
1:2
140
1.0
141
2.0
290
     0
  0
SCALE
  5
4A
102
{ACAD_REACTORS
330
47
102
}
330
47
100
AcDbScale
 70
     0
300
1:4
140
1.0
141
4.0
290
     0
  0
SCALE
  5
4B
102
{ACAD_REACTORS
330
47
102
}
330
47
100
AcDbScale
 70
     0
300
1:5
140
1.0
141
5.0
290
     0
  0
SCALE
  5
4C
102
{ACAD_REACTORS
330
47
102
}
330
47
100
AcDbScale
 70
     0
300
1:8
140
1.0
141
8.0
290
     0
  0
SCALE
  5
4D
102
{ACAD_REACTORS
330
47
102
}
330
47
100
AcDbScale
 70
     0
300
1:10
140
1.0
141
10.0
290
     0
  0
SCALE
  5
4E
102
{ACAD_REACTORS
330
47
102
}
330
47
100
AcDbScale
 70
     0
300
1:16
140
1.0
141
16.0
290
     0
  0
SCALE
  5
4F
102
{ACAD_REACTORS
330
47
102
}
330
47
100
AcDbScale
 70
     0
300
1:20
140
1.0
141
20.0
290
     0
  0
SCALE
  5
50
102
{ACAD_REACTORS
330
47
102
}
330
47
100
AcDbScale
 70
     0
300
1:30
140
1.0
141
30.0
290
     0
  0
SCALE
  5
51
102
{ACAD_REACTORS
330
47
102
}
330
47
100
AcDbScale
 70
     0
300
1:40
140
1.0
141
40.0
290
     0
  0
SCALE
  5
52
102
{ACAD_REACTORS
330
47
102
}
330
47
100
AcDbScale
 70
     0
300
1:50
140
1.0
141
50.0
290
     0
  0
SCALE
  5
53
102
{ACAD_REACTORS
330
47
102
}
330
47
100
AcDbScale
 70
     0
300
1:100
140
1.0
141
100.0
290
     0
  0
SCALE
  5
54
102
{ACAD_REACTORS
330
47
102
}
330
47
100
AcDbScale
 70
     0
300
2:1
140
2.0
141
1.0
290
     0
  0
SCALE
  5
55
102
{ACAD_REACTORS
330
47
102
}
330
47
100
AcDbScale
 70
     0
300
4:1
140
4.0
141
1.0
290
     0
  0
SCALE
  5
56
102
{ACAD_REACTORS
330
47
102
}
330
47
100
AcDbScale
 70
     0
300
8:1
140
8.0
141
1.0
290
     0
  0
SCALE
  5
57
102
{ACAD_REACTORS
330
47
102
}
330
47
100
AcDbScale
 70
     0
300
10:1
140
10.0
141
1.0
290
     0
  0
SCALE
  5
58
102
{ACAD_REACTORS
330
47
102
}
330
47
100
AcDbScale
 70
     0
300
100:1
140
100.0
141
1.0
290
     0
  0
SCALE
  5
59
102
{ACAD_REACTORS
330
47
102
}
330
47
100
AcDbScale
 70
     0
300
1/128" = 1'-0"
140
0.0078125
141
12.0
290
     0
  0
SCALE
  5
5A
102
{ACAD_REACTORS
330
47
102
}
330
47
100
AcDbScale
 70
     0
300
1/64" = 1'-0"
140
0.015625
141
12.0
290
     0
  0
SCALE
  5
5B
102
{ACAD_REACTORS
330
47
102
}
330
47
100
AcDbScale
 70
     0
300
1/32" = 1'-0"
140
0.03125
141
12.0
290
     0
  0
SCALE
  5
5C
102
{ACAD_REACTORS
330
47
102
}
330
47
100
AcDbScale
 70
     0
300
1/16" = 1'-0"
140
0.0625
141
12.0
290
     0
  0
SCALE
  5
5D
102
{ACAD_REACTORS
330
47
102
}
330
47
100
AcDbScale
 70
     0
300
3/32" = 1'-0"
140
0.09375
141
12.0
290
     0
  0
SCALE
  5
5E
102
{ACAD_REACTORS
330
47
102
}
330
47
100
AcDbScale
 70
     0
300
1/8" = 1'-0"
140
0.125
141
12.0
290
     0
  0
SCALE
  5
5F
102
{ACAD_REACTORS
330
47
102
}
330
47
100
AcDbScale
 70
     0
300
3/16" = 1'-0"
140
0.1875
141
12.0
290
     0
  0
SCALE
  5
60
102
{ACAD_REACTORS
330
47
102
}
330
47
100
AcDbScale
 70
     0
300
1/4" = 1'-0"
140
0.25
141
12.0
290
     0
  0
SCALE
  5
61
102
{ACAD_REACTORS
330
47
102
}
330
47
100
AcDbScale
 70
     0
300
3/8" = 1'-0"
140
0.375
141
12.0
290
     0
  0
SCALE
  5
62
102
{ACAD_REACTORS
330
47
102
}
330
47
100
AcDbScale
 70
     0
300
1/2" = 1'-0"
140
0.5
141
12.0
290
     0
  0
SCALE
  5
63
102
{ACAD_REACTORS
330
47
102
}
330
47
100
AcDbScale
 70
     0
300
3/4" = 1'-0"
140
0.75
141
12.0
290
     0
  0
SCALE
  5
64
102
{ACAD_REACTORS
330
47
102
}
330
47
100
AcDbScale
 70
     0
300
1" = 1'-0"
140
1.0
141
12.0
290
     0
  0
SCALE
  5
65
102
{ACAD_REACTORS
330
47
102
}
330
47
100
AcDbScale
 70
     0
300
1-1/2" = 1'-0"
140
1.5
141
12.0
290
     0
  0
SCALE
  5
66
102
{ACAD_REACTORS
330
47
102
}
330
47
100
AcDbScale
 70
     0
300
3" = 1'-0"
140
3.0
141
12.0
290
     0
  0
SCALE
  5
67
102
{ACAD_REACTORS
330
47
102
}
330
47
100
AcDbScale
 70
     0
300
6" = 1'-0"
140
6.0
141
12.0
290
     0
  0
SCALE
  5
68
102
{ACAD_REACTORS
330
47
102
}
330
47
100
AcDbScale
 70
     0
300
1'-0" = 1'-0"
140
12.0
141
12.0
290
     0
  0
ENDSEC
  0
EOF
