  0
SECTION
  2
HEADER
  9
$ACADVER
  1
AC1015
  9
$ACADMAINTVER
 70
     6
  9
$DWGCODEPAGE
  3
ANSI_1252
  9
$INSBASE
 10
0.0
 20
0.0
 30
0.0
  9
$EXTMIN
 10
0.0
 20
0.0
 30
0.0
  9
$EXTMAX
 10
900.0
 20
1200.0
 30
0.0
  9
$LIMMIN
 10
0.0
 20
0.0
  9
$LIMMAX
 10
900.0
 20
1200.0
  9
$ORTHOMODE
 70
     0
  9
$REGENMODE
 70
     1
  9
$FILLMODE
 70
     1
  9
$QTEXTMODE
 70
     0
  9
$MIRRTEXT
 70
     1
  9
$LTSCALE
 40
1.0
  9
$ATTMODE
 70
     1
  9
$TEXTSIZE
 40
3.5
  9
$TRACEWID
 40
1.0
  9
$TEXTSTYLE
  7
Standard
  9
$CLAYER
  8
0
  9
$CELTYPE
  6
ByLayer
  9
$CECOLOR
 62
   256
  9
$CELTSCALE
 40
1.0
  9
$DISPSILH
 70
     0
  9
$DIMSCALE
 40
1.0
  9
$DIMASZ
 40
3.302
  9
$DIMEXO
 40
1.0
  9
$DIMDLI
 40
3.75
  9
$DIMRND
 40
0.0
  9
$DIMDLE
 40
0.0
  9
$DIMEXE
 40
1.0
  9
$DIMTP
 40
0.0
  9
$DIMTM
 40
0.0
  9
$DIMTXT
 40
3.5
  9
$DIMCEN
 40
2.5
  9
$DIMTSZ
 40
0.0
  9
$DIMTOL
 70
     0
  9
$DIMLIM
 70
     0
  9
$DIMTIH
 70
     1
  9
$DIMTOH
 70
     1
  9
$DIMSE1
 70
     0
  9
$DIMSE2
 70
     0
  9
$DIMTAD
 70
     1
  9
$DIMZIN
 70
     0
  9
$DIMBLK
  1

  9
$DIMASO
 70
     1
  9
$DIMSHO
 70
     1
  9
$DIMPOST
  1

  9
$DIMAPOST
  1

  9
$DIMALT
 70
     0
  9
$DIMALTD
 70
     3
  9
$DIMALTF
 40
0.0393700787
  9
$DIMLFAC
 40
1.0
  9
$DIMTOFL
 70
     1
  9
$DIMTVP
 40
0.0
  9
$DIMTIX
 70
     0
  9
$DIMSOXD
 70
     0
  9
$DIMSAH
 70
     0
  9
$DIMBLK1
  1

  9
$DIMBLK2
  1

  9
$DIMSTYLE
  2
ISO-25
  9
$DIMCLRD
 70
     0
  9
$DIMCLRE
 70
     0
  9
$DIMCLRT
 70
     0
  9
$DIMTFAC
 40
1.0
  9
$DIMGAP
 40
1.524
  9
$DIMJUST
 70
     0
  9
$DIMSD1
 70
     0
  9
$DIMSD2
 70
     0
  9
$DIMTOLJ
 70
     0
  9
$DIMTZIN
 70
     0
  9
$DIMALTZ
 70
     0
  9
$DIMALTTZ
 70
     0
  9
$DIMUPT
 70
     0
  9
$DIMDEC
 70
     3
  9
$DIMTDEC
 70
     3
  9
$DIMALTU
 70
     2
  9
$DIMALTTD
 70
     3
  9
$DIMTXSTY
  7
Standard
  9
$DIMAUNIT
 70
     0
  9
$DIMADEC
 70
     2
  9
$DIMALTRND
 40
0.0
  9
$DIMAZIN
 70
     0
  9
$DIMDSEP
 70
    44
  9
$DIMATFIT
 70
     3
  9
$DIMFRAC
 70
     0
  9
$DIMLDRBLK
  1

  9
$DIMLUNIT
 70
     2
  9
$DIMLWD
 70
    -2
  9
$DIMLWE
 70
    -2
  9
$DIMTMOVE
 70
     0
  9
$LUNITS
 70
     2
  9
$LUPREC
 70
     8
  9
$SKETCHINC
 40
1.0
  9
$FILLETRAD
 40
10.0
  9
$AUNITS
 70
     0
  9
$AUPREC
 70
     8
  9
$MENU
  1
.
  9
$ELEVATION
 40
0.0
  9
$PELEVATION
 40
0.0
  9
$THICKNESS
 40
0.0
  9
$LIMCHECK
 70
     0
  9
$CHAMFERA
 40
0.0
  9
$CHAMFERB
 40
0.0
  9
$CHAMFERC
 40
0.0
  9
$CHAMFERD
 40
0.0
  9
$SKPOLY
 70
     0
  9
$TDCREATE
 40
2458432.451478032
  9
$TDUCREATE
 40
2458432.451478032
  9
$TDUPDATE
 40
2458432.451479109
  9
$TDUUPDATE
 40
2458432.451479109
  9
$TDINDWG
 40
0.0000000116
  9
$TDUSRTIMER
 40
0.0000000116
  9
$USRTIMER
 70
     1
  9
$ANGBASE
 50
0.0
  9
$ANGDIR
 70
     0
  9
$PDMODE
 70
     0
  9
$PDSIZE
 40
-1.0
  9
$PLINEWID
 40
0.0
  9
$SPLFRAME
 70
     0
  9
$SPLINETYPE
 70
     6
  9
$SPLINESEGS
 70
     8
  9
$HANDSEED
  5
4B0
  9
$SURFTAB1
 70
     6
  9
$SURFTAB2
 70
     6
  9
$SURFTYPE
 70
     6
  9
$SURFU
 70
     6
  9
$SURFV
 70
     6
  9
$UCSBASE
  2

  9
$UCSNAME
  2

  9
$UCSORG
 10
0.0
 20
0.0
 30
0.0
  9
$UCSXDIR
 10
1.0
 20
0.0
 30
0.0
  9
$UCSYDIR
 10
0.0
 20
1.0
 30
0.0
  9
$UCSORTHOREF
  2

  9
$UCSORTHOVIEW
 70
     0
  9
$UCSORGTOP
 10
0.0
 20
0.0
 30
0.0
  9
$UCSORGBOTTOM
 10
0.0
 20
0.0
 30
0.0
  9
$UCSORGLEFT
 10
0.0
 20
0.0
 30
0.0
  9
$UCSORGRIGHT
 10
0.0
 20
0.0
 30
0.0
  9
$UCSORGFRONT
 10
0.0
 20
0.0
 30
0.0
  9
$UCSORGBACK
 10
0.0
 20
0.0
 30
0.0
  9
$PUCSBASE
  2

  9
$PUCSNAME
  2

  9
$PUCSORG
 10
0.0
 20
0.0
 30
0.0
  9
$PUCSXDIR
 10
1.0
 20
0.0
 30
0.0
  9
$PUCSYDIR
 10
0.0
 20
1.0
 30
0.0
  9
$PUCSORTHOREF
  2

  9
$PUCSORTHOVIEW
 70
     0
  9
$PUCSORGTOP
 10
0.0
 20
0.0
 30
0.0
  9
$PUCSORGBOTTOM
 10
0.0
 20
0.0
 30
0.0
  9
$PUCSORGLEFT
 10
0.0
 20
0.0
 30
0.0
  9
$PUCSORGRIGHT
 10
0.0
 20
0.0
 30
0.0
  9
$PUCSORGFRONT
 10
0.0
 20
0.0
 30
0.0
  9
$PUCSORGBACK
 10
0.0
 20
0.0
 30
0.0
  9
$USERI1
 70
     0
  9
$USERI2
 70
     0
  9
$USERI3
 70
     0
  9
$USERI4
 70
     0
  9
$USERI5
 70
     0
  9
$USERR1
 40
0.0
  9
$USERR2
 40
0.0
  9
$USERR3
 40
0.0
  9
$USERR4
 40
0.0
  9
$USERR5
 40
0.0
  9
$WORLDVIEW
 70
     1
  9
$SHADEDGE
 70
     3
  9
$SHADEDIF
 70
    70
  9
$TILEMODE
 70
     1
  9
$MAXACTVP
 70
    64
  9
$PINSBASE
 10
0.0
 20
0.0
 30
0.0
  9
$PLIMCHECK
 70
     0
  9
$PEXTMIN
 10
1.0000000000E+20
 20
1.0000000000E+20
 30
1.0000000000E+20
  9
$PEXTMAX
 10
-1.0000000000E+20
 20
-1.0000000000E+20
 30
-1.0000000000E+20
  9
$PLIMMIN
 10
0.0
 20
0.0
  9
$PLIMMAX
 10
420.0
 20
297.0
  9
$UNITMODE
 70
     0
  9
$VISRETAIN
 70
     1
  9
$PLINEGEN
 70
     0
  9
$PSLTSCALE
 70
     1
  9
$TREEDEPTH
 70
  3020
  9
$CMLSTYLE
  2
Standard
  9
$CMLJUST
 70
     0
  9
$CMLSCALE
 40
20.0
  9
$PROXYGRAPHICS
 70
     1
  9
$MEASUREMENT
 70
     1
  9
$CELWEIGHT
370
    -1
  9
$ENDCAPS
280
     0
  9
$JOINSTYLE
280
     0
  9
$LWDISPLAY
290
     1
  9
$INSUNITS
 70
     4
  9
$HYPERLINKBASE
  1

  9
$STYLESHEET
  1

  9
$XEDIT
290
     1
  9
$CEPSNTYPE
380
     0
  9
$PSTYLEMODE
290
     1
  9
$FINGERPRINTGUID
  2
{E21E9E7B-A3B5-41A2-AC00-B212BA44452C}
  9
$VERSIONGUID
  2
{FAEB1C32-E019-11D5-929B-00C0DF256EC4}
  9
$EXTNAMES
290
     1
  9
$PSVPSCALE
 40
0.0
  9
$OLESTARTUP
290
     0
  0
ENDSEC
  0
SECTION
  2
CLASSES
  0
CLASS
  1
ACDBDICTIONARYWDFLT
  2
AcDbDictionaryWithDefault
  3
ObjectDBX Classes
 90
        0
280
     0
281
     0
  0
CLASS
  1
VISUALSTYLE
  2
AcDbVisualStyle
  3
ObjectDBX Classes
 90
     4095
280
     0
281
     0
  0
CLASS
  1
MATERIAL
  2
AcDbMaterial
  3
ObjectDBX Classes
 90
     1153
280
     0
281
     0
  0
CLASS
  1
SCALE
  2
AcDbScale
  3
ObjectDBX Classes
 90
     1153
280
     0
281
     0
  0
CLASS
  1
TABLESTYLE
  2
AcDbTableStyle
  3
ObjectDBX Classes
 90
     4095
280
     0
281
     0
  0
CLASS
  1
MLEADERSTYLE
  2
AcDbMLeaderStyle
  3
ACDB_MLEADERSTYLE_CLASS
 90
     4095
280
     0
281
     0
  0
CLASS
  1
SUN
  2
AcDbSun
  3
SCENEOE
 90
     1153
280
     0
281
     0
  0
CLASS
  1
ACDBPLACEHOLDER
  2
AcDbPlaceHolder
  3
ObjectDBX Classes
 90
        0
280
     0
281
     0
  0
CLASS
  1
LAYOUT
  2
AcDbLayout
  3
ObjectDBX Classes
 90
        0
280
     0
281
     0
  0
ENDSEC
  0
SECTION
  2
TABLES
  0
TABLE
  2
VPORT
  5
8
330
0
100
AcDbSymbolTable
 70
     1
  0
VPORT
  5
29
330
8
100
AcDbSymbolTableRecord
100
AcDbViewportTableRecord
  2
*Active
 70
     0
 10
0.0
 20
0.0
 11
1.0
 21
1.0
 12
450.0
 22
600.0
 13
0.0
 23
0.0
 14
10.0
 24
10.0
 15
10.0
 25
10.0
 16
0.0
 26
0.0
 36
1.0
 17
0.0
 27
0.0
 37
0.0
 40
1200.0
 41
0.75
 42
50.0
 43
0.0
 44
0.0
 50
0.0
 51
0.0
 71
     0
 72
  2000
 73
     1
 74
     3
 75
     0
 76
     0
 77
     0
 78
     0
281
     0
 65
     1
110
0.0
120
0.0
130
0.0
111
1.0
121
0.0
131
0.0
112
0.0
122
1.0
132
0.0
 79
     0
146
0.0
  0
ENDTAB
  0
TABLE
  2
LTYPE
  5
5
330
0
100
AcDbSymbolTable
 70
     6
  0
LTYPE
  5
14
330
5
100
AcDbSymbolTableRecord
100
AcDbLinetypeTableRecord
  2
ByBlock
 70
     0
  3

 72
    65
 73
     0
 40
0.0
  0
LTYPE
  5
15
330
5
100
AcDbSymbolTableRecord
100
AcDbLinetypeTableRecord
  2
ByLayer
 70
     0
  3

 72
    65
 73
     0
 40
0.0
  0
LTYPE
  5
16
330
5
100
AcDbSymbolTableRecord
100
AcDbLinetypeTableRecord
  2
Continuous
 70
     0
  3
Solid line
 72
    65
 73
     0
 40
0.0
  0
LTYPE
  5
6E
330
5
100
AcDbSymbolTableRecord
100
AcDbLinetypeTableRecord
  2
HIDDEN
 70
     0
  3
Hidden __ __ __ __ __ __ __ __ __ __ __ __ __ __
 72
    65
 73
     2
 40
1.905
 49
1.27
 74
     0
 49
-0.635
 74
     0
  0
LTYPE
  5
6F
330
5
100
AcDbSymbolTableRecord
100
AcDbLinetypeTableRecord
  2
PHANTOM
 70
     0
  3
Phantom ______  __  __  ______  __  __  ______
 72
    65
 73
     6
 40
12.7
 49
6.35
 74
     0
 49
-1.27
 74
     0
 49
1.27
 74
     0
 49
-1.27
 74
     0
 49
1.27
 74
     0
 49
-1.27
 74
     0
  0
LTYPE
  5
70
330
5
100
AcDbSymbolTableRecord
100
AcDbLinetypeTableRecord
  2
CENTER
 70
     0
  3
Center ____ _ ____ _ ____ _ ____ _ ____ _ ____
 72
    65
 73
     4
 40
10.16
 49
6.35
 74
     0
 49
-1.27
 74
     0
 49
1.27
 74
     0
 49
-1.27
 74
     0
  0
LTYPE
  5
71
330
5
100
AcDbSymbolTableRecord
100
AcDbLinetypeTableRecord
  2
CENTERX2
 70
     0
  3
Center (2x) ________  __  ________  __  _____
 72
    65
 73
     4
 40
20.32
 49
12.7
 74
     0
 49
-2.54
 74
     0
 49
2.54
 74
     0
 49
-2.54
 74
     0
  0
LTYPE
  5
72
330
5
100
AcDbSymbolTableRecord
100
AcDbLinetypeTableRecord
  2
DOT2
 70
     0
  3
Dot (.5x) ........................................
 72
    65
 73
     2
 40
0.635
 49
0.0
 74
     0
 49
-0.635
 74
     0
  0
ENDTAB
  0
TABLE
  2
LAYER
  5
2
330
0
100
AcDbSymbolTable
 70
     4
  0
LAYER
  5
10
330
2
100
AcDbSymbolTableRecord
100
AcDbLayerTableRecord
  2
0
 70
     0
 62
     7
  6
Continuous
370
    -3
390
F
  0
LAYER
  5
73
330
2
100
AcDbSymbolTableRecord
100
AcDbLayerTableRecord
  2
FORMAT
 70
     0
 62
     7
  6
Continuous
370
    -3
390
F
  0
LAYER
  5
74
330
2
100
AcDbSymbolTableRecord
100
AcDbLayerTableRecord
  2
SLD-0
 70
     0
 62
     1
  6
Continuous
370
    -3
390
F
  0
LAYER
  5
75
330
2
100
AcDbSymbolTableRecord
100
AcDbLayerTableRecord
  2
WATERMARK
 70
     0
 62
     1
  6
Continuous
370
    -3
390
F
  0
ENDTAB
  0
TABLE
  2
STYLE
  5
3
330
0
100
AcDbSymbolTable
 70
     1
  0
STYLE
  5
11
330
3
100
AcDbSymbolTableRecord
100
AcDbTextStyleTableRecord
  2
Standard
 70
     0
 40
0.0
 41
1.0
 50
0.0
 71
     0
 42
3.5
  3
txt
  4

  0
ENDTAB
  0
TABLE
  2
VIEW
  5
6
330
0
100
AcDbSymbolTable
 70
     0
  0
ENDTAB
  0
TABLE
  2
UCS
  5
7
330
0
100
AcDbSymbolTable
 70
     0
  0
ENDTAB
  0
TABLE
  2
APPID
  5
9
330
0
100
AcDbSymbolTable
 70
     1
  0
APPID
  5
12
330
9
100
AcDbSymbolTableRecord
100
AcDbRegAppTableRecord
  2
ACAD
 70
     0
  0
ENDTAB
  0
TABLE
  2
DIMSTYLE
  5
A
330
0
100
AcDbSymbolTable
 70
     1
100
AcDbDimStyleTable
  0
DIMSTYLE
105
27
330
A
100
AcDbSymbolTableRecord
100
AcDbDimStyleTableRecord
  2
ISO-25
 70
     0
 41
2.5
 42
0.625
 43
3.75
 44
1.25
 73
     0
 74
     0
 77
     1
 78
     8
140
2.5
141
2.5
143
0.0393700787
147
0.625
171
     3
172
     1
178
     0
271
     2
272
     2
274
     3
278
    44
283
     0
284
     8
340
11
  0
ENDTAB
  0
TABLE
  2
BLOCK_RECORD
  5
1
330
0
100
AcDbSymbolTable
 70
     1
  0
BLOCK_RECORD
  5
1F
330
1
100
AcDbSymbolTableRecord
100
AcDbBlockTableRecord
  2
*Model_Space
340
22
  0
BLOCK_RECORD
  5
1B
330
1
100
AcDbSymbolTableRecord
100
AcDbBlockTableRecord
  2
*Paper_Space
340
1E
  0
BLOCK_RECORD
  5
23
330
1
100
AcDbSymbolTableRecord
100
AcDbBlockTableRecord
  2
*Paper_Space0
340
26
  0
ENDTAB
  0
ENDSEC
  0
SECTION
  2
BLOCKS
  0
BLOCK
  5
20
330
1F
100
AcDbEntity
  8
0
100
AcDbBlockBegin
  2
*Model_Space
 70
     0
 10
0.0
 20
0.0
 30
0.0
  3
*Model_Space
  1

  0
ENDBLK
  5
21
330
1F
100
AcDbEntity
  8
0
100
AcDbBlockEnd
  0
BLOCK
  5
1C
330
1B
100
AcDbEntity
 67
     1
  8
0
100
AcDbBlockBegin
  2
*Paper_Space
 70
     0
 10
0.0
 20
0.0
 30
0.0
  3
*Paper_Space
  1

  0
ENDBLK
  5
1D
330
1B
100
AcDbEntity
 67
     1
  8
0
100
AcDbBlockEnd
  0
BLOCK
  5
24
330
23
100
AcDbEntity
  8
0
100
AcDbBlockBegin
  2
*Paper_Space0
 70
     0
 10
0.0
 20
0.0
 30
0.0
  3
*Paper_Space0
  1

  0
ENDBLK
  5
25
330
23
100
AcDbEntity
  8
0
100
AcDbBlockEnd
  0
ENDSEC
  0
SECTION
  2
ENTITIES
  0
SPLINE
  5
76
330
1F
100
AcDbEntity
  8
0
  6
Continuous
 62
     7
370
    25
100
AcDbSpline
210
0.0
220
0.0
230
1.0
 70
     8
 71
     3
 72
    37
 73
    33
 74
     0
 42
0.000000001
 43
0.00000001
 40
0.0
 40
0.0
 40
0.0
 40
0.0
 40
0.01717473947132
 40
0.0523185284745127
 40
0.0875362456447633
 40
0.1227893167709708
 40
0.1579975424865246
 40
0.1931086747028561
 40
0.2280943583893479
 40
0.2629481131803865
 40
0.2976816663795325
 40
0.3323136012276937
 40
0.3668663595658757
 40
0.4013596101606255
 40
0.4358095690034544
 40
0.4702285051475505
 40
0.5046252036601504
 40
0.539007003298207
 40
0.5733785131394068
 40
0.6077457170423668
 40
0.6421176834265171
 40
0.6765056370155763
 40
0.7109257456757309
 40
0.7453995057317028
 40
0.7799509524982531
 40
0.8146082740895076
 40
0.849396267622962
 40
0.8843293855755883
 40
0.9194044339225127
 40
0.9545935112552238
 40
0.989845812972182
 40
1.0
 40
1.0
 40
1.0
 40
1.0
 10
376.4291901415717
 20
218.4068314339889
 30
0.0
 10
376.5091726430765
 20
218.0557419276266
 30
0.0
 10
376.7528192375082
 20
216.9862359612396
 30
0.0
 10
376.9336041961218
 20
215.1657203049375
 30
0.0
 10
376.8510706492085
 20
212.9652891513706
 30
0.0
 10
376.4493092506174
 20
210.78680458316
 30
0.0
 10
375.7387921161015
 20
208.6664750337394
 30
0.0
 10
374.7294919285576
 20
206.6386704309238
 30
0.0
 10
373.4383695329436
 20
204.7357840364353
 30
0.0
 10
371.8861784235202
 20
202.9874250965904
 30
0.0
 10
370.0977617541874
 20
201.4203853521229
 30
0.0
 10
368.1008717331872
 20
200.058344194061
 30
0.0
 10
365.926451248991
 20
198.9218700844813
 30
0.0
 10
363.6078034200782
 20
198.0281501590679
 30
0.0
 10
361.1806174508421
 20
197.3907708555506
 30
0.0
 10
358.6822348189747
 20
197.0194386687923
 30
0.0
 10
356.1512101734289
 20
196.9196366201694
 30
0.0
 10
353.6266850539001
 20
197.0926034226233
 30
0.0
 10
351.1476672931688
 20
197.5351088715146
 30
0.0
 10
348.7523144272452
 20
198.2397185157345
 30
0.0
 10
346.4772513318056
 20
199.1947003281829
 30
0.0
 10
344.3568939552308
 20
200.384638960923
 30
0.0
 10
342.4229512886416
 20
201.7906516548895
 30
0.0
 10
340.7040016057491
 20
203.3908891187384
 30
0.0
 10
339.2251131364833
 20
205.1612954027856
 30
0.0
 10
338.0079376700386
 20
207.075797702171
 30
0.0
 10
337.0706376730575
 20
209.1068770936496
 30
0.0
 10
336.4281146830091
 20
211.2255130431153
 30
0.0
 10
336.0908088770842
 20
213.401239917479
 30
0.0
 10
336.0694209523554
 20
215.6007945519523
 30
0.0
 10
336.2861489632339
 20
217.2728237706318
 30
0.0
 10
336.5053001700188
 20
218.1995818686338
 30
0.0
 10
336.5543086356055
 20
218.4068314339889
 30
0.0
  0
SPLINE
  5
77
330
1F
100
AcDbEntity
  8
0
  6
Continuous
 62
     7
370
    25
100
AcDbSpline
210
0.0
220
0.0
230
1.0
 70
     8
 71
     3
 72
    40
 73
    36
 74
     0
 42
0.000000001
 43
0.00000001
 40
0.0
 40
0.0
 40
0.0
 40
0.0
 40
0.0173555276124886
 40
0.0483482884344126
 40
0.0793223599108617
 40
0.110277975604075
 40
0.1412324320962146
 40
0.1722099268893896
 40
0.203229890382848
 40
0.2343073275381188
 40
0.2654481782695989
 40
0.2966533840554269
 40
0.3279181090090043
 40
0.3592350664958792
 40
0.3905952239424147
 40
0.4219899693099337
 40
0.4534119793556508
 40
0.4848545091265198
 40
0.5163124807696465
 40
0.5477817350114484
 40
0.5792564982604224
 40
0.6107320474143938
 40
0.6422023514750903
 40
0.6736592271263193
 40
0.7050927768295873
 40
0.7364913256715
 40
0.7678425302095354
 40
0.7991343031308478
 40
0.8303573223628967
 40
0.8615070404244347
 40
0.8925867838299798
 40
0.9236059548907313
 40
0.9545831583895
 40
0.9855400635648999
 40
0.9999999999999999
 40
0.9999999999999999
 40
0.9999999999999999
 40
0.9999999999999999
 10
331.7035634344946
 20
219.6193389203323
 30
0.0
 10
331.597864631377
 20
219.155780171652
 30
0.0
 10
331.3034134147729
 20
217.8644179850386
 30
0.0
 10
331.0682884328836
 20
215.7052840967546
 30
0.0
 10
331.0933711930911
 20
213.1663042994193
 30
0.0
 10
331.4385597915408
 20
210.6467459338533
 30
0.0
 10
332.0934232230388
 20
208.1793756231845
 30
0.0
 10
333.0509652509912
 20
205.7937224346898
 30
0.0
 10
334.2990878330074
 20
203.5185566074436
 30
0.0
 10
335.8228705013133
 20
201.3815043942131
 30
0.0
 10
337.6040655413273
 20
199.4087018660787
 30
0.0
 10
339.6211329359606
 20
197.6247283227589
 30
0.0
 10
341.849456264471
 20
196.0519643005984
 30
0.0
 10
344.2615075295911
 20
194.7102438334635
 30
0.0
 10
346.8274047770518
 20
193.6167547430944
 30
0.0
 10
349.5151318997921
 20
192.7853965256914
 30
0.0
 10
352.2911545023331
 20
192.2268071637964
 30
0.0
 10
355.1208274744984
 20
191.9482617204829
 30
0.0
 10
357.9688364166325
 20
191.9535059736223
 30
0.0
 10
360.7995899327198
 20
192.2429032354018
 30
0.0
 10
363.5776442610166
 20
192.8132085020832
 30
0.0
 10
366.2681305290821
 20
193.6577489929201
 30
0.0
 10
368.8370584306954
 20
194.7664758260451
 30
0.0
 10
371.2519205301925
 20
196.1258296098804
 30
0.0
 10
373.4818100233749
 20
197.7190146830636
 30
0.0
 10
375.4981588224173
 20
199.526049742855
 30
0.0
 10
377.2750593754507
 20
201.5238118205208
 30
0.0
 10
378.7897972405891
 20
203.6866428857865
 30
0.0
 10
380.0232556253852
 20
205.9864080079409
 30
0.0
 10
380.9604472001224
 20
208.3933812234407
 30
0.0
 10
381.5899653569199
 20
210.8764053903448
 30
0.0
 10
381.9063172628558
 20
213.4044193534307
 30
0.0
 10
381.9017810505273
 20
215.9444202535986
 30
0.0
 10
381.649841187286
 20
218.0212326806097
 30
0.0
 10
381.3692713683735
 20
219.2334044162191
 30
0.0
 10
381.2799427932631
 20
219.6193389203323
 30
0.0
  0
LINE
  5
78
330
1F
100
AcDbEntity
  8
0
  6
Continuous
 62
     7
370
    25
100
AcDbLine
 10
381.2805015868
 20
219.6171633508
 30
0.0
 11
370.6008617109
 21
263.126348665
 31
0.0
  0
LINE
  5
79
330
1F
100
AcDbEntity
  8
0
  6
Continuous
 62
     7
370
    25
100
AcDbLine
 10
365.7450054115
 20
261.9344345834
 30
0.0
 11
376.428631348
 21
218.4090368058
 31
0.0
  0
LINE
  5
7A
330
1F
100
AcDbEntity
  8
0
  6
Continuous
 62
     7
370
    25
100
AcDbLine
 10
342.3826296157
 20
263.126348665
 30
0.0
 11
331.7010004348
 21
219.6090571191
 31
0.0
  0
LINE
  5
7B
330
1F
100
AcDbEntity
  8
0
  6
Continuous
 62
     7
370
    25
100
AcDbLine
 10
336.5568567342
 20
218.4171430375
 30
0.0
 11
347.2385008162
 21
261.9344345834
 31
0.0
  0
SPLINE
  5
7C
330
1F
100
AcDbEntity
  8
0
  6
Continuous
 62
     7
370
    25
100
AcDbSpline
210
0.0
220
0.0
230
1.0
 70
     8
 71
     3
 72
     9
 73
     5
 74
     0
 42
0.000000001
 43
0.00000001
 40
0.0
 40
0.0
 40
0.0
 40
0.0
 40
0.4880385730166534
 40
1.0
 40
1.0
 40
1.0
 40
1.0
 10
365.4917527264487
 20
264.0238158013595
 30
0.0
 10
365.5019196497859
 20
263.6805923707451
 30
0.0
 10
365.5227518624414
 20
262.977321257372
 30
0.0
 10
365.6697487005292
 20
262.2875637970578
 30
0.0
 10
365.7450054115187
 20
261.934434583403
 30
0.0
  0
SPLINE
  5
7D
330
1F
100
AcDbEntity
  8
0
  6
Continuous
 62
     7
370
    25
100
AcDbSpline
210
0.0
220
0.0
230
1.0
 70
     8
 71
     3
 72
     9
 73
     5
 74
     0
 42
0.000000001
 43
0.00000001
 40
0.0
 40
0.0
 40
0.0
 40
0.0
 40
0.487877891219938
 40
1.0
 40
1.0
 40
1.0
 40
1.0
 10
370.600861710919
 20
263.1263486649765
 30
0.0
 10
370.5696828060597
 20
263.271684812891
 30
0.0
 10
370.5057756165347
 20
263.5695793281582
 30
0.0
 10
370.4964988138372
 20
263.8699760160737
 30
0.0
 10
370.4917479580771
 20
264.0238158013595
 30
0.0
  0
SPLINE
  5
7E
330
1F
100
AcDbEntity
  8
0
  6
Continuous
 62
     7
370
    25
100
AcDbSpline
210
0.0
220
0.0
230
1.0
 70
     8
 71
     3
 72
     9
 73
     5
 74
     0
 42
0.000000001
 43
0.00000001
 40
0.0
 40
0.0
 40
0.0
 40
0.0
 40
0.4875292508965013
 40
1.0
 40
1.0
 40
1.0
 40
1.0
 10
347.238500816239
 20
261.934434583403
 30
0.0
 10
347.3106562055717
 20
262.2705681460101
 30
0.0
 10
347.4586583802103
 20
262.9600315207493
 30
0.0
 10
347.4805349490879
 20
263.663373572978
 30
0.0
 10
347.4917460507285
 20
264.0238158013595
 30
0.0
  0
SPLINE
  5
7F
330
1F
100
AcDbEntity
  8
0
  6
Continuous
 62
     7
370
    25
100
AcDbSpline
210
0.0
220
0.0
230
1.0
 70
     8
 71
     3
 72
     9
 73
     5
 74
     0
 42
0.000000001
 43
0.00000001
 40
0.0
 40
0.0
 40
0.0
 40
0.0
 40
0.4877122215203293
 40
1.0
 40
1.0
 40
1.0
 40
1.0
 10
342.4917508191
 20
264.0238158013595
 30
0.0
 10
342.4874458905152
 20
263.8773268882829
 30
0.0
 10
342.4786191103057
 20
263.5769675644586
 30
0.0
 10
342.4151460756133
 20
263.2789959046366
 30
0.0
 10
342.3826296156775
 20
263.1263486649765
 30
0.0
  0
LINE
  5
80
330
1F
100
AcDbEntity
  8
0
  6
Continuous
 62
     7
370
    25
100
AcDbLine
 10
370.4917479581
 20
264.0238158014
 30
0.0
 11
370.4917479581
 21
429.8000536468
 31
0.0
  0
LINE
  5
81
330
1F
100
AcDbEntity
  8
0
  6
Continuous
 62
     7
370
    25
100
AcDbLine
 10
365.4917527264
 20
429.8000536468
 30
0.0
 11
365.4917527264
 21
264.0238158014
 31
0.0
  0
LINE
  5
82
330
1F
100
AcDbEntity
  8
0
  6
Continuous
 62
     7
370
    25
100
AcDbLine
 10
342.4917508191
 20
429.8000536468
 30
0.0
 11
342.4917508191
 21
264.0238158014
 31
0.0
  0
LINE
  5
83
330
1F
100
AcDbEntity
  8
0
  6
Continuous
 62
     7
370
    25
100
AcDbLine
 10
347.4917460507
 20
264.0238158014
 30
0.0
 11
347.4917460507
 21
429.8000536468
 31
0.0
  0
LINE
  5
84
330
1F
100
AcDbEntity
  8
0
  6
Continuous
 62
     7
370
    25
100
AcDbLine
 10
355.3917456693
 20
265.9149221685
 30
0.0
 11
355.3917456693
 21
429.8000536468
 31
0.0
  0
LINE
  5
85
330
1F
100
AcDbEntity
  8
0
  6
Continuous
 62
     7
370
    25
100
AcDbLine
 10
350.3917504376
 20
429.8000536468
 30
0.0
 11
350.3917504376
 21
265.9149221685
 31
0.0
  0
LINE
  5
86
330
1F
100
AcDbEntity
  8
0
  6
Continuous
 62
     7
370
    25
100
AcDbLine
 10
357.5917531079
 20
429.8000536468
 30
0.0
 11
357.5917531079
 21
265.9149221685
 31
0.0
  0
LINE
  5
87
330
1F
100
AcDbEntity
  8
0
  6
Continuous
 62
     7
370
    25
100
AcDbLine
 10
362.5917483395
 20
265.9149221685
 30
0.0
 11
362.5917483395
 21
429.8000536468
 31
0.0
  0
SPLINE
  5
88
330
1F
100
AcDbEntity
  8
0
  6
Continuous
 62
     7
370
    25
100
AcDbSpline
210
0.0
220
0.0
230
1.0
 70
     8
 71
     3
 72
    37
 73
    33
 74
     0
 42
0.000000001
 43
0.00000001
 40
0.0
 40
0.0
 40
0.0
 40
0.0
 40
0.0171747589579577
 40
0.0523185507712614
 40
0.0875362741108922
 40
0.122789348055949
 40
0.1579975765867662
 40
0.1931087116105975
 40
0.2280943980945582
 40
0.2629480943460069
 40
0.2976813506490603
 40
0.3323135480057995
 40
0.3668661795917893
 40
0.4013595099967229
 40
0.4358095685968118
 40
0.4702284075523413
 40
0.5046252101286397
 40
0.5390069114159355
 40
0.5733783743522262
 40
0.6077457249508735
 40
0.6421175573836434
 40
0.6765055561698978
 40
0.7109257449409637
 40
0.7453994390982264
 40
0.779950977033403
 40
0.8146086009755921
 40
0.849396257285589
 40
0.8843293526827931
 40
0.9194044104507687
 40
0.9545934905972121
 40
0.989846231587837
 40
1.0
 40
1.0
 40
1.0
 40
1.0
 10
573.4291870421303
 20
218.4068314339889
 30
0.0
 10
573.5091723950907
 20
218.0557419977491
 30
0.0
 10
573.7528275031519
 20
216.9862370026496
 30
0.0
 10
573.9336098719427
 20
215.165719933135
 30
0.0
 10
573.851065187913
 20
212.9652893556089
 30
0.0
 10
573.4493068559417
 20
210.786804555705
 30
0.0
 10
572.7387885714244
 20
208.6664750086289
 30
0.0
 10
571.7294899027671
 20
206.6386705581393
 30
0.0
 10
570.4383633575559
 20
204.7357846671476
 30
0.0
 10
568.886195845247
 20
202.9874339028032
 30
0.0
 10
567.0977424570932
 20
201.4203687228937
 30
0.0
 10
565.1008979477975
 20
200.0583555083308
 30
0.0
 10
562.9264314492519
 20
198.9218646013481
 30
0.0
 10
560.6078142023578
 20
198.028150729486
 30
0.0
 10
558.1806169736534
 20
197.3907724385106
 30
0.0
 10
555.6822348849612
 20
197.019437649039
 30
0.0
 10
553.1512119025739
 20
196.9196368079186
 30
0.0
 10
550.62668799428
 20
197.0926030793135
 30
0.0
 10
548.1476714730389
 20
197.5351116220477
 30
0.0
 10
545.7523164780315
 20
198.2397136980259
 30
0.0
 10
543.4772563919295
 20
199.1947040238561
 30
0.0
 10
541.3568988805661
 20
200.3846398393819
 30
0.0
 10
539.4229468734708
 20
201.7906475837885
 30
0.0
 10
537.7040105635864
 20
203.3908925709342
 30
0.0
 10
536.2250902121026
 20
205.1613049228313
 30
0.0
 10
535.0079656408986
 20
207.0757731371622
 30
0.0
 10
534.0706158231484
 20
209.1068911188363
 30
0.0
 10
533.4281219215117
 20
211.2255136068663
 30
0.0
 10
533.090802661334
 20
213.4012343660644
 30
0.0
 10
533.0694198214243
 20
215.6008250796378
 30
0.0
 10
533.2861438579837
 20
217.2727769278576
 30
0.0
 10
533.5053044623847
 20
218.1995803676717
 30
0.0
 10
533.5543129867447
 20
218.4068314339889
 30
0.0
  0
SPLINE
  5
89
330
1F
100
AcDbEntity
  8
0
  6
Continuous
 62
     7
370
    25
100
AcDbSpline
210
0.0
220
0.0
230
1.0
 70
     8
 71
     3
 72
    40
 73
    36
 74
     0
 42
0.000000001
 43
0.00000001
 40
0.0
 40
0.0
 40
0.0
 40
0.0
 40
0.0173555206980186
 40
0.0483482746782591
 40
0.0793223477805329
 40
0.1102779650986021
 40
0.1412324232155368
 40
0.1722098914958529
 40
0.2032298932520186
 40
0.2343072873896783
 40
0.2654482178911655
 40
0.2966533370067004
 40
0.3279180636013588
 40
0.3592350227320564
 40
0.3905951818246823
 40
0.421990006820233
 40
0.4534118575719258
 40
0.4848544709651785
 40
0.5163124442595298
 40
0.5477817001531484
 40
0.5792564650542282
 40
0.6107320158603469
 40
0.6422023959267619
 40
0.6736592033053287
 40
0.7050927546585394
 40
0.7364913636403648
 40
0.7678425182026966
 40
0.7991342927665097
 40
0.8303573496126943
 40
0.8615070693092766
 40
0.8925867958991488
 40
0.9236062467239933
 40
0.9545831720831636
 40
0.985540078883487
 40
1.0
 40
1.0
 40
1.0
 40
1.0
 10
528.7035566097629
 20
219.6193389203323
 30
0.0
 10
528.597858946288
 20
219.155780162725
 30
0.0
 10
528.3034108709207
 20
217.8644178041835
 30
0.0
 10
528.0682949688587
 20
215.7052836814499
 30
0.0
 10
528.0933751695319
 20
213.1663044260667
 30
0.0
 10
528.4385634614314
 20
210.6467456112187
 30
0.0
 10
529.0934304763354
 20
208.1793775349405
 30
0.0
 10
530.0509576166345
 20
205.793718585594
 30
0.0
 10
531.2990965252744
 20
203.5185614478219
 30
0.0
 10
532.8228638822599
 20
201.3814979524155
 30
0.0
 10
534.6040754470043
 20
199.4087092551003
 30
0.0
 10
536.6211289894534
 20
197.6247243413546
 30
0.0
 10
538.8494539351552
 20
196.0519649101879
 30
0.0
 10
541.2615043023123
 20
194.7102439023612
 30
0.0
 10
543.8274035436052
 20
193.6167529484134
 30
0.0
 10
546.5151298812634
 20
192.7854001681551
 30
0.0
 10
549.2911508035835
 20
192.2268045979892
 30
0.0
 10
552.120822036295
 20
191.9482624456356
 30
0.0
 10
554.9688332938648
 20
191.9535057547167
 30
0.0
 10
557.7995867913907
 20
192.2429033809386
 30
0.0
 10
560.5776413524952
 20
192.8132081388507
 30
0.0
 10
563.2681288265812
 20
193.6577509652805
 30
0.0
 10
565.8370601226052
 20
194.7664719911558
 30
0.0
 10
568.2519187210926
 20
196.1258316510144
 30
0.0
 10
570.4818067181903
 20
197.7190169179875
 30
0.0
 10
572.4981637633515
 20
199.5260452298735
 30
0.0
 10
574.2750557227604
 20
201.5238142727269
 30
0.0
 10
575.7897931669106
 20
203.6866440653354
 30
0.0
 10
577.023260995563
 20
205.9864071493925
 30
0.0
 10
577.9604532353517
 20
208.3933775729867
 30
0.0
 10
578.5899625439937
 20
210.8764243988052
 30
0.0
 10
578.9063124321798
 20
213.4043872514804
 30
0.0
 10
578.9017790455805
 20
215.9444389811344
 30
0.0
 10
578.649833651126
 20
218.0212303314682
 30
0.0
 10
578.3692727974417
 20
219.2334040707679
 30
0.0
 10
578.2799471444023
 20
219.6193389203323
 30
0.0
  0
LINE
  5
8A
330
1F
100
AcDbEntity
  8
0
  6
Continuous
 62
     7
370
    25
100
AcDbLine
 10
578.2805059379
 20
219.6171633508
 30
0.0
 11
567.6008660621
 21
263.126348665
 31
0.0
  0
LINE
  5
8B
330
1F
100
AcDbEntity
  8
0
  6
Continuous
 62
     7
370
    25
100
AcDbLine
 10
562.7450023121
 20
261.9344345834
 30
0.0
 11
573.4286282486
 21
218.4090368058
 31
0.0
  0
LINE
  5
8C
330
1F
100
AcDbEntity
  8
0
  6
Continuous
 62
     7
370
    25
100
AcDbLine
 10
539.3826376921
 20
263.126348665
 30
0.0
 11
528.7010047859
 21
219.6090571191
 31
0.0
  0
LINE
  5
8D
330
1F
100
AcDbEntity
  8
0
  6
Continuous
 62
     7
370
    25
100
AcDbLine
 10
533.5568648106
 20
218.4171430375
 30
0.0
 11
544.2384939915
 21
261.9344345834
 31
0.0
  0
SPLINE
  5
8E
330
1F
100
AcDbEntity
  8
0
  6
Continuous
 62
     7
370
    25
100
AcDbSpline
210
0.0
220
0.0
230
1.0
 70
     8
 71
     3
 72
     9
 73
     5
 74
     0
 42
0.000000001
 43
0.00000001
 40
0.0
 40
0.0
 40
0.0
 40
0.0
 40
0.4880389354835287
 40
1.0
 40
1.0
 40
1.0
 40
1.0
 10
562.4917496270073
 20
264.0238158013595
 30
0.0
 10
562.5019201884958
 20
263.6805924895127
 30
0.0
 10
562.5227598403128
 20
262.9773221418164
 30
0.0
 10
562.6697493871868
 20
262.2875639311796
 30
0.0
 10
562.7450023120773
 20
261.934434583403
 30
0.0
  0
SPLINE
  5
8F
330
1F
100
AcDbEntity
  8
0
  6
Continuous
 62
     7
370
    25
100
AcDbSpline
210
0.0
220
0.0
230
1.0
 70
     8
 71
     3
 72
     9
 73
     5
 74
     0
 42
0.000000001
 43
0.00000001
 40
0.0
 40
0.0
 40
0.0
 40
0.0
 40
0.4878784630510501
 40
1.0
 40
1.0
 40
1.0
 40
1.0
 10
567.6008660620582
 20
263.1263486649765
 30
0.0
 10
567.5696834906784
 20
263.2716847309524
 30
0.0
 10
567.5057688608242
 20
263.5695787291154
 30
0.0
 10
567.4964993998282
 20
263.8699759267909
 30
0.0
 10
567.4917523092163
 20
264.0238158013595
 30
0.0
  0
SPLINE
  5
90
330
1F
100
AcDbEntity
  8
0
  6
Continuous
 62
     7
370
    25
100
AcDbSpline
210
0.0
220
0.0
230
1.0
 70
     8
 71
     3
 72
     9
 73
     5
 74
     0
 42
0.000000001
 43
0.00000001
 40
0.0
 40
0.0
 40
0.0
 40
0.0
 40
0.4875291112121282
 40
1.0
 40
1.0
 40
1.0
 40
1.0
 10
544.2384939915073
 20
261.934434583403
 30
0.0
 10
544.3106485169648
 20
262.2705681928998
 30
0.0
 10
544.4586489620625
 20
262.9600318613587
 30
0.0
 10
544.4805346327557
 20
263.6633736234295
 30
0.0
 10
544.4917504018676
 20
264.0238158013595
 30
0.0
  0
SPLINE
  5
91
330
1F
100
AcDbEntity
  8
0
  6
Continuous
 62
     7
370
    25
100
AcDbSpline
210
0.0
220
0.0
230
1.0
 70
     8
 71
     3
 72
     9
 73
     5
 74
     0
 42
0.000000001
 43
0.00000001
 40
0.0
 40
0.0
 40
0.0
 40
0.0
 40
0.4877126268102213
 40
1.0
 40
1.0
 40
1.0
 40
1.0
 10
539.4917514449489
 20
264.0238158013595
 30
0.0
 10
539.4874459538381
 20
263.87732694569
 30
0.0
 10
539.4786180275676
 20
263.5769679891719
 30
0.0
 10
539.4151510323641
 20
263.2789959686523
 30
0.0
 10
539.382637692107
 20
263.1263486649764
 30
0.0
  0
LINE
  5
92
330
1F
100
AcDbEntity
  8
0
  6
Continuous
 62
     7
370
    25
100
AcDbLine
 10
567.4917523092
 20
264.0238158014
 30
0.0
 11
567.4917523092
 21
429.8000536468
 31
0.0
  0
LINE
  5
93
330
1F
100
AcDbEntity
  8
0
  6
Continuous
 62
     7
370
    25
100
AcDbLine
 10
562.491749627
 20
429.8000536468
 30
0.0
 11
562.491749627
 21
264.0238158014
 31
0.0
  0
LINE
  5
94
330
1F
100
AcDbEntity
  8
0
  6
Continuous
 62
     7
370
    25
100
AcDbLine
 10
539.4917514449
 20
429.8000536468
 30
0.0
 11
539.4917514449
 21
264.0238158014
 31
0.0
  0
LINE
  5
95
330
1F
100
AcDbEntity
  8
0
  6
Continuous
 62
     7
370
    25
100
AcDbLine
 10
544.4917504019
 20
264.0238158014
 30
0.0
 11
544.4917504019
 21
429.8000536468
 31
0.0
  0
LINE
  5
96
330
1F
100
AcDbEntity
  8
0
  6
Continuous
 62
     7
370
    25
100
AcDbLine
 10
552.3917500204
 20
265.9149221685
 30
0.0
 11
552.3917500204
 21
429.8000536468
 31
0.0
  0
LINE
  5
97
330
1F
100
AcDbEntity
  8
0
  6
Continuous
 62
     7
370
    25
100
AcDbLine
 10
547.3917510635
 20
429.8000536468
 30
0.0
 11
547.3917510635
 21
265.9149221685
 31
0.0
  0
LINE
  5
98
330
1F
100
AcDbEntity
  8
0
  6
Continuous
 62
     7
370
    25
100
AcDbLine
 10
554.5917500085
 20
429.8000536468
 30
0.0
 11
554.5917500085
 21
265.9149221685
 31
0.0
  0
LINE
  5
99
330
1F
100
AcDbEntity
  8
0
  6
Continuous
 62
     7
370
    25
100
AcDbLine
 10
559.5917526907
 20
265.9149221685
 30
0.0
 11
559.5917526907
 21
429.8000536468
 31
0.0
  0
LINE
  5
9A
330
1F
100
AcDbEntity
  8
0
  6
Continuous
 62
     7
370
    25
100
AcDbLine
 10
271.9917495078
 20
920.8500437047
 30
0.0
 11
271.9917495078
 21
921.3500372674
 31
0.0
  0
LINE
  5
9B
330
1F
100
AcDbEntity
  8
0
  6
Continuous
 62
     7
370
    25
100
AcDbLine
 10
263.9917481965
 20
921.3500372674
 30
0.0
 11
263.9917481965
 21
920.8500437047
 31
0.0
  0
LINE
  5
9C
330
1F
100
AcDbEntity
  8
0
  6
Continuous
 62
     7
370
    25
100
AcDbLine
 10
645.9917474812
 20
920.8500437047
 30
0.0
 11
645.9917474812
 21
921.3500372674
 31
0.0
  0
LINE
  5
9D
330
1F
100
AcDbEntity
  8
0
  6
Continuous
 62
     7
370
    25
100
AcDbLine
 10
637.9917461699
 20
921.3500372674
 30
0.0
 11
637.9917461699
 21
920.8500437047
 31
0.0
  0
LINE
  5
9E
330
1F
100
AcDbEntity
  8
0
  6
Continuous
 62
     7
370
    25
100
AcDbLine
 10
253.9917577332
 20
864.0455208328
 30
0.0
 11
655.9917528457
 21
864.0455208328
 31
0.0
  0
LINE
  5
9F
330
1F
100
AcDbEntity
  8
0
  6
Continuous
 62
     7
370
    25
100
AcDbLine
 10
651.8669475144
 20
911.4723257329
 30
0.0
 11
651.4892328805
 21
911.8500403669
 31
0.0
  0
LINE
  5
A0
330
1F
100
AcDbEntity
  8
0
  6
Continuous
 62
     7
370
    25
100
AcDbLine
 10
632.4942607707
 20
911.8500403669
 30
0.0
 11
632.2714288062
 21
911.6272084024
 31
0.0
  0
LINE
  5
A1
330
1F
100
AcDbEntity
  8
0
  6
Continuous
 62
     7
370
    25
100
AcDbLine
 10
632.2714288062
 20
908.0728940274
 30
0.0
 11
632.4942607707
 21
907.850062063
 31
0.0
  0
LINE
  5
A2
330
1F
100
AcDbEntity
  8
0
  6
Continuous
 62
     7
370
    25
100
AcDbLine
 10
651.4892328805
 20
907.850062063
 30
0.0
 11
651.8669475144
 21
908.2277766969
 31
0.0
  0
ARC
  5
A3
330
1F
100
AcDbEntity
  8
0
  6
Continuous
 62
     7
370
    25
100
AcDbCircle
 10
647.3917505425
 20
912.2500506438
 30
0.0
 40
0.4000000000000909
100
AcDbArc
 50
180.0
 51
270.0
  0
ARC
  5
A4
330
1F
100
AcDbEntity
  8
0
  6
Continuous
 62
     7
370
    25
100
AcDbCircle
 10
636.5917505425
 20
912.2500506438
 30
0.0
 40
0.3999999999999773
100
AcDbArc
 50
270.0
 51
0.0
  0
ARC
  5
A5
330
1F
100
AcDbEntity
  8
0
  6
Continuous
 62
     7
370
    25
100
AcDbCircle
 10
637.1917505425
 20
919.1500506438
 30
0.0
 40
0.1999999999999318
100
AcDbArc
 50
90.0
 51
180.0000000003
  0
ARC
  5
A6
330
1F
100
AcDbEntity
  8
0
  6
Continuous
 62
     7
370
    25
100
AcDbCircle
 10
646.7917505425
 20
919.1500506438
 30
0.0
 40
0.2000000000000455
100
AcDbArc
 50
359.9999999997
 51
90.0
  0
LINE
  5
A7
330
1F
100
AcDbEntity
  8
0
  6
Continuous
 62
     7
370
    25
100
AcDbLine
 10
646.9917495078
 20
912.250047138
 30
0.0
 11
646.9917495078
 21
919.1500596311
 31
0.0
  0
LINE
  5
A8
330
1F
100
AcDbEntity
  8
0
  6
Continuous
 62
     7
370
    25
100
AcDbLine
 10
636.9917441434
 20
919.1500596311
 30
0.0
 11
636.9917441434
 21
912.250047138
 31
0.0
  0
LINE
  5
A9
330
1F
100
AcDbEntity
  8
0
  6
Continuous
 62
     7
370
    25
100
AcDbLine
 10
258.2714308328
 20
908.0728940274
 30
0.0
 11
258.4942627972
 21
907.850062063
 31
0.0
  0
LINE
  5
AA
330
1F
100
AcDbEntity
  8
0
  6
Continuous
 62
     7
370
    25
100
AcDbLine
 10
277.489234907
 20
907.850062063
 30
0.0
 11
277.866949541
 21
908.2277766969
 31
0.0
  0
LINE
  5
AB
330
1F
100
AcDbEntity
  8
0
  6
Continuous
 62
     7
370
    25
100
AcDbLine
 10
277.866949541
 20
911.4723257329
 30
0.0
 11
277.489234907
 21
911.8500403669
 31
0.0
  0
LINE
  5
AC
330
1F
100
AcDbEntity
  8
0
  6
Continuous
 62
     7
370
    25
100
AcDbLine
 10
258.4942627972
 20
911.8500403669
 30
0.0
 11
258.2714308328
 21
911.6272084024
 31
0.0
  0
ARC
  5
AD
330
1F
100
AcDbEntity
  8
0
  6
Continuous
 62
     7
370
    25
100
AcDbCircle
 10
273.3917505425
 20
912.2500506438
 30
0.0
 40
0.3999999999999773
100
AcDbArc
 50
180.0
 51
270.0
  0
ARC
  5
AE
330
1F
100
AcDbEntity
  8
0
  6
Continuous
 62
     7
370
    25
100
AcDbCircle
 10
262.5917505425
 20
912.2500506438
 30
0.0
 40
0.4000000000000341
100
AcDbArc
 50
270.0
 51
0.0
  0
ARC
  5
AF
330
1F
100
AcDbEntity
  8
0
  6
Continuous
 62
     7
370
    25
100
AcDbCircle
 10
263.1917505425
 20
919.1500506438
 30
0.0
 40
0.1999999999999886
100
AcDbArc
 50
90.0
 51
180.0000000003
  0
ARC
  5
B0
330
1F
100
AcDbEntity
  8
0
  6
Continuous
 62
     7
370
    25
100
AcDbCircle
 10
272.7917505425
 20
919.1500506438
 30
0.0
 40
0.1999999999999318
100
AcDbArc
 50
359.9999999997
 51
90.0
  0
LINE
  5
B1
330
1F
100
AcDbEntity
  8
0
  6
Continuous
 62
     7
370
    25
100
AcDbLine
 10
272.9917515344
 20
912.250047138
 30
0.0
 11
272.9917515344
 21
919.1500596311
 31
0.0
  0
LINE
  5
B2
330
1F
100
AcDbEntity
  8
0
  6
Continuous
 62
     7
370
    25
100
AcDbLine
 10
262.9917461699
 20
919.1500596311
 30
0.0
 11
262.9917461699
 21
912.250047138
 31
0.0
  0
LINE
  5
B3
330
1F
100
AcDbEntity
  8
0
  6
Continuous
 62
     7
370
    25
100
AcDbLine
 10
537.5968564576
 20
429.8000536468
 30
0.0
 11
538.0520198769
 21
429.6353511121
 31
0.0
  0
LINE
  5
B4
330
1F
100
AcDbEntity
  8
0
  6
Continuous
 62
     7
370
    25
100
AcDbLine
 10
229.9917537993
 20
190.7901815679
 30
0.0
 11
679.9917567796
 21
190.7901815679
 31
0.0
  0
LINE
  5
B5
330
1F
100
AcDbEntity
  8
0
  6
Continuous
 62
     7
370
    25
100
AcDbLine
 10
231.2017578906
 20
209.7832314279
 30
0.0
 11
331.7216832465
 21
209.7832314279
 31
0.0
  0
LINE
  5
B6
330
1F
100
AcDbEntity
  8
0
  6
Continuous
 62
     7
370
    25
100
AcDbLine
 10
336.9192529744
 20
209.7832314279
 30
0.0
 11
376.0581065244
 21
209.7832314279
 31
0.0
  0
LINE
  5
B7
330
1F
100
AcDbEntity
  8
0
  6
Continuous
 62
     7
370
    25
100
AcDbLine
 10
381.2585447258
 20
209.7832314279
 30
0.0
 11
528.7216838724
 21
209.7832314279
 31
0.0
  0
LINE
  5
B8
330
1F
100
AcDbEntity
  8
0
  6
Continuous
 62
     7
370
    25
100
AcDbLine
 10
533.9192536003
 20
209.7832314279
 30
0.0
 11
573.0581034249
 21
209.7832314279
 31
0.0
  0
LINE
  5
B9
330
1F
100
AcDbEntity
  8
0
  6
Continuous
 62
     7
370
    25
100
AcDbLine
 10
578.2585416263
 20
209.7832314279
 30
0.0
 11
678.7817526883
 21
209.7832314279
 31
0.0
  0
LINE
  5
BA
330
1F
100
AcDbEntity
  8
0
  6
Continuous
 62
     7
370
    25
100
AcDbLine
 10
229.9917537993
 20
210.9932355191
 30
0.0
 11
231.1917443103
 21
210.9932355191
 31
0.0
  0
LINE
  5
BB
330
1F
100
AcDbEntity
  8
0
  6
Continuous
 62
     7
370
    25
100
AcDbLine
 10
678.7917513675
 20
210.9932355191
 30
0.0
 11
679.9917567796
 21
210.9932355191
 31
0.0
  0
SPLINE
  5
BC
330
1F
100
AcDbEntity
  8
0
  6
Continuous
 62
     7
370
    25
100
AcDbSpline
210
0.0
220
0.0
230
1.0
 70
     8
 71
     3
 72
    13
 73
     9
 74
     0
 42
0.000000001
 43
0.00000001
 40
0.0
 40
0.0
 40
0.0
 40
0.0
 40
0.0634875485848482
 40
0.2470536732886614
 40
0.4311529758830289
 40
0.6187751283510385
 40
0.8315593848174367
 40
1.0
 40
1.0
 40
1.0
 40
1.0
 10
643.1009073084724
 20
987.7999476697219
 30
0.0
 10
643.1013791711032
 20
987.7897215461837
 30
0.0
 10
643.1032153641656
 20
987.7499278946735
 30
0.0
 10
643.0898812242274
 20
987.6823673299964
 30
0.0
 10
643.0639362444161
 20
987.6122449883571
 30
0.0
 10
643.0319491314252
 20
987.5658163779948
 30
0.0
 10
643.0089464271548
 20
987.5497641668074
 30
0.0
 10
643.0096842327458
 20
987.5504620840743
 30
0.0
 10
643.01001022519
 20
987.5507704522383
 30
0.0
  0
ARC
  5
BD
330
1F
100
AcDbEntity
  8
0
  6
Continuous
 62
     7
370
    25
100
AcDbCircle
 10
643.3527023661
 20
992.9000506438
 30
0.0
 40
0.2500000000001137
100
AcDbArc
 50
90.0
 51
180.0
  0
LINE
  5
BE
330
1F
100
AcDbEntity
  8
0
  6
Continuous
 62
     7
370
    25
100
AcDbLine
 10
643.1026954478
 20
992.9000489023
 30
0.0
 11
643.1026954478
 21
987.8000370767
 31
0.0
  0
ARC
  5
BF
330
1F
100
AcDbEntity
  8
0
  6
Continuous
 62
     7
370
    25
100
AcDbCircle
 10
648.4093965383
 20
992.9000506438
 30
0.0
 40
0.2500000000001137
100
AcDbArc
 50
0.0
 51
90.0
  0
LINE
  5
C0
330
1F
100
AcDbEntity
  8
0
  6
Continuous
 62
     7
370
    25
100
AcDbLine
 10
648.6593980616
 20
987.8000370767
 30
0.0
 11
648.6593980616
 21
992.9000489023
 31
0.0
  0
ARC
  5
C1
330
1F
100
AcDbEntity
  8
0
  6
Continuous
 62
     7
370
    25
100
AcDbCircle
 10
648.4417505425
 20
986.6000506438
 30
0.0
 40
0.25
100
AcDbArc
 50
270.0
 51
0.0
  0
ARC
  5
C2
330
1F
100
AcDbEntity
  8
0
  6
Continuous
 62
     7
370
    25
100
AcDbCircle
 10
648.4417505425
 20
987.3000506438
 30
0.0
 40
0.2500000000000708
100
AcDbArc
 50
0.0
 51
52.7089330724
  0
LINE
  5
C3
330
1F
100
AcDbEntity
  8
0
  6
Continuous
 62
     7
370
    25
100
AcDbLine
 10
648.6917484826
 20
986.6000465657
 30
0.0
 11
648.6917484826
 21
987.300043514
 31
0.0
  0
ARC
  5
C4
330
1F
100
AcDbEntity
  8
0
  6
Continuous
 62
     7
370
    25
100
AcDbCircle
 10
631.5741045466
 20
992.9000506438
 30
0.0
 40
0.25
100
AcDbArc
 50
90.0
 51
180.0
  0
LINE
  5
C5
330
1F
100
AcDbEntity
  8
0
  6
Continuous
 62
     7
370
    25
100
AcDbLine
 10
631.3241023845
 20
992.9000489023
 30
0.0
 11
631.3241023845
 21
988.6230580117
 31
0.0
  0
ARC
  5
C6
330
1F
100
AcDbEntity
  8
0
  6
Continuous
 62
     7
370
    25
100
AcDbCircle
 10
648.4417505425
 20
988.5000506438
 30
0.0
 40
0.2500000000001137
100
AcDbArc
 50
0.0
 51
29.4734267882
  0
LINE
  5
C7
330
1F
100
AcDbEntity
  8
0
  6
Continuous
 62
     7
370
    25
100
AcDbLine
 10
648.6917484826
 20
987.8000370767
 30
0.0
 11
648.6917484826
 21
988.5000638273
 31
0.0
  0
SPLINE
  5
C8
330
1F
100
AcDbEntity
  8
0
  6
Continuous
 62
     7
370
    25
100
AcDbSpline
210
0.0
220
0.0
230
1.0
 70
     8
 71
     3
 72
    13
 73
     9
 74
     0
 42
0.000000001
 43
0.00000001
 40
0.0
 40
0.0
 40
0.0
 40
0.0
 40
0.0547167776959401
 40
0.2134728770650955
 40
0.3746097873834315
 40
0.5445028460284709
 40
0.747540207236055
 40
1.0
 40
1.0
 40
1.0
 40
1.0
 10
636.0374737805259
 20
987.3001329209578
 30
0.0
 10
636.0369778578819
 20
987.3097220135387
 30
0.0
 10
636.0350430576605
 20
987.3471330466419
 30
0.0
 10
636.0490977996617
 20
987.4109765289883
 30
0.0
 10
636.0767297299919
 20
987.478390181703
 30
0.0
 10
636.1136301389644
 20
987.525948983997
 30
0.0
 10
636.1484017651192
 20
987.5488671653208
 30
0.0
 10
636.1602397451989
 20
987.5493055704827
 30
0.0
 10
636.1668009585273
 20
987.5495485570204
 30
0.0
  0
ARC
  5
C9
330
1F
100
AcDbEntity
  8
0
  6
Continuous
 62
     7
370
    25
100
AcDbCircle
 10
635.7856007928
 20
982.2000506438
 30
0.0
 40
0.2500000000001137
100
AcDbArc
 50
270.0
 51
0.0
  0
LINE
  5
CA
330
1F
100
AcDbEntity
  8
0
  6
Continuous
 62
     7
370
    25
100
AcDbLine
 10
636.0355962342
 20
982.2000614908
 30
0.0
 11
636.0355962342
 21
987.300043514
 31
0.0
  0
ARC
  5
CB
330
1F
100
AcDbEntity
  8
0
  6
Continuous
 62
     7
370
    25
100
AcDbCircle
 10
631.0856303935
 20
982.2000506438
 30
0.0
 40
0.2500000000001137
100
AcDbArc
 50
180.0
 51
270.0
  0
LINE
  5
CC
330
1F
100
AcDbEntity
  8
0
  6
Continuous
 62
     7
370
    25
100
AcDbLine
 10
630.8356274194
 20
987.300043514
 30
0.0
 11
630.8356274194
 21
982.2000614908
 31
0.0
  0
ARC
  5
CD
330
1F
100
AcDbEntity
  8
0
  6
Continuous
 62
     7
370
    25
100
AcDbCircle
 10
631.5417505425
 20
988.5000506438
 30
0.0
 40
0.25
100
AcDbArc
 50
90.0
 51
180.0
  0
ARC
  5
CE
330
1F
100
AcDbEntity
  8
0
  6
Continuous
 62
     7
370
    25
100
AcDbCircle
 10
648.8978706914
 20
982.2000506438
 30
0.0
 40
0.2499999999998863
100
AcDbArc
 50
270.0
 51
0.0
  0
LINE
  5
CF
330
1F
100
AcDbEntity
  8
0
  6
Continuous
 62
     7
370
    25
100
AcDbLine
 10
649.1478730267
 20
982.2000614908
 30
0.0
 11
649.1478730267
 21
987.300043514
 31
0.0
  0
LINE
  5
D0
330
1F
100
AcDbEntity
  8
0
  6
Continuous
 62
     7
370
    25
100
AcDbLine
 10
645.0810034102
 20
980.8485261705
 30
0.0
 11
644.9917454547
 21
980.9000543859
 31
0.0
  0
LINE
  5
D1
330
1F
100
AcDbEntity
  8
0
  6
Continuous
 62
     7
370
    25
100
AcDbLine
 10
634.9917549914
 20
980.9000543859
 30
0.0
 11
634.9024970359
 21
980.8485261705
 31
0.0
  0
LINE
  5
D2
330
1F
100
AcDbEntity
  8
0
  6
Continuous
 62
     7
370
    25
100
AcDbLine
 10
645.4534430331
 20
993.6834923532
 30
0.0
 11
644.9917454547
 21
993.9500443246
 31
0.0
  0
LINE
  5
D3
330
1F
100
AcDbEntity
  8
0
  6
Continuous
 62
     7
370
    25
100
AcDbLine
 10
634.530057413
 20
989.0165976789
 30
0.0
 11
634.9917549914
 21
988.7500457074
 31
0.0
  0
LINE
  5
D4
330
1F
100
AcDbEntity
  8
0
  6
Continuous
 62
     7
370
    25
100
AcDbLine
 10
634.9917549914
 20
993.9500443246
 30
0.0
 11
634.530057413
 21
993.6834923532
 31
0.0
  0
LINE
  5
D5
330
1F
100
AcDbEntity
  8
0
  6
Continuous
 62
     7
370
    25
100
AcDbLine
 10
634.7443659133
 20
981.2928787973
 30
0.0
 11
634.9917549914
 21
981.1500362661
 31
0.0
  0
LINE
  5
D6
330
1F
100
AcDbEntity
  8
0
  6
Continuous
 62
     7
370
    25
100
AcDbLine
 10
644.9917454547
 20
981.1500362661
 30
0.0
 11
645.2391345328
 21
981.2928787973
 31
0.0
  0
LINE
  5
D7
330
1F
100
AcDbEntity
  8
0
  6
Continuous
 62
     7
370
    25
100
AcDbLine
 10
645.2391345328
 20
986.2072221544
 30
0.0
 11
644.9917454547
 21
986.3500646856
 31
0.0
  0
LINE
  5
D8
330
1F
100
AcDbEntity
  8
0
  6
Continuous
 62
     7
370
    25
100
AcDbLine
 10
642.9917563027
 20
980.9000543859
 30
0.0
 11
642.9917563027
 21
981.1500362661
 31
0.0
  0
LINE
  5
D9
330
1F
100
AcDbEntity
  8
0
  6
Continuous
 62
     7
370
    25
100
AcDbLine
 10
636.9917441434
 20
981.1500362661
 30
0.0
 11
636.9917441434
 21
980.9000543859
 31
0.0
  0
LINE
  5
DA
330
1F
100
AcDbEntity
  8
0
  6
Continuous
 62
     7
370
    25
100
AcDbLine
 10
667.991747362
 20
324.4000427034
 30
0.0
 11
667.991747362
 21
324.6500543859
 31
0.0
  0
LINE
  5
DB
330
1F
100
AcDbEntity
  8
0
  6
Continuous
 62
     7
370
    25
100
AcDbLine
 10
661.9917501038
 20
324.4000427034
 30
0.0
 11
661.9917501038
 21
324.6500543859
 31
0.0
  0
LINE
  5
DC
330
1F
100
AcDbEntity
  8
0
  6
Continuous
 62
     7
370
    25
100
AcDbLine
 10
423.4917510575
 20
1016.900037935
 30
0.0
 11
430.9917513555
 21
1016.900037935
 31
0.0
  0
LINE
  5
DD
330
1F
100
AcDbEntity
  8
0
  6
Continuous
 62
     7
370
    25
100
AcDbLine
 10
430.9917513555
 20
1048.4000496175
 30
0.0
 11
423.4917510575
 21
1048.4000496175
 31
0.0
  0
LINE
  5
DE
330
1F
100
AcDbEntity
  8
0
  6
Continuous
 62
     7
370
    25
100
AcDbLine
 10
478.9917503758
 20
1016.900037935
 30
0.0
 11
486.4917505574
 21
1016.900037935
 31
0.0
  0
LINE
  5
DF
330
1F
100
AcDbEntity
  8
0
  6
Continuous
 62
     7
370
    25
100
AcDbLine
 10
486.4917505574
 20
1048.4000496175
 30
0.0
 11
478.9917503758
 21
1048.4000496175
 31
0.0
  0
ARC
  5
E0
330
1F
100
AcDbEntity
  8
0
  6
Continuous
 62
     7
370
    25
100
AcDbCircle
 10
477.0074370592
 20
1048.6500506442
 30
0.0
 40
2.000000000000227
100
AcDbArc
 50
270.0
 51
352.8192442185
  0
ARC
  5
E1
330
1F
100
AcDbEntity
  8
0
  6
Continuous
 62
     7
370
    25
100
AcDbCircle
 10
477.0074370592
 20
1016.6500506442
 30
0.0
 40
2.000000000000007
100
AcDbArc
 50
7.1807557815
 51
90.0
  0
ARC
  5
E2
330
1F
100
AcDbEntity
  8
0
  6
Continuous
 62
     7
370
    25
100
AcDbCircle
 10
432.9760640258
 20
1016.6500506442
 30
0.0
 40
2.000000000000007
100
AcDbArc
 50
90.0
 51
172.8192442185
  0
ARC
  5
E3
330
1F
100
AcDbEntity
  8
0
  6
Continuous
 62
     7
370
    25
100
AcDbCircle
 10
432.9760640258
 20
1048.6500506442
 30
0.0
 40
2.000000000000227
100
AcDbArc
 50
187.1807557815
 51
270.0
  0
LINE
  5
E4
330
1F
100
AcDbEntity
  8
0
  6
Continuous
 62
     7
370
    25
100
AcDbLine
 10
467.0851372457
 20
1018.6500601079
 30
0.0
 11
477.0074367798
 21
1018.6500601079
 31
0.0
  0
LINE
  5
E5
330
1F
100
AcDbEntity
  8
0
  6
Continuous
 62
     7
370
    25
100
AcDbLine
 10
477.0074367798
 20
1046.6500572469
 30
0.0
 11
467.0851372457
 21
1046.6500572469
 31
0.0
  0
LINE
  5
E6
330
1F
100
AcDbEntity
  8
0
  6
Continuous
 62
     7
370
    25
100
AcDbLine
 10
432.9760644859
 20
1018.6500601079
 30
0.0
 11
442.89836402
 21
1018.6500601079
 31
0.0
  0
LINE
  5
E7
330
1F
100
AcDbEntity
  8
0
  6
Continuous
 62
     7
370
    25
100
AcDbLine
 10
442.89836402
 20
1046.6500572469
 30
0.0
 11
432.9760644859
 21
1046.6500572469
 31
0.0
  0
LINE
  5
E8
330
1F
100
AcDbEntity
  8
0
  6
Continuous
 62
     7
370
    25
100
AcDbLine
 10
334.9917579717
 20
1021.9000629689
 30
0.0
 11
423.4917510575
 21
1021.9000629689
 31
0.0
  0
LINE
  5
E9
330
1F
100
AcDbEntity
  8
0
  6
Continuous
 62
     7
370
    25
100
AcDbLine
 10
423.4917510575
 20
1043.4000543859
 30
0.0
 11
334.9917579717
 21
1043.4000543859
 31
0.0
  0
LINE
  5
EA
330
1F
100
AcDbEntity
  8
0
  6
Continuous
 62
     7
370
    25
100
AcDbLine
 10
486.4917505574
 20
1021.9000629689
 30
0.0
 11
574.9917526072
 21
1021.9000629689
 31
0.0
  0
LINE
  5
EB
330
1F
100
AcDbEntity
  8
0
  6
Continuous
 62
     7
370
    25
100
AcDbLine
 10
574.9917526072
 20
1043.4000543859
 30
0.0
 11
486.4917505574
 21
1043.4000543859
 31
0.0
  0
LINE
  5
EC
330
1F
100
AcDbEntity
  8
0
  6
Continuous
 62
     7
370
    25
100
AcDbLine
 10
622.9917455739
 20
1008.1500462796
 30
0.0
 11
622.2417552298
 21
1008.6500398423
 31
0.0
  0
LINE
  5
ED
330
1F
100
AcDbEntity
  8
0
  6
Continuous
 62
     7
370
    25
100
AcDbLine
 10
587.7417523688
 20
1008.6500398423
 30
0.0
 11
586.9917471236
 21
1008.1500462796
 31
0.0
  0
ARC
  5
EE
330
1F
100
AcDbEntity
  8
0
  6
Continuous
 62
     7
370
    25
100
AcDbCircle
 10
577.4917505425
 20
1047.6500506442
 30
0.0
 40
2.500000000000049
100
AcDbArc
 50
6.3793702084
 51
180.0
  0
ARC
  5
EF
330
1F
100
AcDbEntity
  8
0
  6
Continuous
 62
     7
370
    25
100
AcDbCircle
 10
577.4917505425
 20
1017.6500506442
 30
0.0
 40
2.500000000000049
100
AcDbArc
 50
180.0
 51
353.6206297916
  0
ARC
  5
F0
330
1F
100
AcDbEntity
  8
0
  6
Continuous
 62
     7
370
    25
100
AcDbCircle
 10
620.4917505425
 20
1010.6500506442
 30
0.0
 40
2.0
100
AcDbArc
 50
180.0
 51
270.0
  0
ARC
  5
F1
330
1F
100
AcDbEntity
  8
0
  6
Continuous
 62
     7
370
    25
100
AcDbCircle
 10
589.4917505425
 20
1010.6500506442
 30
0.0
 40
2.0
100
AcDbArc
 50
270.0
 51
0.0
  0
ARC
  5
F2
330
1F
100
AcDbEntity
  8
0
  6
Continuous
 62
     7
370
    25
100
AcDbCircle
 10
581.9638864975
 20
1017.1500506442
 30
0.0
 40
2.000000000000029
100
AcDbArc
 50
90.0
 51
173.6206297916
  0
ARC
  5
F3
330
1F
100
AcDbEntity
  8
0
  6
Continuous
 62
     7
370
    25
100
AcDbCircle
 10
581.9638864975
 20
1048.1500506442
 30
0.0
 40
2.000000000000029
100
AcDbArc
 50
186.3793702084
 51
270.0
  0
LINE
  5
F4
330
1F
100
AcDbEntity
  8
0
  6
Continuous
 62
     7
370
    25
100
AcDbLine
 10
618.491743905
 20
1010.6500438955
 30
0.0
 11
618.491743905
 21
1012.6500479486
 31
0.0
  0
LINE
  5
F5
330
1F
100
AcDbEntity
  8
0
  6
Continuous
 62
     7
370
    25
100
AcDbLine
 10
591.4917487925
 20
1012.6500479486
 30
0.0
 11
591.4917487925
 21
1010.6500438955
 31
0.0
  0
ARC
  5
F6
330
1F
100
AcDbEntity
  8
0
  6
Continuous
 62
     7
370
    25
100
AcDbCircle
 10
584.9917505425
 20
1012.6500506442
 30
0.0
 40
6.5
100
AcDbArc
 50
0.0
 51
90.0
  0
ARC
  5
F7
330
1F
100
AcDbEntity
  8
0
  6
Continuous
 62
     7
370
    25
100
AcDbCircle
 10
584.9917505425
 20
1012.6500506442
 30
0.0
 40
33.5
100
AcDbArc
 50
0.0
 51
90.0
  0
LINE
  5
F8
330
1F
100
AcDbEntity
  8
0
  6
Continuous
 62
     7
370
    25
100
AcDbLine
 10
581.9638867206
 20
1019.1500536706
 30
0.0
 11
584.9917505211
 21
1019.1500536706
 31
0.0
  0
LINE
  5
F9
330
1F
100
AcDbEntity
  8
0
  6
Continuous
 62
     7
370
    25
100
AcDbLine
 10
584.9917505211
 20
1046.1500636842
 30
0.0
 11
581.9638867206
 21
1046.1500636842
 31
0.0
  0
LINE
  5
FA
330
1F
100
AcDbEntity
  8
0
  6
Continuous
 62
     7
370
    25
100
AcDbLine
 10
322.9917485541
 20
1008.1500462796
 30
0.0
 11
322.2417433089
 21
1008.6500398423
 31
0.0
  0
LINE
  5
FB
330
1F
100
AcDbEntity
  8
0
  6
Continuous
 62
     7
370
    25
100
AcDbLine
 10
287.7417553491
 20
1008.6500398423
 30
0.0
 11
286.9917501038
 21
1008.1500462796
 31
0.0
  0
ARC
  5
FC
330
1F
100
AcDbEntity
  8
0
  6
Continuous
 62
     7
370
    25
100
AcDbCircle
 10
332.4917505424
 20
1017.6500506393
 30
0.0
 40
2.5
100
AcDbArc
 50
186.3793702085
 51
360.0
  0
ARC
  5
FD
330
1F
100
AcDbEntity
  8
0
  6
Continuous
 62
     7
370
    25
100
AcDbCircle
 10
332.4917505424
 20
1047.6500506393
 30
0.0
 40
2.5
100
AcDbArc
 50
0.0
 51
173.6206297915
  0
ARC
  5
FE
330
1F
100
AcDbEntity
  8
0
  6
Continuous
 62
     7
370
    25
100
AcDbCircle
 10
320.4917505424
 20
1010.6500506393
 30
0.0
 40
2.0
100
AcDbArc
 50
180.0
 51
270.0
  0
ARC
  5
FF
330
1F
100
AcDbEntity
  8
0
  6
Continuous
 62
     7
370
    25
100
AcDbCircle
 10
289.4917505424
 20
1010.6500506393
 30
0.0
 40
2.0
100
AcDbArc
 50
270.0
 51
0.0
  0
ARC
  5
100
330
1F
100
AcDbEntity
  8
0
  6
Continuous
 62
     7
370
    25
100
AcDbCircle
 10
328.0196145874
 20
1048.1500506393
 30
0.0
 40
2.000000000000004
100
AcDbArc
 50
270.0
 51
353.6206297916
  0
ARC
  5
101
330
1F
100
AcDbEntity
  8
0
  6
Continuous
 62
     7
370
    25
100
AcDbCircle
 10
328.0196145874
 20
1017.1500506393
 30
0.0
 40
2.000000000000029
100
AcDbArc
 50
6.3793702084
 51
90.0
  0
LINE
  5
102
330
1F
100
AcDbEntity
  8
0
  6
Continuous
 62
     7
370
    25
100
AcDbLine
 10
318.4917468852
 20
1010.6500438955
 30
0.0
 11
318.4917468852
 21
1012.6500479486
 31
0.0
  0
LINE
  5
103
330
1F
100
AcDbEntity
  8
0
  6
Continuous
 62
     7
370
    25
100
AcDbLine
 10
291.4917517728
 20
1012.6500479486
 30
0.0
 11
291.4917517728
 21
1010.6500438955
 31
0.0
  0
ARC
  5
104
330
1F
100
AcDbEntity
  8
0
  6
Continuous
 62
     7
370
    25
100
AcDbCircle
 10
324.9917505424
 20
1012.6500506393
 30
0.0
 40
6.500000000000114
100
AcDbArc
 50
90.0
 51
180.0
  0
ARC
  5
105
330
1F
100
AcDbEntity
  8
0
  6
Continuous
 62
     7
370
    25
100
AcDbCircle
 10
324.9917505424
 20
1012.6500506393
 30
0.0
 40
33.50000000000011
100
AcDbArc
 50
90.0
 51
180.0
  0
LINE
  5
106
330
1F
100
AcDbEntity
  8
0
  6
Continuous
 62
     7
370
    25
100
AcDbLine
 10
328.0196089572
 20
1046.1500636842
 30
0.0
 11
324.9917526072
 21
1046.1500636842
 31
0.0
  0
LINE
  5
107
330
1F
100
AcDbEntity
  8
0
  6
Continuous
 62
     7
370
    25
100
AcDbLine
 10
324.9917526072
 20
1019.1500536706
 30
0.0
 11
328.0196089572
 21
1019.1500536706
 31
0.0
  0
ARC
  5
108
330
1F
100
AcDbEntity
  8
0
  6
Continuous
 62
     7
370
    25
100
AcDbCircle
 10
615.9917505425
 20
976.6500506442
 30
0.0
 40
0.5
100
AcDbArc
 50
90.0
 51
180.0
  0
ARC
  5
109
330
1F
100
AcDbEntity
  8
0
  6
Continuous
 62
     7
370
    25
100
AcDbCircle
 10
593.9917505425
 20
976.6500506442
 30
0.0
 40
0.5000000000002274
100
AcDbArc
 50
0.0
 51
90.0
  0
LINE
  5
10A
330
1F
100
AcDbEntity
  8
0
  6
Continuous
 62
     7
370
    25
100
AcDbLine
 10
594.4917474216
 20
976.6500643995
 30
0.0
 11
594.4917474216
 21
976.4500610139
 31
0.0
  0
LINE
  5
10B
330
1F
100
AcDbEntity
  8
0
  6
Continuous
 62
     7
370
    25
100
AcDbLine
 10
615.4917527264
 20
976.4500610139
 30
0.0
 11
615.4917527264
 21
976.6500643995
 31
0.0
  0
ARC
  5
10C
330
1F
100
AcDbEntity
  8
0
  6
Continuous
 62
     7
370
    25
100
AcDbCircle
 10
620.5387559262
 20
987.1500506442
 30
0.0
 40
2.0
100
AcDbArc
 50
90.0
 51
180.0
  0
ARC
  5
10D
330
1F
100
AcDbEntity
  8
0
  6
Continuous
 62
     7
370
    25
100
AcDbCircle
 10
589.4447451587
 20
987.1500506442
 30
0.0
 40
2.0
100
AcDbArc
 50
0.0
 51
90.0
  0
ARC
  5
10E
330
1F
100
AcDbEntity
  8
0
  6
Continuous
 62
     7
370
    25
100
AcDbCircle
 10
618.0387559262
 20
977.6500506442
 30
0.0
 40
0.5
100
AcDbArc
 50
270.0
 51
0.0
  0
LINE
  5
10F
330
1F
100
AcDbEntity
  8
0
  6
Continuous
 62
     7
370
    25
100
AcDbLine
 10
618.5387570685
 20
977.6500515249
 30
0.0
 11
618.5387570685
 21
987.1500484254
 31
0.0
  0
ARC
  5
110
330
1F
100
AcDbEntity
  8
0
  6
Continuous
 62
     7
370
    25
100
AcDbCircle
 10
591.9447451587
 20
977.6500506442
 30
0.0
 40
0.5000000000001137
100
AcDbArc
 50
180.0
 51
270.0
  0
LINE
  5
111
330
1F
100
AcDbEntity
  8
0
  6
Continuous
 62
     7
370
    25
100
AcDbLine
 10
591.4447430796
 20
987.1500484254
 30
0.0
 11
591.4447430796
 21
977.6500515249
 31
0.0
  0
ARC
  5
112
330
1F
100
AcDbEntity
  8
0
  6
Continuous
 62
     7
370
    25
100
AcDbCircle
 10
315.9917505424
 20
976.6500506393
 30
0.0
 40
0.5
100
AcDbArc
 50
90.0
 51
180.0
  0
ARC
  5
113
330
1F
100
AcDbEntity
  8
0
  6
Continuous
 62
     7
370
    25
100
AcDbCircle
 10
293.9917505424
 20
976.6500506393
 30
0.0
 40
0.5
100
AcDbArc
 50
0.0
 51
90.0
  0
LINE
  5
114
330
1F
100
AcDbEntity
  8
0
  6
Continuous
 62
     7
370
    25
100
AcDbLine
 10
294.4917578524
 20
976.6500643995
 30
0.0
 11
294.4917578524
 21
976.4500610139
 31
0.0
  0
LINE
  5
115
330
1F
100
AcDbEntity
  8
0
  6
Continuous
 62
     7
370
    25
100
AcDbLine
 10
315.4917557067
 20
976.4500610139
 30
0.0
 11
315.4917557067
 21
976.6500643995
 31
0.0
  0
ARC
  5
116
330
1F
100
AcDbEntity
  8
0
  6
Continuous
 62
     7
370
    25
100
AcDbCircle
 10
320.5387559262
 20
987.1500506393
 30
0.0
 40
2.0
100
AcDbArc
 50
90.0
 51
180.0
  0
ARC
  5
117
330
1F
100
AcDbEntity
  8
0
  6
Continuous
 62
     7
370
    25
100
AcDbCircle
 10
289.4447451587
 20
987.1500506393
 30
0.0
 40
2.0
100
AcDbArc
 50
0.0
 51
90.0
  0
ARC
  5
118
330
1F
100
AcDbEntity
  8
0
  6
Continuous
 62
     7
370
    25
100
AcDbCircle
 10
318.0387559262
 20
977.6500506393
 30
0.0
 40
0.5
100
AcDbArc
 50
270.0
 51
0.0
  0
LINE
  5
119
330
1F
100
AcDbEntity
  8
0
  6
Continuous
 62
     7
370
    25
100
AcDbLine
 10
318.5387600488
 20
977.6500515249
 30
0.0
 11
318.5387600488
 21
987.1500484254
 31
0.0
  0
ARC
  5
11A
330
1F
100
AcDbEntity
  8
0
  6
Continuous
 62
     7
370
    25
100
AcDbCircle
 10
291.9447451587
 20
977.6500506393
 30
0.0
 40
0.5
100
AcDbArc
 50
180.0
 51
270.0
  0
LINE
  5
11B
330
1F
100
AcDbEntity
  8
0
  6
Continuous
 62
     7
370
    25
100
AcDbLine
 10
291.4447386092
 20
987.1500484254
 30
0.0
 11
291.4447386092
 21
977.6500515249
 31
0.0
  0
LINE
  5
11C
330
1F
100
AcDbEntity
  8
0
  6
Continuous
 62
     7
370
    25
100
AcDbLine
 10
603.1917531318
 20
976.35004442
 30
0.0
 11
603.1917531318
 21
976.4500610139
 31
0.0
  0
LINE
  5
11D
330
1F
100
AcDbEntity
  8
0
  6
Continuous
 62
     7
370
    25
100
AcDbLine
 10
614.9917442626
 20
976.4500610139
 30
0.0
 11
603.1917531318
 21
976.4500610139
 31
0.0
  0
LINE
  5
11E
330
1F
100
AcDbEntity
  8
0
  6
Continuous
 62
     7
370
    25
100
AcDbLine
 10
596.7917491025
 20
976.35004442
 30
0.0
 11
596.7917491025
 21
976.4500610139
 31
0.0
  0
LINE
  5
11F
330
1F
100
AcDbEntity
  8
0
  6
Continuous
 62
     7
370
    25
100
AcDbLine
 10
567.4917523092
 20
976.35004442
 30
0.0
 11
567.4917523092
 21
976.4500610139
 31
0.0
  0
LINE
  5
120
330
1F
100
AcDbEntity
  8
0
  6
Continuous
 62
     7
370
    25
100
AcDbLine
 10
596.7917491025
 20
976.4500610139
 30
0.0
 11
567.4917523092
 21
976.4500610139
 31
0.0
  0
LINE
  5
121
330
1F
100
AcDbEntity
  8
0
  6
Continuous
 62
     7
370
    25
100
AcDbLine
 10
458.1917498535
 20
976.35004442
 30
0.0
 11
458.1917498535
 21
976.4500610139
 31
0.0
  0
LINE
  5
122
330
1F
100
AcDbEntity
  8
0
  6
Continuous
 62
     7
370
    25
100
AcDbLine
 10
487.4917504885
 20
976.4500610139
 30
0.0
 11
458.1917498535
 21
976.4500610139
 31
0.0
  0
LINE
  5
123
330
1F
100
AcDbEntity
  8
0
  6
Continuous
 62
     7
370
    25
100
AcDbLine
 10
487.4917504885
 20
976.35004442
 30
0.0
 11
487.4917504885
 21
976.4500610139
 31
0.0
  0
LINE
  5
124
330
1F
100
AcDbEntity
  8
0
  6
Continuous
 62
     7
370
    25
100
AcDbLine
 10
619.9917543954
 20
976.35004442
 30
0.0
 11
619.9917543954
 21
976.4500610139
 31
0.0
  0
LINE
  5
125
330
1F
100
AcDbEntity
  8
0
  6
Continuous
 62
     7
370
    25
100
AcDbLine
 10
619.9917543954
 20
976.4500610139
 30
0.0
 11
614.9917442626
 21
976.4500610139
 31
0.0
  0
LINE
  5
126
330
1F
100
AcDbEntity
  8
0
  6
Continuous
 62
     7
370
    25
100
AcDbLine
 10
451.7917495495
 20
976.35004442
 30
0.0
 11
451.7917495495
 21
976.4500610139
 31
0.0
  0
LINE
  5
127
330
1F
100
AcDbEntity
  8
0
  6
Continuous
 62
     7
370
    25
100
AcDbLine
 10
422.491749031
 20
976.35004442
 30
0.0
 11
422.491749031
 21
976.4500610139
 31
0.0
  0
LINE
  5
128
330
1F
100
AcDbEntity
  8
0
  6
Continuous
 62
     7
370
    25
100
AcDbLine
 10
451.7917495495
 20
976.4500610139
 30
0.0
 11
422.491749031
 21
976.4500610139
 31
0.0
  0
LINE
  5
129
330
1F
100
AcDbEntity
  8
0
  6
Continuous
 62
     7
370
    25
100
AcDbLine
 10
313.1917465752
 20
976.35004442
 30
0.0
 11
313.1917465752
 21
976.4500610139
 31
0.0
  0
LINE
  5
12A
330
1F
100
AcDbEntity
  8
0
  6
Continuous
 62
     7
370
    25
100
AcDbLine
 10
342.4917508191
 20
976.35004442
 30
0.0
 11
342.4917508191
 21
976.4500610139
 31
0.0
  0
LINE
  5
12B
330
1F
100
AcDbEntity
  8
0
  6
Continuous
 62
     7
370
    25
100
AcDbLine
 10
342.4917508191
 20
976.4500610139
 30
0.0
 11
313.1917465752
 21
976.4500610139
 31
0.0
  0
LINE
  5
12C
330
1F
100
AcDbEntity
  8
0
  6
Continuous
 62
     7
370
    25
100
AcDbLine
 10
306.7917574471
 20
976.35004442
 30
0.0
 11
306.7917574471
 21
976.4500610139
 31
0.0
  0
LINE
  5
12D
330
1F
100
AcDbEntity
  8
0
  6
Continuous
 62
     7
370
    25
100
AcDbLine
 10
306.7917574471
 20
976.4500610139
 30
0.0
 11
294.9917514151
 21
976.4500610139
 31
0.0
  0
LINE
  5
12E
330
1F
100
AcDbEntity
  8
0
  6
Continuous
 62
     7
370
    25
100
AcDbLine
 10
289.9917561835
 20
976.35004442
 30
0.0
 11
289.9917561835
 21
976.4500610139
 31
0.0
  0
LINE
  5
12F
330
1F
100
AcDbEntity
  8
0
  6
Continuous
 62
     7
370
    25
100
AcDbLine
 10
294.9917514151
 20
976.4500610139
 30
0.0
 11
289.9917561835
 21
976.4500610139
 31
0.0
  0
LINE
  5
130
330
1F
100
AcDbEntity
  8
0
  6
Continuous
 62
     7
370
    25
100
AcDbLine
 10
603.1917531318
 20
976.4500610139
 30
0.0
 11
596.7917491025
 21
976.4500610139
 31
0.0
  0
LINE
  5
131
330
1F
100
AcDbEntity
  8
0
  6
Continuous
 62
     7
370
    25
100
AcDbLine
 10
458.1917498535
 20
976.4500610139
 30
0.0
 11
451.7917495495
 21
976.4500610139
 31
0.0
  0
LINE
  5
132
330
1F
100
AcDbEntity
  8
0
  6
Continuous
 62
     7
370
    25
100
AcDbLine
 10
313.1917465752
 20
976.4500610139
 30
0.0
 11
306.7917574471
 21
976.4500610139
 31
0.0
  0
LINE
  5
133
330
1F
100
AcDbEntity
  8
0
  6
Continuous
 62
     7
370
    25
100
AcDbLine
 10
567.4917523092
 20
976.4500610139
 30
0.0
 11
487.4917504885
 21
976.4500610139
 31
0.0
  0
LINE
  5
134
330
1F
100
AcDbEntity
  8
0
  6
Continuous
 62
     7
370
    25
100
AcDbLine
 10
422.491749031
 20
976.4500610139
 30
0.0
 11
342.4917508191
 21
976.4500610139
 31
0.0
  0
ARC
  5
135
330
1F
100
AcDbEntity
  8
0
  6
Continuous
 62
     7
370
    25
100
AcDbCircle
 10
249.9917505425
 20
965.9500506438
 30
0.0
 40
5.000000000000057
100
AcDbArc
 50
0.0
 51
36.6740820725
  0
LINE
  5
136
330
1F
100
AcDbEntity
  8
0
  6
Continuous
 62
     7
370
    25
100
AcDbLine
 10
254.9917448586
 20
965.9500471856
 30
0.0
 11
254.9917448586
 21
953.9500526693
 31
0.0
  0
ARC
  5
137
330
1F
100
AcDbEntity
  8
0
  6
Continuous
 62
     7
370
    25
100
AcDbCircle
 10
249.9917505425
 20
953.9500506438
 30
0.0
 40
5.000000000000092
100
AcDbArc
 50
273.5546181404
 51
360.0
  0
ARC
  5
138
330
1F
100
AcDbEntity
  8
0
  6
Continuous
 62
     7
370
    25
100
AcDbCircle
 10
659.9917505425
 20
953.9500506438
 30
0.0
 40
5.000000000000154
100
AcDbArc
 50
180.0
 51
266.4453818596
  0
LINE
  5
139
330
1F
100
AcDbEntity
  8
0
  6
Continuous
 62
     7
370
    25
100
AcDbLine
 10
654.9917508191
 20
953.9500526693
 30
0.0
 11
654.9917508191
 21
965.9500471856
 31
0.0
  0
ARC
  5
13A
330
1F
100
AcDbEntity
  8
0
  6
Continuous
 62
     7
370
    25
100
AcDbCircle
 10
659.9917505425
 20
965.9500506438
 30
0.0
 40
5.000000000000052
100
AcDbArc
 50
143.3259179562
 51
180.0
  0
CIRCLE
  5
13B
330
1F
100
AcDbEntity
  8
0
  6
Continuous
 62
     7
370
    25
100
AcDbCircle
 10
454.9917505425
 20
624.1000506484
 30
0.0
 40
19.0
  0
SPLINE
  5
13C
330
1F
100
AcDbEntity
  8
0
  6
Continuous
 62
     7
370
    25
100
AcDbSpline
210
0.0
220
0.0
230
1.0
 70
     8
 71
     3
 72
    12
 73
     8
 74
     0
 42
0.000000001
 43
0.00000001
 40
0.0
 40
0.0
 40
0.0
 40
0.0
 40
0.21103495027098
 40
0.4419752007086409
 40
0.6729397619301997
 40
0.9039040972087996
 40
1.0
 40
1.0
 40
1.0
 40
1.0
 10
651.491751176728
 20
332.1000389363541
 30
0.0
 10
651.592245264371
 20
331.8460556723071
 30
0.0
 10
651.8027122723194
 20
331.3141328606611
 30
0.0
 10
652.1236481947817
 20
330.5949569711673
 30
0.0
 10
652.453720991809
 20
330.0542954388675
 30
0.0
 10
652.7202249121874
 20
329.8233144895453
 30
0.0
 10
652.8754368337039
 20
329.8053291168095
 30
0.0
 10
652.9210407561195
 20
329.8000447060837
 30
0.0
  0
SPLINE
  5
13D
330
1F
100
AcDbEntity
  8
0
  6
Continuous
 62
     7
370
    25
100
AcDbSpline
210
0.0
220
0.0
230
1.0
 70
     8
 71
     3
 72
    11
 73
     7
 74
     0
 42
0.000000001
 43
0.00000001
 40
0.0
 40
0.0
 40
0.0
 40
0.0
 40
0.2512765799681928
 40
0.5027609750782445
 40
0.7542455504474073
 40
1.0
 40
1.0
 40
1.0
 40
1.0
 10
651.491751176728
 20
332.1000389363541
 30
0.0
 10
651.6114787674057
 20
331.9024739075934
 30
0.0
 10
651.8510329679627
 20
331.5071804563947
 30
0.0
 10
652.210382738568
 20
331.0094771864989
 30
0.0
 10
652.5671422058157
 20
330.665931716902
 30
0.0
 10
652.8039843533173
 20
330.6218467276772
 30
0.0
 10
652.9210407561195
 20
330.6000582482589
 30
0.0
  0
LINE
  5
13E
330
1F
100
AcDbEntity
  8
0
  6
Continuous
 62
     7
370
    25
100
AcDbLine
 10
652.9210407561
 20
329.8000447061
 30
0.0
 11
652.9210407561
 21
330.6000582483
 31
0.0
  0
SPLINE
  5
13F
330
1F
100
AcDbEntity
  8
0
  6
Continuous
 62
     7
370
    25
100
AcDbSpline
210
0.0
220
0.0
230
1.0
 70
     8
 71
     3
 72
    12
 73
     8
 74
     0
 42
0.000000001
 43
0.00000001
 40
0.0
 40
0.0
 40
0.0
 40
0.0
 40
0.2110425034317081
 40
0.4419770569307538
 40
0.6729366600187991
 40
0.9039052908291261
 40
0.9999999999999999
 40
0.9999999999999999
 40
0.9999999999999999
 40
0.9999999999999999
 10
257.0624549216162
 20
329.8000447060837
 30
0.0
 10
257.1629473327363
 20
329.8246919246783
 30
0.0
 10
257.3734041809471
 20
329.8763095133579
 30
0.0
 10
257.6943553632801
 20
330.2969919011608
 30
0.0
 10
258.0244239295321
 20
330.943976628966
 30
0.0
 10
258.2909512264649
 20
331.5925450893467
 30
0.0
 10
258.4461464759688
 20
331.984792461114
 30
0.0
 10
258.4917445010076
 20
332.100038936354
 30
0.0
  0
LINE
  5
140
330
1F
100
AcDbEntity
  8
0
  6
Continuous
 62
     7
370
    25
100
AcDbLine
 10
257.0624549216
 20
329.8000447061
 30
0.0
 11
257.0624549216
 21
330.6000582483
 31
0.0
  0
SPLINE
  5
141
330
1F
100
AcDbEntity
  8
0
  6
Continuous
 62
     7
370
    25
100
AcDbSpline
210
0.0
220
0.0
230
1.0
 70
     8
 71
     3
 72
    11
 73
     7
 74
     0
 42
0.000000001
 43
0.00000001
 40
0.0
 40
0.0
 40
0.0
 40
0.0
 40
0.2512856752950275
 40
0.5027700724292677
 40
0.7542574808477926
 40
1.0
 40
1.0
 40
1.0
 40
1.0
 10
257.0624549216162
 20
330.600058248259
 30
0.0
 10
257.1821816626589
 20
330.6228360186777
 30
0.0
 10
257.421729827094
 20
330.6684095726408
 30
0.0
 10
257.7810850327523
 20
331.0190506163283
 30
0.0
 10
258.1378565885671
 20
331.5159986375452
 30
0.0
 10
258.3746939865717
 20
331.9068641625805
 30
0.0
 10
258.4917445010077
 20
332.1000389363541
 30
0.0
  0
LINE
  5
142
330
1F
100
AcDbEntity
  8
0
  6
Continuous
 62
     7
370
    25
100
AcDbLine
 10
577.9917512363
 20
329.8000447061
 30
0.0
 11
652.9210407561
 21
329.8000447061
 31
0.0
  0
LINE
  5
143
330
1F
100
AcDbEntity
  8
0
  6
Continuous
 62
     7
370
    25
100
AcDbLine
 10
577.9917512363
 20
329.8000447061
 30
0.0
 11
577.9917512363
 21
332.1000389364
 31
0.0
  0
SPLINE
  5
144
330
1F
100
AcDbEntity
  8
0
  6
Continuous
 62
     7
370
    25
100
AcDbSpline
210
0.0
220
0.0
230
1.0
 70
     8
 71
     3
 72
    12
 73
     8
 74
     0
 42
0.000000001
 43
0.00000001
 40
0.0
 40
0.0
 40
0.0
 40
0.0
 40
0.211042840644946
 40
0.4419768526506383
 40
0.6729372394288576
 40
0.9039019453625109
 40
1.0
 40
1.0
 40
1.0
 40
1.0
 10
653.7917454069984
 20
330.6707493569626
 30
0.0
 10
653.7671042487425
 20
330.7712473968466
 30
0.0
 10
653.7154994582729
 20
330.9817155995573
 30
0.0
 10
653.2948155071409
 20
331.3026712360877
 30
0.0
 10
652.6478125286021
 20
331.6327069179403
 30
0.0
 10
651.9992539573731
 20
331.8992537054537
 30
0.0
 10
651.6070029396283
 20
332.0544414486
 30
0.0
 10
651.491751176728
 20
332.1000389363541
 30
0.0
  0
LINE
  5
145
330
1F
100
AcDbEntity
  8
0
  6
Continuous
 62
     7
370
    25
100
AcDbLine
 10
653.791745407
 20
330.670749357
 30
0.0
 11
652.991746766
 21
330.670749357
 31
0.0
  0
SPLINE
  5
146
330
1F
100
AcDbEntity
  8
0
  6
Continuous
 62
     7
370
    25
100
AcDbSpline
210
0.0
220
0.0
230
1.0
 70
     8
 71
     3
 72
    11
 73
     7
 74
     0
 42
0.000000001
 43
0.00000001
 40
0.0
 40
0.0
 40
0.0
 40
0.0
 40
0.2512860338539671
 40
0.5027701226931255
 40
0.754260849561807
 40
1.0
 40
1.0
 40
1.0
 40
1.0
 10
652.9917467659843
 20
330.6707493569626
 30
0.0
 10
652.9689609332469
 20
330.7904742394953
 30
0.0
 10
652.9233713087646
 20
331.030018367584
 30
0.0
 10
652.5727611405287
 20
331.3894025712073
 30
0.0
 10
652.0757941181016
 20
331.7461626003411
 30
0.0
 10
651.6849250653732
 20
331.9829933167864
 30
0.0
 10
651.491751176728
 20
332.1000389363541
 30
0.0
  0
LINE
  5
147
330
1F
100
AcDbEntity
  8
0
  6
Continuous
 62
     7
370
    25
100
AcDbLine
 10
653.791745407
 20
330.670749357
 30
0.0
 11
653.791745407
 21
841.4000473525
 31
0.0
  0
LINE
  5
148
330
1F
100
AcDbEntity
  8
0
  6
Continuous
 62
     7
370
    25
100
AcDbLine
 10
651.4917511767
 20
841.4000473525
 30
0.0
 11
653.791745407
 21
841.4000473525
 31
0.0
  0
SPLINE
  5
149
330
1F
100
AcDbEntity
  8
0
  6
Continuous
 62
     7
370
    25
100
AcDbSpline
210
0.0
220
0.0
230
1.0
 70
     8
 71
     3
 72
    12
 73
     8
 74
     0
 42
0.000000001
 43
0.00000001
 40
0.0
 40
0.0
 40
0.0
 40
0.0
 40
0.2110329274759269
 40
0.4419756391027478
 40
0.672940966823112
 40
0.9039032215224617
 40
1.0
 40
1.0
 40
1.0
 40
1.0
 10
258.4917445010077
 20
332.1000389363541
 30
0.0
 10
258.2377615666344
 20
331.9995499653622
 30
0.0
 10
257.7058338192284
 20
331.7890914473094
 30
0.0
 10
256.986645154261
 20
331.4681651875719
 30
0.0
 10
256.4459937858773
 20
331.1380570171227
 30
0.0
 10
256.2149935936286
 20
330.871590306155
 30
0.0
 10
256.1970287246529
 20
330.7163594317202
 30
0.0
 10
256.1917502707373
 20
330.6707493569625
 30
0.0
  0
SPLINE
  5
14A
330
1F
100
AcDbEntity
  8
0
  6
Continuous
 62
     7
370
    25
100
AcDbSpline
210
0.0
220
0.0
230
1.0
 70
     8
 71
     3
 72
    11
 73
     7
 74
     0
 42
0.000000001
 43
0.00000001
 40
0.0
 40
0.0
 40
0.0
 40
0.0
 40
0.2512804025616269
 40
0.5027612421113502
 40
0.7542453693433401
 40
1.0
 40
1.0
 40
1.0
 40
1.0
 10
258.4917445010077
 20
332.1000389363541
 30
0.0
 10
258.2941750928752
 20
331.980310258872
 30
0.0
 10
257.8988786828754
 20
331.7407574008151
 30
0.0
 10
257.4011579710653
 20
331.3814295012418
 30
0.0
 10
257.0576464947734
 20
331.0246416398861
 30
0.0
 10
257.0135453858875
 20
330.7878037865482
 30
0.0
 10
256.9917489117514
 20
330.6707493569625
 30
0.0
  0
LINE
  5
14B
330
1F
100
AcDbEntity
  8
0
  6
Continuous
 62
     7
370
    25
100
AcDbLine
 10
256.1917502707
 20
330.670749357
 30
0.0
 11
256.9917489118
 21
330.670749357
 31
0.0
  0
LINE
  5
14C
330
1F
100
AcDbEntity
  8
0
  6
Continuous
 62
     7
370
    25
100
AcDbLine
 10
286.1917514628
 20
846.4000574853
 30
0.0
 11
286.1917514628
 21
864.0455208328
 31
0.0
  0
LINE
  5
14D
330
1F
100
AcDbEntity
  8
0
  6
Continuous
 62
     7
370
    25
100
AcDbLine
 10
286.1917514628
 20
880.6000254657
 30
0.0
 11
286.1917514628
 21
894.7299472596
 31
0.0
  0
LINE
  5
14E
330
1F
100
AcDbEntity
  8
0
  6
Continuous
 62
     7
370
    25
100
AcDbLine
 10
623.7917442149
 20
894.7299472596
 30
0.0
 11
623.7917442149
 21
880.6000254657
 31
0.0
  0
LINE
  5
14F
330
1F
100
AcDbEntity
  8
0
  6
Continuous
 62
     7
370
    25
100
AcDbLine
 10
623.7917442149
 20
864.0455208328
 30
0.0
 11
623.7917442149
 21
846.4000574853
 31
0.0
  0
ARC
  5
150
330
1F
100
AcDbEntity
  8
0
  6
Continuous
 62
     7
370
    25
100
AcDbCircle
 10
628.7917505425
 20
846.4000506484
 30
0.0
 40
5.0
100
AcDbArc
 50
180.0
 51
270.0
  0
LINE
  5
151
330
1F
100
AcDbEntity
  8
0
  6
Continuous
 62
     7
370
    25
100
AcDbLine
 10
527.9917504913
 20
422.7179191615
 30
0.0
 11
527.9917504913
 21
332.1000389364
 31
0.0
  0
ARC
  5
152
330
1F
100
AcDbEntity
  8
0
  6
Continuous
 62
     7
370
    25
100
AcDbCircle
 10
535.0738755765
 20
422.7179256144
 30
0.0
 40
7.082125034033538
100
AcDbArc
 50
90.0
 51
180.0
  0
LINE
  5
153
330
1F
100
AcDbEntity
  8
0
  6
Continuous
 62
     7
370
    25
100
AcDbLine
 10
381.9917489118
 20
332.1000389364
 30
0.0
 11
381.9917489118
 21
422.7179191615
 31
0.0
  0
ARC
  5
154
330
1F
100
AcDbEntity
  8
0
  6
Continuous
 62
     7
370
    25
100
AcDbCircle
 10
281.1917505425
 20
846.4000506484
 30
0.0
 40
5.0
100
AcDbArc
 50
270.0
 51
0.0
  0
LINE
  5
155
330
1F
100
AcDbEntity
  8
0
  6
Continuous
 62
     7
370
    25
100
AcDbLine
 10
258.491744501
 20
841.4000473525
 30
0.0
 11
281.1917562312
 21
841.4000473525
 31
0.0
  0
LINE
  5
156
330
1F
100
AcDbEntity
  8
0
  6
Continuous
 62
     7
370
    25
100
AcDbLine
 10
570.9096242017
 20
429.8000536468
 30
0.0
 11
535.0738738006
 21
429.8000536468
 31
0.0
  0
LINE
  5
157
330
1F
100
AcDbEntity
  8
0
  6
Continuous
 62
     7
370
    25
100
AcDbLine
 10
628.7917543477
 20
841.4000473525
 30
0.0
 11
651.4917511767
 21
841.4000473525
 31
0.0
  0
LINE
  5
158
330
1F
100
AcDbEntity
  8
0
  6
Continuous
 62
     7
370
    25
100
AcDbLine
 10
374.9096218771
 20
429.8000536468
 30
0.0
 11
339.0738714761
 21
429.8000536468
 31
0.0
  0
ARC
  5
159
330
1F
100
AcDbEntity
  8
0
  6
Continuous
 62
     7
370
    25
100
AcDbCircle
 10
339.0738755765
 20
422.7179256144
 30
0.0
 40
7.082125034033595
100
AcDbArc
 50
90.0
 51
180.0
  0
LINE
  5
15A
330
1F
100
AcDbEntity
  8
0
  6
Continuous
 62
     7
370
    25
100
AcDbLine
 10
331.991751892
 20
422.7179191615
 30
0.0
 11
331.991751892
 21
332.1000389364
 31
0.0
  0
ARC
  5
15B
330
1F
100
AcDbEntity
  8
0
  6
Continuous
 62
     7
370
    25
100
AcDbCircle
 10
374.9096255084
 20
422.7179256144
 30
0.0
 40
7.082125034033481
100
AcDbArc
 50
0.0
 51
90.0
  0
LINE
  5
15C
330
1F
100
AcDbEntity
  8
0
  6
Continuous
 62
     7
370
    25
100
AcDbLine
 10
577.9917512363
 20
332.1000389364
 30
0.0
 11
577.9917512363
 21
422.7179191615
 31
0.0
  0
ARC
  5
15D
330
1F
100
AcDbEntity
  8
0
  6
Continuous
 62
     7
370
    25
100
AcDbCircle
 10
570.9096255084
 20
422.7179256144
 30
0.0
 40
7.082125034033538
100
AcDbArc
 50
0.0
 51
90.0
  0
LINE
  5
15E
330
1F
100
AcDbEntity
  8
0
  6
Continuous
 62
     7
370
    25
100
AcDbLine
 10
381.9917489118
 20
329.8000447061
 30
0.0
 11
527.9917504913
 21
329.8000447061
 31
0.0
  0
LINE
  5
15F
330
1F
100
AcDbEntity
  8
0
  6
Continuous
 62
     7
370
    25
100
AcDbLine
 10
527.9917504913
 20
332.1000389364
 30
0.0
 11
527.9917504913
 21
329.8000447061
 31
0.0
  0
LINE
  5
160
330
1F
100
AcDbEntity
  8
0
  6
Continuous
 62
     7
370
    25
100
AcDbLine
 10
381.9917489118
 20
329.8000447061
 30
0.0
 11
381.9917489118
 21
332.1000389364
 31
0.0
  0
LINE
  5
161
330
1F
100
AcDbEntity
  8
0
  6
Continuous
 62
     7
370
    25
100
AcDbLine
 10
257.0624549216
 20
329.8000447061
 30
0.0
 11
331.991751892
 21
329.8000447061
 31
0.0
  0
LINE
  5
162
330
1F
100
AcDbEntity
  8
0
  6
Continuous
 62
     7
370
    25
100
AcDbLine
 10
331.991751892
 20
332.1000389364
 30
0.0
 11
331.991751892
 21
329.8000447061
 31
0.0
  0
LINE
  5
163
330
1F
100
AcDbEntity
  8
0
  6
Continuous
 62
     7
370
    25
100
AcDbLine
 10
256.1917502707
 20
841.4000473525
 30
0.0
 11
256.1917502707
 21
330.670749357
 31
0.0
  0
LINE
  5
164
330
1F
100
AcDbEntity
  8
0
  6
Continuous
 62
     7
370
    25
100
AcDbLine
 10
256.1917502707
 20
841.4000473525
 30
0.0
 11
258.491744501
 21
841.4000473525
 31
0.0
  0
LINE
  5
165
330
1F
100
AcDbEntity
  8
0
  6
Continuous
 62
     7
370
    25
100
AcDbLine
 10
625.4712689942
 20
842.6618180778
 30
0.0
 11
626.591746909
 21
842.6618180778
 31
0.0
  0
LINE
  5
166
330
1F
100
AcDbEntity
  8
0
  6
Continuous
 62
     7
370
    25
100
AcDbLine
 10
626.591746909
 20
842.6618180778
 30
0.0
 11
626.591746909
 21
841.9100544956
 31
0.0
  0
LINE
  5
167
330
1F
100
AcDbEntity
  8
0
  6
Continuous
 62
     7
370
    25
100
AcDbLine
 10
283.3917487687
 20
842.6618180778
 30
0.0
 11
283.3917487687
 21
841.9100544956
 31
0.0
  0
LINE
  5
168
330
1F
100
AcDbEntity
  8
0
  6
Continuous
 62
     7
370
    25
100
AcDbLine
 10
283.3917487687
 20
842.6618180778
 30
0.0
 11
284.5122266835
 21
842.6618180778
 31
0.0
  0
LWPOLYLINE
  5
169
330
1F
100
AcDbEntity
  8
0
  6
Continuous
 62
     7
370
    25
100
AcDbPolyline
 90
       17
 70
   128
 43
0.0
 10
352.8917480534
 20
267.0924715307
 10
351.9350488013
 20
267.0028261449
 10
351.1239785975
 20
266.7475692537
 10
350.5820531672
 20
266.3655630853
 10
350.3917504376
 20
265.9149221685
 10
350.5820531672
 20
265.464311054
 10
351.1239785975
 20
265.0822750833
 10
351.9350488013
 20
264.8270479944
 10
352.8917480534
 20
264.7374026086
 10
353.8484622067
 20
264.8270479944
 10
354.6595175094
 20
265.0822750833
 10
355.2014429397
 20
265.464311054
 10
355.3917456693
 20
265.9149221685
 10
355.2014429397
 20
266.3655630853
 10
354.6595175094
 20
266.7475692537
 10
353.8484622067
 20
267.0028261449
 10
352.8917480534
 20
267.0924715307
  0
LWPOLYLINE
  5
16A
330
1F
100
AcDbEntity
  8
0
  6
Continuous
 62
     7
370
    25
100
AcDbPolyline
 90
       17
 70
   128
 43
0.0
 10
360.0917507237
 20
267.0924715307
 10
361.0484574264
 20
267.0028261449
 10
361.8595201796
 20
266.7475692537
 10
362.4014530605
 20
266.3655630853
 10
362.5917483395
 20
265.9149221685
 10
362.4014530605
 20
265.464311054
 10
361.8595201796
 20
265.0822750833
 10
361.0484574264
 20
264.8270479944
 10
360.0917507237
 20
264.7374026086
 10
359.1350365704
 20
264.8270479944
 10
358.3239812678
 20
265.0822750833
 10
357.7820558375
 20
265.464311054
 10
357.5917531079
 20
265.9149221685
 10
357.7820558375
 20
266.3655630853
 10
358.3239812678
 20
266.7475692537
 10
359.1350365704
 20
267.0028261449
 10
360.0917507237
 20
267.0924715307
  0
LWPOLYLINE
  5
16B
330
1F
100
AcDbEntity
  8
0
  6
Continuous
 62
     7
370
    25
100
AcDbPolyline
 90
       17
 70
   128
 43
0.0
 10
549.8917524046
 20
267.0924715307
 10
548.9350382513
 20
267.0028261449
 10
548.1239829487
 20
266.7475692537
 10
547.5820500678
 20
266.3655630853
 10
547.3917510635
 20
265.9149221685
 10
547.5820500678
 20
265.464311054
 10
548.1239829487
 20
265.0822750833
 10
548.9350382513
 20
264.8270479944
 10
549.8917524046
 20
264.7374026086
 10
550.8484591073
 20
264.8270479944
 10
551.6595144099
 20
265.0822750833
 10
552.2014472908
 20
265.464311054
 10
552.3917500204
 20
265.9149221685
 10
552.2014472908
 20
266.3655630853
 10
551.6595144099
 20
266.7475692537
 10
550.8484591073
 20
267.0028261449
 10
549.8917524046
 20
267.0924715307
  0
LWPOLYLINE
  5
16C
330
1F
100
AcDbEntity
  8
0
  6
Continuous
 62
     7
370
    25
100
AcDbPolyline
 90
       17
 70
   128
 43
0.0
 10
557.0917476243
 20
267.0924715307
 10
558.0484617776
 20
267.0028261449
 10
558.8595170802
 20
266.7475692537
 10
559.4014499611
 20
266.3655630853
 10
559.5917526907
 20
265.9149221685
 10
559.4014499611
 20
265.464311054
 10
558.8595170802
 20
265.0822750833
 10
558.0484617776
 20
264.8270479944
 10
557.0917476243
 20
264.7374026086
 10
556.1350409216
 20
264.8270479944
 10
555.323985619
 20
265.0822750833
 10
554.7820527381
 20
265.464311054
 10
554.5917500085
 20
265.9149221685
 10
554.7820527381
 20
266.3655630853
 10
555.323985619
 20
266.7475692537
 10
556.1350409216
 20
267.0028261449
 10
557.0917476243
 20
267.0924715307
  0
LINE
  5
16D
330
1F
100
AcDbEntity
  8
0
  6
Continuous
 62
     7
370
    25
100
AcDbLine
 10
679.9917567796
 20
976.35004442
 30
0.0
 11
229.9917537993
 21
976.35004442
 31
0.0
  0
LINE
  5
16E
330
1F
100
AcDbEntity
  8
0
  6
Continuous
 62
     7
370
    25
100
AcDbLine
 10
229.9917537993
 20
976.35004442
 30
0.0
 11
229.9917537993
 21
973.7694613244
 31
0.0
  0
LINE
  5
16F
330
1F
100
AcDbEntity
  8
0
  6
Continuous
 62
     7
370
    25
100
AcDbLine
 10
679.9917567796
 20
976.35004442
 30
0.0
 11
679.9917567796
 21
973.7694613244
 31
0.0
  0
ARC
  5
170
330
1F
100
AcDbEntity
  8
0
  6
Continuous
 62
     7
370
    25
100
AcDbCircle
 10
479.4753147727
 20
945.4498840373
 30
0.0
 40
5.000674570965286
100
AcDbArc
 50
275.5342065683
 51
331.7848452618
  0
LINE
  5
171
330
1F
100
AcDbEntity
  8
0
  6
Continuous
 62
     7
370
    25
100
AcDbLine
 10
483.8818013477
 20
943.0856458452
 30
0.0
 11
493.7970556593
 21
961.9211904313
 31
0.0
  0
ARC
  5
172
330
1F
100
AcDbEntity
  8
0
  6
Continuous
 62
     7
370
    25
100
AcDbCircle
 10
489.473976718
 20
964.1004132764
 30
0.0
 40
4.841283274263747
100
AcDbArc
 50
333.2477629597
 51
91.584255578
  0
LINE
  5
173
330
1F
100
AcDbEntity
  8
0
  6
Continuous
 62
     7
370
    25
100
AcDbLine
 10
489.3401299878
 20
968.9398459699
 30
0.0
 11
430.5586267537
 21
968.9398459699
 31
0.0
  0
ARC
  5
174
330
1F
100
AcDbEntity
  8
0
  6
Continuous
 62
     7
370
    25
100
AcDbCircle
 10
430.5227259323
 20
963.9188430426
 30
0.0
 40
5.021131273422227
100
AcDbArc
 50
89.5903347354
 51
151.7007928645
  0
LINE
  5
175
330
1F
100
AcDbEntity
  8
0
  6
Continuous
 62
     7
370
    25
100
AcDbLine
 10
426.1017006165
 20
966.2992409971
 30
0.0
 11
416.1864418811
 21
947.4636666085
 31
0.0
  0
ARC
  5
176
330
1F
100
AcDbEntity
  8
0
  6
Continuous
 62
     7
370
    25
100
AcDbCircle
 10
420.4856287291
 20
945.2799239167
 30
0.0
 40
4.822005775435864
100
AcDbArc
 50
153.0720177099
 51
265.5401848059
  0
ARC
  5
177
330
1F
100
AcDbEntity
  8
0
  6
Continuous
 62
     7
370
    25
100
AcDbCircle
 10
399.4602357649
 20
945.4500567633
 30
0.0
 40
5.000852858473402
100
AcDbArc
 50
275.534768521
 51
331.7367978536
  0
LINE
  5
178
330
1F
100
AcDbEntity
  8
0
  6
Continuous
 62
     7
370
    25
100
AcDbLine
 10
403.8648952073
 20
943.0820397641
 30
0.0
 11
413.8006467646
 21
961.9176141526
 31
0.0
  0
ARC
  5
179
330
1F
100
AcDbEntity
  8
0
  6
Continuous
 62
     7
370
    25
100
AcDbCircle
 10
409.4795191929
 20
964.1005047811
 30
0.0
 40
4.841193549886857
100
AcDbArc
 50
333.1986052907
 51
91.5850321792
  0
LINE
  5
17A
330
1F
100
AcDbEntity
  8
0
  6
Continuous
 62
     7
370
    25
100
AcDbLine
 10
409.3456093496
 20
968.9398459699
 30
0.0
 11
254.1917462176
 21
968.9398459699
 31
0.0
  0
ARC
  5
17B
330
1F
100
AcDbEntity
  8
0
  6
Continuous
 62
     7
370
    25
100
AcDbCircle
 10
254.1080366039
 20
964.0235086639
 30
0.0
 40
4.917049908794834
100
AcDbArc
 50
89.0245290632
 51
178.9897699381
  0
LINE
  5
17C
330
1F
100
AcDbEntity
  8
0
  6
Continuous
 62
     7
370
    25
100
AcDbLine
 10
249.191750986
 20
964.110200813
 30
0.0
 11
249.191750986
 21
945.2746562269
 31
0.0
  0
ARC
  5
17D
330
1F
100
AcDbEntity
  8
0
  6
Continuous
 62
     7
370
    25
100
AcDbCircle
 10
254.0863988973
 20
945.3490419365
 30
0.0
 40
4.895213111756861
100
AcDbArc
 50
180.8706773656
 51
264.9916773531
  0
LINE
  5
17E
330
1F
100
AcDbEntity
  8
0
  6
Continuous
 62
     7
370
    25
100
AcDbLine
 10
229.9917537993
 20
973.7694613244
 30
0.0
 11
229.9917537993
 21
940.4725186136
 31
0.0
  0
LINE
  5
17F
330
1F
100
AcDbEntity
  8
0
  6
Continuous
 62
     7
370
    25
100
AcDbLine
 10
679.9917567796
 20
973.7694613244
 30
0.0
 11
679.9917567796
 21
940.4725186136
 31
0.0
  0
ARC
  5
180
330
1F
100
AcDbEntity
  8
0
  6
Continuous
 62
     7
370
    25
100
AcDbCircle
 10
655.897105401
 20
945.3490339171
 30
0.0
 40
4.895204370358305
100
AcDbArc
 50
275.0082303276
 51
359.1294149537
  0
LINE
  5
181
330
1F
100
AcDbEntity
  8
0
  6
Continuous
 62
     7
370
    25
100
AcDbLine
 10
660.7917446917
 20
945.2746562269
 30
0.0
 11
660.7917446917
 21
964.110200813
 31
0.0
  0
ARC
  5
182
330
1F
100
AcDbEntity
  8
0
  6
Continuous
 62
     7
370
    25
100
AcDbCircle
 10
655.8754819032
 20
964.0235322985
 30
0.0
 40
4.91702666631238
100
AcDbArc
 50
1.0099593919
 51
90.9757416068
  0
LINE
  5
183
330
1F
100
AcDbEntity
  8
0
  6
Continuous
 62
     7
370
    25
100
AcDbLine
 10
655.7917494601
 20
968.9398459699
 30
0.0
 11
510.5712555623
 21
968.9398459699
 31
0.0
  0
ARC
  5
184
330
1F
100
AcDbEntity
  8
0
  6
Continuous
 62
     7
370
    25
100
AcDbCircle
 10
510.5353730953
 20
963.9187534102
 30
0.0
 40
5.021220772369396
100
AcDbArc
 50
89.5905514798
 51
151.6538235869
  0
LINE
  5
185
330
1F
100
AcDbEntity
  8
0
  6
Continuous
 62
     7
370
    25
100
AcDbLine
 10
506.1162218726
 20
966.3028172757
 30
0.0
 11
496.1804759032
 21
947.4672726896
 31
0.0
  0
ARC
  5
186
330
1F
100
AcDbEntity
  8
0
  6
Continuous
 62
     7
370
    25
100
AcDbCircle
 10
500.4776948587
 20
945.27984505
 30
0.0
 40
4.821921860677231
100
AcDbArc
 50
153.0223897182
 51
265.5409174225
  0
LWPOLYLINE
  5
187
330
1F
100
AcDbEntity
  8
0
  6
Continuous
 62
     7
370
    25
100
AcDbPolyline
 90
        3
 70
   128
 43
0.0
 10
493.7970556593
 20
962.1282569673
 10
494.224740406
 20
963.2856897619
 10
494.3389810896
 20
964.213734081
  0
LWPOLYLINE
  5
188
330
1F
100
AcDbEntity
  8
0
  6
Continuous
 62
     7
370
    25
100
AcDbPolyline
 90
        3
 70
   128
 43
0.0
 10
413.8006467646
 20
962.1246508863
 10
414.2294425792
 20
963.2822326925
 10
414.3444646424
 20
964.213734081
  0
LINE
  5
189
330
1F
100
AcDbEntity
  8
0
  6
Continuous
 62
     7
370
    25
100
AcDbLine
 10
483.8818013477
 20
943.2927123811
 30
0.0
 11
493.7970556593
 21
962.1282569673
 31
0.0
  0
LINE
  5
18A
330
1F
100
AcDbEntity
  8
0
  6
Continuous
 62
     7
370
    25
100
AcDbLine
 10
403.8648952073
 20
943.2891063001
 30
0.0
 11
413.8006467646
 21
962.1246508863
 31
0.0
  0
LINE
  5
18B
330
1F
100
AcDbEntity
  8
0
  6
Continuous
 62
     7
370
    25
100
AcDbLine
 10
500.6355086616
 20
940.4450408723
 30
0.0
 11
500.1028042561
 21
940.4725186136
 31
0.0
  0
ARC
  5
18C
330
1F
100
AcDbEntity
  8
0
  6
Continuous
 62
     7
370
    25
100
AcDbCircle
 10
500.6354305367
 20
945.8224304757
 30
0.0
 40
5.170352870305219
100
AcDbArc
 50
264.0871592588
 51
270.000865749
  0
ARC
  5
18D
330
1F
100
AcDbEntity
  8
0
  6
Continuous
 62
     7
370
    25
100
AcDbCircle
 10
500.5326495404
 20
945.5600618283
 30
0.0
 40
4.899369304369694
100
AcDbArc
 50
182.1273986958
 51
264.9666937277
  0
LINE
  5
18E
330
1F
100
AcDbEntity
  8
0
  6
Continuous
 62
     7
370
    25
100
AcDbLine
 10
420.6433717436
 20
940.4450408723
 30
0.0
 11
420.1106701321
 21
940.4725186136
 31
0.0
  0
ARC
  5
18F
330
1F
100
AcDbEntity
  8
0
  6
Continuous
 62
     7
370
    25
100
AcDbCircle
 10
420.6432922626
 20
945.822350116
 30
0.0
 40
5.170272510629012
100
AcDbArc
 50
264.0871132654
 51
270.0008807897
  0
ARC
  5
190
330
1F
100
AcDbEntity
  8
0
  6
Continuous
 62
     7
370
    25
100
AcDbCircle
 10
420.5405464848
 20
945.5600981528
 30
0.0
 40
4.899408214673926
100
AcDbArc
 50
182.1278068801
 51
264.9663690708
  0
LINE
  5
191
330
1F
100
AcDbEntity
  8
0
  6
Continuous
 62
     7
370
    25
100
AcDbLine
 10
254.1917462176
 20
940.4450408723
 30
0.0
 11
253.6590446061
 21
940.4725186136
 31
0.0
  0
ARC
  5
192
330
1F
100
AcDbEntity
  8
0
  6
Continuous
 62
     7
370
    25
100
AcDbCircle
 10
254.1916700616
 20
945.8224145058
 30
0.0
 40
5.170336900468491
100
AcDbArc
 50
264.0871501223
 51
270.0008439328
  0
ARC
  5
193
330
1F
100
AcDbEntity
  8
0
  6
Continuous
 62
     7
370
    25
100
AcDbCircle
 10
254.0863798497
 20
945.556090753
 30
0.0
 40
4.895193797097344
100
AcDbArc
 50
180.8704733798
 51
264.9918813389
  0
LINE
  5
194
330
1F
100
AcDbEntity
  8
0
  6
Continuous
 62
     7
370
    25
100
AcDbLine
 10
656.3244510716
 20
940.4725186136
 30
0.0
 11
655.7917494601
 21
940.4450408723
 31
0.0
  0
ARC
  5
195
330
1F
100
AcDbEntity
  8
0
  6
Continuous
 62
     7
370
    25
100
AcDbCircle
 10
655.7918256161
 20
945.8224145058
 30
0.0
 40
5.170336900468491
100
AcDbArc
 50
269.9991560672
 51
275.9128498777
  0
ARC
  5
196
330
1F
100
AcDbEntity
  8
0
  6
Continuous
 62
     7
370
    25
100
AcDbCircle
 10
655.8971244486
 20
945.5560827335
 30
0.0
 40
4.89518505572674
100
AcDbArc
 50
275.008026341
 51
359.1296189403
  0
LINE
  5
197
330
1F
100
AcDbEntity
  8
0
  6
Continuous
 62
     7
370
    25
100
AcDbLine
 10
479.9575798488
 20
940.4725186136
 30
0.0
 11
479.424875909
 21
940.4450408723
 31
0.0
  0
ARC
  5
198
330
1F
100
AcDbEntity
  8
0
  6
Continuous
 62
     7
370
    25
100
AcDbCircle
 10
479.4249544961
 20
945.8224125082
 30
0.0
 40
5.17033490285376
100
AcDbArc
 50
269.999129126
 51
275.9128510249
  0
ARC
  5
199
330
1F
100
AcDbEntity
  8
0
  6
Continuous
 62
     7
370
    25
100
AcDbCircle
 10
479.4753563053
 20
945.6568882022
 30
0.0
 40
5.000608485393561
100
AcDbArc
 50
275.5338018342
 51
331.785249996
  0
LINE
  5
19A
330
1F
100
AcDbEntity
  8
0
  6
Continuous
 62
     7
370
    25
100
AcDbLine
 10
399.9425668544
 20
940.4725186136
 30
0.0
 11
399.4098652429
 21
940.4450408723
 31
0.0
  0
ARC
  5
19B
330
1F
100
AcDbEntity
  8
0
  6
Continuous
 62
     7
370
    25
100
AcDbCircle
 10
399.4099413988
 20
945.8224145058
 30
0.0
 40
5.170336900468491
100
AcDbArc
 50
269.9991560672
 51
275.9128498777
  0
ARC
  5
19C
330
1F
100
AcDbEntity
  8
0
  6
Continuous
 62
     7
370
    25
100
AcDbCircle
 10
399.4602357649
 20
945.6571232993
 30
0.0
 40
5.000852858473402
100
AcDbArc
 50
275.534768521
 51
331.7367978536
  0
LINE
  5
19D
330
1F
100
AcDbEntity
  8
0
  6
Continuous
 62
     7
370
    25
100
AcDbLine
 10
679.9917567796
 20
940.4725186136
 30
0.0
 11
679.9917567796
 21
921.3500372674
 31
0.0
  0
LINE
  5
19E
330
1F
100
AcDbEntity
  8
0
  6
Continuous
 62
     7
370
    25
100
AcDbLine
 10
679.9917567796
 20
921.3500372674
 30
0.0
 11
229.9917537993
 21
921.3500372674
 31
0.0
  0
LINE
  5
19F
330
1F
100
AcDbEntity
  8
0
  6
Continuous
 62
     7
370
    25
100
AcDbLine
 10
229.9917537993
 20
940.4725186136
 30
0.0
 11
229.9917537993
 21
921.3500372674
 31
0.0
  0
LINE
  5
1A0
330
1F
100
AcDbEntity
  8
0
  6
Continuous
 62
     7
370
    25
100
AcDbLine
 10
399.4098652429
 20
940.4450408723
 30
0.0
 11
254.1917462176
 21
940.4450408723
 31
0.0
  0
LINE
  5
1A1
330
1F
100
AcDbEntity
  8
0
  6
Continuous
 62
     7
370
    25
100
AcDbLine
 10
479.424875909
 20
940.4450408723
 30
0.0
 11
420.6433717436
 21
940.4450408723
 31
0.0
  0
LINE
  5
1A2
330
1F
100
AcDbEntity
  8
0
  6
Continuous
 62
     7
370
    25
100
AcDbLine
 10
655.7917494601
 20
940.4450408723
 30
0.0
 11
500.6355086616
 21
940.4450408723
 31
0.0
  0
LINE
  5
1A3
330
1F
100
AcDbEntity
  8
0
  6
Continuous
 62
     7
370
    25
100
AcDbLine
 10
420.6433717436
 20
940.6520776059
 30
0.0
 11
479.424875909
 21
940.6520776059
 31
0.0
  0
LINE
  5
1A4
330
1F
100
AcDbEntity
  8
0
  6
Continuous
 62
     7
370
    25
100
AcDbLine
 10
254.1917462176
 20
940.6520776059
 30
0.0
 11
399.4098652429
 21
940.6520776059
 31
0.0
  0
LINE
  5
1A5
330
1F
100
AcDbEntity
  8
0
  6
Continuous
 62
     7
370
    25
100
AcDbLine
 10
500.6355086616
 20
940.6520776059
 30
0.0
 11
655.7917494601
 21
940.6520776059
 31
0.0
  0
LINE
  5
1A6
330
1F
100
AcDbEntity
  8
0
  6
Continuous
 62
     7
370
    25
100
AcDbLine
 10
399.9425668544
 20
940.6795851495
 30
0.0
 11
253.6590446061
 21
940.6795851495
 31
0.0
  0
LINE
  5
1A7
330
1F
100
AcDbEntity
  8
0
  6
Continuous
 62
     7
370
    25
100
AcDbLine
 10
479.9575798488
 20
940.6795851495
 30
0.0
 11
420.1106701321
 21
940.6795851495
 31
0.0
  0
LINE
  5
1A8
330
1F
100
AcDbEntity
  8
0
  6
Continuous
 62
     7
370
    25
100
AcDbLine
 10
656.3244510716
 20
940.6795851495
 30
0.0
 11
500.1028042561
 21
940.6795851495
 31
0.0
  0
LINE
  5
1A9
330
1F
100
AcDbEntity
  8
0
  6
Continuous
 62
     7
370
    25
100
AcDbLine
 10
655.9917528457
 20
920.8500437047
 30
0.0
 11
655.9917528457
 21
919.3500630166
 31
0.0
  0
LINE
  5
1AA
330
1F
100
AcDbEntity
  8
0
  6
Continuous
 62
     7
370
    25
100
AcDbLine
 10
655.9917528457
 20
919.3500630166
 30
0.0
 11
650.991757614
 21
919.3500630166
 31
0.0
  0
LINE
  5
1AB
330
1F
100
AcDbEntity
  8
0
  6
Continuous
 62
     7
370
    25
100
AcDbLine
 10
650.991757614
 20
920.8500437047
 30
0.0
 11
655.9917528457
 21
920.8500437047
 31
0.0
  0
LINE
  5
1AC
330
1F
100
AcDbEntity
  8
0
  6
Continuous
 62
     7
370
    25
100
AcDbLine
 10
650.991757614
 20
919.3500630166
 30
0.0
 11
258.9917529649
 21
919.3500630166
 31
0.0
  0
LINE
  5
1AD
330
1F
100
AcDbEntity
  8
0
  6
Continuous
 62
     7
370
    25
100
AcDbLine
 10
650.991757614
 20
920.8500437047
 30
0.0
 11
258.9917529649
 21
920.8500437047
 31
0.0
  0
LINE
  5
1AE
330
1F
100
AcDbEntity
  8
0
  6
Continuous
 62
     7
370
    25
100
AcDbLine
 10
253.9917577332
 20
919.3500630166
 30
0.0
 11
253.9917577332
 21
920.8500437047
 31
0.0
  0
LINE
  5
1AF
330
1F
100
AcDbEntity
  8
0
  6
Continuous
 62
     7
370
    25
100
AcDbLine
 10
258.9917529649
 20
919.3500630166
 30
0.0
 11
253.9917577332
 21
919.3500630166
 31
0.0
  0
LINE
  5
1B0
330
1F
100
AcDbEntity
  8
0
  6
Continuous
 62
     7
370
    25
100
AcDbLine
 10
253.9917577332
 20
920.8500437047
 30
0.0
 11
258.9917529649
 21
920.8500437047
 31
0.0
  0
LINE
  5
1B1
330
1F
100
AcDbEntity
  8
0
  6
Continuous
 62
     7
370
    25
100
AcDbLine
 10
648.9917535609
 20
919.2981175687
 30
0.0
 11
648.9917535609
 21
918.4235684182
 31
0.0
  0
LINE
  5
1B2
330
1F
100
AcDbEntity
  8
0
  6
Continuous
 62
     7
370
    25
100
AcDbLine
 10
655.9917528457
 20
918.4235684182
 30
0.0
 11
655.9917528457
 21
919.3500630166
 31
0.0
  0
LINE
  5
1B3
330
1F
100
AcDbEntity
  8
0
  6
Continuous
 62
     7
370
    25
100
AcDbLine
 10
634.9917549914
 20
918.4235684182
 30
0.0
 11
634.9917549914
 21
919.2981175687
 31
0.0
  0
LINE
  5
1B4
330
1F
100
AcDbEntity
  8
0
  6
Continuous
 62
     7
370
    25
100
AcDbLine
 10
274.9917555875
 20
919.2981175687
 30
0.0
 11
274.9917555875
 21
918.4235684182
 31
0.0
  0
LINE
  5
1B5
330
1F
100
AcDbEntity
  8
0
  6
Continuous
 62
     7
370
    25
100
AcDbLine
 10
260.991757018
 20
918.4235684182
 30
0.0
 11
260.991757018
 21
919.2981175687
 31
0.0
  0
LINE
  5
1B6
330
1F
100
AcDbEntity
  8
0
  6
Continuous
 62
     7
370
    25
100
AcDbLine
 10
253.9917577332
 20
919.3500630166
 30
0.0
 11
253.9917577332
 21
918.4235684182
 31
0.0
  0
LINE
  5
1B7
330
1F
100
AcDbEntity
  8
0
  6
Continuous
 62
     7
370
    25
100
AcDbLine
 10
633.491744501
 20
913.8476006295
 30
0.0
 11
632.4917573756
 21
913.8476006295
 31
0.0
  0
ARC
  5
1B8
330
1F
100
AcDbEntity
  8
0
  6
Continuous
 62
     7
370
    25
100
AcDbCircle
 10
632.4666548863
 20
912.3726766485
 30
0.0
 40
1.475137581707138
100
AcDbArc
 50
89.0249478184
 51
178.9891316733
  0
LINE
  5
1B9
330
1F
100
AcDbEntity
  8
0
  6
Continuous
 62
     7
370
    25
100
AcDbLine
 10
630.9917468852
 20
912.398701122
 30
0.0
 11
630.9917468852
 21
903.7053636815
 31
0.0
  0
ARC
  5
1BA
330
1F
100
AcDbEntity
  8
0
  6
Continuous
 62
     7
370
    25
100
AcDbCircle
 10
632.4666384369
 20
903.7314014631
 30
0.0
 40
1.475121369743357
100
AcDbArc
 50
181.0113964177
 51
270.9757019077
  0
LINE
  5
1BB
330
1F
100
AcDbEntity
  8
0
  6
Continuous
 62
     7
370
    25
100
AcDbLine
 10
632.4917573756
 20
902.2564939763
 30
0.0
 11
651.4917511767
 21
902.2564939763
 31
0.0
  0
ARC
  5
1BC
330
1F
100
AcDbEntity
  8
0
  6
Continuous
 62
     7
370
    25
100
AcDbCircle
 10
651.5168784607
 20
903.7313776545
 30
0.0
 40
1.475097706791605
100
AcDbArc
 50
269.0239582418
 51
358.9895122719
  0
LINE
  5
1BD
330
1F
100
AcDbEntity
  8
0
  6
Continuous
 62
     7
370
    25
100
AcDbLine
 10
652.991746766
 20
903.7053636815
 30
0.0
 11
652.991746766
 21
912.398701122
 31
0.0
  0
ARC
  5
1BE
330
1F
100
AcDbEntity
  8
0
  6
Continuous
 62
     7
370
    25
100
AcDbCircle
 10
651.5168620112
 20
912.3727004565
 30
0.0
 40
1.475113919175979
100
AcDbArc
 50
1.0099596588
 51
90.97539201
  0
LINE
  5
1BF
330
1F
100
AcDbEntity
  8
0
  6
Continuous
 62
     7
370
    25
100
AcDbLine
 10
651.4917511767
 20
913.8476006295
 30
0.0
 11
650.4917491502
 21
913.8476006295
 31
0.0
  0
ARC
  5
1C0
330
1F
100
AcDbEntity
  8
0
  6
Continuous
 62
     7
370
    25
100
AcDbCircle
 10
650.4666215196
 20
915.3224834142
 30
0.0
 40
1.475096819328638
100
AcDbArc
 50
181.0092958625
 51
270.9760558063
  0
LINE
  5
1C1
330
1F
100
AcDbEntity
  8
0
  6
Continuous
 62
     7
370
    25
100
AcDbLine
 10
253.9917577332
 20
918.4235684182
 30
0.0
 11
253.9917577332
 21
871.9213954713
 31
0.0
  0
LINE
  5
1C2
330
1F
100
AcDbEntity
  8
0
  6
Continuous
 62
     7
370
    25
100
AcDbLine
 10
260.991757018
 20
918.4235684182
 30
0.0
 11
260.991757018
 21
915.2965001371
 31
0.0
  0
ARC
  5
1C3
330
1F
100
AcDbEntity
  8
0
  6
Continuous
 62
     7
370
    25
100
AcDbCircle
 10
259.5168597372
 20
915.3225135121
 30
0.0
 40
1.475126667248349
100
AcDbArc
 50
269.0245241505
 51
358.9895553413
  0
LINE
  5
1C4
330
1F
100
AcDbEntity
  8
0
  6
Continuous
 62
     7
370
    25
100
AcDbLine
 10
259.4917465276
 20
913.8476006295
 30
0.0
 11
258.491744501
 21
913.8476006295
 31
0.0
  0
ARC
  5
1C5
330
1F
100
AcDbEntity
  8
0
  6
Continuous
 62
     7
370
    25
100
AcDbCircle
 10
258.4666564963
 20
912.3726768216
 30
0.0
 40
1.475137162138666
100
AcDbArc
 50
89.025510218
 51
178.9891381133
  0
LINE
  5
1C6
330
1F
100
AcDbEntity
  8
0
  6
Continuous
 62
     7
370
    25
100
AcDbLine
 10
256.9917489118
 20
912.398701122
 30
0.0
 11
256.9917489118
 21
903.7053636815
 31
0.0
  0
ARC
  5
1C7
330
1F
100
AcDbEntity
  8
0
  6
Continuous
 62
     7
370
    25
100
AcDbCircle
 10
258.4666400466
 20
903.7314012898
 30
0.0
 40
1.475120949892889
100
AcDbArc
 50
181.0113899732
 51
270.975139513
  0
LINE
  5
1C8
330
1F
100
AcDbEntity
  8
0
  6
Continuous
 62
     7
370
    25
100
AcDbLine
 10
258.491744501
 20
902.2564939763
 30
0.0
 11
277.4917532033
 21
902.2564939763
 31
0.0
  0
ARC
  5
1C9
330
1F
100
AcDbEntity
  8
0
  6
Continuous
 62
     7
370
    25
100
AcDbCircle
 10
277.5168804873
 20
903.7313776545
 30
0.0
 40
1.475097706791548
100
AcDbArc
 50
269.0239582418
 51
358.9895122719
  0
LINE
  5
1CA
330
1F
100
AcDbEntity
  8
0
  6
Continuous
 62
     7
370
    25
100
AcDbLine
 10
278.9917487925
 20
903.7053636815
 30
0.0
 11
278.9917487925
 21
912.398701122
 31
0.0
  0
ARC
  5
1CB
330
1F
100
AcDbEntity
  8
0
  6
Continuous
 62
     7
370
    25
100
AcDbCircle
 10
277.5168640377
 20
912.3727004565
 30
0.0
 40
1.475113919175979
100
AcDbArc
 50
1.0099596588
 51
90.97539201
  0
LINE
  5
1CC
330
1F
100
AcDbEntity
  8
0
  6
Continuous
 62
     7
370
    25
100
AcDbLine
 10
277.4917532033
 20
913.8476006295
 30
0.0
 11
276.4917511767
 21
913.8476006295
 31
0.0
  0
ARC
  5
1CD
330
1F
100
AcDbEntity
  8
0
  6
Continuous
 62
     7
370
    25
100
AcDbCircle
 10
276.4666235462
 20
915.3224834142
 30
0.0
 40
1.475096819328638
100
AcDbArc
 50
181.0092958625
 51
270.9760558063
  0
LINE
  5
1CE
330
1F
100
AcDbEntity
  8
0
  6
Continuous
 62
     7
370
    25
100
AcDbLine
 10
274.9917555875
 20
915.2965001371
 30
0.0
 11
274.9917555875
 21
918.4235684182
 31
0.0
  0
LINE
  5
1CF
330
1F
100
AcDbEntity
  8
0
  6
Continuous
 62
     7
370
    25
100
AcDbLine
 10
634.9917549914
 20
915.2965001371
 30
0.0
 11
634.9917549914
 21
918.4235684182
 31
0.0
  0
ARC
  5
1D0
330
1F
100
AcDbEntity
  8
0
  6
Continuous
 62
     7
370
    25
100
AcDbCircle
 10
633.5168637869
 20
915.3225072215
 30
0.0
 40
1.475120481044095
100
AcDbArc
 50
269.0242840156
 51
358.9897954762
  0
ARC
  5
1D1
330
1F
100
AcDbEntity
  8
0
  6
Continuous
 62
     7
370
    25
100
AcDbCircle
 10
486.7580907285
 20
887.3762242105
 30
0.0
 40
8.696477031176277
100
AcDbArc
 50
88.4603729395
 51
271.5396270605
  0
LINE
  5
1D2
330
1F
100
AcDbEntity
  8
0
  6
Continuous
 62
     7
370
    25
100
AcDbLine
 10
486.9917505229
 20
878.68288677
 30
0.0
 11
618.9917523688
 21
878.68288677
 31
0.0
  0
ARC
  5
1D3
330
1F
100
AcDbEntity
  8
0
  6
Continuous
 62
     7
370
    25
100
AcDbCircle
 10
619.2254046497
 20
887.3762242105
 30
0.0
 40
8.696476829301483
100
AcDbArc
 50
268.4604224242
 51
91.5395775758
  0
LINE
  5
1D4
330
1F
100
AcDbEntity
  8
0
  6
Continuous
 62
     7
370
    25
100
AcDbLine
 10
618.9917523688
 20
896.069561651
 30
0.0
 11
486.9917505229
 21
896.069561651
 31
0.0
  0
ARC
  5
1D5
330
1F
100
AcDbEntity
  8
0
  6
Continuous
 62
     7
370
    25
100
AcDbCircle
 10
290.7580882402
 20
887.3762242105
 30
0.0
 40
8.696476904206364
100
AcDbArc
 50
88.4604040629
 51
271.5395959371
  0
LINE
  5
1D6
330
1F
100
AcDbEntity
  8
0
  6
Continuous
 62
     7
370
    25
100
AcDbLine
 10
290.9917433089
 20
878.68288677
 30
0.0
 11
422.9917500442
 21
878.68288677
 31
0.0
  0
ARC
  5
1D7
330
1F
100
AcDbEntity
  8
0
  6
Continuous
 62
     7
370
    25
100
AcDbCircle
 10
423.2254083259
 20
887.3762242105
 30
0.0
 40
8.696476990531725
100
AcDbArc
 50
268.4603829024
 51
91.5396170976
  0
LINE
  5
1D8
330
1F
100
AcDbEntity
  8
0
  6
Continuous
 62
     7
370
    25
100
AcDbLine
 10
422.9917500442
 20
896.069561651
 30
0.0
 11
290.9917433089
 21
896.069561651
 31
0.0
  0
LINE
  5
1D9
330
1F
100
AcDbEntity
  8
0
  6
Continuous
 62
     7
370
    25
100
AcDbLine
 10
655.9917528457
 20
918.4235684182
 30
0.0
 11
655.9917528457
 21
871.9213954713
 31
0.0
  0
LINE
  5
1DA
330
1F
100
AcDbEntity
  8
0
  6
Continuous
 62
     7
370
    25
100
AcDbLine
 10
648.9917535609
 20
915.2965001371
 30
0.0
 11
648.9917535609
 21
918.4235684182
 31
0.0
  0
ARC
  5
1DB
330
1F
100
AcDbEntity
  8
0
  6
Continuous
 62
     7
370
    25
100
AcDbCircle
 10
632.466596418
 20
904.1195928147
 30
0.0
 40
1.475078590080072
100
AcDbArc
 50
181.0097357583
 51
270.9773625671
  0
ARC
  5
1DC
330
1F
100
AcDbEntity
  8
0
  6
Continuous
 62
     7
370
    25
100
AcDbCircle
 10
651.5169204794
 20
904.1195690069
 30
0.0
 40
1.475054928156842
100
AcDbArc
 50
269.0222975595
 51
358.9911729542
  0
ARC
  5
1DD
330
1F
100
AcDbEntity
  8
0
  6
Continuous
 62
     7
370
    25
100
AcDbCircle
 10
277.5169225059
 20
904.1195690069
 30
0.0
 40
1.475054928156794
100
AcDbArc
 50
269.0222975595
 51
358.9911729542
  0
ARC
  5
1DE
330
1F
100
AcDbEntity
  8
0
  6
Continuous
 62
     7
370
    25
100
AcDbCircle
 10
258.4665980266
 20
904.1195926408
 30
0.0
 40
1.475078169187115
100
AcDbArc
 50
181.009729289
 51
270.9768001973
  0
LINE
  5
1DF
330
1F
100
AcDbEntity
  8
0
  6
Continuous
 62
     7
370
    25
100
AcDbLine
 10
632.4917573756
 20
902.6447288301
 30
0.0
 11
651.4917511767
 21
902.6447288301
 31
0.0
  0
LINE
  5
1E0
330
1F
100
AcDbEntity
  8
0
  6
Continuous
 62
     7
370
    25
100
AcDbLine
 10
258.491744501
 20
902.6447288301
 30
0.0
 11
277.4917532033
 21
902.6447288301
 31
0.0
  0
ARC
  5
1E1
330
1F
100
AcDbEntity
  8
0
  6
Continuous
 62
     7
370
    25
100
AcDbCircle
 10
619.1506087905
 20
887.9153066962
 30
0.0
 40
8.845626520280268
100
AcDbArc
 50
268.9709839312
 51
357.7648943484
  0
ARC
  5
1E2
330
1F
100
AcDbEntity
  8
0
  6
Continuous
 62
     7
370
    25
100
AcDbCircle
 10
486.8328979109
 20
887.915313877
 30
0.0
 40
8.845633631543613
100
AcDbArc
 50
182.2351504017
 51
271.0289905615
  0
ARC
  5
1E3
330
1F
100
AcDbEntity
  8
0
  6
Continuous
 62
     7
370
    25
100
AcDbCircle
 10
423.1506045083
 20
887.9153126428
 30
0.0
 40
8.845632430752971
100
AcDbArc
 50
268.9709973008
 51
357.7648572954
  0
ARC
  5
1E4
330
1F
100
AcDbEntity
  8
0
  6
Continuous
 62
     7
370
    25
100
AcDbCircle
 10
290.8329118794
 20
887.9153331543
 30
0.0
 40
8.845652525339961
100
AcDbArc
 50
182.2352705846
 51
271.0288511359
  0
LINE
  5
1E5
330
1F
100
AcDbEntity
  8
0
  6
Continuous
 62
     7
370
    25
100
AcDbLine
 10
486.9917505229
 20
879.0711067226
 30
0.0
 11
618.9917523688
 21
879.0711067226
 31
0.0
  0
LINE
  5
1E6
330
1F
100
AcDbEntity
  8
0
  6
Continuous
 62
     7
370
    25
100
AcDbLine
 10
290.9917433089
 20
879.0711067226
 30
0.0
 11
422.9917500442
 21
879.0711067226
 31
0.0
  0
LINE
  5
1E7
330
1F
100
AcDbEntity
  8
0
  6
Continuous
 62
     7
370
    25
100
AcDbLine
 10
253.9917577332
 20
871.9213954713
 30
0.0
 11
253.9917577332
 21
869.8936156537
 31
0.0
  0
LINE
  5
1E8
330
1F
100
AcDbEntity
  8
0
  6
Continuous
 62
     7
370
    25
100
AcDbLine
 10
655.9917528457
 20
871.9213954713
 30
0.0
 11
655.9917528457
 21
869.8936156537
 31
0.0
  0
LINE
  5
1E9
330
1F
100
AcDbEntity
  8
0
  6
Continuous
 62
     7
370
    25
100
AcDbLine
 10
253.9917577332
 20
869.8936156537
 30
0.0
 11
253.9917577332
 21
864.0559814479
 31
0.0
  0
LINE
  5
1EA
330
1F
100
AcDbEntity
  8
0
  6
Continuous
 62
     7
370
    25
100
AcDbLine
 10
655.9917528457
 20
869.8936156537
 30
0.0
 11
655.9917528457
 21
864.0559814479
 31
0.0
  0
LINE
  5
1EB
330
1F
100
AcDbEntity
  8
0
  6
Continuous
 62
     7
370
    25
100
AcDbLine
 10
655.9917528457
 20
864.0559814479
 30
0.0
 11
655.9917528457
 21
864.0455208328
 31
0.0
  0
LINE
  5
1EC
330
1F
100
AcDbEntity
  8
0
  6
Continuous
 62
     7
370
    25
100
AcDbLine
 10
253.9917577332
 20
864.0559814479
 30
0.0
 11
253.9917577332
 21
864.0455208328
 31
0.0
  0
ARC
  5
1ED
330
1F
100
AcDbEntity
  8
0
  6
Continuous
 62
     7
370
    25
100
AcDbCircle
 10
497.5392646445
 20
892.7119679969
 30
0.0
 40
19.55146650427258
100
AcDbArc
 50
189.532348339
 51
219.6283730911
  0
ARC
  5
1EE
330
1F
100
AcDbEntity
  8
0
  6
Continuous
 62
     7
370
    25
100
AcDbCircle
 10
608.4353428715
 20
892.7160427656
 30
0.0
 40
19.56091103534493
100
AcDbArc
 50
320.3790386654
 51
350.4601944969
  0
ARC
  5
1EF
330
1F
100
AcDbEntity
  8
0
  6
Continuous
 62
     7
370
    25
100
AcDbCircle
 10
301.5397339186
 20
892.7121917839
 30
0.0
 40
19.55197048874842
100
AcDbArc
 50
189.5327653097
 51
219.628001528
  0
ARC
  5
1F0
330
1F
100
AcDbEntity
  8
0
  6
Continuous
 62
     7
370
    25
100
AcDbCircle
 10
412.4350715848
 20
892.7161614188
 30
0.0
 40
19.56119961653099
100
AcDbArc
 50
320.3792872652
 51
350.4599841351
  0
LINE
  5
1F1
330
1F
100
AcDbEntity
  8
0
  6
Continuous
 62
     7
370
    25
100
AcDbLine
 10
641.9917542762
 20
908.3500556257
 30
0.0
 11
641.9917542762
 21
911.3500468042
 31
0.0
  0
LINE
  5
1F2
330
1F
100
AcDbEntity
  8
0
  6
Continuous
 62
     7
370
    25
100
AcDbLine
 10
641.5219951695
 20
907.8820101526
 30
0.0
 11
641.9902343577
 21
908.3510093
 31
0.0
  0
LINE
  5
1F3
330
1F
100
AcDbEntity
  8
0
  6
Continuous
 62
     7
370
    25
100
AcDbLine
 10
641.5219951695
 20
907.8820101526
 30
0.0
 11
641.5219951695
 21
911.8180922773
 31
0.0
  0
LINE
  5
1F4
330
1F
100
AcDbEntity
  8
0
  6
Continuous
 62
     7
370
    25
100
AcDbLine
 10
641.9902343577
 20
911.3490931299
 30
0.0
 11
641.5219951695
 21
911.8180922773
 31
0.0
  0
LINE
  5
1F5
330
1F
100
AcDbEntity
  8
0
  6
Continuous
 62
     7
370
    25
100
AcDbLine
 10
651.514698965
 20
911.8180922773
 30
0.0
 11
651.9519884414
 21
911.3490931299
 31
0.0
  0
LINE
  5
1F6
330
1F
100
AcDbEntity
  8
0
  6
Continuous
 62
     7
370
    25
100
AcDbLine
 10
651.9517202205
 20
911.3490931299
 30
0.0
 11
651.4320124215
 21
911.8180922773
 31
0.0
  0
LINE
  5
1F7
330
1F
100
AcDbEntity
  8
0
  6
Continuous
 62
     7
370
    25
100
AcDbLine
 10
651.4320124215
 20
911.8180922773
 30
0.0
 11
651.81504677
 21
911.3490931299
 31
0.0
  0
LINE
  5
1F8
330
1F
100
AcDbEntity
  8
0
  6
Continuous
 62
     7
370
    25
100
AcDbLine
 10
651.8144656247
 20
911.3490931299
 30
0.0
 11
651.2549866265
 21
911.8180922773
 31
0.0
  0
LINE
  5
1F9
330
1F
100
AcDbEntity
  8
0
  6
Continuous
 62
     7
370
    25
100
AcDbLine
 10
651.2549866265
 20
911.8180922773
 30
0.0
 11
651.5799511498
 21
911.3490931299
 31
0.0
  0
LINE
  5
1FA
330
1F
100
AcDbEntity
  8
0
  6
Continuous
 62
     7
370
    25
100
AcDbLine
 10
651.5790719813
 20
911.3490931299
 30
0.0
 11
650.9854097194
 21
911.8180922773
 31
0.0
  0
LINE
  5
1FB
330
1F
100
AcDbEntity
  8
0
  6
Continuous
 62
     7
370
    25
100
AcDbLine
 10
650.9854097194
 20
911.8180922773
 30
0.0
 11
651.2490559644
 21
911.3490931299
 31
0.0
  0
LINE
  5
1FC
330
1F
100
AcDbEntity
  8
0
  6
Continuous
 62
     7
370
    25
100
AcDbLine
 10
651.2478787726
 20
911.3490931299
 30
0.0
 11
650.625963909
 21
911.8180922773
 31
0.0
  0
LINE
  5
1FD
330
1F
100
AcDbEntity
  8
0
  6
Continuous
 62
     7
370
    25
100
AcDbLine
 10
650.625963909
 20
911.8180922773
 30
0.0
 11
650.8256543702
 21
911.3490931299
 31
0.0
  0
LINE
  5
1FE
330
1F
100
AcDbEntity
  8
0
  6
Continuous
 62
     7
370
    25
100
AcDbLine
 10
650.8242089576
 20
911.3490931299
 30
0.0
 11
650.1802552766
 21
911.8180922773
 31
0.0
  0
LINE
  5
1FF
330
1F
100
AcDbEntity
  8
0
  6
Continuous
 62
     7
370
    25
100
AcDbLine
 10
650.1802552766
 20
911.8180922773
 30
0.0
 11
650.3139931983
 21
911.3490931299
 31
0.0
  0
LINE
  5
200
330
1F
100
AcDbEntity
  8
0
  6
Continuous
 62
     7
370
    25
100
AcDbLine
 10
650.3122944659
 20
911.3490931299
 30
0.0
 11
649.6527392692
 21
911.8180922773
 31
0.0
  0
LINE
  5
201
330
1F
100
AcDbEntity
  8
0
  6
Continuous
 62
     7
370
    25
100
AcDbLine
 10
649.6527392692
 20
911.8180922773
 30
0.0
 11
649.7191835469
 21
911.3490931299
 31
0.0
  0
LINE
  5
202
330
1F
100
AcDbEntity
  8
0
  6
Continuous
 62
     7
370
    25
100
AcDbLine
 10
649.7172314948
 20
911.3490931299
 30
0.0
 11
649.0486610955
 21
911.8180922773
 31
0.0
  0
LINE
  5
203
330
1F
100
AcDbEntity
  8
0
  6
Continuous
 62
     7
370
    25
100
AcDbLine
 10
649.0486610955
 20
911.8180922773
 30
0.0
 11
649.0471560782
 21
911.3490931299
 31
0.0
  0
LINE
  5
204
330
1F
100
AcDbEntity
  8
0
  6
Continuous
 62
     7
370
    25
100
AcDbLine
 10
649.0449805087
 20
911.3490931299
 30
0.0
 11
648.3740855283
 21
911.8180922773
 31
0.0
  0
LINE
  5
205
330
1F
100
AcDbEntity
  8
0
  6
Continuous
 62
     7
370
    25
100
AcDbLine
 10
648.3740855283
 20
911.8180922773
 30
0.0
 11
648.3046461171
 21
911.3490931299
 31
0.0
  0
LINE
  5
206
330
1F
100
AcDbEntity
  8
0
  6
Continuous
 62
     7
370
    25
100
AcDbLine
 10
648.3022619313
 20
911.3490931299
 30
0.0
 11
647.6357329911
 21
911.8180922773
 31
0.0
  0
LINE
  5
207
330
1F
100
AcDbEntity
  8
0
  6
Continuous
 62
     7
370
    25
100
AcDbLine
 10
647.6357329911
 20
911.8180922773
 30
0.0
 11
647.4990446395
 21
911.3490931299
 31
0.0
  0
LINE
  5
208
330
1F
100
AcDbEntity
  8
0
  6
Continuous
 62
     7
370
    25
100
AcDbLine
 10
647.4964816398
 20
911.3490931299
 30
0.0
 11
646.8409795588
 21
911.8180922773
 31
0.0
  0
LINE
  5
209
330
1F
100
AcDbEntity
  8
0
  6
Continuous
 62
     7
370
    25
100
AcDbLine
 10
646.8409795588
 20
911.8180922773
 30
0.0
 11
646.6384280747
 21
911.3490931299
 31
0.0
  0
LINE
  5
20A
330
1F
100
AcDbEntity
  8
0
  6
Continuous
 62
     7
370
    25
100
AcDbLine
 10
646.6357160634
 20
911.3490931299
 30
0.0
 11
645.9977824515
 21
911.8180922773
 31
0.0
  0
LINE
  5
20B
330
1F
100
AcDbEntity
  8
0
  6
Continuous
 62
     7
370
    25
100
AcDbLine
 10
645.9977824515
 20
911.8180922773
 30
0.0
 11
645.7313794917
 21
911.3490931299
 31
0.0
  0
LINE
  5
20C
330
1F
100
AcDbEntity
  8
0
  6
Continuous
 62
     7
370
    25
100
AcDbLine
 10
645.7285333699
 20
911.3490931299
 30
0.0
 11
645.1145608252
 21
911.8180922773
 31
0.0
  0
LINE
  5
20D
330
1F
100
AcDbEntity
  8
0
  6
Continuous
 62
     7
370
    25
100
AcDbLine
 10
645.1145608252
 20
911.8180922773
 30
0.0
 11
644.7869587964
 21
911.3490931299
 31
0.0
  0
LINE
  5
20E
330
1F
100
AcDbEntity
  8
0
  6
Continuous
 62
     7
370
    25
100
AcDbLine
 10
644.7840232676
 20
911.3490931299
 30
0.0
 11
644.2001361674
 21
911.8180922773
 31
0.0
  0
LINE
  5
20F
330
1F
100
AcDbEntity
  8
0
  6
Continuous
 62
     7
370
    25
100
AcDbLine
 10
644.2001361674
 20
911.8180922773
 30
0.0
 11
643.814613325
 21
911.3490931299
 31
0.0
  0
LINE
  5
210
330
1F
100
AcDbEntity
  8
0
  6
Continuous
 62
     7
370
    25
100
AcDbLine
 10
643.8116032905
 20
911.3490931299
 30
0.0
 11
643.2636428899
 21
911.8180922773
 31
0.0
  0
LINE
  5
211
330
1F
100
AcDbEntity
  8
0
  6
Continuous
 62
     7
370
    25
100
AcDbLine
 10
643.2636428899
 20
911.8180922773
 30
0.0
 11
642.8240586347
 21
911.3490931299
 31
0.0
  0
LINE
  5
212
330
1F
100
AcDbEntity
  8
0
  6
Continuous
 62
     7
370
    25
100
AcDbLine
 10
642.8210038966
 20
911.3490931299
 30
0.0
 11
642.3964996165
 21
911.7437354829
 31
0.0
  0
LINE
  5
213
330
1F
100
AcDbEntity
  8
0
  6
Continuous
 62
     7
370
    25
100
AcDbLine
 10
642.3964996165
 20
911.7437354829
 30
0.0
 11
641.9933039969
 21
911.3490931299
 31
0.0
  0
LINE
  5
214
330
1F
100
AcDbEntity
  8
0
  6
Continuous
 62
     7
370
    25
100
AcDbLine
 10
641.5219951695
 20
911.8180922773
 30
0.0
 11
640.9951050109
 21
911.3490931299
 31
0.0
  0
LINE
  5
215
330
1F
100
AcDbEntity
  8
0
  6
Continuous
 62
     7
370
    25
100
AcDbLine
 10
640.992065174
 20
911.3490931299
 30
0.0
 11
640.574132306
 21
911.8180922773
 31
0.0
  0
LINE
  5
216
330
1F
100
AcDbEntity
  8
0
  6
Continuous
 62
     7
370
    25
100
AcDbLine
 10
640.574132306
 20
911.8180922773
 30
0.0
 11
640.0068898028
 21
911.3490931299
 31
0.0
  0
LINE
  5
217
330
1F
100
AcDbEntity
  8
0
  6
Continuous
 62
     7
370
    25
100
AcDbLine
 10
640.0038797683
 20
911.3490931299
 30
0.0
 11
639.6404404467
 21
911.8180922773
 31
0.0
  0
LINE
  5
218
330
1F
100
AcDbEntity
  8
0
  6
Continuous
 62
     7
370
    25
100
AcDbLine
 10
639.6404404467
 20
911.8180922773
 30
0.0
 11
639.0384931392
 21
911.3490931299
 31
0.0
  0
LINE
  5
219
330
1F
100
AcDbEntity
  8
0
  6
Continuous
 62
     7
370
    25
100
AcDbLine
 10
639.0355576104
 20
911.3490931299
 30
0.0
 11
638.7302477187
 21
911.8180922773
 31
0.0
  0
LINE
  5
21A
330
1F
100
AcDbEntity
  8
0
  6
Continuous
 62
     7
370
    25
100
AcDbLine
 10
638.7302477187
 20
911.8180922773
 30
0.0
 11
638.0996007747
 21
911.3490931299
 31
0.0
  0
LINE
  5
21B
330
1F
100
AcDbEntity
  8
0
  6
Continuous
 62
     7
370
    25
100
AcDbLine
 10
638.0967844552
 20
911.3490931299
 30
0.0
 11
637.8526438302
 21
911.8180922773
 31
0.0
  0
LINE
  5
21C
330
1F
100
AcDbEntity
  8
0
  6
Continuous
 62
     7
370
    25
100
AcDbLine
 10
637.8526438302
 20
911.8180922773
 30
0.0
 11
637.1996004409
 21
911.3490931299
 31
0.0
  0
LINE
  5
21D
330
1F
100
AcDbEntity
  8
0
  6
Continuous
 62
     7
370
    25
100
AcDbLine
 10
637.1969182319
 20
911.3490931299
 30
0.0
 11
637.016390664
 21
911.8180922773
 31
0.0
  0
LINE
  5
21E
330
1F
100
AcDbEntity
  8
0
  6
Continuous
 62
     7
370
    25
100
AcDbLine
 10
637.016390664
 20
911.8180922773
 30
0.0
 11
636.347477538
 21
911.3490931299
 31
0.0
  0
LINE
  5
21F
330
1F
100
AcDbEntity
  8
0
  6
Continuous
 62
     7
370
    25
100
AcDbLine
 10
636.3449592418
 20
911.3490931299
 30
0.0
 11
636.2298477715
 21
911.8180922773
 31
0.0
  0
LINE
  5
220
330
1F
100
AcDbEntity
  8
0
  6
Continuous
 62
     7
370
    25
100
AcDbLine
 10
636.2298477715
 20
911.8180922773
 30
0.0
 11
635.5517555303
 21
911.3490931299
 31
0.0
  0
LINE
  5
221
330
1F
100
AcDbEntity
  8
0
  6
Continuous
 62
     7
370
    25
100
AcDbLine
 10
635.5494160479
 20
911.3490931299
 30
0.0
 11
635.5008829659
 21
911.8180922773
 31
0.0
  0
LINE
  5
222
330
1F
100
AcDbEntity
  8
0
  6
Continuous
 62
     7
370
    25
100
AcDbLine
 10
635.5008829659
 20
911.8180922773
 30
0.0
 11
634.8203767365
 21
911.3490931299
 31
0.0
  0
LINE
  5
223
330
1F
100
AcDbEntity
  8
0
  6
Continuous
 62
     7
370
    25
100
AcDbLine
 10
634.8182458705
 20
911.3490931299
 30
0.0
 11
634.8367680138
 21
911.8180922773
 31
0.0
  0
LINE
  5
224
330
1F
100
AcDbEntity
  8
0
  6
Continuous
 62
     7
370
    25
100
AcDbLine
 10
634.8367680138
 20
911.8180922773
 30
0.0
 11
634.160657627
 21
911.3490931299
 31
0.0
  0
LINE
  5
225
330
1F
100
AcDbEntity
  8
0
  6
Continuous
 62
     7
370
    25
100
AcDbLine
 10
634.1587502784
 20
911.3490931299
 30
0.0
 11
634.244133932
 21
911.8180922773
 31
0.0
  0
LINE
  5
226
330
1F
100
AcDbEntity
  8
0
  6
Continuous
 62
     7
370
    25
100
AcDbLine
 10
634.244133932
 20
911.8180922773
 30
0.0
 11
633.5791845149
 21
911.3490931299
 31
0.0
  0
LINE
  5
227
330
1F
100
AcDbEntity
  8
0
  6
Continuous
 62
     7
370
    25
100
AcDbLine
 10
633.577530486
 20
911.3490931299
 30
0.0
 11
633.7289262837
 21
911.8180922773
 31
0.0
  0
LINE
  5
228
330
1F
100
AcDbEntity
  8
0
  6
Continuous
 62
     7
370
    25
100
AcDbLine
 10
633.7289262837
 20
911.8180922773
 30
0.0
 11
633.0817539519
 21
911.3490931299
 31
0.0
  0
LINE
  5
229
330
1F
100
AcDbEntity
  8
0
  6
Continuous
 62
     7
370
    25
100
AcDbLine
 10
633.0803681439
 20
911.3490931299
 30
0.0
 11
633.2962710685
 21
911.8180922773
 31
0.0
  0
LINE
  5
22A
330
1F
100
AcDbEntity
  8
0
  6
Continuous
 62
     7
370
    25
100
AcDbLine
 10
633.2962710685
 20
911.8180922773
 30
0.0
 11
632.6733578271
 21
911.3490931299
 31
0.0
  0
LINE
  5
22B
330
1F
100
AcDbEntity
  8
0
  6
Continuous
 62
     7
370
    25
100
AcDbLine
 10
632.6722551412
 20
911.3490931299
 30
0.0
 11
632.9505045241
 21
911.8180922773
 31
0.0
  0
LINE
  5
22C
330
1F
100
AcDbEntity
  8
0
  6
Continuous
 62
     7
370
    25
100
AcDbLine
 10
632.9505045241
 20
911.8180922773
 30
0.0
 11
632.3580790585
 21
911.3490931299
 31
0.0
  0
LINE
  5
22D
330
1F
100
AcDbEntity
  8
0
  6
Continuous
 62
     7
370
    25
100
AcDbLine
 10
632.3572594947
 20
911.3490931299
 30
0.0
 11
632.6950688189
 21
911.8180922773
 31
0.0
  0
LINE
  5
22E
330
1F
100
AcDbEntity
  8
0
  6
Continuous
 62
     7
370
    25
100
AcDbLine
 10
632.6950688189
 20
911.8180922773
 30
0.0
 11
632.1390468902
 21
911.3490931299
 31
0.0
  0
LINE
  5
22F
330
1F
100
AcDbEntity
  8
0
  6
Continuous
 62
     7
370
    25
100
AcDbLine
 10
632.1385253495
 20
911.3490931299
 30
0.0
 11
632.5325269526
 21
911.8180922773
 31
0.0
  0
LINE
  5
230
330
1F
100
AcDbEntity
  8
0
  6
Continuous
 62
     7
370
    25
100
AcDbLine
 10
632.5325269526
 20
911.8180922773
 30
0.0
 11
632.0184517926
 21
911.3490931299
 31
0.0
  0
LINE
  5
231
330
1F
100
AcDbEntity
  8
0
  6
Continuous
 62
     7
370
    25
100
AcDbLine
 10
632.0182431764
 20
911.3490931299
 30
0.0
 11
632.4645031518
 21
911.8180922773
 31
0.0
  0
SPLINE
  5
232
330
1F
100
AcDbEntity
  8
0
  6
Continuous
 62
     7
370
    25
100
AcDbSpline
210
0.0
220
0.0
230
1.0
 70
     8
 71
     3
 72
     9
 73
     5
 74
     0
 42
0.000000001
 43
0.00000001
 40
0.0
 40
0.0
 40
0.0
 40
0.0
 40
0.4113712339386308
 40
1.0
 40
1.0
 40
1.0
 40
1.0
 10
632.4645031517875
 20
911.8180922772658
 30
0.0
 10
632.4000321555181
 20
911.7547029672797
 30
0.0
 10
632.2433099762543
 20
911.6006102530682
 30
0.0
 10
632.0885889235
 20
911.4422868432252
 30
0.0
 10
631.9975156611335
 20
911.3490931298506
 30
0.0
  0
SPLINE
  5
233
330
1F
100
AcDbEntity
  8
0
  6
Continuous
 62
     7
370
    25
100
AcDbSpline
210
0.0
220
0.0
230
1.0
 70
     8
 71
     3
 72
     9
 73
     5
 74
     0
 42
0.000000001
 43
0.00000001
 40
0.0
 40
0.0
 40
0.0
 40
0.0
 40
0.2580657984173605
 40
1.0
 40
1.0
 40
1.0
 40
1.0
 10
651.9884962862861
 20
911.350046804167
 30
0.0
 10
651.9480218908545
 20
911.3908929636101
 30
0.0
 10
651.7911843878625
 20
911.549171044989
 30
0.0
 10
651.6324611578776
 20
911.7035518660513
 30
0.0
 10
651.5146989649666
 20
911.8180922772658
 30
0.0
  0
LINE
  5
234
330
1F
100
AcDbEntity
  8
0
  6
Continuous
 62
     7
370
    25
100
AcDbLine
 10
632.4942607707
 20
911.8500403669
 30
0.0
 11
651.4892328805
 21
911.8500403669
 31
0.0
  0
LINE
  5
235
330
1F
100
AcDbEntity
  8
0
  6
Continuous
 62
     7
370
    25
100
AcDbLine
 10
632.0184517926
 20
908.3510093
 30
0.0
 11
632.5325269526
 21
907.8820101526
 31
0.0
  0
LINE
  5
236
330
1F
100
AcDbEntity
  8
0
  6
Continuous
 62
     7
370
    25
100
AcDbLine
 10
632.5325269526
 20
907.8820101526
 30
0.0
 11
632.1385253495
 21
908.3510093
 31
0.0
  0
LINE
  5
237
330
1F
100
AcDbEntity
  8
0
  6
Continuous
 62
     7
370
    25
100
AcDbLine
 10
632.1390468902
 20
908.3510093
 30
0.0
 11
632.6950688189
 21
907.8820101526
 31
0.0
  0
LINE
  5
238
330
1F
100
AcDbEntity
  8
0
  6
Continuous
 62
     7
370
    25
100
AcDbLine
 10
632.6950688189
 20
907.8820101526
 30
0.0
 11
632.3572594947
 21
908.3510093
 31
0.0
  0
LINE
  5
239
330
1F
100
AcDbEntity
  8
0
  6
Continuous
 62
     7
370
    25
100
AcDbLine
 10
632.3580790585
 20
908.3510093
 30
0.0
 11
632.9505045241
 21
907.8820101526
 31
0.0
  0
LINE
  5
23A
330
1F
100
AcDbEntity
  8
0
  6
Continuous
 62
     7
370
    25
100
AcDbLine
 10
632.9505045241
 20
907.8820101526
 30
0.0
 11
632.6722551412
 21
908.3510093
 31
0.0
  0
LINE
  5
23B
330
1F
100
AcDbEntity
  8
0
  6
Continuous
 62
     7
370
    25
100
AcDbLine
 10
632.6733578271
 20
908.3510093
 30
0.0
 11
633.2962710685
 21
907.8820101526
 31
0.0
  0
LINE
  5
23C
330
1F
100
AcDbEntity
  8
0
  6
Continuous
 62
     7
370
    25
100
AcDbLine
 10
633.2962710685
 20
907.8820101526
 30
0.0
 11
633.0803681439
 21
908.3510093
 31
0.0
  0
LINE
  5
23D
330
1F
100
AcDbEntity
  8
0
  6
Continuous
 62
     7
370
    25
100
AcDbLine
 10
633.0817539519
 20
908.3510093
 30
0.0
 11
633.7289262837
 21
907.8820101526
 31
0.0
  0
LINE
  5
23E
330
1F
100
AcDbEntity
  8
0
  6
Continuous
 62
     7
370
    25
100
AcDbLine
 10
633.7289262837
 20
907.8820101526
 30
0.0
 11
633.577530486
 21
908.3510093
 31
0.0
  0
LINE
  5
23F
330
1F
100
AcDbEntity
  8
0
  6
Continuous
 62
     7
370
    25
100
AcDbLine
 10
633.5791845149
 20
908.3510093
 30
0.0
 11
634.244133932
 21
907.8820101526
 31
0.0
  0
LINE
  5
240
330
1F
100
AcDbEntity
  8
0
  6
Continuous
 62
     7
370
    25
100
AcDbLine
 10
634.244133932
 20
907.8820101526
 30
0.0
 11
634.1587502784
 21
908.3510093
 31
0.0
  0
LINE
  5
241
330
1F
100
AcDbEntity
  8
0
  6
Continuous
 62
     7
370
    25
100
AcDbLine
 10
634.160657627
 20
908.3510093
 30
0.0
 11
634.8367680138
 21
907.8820101526
 31
0.0
  0
LINE
  5
242
330
1F
100
AcDbEntity
  8
0
  6
Continuous
 62
     7
370
    25
100
AcDbLine
 10
634.8367680138
 20
907.8820101526
 30
0.0
 11
634.8182458705
 21
908.3510093
 31
0.0
  0
LINE
  5
243
330
1F
100
AcDbEntity
  8
0
  6
Continuous
 62
     7
370
    25
100
AcDbLine
 10
634.8203767365
 20
908.3510093
 30
0.0
 11
635.5008829659
 21
907.8820101526
 31
0.0
  0
LINE
  5
244
330
1F
100
AcDbEntity
  8
0
  6
Continuous
 62
     7
370
    25
100
AcDbLine
 10
635.5008829659
 20
907.8820101526
 30
0.0
 11
635.5494160479
 21
908.3510093
 31
0.0
  0
LINE
  5
245
330
1F
100
AcDbEntity
  8
0
  6
Continuous
 62
     7
370
    25
100
AcDbLine
 10
635.5517555303
 20
908.3510093
 30
0.0
 11
636.2298477715
 21
907.8820101526
 31
0.0
  0
LINE
  5
246
330
1F
100
AcDbEntity
  8
0
  6
Continuous
 62
     7
370
    25
100
AcDbLine
 10
636.2298477715
 20
907.8820101526
 30
0.0
 11
636.3449592418
 21
908.3510093
 31
0.0
  0
LINE
  5
247
330
1F
100
AcDbEntity
  8
0
  6
Continuous
 62
     7
370
    25
100
AcDbLine
 10
636.347477538
 20
908.3510093
 30
0.0
 11
637.016390664
 21
907.8820101526
 31
0.0
  0
LINE
  5
248
330
1F
100
AcDbEntity
  8
0
  6
Continuous
 62
     7
370
    25
100
AcDbLine
 10
637.016390664
 20
907.8820101526
 30
0.0
 11
637.1969182319
 21
908.3510093
 31
0.0
  0
LINE
  5
249
330
1F
100
AcDbEntity
  8
0
  6
Continuous
 62
     7
370
    25
100
AcDbLine
 10
637.1996004409
 20
908.3510093
 30
0.0
 11
637.8526438302
 21
907.8820101526
 31
0.0
  0
LINE
  5
24A
330
1F
100
AcDbEntity
  8
0
  6
Continuous
 62
     7
370
    25
100
AcDbLine
 10
637.8526438302
 20
907.8820101526
 30
0.0
 11
638.0967844552
 21
908.3510093
 31
0.0
  0
LINE
  5
24B
330
1F
100
AcDbEntity
  8
0
  6
Continuous
 62
     7
370
    25
100
AcDbLine
 10
638.0996007747
 20
908.3510093
 30
0.0
 11
638.7302477187
 21
907.8820101526
 31
0.0
  0
LINE
  5
24C
330
1F
100
AcDbEntity
  8
0
  6
Continuous
 62
     7
370
    25
100
AcDbLine
 10
638.7302477187
 20
907.8820101526
 30
0.0
 11
639.0355576104
 21
908.3510093
 31
0.0
  0
LINE
  5
24D
330
1F
100
AcDbEntity
  8
0
  6
Continuous
 62
     7
370
    25
100
AcDbLine
 10
639.0384931392
 20
908.3510093
 30
0.0
 11
639.6404404467
 21
907.8820101526
 31
0.0
  0
LINE
  5
24E
330
1F
100
AcDbEntity
  8
0
  6
Continuous
 62
     7
370
    25
100
AcDbLine
 10
639.6404404467
 20
907.8820101526
 30
0.0
 11
640.0038797683
 21
908.3510093
 31
0.0
  0
LINE
  5
24F
330
1F
100
AcDbEntity
  8
0
  6
Continuous
 62
     7
370
    25
100
AcDbLine
 10
640.0068898028
 20
908.3510093
 30
0.0
 11
640.574132306
 21
907.8820101526
 31
0.0
  0
LINE
  5
250
330
1F
100
AcDbEntity
  8
0
  6
Continuous
 62
     7
370
    25
100
AcDbLine
 10
640.574132306
 20
907.8820101526
 30
0.0
 11
640.992065174
 21
908.3510093
 31
0.0
  0
LINE
  5
251
330
1F
100
AcDbEntity
  8
0
  6
Continuous
 62
     7
370
    25
100
AcDbLine
 10
640.9951050109
 20
908.3510093
 30
0.0
 11
641.5219951695
 21
907.8820101526
 31
0.0
  0
LINE
  5
252
330
1F
100
AcDbEntity
  8
0
  6
Continuous
 62
     7
370
    25
100
AcDbLine
 10
641.9933039969
 20
908.3510093
 30
0.0
 11
642.3964996165
 21
907.9563669469
 31
0.0
  0
LINE
  5
253
330
1F
100
AcDbEntity
  8
0
  6
Continuous
 62
     7
370
    25
100
AcDbLine
 10
642.3964996165
 20
907.9563669469
 30
0.0
 11
642.8210038966
 21
908.3510093
 31
0.0
  0
LINE
  5
254
330
1F
100
AcDbEntity
  8
0
  6
Continuous
 62
     7
370
    25
100
AcDbLine
 10
642.8240586347
 20
908.3510093
 30
0.0
 11
643.2636428899
 21
907.8820101526
 31
0.0
  0
LINE
  5
255
330
1F
100
AcDbEntity
  8
0
  6
Continuous
 62
     7
370
    25
100
AcDbLine
 10
643.2636428899
 20
907.8820101526
 30
0.0
 11
643.8116032905
 21
908.3510093
 31
0.0
  0
LINE
  5
256
330
1F
100
AcDbEntity
  8
0
  6
Continuous
 62
     7
370
    25
100
AcDbLine
 10
643.814613325
 20
908.3510093
 30
0.0
 11
644.2001361674
 21
907.8820101526
 31
0.0
  0
LINE
  5
257
330
1F
100
AcDbEntity
  8
0
  6
Continuous
 62
     7
370
    25
100
AcDbLine
 10
644.2001361674
 20
907.8820101526
 30
0.0
 11
644.7840232676
 21
908.3510093
 31
0.0
  0
LINE
  5
258
330
1F
100
AcDbEntity
  8
0
  6
Continuous
 62
     7
370
    25
100
AcDbLine
 10
644.7869587964
 20
908.3510093
 30
0.0
 11
645.1145608252
 21
907.8820101526
 31
0.0
  0
LINE
  5
259
330
1F
100
AcDbEntity
  8
0
  6
Continuous
 62
     7
370
    25
100
AcDbLine
 10
645.1145608252
 20
907.8820101526
 30
0.0
 11
645.7285333699
 21
908.3510093
 31
0.0
  0
LINE
  5
25A
330
1F
100
AcDbEntity
  8
0
  6
Continuous
 62
     7
370
    25
100
AcDbLine
 10
645.7313794917
 20
908.3510093
 30
0.0
 11
645.9977824515
 21
907.8820101526
 31
0.0
  0
LINE
  5
25B
330
1F
100
AcDbEntity
  8
0
  6
Continuous
 62
     7
370
    25
100
AcDbLine
 10
645.9977824515
 20
907.8820101526
 30
0.0
 11
646.6357160634
 21
908.3510093
 31
0.0
  0
LINE
  5
25C
330
1F
100
AcDbEntity
  8
0
  6
Continuous
 62
     7
370
    25
100
AcDbLine
 10
646.6384280747
 20
908.3510093
 30
0.0
 11
646.8409795588
 21
907.8820101526
 31
0.0
  0
LINE
  5
25D
330
1F
100
AcDbEntity
  8
0
  6
Continuous
 62
     7
370
    25
100
AcDbLine
 10
646.8409795588
 20
907.8820101526
 30
0.0
 11
647.4964816398
 21
908.3510093
 31
0.0
  0
LINE
  5
25E
330
1F
100
AcDbEntity
  8
0
  6
Continuous
 62
     7
370
    25
100
AcDbLine
 10
647.4990446395
 20
908.3510093
 30
0.0
 11
647.6357329911
 21
907.8820101526
 31
0.0
  0
LINE
  5
25F
330
1F
100
AcDbEntity
  8
0
  6
Continuous
 62
     7
370
    25
100
AcDbLine
 10
647.6357329911
 20
907.8820101526
 30
0.0
 11
648.3022619313
 21
908.3510093
 31
0.0
  0
LINE
  5
260
330
1F
100
AcDbEntity
  8
0
  6
Continuous
 62
     7
370
    25
100
AcDbLine
 10
648.3046461171
 20
908.3510093
 30
0.0
 11
648.3740855283
 21
907.8820101526
 31
0.0
  0
LINE
  5
261
330
1F
100
AcDbEntity
  8
0
  6
Continuous
 62
     7
370
    25
100
AcDbLine
 10
648.3740855283
 20
907.8820101526
 30
0.0
 11
649.0449805087
 21
908.3510093
 31
0.0
  0
LINE
  5
262
330
1F
100
AcDbEntity
  8
0
  6
Continuous
 62
     7
370
    25
100
AcDbLine
 10
649.0471560782
 20
908.3510093
 30
0.0
 11
649.0486610955
 21
907.8820101526
 31
0.0
  0
LINE
  5
263
330
1F
100
AcDbEntity
  8
0
  6
Continuous
 62
     7
370
    25
100
AcDbLine
 10
649.0486610955
 20
907.8820101526
 30
0.0
 11
649.7172314948
 21
908.3510093
 31
0.0
  0
LINE
  5
264
330
1F
100
AcDbEntity
  8
0
  6
Continuous
 62
     7
370
    25
100
AcDbLine
 10
649.7191835469
 20
908.3510093
 30
0.0
 11
649.6527392692
 21
907.8820101526
 31
0.0
  0
LINE
  5
265
330
1F
100
AcDbEntity
  8
0
  6
Continuous
 62
     7
370
    25
100
AcDbLine
 10
649.6527392692
 20
907.8820101526
 30
0.0
 11
650.3122944659
 21
908.3510093
 31
0.0
  0
LINE
  5
266
330
1F
100
AcDbEntity
  8
0
  6
Continuous
 62
     7
370
    25
100
AcDbLine
 10
650.3139931983
 20
908.3510093
 30
0.0
 11
650.1802552766
 21
907.8820101526
 31
0.0
  0
LINE
  5
267
330
1F
100
AcDbEntity
  8
0
  6
Continuous
 62
     7
370
    25
100
AcDbLine
 10
650.1802552766
 20
907.8820101526
 30
0.0
 11
650.8242089576
 21
908.3510093
 31
0.0
  0
LINE
  5
268
330
1F
100
AcDbEntity
  8
0
  6
Continuous
 62
     7
370
    25
100
AcDbLine
 10
650.8256543702
 20
908.3510093
 30
0.0
 11
650.625963909
 21
907.8820101526
 31
0.0
  0
LINE
  5
269
330
1F
100
AcDbEntity
  8
0
  6
Continuous
 62
     7
370
    25
100
AcDbLine
 10
650.625963909
 20
907.8820101526
 30
0.0
 11
651.2478787726
 21
908.3510093
 31
0.0
  0
LINE
  5
26A
330
1F
100
AcDbEntity
  8
0
  6
Continuous
 62
     7
370
    25
100
AcDbLine
 10
651.2490559644
 20
908.3510093
 30
0.0
 11
650.9854097194
 21
907.8820101526
 31
0.0
  0
LINE
  5
26B
330
1F
100
AcDbEntity
  8
0
  6
Continuous
 62
     7
370
    25
100
AcDbLine
 10
650.9854097194
 20
907.8820101526
 30
0.0
 11
651.5790719813
 21
908.3510093
 31
0.0
  0
LINE
  5
26C
330
1F
100
AcDbEntity
  8
0
  6
Continuous
 62
     7
370
    25
100
AcDbLine
 10
651.5799511498
 20
908.3510093
 30
0.0
 11
651.2549866265
 21
907.8820101526
 31
0.0
  0
LINE
  5
26D
330
1F
100
AcDbEntity
  8
0
  6
Continuous
 62
     7
370
    25
100
AcDbLine
 10
651.2549866265
 20
907.8820101526
 30
0.0
 11
651.8144656247
 21
908.3510093
 31
0.0
  0
LINE
  5
26E
330
1F
100
AcDbEntity
  8
0
  6
Continuous
 62
     7
370
    25
100
AcDbLine
 10
651.81504677
 20
908.3510093
 30
0.0
 11
651.4320124215
 21
907.8820101526
 31
0.0
  0
LINE
  5
26F
330
1F
100
AcDbEntity
  8
0
  6
Continuous
 62
     7
370
    25
100
AcDbLine
 10
651.4320124215
 20
907.8820101526
 30
0.0
 11
651.9517202205
 21
908.3510093
 31
0.0
  0
LINE
  5
270
330
1F
100
AcDbEntity
  8
0
  6
Continuous
 62
     7
370
    25
100
AcDbLine
 10
651.9519884414
 20
908.3510093
 30
0.0
 11
651.514698965
 21
907.8820101526
 31
0.0
  0
SPLINE
  5
271
330
1F
100
AcDbEntity
  8
0
  6
Continuous
 62
     7
370
    25
100
AcDbSpline
210
0.0
220
0.0
230
1.0
 70
     8
 71
     3
 72
     9
 73
     5
 74
     0
 42
0.000000001
 43
0.00000001
 40
0.0
 40
0.0
 40
0.0
 40
0.0
 40
0.7419342015826396
 40
1.0
 40
1.0
 40
1.0
 40
1.0
 10
651.5146989649666
 20
907.8820101525557
 30
0.0
 10
651.6324611578776
 20
907.9965505637704
 30
0.0
 10
651.7911843878625
 20
908.1509313848326
 30
0.0
 10
651.9480218908546
 20
908.3092094662115
 30
0.0
 10
651.9884962862861
 20
908.3500556256545
 30
0.0
  0
SPLINE
  5
272
330
1F
100
AcDbEntity
  8
0
  6
Continuous
 62
     7
370
    25
100
AcDbSpline
210
0.0
220
0.0
230
1.0
 70
     8
 71
     3
 72
     9
 73
     5
 74
     0
 42
0.000000001
 43
0.00000001
 40
0.0
 40
0.0
 40
0.0
 40
0.0
 40
0.5886287660613692
 40
1.0
 40
1.0
 40
1.0
 40
1.0
 10
631.9975156611335
 20
908.3510092999709
 30
0.0
 10
632.0885889235
 20
908.2578155865966
 30
0.0
 10
632.2433099762543
 20
908.0994921767535
 30
0.0
 10
632.4000321555181
 20
907.9453994625419
 30
0.0
 10
632.4645031517875
 20
907.8820101525557
 30
0.0
  0
LINE
  5
273
330
1F
100
AcDbEntity
  8
0
  6
Continuous
 62
     7
370
    25
100
AcDbLine
 10
632.4645031518
 20
907.8820101526
 30
0.0
 11
632.0182431764
 21
908.3510093
 31
0.0
  0
LINE
  5
274
330
1F
100
AcDbEntity
  8
0
  6
Continuous
 62
     7
370
    25
100
AcDbLine
 10
651.4892328805
 20
907.850062063
 30
0.0
 11
632.4942607707
 21
907.850062063
 31
0.0
  0
LINE
  5
275
330
1F
100
AcDbEntity
  8
0
  6
Continuous
 62
     7
370
    25
100
AcDbLine
 10
642.3964996165
 20
907.9563669469
 30
0.0
 11
642.3964996165
 21
911.7437354829
 31
0.0
  0
LINE
  5
276
330
1F
100
AcDbEntity
  8
0
  6
Continuous
 62
     7
370
    25
100
AcDbLine
 10
642.8226430243
 20
908.3500556257
 30
0.0
 11
642.8226430243
 21
911.3500468042
 31
0.0
  0
LINE
  5
277
330
1F
100
AcDbEntity
  8
0
  6
Continuous
 62
     7
370
    25
100
AcDbLine
 10
643.2636428899
 20
907.8820101526
 30
0.0
 11
643.2636428899
 21
911.8180922773
 31
0.0
  0
LINE
  5
278
330
1F
100
AcDbEntity
  8
0
  6
Continuous
 62
     7
370
    25
100
AcDbLine
 10
640.9934211797
 20
908.3500556257
 30
0.0
 11
640.9934211797
 21
911.3500468042
 31
0.0
  0
LINE
  5
279
330
1F
100
AcDbEntity
  8
0
  6
Continuous
 62
     7
370
    25
100
AcDbLine
 10
640.574132306
 20
907.8820101526
 30
0.0
 11
640.574132306
 21
911.8180922773
 31
0.0
  0
LINE
  5
27A
330
1F
100
AcDbEntity
  8
0
  6
Continuous
 62
     7
370
    25
100
AcDbLine
 10
644.2001361674
 20
907.8820101526
 30
0.0
 11
644.2001361674
 21
911.8180922773
 31
0.0
  0
LINE
  5
27B
330
1F
100
AcDbEntity
  8
0
  6
Continuous
 62
     7
370
    25
100
AcDbLine
 10
643.8133765286
 20
908.3500556257
 30
0.0
 11
643.8133765286
 21
911.3500468042
 31
0.0
  0
LINE
  5
27C
330
1F
100
AcDbEntity
  8
0
  6
Continuous
 62
     7
370
    25
100
AcDbLine
 10
640.00505696
 20
908.3500556257
 30
0.0
 11
640.00505696
 21
911.3500468042
 31
0.0
  0
LINE
  5
27D
330
1F
100
AcDbEntity
  8
0
  6
Continuous
 62
     7
370
    25
100
AcDbLine
 10
639.6404404467
 20
907.8820101526
 30
0.0
 11
639.6404404467
 21
911.8180922773
 31
0.0
  0
LINE
  5
27E
330
1F
100
AcDbEntity
  8
0
  6
Continuous
 62
     7
370
    25
100
AcDbLine
 10
644.785900814
 20
908.3500556257
 30
0.0
 11
644.785900814
 21
911.3500468042
 31
0.0
  0
LINE
  5
27F
330
1F
100
AcDbEntity
  8
0
  6
Continuous
 62
     7
370
    25
100
AcDbLine
 10
645.1145608252
 20
907.8820101526
 30
0.0
 11
645.1145608252
 21
911.8180922773
 31
0.0
  0
LINE
  5
280
330
1F
100
AcDbEntity
  8
0
  6
Continuous
 62
     7
370
    25
100
AcDbLine
 10
639.036541087
 20
908.3500556257
 30
0.0
 11
639.036541087
 21
911.3500468042
 31
0.0
  0
LINE
  5
281
330
1F
100
AcDbEntity
  8
0
  6
Continuous
 62
     7
370
    25
100
AcDbLine
 10
638.7302477187
 20
907.8820101526
 30
0.0
 11
638.7302477187
 21
911.8180922773
 31
0.0
  0
LINE
  5
282
330
1F
100
AcDbEntity
  8
0
  6
Continuous
 62
     7
370
    25
100
AcDbLine
 10
645.9977824515
 20
907.8820101526
 30
0.0
 11
645.9977824515
 21
911.8180922773
 31
0.0
  0
LINE
  5
283
330
1F
100
AcDbEntity
  8
0
  6
Continuous
 62
     7
370
    25
100
AcDbLine
 10
645.7305152244
 20
908.3500556257
 30
0.0
 11
645.7305152244
 21
911.3500468042
 31
0.0
  0
LINE
  5
284
330
1F
100
AcDbEntity
  8
0
  6
Continuous
 62
     7
370
    25
100
AcDbLine
 10
638.0975742167
 20
908.3500556257
 30
0.0
 11
638.0975742167
 21
911.3500468042
 31
0.0
  0
LINE
  5
285
330
1F
100
AcDbEntity
  8
0
  6
Continuous
 62
     7
370
    25
100
AcDbLine
 10
637.8526438302
 20
907.8820101526
 30
0.0
 11
637.8526438302
 21
911.8180922773
 31
0.0
  0
LINE
  5
286
330
1F
100
AcDbEntity
  8
0
  6
Continuous
 62
     7
370
    25
100
AcDbLine
 10
646.8409795588
 20
907.8820101526
 30
0.0
 11
646.8409795588
 21
911.8180922773
 31
0.0
  0
LINE
  5
287
330
1F
100
AcDbEntity
  8
0
  6
Continuous
 62
     7
370
    25
100
AcDbLine
 10
646.6377724236
 20
908.3500556257
 30
0.0
 11
646.6377724236
 21
911.3500468042
 31
0.0
  0
LINE
  5
288
330
1F
100
AcDbEntity
  8
0
  6
Continuous
 62
     7
370
    25
100
AcDbLine
 10
637.1974993771
 20
908.3500556257
 30
0.0
 11
637.1974993771
 21
911.3500468042
 31
0.0
  0
LINE
  5
289
330
1F
100
AcDbEntity
  8
0
  6
Continuous
 62
     7
370
    25
100
AcDbLine
 10
637.016390664
 20
907.8820101526
 30
0.0
 11
637.016390664
 21
911.8180922773
 31
0.0
  0
LINE
  5
28A
330
1F
100
AcDbEntity
  8
0
  6
Continuous
 62
     7
370
    25
100
AcDbLine
 10
647.4986125058
 20
908.3500556257
 30
0.0
 11
647.4986125058
 21
911.3500468042
 31
0.0
  0
LINE
  5
28B
330
1F
100
AcDbEntity
  8
0
  6
Continuous
 62
     7
370
    25
100
AcDbLine
 10
647.6357329911
 20
907.8820101526
 30
0.0
 11
647.6357329911
 21
911.8180922773
 31
0.0
  0
LINE
  5
28C
330
1F
100
AcDbEntity
  8
0
  6
Continuous
 62
     7
370
    25
100
AcDbLine
 10
636.3453317708
 20
908.3500556257
 30
0.0
 11
636.3453317708
 21
911.3500468042
 31
0.0
  0
LINE
  5
28D
330
1F
100
AcDbEntity
  8
0
  6
Continuous
 62
     7
370
    25
100
AcDbLine
 10
636.2298477715
 20
907.8820101526
 30
0.0
 11
636.2298477715
 21
911.8180922773
 31
0.0
  0
LINE
  5
28E
330
1F
100
AcDbEntity
  8
0
  6
Continuous
 62
     7
370
    25
100
AcDbLine
 10
648.3044225997
 20
908.3500556257
 30
0.0
 11
648.3044225997
 21
911.3500468042
 31
0.0
  0
LINE
  5
28F
330
1F
100
AcDbEntity
  8
0
  6
Continuous
 62
     7
370
    25
100
AcDbLine
 10
648.3740855283
 20
907.8820101526
 30
0.0
 11
648.3740855283
 21
911.8180922773
 31
0.0
  0
LINE
  5
290
330
1F
100
AcDbEntity
  8
0
  6
Continuous
 62
     7
370
    25
100
AcDbLine
 10
635.5495799607
 20
908.3500556257
 30
0.0
 11
635.5495799607
 21
911.3500468042
 31
0.0
  0
LINE
  5
291
330
1F
100
AcDbEntity
  8
0
  6
Continuous
 62
     7
370
    25
100
AcDbLine
 10
635.5008829659
 20
907.8820101526
 30
0.0
 11
635.5008829659
 21
911.8180922773
 31
0.0
  0
LINE
  5
292
330
1F
100
AcDbEntity
  8
0
  6
Continuous
 62
     7
370
    25
100
AcDbLine
 10
649.0471560782
 20
908.3500556257
 30
0.0
 11
649.0471560782
 21
911.3500468042
 31
0.0
  0
LINE
  5
293
330
1F
100
AcDbEntity
  8
0
  6
Continuous
 62
     7
370
    25
100
AcDbLine
 10
649.0486610955
 20
907.8820101526
 30
0.0
 11
649.0486610955
 21
911.8180922773
 31
0.0
  0
LINE
  5
294
330
1F
100
AcDbEntity
  8
0
  6
Continuous
 62
     7
370
    25
100
AcDbLine
 10
634.8181862658
 20
908.3500556257
 30
0.0
 11
634.8181862658
 21
911.3500468042
 31
0.0
  0
LINE
  5
295
330
1F
100
AcDbEntity
  8
0
  6
Continuous
 62
     7
370
    25
100
AcDbLine
 10
649.7193921632
 20
908.3500556257
 30
0.0
 11
649.7193921632
 21
911.3500468042
 31
0.0
  0
LINE
  5
296
330
1F
100
AcDbEntity
  8
0
  6
Continuous
 62
     7
370
    25
100
AcDbLine
 10
634.1584820575
 20
908.3500556257
 30
0.0
 11
634.1584820575
 21
911.3500468042
 31
0.0
  0
LINE
  5
297
330
1F
100
AcDbEntity
  8
0
  6
Continuous
 62
     7
370
    25
100
AcDbLine
 10
650.314425332
 20
908.3500556257
 30
0.0
 11
650.314425332
 21
911.3500468042
 31
0.0
  0
LINE
  5
298
330
1F
100
AcDbEntity
  8
0
  6
Continuous
 62
     7
370
    25
100
AcDbLine
 10
633.5770387477
 20
908.3500556257
 30
0.0
 11
633.5770387477
 21
911.3500468042
 31
0.0
  0
LINE
  5
299
330
1F
100
AcDbEntity
  8
0
  6
Continuous
 62
     7
370
    25
100
AcDbLine
 10
650.8262951201
 20
908.3500556257
 30
0.0
 11
650.8262951201
 21
911.3500468042
 31
0.0
  0
LINE
  5
29A
330
1F
100
AcDbEntity
  8
0
  6
Continuous
 62
     7
370
    25
100
AcDbLine
 10
633.0796826905
 20
908.3500556257
 30
0.0
 11
633.0796826905
 21
911.3500468042
 31
0.0
  0
LINE
  5
29B
330
1F
100
AcDbEntity
  8
0
  6
Continuous
 62
     7
370
    25
100
AcDbLine
 10
651.2498904294
 20
908.3500556257
 30
0.0
 11
651.2498904294
 21
911.3500468042
 31
0.0
  0
LINE
  5
29C
330
1F
100
AcDbEntity
  8
0
  6
Continuous
 62
     7
370
    25
100
AcDbLine
 10
632.6713610715
 20
908.3500556257
 30
0.0
 11
632.6713610715
 21
911.3500468042
 31
0.0
  0
LINE
  5
29D
330
1F
100
AcDbEntity
  8
0
  6
Continuous
 62
     7
370
    25
100
AcDbLine
 10
651.5809942311
 20
908.3500556257
 30
0.0
 11
651.5809942311
 21
911.3500468042
 31
0.0
  0
LINE
  5
29E
330
1F
100
AcDbEntity
  8
0
  6
Continuous
 62
     7
370
    25
100
AcDbLine
 10
632.3561717099
 20
908.3500556257
 30
0.0
 11
632.3561717099
 21
911.3500468042
 31
0.0
  0
LINE
  5
29F
330
1F
100
AcDbEntity
  8
0
  6
Continuous
 62
     7
370
    25
100
AcDbLine
 10
651.8162835664
 20
908.3500556257
 30
0.0
 11
651.8162835664
 21
911.3500468042
 31
0.0
  0
LINE
  5
2A0
330
1F
100
AcDbEntity
  8
0
  6
Continuous
 62
     7
370
    25
100
AcDbLine
 10
632.1372587508
 20
908.3500556257
 30
0.0
 11
632.1372587508
 21
911.3500468042
 31
0.0
  0
LINE
  5
2A1
330
1F
100
AcDbEntity
  8
0
  6
Continuous
 62
     7
370
    25
100
AcDbLine
 10
651.9534040517
 20
908.3500556257
 30
0.0
 11
651.9534040517
 21
911.3500468042
 31
0.0
  0
LINE
  5
2A2
330
1F
100
AcDbEntity
  8
0
  6
Continuous
 62
     7
370
    25
100
AcDbLine
 10
632.0167977637
 20
908.3500556257
 30
0.0
 11
632.0167977637
 21
911.3500468042
 31
0.0
  0
LINE
  5
2A3
330
1F
100
AcDbEntity
  8
0
  6
Continuous
 62
     7
370
    25
100
AcDbLine
 10
651.9892413443
 20
911.3500468042
 30
0.0
 11
651.9884962863
 21
911.3500468042
 31
0.0
  0
LINE
  5
2A4
330
1F
100
AcDbEntity
  8
0
  6
Continuous
 62
     7
370
    25
100
AcDbLine
 10
651.9892413443
 20
911.3500468042
 30
0.0
 11
651.9892413443
 21
908.3500556257
 31
0.0
  0
LINE
  5
2A5
330
1F
100
AcDbEntity
  8
0
  6
Continuous
 62
     7
370
    25
100
AcDbLine
 10
651.9884962863
 20
908.3500556257
 30
0.0
 11
651.9892413443
 21
908.3500556257
 31
0.0
  0
LINE
  5
2A6
330
1F
100
AcDbEntity
  8
0
  6
Continuous
 62
     7
370
    25
100
AcDbLine
 10
631.9960106439
 20
911.3500468042
 30
0.0
 11
631.9960106439
 21
908.3500556257
 31
0.0
  0
LINE
  5
2A7
330
1F
100
AcDbEntity
  8
0
  6
Continuous
 62
     7
370
    25
100
AcDbLine
 10
258.0184538192
 20
908.3510093
 30
0.0
 11
258.5325289792
 21
907.8820101526
 31
0.0
  0
LINE
  5
2A8
330
1F
100
AcDbEntity
  8
0
  6
Continuous
 62
     7
370
    25
100
AcDbLine
 10
258.5325289792
 20
907.8820101526
 30
0.0
 11
258.1385273761
 21
908.3510093
 31
0.0
  0
LINE
  5
2A9
330
1F
100
AcDbEntity
  8
0
  6
Continuous
 62
     7
370
    25
100
AcDbLine
 10
258.1390489167
 20
908.3510093
 30
0.0
 11
258.6950708455
 21
907.8820101526
 31
0.0
  0
LINE
  5
2AA
330
1F
100
AcDbEntity
  8
0
  6
Continuous
 62
     7
370
    25
100
AcDbLine
 10
258.6950708455
 20
907.8820101526
 30
0.0
 11
258.3572615212
 21
908.3510093
 31
0.0
  0
LINE
  5
2AB
330
1F
100
AcDbEntity
  8
0
  6
Continuous
 62
     7
370
    25
100
AcDbLine
 10
258.3580810851
 20
908.3510093
 30
0.0
 11
258.9505065507
 21
907.8820101526
 31
0.0
  0
LINE
  5
2AC
330
1F
100
AcDbEntity
  8
0
  6
Continuous
 62
     7
370
    25
100
AcDbLine
 10
258.9505065507
 20
907.8820101526
 30
0.0
 11
258.6722571677
 21
908.3510093
 31
0.0
  0
LINE
  5
2AD
330
1F
100
AcDbEntity
  8
0
  6
Continuous
 62
     7
370
    25
100
AcDbLine
 10
258.6733598536
 20
908.3510093
 30
0.0
 11
259.296273095
 21
907.8820101526
 31
0.0
  0
LINE
  5
2AE
330
1F
100
AcDbEntity
  8
0
  6
Continuous
 62
     7
370
    25
100
AcDbLine
 10
259.296273095
 20
907.8820101526
 30
0.0
 11
259.0803701705
 21
908.3510093
 31
0.0
  0
LINE
  5
2AF
330
1F
100
AcDbEntity
  8
0
  6
Continuous
 62
     7
370
    25
100
AcDbLine
 10
259.0817559785
 20
908.3510093
 30
0.0
 11
259.7289283103
 21
907.8820101526
 31
0.0
  0
LINE
  5
2B0
330
1F
100
AcDbEntity
  8
0
  6
Continuous
 62
     7
370
    25
100
AcDbLine
 10
259.7289283103
 20
907.8820101526
 30
0.0
 11
259.5775325126
 21
908.3510093
 31
0.0
  0
LINE
  5
2B1
330
1F
100
AcDbEntity
  8
0
  6
Continuous
 62
     7
370
    25
100
AcDbLine
 10
259.5791865415
 20
908.3510093
 30
0.0
 11
260.2441359586
 21
907.8820101526
 31
0.0
  0
LINE
  5
2B2
330
1F
100
AcDbEntity
  8
0
  6
Continuous
 62
     7
370
    25
100
AcDbLine
 10
260.2441359586
 20
907.8820101526
 30
0.0
 11
260.1587523049
 21
908.3510093
 31
0.0
  0
LINE
  5
2B3
330
1F
100
AcDbEntity
  8
0
  6
Continuous
 62
     7
370
    25
100
AcDbLine
 10
260.1606596536
 20
908.3510093
 30
0.0
 11
260.8367700404
 21
907.8820101526
 31
0.0
  0
LINE
  5
2B4
330
1F
100
AcDbEntity
  8
0
  6
Continuous
 62
     7
370
    25
100
AcDbLine
 10
260.8367700404
 20
907.8820101526
 30
0.0
 11
260.818247897
 21
908.3510093
 31
0.0
  0
LINE
  5
2B5
330
1F
100
AcDbEntity
  8
0
  6
Continuous
 62
     7
370
    25
100
AcDbLine
 10
260.8203787631
 20
908.3510093
 30
0.0
 11
261.5008849925
 21
907.8820101526
 31
0.0
  0
LINE
  5
2B6
330
1F
100
AcDbEntity
  8
0
  6
Continuous
 62
     7
370
    25
100
AcDbLine
 10
261.5008849925
 20
907.8820101526
 30
0.0
 11
261.5494180745
 21
908.3510093
 31
0.0
  0
LINE
  5
2B7
330
1F
100
AcDbEntity
  8
0
  6
Continuous
 62
     7
370
    25
100
AcDbLine
 10
261.5517575568
 20
908.3510093
 30
0.0
 11
262.2298497981
 21
907.8820101526
 31
0.0
  0
LINE
  5
2B8
330
1F
100
AcDbEntity
  8
0
  6
Continuous
 62
     7
370
    25
100
AcDbLine
 10
262.2298497981
 20
907.8820101526
 30
0.0
 11
262.3449463672
 21
908.3510093
 31
0.0
  0
LINE
  5
2B9
330
1F
100
AcDbEntity
  8
0
  6
Continuous
 62
     7
370
    25
100
AcDbLine
 10
262.3474795646
 20
908.3510093
 30
0.0
 11
263.0163926906
 21
907.8820101526
 31
0.0
  0
LINE
  5
2BA
330
1F
100
AcDbEntity
  8
0
  6
Continuous
 62
     7
370
    25
100
AcDbLine
 10
263.0163926906
 20
907.8820101526
 30
0.0
 11
263.1969053573
 21
908.3510093
 31
0.0
  0
LINE
  5
2BB
330
1F
100
AcDbEntity
  8
0
  6
Continuous
 62
     7
370
    25
100
AcDbLine
 10
263.1996024674
 20
908.3510093
 30
0.0
 11
263.8526458568
 21
907.8820101526
 31
0.0
  0
LINE
  5
2BC
330
1F
100
AcDbEntity
  8
0
  6
Continuous
 62
     7
370
    25
100
AcDbLine
 10
263.8526458568
 20
907.8820101526
 30
0.0
 11
264.0967715806
 21
908.3510093
 31
0.0
  0
LINE
  5
2BD
330
1F
100
AcDbEntity
  8
0
  6
Continuous
 62
     7
370
    25
100
AcDbLine
 10
264.0996028012
 20
908.3510093
 30
0.0
 11
264.7302497453
 21
907.8820101526
 31
0.0
  0
LINE
  5
2BE
330
1F
100
AcDbEntity
  8
0
  6
Continuous
 62
     7
370
    25
100
AcDbLine
 10
264.7302497453
 20
907.8820101526
 30
0.0
 11
265.035559637
 21
908.3510093
 31
0.0
  0
LINE
  5
2BF
330
1F
100
AcDbEntity
  8
0
  6
Continuous
 62
     7
370
    25
100
AcDbLine
 10
265.0384802646
 20
908.3510093
 30
0.0
 11
265.6404424733
 21
907.8820101526
 31
0.0
  0
LINE
  5
2C0
330
1F
100
AcDbEntity
  8
0
  6
Continuous
 62
     7
370
    25
100
AcDbLine
 10
265.6404424733
 20
907.8820101526
 30
0.0
 11
266.0038817948
 21
908.3510093
 31
0.0
  0
LINE
  5
2C1
330
1F
100
AcDbEntity
  8
0
  6
Continuous
 62
     7
370
    25
100
AcDbLine
 10
266.0068769282
 20
908.3510093
 30
0.0
 11
266.5741343326
 21
907.8820101526
 31
0.0
  0
LINE
  5
2C2
330
1F
100
AcDbEntity
  8
0
  6
Continuous
 62
     7
370
    25
100
AcDbLine
 10
266.5741343326
 20
907.8820101526
 30
0.0
 11
266.9920672006
 21
908.3510093
 31
0.0
  0
LINE
  5
2C3
330
1F
100
AcDbEntity
  8
0
  6
Continuous
 62
     7
370
    25
100
AcDbLine
 10
266.9951070374
 20
908.3510093
 30
0.0
 11
267.5219822949
 21
907.8820101526
 31
0.0
  0
LINE
  5
2C4
330
1F
100
AcDbEntity
  8
0
  6
Continuous
 62
     7
370
    25
100
AcDbLine
 10
267.5219822949
 20
907.8820101526
 30
0.0
 11
267.9902363843
 21
908.3510093
 31
0.0
  0
LINE
  5
2C5
330
1F
100
AcDbEntity
  8
0
  6
Continuous
 62
     7
370
    25
100
AcDbLine
 10
267.9933060235
 20
908.3510093
 30
0.0
 11
268.3965016431
 21
907.9563669469
 31
0.0
  0
LINE
  5
2C6
330
1F
100
AcDbEntity
  8
0
  6
Continuous
 62
     7
370
    25
100
AcDbLine
 10
268.3965016431
 20
907.9563669469
 30
0.0
 11
268.8210059232
 21
908.3510093
 31
0.0
  0
LINE
  5
2C7
330
1F
100
AcDbEntity
  8
0
  6
Continuous
 62
     7
370
    25
100
AcDbLine
 10
268.8240606612
 20
908.3510093
 30
0.0
 11
269.2636449164
 21
907.8820101526
 31
0.0
  0
LINE
  5
2C8
330
1F
100
AcDbEntity
  8
0
  6
Continuous
 62
     7
370
    25
100
AcDbLine
 10
269.2636449164
 20
907.8820101526
 30
0.0
 11
269.811605317
 21
908.3510093
 31
0.0
  0
LINE
  5
2C9
330
1F
100
AcDbEntity
  8
0
  6
Continuous
 62
     7
370
    25
100
AcDbLine
 10
269.8146153516
 20
908.3510093
 30
0.0
 11
270.200138194
 21
907.8820101526
 31
0.0
  0
LINE
  5
2CA
330
1F
100
AcDbEntity
  8
0
  6
Continuous
 62
     7
370
    25
100
AcDbLine
 10
270.200138194
 20
907.8820101526
 30
0.0
 11
270.784010393
 21
908.3510093
 31
0.0
  0
LINE
  5
2CB
330
1F
100
AcDbEntity
  8
0
  6
Continuous
 62
     7
370
    25
100
AcDbLine
 10
270.786960823
 20
908.3510093
 30
0.0
 11
271.1145628518
 21
907.8820101526
 31
0.0
  0
LINE
  5
2CC
330
1F
100
AcDbEntity
  8
0
  6
Continuous
 62
     7
370
    25
100
AcDbLine
 10
271.1145628518
 20
907.8820101526
 30
0.0
 11
271.7285353965
 21
908.3510093
 31
0.0
  0
LINE
  5
2CD
330
1F
100
AcDbEntity
  8
0
  6
Continuous
 62
     7
370
    25
100
AcDbLine
 10
271.7313815183
 20
908.3510093
 30
0.0
 11
271.9977844781
 21
907.8820101526
 31
0.0
  0
LINE
  5
2CE
330
1F
100
AcDbEntity
  8
0
  6
Continuous
 62
     7
370
    25
100
AcDbLine
 10
271.9977844781
 20
907.8820101526
 30
0.0
 11
272.6357031888
 21
908.3510093
 31
0.0
  0
LINE
  5
2CF
330
1F
100
AcDbEntity
  8
0
  6
Continuous
 62
     7
370
    25
100
AcDbLine
 10
272.6384301013
 20
908.3510093
 30
0.0
 11
272.8409815854
 21
907.8820101526
 31
0.0
  0
LINE
  5
2D0
330
1F
100
AcDbEntity
  8
0
  6
Continuous
 62
     7
370
    25
100
AcDbLine
 10
272.8409815854
 20
907.8820101526
 30
0.0
 11
273.4964836663
 21
908.3510093
 31
0.0
  0
LINE
  5
2D1
330
1F
100
AcDbEntity
  8
0
  6
Continuous
 62
     7
370
    25
100
AcDbLine
 10
273.499046666
 20
908.3510093
 30
0.0
 11
273.6357350177
 21
907.8820101526
 31
0.0
  0
LINE
  5
2D2
330
1F
100
AcDbEntity
  8
0
  6
Continuous
 62
     7
370
    25
100
AcDbLine
 10
273.6357350177
 20
907.8820101526
 30
0.0
 11
274.3022639579
 21
908.3510093
 31
0.0
  0
LINE
  5
2D3
330
1F
100
AcDbEntity
  8
0
  6
Continuous
 62
     7
370
    25
100
AcDbLine
 10
274.3046332425
 20
908.3510093
 30
0.0
 11
274.3740875548
 21
907.8820101526
 31
0.0
  0
LINE
  5
2D4
330
1F
100
AcDbEntity
  8
0
  6
Continuous
 62
     7
370
    25
100
AcDbLine
 10
274.3740875548
 20
907.8820101526
 30
0.0
 11
275.0449825353
 21
908.3510093
 31
0.0
  0
LINE
  5
2D5
330
1F
100
AcDbEntity
  8
0
  6
Continuous
 62
     7
370
    25
100
AcDbLine
 10
275.0471581048
 20
908.3510093
 30
0.0
 11
275.0486631221
 21
907.8820101526
 31
0.0
  0
LINE
  5
2D6
330
1F
100
AcDbEntity
  8
0
  6
Continuous
 62
     7
370
    25
100
AcDbLine
 10
275.0486631221
 20
907.8820101526
 30
0.0
 11
275.7172335214
 21
908.3510093
 31
0.0
  0
LINE
  5
2D7
330
1F
100
AcDbEntity
  8
0
  6
Continuous
 62
     7
370
    25
100
AcDbLine
 10
275.7191855735
 20
908.3510093
 30
0.0
 11
275.6527412957
 21
907.8820101526
 31
0.0
  0
LINE
  5
2D8
330
1F
100
AcDbEntity
  8
0
  6
Continuous
 62
     7
370
    25
100
AcDbLine
 10
275.6527412957
 20
907.8820101526
 30
0.0
 11
276.3122964925
 21
908.3510093
 31
0.0
  0
LINE
  5
2D9
330
1F
100
AcDbEntity
  8
0
  6
Continuous
 62
     7
370
    25
100
AcDbLine
 10
276.3139952248
 20
908.3510093
 30
0.0
 11
276.1802573031
 21
907.8820101526
 31
0.0
  0
LINE
  5
2DA
330
1F
100
AcDbEntity
  8
0
  6
Continuous
 62
     7
370
    25
100
AcDbLine
 10
276.1802573031
 20
907.8820101526
 30
0.0
 11
276.8242109841
 21
908.3510093
 31
0.0
  0
LINE
  5
2DB
330
1F
100
AcDbEntity
  8
0
  6
Continuous
 62
     7
370
    25
100
AcDbLine
 10
276.8256563968
 20
908.3510093
 30
0.0
 11
276.6259659356
 21
907.8820101526
 31
0.0
  0
LINE
  5
2DC
330
1F
100
AcDbEntity
  8
0
  6
Continuous
 62
     7
370
    25
100
AcDbLine
 10
276.6259659356
 20
907.8820101526
 30
0.0
 11
277.2478807992
 21
908.3510093
 31
0.0
  0
LINE
  5
2DD
330
1F
100
AcDbEntity
  8
0
  6
Continuous
 62
     7
370
    25
100
AcDbLine
 10
277.2490430898
 20
908.3510093
 30
0.0
 11
276.9854117459
 21
907.8820101526
 31
0.0
  0
LINE
  5
2DE
330
1F
100
AcDbEntity
  8
0
  6
Continuous
 62
     7
370
    25
100
AcDbLine
 10
276.9854117459
 20
907.8820101526
 30
0.0
 11
277.5790740079
 21
908.3510093
 31
0.0
  0
LINE
  5
2DF
330
1F
100
AcDbEntity
  8
0
  6
Continuous
 62
     7
370
    25
100
AcDbLine
 10
277.5799531764
 20
908.3510093
 30
0.0
 11
277.2549886531
 21
907.8820101526
 31
0.0
  0
LINE
  5
2E0
330
1F
100
AcDbEntity
  8
0
  6
Continuous
 62
     7
370
    25
100
AcDbLine
 10
277.2549886531
 20
907.8820101526
 30
0.0
 11
277.8144676513
 21
908.3510093
 31
0.0
  0
LINE
  5
2E1
330
1F
100
AcDbEntity
  8
0
  6
Continuous
 62
     7
370
    25
100
AcDbLine
 10
277.8150487965
 20
908.3510093
 30
0.0
 11
277.4320144481
 21
907.8820101526
 31
0.0
  0
LINE
  5
2E2
330
1F
100
AcDbEntity
  8
0
  6
Continuous
 62
     7
370
    25
100
AcDbLine
 10
277.4320144481
 20
907.8820101526
 30
0.0
 11
277.951722247
 21
908.3510093
 31
0.0
  0
LINE
  5
2E3
330
1F
100
AcDbEntity
  8
0
  6
Continuous
 62
     7
370
    25
100
AcDbLine
 10
277.9519904679
 20
908.3510093
 30
0.0
 11
277.5147009915
 21
907.8820101526
 31
0.0
  0
SPLINE
  5
2E4
330
1F
100
AcDbEntity
  8
0
  6
Continuous
 62
     7
370
    25
100
AcDbSpline
210
0.0
220
0.0
230
1.0
 70
     8
 71
     3
 72
     9
 73
     5
 74
     0
 42
0.000000001
 43
0.00000001
 40
0.0
 40
0.0
 40
0.0
 40
0.0
 40
0.7419342015826396
 40
1.0
 40
1.0
 40
1.0
 40
1.0
 10
277.5147009915244
 20
907.8820101525557
 30
0.0
 10
277.6324631844357
 20
907.9965505637704
 30
0.0
 10
277.7911864144203
 20
908.1509313848326
 30
0.0
 10
277.9480239174125
 20
908.3092094662115
 30
0.0
 10
277.9884983128439
 20
908.3500556256545
 30
0.0
  0
SPLINE
  5
2E5
330
1F
100
AcDbEntity
  8
0
  6
Continuous
 62
     7
370
    25
100
AcDbSpline
210
0.0
220
0.0
230
1.0
 70
     8
 71
     3
 72
     9
 73
     5
 74
     0
 42
0.000000001
 43
0.00000001
 40
0.0
 40
0.0
 40
0.0
 40
0.0
 40
0.5886347919444501
 40
0.9999999999999999
 40
0.9999999999999999
 40
0.9999999999999999
 40
0.9999999999999999
 10
257.9975176876914
 20
908.3510092999709
 30
0.0
 10
258.08859236506
 20
908.2578162484366
 30
0.0
 10
258.2433142377982
 20
908.0994955837227
 30
0.0
 10
258.4000249446539
 20
907.945399797653
 30
0.0
 10
258.4644902771842
 20
907.8820101525557
 30
0.0
  0
LINE
  5
2E6
330
1F
100
AcDbEntity
  8
0
  6
Continuous
 62
     7
370
    25
100
AcDbLine
 10
258.4644902772
 20
907.8820101526
 30
0.0
 11
258.0182452029
 21
908.3510093
 31
0.0
  0
LINE
  5
2E7
330
1F
100
AcDbEntity
  8
0
  6
Continuous
 62
     7
370
    25
100
AcDbLine
 10
277.489234907
 20
907.850062063
 30
0.0
 11
258.4942627972
 21
907.850062063
 31
0.0
  0
LINE
  5
2E8
330
1F
100
AcDbEntity
  8
0
  6
Continuous
 62
     7
370
    25
100
AcDbLine
 10
268.3965016431
 20
907.9563669469
 30
0.0
 11
268.3965016431
 21
911.7437354829
 31
0.0
  0
LINE
  5
2E9
330
1F
100
AcDbEntity
  8
0
  6
Continuous
 62
     7
370
    25
100
AcDbLine
 10
267.9917563027
 20
908.3500556257
 30
0.0
 11
267.9917563027
 21
911.3500468042
 31
0.0
  0
LINE
  5
2EA
330
1F
100
AcDbEntity
  8
0
  6
Continuous
 62
     7
370
    25
100
AcDbLine
 10
268.3965016431
 20
911.7437354829
 30
0.0
 11
267.9933060235
 21
911.3490931299
 31
0.0
  0
LINE
  5
2EB
330
1F
100
AcDbEntity
  8
0
  6
Continuous
 62
     7
370
    25
100
AcDbLine
 10
277.5147009915
 20
911.8180922773
 30
0.0
 11
277.9519904679
 21
911.3490931299
 31
0.0
  0
LINE
  5
2EC
330
1F
100
AcDbEntity
  8
0
  6
Continuous
 62
     7
370
    25
100
AcDbLine
 10
277.951722247
 20
911.3490931299
 30
0.0
 11
277.4320144481
 21
911.8180922773
 31
0.0
  0
LINE
  5
2ED
330
1F
100
AcDbEntity
  8
0
  6
Continuous
 62
     7
370
    25
100
AcDbLine
 10
277.4320144481
 20
911.8180922773
 30
0.0
 11
277.8150487965
 21
911.3490931299
 31
0.0
  0
LINE
  5
2EE
330
1F
100
AcDbEntity
  8
0
  6
Continuous
 62
     7
370
    25
100
AcDbLine
 10
277.8144676513
 20
911.3490931299
 30
0.0
 11
277.2549886531
 21
911.8180922773
 31
0.0
  0
LINE
  5
2EF
330
1F
100
AcDbEntity
  8
0
  6
Continuous
 62
     7
370
    25
100
AcDbLine
 10
277.2549886531
 20
911.8180922773
 30
0.0
 11
277.5799531764
 21
911.3490931299
 31
0.0
  0
LINE
  5
2F0
330
1F
100
AcDbEntity
  8
0
  6
Continuous
 62
     7
370
    25
100
AcDbLine
 10
277.5790740079
 20
911.3490931299
 30
0.0
 11
276.9854117459
 21
911.8180922773
 31
0.0
  0
LINE
  5
2F1
330
1F
100
AcDbEntity
  8
0
  6
Continuous
 62
     7
370
    25
100
AcDbLine
 10
276.9854117459
 20
911.8180922773
 30
0.0
 11
277.2490430898
 21
911.3490931299
 31
0.0
  0
LINE
  5
2F2
330
1F
100
AcDbEntity
  8
0
  6
Continuous
 62
     7
370
    25
100
AcDbLine
 10
277.2478807992
 20
911.3490931299
 30
0.0
 11
276.6259659356
 21
911.8180922773
 31
0.0
  0
LINE
  5
2F3
330
1F
100
AcDbEntity
  8
0
  6
Continuous
 62
     7
370
    25
100
AcDbLine
 10
276.6259659356
 20
911.8180922773
 30
0.0
 11
276.8256563968
 21
911.3490931299
 31
0.0
  0
LINE
  5
2F4
330
1F
100
AcDbEntity
  8
0
  6
Continuous
 62
     7
370
    25
100
AcDbLine
 10
276.8242109841
 20
911.3490931299
 30
0.0
 11
276.1802573031
 21
911.8180922773
 31
0.0
  0
LINE
  5
2F5
330
1F
100
AcDbEntity
  8
0
  6
Continuous
 62
     7
370
    25
100
AcDbLine
 10
276.1802573031
 20
911.8180922773
 30
0.0
 11
276.3139952248
 21
911.3490931299
 31
0.0
  0
LINE
  5
2F6
330
1F
100
AcDbEntity
  8
0
  6
Continuous
 62
     7
370
    25
100
AcDbLine
 10
276.3122964925
 20
911.3490931299
 30
0.0
 11
275.6527412957
 21
911.8180922773
 31
0.0
  0
LINE
  5
2F7
330
1F
100
AcDbEntity
  8
0
  6
Continuous
 62
     7
370
    25
100
AcDbLine
 10
275.6527412957
 20
911.8180922773
 30
0.0
 11
275.7191855735
 21
911.3490931299
 31
0.0
  0
LINE
  5
2F8
330
1F
100
AcDbEntity
  8
0
  6
Continuous
 62
     7
370
    25
100
AcDbLine
 10
275.7172335214
 20
911.3490931299
 30
0.0
 11
275.0486631221
 21
911.8180922773
 31
0.0
  0
LINE
  5
2F9
330
1F
100
AcDbEntity
  8
0
  6
Continuous
 62
     7
370
    25
100
AcDbLine
 10
275.0486631221
 20
911.8180922773
 30
0.0
 11
275.0471581048
 21
911.3490931299
 31
0.0
  0
LINE
  5
2FA
330
1F
100
AcDbEntity
  8
0
  6
Continuous
 62
     7
370
    25
100
AcDbLine
 10
275.0449825353
 20
911.3490931299
 30
0.0
 11
274.3740875548
 21
911.8180922773
 31
0.0
  0
LINE
  5
2FB
330
1F
100
AcDbEntity
  8
0
  6
Continuous
 62
     7
370
    25
100
AcDbLine
 10
274.3740875548
 20
911.8180922773
 30
0.0
 11
274.3046332425
 21
911.3490931299
 31
0.0
  0
LINE
  5
2FC
330
1F
100
AcDbEntity
  8
0
  6
Continuous
 62
     7
370
    25
100
AcDbLine
 10
274.3022639579
 20
911.3490931299
 30
0.0
 11
273.6357350177
 21
911.8180922773
 31
0.0
  0
LINE
  5
2FD
330
1F
100
AcDbEntity
  8
0
  6
Continuous
 62
     7
370
    25
100
AcDbLine
 10
273.6357350177
 20
911.8180922773
 30
0.0
 11
273.499046666
 21
911.3490931299
 31
0.0
  0
LINE
  5
2FE
330
1F
100
AcDbEntity
  8
0
  6
Continuous
 62
     7
370
    25
100
AcDbLine
 10
273.4964836663
 20
911.3490931299
 30
0.0
 11
272.8409815854
 21
911.8180922773
 31
0.0
  0
LINE
  5
2FF
330
1F
100
AcDbEntity
  8
0
  6
Continuous
 62
     7
370
    25
100
AcDbLine
 10
272.8409815854
 20
911.8180922773
 30
0.0
 11
272.6384301013
 21
911.3490931299
 31
0.0
  0
LINE
  5
300
330
1F
100
AcDbEntity
  8
0
  6
Continuous
 62
     7
370
    25
100
AcDbLine
 10
272.6357031888
 20
911.3490931299
 30
0.0
 11
271.9977844781
 21
911.8180922773
 31
0.0
  0
LINE
  5
301
330
1F
100
AcDbEntity
  8
0
  6
Continuous
 62
     7
370
    25
100
AcDbLine
 10
271.9977844781
 20
911.8180922773
 30
0.0
 11
271.7313815183
 21
911.3490931299
 31
0.0
  0
LINE
  5
302
330
1F
100
AcDbEntity
  8
0
  6
Continuous
 62
     7
370
    25
100
AcDbLine
 10
271.7285353965
 20
911.3490931299
 30
0.0
 11
271.1145628518
 21
911.8180922773
 31
0.0
  0
LINE
  5
303
330
1F
100
AcDbEntity
  8
0
  6
Continuous
 62
     7
370
    25
100
AcDbLine
 10
271.1145628518
 20
911.8180922773
 30
0.0
 11
270.786960823
 21
911.3490931299
 31
0.0
  0
LINE
  5
304
330
1F
100
AcDbEntity
  8
0
  6
Continuous
 62
     7
370
    25
100
AcDbLine
 10
270.784010393
 20
911.3490931299
 30
0.0
 11
270.200138194
 21
911.8180922773
 31
0.0
  0
LINE
  5
305
330
1F
100
AcDbEntity
  8
0
  6
Continuous
 62
     7
370
    25
100
AcDbLine
 10
270.200138194
 20
911.8180922773
 30
0.0
 11
269.8146153516
 21
911.3490931299
 31
0.0
  0
LINE
  5
306
330
1F
100
AcDbEntity
  8
0
  6
Continuous
 62
     7
370
    25
100
AcDbLine
 10
269.811605317
 20
911.3490931299
 30
0.0
 11
269.2636449164
 21
911.8180922773
 31
0.0
  0
LINE
  5
307
330
1F
100
AcDbEntity
  8
0
  6
Continuous
 62
     7
370
    25
100
AcDbLine
 10
269.2636449164
 20
911.8180922773
 30
0.0
 11
268.8240606612
 21
911.3490931299
 31
0.0
  0
LINE
  5
308
330
1F
100
AcDbEntity
  8
0
  6
Continuous
 62
     7
370
    25
100
AcDbLine
 10
268.8210059232
 20
911.3490931299
 30
0.0
 11
268.3965016431
 21
911.7437354829
 31
0.0
  0
LINE
  5
309
330
1F
100
AcDbEntity
  8
0
  6
Continuous
 62
     7
370
    25
100
AcDbLine
 10
267.9902363843
 20
911.3490931299
 30
0.0
 11
267.5219822949
 21
911.8180922773
 31
0.0
  0
LINE
  5
30A
330
1F
100
AcDbEntity
  8
0
  6
Continuous
 62
     7
370
    25
100
AcDbLine
 10
267.5219822949
 20
911.8180922773
 30
0.0
 11
266.9951070374
 21
911.3490931299
 31
0.0
  0
LINE
  5
30B
330
1F
100
AcDbEntity
  8
0
  6
Continuous
 62
     7
370
    25
100
AcDbLine
 10
266.9920672006
 20
911.3490931299
 30
0.0
 11
266.5741343326
 21
911.8180922773
 31
0.0
  0
LINE
  5
30C
330
1F
100
AcDbEntity
  8
0
  6
Continuous
 62
     7
370
    25
100
AcDbLine
 10
266.5741343326
 20
911.8180922773
 30
0.0
 11
266.0068769282
 21
911.3490931299
 31
0.0
  0
LINE
  5
30D
330
1F
100
AcDbEntity
  8
0
  6
Continuous
 62
     7
370
    25
100
AcDbLine
 10
266.0038817948
 20
911.3490931299
 30
0.0
 11
265.6404424733
 21
911.8180922773
 31
0.0
  0
LINE
  5
30E
330
1F
100
AcDbEntity
  8
0
  6
Continuous
 62
     7
370
    25
100
AcDbLine
 10
265.6404424733
 20
911.8180922773
 30
0.0
 11
265.0384802646
 21
911.3490931299
 31
0.0
  0
LINE
  5
30F
330
1F
100
AcDbEntity
  8
0
  6
Continuous
 62
     7
370
    25
100
AcDbLine
 10
265.035559637
 20
911.3490931299
 30
0.0
 11
264.7302497453
 21
911.8180922773
 31
0.0
  0
LINE
  5
310
330
1F
100
AcDbEntity
  8
0
  6
Continuous
 62
     7
370
    25
100
AcDbLine
 10
264.7302497453
 20
911.8180922773
 30
0.0
 11
264.0996028012
 21
911.3490931299
 31
0.0
  0
LINE
  5
311
330
1F
100
AcDbEntity
  8
0
  6
Continuous
 62
     7
370
    25
100
AcDbLine
 10
264.0967715806
 20
911.3490931299
 30
0.0
 11
263.8526458568
 21
911.8180922773
 31
0.0
  0
LINE
  5
312
330
1F
100
AcDbEntity
  8
0
  6
Continuous
 62
     7
370
    25
100
AcDbLine
 10
263.8526458568
 20
911.8180922773
 30
0.0
 11
263.1996024674
 21
911.3490931299
 31
0.0
  0
LINE
  5
313
330
1F
100
AcDbEntity
  8
0
  6
Continuous
 62
     7
370
    25
100
AcDbLine
 10
263.1969053573
 20
911.3490931299
 30
0.0
 11
263.0163926906
 21
911.8180922773
 31
0.0
  0
LINE
  5
314
330
1F
100
AcDbEntity
  8
0
  6
Continuous
 62
     7
370
    25
100
AcDbLine
 10
263.0163926906
 20
911.8180922773
 30
0.0
 11
262.3474795646
 21
911.3490931299
 31
0.0
  0
LINE
  5
315
330
1F
100
AcDbEntity
  8
0
  6
Continuous
 62
     7
370
    25
100
AcDbLine
 10
262.3449463672
 20
911.3490931299
 30
0.0
 11
262.2298497981
 21
911.8180922773
 31
0.0
  0
LINE
  5
316
330
1F
100
AcDbEntity
  8
0
  6
Continuous
 62
     7
370
    25
100
AcDbLine
 10
262.2298497981
 20
911.8180922773
 30
0.0
 11
261.5517575568
 21
911.3490931299
 31
0.0
  0
LINE
  5
317
330
1F
100
AcDbEntity
  8
0
  6
Continuous
 62
     7
370
    25
100
AcDbLine
 10
261.5494180745
 20
911.3490931299
 30
0.0
 11
261.5008849925
 21
911.8180922773
 31
0.0
  0
LINE
  5
318
330
1F
100
AcDbEntity
  8
0
  6
Continuous
 62
     7
370
    25
100
AcDbLine
 10
261.5008849925
 20
911.8180922773
 30
0.0
 11
260.8203787631
 21
911.3490931299
 31
0.0
  0
LINE
  5
319
330
1F
100
AcDbEntity
  8
0
  6
Continuous
 62
     7
370
    25
100
AcDbLine
 10
260.818247897
 20
911.3490931299
 30
0.0
 11
260.8367700404
 21
911.8180922773
 31
0.0
  0
LINE
  5
31A
330
1F
100
AcDbEntity
  8
0
  6
Continuous
 62
     7
370
    25
100
AcDbLine
 10
260.8367700404
 20
911.8180922773
 30
0.0
 11
260.1606596536
 21
911.3490931299
 31
0.0
  0
LINE
  5
31B
330
1F
100
AcDbEntity
  8
0
  6
Continuous
 62
     7
370
    25
100
AcDbLine
 10
260.1587523049
 20
911.3490931299
 30
0.0
 11
260.2441359586
 21
911.8180922773
 31
0.0
  0
LINE
  5
31C
330
1F
100
AcDbEntity
  8
0
  6
Continuous
 62
     7
370
    25
100
AcDbLine
 10
260.2441359586
 20
911.8180922773
 30
0.0
 11
259.5791865415
 21
911.3490931299
 31
0.0
  0
LINE
  5
31D
330
1F
100
AcDbEntity
  8
0
  6
Continuous
 62
     7
370
    25
100
AcDbLine
 10
259.5775325126
 20
911.3490931299
 30
0.0
 11
259.7289283103
 21
911.8180922773
 31
0.0
  0
LINE
  5
31E
330
1F
100
AcDbEntity
  8
0
  6
Continuous
 62
     7
370
    25
100
AcDbLine
 10
259.7289283103
 20
911.8180922773
 30
0.0
 11
259.0817559785
 21
911.3490931299
 31
0.0
  0
LINE
  5
31F
330
1F
100
AcDbEntity
  8
0
  6
Continuous
 62
     7
370
    25
100
AcDbLine
 10
259.0803701705
 20
911.3490931299
 30
0.0
 11
259.296273095
 21
911.8180922773
 31
0.0
  0
LINE
  5
320
330
1F
100
AcDbEntity
  8
0
  6
Continuous
 62
     7
370
    25
100
AcDbLine
 10
259.296273095
 20
911.8180922773
 30
0.0
 11
258.6733598536
 21
911.3490931299
 31
0.0
  0
LINE
  5
321
330
1F
100
AcDbEntity
  8
0
  6
Continuous
 62
     7
370
    25
100
AcDbLine
 10
258.6722571677
 20
911.3490931299
 30
0.0
 11
258.9505065507
 21
911.8180922773
 31
0.0
  0
LINE
  5
322
330
1F
100
AcDbEntity
  8
0
  6
Continuous
 62
     7
370
    25
100
AcDbLine
 10
258.9505065507
 20
911.8180922773
 30
0.0
 11
258.3580810851
 21
911.3490931299
 31
0.0
  0
LINE
  5
323
330
1F
100
AcDbEntity
  8
0
  6
Continuous
 62
     7
370
    25
100
AcDbLine
 10
258.3572615212
 20
911.3490931299
 30
0.0
 11
258.6950708455
 21
911.8180922773
 31
0.0
  0
LINE
  5
324
330
1F
100
AcDbEntity
  8
0
  6
Continuous
 62
     7
370
    25
100
AcDbLine
 10
258.6950708455
 20
911.8180922773
 30
0.0
 11
258.1390489167
 21
911.3490931299
 31
0.0
  0
LINE
  5
325
330
1F
100
AcDbEntity
  8
0
  6
Continuous
 62
     7
370
    25
100
AcDbLine
 10
258.1385273761
 20
911.3490931299
 30
0.0
 11
258.5325289792
 21
911.8180922773
 31
0.0
  0
LINE
  5
326
330
1F
100
AcDbEntity
  8
0
  6
Continuous
 62
     7
370
    25
100
AcDbLine
 10
258.5325289792
 20
911.8180922773
 30
0.0
 11
258.0184538192
 21
911.3490931299
 31
0.0
  0
LINE
  5
327
330
1F
100
AcDbEntity
  8
0
  6
Continuous
 62
     7
370
    25
100
AcDbLine
 10
258.0182452029
 20
911.3490931299
 30
0.0
 11
258.4644902772
 21
911.8180922773
 31
0.0
  0
SPLINE
  5
328
330
1F
100
AcDbEntity
  8
0
  6
Continuous
 62
     7
370
    25
100
AcDbSpline
210
0.0
220
0.0
230
1.0
 70
     8
 71
     3
 72
     9
 73
     5
 74
     0
 42
0.000000001
 43
0.00000001
 40
0.0
 40
0.0
 40
0.0
 40
0.0
 40
0.4113652080555498
 40
0.9999999999999999
 40
0.9999999999999999
 40
0.9999999999999999
 40
0.9999999999999999
 10
258.4644902771842
 20
911.8180922772658
 30
0.0
 10
258.4000249446539
 20
911.7547026321688
 30
0.0
 10
258.2433142377982
 20
911.6006068460989
 30
0.0
 10
258.0885923650599
 20
911.442286181385
 30
0.0
 10
257.9975176876914
 20
911.3490931298506
 30
0.0
  0
SPLINE
  5
329
330
1F
100
AcDbEntity
  8
0
  6
Continuous
 62
     7
370
    25
100
AcDbSpline
210
0.0
220
0.0
230
1.0
 70
     8
 71
     3
 72
     9
 73
     5
 74
     0
 42
0.000000001
 43
0.00000001
 40
0.0
 40
0.0
 40
0.0
 40
0.0
 40
0.2580657984173605
 40
1.0
 40
1.0
 40
1.0
 40
1.0
 10
277.9884983128439
 20
911.350046804167
 30
0.0
 10
277.9480239174125
 20
911.3908929636101
 30
0.0
 10
277.7911864144203
 20
911.549171044989
 30
0.0
 10
277.6324631844357
 20
911.7035518660513
 30
0.0
 10
277.5147009915244
 20
911.8180922772658
 30
0.0
  0
LINE
  5
32A
330
1F
100
AcDbEntity
  8
0
  6
Continuous
 62
     7
370
    25
100
AcDbLine
 10
258.4942627972
 20
911.8500403669
 30
0.0
 11
277.489234907
 21
911.8500403669
 31
0.0
  0
LINE
  5
32B
330
1F
100
AcDbEntity
  8
0
  6
Continuous
 62
     7
370
    25
100
AcDbLine
 10
267.5219822949
 20
907.8820101526
 30
0.0
 11
267.5219822949
 21
911.8180922773
 31
0.0
  0
LINE
  5
32C
330
1F
100
AcDbEntity
  8
0
  6
Continuous
 62
     7
370
    25
100
AcDbLine
 10
269.2636449164
 20
907.8820101526
 30
0.0
 11
269.2636449164
 21
911.8180922773
 31
0.0
  0
LINE
  5
32D
330
1F
100
AcDbEntity
  8
0
  6
Continuous
 62
     7
370
    25
100
AcDbLine
 10
268.8226450509
 20
908.3500556257
 30
0.0
 11
268.8226450509
 21
911.3500468042
 31
0.0
  0
LINE
  5
32E
330
1F
100
AcDbEntity
  8
0
  6
Continuous
 62
     7
370
    25
100
AcDbLine
 10
266.9934232062
 20
908.3500556257
 30
0.0
 11
266.9934232062
 21
911.3500468042
 31
0.0
  0
LINE
  5
32F
330
1F
100
AcDbEntity
  8
0
  6
Continuous
 62
     7
370
    25
100
AcDbLine
 10
266.5741343326
 20
907.8820101526
 30
0.0
 11
266.5741343326
 21
911.8180922773
 31
0.0
  0
LINE
  5
330
330
1F
100
AcDbEntity
  8
0
  6
Continuous
 62
     7
370
    25
100
AcDbLine
 10
269.8133785552
 20
908.3500556257
 30
0.0
 11
269.8133785552
 21
911.3500468042
 31
0.0
  0
LINE
  5
331
330
1F
100
AcDbEntity
  8
0
  6
Continuous
 62
     7
370
    25
100
AcDbLine
 10
270.200138194
 20
907.8820101526
 30
0.0
 11
270.200138194
 21
911.8180922773
 31
0.0
  0
LINE
  5
332
330
1F
100
AcDbEntity
  8
0
  6
Continuous
 62
     7
370
    25
100
AcDbLine
 10
266.0050589866
 20
908.3500556257
 30
0.0
 11
266.0050589866
 21
911.3500468042
 31
0.0
  0
LINE
  5
333
330
1F
100
AcDbEntity
  8
0
  6
Continuous
 62
     7
370
    25
100
AcDbLine
 10
265.6404424733
 20
907.8820101526
 30
0.0
 11
265.6404424733
 21
911.8180922773
 31
0.0
  0
LINE
  5
334
330
1F
100
AcDbEntity
  8
0
  6
Continuous
 62
     7
370
    25
100
AcDbLine
 10
271.1145628518
 20
907.8820101526
 30
0.0
 11
271.1145628518
 21
911.8180922773
 31
0.0
  0
LINE
  5
335
330
1F
100
AcDbEntity
  8
0
  6
Continuous
 62
     7
370
    25
100
AcDbLine
 10
270.7859028405
 20
908.3500556257
 30
0.0
 11
270.7859028405
 21
911.3500468042
 31
0.0
  0
LINE
  5
336
330
1F
100
AcDbEntity
  8
0
  6
Continuous
 62
     7
370
    25
100
AcDbLine
 10
265.0365431136
 20
908.3500556257
 30
0.0
 11
265.0365431136
 21
911.3500468042
 31
0.0
  0
LINE
  5
337
330
1F
100
AcDbEntity
  8
0
  6
Continuous
 62
     7
370
    25
100
AcDbLine
 10
264.7302497453
 20
907.8820101526
 30
0.0
 11
264.7302497453
 21
911.8180922773
 31
0.0
  0
LINE
  5
338
330
1F
100
AcDbEntity
  8
0
  6
Continuous
 62
     7
370
    25
100
AcDbLine
 10
271.7305172509
 20
908.3500556257
 30
0.0
 11
271.7305172509
 21
911.3500468042
 31
0.0
  0
LINE
  5
339
330
1F
100
AcDbEntity
  8
0
  6
Continuous
 62
     7
370
    25
100
AcDbLine
 10
271.9977844781
 20
907.8820101526
 30
0.0
 11
271.9977844781
 21
911.8180922773
 31
0.0
  0
LINE
  5
33A
330
1F
100
AcDbEntity
  8
0
  6
Continuous
 62
     7
370
    25
100
AcDbLine
 10
264.0975613421
 20
908.3500556257
 30
0.0
 11
264.0975613421
 21
911.3500468042
 31
0.0
  0
LINE
  5
33B
330
1F
100
AcDbEntity
  8
0
  6
Continuous
 62
     7
370
    25
100
AcDbLine
 10
263.8526458568
 20
907.8820101526
 30
0.0
 11
263.8526458568
 21
911.8180922773
 31
0.0
  0
LINE
  5
33C
330
1F
100
AcDbEntity
  8
0
  6
Continuous
 62
     7
370
    25
100
AcDbLine
 10
272.6377744502
 20
908.3500556257
 30
0.0
 11
272.6377744502
 21
911.3500468042
 31
0.0
  0
LINE
  5
33D
330
1F
100
AcDbEntity
  8
0
  6
Continuous
 62
     7
370
    25
100
AcDbLine
 10
272.8409815854
 20
907.8820101526
 30
0.0
 11
272.8409815854
 21
911.8180922773
 31
0.0
  0
LINE
  5
33E
330
1F
100
AcDbEntity
  8
0
  6
Continuous
 62
     7
370
    25
100
AcDbLine
 10
263.1975014037
 20
908.3500556257
 30
0.0
 11
263.1975014037
 21
911.3500468042
 31
0.0
  0
LINE
  5
33F
330
1F
100
AcDbEntity
  8
0
  6
Continuous
 62
     7
370
    25
100
AcDbLine
 10
263.0163926906
 20
907.8820101526
 30
0.0
 11
263.0163926906
 21
911.8180922773
 31
0.0
  0
LINE
  5
340
330
1F
100
AcDbEntity
  8
0
  6
Continuous
 62
     7
370
    25
100
AcDbLine
 10
273.4985996312
 20
908.3500556257
 30
0.0
 11
273.4985996312
 21
911.3500468042
 31
0.0
  0
LINE
  5
341
330
1F
100
AcDbEntity
  8
0
  6
Continuous
 62
     7
370
    25
100
AcDbLine
 10
273.6357350177
 20
907.8820101526
 30
0.0
 11
273.6357350177
 21
911.8180922773
 31
0.0
  0
LINE
  5
342
330
1F
100
AcDbEntity
  8
0
  6
Continuous
 62
     7
370
    25
100
AcDbLine
 10
262.3453188962
 20
908.3500556257
 30
0.0
 11
262.3453188962
 21
911.3500468042
 31
0.0
  0
LINE
  5
343
330
1F
100
AcDbEntity
  8
0
  6
Continuous
 62
     7
370
    25
100
AcDbLine
 10
262.2298497981
 20
907.8820101526
 30
0.0
 11
262.2298497981
 21
911.8180922773
 31
0.0
  0
LINE
  5
344
330
1F
100
AcDbEntity
  8
0
  6
Continuous
 62
     7
370
    25
100
AcDbLine
 10
274.3740875548
 20
907.8820101526
 30
0.0
 11
274.3740875548
 21
911.8180922773
 31
0.0
  0
LINE
  5
345
330
1F
100
AcDbEntity
  8
0
  6
Continuous
 62
     7
370
    25
100
AcDbLine
 10
274.3044097251
 20
908.3500556257
 30
0.0
 11
274.3044097251
 21
911.3500468042
 31
0.0
  0
LINE
  5
346
330
1F
100
AcDbEntity
  8
0
  6
Continuous
 62
     7
370
    25
100
AcDbLine
 10
261.5495670861
 20
908.3500556257
 30
0.0
 11
261.5495670861
 21
911.3500468042
 31
0.0
  0
LINE
  5
347
330
1F
100
AcDbEntity
  8
0
  6
Continuous
 62
     7
370
    25
100
AcDbLine
 10
261.5008849925
 20
907.8820101526
 30
0.0
 11
261.5008849925
 21
911.8180922773
 31
0.0
  0
LINE
  5
348
330
1F
100
AcDbEntity
  8
0
  6
Continuous
 62
     7
370
    25
100
AcDbLine
 10
275.0471581048
 20
908.3500556257
 30
0.0
 11
275.0471581048
 21
911.3500468042
 31
0.0
  0
LINE
  5
349
330
1F
100
AcDbEntity
  8
0
  6
Continuous
 62
     7
370
    25
100
AcDbLine
 10
275.0486631221
 20
907.8820101526
 30
0.0
 11
275.0486631221
 21
911.8180922773
 31
0.0
  0
LINE
  5
34A
330
1F
100
AcDbEntity
  8
0
  6
Continuous
 62
     7
370
    25
100
AcDbLine
 10
260.8181882924
 20
908.3500556257
 30
0.0
 11
260.8181882924
 21
911.3500468042
 31
0.0
  0
LINE
  5
34B
330
1F
100
AcDbEntity
  8
0
  6
Continuous
 62
     7
370
    25
100
AcDbLine
 10
275.7193941897
 20
908.3500556257
 30
0.0
 11
275.7193941897
 21
911.3500468042
 31
0.0
  0
LINE
  5
34C
330
1F
100
AcDbEntity
  8
0
  6
Continuous
 62
     7
370
    25
100
AcDbLine
 10
260.158484084
 20
908.3500556257
 30
0.0
 11
260.158484084
 21
911.3500468042
 31
0.0
  0
LINE
  5
34D
330
1F
100
AcDbEntity
  8
0
  6
Continuous
 62
     7
370
    25
100
AcDbLine
 10
276.3144273585
 20
908.3500556257
 30
0.0
 11
276.3144273585
 21
911.3500468042
 31
0.0
  0
LINE
  5
34E
330
1F
100
AcDbEntity
  8
0
  6
Continuous
 62
     7
370
    25
100
AcDbLine
 10
259.5770407742
 20
908.3500556257
 30
0.0
 11
259.5770407742
 21
911.3500468042
 31
0.0
  0
LINE
  5
34F
330
1F
100
AcDbEntity
  8
0
  6
Continuous
 62
     7
370
    25
100
AcDbLine
 10
276.8262971467
 20
908.3500556257
 30
0.0
 11
276.8262971467
 21
911.3500468042
 31
0.0
  0
LINE
  5
350
330
1F
100
AcDbEntity
  8
0
  6
Continuous
 62
     7
370
    25
100
AcDbLine
 10
259.0796698159
 20
908.3500556257
 30
0.0
 11
259.0796698159
 21
911.3500468042
 31
0.0
  0
LINE
  5
351
330
1F
100
AcDbEntity
  8
0
  6
Continuous
 62
     7
370
    25
100
AcDbLine
 10
277.2498924559
 20
908.3500556257
 30
0.0
 11
277.2498924559
 21
911.3500468042
 31
0.0
  0
LINE
  5
352
330
1F
100
AcDbEntity
  8
0
  6
Continuous
 62
     7
370
    25
100
AcDbLine
 10
258.671363098
 20
908.3500556257
 30
0.0
 11
258.671363098
 21
911.3500468042
 31
0.0
  0
LINE
  5
353
330
1F
100
AcDbEntity
  8
0
  6
Continuous
 62
     7
370
    25
100
AcDbLine
 10
277.5809962577
 20
908.3500556257
 30
0.0
 11
277.5809962577
 21
911.3500468042
 31
0.0
  0
LINE
  5
354
330
1F
100
AcDbEntity
  8
0
  6
Continuous
 62
     7
370
    25
100
AcDbLine
 10
258.3561737365
 20
908.3500556257
 30
0.0
 11
258.3561737365
 21
911.3500468042
 31
0.0
  0
LINE
  5
355
330
1F
100
AcDbEntity
  8
0
  6
Continuous
 62
     7
370
    25
100
AcDbLine
 10
277.8162706918
 20
908.3500556257
 30
0.0
 11
277.8162706918
 21
911.3500468042
 31
0.0
  0
LINE
  5
356
330
1F
100
AcDbEntity
  8
0
  6
Continuous
 62
     7
370
    25
100
AcDbLine
 10
258.1372458762
 20
908.3500556257
 30
0.0
 11
258.1372458762
 21
911.3500468042
 31
0.0
  0
LINE
  5
357
330
1F
100
AcDbEntity
  8
0
  6
Continuous
 62
     7
370
    25
100
AcDbLine
 10
277.9533911771
 20
908.3500556257
 30
0.0
 11
277.9533911771
 21
911.3500468042
 31
0.0
  0
LINE
  5
358
330
1F
100
AcDbEntity
  8
0
  6
Continuous
 62
     7
370
    25
100
AcDbLine
 10
258.0167997903
 20
908.3500556257
 30
0.0
 11
258.0167997903
 21
911.3500468042
 31
0.0
  0
LINE
  5
359
330
1F
100
AcDbEntity
  8
0
  6
Continuous
 62
     7
370
    25
100
AcDbLine
 10
277.9892284697
 20
911.3500468042
 30
0.0
 11
277.9884983128
 21
911.3500468042
 31
0.0
  0
LINE
  5
35A
330
1F
100
AcDbEntity
  8
0
  6
Continuous
 62
     7
370
    25
100
AcDbLine
 10
277.9892284697
 20
911.3500468042
 30
0.0
 11
277.9892284697
 21
908.3500556257
 31
0.0
  0
LINE
  5
35B
330
1F
100
AcDbEntity
  8
0
  6
Continuous
 62
     7
370
    25
100
AcDbLine
 10
277.9884983128
 20
908.3500556257
 30
0.0
 11
277.9892284697
 21
908.3500556257
 31
0.0
  0
LINE
  5
35C
330
1F
100
AcDbEntity
  8
0
  6
Continuous
 62
     7
370
    25
100
AcDbLine
 10
257.9960126704
 20
911.3500468042
 30
0.0
 11
257.9960126704
 21
908.3500556257
 31
0.0
  0
LINE
  5
35D
330
1F
100
AcDbEntity
  8
0
  6
Continuous
 62
     7
370
    25
100
AcDbLine
 10
537.7917487449
 20
429.7295264508
 30
0.0
 11
537.7917487449
 21
429.6353511121
 31
0.0
  0
LINE
  5
35E
330
1F
100
AcDbEntity
  8
0
  6
Continuous
 62
     7
370
    25
100
AcDbLine
 10
535.291751129
 20
429.6353511121
 30
0.0
 11
535.291751129
 21
429.8000536468
 31
0.0
  0
LINE
  5
35F
330
1F
100
AcDbEntity
  8
0
  6
Continuous
 62
     7
370
    25
100
AcDbLine
 10
679.9917567796
 20
197.896336725
 30
0.0
 11
679.9917567796
 21
210.9932355191
 31
0.0
  0
LINE
  5
360
330
1F
100
AcDbEntity
  8
0
  6
Continuous
 62
     7
370
    25
100
AcDbLine
 10
229.9917537993
 20
197.896336725
 30
0.0
 11
229.9917537993
 21
210.9932355191
 31
0.0
  0
LINE
  5
361
330
1F
100
AcDbEntity
  8
0
  6
Continuous
 62
     7
370
    25
100
AcDbLine
 10
229.9917537993
 20
190.7901815679
 30
0.0
 11
229.9917537993
 21
197.896336725
 31
0.0
  0
LINE
  5
362
330
1F
100
AcDbEntity
  8
0
  6
Continuous
 62
     7
370
    25
100
AcDbLine
 10
679.9917567796
 20
190.7901815679
 30
0.0
 11
679.9917567796
 21
197.896336725
 31
0.0
  0
LINE
  5
363
330
1F
100
AcDbEntity
  8
0
  6
Continuous
 62
     7
370
    25
100
AcDbLine
 10
469.9917502976
 20
327.7118257787
 30
0.0
 11
539.4917514449
 21
327.7118257787
 31
0.0
  0
LINE
  5
364
330
1F
100
AcDbEntity
  8
0
  6
Continuous
 62
     7
370
    25
100
AcDbLine
 10
544.4917504019
 20
327.7118257787
 30
0.0
 11
547.3917510635
 21
327.7118257787
 31
0.0
  0
LINE
  5
365
330
1F
100
AcDbEntity
  8
0
  6
Continuous
 62
     7
370
    25
100
AcDbLine
 10
552.3917500204
 20
327.7118257787
 30
0.0
 11
554.5917500085
 21
327.7118257787
 31
0.0
  0
LINE
  5
366
330
1F
100
AcDbEntity
  8
0
  6
Continuous
 62
     7
370
    25
100
AcDbLine
 10
559.5917526907
 20
327.7118257787
 30
0.0
 11
562.491749627
 21
327.7118257787
 31
0.0
  0
LINE
  5
367
330
1F
100
AcDbEntity
  8
0
  6
Continuous
 62
     7
370
    25
100
AcDbLine
 10
567.4917523092
 20
327.7118257787
 30
0.0
 11
636.9917441434
 21
327.7118257787
 31
0.0
  0
LINE
  5
368
330
1F
100
AcDbEntity
  8
0
  6
Continuous
 62
     7
370
    25
100
AcDbLine
 10
533.5553821451
 20
429.6353511121
 30
0.0
 11
539.4917514449
 21
429.6353511121
 31
0.0
  0
LINE
  5
369
330
1F
100
AcDbEntity
  8
0
  6
Continuous
 62
     7
370
    25
100
AcDbLine
 10
544.4917504019
 20
429.6353511121
 30
0.0
 11
547.3917510635
 21
429.6353511121
 31
0.0
  0
LINE
  5
36A
330
1F
100
AcDbEntity
  8
0
  6
Continuous
 62
     7
370
    25
100
AcDbLine
 10
552.3917500204
 20
429.6353511121
 30
0.0
 11
554.5917500085
 21
429.6353511121
 31
0.0
  0
LINE
  5
36B
330
1F
100
AcDbEntity
  8
0
  6
Continuous
 62
     7
370
    25
100
AcDbLine
 10
559.5917526907
 20
429.6353511121
 30
0.0
 11
562.491749627
 21
429.6353511121
 31
0.0
  0
LINE
  5
36C
330
1F
100
AcDbEntity
  8
0
  6
Continuous
 62
     7
370
    25
100
AcDbLine
 10
567.4917523092
 20
429.6353511121
 30
0.0
 11
572.4281195825
 21
429.6353511121
 31
0.0
  0
LINE
  5
36D
330
1F
100
AcDbEntity
  8
0
  6
Continuous
 62
     7
370
    25
100
AcDbLine
 10
470.9917504615
 20
327.7118257787
 30
0.0
 11
470.9917504615
 21
329.8000447061
 31
0.0
  0
LINE
  5
36E
330
1F
100
AcDbEntity
  8
0
  6
Continuous
 62
     7
370
    25
100
AcDbLine
 10
470.9917504615
 20
327.7118257787
 30
0.0
 11
469.9917502976
 21
327.7118257787
 31
0.0
  0
LINE
  5
36F
330
1F
100
AcDbEntity
  8
0
  6
Continuous
 62
     7
370
    25
100
AcDbLine
 10
635.991757018
 20
327.7118257787
 30
0.0
 11
635.991757018
 21
329.8000447061
 31
0.0
  0
LINE
  5
370
330
1F
100
AcDbEntity
  8
0
  6
Continuous
 62
     7
370
    25
100
AcDbLine
 10
635.991757018
 20
841.4000473525
 30
0.0
 11
635.991757018
 21
864.0455208328
 31
0.0
  0
LINE
  5
371
330
1F
100
AcDbEntity
  8
0
  6
Continuous
 62
     7
370
    25
100
AcDbLine
 10
635.991757018
 20
327.7118257787
 30
0.0
 11
636.9917441434
 21
327.7118257787
 31
0.0
  0
SPLINE
  5
372
330
1F
100
AcDbEntity
  8
0
  6
Continuous
 62
     7
370
    25
100
AcDbSpline
210
0.0
220
0.0
230
1.0
 70
     8
 71
     3
 72
    19
 73
    15
 74
     0
 42
0.000000001
 43
0.00000001
 40
0.0
 40
0.0
 40
0.0
 40
0.0
 40
0.0869979091820191
 40
0.2176485479165089
 40
0.290052662421797
 40
0.3592513328871511
 40
0.4282417686141972
 40
0.5000533967457255
 40
0.5718764077875581
 40
0.6408732559875894
 40
0.7100599949052324
 40
0.782433081362188
 40
0.9122843171421697
 40
1.0
 40
1.0
 40
1.0
 40
1.0
 10
633.8629324263466
 20
864.0455208327544
 30
0.0
 10
633.8395921037164
 20
863.7283195298717
 30
0.0
 10
633.7812000414692
 20
862.9347555969127
 30
0.0
 10
633.4832693546686
 20
862.0198921851002
 30
0.0
 10
633.0919381890367
 20
861.3656301994552
 30
0.0
 10
632.7216579803403
 20
860.9832470857282
 30
0.0
 10
632.2933773186863
 20
860.7575457502155
 30
0.0
 10
631.817093189093
 20
860.6884342871434
 30
0.0
 10
631.3150463674192
 20
860.7577872476253
 30
0.0
 10
630.8152290787623
 20
860.9833999007376
 30
0.0
 10
630.3400200257263
 20
861.3656240699553
 30
0.0
 10
629.7930157574423
 20
862.0171498423986
 30
0.0
 10
629.3246740270419
 20
862.9333623143149
 30
0.0
 10
629.2229733550598
 20
863.7259685771947
 30
0.0
 10
629.1819710558784
 20
864.0455208327544
 30
0.0
  0
SPLINE
  5
373
330
1F
100
AcDbEntity
  8
0
  6
Continuous
 62
     7
370
    25
100
AcDbSpline
210
0.0
220
0.0
230
1.0
 70
     8
 71
     3
 72
    12
 73
     8
 74
     0
 42
0.000000001
 43
0.00000001
 40
0.0
 40
0.0
 40
0.0
 40
0.0
 40
0.0980808779305815
 40
0.462295639557363
 40
0.6227749512233755
 40
0.7871855334649354
 40
1.0
 40
1.0
 40
1.0
 40
1.0
 10
632.5646091526878
 20
860.9305075909865
 30
0.0
 10
632.4680063915891
 20
860.9512138259287
 30
0.0
 10
632.0126777264375
 20
861.048810853273
 30
0.0
 10
631.4210088921468
 20
861.6620580266805
 30
0.0
 10
630.9095457872122
 20
862.4392031239416
 30
0.0
 10
630.5896606739268
 20
863.1559516668598
 30
0.0
 10
630.5100613384647
 20
863.7246725123061
 30
0.0
 10
630.4651547497642
 20
864.0455208327544
 30
0.0
  0
LINE
  5
374
330
1F
100
AcDbEntity
  8
0
  6
Continuous
 62
     7
370
    25
100
AcDbLine
 10
439.9917509681
 20
327.7882985379
 30
0.0
 11
370.4917479581
 21
327.7882985379
 31
0.0
  0
LINE
  5
375
330
1F
100
AcDbEntity
  8
0
  6
Continuous
 62
     7
370
    25
100
AcDbLine
 10
365.4917527264
 20
327.7882985379
 30
0.0
 11
362.5917483395
 21
327.7882985379
 31
0.0
  0
LINE
  5
376
330
1F
100
AcDbEntity
  8
0
  6
Continuous
 62
     7
370
    25
100
AcDbLine
 10
357.5917531079
 20
327.7882985379
 30
0.0
 11
355.3917456693
 21
327.7882985379
 31
0.0
  0
LINE
  5
377
330
1F
100
AcDbEntity
  8
0
  6
Continuous
 62
     7
370
    25
100
AcDbLine
 10
350.3917504376
 20
327.7882985379
 30
0.0
 11
347.4917460507
 21
327.7882985379
 31
0.0
  0
LINE
  5
378
330
1F
100
AcDbEntity
  8
0
  6
Continuous
 62
     7
370
    25
100
AcDbLine
 10
342.4917508191
 20
327.7882985379
 30
0.0
 11
272.9917515344
 21
327.7882985379
 31
0.0
  0
LINE
  5
379
330
1F
100
AcDbEntity
  8
0
  6
Continuous
 62
     7
370
    25
100
AcDbLine
 10
376.0240797228
 20
429.7118089702
 30
0.0
 11
370.4917479581
 21
429.7118089702
 31
0.0
  0
LINE
  5
37A
330
1F
100
AcDbEntity
  8
0
  6
Continuous
 62
     7
370
    25
100
AcDbLine
 10
365.4917527264
 20
429.7118089702
 30
0.0
 11
362.5917483395
 21
429.7118089702
 31
0.0
  0
LINE
  5
37B
330
1F
100
AcDbEntity
  8
0
  6
Continuous
 62
     7
370
    25
100
AcDbLine
 10
357.5917531079
 20
429.7118089702
 30
0.0
 11
355.3917456693
 21
429.7118089702
 31
0.0
  0
LINE
  5
37C
330
1F
100
AcDbEntity
  8
0
  6
Continuous
 62
     7
370
    25
100
AcDbLine
 10
350.3917504376
 20
429.7118089702
 30
0.0
 11
347.4917460507
 21
429.7118089702
 31
0.0
  0
LINE
  5
37D
330
1F
100
AcDbEntity
  8
0
  6
Continuous
 62
     7
370
    25
100
AcDbLine
 10
342.4917508191
 20
429.7118089702
 30
0.0
 11
337.9594285315
 21
429.7118089702
 31
0.0
  0
LINE
  5
37E
330
1F
100
AcDbEntity
  8
0
  6
Continuous
 62
     7
370
    25
100
AcDbLine
 10
438.9917489416
 20
327.7118257787
 30
0.0
 11
439.9917509681
 21
327.7118257787
 31
0.0
  0
LINE
  5
37F
330
1F
100
AcDbEntity
  8
0
  6
Continuous
 62
     7
370
    25
100
AcDbLine
 10
438.9917489416
 20
327.7118257787
 30
0.0
 11
438.9917489416
 21
329.8000447061
 31
0.0
  0
LINE
  5
380
330
1F
100
AcDbEntity
  8
0
  6
Continuous
 62
     7
370
    25
100
AcDbLine
 10
273.9917535609
 20
327.7118257787
 30
0.0
 11
272.9917515344
 21
327.7118257787
 31
0.0
  0
LINE
  5
381
330
1F
100
AcDbEntity
  8
0
  6
Continuous
 62
     7
370
    25
100
AcDbLine
 10
273.9917535609
 20
327.7118257787
 30
0.0
 11
273.9917535609
 21
329.8000447061
 31
0.0
  0
LINE
  5
382
330
1F
100
AcDbEntity
  8
0
  6
Continuous
 62
     7
370
    25
100
AcDbLine
 10
273.9917535609
 20
841.4000473525
 30
0.0
 11
273.9917535609
 21
864.0455208328
 31
0.0
  0
SPLINE
  5
383
330
1F
100
AcDbEntity
  8
0
  6
Continuous
 62
     7
370
    25
100
AcDbSpline
210
0.0
220
0.0
230
1.0
 70
     8
 71
     3
 72
    19
 73
    15
 74
     0
 42
0.000000001
 43
0.00000001
 40
0.0
 40
0.0
 40
0.0
 40
0.0
 40
0.0877154277985178
 40
0.2175666255685923
 40
0.2899404320590798
 40
0.3591271507244588
 40
0.4281239787278105
 40
0.4999469687456925
 40
0.5717585758566021
 40
0.6407489913888458
 40
0.7099476415984433
 40
0.7823517349096807
 40
0.913001979975042
 40
1.0
 40
1.0
 40
1.0
 40
1.0
 10
280.8015246218573
 20
864.0455208327544
 30
0.0
 10
280.7605279169279
 20
863.7259686096471
 30
0.0
 10
280.6588409620242
 20
862.9333611901847
 30
0.0
 10
280.1904997254876
 20
862.0171442325392
 30
0.0
 10
279.6434740885925
 20
861.3656272387947
 30
0.0
 10
279.1682674449254
 20
860.9833994234207
 30
0.0
 10
278.6684490770197
 20
860.7577873819652
 30
0.0
 10
278.1664025386319
 20
860.6884342475945
 30
0.0
 10
277.6901183962723
 20
860.7575457709819
 30
0.0
 10
277.2618375095531
 20
860.983247042407
 30
0.0
 10
276.8915582222991
 20
861.365630356352
 30
0.0
 10
276.5002229654935
 20
862.0198905080636
 30
0.0
 10
276.2023197922154
 20
862.9347586936702
 30
0.0
 10
276.1439105151618
 20
863.728319831001
 30
0.0
 10
276.1205632513892
 20
864.0455208327544
 30
0.0
  0
SPLINE
  5
384
330
1F
100
AcDbEntity
  8
0
  6
Continuous
 62
     7
370
    25
100
AcDbSpline
210
0.0
220
0.0
230
1.0
 70
     8
 71
     3
 72
    12
 73
     8
 74
     0
 42
0.000000001
 43
0.00000001
 40
0.0
 40
0.0
 40
0.0
 40
0.0
 40
0.2128144339046897
 40
0.3772249909375359
 40
0.5377042779976077
 40
0.9019170261265342
 40
1.0
 40
1.0
 40
1.0
 40
1.0
 10
279.5183409279715
 20
864.0455208327544
 30
0.0
 10
279.4734342695921
 20
863.724672532946
 30
0.0
 10
279.3938348106203
 20
863.1559517240846
 30
0.0
 10
279.0739504574726
 20
862.439202956004
 30
0.0
 10
278.5624850379228
 20
861.6620611825233
 30
0.0
 10
277.9708396131056
 20
861.0488066914355
 30
0.0
 10
277.5154947664279
 20
860.9512134594715
 30
0.0
 10
277.4188865250479
 20
860.9305075909865
 30
0.0
  0
LINE
  5
385
330
1F
100
AcDbEntity
  8
0
  6
Continuous
 62
     7
370
    25
100
AcDbLine
 10
229.9917537993
 20
324.8600415494
 30
0.0
 11
232.4417431182
 21
324.8600415494
 31
0.0
  0
LINE
  5
386
330
1F
100
AcDbEntity
  8
0
  6
Continuous
 62
     7
370
    25
100
AcDbLine
 10
229.9917537993
 20
921.3500372674
 30
0.0
 11
229.9917537993
 21
324.8600415494
 31
0.0
  0
LINE
  5
387
330
1F
100
AcDbEntity
  8
0
  6
Continuous
 62
     7
370
    25
100
AcDbLine
 10
250.3017533845
 20
950.1500479486
 30
0.0
 11
249.191750986
 21
950.1500479486
 31
0.0
  0
LINE
  5
388
330
1F
100
AcDbEntity
  8
0
  6
Continuous
 62
     7
370
    25
100
AcDbLine
 10
250.3017533845
 20
942.4474291112
 30
0.0
 11
250.3017533845
 21
950.1500479486
 31
0.0
  0
LINE
  5
389
330
1F
100
AcDbEntity
  8
0
  6
Continuous
 62
     7
370
    25
100
AcDbLine
 10
250.5517501658
 20
324.8600415494
 30
0.0
 11
250.5517501658
 21
326.8600456025
 31
0.0
  0
LINE
  5
38A
330
1F
100
AcDbEntity
  8
0
  6
Continuous
 62
     7
370
    25
100
AcDbLine
 10
232.4417431182
 20
324.8600415494
 30
0.0
 11
250.5517501658
 21
324.8600415494
 31
0.0
  0
LINE
  5
38B
330
1F
100
AcDbEntity
  8
0
  6
Continuous
 62
     7
370
    25
100
AcDbLine
 10
679.9917567796
 20
324.8600415494
 30
0.0
 11
679.9917567796
 21
921.3500372674
 31
0.0
  0
LINE
  5
38C
330
1F
100
AcDbEntity
  8
0
  6
Continuous
 62
     7
370
    25
100
AcDbLine
 10
677.5417525596
 20
324.8600415494
 30
0.0
 11
679.9917567796
 21
324.8600415494
 31
0.0
  0
LINE
  5
38D
330
1F
100
AcDbEntity
  8
0
  6
Continuous
 62
     7
370
    25
100
AcDbLine
 10
659.4317455119
 20
324.8600415494
 30
0.0
 11
677.5417525596
 21
324.8600415494
 31
0.0
  0
LINE
  5
38E
330
1F
100
AcDbEntity
  8
0
  6
Continuous
 62
     7
370
    25
100
AcDbLine
 10
659.4317455119
 20
326.8600456025
 30
0.0
 11
659.4317455119
 21
324.8600415494
 31
0.0
  0
LINE
  5
38F
330
1F
100
AcDbEntity
  8
0
  6
Continuous
 62
     7
370
    25
100
AcDbLine
 10
659.6817571944
 20
950.1500479486
 30
0.0
 11
659.6817571944
 21
942.4474291112
 31
0.0
  0
LINE
  5
390
330
1F
100
AcDbEntity
  8
0
  6
Continuous
 62
     7
370
    25
100
AcDbLine
 10
660.7917446917
 20
950.1500479486
 30
0.0
 11
659.6817571944
 21
950.1500479486
 31
0.0
  0
LINE
  5
391
330
1F
100
AcDbEntity
  8
0
  6
Continuous
 62
     7
370
    25
100
AcDbLine
 10
659.4317455119
 20
326.8600456025
 30
0.0
 11
656.9817561931
 21
326.8600456025
 31
0.0
  0
LINE
  5
392
330
1F
100
AcDbEntity
  8
0
  6
Continuous
 62
     7
370
    25
100
AcDbLine
 10
656.9817561931
 20
326.8600456025
 30
0.0
 11
656.9817561931
 21
921.3500372674
 31
0.0
  0
LINE
  5
393
330
1F
100
AcDbEntity
  8
0
  6
Continuous
 62
     7
370
    25
100
AcDbLine
 10
679.9917567796
 20
324.4000427034
 30
0.0
 11
679.9917567796
 21
233.0832533147
 31
0.0
  0
LINE
  5
394
330
1F
100
AcDbEntity
  8
0
  6
Continuous
 62
     7
370
    25
100
AcDbLine
 10
679.9917567796
 20
233.0832533147
 30
0.0
 11
678.7817526883
 21
233.0832533147
 31
0.0
  0
LINE
  5
395
330
1F
100
AcDbEntity
  8
0
  6
Continuous
 62
     7
370
    25
100
AcDbLine
 10
677.5417525596
 20
324.4000427034
 30
0.0
 11
679.9917567796
 21
324.4000427034
 31
0.0
  0
LINE
  5
396
330
1F
100
AcDbEntity
  8
0
  6
Continuous
 62
     7
370
    25
100
AcDbLine
 10
232.4417431182
 20
324.4000427034
 30
0.0
 11
253.0017543858
 21
324.4000427034
 31
0.0
  0
LINE
  5
397
330
1F
100
AcDbEntity
  8
0
  6
Continuous
 62
     7
370
    25
100
AcDbLine
 10
677.5417525596
 20
324.4000427034
 30
0.0
 11
656.9817561931
 21
324.4000427034
 31
0.0
  0
LINE
  5
398
330
1F
100
AcDbEntity
  8
0
  6
Continuous
 62
     7
370
    25
100
AcDbLine
 10
253.0017543858
 20
324.4000427034
 30
0.0
 11
253.0017543858
 21
326.8500618245
 31
0.0
  0
LINE
  5
399
330
1F
100
AcDbEntity
  8
0
  6
Continuous
 62
     7
370
    25
100
AcDbLine
 10
656.9817561931
 20
326.8500618245
 30
0.0
 11
567.4917523092
 21
326.8500618245
 31
0.0
  0
LINE
  5
39A
330
1F
100
AcDbEntity
  8
0
  6
Continuous
 62
     7
370
    25
100
AcDbLine
 10
562.491749627
 20
326.8500618245
 30
0.0
 11
559.5917526907
 21
326.8500618245
 31
0.0
  0
LINE
  5
39B
330
1F
100
AcDbEntity
  8
0
  6
Continuous
 62
     7
370
    25
100
AcDbLine
 10
554.5917500085
 20
326.8500618245
 30
0.0
 11
552.3917500204
 21
326.8500618245
 31
0.0
  0
LINE
  5
39C
330
1F
100
AcDbEntity
  8
0
  6
Continuous
 62
     7
370
    25
100
AcDbLine
 10
547.3917510635
 20
326.8500618245
 30
0.0
 11
544.4917504019
 21
326.8500618245
 31
0.0
  0
LINE
  5
39D
330
1F
100
AcDbEntity
  8
0
  6
Continuous
 62
     7
370
    25
100
AcDbLine
 10
539.4917514449
 20
326.8500618245
 30
0.0
 11
370.4917479581
 21
326.8500618245
 31
0.0
  0
LINE
  5
39E
330
1F
100
AcDbEntity
  8
0
  6
Continuous
 62
     7
370
    25
100
AcDbLine
 10
365.4917527264
 20
326.8500618245
 30
0.0
 11
362.5917483395
 21
326.8500618245
 31
0.0
  0
LINE
  5
39F
330
1F
100
AcDbEntity
  8
0
  6
Continuous
 62
     7
370
    25
100
AcDbLine
 10
357.5917531079
 20
326.8500618245
 30
0.0
 11
355.3917456693
 21
326.8500618245
 31
0.0
  0
LINE
  5
3A0
330
1F
100
AcDbEntity
  8
0
  6
Continuous
 62
     7
370
    25
100
AcDbLine
 10
350.3917504376
 20
326.8500618245
 30
0.0
 11
347.4917460507
 21
326.8500618245
 31
0.0
  0
LINE
  5
3A1
330
1F
100
AcDbEntity
  8
0
  6
Continuous
 62
     7
370
    25
100
AcDbLine
 10
342.4917508191
 20
326.8500618245
 30
0.0
 11
253.0017543858
 21
326.8500618245
 31
0.0
  0
LINE
  5
3A2
330
1F
100
AcDbEntity
  8
0
  6
Continuous
 62
     7
370
    25
100
AcDbLine
 10
656.9817561931
 20
326.8500618245
 30
0.0
 11
656.9817561931
 21
324.4000427034
 31
0.0
  0
LINE
  5
3A3
330
1F
100
AcDbEntity
  8
0
  6
Continuous
 62
     7
370
    25
100
AcDbLine
 10
253.0017543858
 20
326.8600456025
 30
0.0
 11
250.5517501658
 21
326.8600456025
 31
0.0
  0
LINE
  5
3A4
330
1F
100
AcDbEntity
  8
0
  6
Continuous
 62
     7
370
    25
100
AcDbLine
 10
253.0017543858
 20
921.3500372674
 30
0.0
 11
253.0017543858
 21
326.8600456025
 31
0.0
  0
LINE
  5
3A5
330
1F
100
AcDbEntity
  8
0
  6
Continuous
 62
     7
370
    25
100
AcDbLine
 10
231.2017578906
 20
233.0832533147
 30
0.0
 11
229.9917537993
 21
233.0832533147
 31
0.0
  0
LINE
  5
3A6
330
1F
100
AcDbEntity
  8
0
  6
Continuous
 62
     7
370
    25
100
AcDbLine
 10
229.9917537993
 20
233.0832533147
 30
0.0
 11
229.9917537993
 21
324.4000427034
 31
0.0
  0
LINE
  5
3A7
330
1F
100
AcDbEntity
  8
0
  6
Continuous
 62
     7
370
    25
100
AcDbLine
 10
229.9917537993
 20
324.4000427034
 30
0.0
 11
232.4417431182
 21
324.4000427034
 31
0.0
  0
LINE
  5
3A8
330
1F
100
AcDbEntity
  8
0
  6
Continuous
 62
     7
370
    25
100
AcDbLine
 10
678.7817526883
 20
209.7832314279
 30
0.0
 11
678.7817526883
 21
233.0832533147
 31
0.0
  0
LINE
  5
3A9
330
1F
100
AcDbEntity
  8
0
  6
Continuous
 62
     7
370
    25
100
AcDbLine
 10
678.7817526883
 20
233.0832533147
 30
0.0
 11
677.5417525596
 21
233.0832533147
 31
0.0
  0
LINE
  5
3AA
330
1F
100
AcDbEntity
  8
0
  6
Continuous
 62
     7
370
    25
100
AcDbLine
 10
231.2017578906
 20
209.7832314279
 30
0.0
 11
231.2017578906
 21
233.0832533147
 31
0.0
  0
LINE
  5
3AB
330
1F
100
AcDbEntity
  8
0
  6
Continuous
 62
     7
370
    25
100
AcDbLine
 10
232.4417431182
 20
233.0832533147
 30
0.0
 11
231.2017578906
 21
233.0832533147
 31
0.0
  0
LINE
  5
3AC
330
1F
100
AcDbEntity
  8
0
  6
Continuous
 62
     7
370
    25
100
AcDbLine
 10
229.9917537993
 20
210.9932355191
 30
0.0
 11
229.9917537993
 21
232.8332416322
 31
0.0
  0
LINE
  5
3AD
330
1F
100
AcDbEntity
  8
0
  6
Continuous
 62
     7
370
    25
100
AcDbLine
 10
229.9917537993
 20
232.8332416322
 30
0.0
 11
231.1917443103
 21
232.8332416322
 31
0.0
  0
LINE
  5
3AE
330
1F
100
AcDbEntity
  8
0
  6
Continuous
 62
     7
370
    25
100
AcDbLine
 10
231.1917443103
 20
210.9932355191
 30
0.0
 11
231.1917443103
 21
232.8332416322
 31
0.0
  0
LINE
  5
3AF
330
1F
100
AcDbEntity
  8
0
  6
Continuous
 62
     7
370
    25
100
AcDbLine
 10
678.7917513675
 20
232.8332416322
 30
0.0
 11
678.7917513675
 21
210.9932355191
 31
0.0
  0
LINE
  5
3B0
330
1F
100
AcDbEntity
  8
0
  6
Continuous
 62
     7
370
    25
100
AcDbLine
 10
679.9917567796
 20
232.8332416322
 30
0.0
 11
678.7917513675
 21
232.8332416322
 31
0.0
  0
LINE
  5
3B1
330
1F
100
AcDbEntity
  8
0
  6
Continuous
 62
     7
370
    25
100
AcDbLine
 10
679.9917567796
 20
232.8332416322
 30
0.0
 11
679.9917567796
 21
210.9932355191
 31
0.0
  0
LINE
  5
3B2
330
1F
100
AcDbEntity
  8
0
  6
Continuous
 62
     7
370
    25
100
AcDbLine
 10
229.9917537993
 20
232.8332416322
 30
0.0
 11
229.9917537993
 21
233.0832533147
 31
0.0
  0
LINE
  5
3B3
330
1F
100
AcDbEntity
  8
0
  6
Continuous
 62
     7
370
    25
100
AcDbLine
 10
231.1917443103
 20
232.8332416322
 30
0.0
 11
231.1917443103
 21
233.0832533147
 31
0.0
  0
LINE
  5
3B4
330
1F
100
AcDbEntity
  8
0
  6
Continuous
 62
     7
370
    25
100
AcDbLine
 10
678.7917513675
 20
233.0832533147
 30
0.0
 11
678.7917513675
 21
232.8332416322
 31
0.0
  0
LINE
  5
3B5
330
1F
100
AcDbEntity
  8
0
  6
Continuous
 62
     7
370
    25
100
AcDbLine
 10
679.9917567796
 20
233.0832533147
 30
0.0
 11
679.9917567796
 21
232.8332416322
 31
0.0
  0
LINE
  5
3B6
330
1F
100
AcDbEntity
  8
0
  6
Continuous
 62
     7
370
    25
100
AcDbLine
 10
655.7317573851
 20
328.1000606324
 30
0.0
 11
656.9817561931
 21
328.1000606324
 31
0.0
  0
LINE
  5
3B7
330
1F
100
AcDbEntity
  8
0
  6
Continuous
 62
     7
370
    25
100
AcDbLine
 10
253.0017543858
 20
328.1000606324
 30
0.0
 11
254.2517531937
 21
328.1000606324
 31
0.0
  0
LINE
  5
3B8
330
1F
100
AcDbEntity
  8
0
  6
Continuous
 62
     7
370
    25
100
AcDbLine
 10
272.9917515344
 20
326.8500618245
 30
0.0
 11
272.9917515344
 21
328.1000606324
 31
0.0
  0
LINE
  5
3B9
330
1F
100
AcDbEntity
  8
0
  6
Continuous
 62
     7
370
    25
100
AcDbLine
 10
254.2517531937
 20
326.8500618245
 30
0.0
 11
254.2517531937
 21
328.1000606324
 31
0.0
  0
LINE
  5
3BA
330
1F
100
AcDbEntity
  8
0
  6
Continuous
 62
     7
370
    25
100
AcDbLine
 10
439.9917509681
 20
328.1000606324
 30
0.0
 11
439.9917509681
 21
326.8500618245
 31
0.0
  0
LINE
  5
3BB
330
1F
100
AcDbEntity
  8
0
  6
Continuous
 62
     7
370
    25
100
AcDbLine
 10
469.9917502976
 20
326.8500618245
 30
0.0
 11
469.9917502976
 21
328.1000606324
 31
0.0
  0
LINE
  5
3BC
330
1F
100
AcDbEntity
  8
0
  6
Continuous
 62
     7
370
    25
100
AcDbLine
 10
636.9917441434
 20
328.1000606324
 30
0.0
 11
636.9917441434
 21
326.8500618245
 31
0.0
  0
LINE
  5
3BD
330
1F
100
AcDbEntity
  8
0
  6
Continuous
 62
     7
370
    25
100
AcDbLine
 10
655.7317573851
 20
328.1000606324
 30
0.0
 11
655.7317573851
 21
326.8500618245
 31
0.0
  0
LINE
  5
3BE
330
1F
100
AcDbEntity
  8
0
  6
Continuous
 62
     7
370
    25
100
AcDbLine
 10
439.9917509681
 20
329.8000447061
 30
0.0
 11
439.9917509681
 21
328.1000606324
 31
0.0
  0
LINE
  5
3BF
330
1F
100
AcDbEntity
  8
0
  6
Continuous
 62
     7
370
    25
100
AcDbLine
 10
272.9917515344
 20
328.1000606324
 30
0.0
 11
272.9917515344
 21
329.8000447061
 31
0.0
  0
LINE
  5
3C0
330
1F
100
AcDbEntity
  8
0
  6
Continuous
 62
     7
370
    25
100
AcDbLine
 10
272.9917515344
 20
841.4000473525
 30
0.0
 11
272.9917515344
 21
864.0455208328
 31
0.0
  0
LINE
  5
3C1
330
1F
100
AcDbEntity
  8
0
  6
Continuous
 62
     7
370
    25
100
AcDbLine
 10
636.9917441434
 20
864.0455208328
 30
0.0
 11
636.9917441434
 21
841.4000473525
 31
0.0
  0
LINE
  5
3C2
330
1F
100
AcDbEntity
  8
0
  6
Continuous
 62
     7
370
    25
100
AcDbLine
 10
636.9917441434
 20
329.8000447061
 30
0.0
 11
636.9917441434
 21
328.1000606324
 31
0.0
  0
LINE
  5
3C3
330
1F
100
AcDbEntity
  8
0
  6
Continuous
 62
     7
370
    25
100
AcDbLine
 10
469.9917502976
 20
328.1000606324
 30
0.0
 11
469.9917502976
 21
329.8000447061
 31
0.0
  0
LINE
  5
3C4
330
1F
100
AcDbEntity
  8
0
  6
Continuous
 62
     7
370
    25
100
AcDbLine
 10
637.1917475289
 20
941.0374514367
 30
0.0
 11
637.1917475289
 21
940.6795851495
 31
0.0
  0
LINE
  5
3C5
330
1F
100
AcDbEntity
  8
0
  6
Continuous
 62
     7
370
    25
100
AcDbLine
 10
637.9917461699
 20
941.0374514367
 30
0.0
 11
637.9917461699
 21
940.6795851495
 31
0.0
  0
LINE
  5
3C6
330
1F
100
AcDbEntity
  8
0
  6
Continuous
 62
     7
370
    25
100
AcDbLine
 10
637.1917475289
 20
941.0374514367
 30
0.0
 11
637.1917475289
 21
942.0374683645
 31
0.0
  0
LINE
  5
3C7
330
1F
100
AcDbEntity
  8
0
  6
Continuous
 62
     7
370
    25
100
AcDbLine
 10
637.1917475289
 20
942.0374683645
 30
0.0
 11
637.9917461699
 21
942.0374683645
 31
0.0
  0
LINE
  5
3C8
330
1F
100
AcDbEntity
  8
0
  6
Continuous
 62
     7
370
    25
100
AcDbLine
 10
637.9917461699
 20
942.0374683645
 30
0.0
 11
637.9917461699
 21
941.0374514367
 31
0.0
  0
LINE
  5
3C9
330
1F
100
AcDbEntity
  8
0
  6
Continuous
 62
     7
370
    25
100
AcDbLine
 10
271.9917495078
 20
942.0374683645
 30
0.0
 11
272.7917481488
 21
942.0374683645
 31
0.0
  0
LINE
  5
3CA
330
1F
100
AcDbEntity
  8
0
  6
Continuous
 62
     7
370
    25
100
AcDbLine
 10
272.7917481488
 20
942.0374683645
 30
0.0
 11
272.7917481488
 21
941.0374514367
 31
0.0
  0
LINE
  5
3CB
330
1F
100
AcDbEntity
  8
0
  6
Continuous
 62
     7
370
    25
100
AcDbLine
 10
271.9917495078
 20
941.0374514367
 30
0.0
 11
271.9917495078
 21
942.0374683645
 31
0.0
  0
LINE
  5
3CC
330
1F
100
AcDbEntity
  8
0
  6
Continuous
 62
     7
370
    25
100
AcDbLine
 10
271.9917495078
 20
940.6795851495
 30
0.0
 11
271.9917495078
 21
941.0374514367
 31
0.0
  0
LINE
  5
3CD
330
1F
100
AcDbEntity
  8
0
  6
Continuous
 62
     7
370
    25
100
AcDbLine
 10
272.7917481488
 20
940.6795851495
 30
0.0
 11
272.7917481488
 21
941.0374514367
 31
0.0
  0
LINE
  5
3CE
330
1F
100
AcDbEntity
  8
0
  6
Continuous
 62
     7
370
    25
100
AcDbLine
 10
637.1917475289
 20
967.9782144334
 30
0.0
 11
637.1917475289
 21
968.9398459699
 31
0.0
  0
LINE
  5
3CF
330
1F
100
AcDbEntity
  8
0
  6
Continuous
 62
     7
370
    25
100
AcDbLine
 10
637.9917461699
 20
968.9398459699
 30
0.0
 11
637.9917461699
 21
967.9782144334
 31
0.0
  0
LINE
  5
3D0
330
1F
100
AcDbEntity
  8
0
  6
Continuous
 62
     7
370
    25
100
AcDbLine
 10
271.9917495078
 20
967.9782144334
 30
0.0
 11
271.9917495078
 21
968.9398459699
 31
0.0
  0
LINE
  5
3D1
330
1F
100
AcDbEntity
  8
0
  6
Continuous
 62
     7
370
    25
100
AcDbLine
 10
272.7917481488
 20
968.9398459699
 30
0.0
 11
272.7917481488
 21
967.9782144334
 31
0.0
  0
LINE
  5
3D2
330
1F
100
AcDbEntity
  8
0
  6
Continuous
 62
     7
370
    25
100
AcDbLine
 10
637.1917475289
 20
967.9782144334
 30
0.0
 11
637.1917475289
 21
942.0374683645
 31
0.0
  0
LINE
  5
3D3
330
1F
100
AcDbEntity
  8
0
  6
Continuous
 62
     7
370
    25
100
AcDbLine
 10
637.9917461699
 20
967.9782144334
 30
0.0
 11
637.9917461699
 21
942.0374683645
 31
0.0
  0
LINE
  5
3D4
330
1F
100
AcDbEntity
  8
0
  6
Continuous
 62
     7
370
    25
100
AcDbLine
 10
271.9917495078
 20
942.0374683645
 30
0.0
 11
271.9917495078
 21
967.9782144334
 31
0.0
  0
LINE
  5
3D5
330
1F
100
AcDbEntity
  8
0
  6
Continuous
 62
     7
370
    25
100
AcDbLine
 10
272.7917481488
 20
942.0374683645
 30
0.0
 11
272.7917481488
 21
967.9782144334
 31
0.0
  0
LINE
  5
3D6
330
1F
100
AcDbEntity
  8
0
  6
Continuous
 62
     7
370
    25
100
AcDbLine
 10
454.5917522437
 20
940.6795851495
 30
0.0
 11
454.5917522437
 21
968.9398459699
 31
0.0
  0
LINE
  5
3D7
330
1F
100
AcDbEntity
  8
0
  6
Continuous
 62
     7
370
    25
100
AcDbLine
 10
455.3917508847
 20
940.6795851495
 30
0.0
 11
455.3917508847
 21
968.9398459699
 31
0.0
  0
LINE
  5
3D8
330
1F
100
AcDbEntity
  8
0
  6
Continuous
 62
     7
370
    25
100
AcDbLine
 10
638.0417544669
 20
968.9398459699
 30
0.0
 11
638.0417544669
 21
940.6795851495
 31
0.0
  0
LINE
  5
3D9
330
1F
100
AcDbEntity
  8
0
  6
Continuous
 62
     7
370
    25
100
AcDbLine
 10
638.8417531079
 20
968.9398459699
 30
0.0
 11
638.8417531079
 21
940.6795851495
 31
0.0
  0
LINE
  5
3DA
330
1F
100
AcDbEntity
  8
0
  6
Continuous
 62
     7
370
    25
100
AcDbLine
 10
271.941756112
 20
940.6795851495
 30
0.0
 11
271.941756112
 21
968.9398459699
 31
0.0
  0
LINE
  5
3DB
330
1F
100
AcDbEntity
  8
0
  6
Continuous
 62
     7
370
    25
100
AcDbLine
 10
271.141757471
 20
940.6795851495
 30
0.0
 11
271.141757471
 21
968.9398459699
 31
0.0
  0
LWPOLYLINE
  5
3DC
330
1F
100
AcDbEntity
  8
0
  6
Continuous
 62
     7
370
    25
100
AcDbPolyline
 90
        3
 70
   128
 43
0.0
 10
271.941756112
 20
942.43714731
 10
271.9657618827
 20
942.6662973668
 10
271.9917495078
 20
942.7660159375
  0
LWPOLYLINE
  5
3DD
330
1F
100
AcDbEntity
  8
0
  6
Continuous
 62
     7
370
    25
100
AcDbPolyline
 90
        3
 70
   128
 43
0.0
 10
272.7917481488
 20
943.5499958303
 10
272.9478825158
 20
943.5891858842
 10
273.1917549199
 20
943.6117462423
  0
LWPOLYLINE
  5
3DE
330
1F
100
AcDbEntity
  8
0
  6
Continuous
 62
     7
370
    25
100
AcDbPolyline
 90
        3
 70
   128
 43
0.0
 10
636.791755659
 20
943.6117462423
 10
637.0356131619
 20
943.5891858842
 10
637.1917475289
 20
943.5499958303
  0
LWPOLYLINE
  5
3DF
330
1F
100
AcDbEntity
  8
0
  6
Continuous
 62
     7
370
    25
100
AcDbPolyline
 90
        3
 70
   128
 43
0.0
 10
637.9917461699
 20
942.7660159375
 10
638.0177337951
 20
942.6662973668
 10
638.0417544669
 20
942.43714731
  0
LINE
  5
3E0
330
1F
100
AcDbEntity
  8
0
  6
Continuous
 62
     7
370
    25
100
AcDbLine
 10
273.1917549199
 20
943.6117462423
 30
0.0
 11
273.1917549199
 21
940.6795851495
 31
0.0
  0
LINE
  5
3E1
330
1F
100
AcDbEntity
  8
0
  6
Continuous
 62
     7
370
    25
100
AcDbLine
 10
636.791755659
 20
940.6795851495
 30
0.0
 11
636.791755659
 21
943.6117462423
 31
0.0
  0
LINE
  5
3E2
330
1F
100
AcDbEntity
  8
0
  6
Continuous
 62
     7
370
    25
100
AcDbLine
 10
240.5917544192
 20
324.8600415494
 30
0.0
 11
240.5917544192
 21
324.4000427034
 31
0.0
  0
LINE
  5
3E3
330
1F
100
AcDbEntity
  8
0
  6
Continuous
 62
     7
370
    25
100
AcDbLine
 10
239.7917557782
 20
324.8600415494
 30
0.0
 11
239.7917557782
 21
324.4000427034
 31
0.0
  0
LINE
  5
3E4
330
1F
100
AcDbEntity
  8
0
  6
Continuous
 62
     7
370
    25
100
AcDbLine
 10
229.9917537993
 20
324.4000427034
 30
0.0
 11
229.9917537993
 21
324.8600415494
 31
0.0
  0
LINE
  5
3E5
330
1F
100
AcDbEntity
  8
0
  6
Continuous
 62
     7
370
    25
100
AcDbLine
 10
670.1917548007
 20
324.4000427034
 30
0.0
 11
670.1917548007
 21
324.8600415494
 31
0.0
  0
LINE
  5
3E6
330
1F
100
AcDbEntity
  8
0
  6
Continuous
 62
     7
370
    25
100
AcDbLine
 10
669.3917561597
 20
324.4000427034
 30
0.0
 11
669.3917561597
 21
324.8600415494
 31
0.0
  0
LINE
  5
3E7
330
1F
100
AcDbEntity
  8
0
  6
Continuous
 62
     7
370
    25
100
AcDbLine
 10
679.9917567796
 20
324.8600415494
 30
0.0
 11
679.9917567796
 21
324.4000427034
 31
0.0
  0
SPLINE
  5
3E8
330
1F
100
AcDbEntity
  8
0
  6
Continuous
 62
     7
370
    25
100
AcDbSpline
210
0.0
220
0.0
230
1.0
 70
     8
 71
     3
 72
    13
 73
     9
 74
     0
 42
0.000000001
 43
0.00000001
 40
0.0
 40
0.0
 40
0.0
 40
0.0
 40
0.007547760909184
 40
0.2722778837361234
 40
0.4815176102933622
 40
0.6613475144578355
 40
0.8304781327087817
 40
1.0
 40
1.0
 40
1.0
 40
1.0
 10
642.8034056252372
 20
986.3500646855605
 30
0.0
 10
642.8031225770628
 20
986.3500629571756
 30
0.0
 10
642.792911898846
 20
986.3500006074275
 30
0.0
 10
642.774344397369
 20
986.3618233527973
 30
0.0
 10
642.7514964469822
 20
986.4044592218082
 30
0.0
 10
642.7355032829771
 20
986.4601487344011
 30
0.0
 10
642.7248516694257
 20
986.5262778690409
 30
0.0
 10
642.7234581203736
 20
986.5754380684016
 30
0.0
 10
642.7227605408561
 20
986.6000465657485
 30
0.0
  0
LINE
  5
3E9
330
1F
100
AcDbEntity
  8
0
  6
Continuous
 62
     7
370
    25
100
AcDbLine
 10
642.8034056252
 20
986.3500646856
 30
0.0
 11
636.0355962342
 21
986.3500646856
 31
0.0
  0
SPLINE
  5
3EA
330
1F
100
AcDbEntity
  8
0
  6
Continuous
 62
     7
370
    25
100
AcDbSpline
210
0.0
220
0.0
230
1.0
 70
     8
 71
     3
 72
    13
 73
     9
 74
     0
 42
0.000000001
 43
0.00000001
 40
0.0
 40
0.0
 40
0.0
 40
0.0
 40
0.1695848592471233
 40
0.3386508241070505
 40
0.5184757408279
 40
0.7277408123107092
 40
0.9924521352067368
 40
0.9999999999999999
 40
0.9999999999999999
 40
0.9999999999999999
 40
0.9999999999999999
 10
642.7227605408561
 20
987.3000435139907
 30
0.0
 10
642.7234572720702
 20
987.324662578861
 30
0.0
 10
642.7248486026457
 20
987.3738253793852
 30
0.0
 10
642.7355058624556
 20
987.4399532465551
 30
0.0
 10
642.7514981355108
 20
987.4955998296291
 30
0.0
 10
642.7743407373563
 20
987.5384401745466
 30
0.0
 10
642.7929127652459
 20
987.5497447640419
 30
0.0
 10
642.8031225777306
 20
987.5500468225083
 30
0.0
 10
642.8034056252372
 20
987.550055196501
 30
0.0
  0
LINE
  5
3EB
330
1F
100
AcDbEntity
  8
0
  6
Continuous
 62
     7
370
    25
100
AcDbLine
 10
636.3808859414
 20
987.5500551965
 30
0.0
 11
642.8034056252
 21
987.5500551965
 31
0.0
  0
LINE
  5
3EC
330
1F
100
AcDbEntity
  8
0
  6
Continuous
 62
     7
370
    25
100
AcDbLine
 10
642.7227605409
 20
987.300043514
 30
0.0
 11
642.7227605409
 21
986.6000465657
 31
0.0
  0
SPLINE
  5
3ED
330
1F
100
AcDbEntity
  8
0
  6
Continuous
 62
     7
370
    25
100
AcDbSpline
210
0.0
220
0.0
230
1.0
 70
     8
 71
     3
 72
    12
 73
     8
 74
     0
 42
0.000000001
 43
0.00000001
 40
0.0
 40
0.0
 40
0.0
 40
0.0
 40
0.2289468517848469
 40
0.4594232235123947
 40
0.6825361799901856
 40
0.8947193313979268
 40
1.0
 40
1.0
 40
1.0
 40
1.0
 10
647.590880495919
 20
986.3500646855606
 30
0.0
 10
647.7126912911137
 20
986.3673959989269
 30
0.0
 10
647.9571266600683
 20
986.4021744105642
 30
0.0
 10
648.277056425981
 20
986.6760544362741
 30
0.0
 10
648.5065225075026
 20
987.0730670048537
 30
0.0
 10
648.609262693362
 20
987.4739443876646
 30
0.0
 10
648.6179969242319
 20
987.7188266594002
 30
0.0
 10
648.6208934611213
 20
987.800037076689
 30
0.0
  0
LINE
  5
3EE
330
1F
100
AcDbEntity
  8
0
  6
Continuous
 62
     7
370
    25
100
AcDbLine
 10
647.5908804959
 20
986.3500646856
 30
0.0
 11
643.0101592368
 21
986.3500646856
 31
0.0
  0
LINE
  5
3EF
330
1F
100
AcDbEntity
  8
0
  6
Continuous
 62
     7
370
    25
100
AcDbLine
 10
643.8286800212
 20
993.1500605848
 30
0.0
 11
648.4094012803
 21
993.1500605848
 31
0.0
  0
LINE
  5
3F0
330
1F
100
AcDbEntity
  8
0
  6
Continuous
 62
     7
370
    25
100
AcDbLine
 10
643.3527071303
 20
993.1500605848
 30
0.0
 11
643.8286800212
 21
993.1500605848
 31
0.0
  0
LINE
  5
3F1
330
1F
100
AcDbEntity
  8
0
  6
Continuous
 62
     7
370
    25
100
AcDbLine
 10
642.8034056252
 20
987.5500551965
 30
0.0
 11
643.0101592368
 21
987.5500551965
 31
0.0
  0
LINE
  5
3F2
330
1F
100
AcDbEntity
  8
0
  6
Continuous
 62
     7
370
    25
100
AcDbLine
 10
643.0101592368
 20
986.3500646856
 30
0.0
 11
642.8034056252
 21
986.3500646856
 31
0.0
  0
LINE
  5
3F3
330
1F
100
AcDbEntity
  8
0
  6
Continuous
 62
     7
370
    25
100
AcDbLine
 10
648.6208934611
 20
987.8000370767
 30
0.0
 11
648.6593980616
 21
987.8000370767
 31
0.0
  0
LINE
  5
3F4
330
1F
100
AcDbEntity
  8
0
  6
Continuous
 62
     7
370
    25
100
AcDbLine
 10
648.4417517012
 20
986.3500646856
 30
0.0
 11
647.5908804959
 21
986.3500646856
 31
0.0
  0
ARC
  5
3F5
330
1F
100
AcDbEntity
  8
0
  6
Continuous
 62
     7
370
    25
100
AcDbCircle
 10
632.0309303015
 20
992.9164754554
 30
0.0
 40
0.2343693456096091
100
AcDbArc
 50
355.9809401035
 51
85.3115822109
  0
LINE
  5
3F6
330
1F
100
AcDbEntity
  8
0
  6
Continuous
 62
     7
370
    25
100
AcDbLine
 10
632.0500869578
 20
993.1500605848
 30
0.0
 11
634.2619557208
 21
993.1500605848
 31
0.0
  0
LINE
  5
3F7
330
1F
100
AcDbEntity
  8
0
  6
Continuous
 62
     7
370
    25
100
AcDbLine
 10
631.5740991658
 20
993.1500605848
 30
0.0
 11
632.0500869578
 21
993.1500605848
 31
0.0
  0
SPLINE
  5
3F8
330
1F
100
AcDbEntity
  8
0
  6
Continuous
 62
     7
370
    25
100
AcDbSpline
210
0.0
220
0.0
230
1.0
 70
     8
 71
     3
 72
    13
 73
     9
 74
     0
 42
0.000000001
 43
0.00000001
 40
0.0
 40
0.0
 40
0.0
 40
0.0
 40
0.1695232249368076
 40
0.3386504132609684
 40
0.5184846472527583
 40
0.7277196086337693
 40
0.992454214910009
 40
1.0
 40
1.0
 40
1.0
 40
1.0
 10
636.4481497830284
 20
988.5000638272536
 30
0.0
 10
636.4476998108099
 20
988.5246721028635
 30
0.0
 10
636.4468009175893
 20
988.5738311647447
 30
0.0
 10
636.4400159105837
 20
988.639963572932
 30
0.0
 10
636.4298143270264
 20
988.6956493686083
 30
0.0
 10
636.4153352083371
 20
988.7382883740831
 30
0.0
 10
636.40371345452
 20
988.7501097611085
 30
0.0
 10
636.3972622866934
 20
988.7500474347112
 30
0.0
 10
636.3970835036171
 20
988.7500457074416
 30
0.0
  0
LINE
  5
3F9
330
1F
100
AcDbEntity
  8
0
  6
Continuous
 62
     7
370
    25
100
AcDbLine
 10
636.3970835036
 20
988.7500457074
 30
0.0
 11
642.9917563027
 21
988.7500457074
 31
0.0
  0
SPLINE
  5
3FA
330
1F
100
AcDbEntity
  8
0
  6
Continuous
 62
     7
370
    25
100
AcDbSpline
210
0.0
220
0.0
230
1.0
 70
     8
 71
     3
 72
    13
 73
     9
 74
     0
 42
0.000000001
 43
0.00000001
 40
0.0
 40
0.0
 40
0.0
 40
0.0
 40
0.0075457850899911
 40
0.2722803913662307
 40
0.4815153527472416
 40
0.6613495867390315
 40
0.8304767750631924
 40
1.0
 40
1.0
 40
1.0
 40
1.0
 10
636.3970835036171
 20
987.550055196501
 30
0.0
 10
636.3972622866934
 20
987.5500534692317
 30
0.0
 10
636.4037134545205
 20
987.5499911428329
 30
0.0
 10
636.4153352083368
 20
987.5618125298599
 30
0.0
 10
636.4298143270264
 20
987.6044515353343
 30
0.0
 10
636.4400159105837
 20
987.6601373310112
 30
0.0
 10
636.4468009175893
 20
987.726269739198
 30
0.0
 10
636.44769981081
 20
987.7754288010792
 30
0.0
 10
636.4481497830284
 20
987.800037076689
 30
0.0
  0
LINE
  5
3FB
330
1F
100
AcDbEntity
  8
0
  6
Continuous
 62
     7
370
    25
100
AcDbLine
 10
642.8149987286
 20
987.5500551965
 30
0.0
 11
636.3970835036
 21
987.5500551965
 31
0.0
  0
LINE
  5
3FC
330
1F
100
AcDbEntity
  8
0
  6
Continuous
 62
     7
370
    25
100
AcDbLine
 10
636.448149783
 20
987.8000370767
 30
0.0
 11
636.448149783
 21
988.5000638273
 31
0.0
  0
SPLINE
  5
3FD
330
1F
100
AcDbEntity
  8
0
  6
Continuous
 62
     7
370
    25
100
AcDbSpline
210
0.0
220
0.0
230
1.0
 70
     8
 71
     3
 72
    12
 73
     8
 74
     0
 42
0.000000001
 43
0.00000001
 40
0.0
 40
0.0
 40
0.0
 40
0.0
 40
0.2289410371486833
 40
0.4594219895319759
 40
0.6825380083594946
 40
0.8947202713359168
 40
1.0
 40
1.0
 40
1.0
 40
1.0
 10
631.9968302077186
 20
988.7500457074417
 30
0.0
 10
631.8627414245248
 20
988.7327122560532
 30
0.0
 10
631.5936619431177
 20
988.6979287641044
 30
0.0
 10
631.2410323212301
 20
988.4240680005717
 30
0.0
 10
630.9880505268837
 20
988.0270076503718
 30
0.0
 10
630.8746950470058
 20
987.6261381797808
 30
0.0
 10
630.8650515350993
 20
987.3812542303317
 30
0.0
 10
630.8618534630668
 20
987.3000435139907
 30
0.0
  0
LINE
  5
3FE
330
1F
100
AcDbEntity
  8
0
  6
Continuous
 62
     7
370
    25
100
AcDbLine
 10
631.9968302077
 20
988.7500457074
 30
0.0
 11
636.1669201678
 21
988.7500457074
 31
0.0
  0
LINE
  5
3FF
330
1F
100
AcDbEntity
  8
0
  6
Continuous
 62
     7
370
    25
100
AcDbLine
 10
635.255729062
 20
981.9500498082
 30
0.0
 11
631.0856242007
 21
981.9500498082
 31
0.0
  0
LINE
  5
400
330
1F
100
AcDbEntity
  8
0
  6
Continuous
 62
     7
370
    25
100
AcDbLine
 10
635.7855994529
 20
981.9500498082
 30
0.0
 11
635.255729062
 21
981.9500498082
 31
0.0
  0
LINE
  5
401
330
1F
100
AcDbEntity
  8
0
  6
Continuous
 62
     7
370
    25
100
AcDbLine
 10
636.1669201678
 20
988.7500457074
 30
0.0
 11
636.3970835036
 21
988.7500457074
 31
0.0
  0
LINE
  5
402
330
1F
100
AcDbEntity
  8
0
  6
Continuous
 62
     7
370
    25
100
AcDbLine
 10
636.3970835036
 20
987.5500551965
 30
0.0
 11
636.1669201678
 21
987.5500551965
 31
0.0
  0
LINE
  5
403
330
1F
100
AcDbEntity
  8
0
  6
Continuous
 62
     7
370
    25
100
AcDbLine
 10
630.8618534631
 20
987.300043514
 30
0.0
 11
630.8356274194
 21
987.300043514
 31
0.0
  0
LINE
  5
404
330
1F
100
AcDbEntity
  8
0
  6
Continuous
 62
     7
370
    25
100
AcDbLine
 10
631.5417487449
 20
988.7500457074
 30
0.0
 11
631.9968302077
 21
988.7500457074
 31
0.0
  0
SPLINE
  5
405
330
1F
100
AcDbEntity
  8
0
  6
Continuous
 62
     7
370
    25
100
AcDbSpline
210
0.0
220
0.0
230
1.0
 70
     8
 71
     3
 72
    11
 73
     7
 74
     0
 42
0.000000001
 43
0.00000001
 40
0.0
 40
0.0
 40
0.0
 40
0.0
 40
0.0449147800871012
 40
0.439113387793999
 40
0.8139930845071939
 40
1.0
 40
1.0
 40
1.0
 40
1.0
 10
648.6917484825981
 20
988.4272269513381
 30
0.0
 10
648.7047316445709
 20
988.4178320300816
 30
0.0
 10
648.8316626954881
 20
988.3259817373043
 30
0.0
 10
648.9907719370972
 20
988.0169672058223
 30
0.0
 10
649.1093090655849
 20
987.6272183930768
 30
0.0
 10
649.1185743389694
 20
987.3815233873979
 30
0.0
 10
649.1216469830406
 20
987.3000435139907
 30
0.0
  0
ARC
  5
406
330
1F
100
AcDbEntity
  8
0
  6
Continuous
 62
     7
370
    25
100
AcDbCircle
 10
648.3804285658
 20
982.1888071601
 30
0.0
 40
0.2390810893217469
100
AcDbArc
 50
177.3019027511
 51
267.0179802663
  0
LINE
  5
407
330
1F
100
AcDbEntity
  8
0
  6
Continuous
 62
     7
370
    25
100
AcDbLine
 10
648.8978762454
 20
981.9500498082
 30
0.0
 11
648.3679909533
 21
981.9500498082
 31
0.0
  0
LINE
  5
408
330
1F
100
AcDbEntity
  8
0
  6
Continuous
 62
     7
370
    25
100
AcDbLine
 10
648.3679909533
 20
981.9500498082
 30
0.0
 11
645.6319291419
 21
981.9500498082
 31
0.0
  0
LINE
  5
409
330
1F
100
AcDbEntity
  8
0
  6
Continuous
 62
     7
370
    25
100
AcDbLine
 10
635.6176931685
 20
976.35004442
 30
0.0
 11
635.6176931685
 21
980.4534665849
 31
0.0
  0
SPLINE
  5
40A
330
1F
100
AcDbEntity
  8
0
  6
Continuous
 62
     7
370
    25
100
AcDbSpline
210
0.0
220
0.0
230
1.0
 70
     8
 71
     3
 72
     9
 73
     5
 74
     0
 42
0.000000001
 43
0.00000001
 40
0.0
 40
0.0
 40
0.0
 40
0.0
 40
0.0702021069626508
 40
1.0
 40
1.0
 40
1.0
 40
1.0
 10
638.342981440438
 20
980.9000543858779
 30
0.0
 10
638.2783744603804
 20
980.8996035554707
 30
0.0
 10
637.3580747307459
 20
980.8931816626421
 30
0.0
 10
636.456228185835
 20
980.6653261554254
 30
0.0
 10
635.6176931685341
 20
980.4534665848983
 30
0.0
  0
LINE
  5
40B
330
1F
100
AcDbEntity
  8
0
  6
Continuous
 62
     7
370
    25
100
AcDbLine
 10
641.0682697123
 20
980.4534665849
 30
0.0
 11
638.3429814404
 21
980.9000543859
 31
0.0
  0
LINE
  5
40C
330
1F
100
AcDbEntity
  8
0
  6
Continuous
 62
     7
370
    25
100
AcDbLine
 10
641.0682697123
 20
976.35004442
 30
0.0
 11
641.0682697123
 21
980.4534665849
 31
0.0
  0
SPLINE
  5
40D
330
1F
100
AcDbEntity
  8
0
  6
Continuous
 62
     7
370
    25
100
AcDbSpline
210
0.0
220
0.0
230
1.0
 70
     8
 71
     3
 72
     9
 73
     5
 74
     0
 42
0.000000001
 43
0.00000001
 40
0.0
 40
0.0
 40
0.0
 40
0.0
 40
0.0702010270718331
 40
1.0
 40
1.0
 40
1.0
 40
1.0
 10
643.2552982396019
 20
980.9000543858779
 30
0.0
 10
643.2034526545187
 20
980.8996035433839
 30
0.0
 10
642.4649223616495
 20
980.8931813795945
 30
0.0
 10
641.7411927561827
 20
980.6653261465548
 30
0.0
 10
641.068269712342
 20
980.4534665848983
 30
0.0
  0
LINE
  5
40E
330
1F
100
AcDbEntity
  8
0
  6
Continuous
 62
     7
370
    25
100
AcDbLine
 10
638.3429814404
 20
980.9000543859
 30
0.0
 11
643.2552982396
 21
980.9000543859
 31
0.0
  0
LINE
  5
40F
330
1F
100
AcDbEntity
  8
0
  6
Continuous
 62
     7
370
    25
100
AcDbLine
 10
645.4423267669
 20
980.4534665849
 30
0.0
 11
643.2552982396
 21
980.9000543859
 31
0.0
  0
LINE
  5
410
330
1F
100
AcDbEntity
  8
0
  6
Continuous
 62
     7
370
    25
100
AcDbLine
 10
645.4423267669
 20
976.35004442
 30
0.0
 11
645.4423267669
 21
980.4534665849
 31
0.0
  0
SPLINE
  5
411
330
1F
100
AcDbEntity
  8
0
  6
Continuous
 62
     7
370
    25
100
AcDbSpline
210
0.0
220
0.0
230
1.0
 70
     8
 71
     3
 72
     9
 73
     5
 74
     0
 42
0.000000001
 43
0.00000001
 40
0.0
 40
0.0
 40
0.0
 40
0.0
 40
0.2686323272322783
 40
1.0
 40
1.0
 40
1.0
 40
1.0
 10
635.0794334238899
 20
980.9000543858779
 30
0.0
 10
635.1283749220336
 20
980.8934293354879
 30
0.0
 10
635.3105625933689
 20
980.8687671868237
 30
0.0
 10
635.4879544784063
 20
980.6288986664294
 30
0.0
 10
635.6176931685341
 20
980.4534665848983
 30
0.0
  0
LINE
  5
412
330
1F
100
AcDbEntity
  8
0
  6
Continuous
 62
     7
370
    25
100
AcDbLine
 10
635.0794334239
 20
980.9000543859
 30
0.0
 11
638.3429814404
 21
980.9000543859
 31
0.0
  0
SPLINE
  5
413
330
1F
100
AcDbEntity
  8
0
  6
Continuous
 62
     7
370
    25
100
AcDbSpline
210
0.0
220
0.0
230
1.0
 70
     8
 71
     3
 72
     9
 73
     5
 74
     0
 42
0.000000001
 43
0.00000001
 40
0.0
 40
0.0
 40
0.0
 40
0.0
 40
0.2686323272322783
 40
1.0
 40
1.0
 40
1.0
 40
1.0
 10
644.9040670222175
 20
980.9000543858779
 30
0.0
 10
644.9530085203612
 20
980.8934293354879
 30
0.0
 10
645.1351961916965
 20
980.8687671868237
 30
0.0
 10
645.312588076734
 20
980.6288986664294
 30
0.0
 10
645.4423267668617
 20
980.4534665848983
 30
0.0
  0
LINE
  5
414
330
1F
100
AcDbEntity
  8
0
  6
Continuous
 62
     7
370
    25
100
AcDbLine
 10
643.2552982396
 20
980.9000543859
 30
0.0
 11
644.98372863
 21
980.9000543859
 31
0.0
  0
LINE
  5
415
330
1F
100
AcDbEntity
  8
0
  6
Continuous
 62
     7
370
    25
100
AcDbLine
 10
634.5411736792
 20
976.35004442
 30
0.0
 11
634.5411736792
 21
980.4534665849
 31
0.0
  0
LINE
  5
416
330
1F
100
AcDbEntity
  8
0
  6
Continuous
 62
     7
370
    25
100
AcDbLine
 10
634.5411736792
 20
980.4534665849
 30
0.0
 11
634.6771914786
 21
980.6428305413
 31
0.0
  0
LINE
  5
417
330
1F
100
AcDbEntity
  8
0
  6
Continuous
 62
     7
370
    25
100
AcDbLine
 10
634.9080402678
 20
980.7904414441
 30
0.0
 11
635.0794334239
 21
980.9000543859
 31
0.0
  0
LINE
  5
418
330
1F
100
AcDbEntity
  8
0
  6
Continuous
 62
     7
370
    25
100
AcDbLine
 10
634.9917549914
 20
980.9000543859
 30
0.0
 11
635.0794334239
 21
980.9000543859
 31
0.0
  0
LINE
  5
419
330
1F
100
AcDbEntity
  8
0
  6
Continuous
 62
     7
370
    25
100
AcDbLine
 10
642.2425259179
 20
989.1966335084
 30
0.0
 11
639.3776286668
 21
988.7500457074
 31
0.0
  0
SPLINE
  5
41A
330
1F
100
AcDbEntity
  8
0
  6
Continuous
 62
     7
370
    25
100
AcDbSpline
210
0.0
220
0.0
230
1.0
 70
     8
 71
     3
 72
     9
 73
     5
 74
     0
 42
0.000000001
 43
0.00000001
 40
0.0
 40
0.0
 40
0.0
 40
0.0
 40
0.0702023090960525
 40
0.9999999999999999
 40
0.9999999999999999
 40
0.9999999999999999
 40
0.9999999999999999
 10
639.3776286667717
 20
988.7500457074416
 30
0.0
 10
639.309712084177
 20
988.7504965355865
 30
0.0
 10
638.3422712197801
 20
988.7569183776974
 30
0.0
 10
637.3942237572086
 20
988.9847739362341
 30
0.0
 10
636.5127314156425
 20
989.1966335084213
 30
0.0
  0
LINE
  5
41B
330
1F
100
AcDbEntity
  8
0
  6
Continuous
 62
     7
370
    25
100
AcDbLine
 10
636.5127314156
 20
989.1966335084
 30
0.0
 11
636.5127314156
 21
993.5034565236
 31
0.0
  0
SPLINE
  5
41C
330
1F
100
AcDbEntity
  8
0
  6
Continuous
 62
     7
370
    25
100
AcDbSpline
210
0.0
220
0.0
230
1.0
 70
     8
 71
     3
 72
     9
 73
     5
 74
     0
 42
0.000000001
 43
0.00000001
 40
0.0
 40
0.0
 40
0.0
 40
0.0
 40
0.0702020799571258
 40
1.0
 40
1.0
 40
1.0
 40
1.0
 10
639.3776286667717
 20
993.9500443246138
 30
0.0
 10
639.3097120760281
 20
993.9496038030369
 30
0.0
 10
638.3422679378358
 20
993.9433287528203
 30
0.0
 10
637.3942222885003
 20
993.715391814648
 30
0.0
 10
636.5127314156425
 20
993.5034565236342
 30
0.0
  0
LINE
  5
41D
330
1F
100
AcDbEntity
  8
0
  6
Continuous
 62
     7
370
    25
100
AcDbLine
 10
642.2425259179
 20
993.5034565236
 30
0.0
 11
639.3776286668
 21
993.9500443246
 31
0.0
  0
LINE
  5
41E
330
1F
100
AcDbEntity
  8
0
  6
Continuous
 62
     7
370
    25
100
AcDbLine
 10
642.2425259179
 20
989.1966335084
 30
0.0
 11
642.2425259179
 21
993.5034565236
 31
0.0
  0
LINE
  5
41F
330
1F
100
AcDbEntity
  8
0
  6
Continuous
 62
     7
370
    25
100
AcDbLine
 10
643.1026954478
 20
988.9172963407
 30
0.0
 11
642.2425259179
 21
989.1966335084
 31
0.0
  0
SPLINE
  5
420
330
1F
100
AcDbEntity
  8
0
  6
Continuous
 62
     7
370
    25
100
AcDbSpline
210
0.0
220
0.0
230
1.0
 70
     8
 71
     3
 72
     9
 73
     5
 74
     0
 42
0.000000001
 43
0.00000001
 40
0.0
 40
0.0
 40
0.0
 40
0.0
 40
0.2686307694671762
 40
1.0
 40
1.0
 40
1.0
 40
1.0
 10
643.9820278710258
 20
993.9500443246138
 30
0.0
 10
643.823861312033
 20
993.9434191905921
 30
0.0
 10
643.235073366012
 20
993.9187565875886
 30
0.0
 10
642.6618002417081
 20
993.6788885937314
 30
0.0
 10
642.2425259179008
 20
993.5034565236342
 30
0.0
  0
LINE
  5
421
330
1F
100
AcDbEntity
  8
0
  6
Continuous
 62
     7
370
    25
100
AcDbLine
 10
639.3776286668
 20
993.9500443246
 30
0.0
 11
643.982027871
 21
993.9500443246
 31
0.0
  0
LINE
  5
422
330
1F
100
AcDbEntity
  8
0
  6
Continuous
 62
     7
370
    25
100
AcDbLine
 10
636.5127314156
 20
989.1966335084
 30
0.0
 11
635.3873510188
 21
988.7500457074
 31
0.0
  0
LINE
  5
423
330
1F
100
AcDbEntity
  8
0
  6
Continuous
 62
     7
370
    25
100
AcDbLine
 10
636.5127314156
 20
993.5034565236
 30
0.0
 11
635.3873510188
 21
993.9500443246
 31
0.0
  0
LINE
  5
424
330
1F
100
AcDbEntity
  8
0
  6
Continuous
 62
     7
370
    25
100
AcDbLine
 10
635.3873510188
 20
993.9500443246
 30
0.0
 11
639.3776286668
 21
993.9500443246
 31
0.0
  0
SPLINE
  5
425
330
1F
100
AcDbEntity
  8
0
  6
Continuous
 62
     7
370
    25
100
AcDbSpline
210
0.0
220
0.0
230
1.0
 70
     8
 71
     3
 72
     9
 73
     5
 74
     0
 42
0.000000001
 43
0.00000001
 40
0.0
 40
0.0
 40
0.0
 40
0.0
 40
0.2575513335405007
 40
1.0
 40
1.0
 40
1.0
 40
1.0
 10
645.721544725312
 20
993.5034565236342
 30
0.0
 10
645.5755098919814
 20
993.5708761350423
 30
0.0
 10
645.0084973616131
 20
993.8326476835764
 30
0.0
 10
644.4194013897512
 20
993.9000222027213
 30
0.0
 10
643.9820278710258
 20
993.9500443246138
 30
0.0
  0
LINE
  5
426
330
1F
100
AcDbEntity
  8
0
  6
Continuous
 62
     7
370
    25
100
AcDbLine
 10
645.7215447253
 20
993.1500605848
 30
0.0
 11
645.7215447253
 21
993.5034565236
 31
0.0
  0
LINE
  5
427
330
1F
100
AcDbEntity
  8
0
  6
Continuous
 62
     7
370
    25
100
AcDbLine
 10
634.5607091016
 20
989.0697054174
 30
0.0
 11
634.2619557208
 21
989.1966335084
 31
0.0
  0
LINE
  5
428
330
1F
100
AcDbEntity
  8
0
  6
Continuous
 62
     7
370
    25
100
AcDbLine
 10
634.2619557208
 20
989.1966335084
 30
0.0
 11
634.2619557208
 21
993.5034565236
 31
0.0
  0
SPLINE
  5
429
330
1F
100
AcDbEntity
  8
0
  6
Continuous
 62
     7
370
    25
100
AcDbSpline
210
0.0
220
0.0
230
1.0
 70
     8
 71
     3
 72
     9
 73
     5
 74
     0
 42
0.000000001
 43
0.00000001
 40
0.0
 40
0.0
 40
0.0
 40
0.0
 40
0.0702018177293539
 40
1.0
 40
1.0
 40
1.0
 40
1.0
 10
635.3873510187996
 20
993.9500443246138
 30
0.0
 10
635.3606703294172
 20
993.9496038001004
 30
0.0
 10
634.980613370137
 20
993.9433286846147
 30
0.0
 10
634.60821295234
 20
993.7153918127586
 30
0.0
 10
634.2619557207954
 20
993.5034565236342
 30
0.0
  0
LINE
  5
42A
330
1F
100
AcDbEntity
  8
0
  6
Continuous
 62
     7
370
    25
100
AcDbLine
 10
645.4227913445
 20
993.6303846147
 30
0.0
 11
645.7215447253
 21
993.5034565236
 31
0.0
  0
LINE
  5
42B
330
1F
100
AcDbEntity
  8
0
  6
Continuous
 62
     7
370
    25
100
AcDbLine
 10
643.982027871
 20
993.9500443246
 30
0.0
 11
644.9917454547
 21
993.9500443246
 31
0.0
  0
LINE
  5
42C
330
1F
100
AcDbEntity
  8
0
  6
Continuous
 62
     7
370
    25
100
AcDbLine
 10
634.9917549914
 20
993.9500443246
 30
0.0
 11
635.3873510188
 21
993.9500443246
 31
0.0
  0
LINE
  5
42D
330
1F
100
AcDbEntity
  8
0
  6
Continuous
 62
     7
370
    25
100
AcDbLine
 10
643.8801337308
 20
981.596624067
 30
0.0
 11
641.0600293702
 21
981.1500362661
 31
0.0
  0
SPLINE
  5
42E
330
1F
100
AcDbEntity
  8
0
  6
Continuous
 62
     7
370
    25
100
AcDbSpline
210
0.0
220
0.0
230
1.0
 70
     8
 71
     3
 72
     9
 73
     5
 74
     0
 42
0.000000001
 43
0.00000001
 40
0.0
 40
0.0
 40
0.0
 40
0.0
 40
0.0702007124056616
 40
1.0
 40
1.0
 40
1.0
 40
1.0
 10
641.0600293702018
 20
981.1500362660659
 30
0.0
 10
640.9931762253095
 20
981.1504871120818
 30
0.0
 10
640.0408618882993
 20
981.1569093548271
 30
0.0
 10
639.1076446417732
 20
981.3847645079744
 30
0.0
 10
638.2399399107826
 20
981.5966240670455
 30
0.0
  0
LINE
  5
42F
330
1F
100
AcDbEntity
  8
0
  6
Continuous
 62
     7
370
    25
100
AcDbLine
 10
638.2399399108
 20
981.596624067
 30
0.0
 11
638.2399399108
 21
985.9034768846
 31
0.0
  0
SPLINE
  5
430
330
1F
100
AcDbEntity
  8
0
  6
Continuous
 62
     7
370
    25
100
AcDbSpline
210
0.0
220
0.0
230
1.0
 70
     8
 71
     3
 72
     9
 73
     5
 74
     0
 42
0.000000001
 43
0.00000001
 40
0.0
 40
0.0
 40
0.0
 40
0.0
 40
0.0702007124056616
 40
1.0
 40
1.0
 40
1.0
 40
1.0
 10
641.0600293702018
 20
986.3500646855605
 30
0.0
 10
640.9931762253095
 20
986.3496138395446
 30
0.0
 10
640.0408618882993
 20
986.3431915968001
 30
0.0
 10
639.1076446417732
 20
986.1153364436524
 30
0.0
 10
638.2399399107826
 20
985.9034768845809
 30
0.0
  0
LINE
  5
431
330
1F
100
AcDbEntity
  8
0
  6
Continuous
 62
     7
370
    25
100
AcDbLine
 10
643.8801337308
 20
985.9034768846
 30
0.0
 11
641.0600293702
 21
986.3500646856
 31
0.0
  0
LINE
  5
432
330
1F
100
AcDbEntity
  8
0
  6
Continuous
 62
     7
370
    25
100
AcDbLine
 10
643.8801337308
 20
981.596624067
 30
0.0
 11
643.8801337308
 21
985.9034768846
 31
0.0
  0
LINE
  5
433
330
1F
100
AcDbEntity
  8
0
  6
Continuous
 62
     7
370
    25
100
AcDbLine
 10
638.2399399108
 20
981.596624067
 30
0.0
 11
636.2957556075
 21
981.1500362661
 31
0.0
  0
LINE
  5
434
330
1F
100
AcDbEntity
  8
0
  6
Continuous
 62
     7
370
    25
100
AcDbLine
 10
641.0600293702
 20
981.1500362661
 30
0.0
 11
636.2957556075
 21
981.1500362661
 31
0.0
  0
LINE
  5
435
330
1F
100
AcDbEntity
  8
0
  6
Continuous
 62
     7
370
    25
100
AcDbLine
 10
638.2399399108
 20
985.9034768846
 30
0.0
 11
636.2957556075
 21
986.3500646856
 31
0.0
  0
SPLINE
  5
436
330
1F
100
AcDbEntity
  8
0
  6
Continuous
 62
     7
370
    25
100
AcDbSpline
210
0.0
220
0.0
230
1.0
 70
     8
 71
     3
 72
     9
 73
     5
 74
     0
 42
0.000000001
 43
0.00000001
 40
0.0
 40
0.0
 40
0.0
 40
0.0
 40
0.2686350507560838
 40
1.0
 40
1.0
 40
1.0
 40
1.0
 10
644.7560388869178
 20
981.1500362660659
 30
0.0
 10
644.6763926807986
 20
981.1566729287746
 30
0.0
 10
644.3799078926262
 20
981.1813780545202
 30
0.0
 10
644.0912488423999
 20
981.42121542255
 30
0.0
 10
643.8801337307823
 20
981.5966240670455
 30
0.0
  0
LINE
  5
437
330
1F
100
AcDbEntity
  8
0
  6
Continuous
 62
     7
370
    25
100
AcDbLine
 10
644.7560388869
 20
981.1500362661
 30
0.0
 11
641.0600293702
 21
981.1500362661
 31
0.0
  0
SPLINE
  5
438
330
1F
100
AcDbEntity
  8
0
  6
Continuous
 62
     7
370
    25
100
AcDbSpline
210
0.0
220
0.0
230
1.0
 70
     8
 71
     3
 72
     9
 73
     5
 74
     0
 42
0.000000001
 43
0.00000001
 40
0.0
 40
0.0
 40
0.0
 40
0.0
 40
0.2686350507560838
 40
1.0
 40
1.0
 40
1.0
 40
1.0
 10
644.7560388869178
 20
986.3500646855605
 30
0.0
 10
644.6763926807986
 20
986.3434280228519
 30
0.0
 10
644.3799078926262
 20
986.3187228971062
 30
0.0
 10
644.0912488423999
 20
986.0788855290767
 30
0.0
 10
643.8801337307823
 20
985.9034768845809
 30
0.0
  0
SPLINE
  5
439
330
1F
100
AcDbEntity
  8
0
  6
Continuous
 62
     7
370
    25
100
AcDbSpline
210
0.0
220
0.0
230
1.0
 70
     8
 71
     3
 72
     9
 73
     5
 74
     0
 42
0.000000001
 43
0.00000001
 40
0.0
 40
0.0
 40
0.0
 40
0.0
 40
0.0702023091023931
 40
1.0
 40
1.0
 40
1.0
 40
1.0
 10
636.2957556074989
 20
981.1500362660659
 30
0.0
 10
636.2496645143069
 20
981.1504870942107
 30
0.0
 10
635.5931178311387
 20
981.1569089363204
 30
0.0
 10
634.9497620364978
 20
981.3847644948586
 30
0.0
 10
634.3515713042152
 20
981.5966240670455
 30
0.0
  0
LINE
  5
43A
330
1F
100
AcDbEntity
  8
0
  6
Continuous
 62
     7
370
    25
100
AcDbLine
 10
634.3515713042
 20
981.596624067
 30
0.0
 11
634.3515713042
 21
981.9500498082
 31
0.0
  0
SPLINE
  5
43B
330
1F
100
AcDbEntity
  8
0
  6
Continuous
 62
     7
370
    25
100
AcDbSpline
210
0.0
220
0.0
230
1.0
 70
     8
 71
     3
 72
     9
 73
     5
 74
     0
 42
0.000000001
 43
0.00000001
 40
0.0
 40
0.0
 40
0.0
 40
0.0
 40
0.5278874410326221
 40
1.0
 40
1.0
 40
1.0
 40
1.0
 10
636.2957556074989
 20
986.3500646855605
 30
0.0
 10
636.2495234195893
 20
986.3519844828619
 30
0.0
 10
636.1619437874258
 20
986.3556212378821
 30
0.0
 10
636.0761164147559
 20
986.3298205755292
 30
0.0
 10
636.0355962342155
 20
986.3176397588027
 30
0.0
  0
SPLINE
  5
43C
330
1F
100
AcDbEntity
  8
0
  6
Continuous
 62
     7
370
    25
100
AcDbSpline
210
0.0
220
0.0
230
1.0
 70
     8
 71
     3
 72
     9
 73
     5
 74
     0
 42
0.000000001
 43
0.00000001
 40
0.0
 40
0.0
 40
0.0
 40
0.0
 40
0.2575502987564071
 40
1.0
 40
1.0
 40
1.0
 40
1.0
 10
645.6319291418922
 20
981.5966240670455
 30
0.0
 10
645.5583997200504
 20
981.5292161093216
 30
0.0
 10
645.2729043345014
 20
981.2674887572305
 30
0.0
 10
644.9762728465366
 20
981.200082225449
 30
0.0
 10
644.7560388869178
 20
981.150036266066
 30
0.0
  0
SPLINE
  5
43D
330
1F
100
AcDbEntity
  8
0
  6
Continuous
 62
     7
370
    25
100
AcDbSpline
210
0.0
220
0.0
230
1.0
 70
     8
 71
     3
 72
     9
 73
     5
 74
     0
 42
0.000000001
 43
0.00000001
 40
0.0
 40
0.0
 40
0.0
 40
0.0
 40
0.5569335189010913
 40
1.0
 40
1.0
 40
1.0
 40
1.0
 10
645.6319291418922
 20
985.9034768845809
 30
0.0
 10
645.558686814628
 20
985.9758798680923
 30
0.0
 10
645.4271768142808
 20
986.1058827877481
 30
0.0
 10
645.2905085461608
 20
986.1460177251527
 30
0.0
 10
645.229955417527
 20
986.1638001706374
 30
0.0
  0
LINE
  5
43E
330
1F
100
AcDbEntity
  8
0
  6
Continuous
 62
     7
370
    25
100
AcDbLine
 10
645.6319291419
 20
981.596624067
 30
0.0
 11
645.6319291419
 21
985.9034768846
 31
0.0
  0
LINE
  5
43F
330
1F
100
AcDbEntity
  8
0
  6
Continuous
 62
     7
370
    25
100
AcDbLine
 10
634.7554821795
 20
981.3361219671
 30
0.0
 11
634.3515713042
 21
981.596624067
 31
0.0
  0
LINE
  5
440
330
1F
100
AcDbEntity
  8
0
  6
Continuous
 62
     7
370
    25
100
AcDbLine
 10
634.9917549914
 20
981.1500362661
 30
0.0
 11
636.2957556075
 21
981.1500362661
 31
0.0
  0
LINE
  5
441
330
1F
100
AcDbEntity
  8
0
  6
Continuous
 62
     7
370
    25
100
AcDbLine
 10
644.9917454547
 20
981.1500362661
 30
0.0
 11
644.7560388869
 21
981.1500362661
 31
0.0
  0
LINE
  5
442
330
1F
100
AcDbEntity
  8
0
  6
Continuous
 62
     7
370
    25
100
AcDbLine
 10
661.9917501038
 20
324.6500543859
 30
0.0
 11
667.991747362
 21
324.6500543859
 31
0.0
  0
LINE
  5
443
330
1F
100
AcDbEntity
  8
0
  6
Continuous
 62
     7
370
    25
100
AcDbLine
 10
656.9817561931
 20
324.6500543859
 30
0.0
 11
661.9917501038
 21
324.6500543859
 31
0.0
  0
LINE
  5
444
330
1F
100
AcDbEntity
  8
0
  6
Continuous
 62
     7
370
    25
100
AcDbLine
 10
659.4317455119
 20
325.1500479486
 30
0.0
 11
656.9817561931
 21
325.1500479486
 31
0.0
  0
LINE
  5
445
330
1F
100
AcDbEntity
  8
0
  6
Continuous
 62
     7
370
    25
100
AcDbLine
 10
253.0017543858
 20
325.1500479486
 30
0.0
 11
250.5517501658
 21
325.1500479486
 31
0.0
  0
LWPOLYLINE
  5
446
330
1F
100
AcDbEntity
  8
0
  6
Continuous
 62
     7
370
    25
100
AcDbPolyline
 90
        3
 70
   128
 43
0.0
 10
657.4917484349
 20
941.8000630643
 10
658.745457632
 20
941.6197888162
 10
658.7799687213
 20
941.609507015
  0
ARC
  5
447
330
1F
100
AcDbEntity
  8
0
  6
Continuous
 62
     7
370
    25
100
AcDbCircle
 10
657.4917505425
 20
937.3500506438
 30
0.0
 40
4.450000000000052
100
AcDbArc
 50
90.0
 51
131.5646466752
  0
LWPOLYLINE
  5
448
330
1F
100
AcDbEntity
  8
0
  6
Continuous
 62
     7
370
    25
100
AcDbPolyline
 90
        3
 70
   128
 43
0.0
 10
657.4917484349
 20
942.0500449445
 10
658.8158954209
 20
941.8596677091
 10
659.0208608931
 20
941.7943410184
  0
ARC
  5
449
330
1F
100
AcDbEntity
  8
0
  6
Continuous
 62
     7
370
    25
100
AcDbCircle
 10
657.4917505425
 20
937.3500506438
 30
0.0
 40
4.700000000000045
100
AcDbArc
 50
90.0
 51
134.894358645
  0
LWPOLYLINE
  5
44A
330
1F
100
AcDbEntity
  8
0
  6
Continuous
 62
     7
370
    25
100
AcDbPolyline
 90
        3
 70
   128
 43
0.0
 10
657.4917484349
 20
943.7500588205
 10
659.0233642882
 20
943.5640923288
 10
659.6817571944
 20
943.363701513
  0
ARC
  5
44B
330
1F
100
AcDbEntity
  8
0
  6
Continuous
 62
     7
370
    25
100
AcDbCircle
 10
657.4917505425
 20
937.3500506438
 30
0.0
 40
6.400000000000091
100
AcDbArc
 50
90.0
 51
148.6517755308
  0
ARC
  5
44C
330
1F
100
AcDbEntity
  8
0
  6
Continuous
 62
     7
370
    25
100
AcDbCircle
 10
252.4917505425
 20
937.3500506438
 30
0.0
 40
4.450000000000052
100
AcDbArc
 50
48.4353533248
 51
90.0
  0
LWPOLYLINE
  5
44D
330
1F
100
AcDbEntity
  8
0
  6
Continuous
 62
     7
370
    25
100
AcDbPolyline
 90
        3
 70
   128
 43
0.0
 10
251.2035269565
 20
941.609507015
 10
251.2380380458
 20
941.6197888162
 10
252.4917472428
 20
941.8000630643
  0
ARC
  5
44E
330
1F
100
AcDbEntity
  8
0
  6
Continuous
 62
     7
370
    25
100
AcDbCircle
 10
252.4917505425
 20
937.3500506438
 30
0.0
 40
4.700000000000045
100
AcDbArc
 50
45.105641355
 51
90.0
  0
LWPOLYLINE
  5
44F
330
1F
100
AcDbEntity
  8
0
  6
Continuous
 62
     7
370
    25
100
AcDbPolyline
 90
        3
 70
   128
 43
0.0
 10
250.9626347846
 20
941.7943410184
 10
251.1676002568
 20
941.8596677091
 10
252.4917472428
 20
942.0500449445
  0
ARC
  5
450
330
1F
100
AcDbEntity
  8
0
  6
Continuous
 62
     7
370
    25
100
AcDbCircle
 10
252.4917505425
 20
937.3500506438
 30
0.0
 40
6.400000000000091
100
AcDbArc
 50
31.3482244692
 51
90.0
  0
LWPOLYLINE
  5
451
330
1F
100
AcDbEntity
  8
0
  6
Continuous
 62
     7
370
    25
100
AcDbPolyline
 90
        3
 70
   128
 43
0.0
 10
250.3017533845
 20
943.363701513
 10
250.9601313895
 20
943.5640923288
 10
252.4917472428
 20
943.7500588205
  0
CIRCLE
  5
452
330
1F
100
AcDbEntity
  8
0
  6
Continuous
 62
     7
370
    25
100
AcDbCircle
 10
454.9917505425
 20
1032.6500506442
 30
0.0
 40
18.5
  0
CIRCLE
  5
453
330
1F
100
AcDbEntity
  8
0
  6
Continuous
 62
     7
370
    25
100
AcDbCircle
 10
454.9917505425
 20
1032.6500506442
 30
0.0
 40
13.20000000000005
  0
LINE
  5
454
330
1F
100
AcDbEntity
  8
0
  6
Continuous
 62
     7
370
    25
100
AcDbLine
 10
423.4917510575
 20
1016.900037935
 30
0.0
 11
423.4917510575
 21
1048.4000496175
 31
0.0
  0
LINE
  5
455
330
1F
100
AcDbEntity
  8
0
  6
Continuous
 62
     7
370
    25
100
AcDbLine
 10
430.9917513555
 20
1016.900037935
 30
0.0
 11
430.9917513555
 21
1048.4000496175
 31
0.0
  0
LINE
  5
456
330
1F
100
AcDbEntity
  8
0
  6
Continuous
 62
     7
370
    25
100
AcDbLine
 10
486.4917505574
 20
1016.900037935
 30
0.0
 11
486.4917505574
 21
1048.4000496175
 31
0.0
  0
LINE
  5
457
330
1F
100
AcDbEntity
  8
0
  6
Continuous
 62
     7
370
    25
100
AcDbLine
 10
478.9917503758
 20
1016.900037935
 30
0.0
 11
478.9917503758
 21
1048.4000496175
 31
0.0
  0
LINE
  5
458
330
1F
100
AcDbEntity
  8
0
  6
Continuous
 62
     7
370
    25
100
AcDbLine
 10
463.9917511767
 20
1022.9939572122
 30
0.0
 11
463.9917511767
 21
1042.3061303403
 31
0.0
  0
LINE
  5
459
330
1F
100
AcDbEntity
  8
0
  6
Continuous
 62
     7
370
    25
100
AcDbLine
 10
445.9917519516
 20
1042.3061303403
 30
0.0
 11
445.9917519516
 21
1022.9939572122
 31
0.0
  0
LINE
  5
45A
330
1F
100
AcDbEntity
  8
0
  6
Continuous
 62
     7
370
    25
100
AcDbLine
 10
587.7417523688
 20
1008.6500398423
 30
0.0
 11
622.2417552298
 21
1008.6500398423
 31
0.0
  0
LINE
  5
45B
330
1F
100
AcDbEntity
  8
0
  6
Continuous
 62
     7
370
    25
100
AcDbLine
 10
574.9917526072
 20
1047.6500443723
 30
0.0
 11
574.9917526072
 21
1017.6500431802
 31
0.0
  0
LINE
  5
45C
330
1F
100
AcDbEntity
  8
0
  6
Continuous
 62
     7
370
    25
100
AcDbLine
 10
304.9917567796
 20
1008.6500398423
 30
0.0
 11
322.2417433089
 21
1008.6500398423
 31
0.0
  0
LINE
  5
45D
330
1F
100
AcDbEntity
  8
0
  6
Continuous
 62
     7
370
    25
100
AcDbLine
 10
287.7417553491
 20
1008.6500398423
 30
0.0
 11
304.9917567796
 21
1008.6500398423
 31
0.0
  0
LINE
  5
45E
330
1F
100
AcDbEntity
  8
0
  6
Continuous
 62
     7
370
    25
100
AcDbLine
 10
334.9917579717
 20
1032.6500586774
 30
0.0
 11
334.9917579717
 21
1047.6500443723
 31
0.0
  0
LINE
  5
45F
330
1F
100
AcDbEntity
  8
0
  6
Continuous
 62
     7
370
    25
100
AcDbLine
 10
334.9917579717
 20
1017.6500431802
 30
0.0
 11
334.9917579717
 21
1032.6500586774
 31
0.0
  0
LINE
  5
460
330
1F
100
AcDbEntity
  8
0
  6
Continuous
 62
     7
370
    25
100
AcDbLine
 10
610.7652534074
 20
977.1500579622
 30
0.0
 11
599.2182467407
 21
977.1500579622
 31
0.0
  0
LINE
  5
461
330
1F
100
AcDbEntity
  8
0
  6
Continuous
 62
     7
370
    25
100
AcDbLine
 10
612.0642919368
 20
977.1500579622
 30
0.0
 11
610.7652534074
 21
977.1500579622
 31
0.0
  0
LINE
  5
462
330
1F
100
AcDbEntity
  8
0
  6
Continuous
 62
     7
370
    25
100
AcDbLine
 10
599.2182467407
 20
977.1500579622
 30
0.0
 11
597.9192082113
 21
977.1500579622
 31
0.0
  0
LINE
  5
463
330
1F
100
AcDbEntity
  8
0
  6
Continuous
 62
     7
370
    25
100
AcDbLine
 10
617.8377915448
 20
977.1500579622
 30
0.0
 11
612.0642919368
 21
977.1500579622
 31
0.0
  0
LINE
  5
464
330
1F
100
AcDbEntity
  8
0
  6
Continuous
 62
     7
370
    25
100
AcDbLine
 10
597.9192082113
 20
977.1500579622
 30
0.0
 11
592.1457086033
 21
977.1500579622
 31
0.0
  0
LINE
  5
465
330
1F
100
AcDbEntity
  8
0
  6
Continuous
 62
     7
370
    25
100
AcDbLine
 10
618.0387486047
 20
977.1500579622
 30
0.0
 11
617.8377915448
 21
977.1500579622
 31
0.0
  0
LINE
  5
466
330
1F
100
AcDbEntity
  8
0
  6
Continuous
 62
     7
370
    25
100
AcDbLine
 10
592.1457086033
 20
977.1500579622
 30
0.0
 11
591.9447440928
 21
977.1500579622
 31
0.0
  0
LINE
  5
467
330
1F
100
AcDbEntity
  8
0
  6
Continuous
 62
     7
370
    25
100
AcDbLine
 10
310.7652563876
 20
977.1500579622
 30
0.0
 11
299.2182422704
 21
977.1500579622
 31
0.0
  0
LINE
  5
468
330
1F
100
AcDbEntity
  8
0
  6
Continuous
 62
     7
370
    25
100
AcDbLine
 10
312.064294917
 20
977.1500579622
 30
0.0
 11
310.7652563876
 21
977.1500579622
 31
0.0
  0
LINE
  5
469
330
1F
100
AcDbEntity
  8
0
  6
Continuous
 62
     7
370
    25
100
AcDbLine
 10
299.2182422704
 20
977.1500579622
 30
0.0
 11
297.919203741
 21
977.1500579622
 31
0.0
  0
LINE
  5
46A
330
1F
100
AcDbEntity
  8
0
  6
Continuous
 62
     7
370
    25
100
AcDbLine
 10
317.837794525
 20
977.1500579622
 30
0.0
 11
312.064294917
 21
977.1500579622
 31
0.0
  0
LINE
  5
46B
330
1F
100
AcDbEntity
  8
0
  6
Continuous
 62
     7
370
    25
100
AcDbLine
 10
297.919203741
 20
977.1500579622
 30
0.0
 11
292.1457041329
 21
977.1500579622
 31
0.0
  0
LINE
  5
46C
330
1F
100
AcDbEntity
  8
0
  6
Continuous
 62
     7
370
    25
100
AcDbLine
 10
318.0387515849
 20
977.1500579622
 30
0.0
 11
317.837794525
 21
977.1500579622
 31
0.0
  0
LINE
  5
46D
330
1F
100
AcDbEntity
  8
0
  6
Continuous
 62
     7
370
    25
100
AcDbLine
 10
292.1457041329
 20
977.1500579622
 30
0.0
 11
291.9447470731
 21
977.1500579622
 31
0.0
  0
LINE
  5
46E
330
1F
100
AcDbEntity
  8
0
  6
Continuous
 62
     7
370
    25
100
AcDbLine
 10
618.693460924
 20
992.150043657
 30
0.0
 11
617.1934504336
 21
991.2840179708
 31
0.0
  0
LINE
  5
46F
330
1F
100
AcDbEntity
  8
0
  6
Continuous
 62
     7
370
    25
100
AcDbLine
 10
617.1934504336
 20
991.2840179708
 30
0.0
 11
615.6934548444
 21
992.150043657
 31
0.0
  0
LINE
  5
470
330
1F
100
AcDbEntity
  8
0
  6
Continuous
 62
     7
370
    25
100
AcDbLine
 10
615.6934548444
 20
992.150043657
 30
0.0
 11
615.6934548444
 21
1007.6500527169
 31
0.0
  0
LINE
  5
471
330
1F
100
AcDbEntity
  8
0
  6
Continuous
 62
     7
370
    25
100
AcDbLine
 10
618.693460924
 20
1007.6500527169
 30
0.0
 11
618.693460924
 21
992.150043657
 31
0.0
  0
LINE
  5
472
330
1F
100
AcDbEntity
  8
0
  6
Continuous
 62
     7
370
    25
100
AcDbLine
 10
594.2900453037
 20
992.150043657
 30
0.0
 11
615.6934548444
 21
992.150043657
 31
0.0
  0
LINE
  5
473
330
1F
100
AcDbEntity
  8
0
  6
Continuous
 62
     7
370
    25
100
AcDbLine
 10
594.2900453037
 20
1007.6500527169
 30
0.0
 11
594.2900453037
 21
992.150043657
 31
0.0
  0
LINE
  5
474
330
1F
100
AcDbEntity
  8
0
  6
Continuous
 62
     7
370
    25
100
AcDbLine
 10
594.424021644
 20
1008.1500462796
 30
0.0
 11
615.5594785041
 21
1008.1500462796
 31
0.0
  0
ELLIPSE
  5
475
330
1F
100
AcDbEntity
  8
0
  6
Continuous
 62
     7
370
    25
100
AcDbEllipse
 10
615.5594818684
 20
1007.6500506442
 30
0.0
 11
0.0
 21
0.5
 31
0.0
210
0.0
220
0.0
230
1.0
 40
0.2679491924
 41
4.712388980383329
 42
6.283185307179586
  0
ELLIPSE
  5
476
330
1F
100
AcDbEntity
  8
0
  6
Continuous
 62
     7
370
    25
100
AcDbEllipse
 10
594.4240192165
 20
1007.6500506442
 30
0.0
 11
0.0
 21
0.5000000000002274
 31
0.0
210
0.0
220
0.0
230
1.0
 40
0.2679491924
 41
0.0
 42
1.570796326794897
  0
LINE
  5
477
330
1F
100
AcDbEntity
  8
0
  6
Continuous
 62
     7
370
    25
100
AcDbLine
 10
615.5594785041
 20
1008.1500462796
 30
0.0
 11
618.3274288005
 21
1008.1500462796
 31
0.0
  0
ELLIPSE
  5
478
330
1F
100
AcDbEntity
  8
0
  6
Continuous
 62
     7
370
    25
100
AcDbEllipse
 10
618.3274310608
 20
1007.6500506442
 30
0.0
 11
0.0
 21
0.5
 31
0.0
210
0.0
220
0.0
230
1.0
 40
0.7320508076
 41
4.7123889803847
 42
6.283185307179586
  0
LINE
  5
479
330
1F
100
AcDbEntity
  8
0
  6
Continuous
 62
     7
370
    25
100
AcDbLine
 10
615.961407525
 20
989.1500524785
 30
0.0
 11
617.1934504336
 21
991.2840179708
 31
0.0
  0
LINE
  5
47A
330
1F
100
AcDbEntity
  8
0
  6
Continuous
 62
     7
370
    25
100
AcDbLine
 10
615.961407525
 20
989.1500524785
 30
0.0
 11
594.0220926231
 21
989.1500524785
 31
0.0
  0
LINE
  5
47B
330
1F
100
AcDbEntity
  8
0
  6
Continuous
 62
     7
370
    25
100
AcDbLine
 10
594.0220926231
 20
989.1500524785
 30
0.0
 11
592.7900422639
 21
991.2840179708
 31
0.0
  0
LINE
  5
47C
330
1F
100
AcDbEntity
  8
0
  6
Continuous
 62
     7
370
    25
100
AcDbLine
 10
594.2900453037
 20
992.150043657
 30
0.0
 11
592.7900422639
 21
991.2840179708
 31
0.0
  0
LINE
  5
47D
330
1F
100
AcDbEntity
  8
0
  6
Continuous
 62
     7
370
    25
100
AcDbLine
 10
592.7900422639
 20
991.2840179708
 30
0.0
 11
591.2900466746
 21
992.150043657
 31
0.0
  0
LINE
  5
47E
330
1F
100
AcDbEntity
  8
0
  6
Continuous
 62
     7
370
    25
100
AcDbLine
 10
591.2900466746
 20
992.150043657
 30
0.0
 11
591.2900466746
 21
1007.6500527169
 31
0.0
  0
LINE
  5
47F
330
1F
100
AcDbEntity
  8
0
  6
Continuous
 62
     7
370
    25
100
AcDbLine
 10
591.6560713476
 20
1008.1500462796
 30
0.0
 11
594.424021644
 21
1008.1500462796
 31
0.0
  0
ELLIPSE
  5
480
330
1F
100
AcDbEntity
  8
0
  6
Continuous
 62
     7
370
    25
100
AcDbEllipse
 10
591.6560700241
 20
1007.6500506442
 30
0.0
 11
0.0
 21
0.5
 31
0.0
210
0.0
220
0.0
230
1.0
 40
0.7320508076
 41
0.0
 42
1.570796326794897
  0
LINE
  5
481
330
1F
100
AcDbEntity
  8
0
  6
Continuous
 62
     7
370
    25
100
AcDbLine
 10
629.3951619691
 20
991.2840179708
 30
0.0
 11
629.3951619691
 21
992.150043657
 31
0.0
  0
LINE
  5
482
330
1F
100
AcDbEntity
  8
0
  6
Continuous
 62
     7
370
    25
100
AcDbLine
 10
629.3951619691
 20
991.2840179708
 30
0.0
 11
626.9310612506
 21
989.1500524785
 31
0.0
  0
LINE
  5
483
330
1F
100
AcDbEntity
  8
0
  6
Continuous
 62
     7
370
    25
100
AcDbLine
 10
626.9310612506
 20
989.1500524785
 30
0.0
 11
615.961407525
 21
989.1500524785
 31
0.0
  0
LINE
  5
484
330
1F
100
AcDbEntity
  8
0
  6
Continuous
 62
     7
370
    25
100
AcDbLine
 10
618.693460924
 20
992.150043657
 30
0.0
 11
629.3951619691
 21
992.150043657
 31
0.0
  0
LINE
  5
485
330
1F
100
AcDbEntity
  8
0
  6
Continuous
 62
     7
370
    25
100
AcDbLine
 10
594.0220926231
 20
989.1500524785
 30
0.0
 11
583.0524388975
 21
989.1500524785
 31
0.0
  0
LINE
  5
486
330
1F
100
AcDbEntity
  8
0
  6
Continuous
 62
     7
370
    25
100
AcDbLine
 10
583.0524388975
 20
989.1500524785
 30
0.0
 11
580.588338179
 21
991.2840179708
 31
0.0
  0
LINE
  5
487
330
1F
100
AcDbEntity
  8
0
  6
Continuous
 62
     7
370
    25
100
AcDbLine
 10
580.588338179
 20
992.150043657
 30
0.0
 11
580.588338179
 21
991.2840179708
 31
0.0
  0
LINE
  5
488
330
1F
100
AcDbEntity
  8
0
  6
Continuous
 62
     7
370
    25
100
AcDbLine
 10
580.588338179
 20
992.150043657
 30
0.0
 11
591.2900466746
 21
992.150043657
 31
0.0
  0
LINE
  5
489
330
1F
100
AcDbEntity
  8
0
  6
Continuous
 62
     7
370
    25
100
AcDbLine
 10
629.3951619691
 20
992.150043657
 30
0.0
 11
629.3951619691
 21
1007.6500527169
 31
0.0
  0
ARC
  5
48A
330
1F
100
AcDbEntity
  8
0
  6
Continuous
 62
     7
370
    25
100
AcDbCircle
 10
628.8951623868
 20
1007.6500506442
 30
0.0
 40
0.5
100
AcDbArc
 50
0.0
 51
90.0
  0
LINE
  5
48B
330
1F
100
AcDbEntity
  8
0
  6
Continuous
 62
     7
370
    25
100
AcDbLine
 10
618.3274288005
 20
1008.1500462796
 30
0.0
 11
628.8951684064
 21
1008.1500462796
 31
0.0
  0
LINE
  5
48C
330
1F
100
AcDbEntity
  8
0
  6
Continuous
 62
     7
370
    25
100
AcDbLine
 10
580.588338179
 20
1007.6500527169
 30
0.0
 11
580.588338179
 21
992.150043657
 31
0.0
  0
ARC
  5
48D
330
1F
100
AcDbEntity
  8
0
  6
Continuous
 62
     7
370
    25
100
AcDbCircle
 10
581.0883386981
 20
1007.6500506442
 30
0.0
 40
0.5
100
AcDbArc
 50
90.0
 51
180.0
  0
LINE
  5
48E
330
1F
100
AcDbEntity
  8
0
  6
Continuous
 62
     7
370
    25
100
AcDbLine
 10
581.0883391923
 20
1008.1500462796
 30
0.0
 11
591.6560713476
 21
1008.1500462796
 31
0.0
  0
LINE
  5
48F
330
1F
100
AcDbEntity
  8
0
  6
Continuous
 62
     7
370
    25
100
AcDbLine
 10
318.6934639043
 20
992.150043657
 30
0.0
 11
317.1934534139
 21
991.2840179708
 31
0.0
  0
LINE
  5
490
330
1F
100
AcDbEntity
  8
0
  6
Continuous
 62
     7
370
    25
100
AcDbLine
 10
317.1934534139
 20
991.2840179708
 30
0.0
 11
315.6934578246
 21
992.150043657
 31
0.0
  0
LINE
  5
491
330
1F
100
AcDbEntity
  8
0
  6
Continuous
 62
     7
370
    25
100
AcDbLine
 10
315.6934578246
 20
992.150043657
 30
0.0
 11
315.6934578246
 21
1007.6500527169
 31
0.0
  0
LINE
  5
492
330
1F
100
AcDbEntity
  8
0
  6
Continuous
 62
     7
370
    25
100
AcDbLine
 10
318.6934639043
 20
1007.6500527169
 30
0.0
 11
318.6934639043
 21
992.150043657
 31
0.0
  0
LINE
  5
493
330
1F
100
AcDbEntity
  8
0
  6
Continuous
 62
     7
370
    25
100
AcDbLine
 10
315.9614105052
 20
989.1500524785
 30
0.0
 11
294.0220881528
 21
989.1500524785
 31
0.0
  0
LINE
  5
494
330
1F
100
AcDbEntity
  8
0
  6
Continuous
 62
     7
370
    25
100
AcDbLine
 10
292.7900452441
 20
991.2840179708
 30
0.0
 11
294.0220881528
 21
989.1500524785
 31
0.0
  0
LINE
  5
495
330
1F
100
AcDbEntity
  8
0
  6
Continuous
 62
     7
370
    25
100
AcDbLine
 10
294.2900408334
 20
992.150043657
 30
0.0
 11
292.7900452441
 21
991.2840179708
 31
0.0
  0
LINE
  5
496
330
1F
100
AcDbEntity
  8
0
  6
Continuous
 62
     7
370
    25
100
AcDbLine
 10
294.2900408334
 20
992.150043657
 30
0.0
 11
315.6934578246
 21
992.150043657
 31
0.0
  0
LINE
  5
497
330
1F
100
AcDbEntity
  8
0
  6
Continuous
 62
     7
370
    25
100
AcDbLine
 10
317.1934534139
 20
991.2840179708
 30
0.0
 11
315.9614105052
 21
989.1500524785
 31
0.0
  0
LINE
  5
498
330
1F
100
AcDbEntity
  8
0
  6
Continuous
 62
     7
370
    25
100
AcDbLine
 10
294.2900408334
 20
1007.6500527169
 30
0.0
 11
294.2900408334
 21
992.150043657
 31
0.0
  0
ELLIPSE
  5
499
330
1F
100
AcDbEntity
  8
0
  6
Continuous
 62
     7
370
    25
100
AcDbEllipse
 10
294.4240192165
 20
1007.6500506393
 30
0.0
 11
0.0
 21
0.4999999999998863
 31
0.0
210
0.0
220
0.0
230
1.0
 40
0.2679491924
 41
0.0
 42
1.570796326794897
  0
LINE
  5
49A
330
1F
100
AcDbEntity
  8
0
  6
Continuous
 62
     7
370
    25
100
AcDbLine
 10
294.4240171737
 20
1008.1500462796
 30
0.0
 11
315.5594814843
 21
1008.1500462796
 31
0.0
  0
ELLIPSE
  5
49B
330
1F
100
AcDbEntity
  8
0
  6
Continuous
 62
     7
370
    25
100
AcDbEllipse
 10
315.5594818684
 20
1007.6500506393
 30
0.0
 11
0.0
 21
0.4999999999998863
 31
0.0
210
0.0
220
0.0
230
1.0
 40
0.2679491924
 41
4.712388980384693
 42
6.283185307179586
  0
LINE
  5
49C
330
1F
100
AcDbEntity
  8
0
  6
Continuous
 62
     7
370
    25
100
AcDbLine
 10
315.5594814843
 20
1008.1500462796
 30
0.0
 11
318.3274317807
 21
1008.1500462796
 31
0.0
  0
ELLIPSE
  5
49D
330
1F
100
AcDbEntity
  8
0
  6
Continuous
 62
     7
370
    25
100
AcDbEllipse
 10
318.3274310608
 20
1007.6500506393
 30
0.0
 11
0.0
 21
0.4999999999998863
 31
0.0
210
0.0
220
0.0
230
1.0
 40
0.7320508076
 41
4.7123889803847
 42
6.283185307179586
  0
LINE
  5
49E
330
1F
100
AcDbEntity
  8
0
  6
Continuous
 62
     7
370
    25
100
AcDbLine
 10
292.7900452441
 20
991.2840179708
 30
0.0
 11
291.2900496549
 21
992.150043657
 31
0.0
  0
LINE
  5
49F
330
1F
100
AcDbEntity
  8
0
  6
Continuous
 62
     7
370
    25
100
AcDbLine
 10
291.2900496549
 20
992.150043657
 30
0.0
 11
291.2900496549
 21
1007.6500527169
 31
0.0
  0
LINE
  5
4A0
330
1F
100
AcDbEntity
  8
0
  6
Continuous
 62
     7
370
    25
100
AcDbLine
 10
291.6560668773
 20
1008.1500462796
 30
0.0
 11
294.4240171737
 21
1008.1500462796
 31
0.0
  0
ELLIPSE
  5
4A1
330
1F
100
AcDbEntity
  8
0
  6
Continuous
 62
     7
370
    25
100
AcDbEllipse
 10
291.6560700241
 20
1007.6500506393
 30
0.0
 11
0.0
 21
0.5
 31
0.0
210
0.0
220
0.0
230
1.0
 40
0.7320508076
 41
0.0
 42
1.570796326794897
  0
LINE
  5
4A2
330
1F
100
AcDbEntity
  8
0
  6
Continuous
 62
     7
370
    25
100
AcDbLine
 10
329.3951649493
 20
991.2840179708
 30
0.0
 11
329.3951649493
 21
992.150043657
 31
0.0
  0
LINE
  5
4A3
330
1F
100
AcDbEntity
  8
0
  6
Continuous
 62
     7
370
    25
100
AcDbLine
 10
326.9310642308
 20
989.1500524785
 30
0.0
 11
329.3951649493
 21
991.2840179708
 31
0.0
  0
LINE
  5
4A4
330
1F
100
AcDbEntity
  8
0
  6
Continuous
 62
     7
370
    25
100
AcDbLine
 10
326.9310642308
 20
989.1500524785
 30
0.0
 11
315.9614105052
 21
989.1500524785
 31
0.0
  0
LINE
  5
4A5
330
1F
100
AcDbEntity
  8
0
  6
Continuous
 62
     7
370
    25
100
AcDbLine
 10
318.6934639043
 20
992.150043657
 30
0.0
 11
329.3951649493
 21
992.150043657
 31
0.0
  0
LINE
  5
4A6
330
1F
100
AcDbEntity
  8
0
  6
Continuous
 62
     7
370
    25
100
AcDbLine
 10
294.0220881528
 20
989.1500524785
 30
0.0
 11
283.0524344272
 21
989.1500524785
 31
0.0
  0
LINE
  5
4A7
330
1F
100
AcDbEntity
  8
0
  6
Continuous
 62
     7
370
    25
100
AcDbLine
 10
280.5883337087
 20
991.2840179708
 30
0.0
 11
283.0524344272
 21
989.1500524785
 31
0.0
  0
LINE
  5
4A8
330
1F
100
AcDbEntity
  8
0
  6
Continuous
 62
     7
370
    25
100
AcDbLine
 10
280.5883337087
 20
992.150043657
 30
0.0
 11
280.5883337087
 21
991.2840179708
 31
0.0
  0
LINE
  5
4A9
330
1F
100
AcDbEntity
  8
0
  6
Continuous
 62
     7
370
    25
100
AcDbLine
 10
280.5883337087
 20
992.150043657
 30
0.0
 11
291.2900496549
 21
992.150043657
 31
0.0
  0
LINE
  5
4AA
330
1F
100
AcDbEntity
  8
0
  6
Continuous
 62
     7
370
    25
100
AcDbLine
 10
329.3951649493
 20
992.150043657
 30
0.0
 11
329.3951649493
 21
1007.6500527169
 31
0.0
  0
ARC
  5
4AB
330
1F
100
AcDbEntity
  8
0
  6
Continuous
 62
     7
370
    25
100
AcDbCircle
 10
328.8951623868
 20
1007.6500506393
 30
0.0
 40
0.5
100
AcDbArc
 50
0.0
 51
90.0
  0
LINE
  5
4AC
330
1F
100
AcDbEntity
  8
0
  6
Continuous
 62
     7
370
    25
100
AcDbLine
 10
318.3274317807
 20
1008.1500462796
 30
0.0
 11
328.8951564855
 21
1008.1500462796
 31
0.0
  0
LINE
  5
4AD
330
1F
100
AcDbEntity
  8
0
  6
Continuous
 62
     7
370
    25
100
AcDbLine
 10
280.5883337087
 20
1007.6500527169
 30
0.0
 11
280.5883337087
 21
992.150043657
 31
0.0
  0
ARC
  5
4AE
330
1F
100
AcDbEntity
  8
0
  6
Continuous
 62
     7
370
    25
100
AcDbCircle
 10
281.0883386981
 20
1007.6500506393
 30
0.0
 40
0.5
100
AcDbArc
 50
90.0
 51
180.0
  0
LINE
  5
4AF
330
1F
100
AcDbEntity
  8
0
  6
Continuous
 62
     7
370
    25
100
AcDbLine
 10
281.0883421725
 20
1008.1500462796
 30
0.0
 11
291.6560668773
 21
1008.1500462796
 31
0.0
  0
ENDSEC
  0
SECTION
  2
OBJECTS
  0
DICTIONARY
  5
C
330
0
100
AcDbDictionary
281
     1
  3
ACAD_GROUP
350
D
  3
ACAD_LAYOUT
350
1A
  3
ACAD_MLINESTYLE
350
17
  3
ACAD_PLOTSETTINGS
350
19
  3
ACAD_PLOTSTYLENAME
350
E
  3
ACAD_SCALELIST
350
47
  0
DICTIONARY
  5
D
102
{ACAD_REACTORS
330
C
102
}
330
C
100
AcDbDictionary
281
     1
  0
DICTIONARY
  5
1A
102
{ACAD_REACTORS
330
C
102
}
330
C
100
AcDbDictionary
281
     1
  3
Layout1
350
1E
  3
Layout2
350
26
  3
Model
350
22
  0
DICTIONARY
  5
17
102
{ACAD_REACTORS
330
C
102
}
330
C
100
AcDbDictionary
281
     1
  3
Standard
350
18
  0
DICTIONARY
  5
19
102
{ACAD_REACTORS
330
C
102
}
330
C
100
AcDbDictionary
281
     1
  0
ACDBDICTIONARYWDFLT
  5
E
102
{ACAD_REACTORS
330
C
102
}
330
C
100
AcDbDictionary
281
     1
  3
Normal
350
F
100
AcDbDictionaryWithDefault
340
F
  0
DICTIONARY
  5
47
102
{ACAD_REACTORS
330
C
102
}
330
C
100
AcDbDictionary
281
     1
  3
A0
350
48
  3
A1
350
49
  3
A2
350
4A
  3
A3
350
4B
  3
A4
350
4C
  3
A5
350
4D
  3
A6
350
4E
  3
A7
350
4F
  3
A8
350
50
  3
A9
350
51
  3
B0
350
52
  3
B1
350
53
  3
B2
350
54
  3
B3
350
55
  3
B4
350
56
  3
B5
350
57
  3
B6
350
58
  3
B7
350
59
  3
B8
350
5A
  3
B9
350
5B
  3
C0
350
5C
  3
C1
350
5D
  3
C2
350
5E
  3
C3
350
5F
  3
C4
350
60
  3
C5
350
61
  3
C6
350
62
  3
C7
350
63
  3
C8
350
64
  3
C9
350
65
  3
D0
350
66
  3
D1
350
67
  3
D2
350
68
  0
LAYOUT
  5
1E
102
{ACAD_REACTORS
330
1A
102
}
330
1A
100
AcDbPlotSettings
  1

  2
none_device
  4

  6

 40
0.0
 41
0.0
 42
0.0
 43
0.0
 44
0.0
 45
0.0
 46
0.0
 47
0.0
 48
0.0
 49
0.0
140
0.0
141
0.0
142
1.0
143
1.0
 70
   688
 72
     1
 73
     0
 74
     5
  7

 75
    16
147
1.0
148
0.0
149
0.0
100
AcDbLayout
  1
Layout1
 70
     1
 71
     1
 10
0.0
 20
0.0
 11
420.0
 21
297.0
 12
0.0
 22
0.0
 32
0.0
 14
1.0000000000E+20
 24
1.0000000000E+20
 34
1.0000000000E+20
 15
-1.0000000000E+20
 25
-1.0000000000E+20
 35
-1.0000000000E+20
146
0.0
 13
0.0
 23
0.0
 33
0.0
 16
1.0
 26
0.0
 36
0.0
 17
0.0
 27
1.0
 37
0.0
 76
     0
330
1B
  0
LAYOUT
  5
26
102
{ACAD_REACTORS
330
1A
102
}
330
1A
100
AcDbPlotSettings
  1

  2
none_device
  4

  6

 40
0.0
 41
0.0
 42
0.0
 43
0.0
 44
0.0
 45
0.0
 46
0.0
 47
0.0
 48
0.0
 49
0.0
140
0.0
141
0.0
142
1.0
143
1.0
 70
   688
 72
     1
 73
     0
 74
     5
  7

 75
    16
147
1.0
148
0.0
149
0.0
100
AcDbLayout
  1
Layout2
 70
     1
 71
     2
 10
0.0
 20
0.0
 11
0.0
 21
0.0
 12
0.0
 22
0.0
 32
0.0
 14
0.0
 24
0.0
 34
0.0
 15
0.0
 25
0.0
 35
0.0
146
0.0
 13
0.0
 23
0.0
 33
0.0
 16
1.0
 26
0.0
 36
0.0
 17
0.0
 27
1.0
 37
0.0
 76
     0
330
23
  0
LAYOUT
  5
22
102
{ACAD_REACTORS
330
1A
102
}
330
1A
100
AcDbPlotSettings
  1

  2
none_device
  4
Letter_(8.50_x_11.00_Inches)
  6

 40
6.35
 41
6.35
 42
6.35000508
 43
6.35000508
 44
215.9
 45
279.4
 46
0.0
 47
0.0
 48
0.0
 49
0.0
140
0.0
141
0.0
142
1.0
143
1.0
 70
  1712
 72
     1
 73
     0
 74
     0
  7

 75
     0
147
1.0
148
0.0
149
0.0
100
AcDbLayout
  1
Model
 70
     1
 71
     0
 10
0.0
 20
0.0
 11
900.0
 21
1200.0
 12
0.0
 22
0.0
 32
0.0
 14
0.0
 24
0.0
 34
0.0
 15
900.0
 25
1200.0
 35
0.0
146
0.0
 13
0.0
 23
0.0
 33
0.0
 16
1.0
 26
0.0
 36
0.0
 17
0.0
 27
1.0
 37
0.0
 76
     0
330
1F
331
29
  0
MLINESTYLE
  5
18
102
{ACAD_REACTORS
330
17
102
}
330
17
100
AcDbMlineStyle
  2
Standard
 70
     0
  3

 62
   256
 51
90.0
 52
90.0
 71
     2
 49
0.5
 62
   256
  6
BYLAYER
 49
-0.5
 62
   256
  6
BYLAYER
  0
ACDBPLACEHOLDER
  5
F
102
{ACAD_REACTORS
330
E
102
}
330
E
  0
SCALE
  5
48
102
{ACAD_REACTORS
330
47
102
}
330
47
100
AcDbScale
 70
     0
300
1:1
140
1.0
141
1.0
290
     1
  0
SCALE
  5
49
102
{ACAD_REACTORS
330
47
102
}
330
47
100
AcDbScale
 70
     0
300
1:2
140
1.0
141
2.0
290
     0
  0
SCALE
  5
4A
102
{ACAD_REACTORS
330
47
102
}
330
47
100
AcDbScale
 70
     0
300
1:4
140
1.0
141
4.0
290
     0
  0
SCALE
  5
4B
102
{ACAD_REACTORS
330
47
102
}
330
47
100
AcDbScale
 70
     0
300
1:5
140
1.0
141
5.0
290
     0
  0
SCALE
  5
4C
102
{ACAD_REACTORS
330
47
102
}
330
47
100
AcDbScale
 70
     0
300
1:8
140
1.0
141
8.0
290
     0
  0
SCALE
  5
4D
102
{ACAD_REACTORS
330
47
102
}
330
47
100
AcDbScale
 70
     0
300
1:10
140
1.0
141
10.0
290
     0
  0
SCALE
  5
4E
102
{ACAD_REACTORS
330
47
102
}
330
47
100
AcDbScale
 70
     0
300
1:16
140
1.0
141
16.0
290
     0
  0
SCALE
  5
4F
102
{ACAD_REACTORS
330
47
102
}
330
47
100
AcDbScale
 70
     0
300
1:20
140
1.0
141
20.0
290
     0
  0
SCALE
  5
50
102
{ACAD_REACTORS
330
47
102
}
330
47
100
AcDbScale
 70
     0
300
1:30
140
1.0
141
30.0
290
     0
  0
SCALE
  5
51
102
{ACAD_REACTORS
330
47
102
}
330
47
100
AcDbScale
 70
     0
300
1:40
140
1.0
141
40.0
290
     0
  0
SCALE
  5
52
102
{ACAD_REACTORS
330
47
102
}
330
47
100
AcDbScale
 70
     0
300
1:50
140
1.0
141
50.0
290
     0
  0
SCALE
  5
53
102
{ACAD_REACTORS
330
47
102
}
330
47
100
AcDbScale
 70
     0
300
1:100
140
1.0
141
100.0
290
     0
  0
SCALE
  5
54
102
{ACAD_REACTORS
330
47
102
}
330
47
100
AcDbScale
 70
     0
300
2:1
140
2.0
141
1.0
290
     0
  0
SCALE
  5
55
102
{ACAD_REACTORS
330
47
102
}
330
47
100
AcDbScale
 70
     0
300
4:1
140
4.0
141
1.0
290
     0
  0
SCALE
  5
56
102
{ACAD_REACTORS
330
47
102
}
330
47
100
AcDbScale
 70
     0
300
8:1
140
8.0
141
1.0
290
     0
  0
SCALE
  5
57
102
{ACAD_REACTORS
330
47
102
}
330
47
100
AcDbScale
 70
     0
300
10:1
140
10.0
141
1.0
290
     0
  0
SCALE
  5
58
102
{ACAD_REACTORS
330
47
102
}
330
47
100
AcDbScale
 70
     0
300
100:1
140
100.0
141
1.0
290
     0
  0
SCALE
  5
59
102
{ACAD_REACTORS
330
47
102
}
330
47
100
AcDbScale
 70
     0
300
1/128" = 1'-0"
140
0.0078125
141
12.0
290
     0
  0
SCALE
  5
5A
102
{ACAD_REACTORS
330
47
102
}
330
47
100
AcDbScale
 70
     0
300
1/64" = 1'-0"
140
0.015625
141
12.0
290
     0
  0
SCALE
  5
5B
102
{ACAD_REACTORS
330
47
102
}
330
47
100
AcDbScale
 70
     0
300
1/32" = 1'-0"
140
0.03125
141
12.0
290
     0
  0
SCALE
  5
5C
102
{ACAD_REACTORS
330
47
102
}
330
47
100
AcDbScale
 70
     0
300
1/16" = 1'-0"
140
0.0625
141
12.0
290
     0
  0
SCALE
  5
5D
102
{ACAD_REACTORS
330
47
102
}
330
47
100
AcDbScale
 70
     0
300
3/32" = 1'-0"
140
0.09375
141
12.0
290
     0
  0
SCALE
  5
5E
102
{ACAD_REACTORS
330
47
102
}
330
47
100
AcDbScale
 70
     0
300
1/8" = 1'-0"
140
0.125
141
12.0
290
     0
  0
SCALE
  5
5F
102
{ACAD_REACTORS
330
47
102
}
330
47
100
AcDbScale
 70
     0
300
3/16" = 1'-0"
140
0.1875
141
12.0
290
     0
  0
SCALE
  5
60
102
{ACAD_REACTORS
330
47
102
}
330
47
100
AcDbScale
 70
     0
300
1/4" = 1'-0"
140
0.25
141
12.0
290
     0
  0
SCALE
  5
61
102
{ACAD_REACTORS
330
47
102
}
330
47
100
AcDbScale
 70
     0
300
3/8" = 1'-0"
140
0.375
141
12.0
290
     0
  0
SCALE
  5
62
102
{ACAD_REACTORS
330
47
102
}
330
47
100
AcDbScale
 70
     0
300
1/2" = 1'-0"
140
0.5
141
12.0
290
     0
  0
SCALE
  5
63
102
{ACAD_REACTORS
330
47
102
}
330
47
100
AcDbScale
 70
     0
300
3/4" = 1'-0"
140
0.75
141
12.0
290
     0
  0
SCALE
  5
64
102
{ACAD_REACTORS
330
47
102
}
330
47
100
AcDbScale
 70
     0
300
1" = 1'-0"
140
1.0
141
12.0
290
     0
  0
SCALE
  5
65
102
{ACAD_REACTORS
330
47
102
}
330
47
100
AcDbScale
 70
     0
300
1-1/2" = 1'-0"
140
1.5
141
12.0
290
     0
  0
SCALE
  5
66
102
{ACAD_REACTORS
330
47
102
}
330
47
100
AcDbScale
 70
     0
300
3" = 1'-0"
140
3.0
141
12.0
290
     0
  0
SCALE
  5
67
102
{ACAD_REACTORS
330
47
102
}
330
47
100
AcDbScale
 70
     0
300
6" = 1'-0"
140
6.0
141
12.0
290
     0
  0
SCALE
  5
68
102
{ACAD_REACTORS
330
47
102
}
330
47
100
AcDbScale
 70
     0
300
1'-0" = 1'-0"
140
12.0
141
12.0
290
     0
  0
ENDSEC
  0
EOF
