  0
SECTION
  2
HEADER
  9
$ACADVER
  1
AC1015
  9
$ACADMAINTVER
 70
     6
  9
$DWGCODEPAGE
  3
ANSI_1252
  9
$INSBASE
 10
0.0
 20
0.0
 30
0.0
  9
$EXTMIN
 10
0.0
 20
0.0
 30
0.0
  9
$EXTMAX
 10
900.0
 20
1200.0
 30
0.0
  9
$LIMMIN
 10
0.0
 20
0.0
  9
$LIMMAX
 10
900.0
 20
1200.0
  9
$ORTHOMODE
 70
     0
  9
$REGENMODE
 70
     1
  9
$FILLMODE
 70
     1
  9
$QTEXTMODE
 70
     0
  9
$MIRRTEXT
 70
     1
  9
$LTSCALE
 40
1.0
  9
$ATTMODE
 70
     1
  9
$TEXTSIZE
 40
3.5
  9
$TRACEWID
 40
1.0
  9
$TEXTSTYLE
  7
Standard
  9
$CLAYER
  8
0
  9
$CELTYPE
  6
ByLayer
  9
$CECOLOR
 62
   256
  9
$CELTSCALE
 40
1.0
  9
$DISPSILH
 70
     0
  9
$DIMSCALE
 40
1.0
  9
$DIMASZ
 40
3.302
  9
$DIMEXO
 40
1.0
  9
$DIMDLI
 40
3.75
  9
$DIMRND
 40
0.0
  9
$DIMDLE
 40
0.0
  9
$DIMEXE
 40
1.0
  9
$DIMTP
 40
0.0
  9
$DIMTM
 40
0.0
  9
$DIMTXT
 40
3.5
  9
$DIMCEN
 40
2.5
  9
$DIMTSZ
 40
0.0
  9
$DIMTOL
 70
     0
  9
$DIMLIM
 70
     0
  9
$DIMTIH
 70
     1
  9
$DIMTOH
 70
     1
  9
$DIMSE1
 70
     0
  9
$DIMSE2
 70
     0
  9
$DIMTAD
 70
     1
  9
$DIMZIN
 70
     0
  9
$DIMBLK
  1

  9
$DIMASO
 70
     1
  9
$DIMSHO
 70
     1
  9
$DIMPOST
  1

  9
$DIMAPOST
  1

  9
$DIMALT
 70
     0
  9
$DIMALTD
 70
     3
  9
$DIMALTF
 40
0.0393700787
  9
$DIMLFAC
 40
1.0
  9
$DIMTOFL
 70
     1
  9
$DIMTVP
 40
0.0
  9
$DIMTIX
 70
     0
  9
$DIMSOXD
 70
     0
  9
$DIMSAH
 70
     0
  9
$DIMBLK1
  1

  9
$DIMBLK2
  1

  9
$DIMSTYLE
  2
ISO-25
  9
$DIMCLRD
 70
     0
  9
$DIMCLRE
 70
     0
  9
$DIMCLRT
 70
     0
  9
$DIMTFAC
 40
1.0
  9
$DIMGAP
 40
1.524
  9
$DIMJUST
 70
     0
  9
$DIMSD1
 70
     0
  9
$DIMSD2
 70
     0
  9
$DIMTOLJ
 70
     0
  9
$DIMTZIN
 70
     0
  9
$DIMALTZ
 70
     0
  9
$DIMALTTZ
 70
     0
  9
$DIMUPT
 70
     0
  9
$DIMDEC
 70
     3
  9
$DIMTDEC
 70
     3
  9
$DIMALTU
 70
     2
  9
$DIMALTTD
 70
     3
  9
$DIMTXSTY
  7
Standard
  9
$DIMAUNIT
 70
     0
  9
$DIMADEC
 70
     2
  9
$DIMALTRND
 40
0.0
  9
$DIMAZIN
 70
     0
  9
$DIMDSEP
 70
    44
  9
$DIMATFIT
 70
     3
  9
$DIMFRAC
 70
     0
  9
$DIMLDRBLK
  1

  9
$DIMLUNIT
 70
     2
  9
$DIMLWD
 70
    -2
  9
$DIMLWE
 70
    -2
  9
$DIMTMOVE
 70
     0
  9
$LUNITS
 70
     2
  9
$LUPREC
 70
     8
  9
$SKETCHINC
 40
1.0
  9
$FILLETRAD
 40
10.0
  9
$AUNITS
 70
     0
  9
$AUPREC
 70
     8
  9
$MENU
  1
.
  9
$ELEVATION
 40
0.0
  9
$PELEVATION
 40
0.0
  9
$THICKNESS
 40
0.0
  9
$LIMCHECK
 70
     0
  9
$CHAMFERA
 40
0.0
  9
$CHAMFERB
 40
0.0
  9
$CHAMFERC
 40
0.0
  9
$CHAMFERD
 40
0.0
  9
$SKPOLY
 70
     0
  9
$TDCREATE
 40
2458432.454273924
  9
$TDUCREATE
 40
2458432.454273924
  9
$TDUPDATE
 40
2458432.454275012
  9
$TDUUPDATE
 40
2458432.454275012
  9
$TDINDWG
 40
0.0000000116
  9
$TDUSRTIMER
 40
0.0000000116
  9
$USRTIMER
 70
     1
  9
$ANGBASE
 50
0.0
  9
$ANGDIR
 70
     0
  9
$PDMODE
 70
     0
  9
$PDSIZE
 40
-1.0
  9
$PLINEWID
 40
0.0
  9
$SPLFRAME
 70
     0
  9
$SPLINETYPE
 70
     6
  9
$SPLINESEGS
 70
     8
  9
$HANDSEED
  5
511
  9
$SURFTAB1
 70
     6
  9
$SURFTAB2
 70
     6
  9
$SURFTYPE
 70
     6
  9
$SURFU
 70
     6
  9
$SURFV
 70
     6
  9
$UCSBASE
  2

  9
$UCSNAME
  2

  9
$UCSORG
 10
0.0
 20
0.0
 30
0.0
  9
$UCSXDIR
 10
1.0
 20
0.0
 30
0.0
  9
$UCSYDIR
 10
0.0
 20
1.0
 30
0.0
  9
$UCSORTHOREF
  2

  9
$UCSORTHOVIEW
 70
     0
  9
$UCSORGTOP
 10
0.0
 20
0.0
 30
0.0
  9
$UCSORGBOTTOM
 10
0.0
 20
0.0
 30
0.0
  9
$UCSORGLEFT
 10
0.0
 20
0.0
 30
0.0
  9
$UCSORGRIGHT
 10
0.0
 20
0.0
 30
0.0
  9
$UCSORGFRONT
 10
0.0
 20
0.0
 30
0.0
  9
$UCSORGBACK
 10
0.0
 20
0.0
 30
0.0
  9
$PUCSBASE
  2

  9
$PUCSNAME
  2

  9
$PUCSORG
 10
0.0
 20
0.0
 30
0.0
  9
$PUCSXDIR
 10
1.0
 20
0.0
 30
0.0
  9
$PUCSYDIR
 10
0.0
 20
1.0
 30
0.0
  9
$PUCSORTHOREF
  2

  9
$PUCSORTHOVIEW
 70
     0
  9
$PUCSORGTOP
 10
0.0
 20
0.0
 30
0.0
  9
$PUCSORGBOTTOM
 10
0.0
 20
0.0
 30
0.0
  9
$PUCSORGLEFT
 10
0.0
 20
0.0
 30
0.0
  9
$PUCSORGRIGHT
 10
0.0
 20
0.0
 30
0.0
  9
$PUCSORGFRONT
 10
0.0
 20
0.0
 30
0.0
  9
$PUCSORGBACK
 10
0.0
 20
0.0
 30
0.0
  9
$USERI1
 70
     0
  9
$USERI2
 70
     0
  9
$USERI3
 70
     0
  9
$USERI4
 70
     0
  9
$USERI5
 70
     0
  9
$USERR1
 40
0.0
  9
$USERR2
 40
0.0
  9
$USERR3
 40
0.0
  9
$USERR4
 40
0.0
  9
$USERR5
 40
0.0
  9
$WORLDVIEW
 70
     1
  9
$SHADEDGE
 70
     3
  9
$SHADEDIF
 70
    70
  9
$TILEMODE
 70
     1
  9
$MAXACTVP
 70
    64
  9
$PINSBASE
 10
0.0
 20
0.0
 30
0.0
  9
$PLIMCHECK
 70
     0
  9
$PEXTMIN
 10
1.0000000000E+20
 20
1.0000000000E+20
 30
1.0000000000E+20
  9
$PEXTMAX
 10
-1.0000000000E+20
 20
-1.0000000000E+20
 30
-1.0000000000E+20
  9
$PLIMMIN
 10
0.0
 20
0.0
  9
$PLIMMAX
 10
420.0
 20
297.0
  9
$UNITMODE
 70
     0
  9
$VISRETAIN
 70
     1
  9
$PLINEGEN
 70
     0
  9
$PSLTSCALE
 70
     1
  9
$TREEDEPTH
 70
  3020
  9
$CMLSTYLE
  2
Standard
  9
$CMLJUST
 70
     0
  9
$CMLSCALE
 40
20.0
  9
$PROXYGRAPHICS
 70
     1
  9
$MEASUREMENT
 70
     1
  9
$CELWEIGHT
370
    -1
  9
$ENDCAPS
280
     0
  9
$JOINSTYLE
280
     0
  9
$LWDISPLAY
290
     1
  9
$INSUNITS
 70
     4
  9
$HYPERLINKBASE
  1

  9
$STYLESHEET
  1

  9
$XEDIT
290
     1
  9
$CEPSNTYPE
380
     0
  9
$PSTYLEMODE
290
     1
  9
$FINGERPRINTGUID
  2
{94DEA3B9-C03F-4E0F-9459-40D53D8DCF49}
  9
$VERSIONGUID
  2
{FAEB1C32-E019-11D5-929B-00C0DF256EC4}
  9
$EXTNAMES
290
     1
  9
$PSVPSCALE
 40
0.0
  9
$OLESTARTUP
290
     0
  0
ENDSEC
  0
SECTION
  2
CLASSES
  0
CLASS
  1
ACDBDICTIONARYWDFLT
  2
AcDbDictionaryWithDefault
  3
ObjectDBX Classes
 90
        0
280
     0
281
     0
  0
CLASS
  1
VISUALSTYLE
  2
AcDbVisualStyle
  3
ObjectDBX Classes
 90
     4095
280
     0
281
     0
  0
CLASS
  1
MATERIAL
  2
AcDbMaterial
  3
ObjectDBX Classes
 90
     1153
280
     0
281
     0
  0
CLASS
  1
SCALE
  2
AcDbScale
  3
ObjectDBX Classes
 90
     1153
280
     0
281
     0
  0
CLASS
  1
TABLESTYLE
  2
AcDbTableStyle
  3
ObjectDBX Classes
 90
     4095
280
     0
281
     0
  0
CLASS
  1
MLEADERSTYLE
  2
AcDbMLeaderStyle
  3
ACDB_MLEADERSTYLE_CLASS
 90
     4095
280
     0
281
     0
  0
CLASS
  1
SUN
  2
AcDbSun
  3
SCENEOE
 90
     1153
280
     0
281
     0
  0
CLASS
  1
ACDBPLACEHOLDER
  2
AcDbPlaceHolder
  3
ObjectDBX Classes
 90
        0
280
     0
281
     0
  0
CLASS
  1
LAYOUT
  2
AcDbLayout
  3
ObjectDBX Classes
 90
        0
280
     0
281
     0
  0
ENDSEC
  0
SECTION
  2
TABLES
  0
TABLE
  2
VPORT
  5
8
330
0
100
AcDbSymbolTable
 70
     1
  0
VPORT
  5
29
330
8
100
AcDbSymbolTableRecord
100
AcDbViewportTableRecord
  2
*Active
 70
     0
 10
0.0
 20
0.0
 11
1.0
 21
1.0
 12
450.0
 22
600.0
 13
0.0
 23
0.0
 14
10.0
 24
10.0
 15
10.0
 25
10.0
 16
0.0
 26
0.0
 36
1.0
 17
0.0
 27
0.0
 37
0.0
 40
1200.0
 41
0.75
 42
50.0
 43
0.0
 44
0.0
 50
0.0
 51
0.0
 71
     0
 72
  2000
 73
     1
 74
     3
 75
     0
 76
     0
 77
     0
 78
     0
281
     0
 65
     1
110
0.0
120
0.0
130
0.0
111
1.0
121
0.0
131
0.0
112
0.0
122
1.0
132
0.0
 79
     0
146
0.0
  0
ENDTAB
  0
TABLE
  2
LTYPE
  5
5
330
0
100
AcDbSymbolTable
 70
     6
  0
LTYPE
  5
14
330
5
100
AcDbSymbolTableRecord
100
AcDbLinetypeTableRecord
  2
ByBlock
 70
     0
  3

 72
    65
 73
     0
 40
0.0
  0
LTYPE
  5
15
330
5
100
AcDbSymbolTableRecord
100
AcDbLinetypeTableRecord
  2
ByLayer
 70
     0
  3

 72
    65
 73
     0
 40
0.0
  0
LTYPE
  5
16
330
5
100
AcDbSymbolTableRecord
100
AcDbLinetypeTableRecord
  2
Continuous
 70
     0
  3
Solid line
 72
    65
 73
     0
 40
0.0
  0
LTYPE
  5
6E
330
5
100
AcDbSymbolTableRecord
100
AcDbLinetypeTableRecord
  2
HIDDEN
 70
     0
  3
Hidden __ __ __ __ __ __ __ __ __ __ __ __ __ __
 72
    65
 73
     2
 40
1.905
 49
1.27
 74
     0
 49
-0.635
 74
     0
  0
LTYPE
  5
6F
330
5
100
AcDbSymbolTableRecord
100
AcDbLinetypeTableRecord
  2
PHANTOM
 70
     0
  3
Phantom ______  __  __  ______  __  __  ______
 72
    65
 73
     6
 40
12.7
 49
6.35
 74
     0
 49
-1.27
 74
     0
 49
1.27
 74
     0
 49
-1.27
 74
     0
 49
1.27
 74
     0
 49
-1.27
 74
     0
  0
LTYPE
  5
70
330
5
100
AcDbSymbolTableRecord
100
AcDbLinetypeTableRecord
  2
CENTER
 70
     0
  3
Center ____ _ ____ _ ____ _ ____ _ ____ _ ____
 72
    65
 73
     4
 40
10.16
 49
6.35
 74
     0
 49
-1.27
 74
     0
 49
1.27
 74
     0
 49
-1.27
 74
     0
  0
LTYPE
  5
71
330
5
100
AcDbSymbolTableRecord
100
AcDbLinetypeTableRecord
  2
CENTERX2
 70
     0
  3
Center (2x) ________  __  ________  __  _____
 72
    65
 73
     4
 40
20.32
 49
12.7
 74
     0
 49
-2.54
 74
     0
 49
2.54
 74
     0
 49
-2.54
 74
     0
  0
LTYPE
  5
72
330
5
100
AcDbSymbolTableRecord
100
AcDbLinetypeTableRecord
  2
DOT2
 70
     0
  3
Dot (.5x) ........................................
 72
    65
 73
     2
 40
0.635
 49
0.0
 74
     0
 49
-0.635
 74
     0
  0
ENDTAB
  0
TABLE
  2
LAYER
  5
2
330
0
100
AcDbSymbolTable
 70
     4
  0
LAYER
  5
10
330
2
100
AcDbSymbolTableRecord
100
AcDbLayerTableRecord
  2
0
 70
     0
 62
     7
  6
Continuous
370
    -3
390
F
  0
LAYER
  5
73
330
2
100
AcDbSymbolTableRecord
100
AcDbLayerTableRecord
  2
FORMAT
 70
     0
 62
     7
  6
Continuous
370
    -3
390
F
  0
LAYER
  5
74
330
2
100
AcDbSymbolTableRecord
100
AcDbLayerTableRecord
  2
SLD-0
 70
     0
 62
     1
  6
Continuous
370
    -3
390
F
  0
LAYER
  5
75
330
2
100
AcDbSymbolTableRecord
100
AcDbLayerTableRecord
  2
WATERMARK
 70
     0
 62
     1
  6
Continuous
370
    -3
390
F
  0
ENDTAB
  0
TABLE
  2
STYLE
  5
3
330
0
100
AcDbSymbolTable
 70
     1
  0
STYLE
  5
11
330
3
100
AcDbSymbolTableRecord
100
AcDbTextStyleTableRecord
  2
Standard
 70
     0
 40
0.0
 41
1.0
 50
0.0
 71
     0
 42
3.5
  3
txt
  4

  0
ENDTAB
  0
TABLE
  2
VIEW
  5
6
330
0
100
AcDbSymbolTable
 70
     0
  0
ENDTAB
  0
TABLE
  2
UCS
  5
7
330
0
100
AcDbSymbolTable
 70
     0
  0
ENDTAB
  0
TABLE
  2
APPID
  5
9
330
0
100
AcDbSymbolTable
 70
     1
  0
APPID
  5
12
330
9
100
AcDbSymbolTableRecord
100
AcDbRegAppTableRecord
  2
ACAD
 70
     0
  0
ENDTAB
  0
TABLE
  2
DIMSTYLE
  5
A
330
0
100
AcDbSymbolTable
 70
     1
100
AcDbDimStyleTable
  0
DIMSTYLE
105
27
330
A
100
AcDbSymbolTableRecord
100
AcDbDimStyleTableRecord
  2
ISO-25
 70
     0
 41
2.5
 42
0.625
 43
3.75
 44
1.25
 73
     0
 74
     0
 77
     1
 78
     8
140
2.5
141
2.5
143
0.0393700787
147
0.625
171
     3
172
     1
178
     0
271
     2
272
     2
274
     3
278
    44
283
     0
284
     8
340
11
  0
ENDTAB
  0
TABLE
  2
BLOCK_RECORD
  5
1
330
0
100
AcDbSymbolTable
 70
     1
  0
BLOCK_RECORD
  5
1F
330
1
100
AcDbSymbolTableRecord
100
AcDbBlockTableRecord
  2
*Model_Space
340
22
  0
BLOCK_RECORD
  5
1B
330
1
100
AcDbSymbolTableRecord
100
AcDbBlockTableRecord
  2
*Paper_Space
340
1E
  0
BLOCK_RECORD
  5
23
330
1
100
AcDbSymbolTableRecord
100
AcDbBlockTableRecord
  2
*Paper_Space0
340
26
  0
ENDTAB
  0
ENDSEC
  0
SECTION
  2
BLOCKS
  0
BLOCK
  5
20
330
1F
100
AcDbEntity
  8
0
100
AcDbBlockBegin
  2
*Model_Space
 70
     0
 10
0.0
 20
0.0
 30
0.0
  3
*Model_Space
  1

  0
ENDBLK
  5
21
330
1F
100
AcDbEntity
  8
0
100
AcDbBlockEnd
  0
BLOCK
  5
1C
330
1B
100
AcDbEntity
 67
     1
  8
0
100
AcDbBlockBegin
  2
*Paper_Space
 70
     0
 10
0.0
 20
0.0
 30
0.0
  3
*Paper_Space
  1

  0
ENDBLK
  5
1D
330
1B
100
AcDbEntity
 67
     1
  8
0
100
AcDbBlockEnd
  0
BLOCK
  5
24
330
23
100
AcDbEntity
  8
0
100
AcDbBlockBegin
  2
*Paper_Space0
 70
     0
 10
0.0
 20
0.0
 30
0.0
  3
*Paper_Space0
  1

  0
ENDBLK
  5
25
330
23
100
AcDbEntity
  8
0
100
AcDbBlockEnd
  0
ENDSEC
  0
SECTION
  2
ENTITIES
  0
LINE
  5
76
330
1F
100
AcDbEntity
  8
0
  6
Continuous
 62
     7
370
    25
100
AcDbLine
 10
315.8588587074
 20
60.1594860338
 30
0.0
 11
315.8588587074
 21
62.6594860338
 31
0.0
  0
LINE
  5
77
330
1F
100
AcDbEntity
  8
0
  6
Continuous
 62
     7
370
    25
100
AcDbLine
 10
258.8588587074
 20
62.6594860338
 30
0.0
 11
258.8588587074
 21
60.1594860338
 31
0.0
  0
LINE
  5
78
330
1F
100
AcDbEntity
  8
0
  6
Continuous
 62
     7
370
    25
100
AcDbLine
 10
315.8588587074
 20
56.1594860338
 30
0.0
 11
315.8588587074
 21
60.1594860338
 31
0.0
  0
LINE
  5
79
330
1F
100
AcDbEntity
  8
0
  6
Continuous
 62
     7
370
    25
100
AcDbLine
 10
258.8588587074
 20
60.1594860338
 30
0.0
 11
258.8588587074
 21
56.1594860338
 31
0.0
  0
ARC
  5
7A
330
1F
100
AcDbEntity
  8
0
  6
Continuous
 62
     7
370
    25
100
AcDbCircle
 10
313.8588587074
 20
56.1594860338
 30
0.0
 40
2.0
100
AcDbArc
 50
270.0
 51
0.0
  0
ARC
  5
7B
330
1F
100
AcDbEntity
  8
0
  6
Continuous
 62
     7
370
    25
100
AcDbCircle
 10
260.8588587074
 20
56.1594860338
 30
0.0
 40
2.0
100
AcDbArc
 50
180.0
 51
270.0
  0
LINE
  5
7C
330
1F
100
AcDbEntity
  8
0
  6
Continuous
 62
     7
370
    25
100
AcDbLine
 10
665.8588587074
 20
58.6594860338
 30
0.0
 11
665.8588587074
 21
62.6594860338
 31
0.0
  0
LINE
  5
7D
330
1F
100
AcDbEntity
  8
0
  6
Continuous
 62
     7
370
    25
100
AcDbLine
 10
608.8588587074
 20
62.6594860338
 30
0.0
 11
608.8588587074
 21
58.6594860338
 31
0.0
  0
ARC
  5
7E
330
1F
100
AcDbEntity
  8
0
  6
Continuous
 62
     7
370
    25
100
AcDbCircle
 10
663.8588587074
 20
58.6594860338
 30
0.0
 40
2.0
100
AcDbArc
 50
270.0
 51
0.0
  0
ARC
  5
7F
330
1F
100
AcDbEntity
  8
0
  6
Continuous
 62
     7
370
    25
100
AcDbCircle
 10
610.8588587074
 20
58.6594860338
 30
0.0
 40
2.0
100
AcDbArc
 50
180.0
 51
270.0
  0
LINE
  5
80
330
1F
100
AcDbEntity
  8
0
  6
Continuous
 62
     7
370
    25
100
AcDbLine
 10
665.6588587074
 20
62.6594860338
 30
0.0
 11
665.6588587074
 21
130.6594860338
 31
0.0
  0
LINE
  5
81
330
1F
100
AcDbEntity
  8
0
  6
Continuous
 62
     7
370
    25
100
AcDbLine
 10
609.0588587074
 20
130.6594860338
 30
0.0
 11
609.0588587074
 21
62.6594860338
 31
0.0
  0
LINE
  5
82
330
1F
100
AcDbEntity
  8
0
  6
Continuous
 62
     7
370
    25
100
AcDbLine
 10
315.6588587074
 20
60.1594860338
 30
0.0
 11
315.6588587074
 21
128.1594860338
 31
0.0
  0
LINE
  5
83
330
1F
100
AcDbEntity
  8
0
  6
Continuous
 62
     7
370
    25
100
AcDbLine
 10
259.0588587074
 20
128.1594860338
 30
0.0
 11
259.0588587074
 21
60.1594860338
 31
0.0
  0
ARC
  5
84
330
1F
100
AcDbEntity
  8
0
  6
Continuous
 62
     7
370
    25
100
AcDbCircle
 10
670.7588587074
 20
223.1594860338
 30
0.0
 40
1.500000000000057
100
AcDbArc
 50
90.0
 51
180.0
  0
LINE
  5
85
330
1F
100
AcDbEntity
  8
0
  6
Continuous
 62
     7
370
    25
100
AcDbLine
 10
669.2588587074
 20
136.6920519795
 30
0.0
 11
669.2588587074
 21
223.1594860338
 31
0.0
  0
LINE
  5
86
330
1F
100
AcDbEntity
  8
0
  6
Continuous
 62
     7
370
    25
100
AcDbLine
 10
605.4588587074
 20
214.6594860338
 30
0.0
 11
605.4588587074
 21
136.6920519795
 31
0.0
  0
ARC
  5
87
330
1F
100
AcDbEntity
  8
0
  6
Continuous
 62
     7
370
    25
100
AcDbCircle
 10
664.5588587074
 20
136.6920519795
 30
0.0
 40
4.699999999999932
100
AcDbArc
 50
350.5402980318
 51
0.0
  0
ARC
  5
88
330
1F
100
AcDbEntity
  8
0
  6
Continuous
 62
     7
370
    25
100
AcDbCircle
 10
610.1588587074
 20
136.6920519795
 30
0.0
 40
4.700000000000117
100
AcDbArc
 50
180.0
 51
189.4597019682
  0
LINE
  5
89
330
1F
100
AcDbEntity
  8
0
  6
Continuous
 62
     7
370
    25
100
AcDbLine
 10
605.5227719344
 20
135.919588755
 30
0.0
 11
606.399208487
 21
130.6594860338
 31
0.0
  0
LINE
  5
8A
330
1F
100
AcDbEntity
  8
0
  6
Continuous
 62
     7
370
    25
100
AcDbLine
 10
668.3185089277
 20
130.6594860338
 30
0.0
 11
669.1949454804
 21
135.919588755
 31
0.0
  0
ARC
  5
8B
330
1F
100
AcDbEntity
  8
0
  6
Continuous
 62
     7
370
    25
100
AcDbCircle
 10
253.9588587074
 20
220.6594860338
 30
0.0
 40
1.5
100
AcDbArc
 50
0.0
 51
90.0
  0
ARC
  5
8C
330
1F
100
AcDbEntity
  8
0
  6
Continuous
 62
     7
370
    25
100
AcDbCircle
 10
314.5588587074
 20
134.1920519795
 30
0.0
 40
4.700000000000006
100
AcDbArc
 50
350.5402980318
 51
0.0
  0
ARC
  5
8D
330
1F
100
AcDbEntity
  8
0
  6
Continuous
 62
     7
370
    25
100
AcDbCircle
 10
260.1588587074
 20
134.1920519795
 30
0.0
 40
4.69999999999996
100
AcDbArc
 50
180.0
 51
189.4597019682
  0
LINE
  5
8E
330
1F
100
AcDbEntity
  8
0
  6
Continuous
 62
     7
370
    25
100
AcDbLine
 10
319.2588587074
 20
134.1920519795
 30
0.0
 11
319.2588587074
 21
214.6594860338
 31
0.0
  0
LINE
  5
8F
330
1F
100
AcDbEntity
  8
0
  6
Continuous
 62
     7
370
    25
100
AcDbLine
 10
255.4588587074
 20
220.6594860338
 30
0.0
 11
255.4588587074
 21
134.1920519795
 31
0.0
  0
LINE
  5
90
330
1F
100
AcDbEntity
  8
0
  6
Continuous
 62
     7
370
    25
100
AcDbLine
 10
255.5227719344
 20
133.419588755
 30
0.0
 11
256.399208487
 21
128.1594860338
 31
0.0
  0
LINE
  5
91
330
1F
100
AcDbEntity
  8
0
  6
Continuous
 62
     7
370
    25
100
AcDbLine
 10
318.3185089277
 20
128.1594860338
 30
0.0
 11
319.1949454804
 21
133.419588755
 31
0.0
  0
ARC
  5
92
330
1F
100
AcDbEntity
  8
0
  6
Continuous
 62
     7
370
    25
100
AcDbCircle
 10
445.3588587074
 20
963.3594860338
 30
0.0
 40
2.0
100
AcDbArc
 50
180.0
 51
270.0
  0
ARC
  5
93
330
1F
100
AcDbEntity
  8
0
  6
Continuous
 62
     7
370
    25
100
AcDbCircle
 10
479.3588587074
 20
963.3594860338
 30
0.0
 40
2.0
100
AcDbArc
 50
270.0
 51
0.0
  0
ARC
  5
94
330
1F
100
AcDbEntity
  8
0
  6
Continuous
 62
     7
370
    25
100
AcDbCircle
 10
479.3588587074
 20
964.2832913531
 30
0.0
 40
2.0
100
AcDbArc
 50
0.0
 51
57.5027570594
  0
ARC
  5
95
330
1F
100
AcDbEntity
  8
0
  6
Continuous
 62
     7
370
    25
100
AcDbCircle
 10
445.3588587074
 20
964.2832913531
 30
0.0
 40
2.0
100
AcDbArc
 50
122.4972429406
 51
180.0
  0
LINE
  5
96
330
1F
100
AcDbEntity
  8
0
  6
Continuous
 62
     7
370
    25
100
AcDbLine
 10
443.3588587074
 20
964.2832913531
 30
0.0
 11
443.3588587074
 21
963.3594860338
 31
0.0
  0
LINE
  5
97
330
1F
100
AcDbEntity
  8
0
  6
Continuous
 62
     7
370
    25
100
AcDbLine
 10
481.3588587074
 20
963.3594860338
 30
0.0
 11
481.3588587074
 21
964.2832913531
 31
0.0
  0
ARC
  5
98
330
1F
100
AcDbEntity
  8
0
  6
Continuous
 62
     7
370
    25
100
AcDbCircle
 10
461.8806335579
 20
936.8450598851
 30
0.0
 40
34.53221327345199
100
AcDbArc
 50
57.5027570594
 51
89.2065044192
  0
ARC
  5
99
330
1F
100
AcDbEntity
  8
0
  6
Continuous
 62
     7
370
    25
100
AcDbCircle
 10
462.8370838568
 20
936.8450598851
 30
0.0
 40
34.53221327345199
100
AcDbArc
 50
90.7934955808
 51
122.4972429406
  0
ARC
  5
9A
330
1F
100
AcDbEntity
  8
0
  6
Continuous
 62
     7
370
    25
100
AcDbCircle
 10
447.4867196824
 20
959.3594860338
 30
0.0
 40
2.0
100
AcDbArc
 50
42.8789036033
 51
90.0
  0
ARC
  5
9B
330
1F
100
AcDbEntity
  8
0
  6
Continuous
 62
     7
370
    25
100
AcDbCircle
 10
477.2309977323
 20
959.3594860338
 30
0.0
 40
2.0
100
AcDbArc
 50
90.0
 51
137.1210963967
  0
LINE
  5
9C
330
1F
100
AcDbEntity
  8
0
  6
Continuous
 62
     7
370
    25
100
AcDbLine
 10
448.9523066657
 20
960.7203882325
 30
0.0
 11
454.3244456906
 21
954.9350077441
 31
0.0
  0
LINE
  5
9D
330
1F
100
AcDbEntity
  8
0
  6
Continuous
 62
     7
370
    25
100
AcDbLine
 10
470.3932717241
 20
954.9350077441
 30
0.0
 11
475.765410749
 21
960.7203882325
 31
0.0
  0
ARC
  5
9E
330
1F
100
AcDbEntity
  8
0
  6
Continuous
 62
     7
370
    25
100
AcDbCircle
 10
452.8588587074
 20
953.5741055454
 30
0.0
 40
2.0
100
AcDbArc
 50
0.0
 51
42.8789036033
  0
ARC
  5
9F
330
1F
100
AcDbEntity
  8
0
  6
Continuous
 62
     7
370
    25
100
AcDbCircle
 10
471.8588587074
 20
953.5741055454
 30
0.0
 40
2.0
100
AcDbArc
 50
137.1210963967
 51
180.0
  0
LINE
  5
A0
330
1F
100
AcDbEntity
  8
0
  6
Continuous
 62
     7
370
    25
100
AcDbLine
 10
454.8588587074
 20
953.5741055454
 30
0.0
 11
454.8588587074
 21
946.3594860338
 31
0.0
  0
LINE
  5
A1
330
1F
100
AcDbEntity
  8
0
  6
Continuous
 62
     7
370
    25
100
AcDbLine
 10
469.8588587074
 20
946.3594860338
 30
0.0
 11
469.8588587074
 21
953.5741055454
 31
0.0
  0
SPLINE
  5
A2
330
1F
100
AcDbEntity
  8
0
  6
Continuous
 62
     7
370
    25
100
AcDbSpline
210
0.0
220
0.0
230
1.0
 70
     8
 71
     3
 72
    40
 73
    36
 74
     0
 42
0.000000001
 43
0.00000001
 40
0.0
 40
0.0
 40
0.0
 40
0.0
 40
0.0178203308133717
 40
0.0471253763484774
 40
0.0755677245937978
 40
0.10356762182502
 40
0.1316541640454689
 40
0.1604973552464248
 40
0.1905207182365511
 40
0.2217475607940719
 40
0.25381999222695
 40
0.2862560418732771
 40
0.3186612969744428
 40
0.3509130560299675
 40
0.3830001133961808
 40
0.4149478714496377
 40
0.4467919775223054
 40
0.4785687598999068
 40
0.5103128487788289
 40
0.5420575556983953
 40
0.5738271445887767
 40
0.6056542934568647
 40
0.6375764262492651
 40
0.6696349811237043
 40
0.7018749098293988
 40
0.7343392495399397
 40
0.7670508286398363
 40
0.7999647233277196
 40
0.8327623637355986
 40
0.8648773507716108
 40
0.8925070131454732
 40
0.9219735197876792
 40
0.9503962351457936
 40
0.9783946283088311
 40
1.0
 40
1.0
 40
1.0
 40
1.0
 10
585.4858539819322
 20
1050.995158184151
 30
0.0
 10
585.6167435386582
 20
1051.301324657762
 30
0.0
 10
585.9628773835007
 20
1052.11097350465
 30
0.0
 10
586.259574857399
 20
1053.483368218149
 30
0.0
 10
586.281732737819
 20
1055.068374068725
 30
0.0
 10
585.9800344171575
 20
1056.606506912158
 30
0.0
 10
585.3823290125752
 20
1058.078414898565
 30
0.0
 10
584.4979962983274
 20
1059.483102522052
 30
0.0
 10
583.3247059541015
 20
1060.821257912402
 30
0.0
 10
581.8597320720692
 20
1062.083884462239
 30
0.0
 10
580.1135915993572
 20
1063.252633041942
 30
0.0
 10
578.1142443629259
 20
1064.306414641469
 30
0.0
 10
575.898650423469
 20
1065.229231410521
 30
0.0
 10
573.5036395350593
 20
1066.011592916016
 30
0.0
 10
570.9614487977694
 20
1066.648439847503
 30
0.0
 10
568.3029221772018
 20
1067.136228744977
 30
0.0
 10
565.5591342991636
 20
1067.472182506134
 30
0.0
 10
562.7618463699515
 20
1067.654293359916
 30
0.0
 10
559.9434332285618
 20
1067.681477881402
 30
0.0
 10
557.1368033213727
 20
1067.553710140205
 30
0.0
 10
554.3747141759567
 20
1067.272104546659
 30
0.0
 10
551.6891733449643
 20
1066.838823176513
 30
0.0
 10
549.1107065857732
 20
1066.256755419508
 30
0.0
 10
546.6682039160606
 20
1065.529103464493
 30
0.0
 10
544.3888527902066
 20
1064.658810118626
 30
0.0
 10
542.2985423581013
 20
1063.647892897175
 30
0.0
 10
540.4232802316596
 20
1062.497105025475
 30
0.0
 10
538.7938523641795
 20
1061.208428117572
 30
0.0
 10
537.4473257558352
 20
1059.790332961271
 30
0.0
 10
536.4569151415188
 20
1058.315665652379
 30
0.0
 10
535.790934535881
 20
1056.782444395958
 30
0.0
 10
535.449755356454
 20
1055.231805603825
 30
0.0
 10
535.4436187214498
 20
1053.644262014782
 30
0.0
 10
535.7170444501155
 20
1052.221741072922
 30
0.0
 10
536.0756635964646
 20
1051.367312383843
 30
0.0
 10
536.2318634328119
 20
1050.995158184148
 30
0.0
  0
SPLINE
  5
A3
330
1F
100
AcDbEntity
  8
0
  6
Continuous
 62
     7
370
    25
100
AcDbSpline
210
0.0
220
0.0
230
1.0
 70
     8
 71
     3
 72
    38
 73
    34
 74
     0
 42
0.000000001
 43
0.00000001
 40
0.0
 40
0.0
 40
0.0
 40
0.0
 40
0.0169629990783887
 40
0.0532052788226795
 40
0.0936034551887818
 40
0.1270646584146246
 40
0.1584266075690061
 40
0.1918074515521135
 40
0.22429283321456
 40
0.2566523154377024
 40
0.2891372102780497
 40
0.3218760994789795
 40
0.3548783716880623
 40
0.3881089884158893
 40
0.4215196098941131
 40
0.455060976542053
 40
0.4886869068371951
 40
0.5223546057088068
 40
0.556021272501138
 40
0.5896354195876887
 40
0.6231544705145335
 40
0.6565321091779981
 40
0.6897176922264273
 40
0.7226582724339723
 40
0.7553066944579206
 40
0.7876429773046042
 40
0.8197231502040538
 40
0.851753621537486
 40
0.8841301828607776
 40
0.9179563456633139
 40
0.9556341267789428
 40
0.9913785215894735
 40
1.0
 40
1.0
 40
1.0
 40
1.0
 10
540.760222326509
 20
1053.115055759475
 30
0.0
 10
540.7053191645368
 20
1053.244158900358
 30
0.0
 10
540.5331127034341
 20
1053.649097235602
 30
0.0
 10
540.4271294395547
 20
1054.280129177168
 30
0.0
 10
540.4965736762313
 20
1055.004309048205
 30
0.0
 10
540.8011066671074
 20
1055.792572636184
 30
0.0
 10
541.3415322163527
 20
1056.619215677615
 30
0.0
 10
542.1640290367272
 20
1057.493956999719
 30
0.0
 10
543.2931907456301
 20
1058.387734555851
 30
0.0
 10
544.6860086129409
 20
1059.244191991812
 30
0.0
 10
546.3312495185872
 20
1060.04385605466
 30
0.0
 10
548.2089309664948
 20
1060.766470125082
 30
0.0
 10
550.2929997124986
 20
1061.393723285153
 30
0.0
 10
552.5513080138778
 20
1061.909744344951
 30
0.0
 10
554.9475388598792
 20
1062.301802495883
 30
0.0
 10
557.4426121142379
 20
1062.560465305174
 30
0.0
 10
559.9957210323746
 20
1062.679563079668
 30
0.0
 10
562.5650706235709
 20
1062.65611243365
 30
0.0
 10
565.1083014073117
 20
1062.490295399534
 30
0.0
 10
567.5833678723552
 20
1062.185514875203
 30
0.0
 10
569.9491969860144
 20
1061.748454356289
 30
0.0
 10
572.1664803396378
 20
1061.189159884408
 30
0.0
 10
574.198107303054
 20
1060.521335265207
 30
0.0
 10
576.0101118185815
 20
1059.762727587156
 30
0.0
 10
577.5730448584915
 20
1058.935561565798
 30
0.0
 10
578.8640448364491
 20
1058.066809958646
 30
0.0
 10
579.8695682307631
 20
1057.187938116916
 30
0.0
 10
580.5884683352127
 20
1056.333916168049
 30
0.0
 10
581.0388333164459
 20
1055.534314865955
 30
0.0
 10
581.2591986992363
 20
1054.791107797569
 30
0.0
 10
581.2756680370978
 20
1054.093082624939
 30
0.0
 10
581.1388805963219
 20
1053.5219629132
 30
0.0
 10
580.9870080039359
 20
1053.181262903877
 30
0.0
 10
580.9574950882342
 20
1053.115055759475
 30
0.0
  0
LINE
  5
A4
330
1F
100
AcDbEntity
  8
0
  6
Continuous
 62
     7
370
    25
100
AcDbLine
 10
580.9501900716
 20
1053.0993092186
 30
0.0
 11
570.2685588881
 21
1029.8632365585
 31
0.0
  0
LINE
  5
A5
330
1F
100
AcDbEntity
  8
0
  6
Continuous
 62
     7
370
    25
100
AcDbLine
 10
574.8115278151
 20
1027.774832065
 30
0.0
 11
585.4931589986
 21
1051.010904725
 31
0.0
  0
LINE
  5
A6
330
1F
100
AcDbEntity
  8
0
  6
Continuous
 62
     7
370
    25
100
AcDbLine
 10
551.4491585266
 20
1029.8632365585
 30
0.0
 11
540.7656743836
 21
1053.103340017
 31
0.0
  0
LINE
  5
A7
330
1F
100
AcDbEntity
  8
0
  6
Continuous
 62
     7
370
    25
100
AcDbLine
 10
536.2264113757
 20
1051.0068739266
 30
0.0
 11
546.9061895997
 21
1027.774832065
 31
0.0
  0
SPLINE
  5
A8
330
1F
100
AcDbEntity
  8
0
  6
Continuous
 62
     7
370
    25
100
AcDbSpline
210
0.0
220
0.0
230
1.0
 70
     8
 71
     3
 72
     9
 73
     5
 74
     0
 42
0.000000001
 43
0.00000001
 40
0.0
 40
0.0
 40
0.0
 40
0.0
 40
0.4827447561666312
 40
1.0
 40
1.0
 40
1.0
 40
1.0
 10
570.2685588881259
 20
1029.863236558514
 30
0.0
 10
570.1541702748174
 20
1029.579140861579
 30
0.0
 10
569.9172156277762
 20
1028.990640016555
 30
0.0
 10
569.8787534635212
 20
1028.35197900442
 30
0.0
 10
569.858858707371
 20
1028.021628246861
 30
0.0
  0
SPLINE
  5
A9
330
1F
100
AcDbEntity
  8
0
  6
Continuous
 62
     7
370
    25
100
AcDbSpline
210
0.0
220
0.0
230
1.0
 70
     8
 71
     3
 72
     9
 73
     5
 74
     0
 42
0.000000001
 43
0.00000001
 40
0.0
 40
0.0
 40
0.0
 40
0.0
 40
0.492790527186171
 40
1.0
 40
1.0
 40
1.0
 40
1.0
 10
551.8588587073741
 20
1028.021628246863
 30
0.0
 10
551.8408099459859
 20
1028.33632463367
 30
0.0
 10
551.8041843203046
 20
1028.974925356383
 30
0.0
 10
551.5686325936938
 20
1029.564300103659
 30
0.0
 10
551.4491585266193
 20
1029.863236558515
 30
0.0
  0
LINE
  5
AA
330
1F
100
AcDbEntity
  8
0
  6
Continuous
 62
     7
370
    25
100
AcDbLine
 10
569.8588587074
 20
1028.0216282469
 30
0.0
 11
569.8588587074
 21
946.3594860338
 31
0.0
  0
LINE
  5
AB
330
1F
100
AcDbEntity
  8
0
  6
Continuous
 62
     7
370
    25
100
AcDbLine
 10
574.8588587074
 20
946.3594860338
 30
0.0
 11
574.8588587074
 21
1027.8777923744
 31
0.0
  0
LINE
  5
AC
330
1F
100
AcDbEntity
  8
0
  6
Continuous
 62
     7
370
    25
100
AcDbLine
 10
551.8588587074
 20
946.3594860338
 30
0.0
 11
551.8588587074
 21
1028.0216282469
 31
0.0
  0
LINE
  5
AD
330
1F
100
AcDbEntity
  8
0
  6
Continuous
 62
     7
370
    25
100
AcDbLine
 10
546.8588587074
 20
1027.8777923744
 30
0.0
 11
546.8588587074
 21
946.3594860338
 31
0.0
  0
LINE
  5
AE
330
1F
100
AcDbEntity
  8
0
  6
Continuous
 62
     7
370
    25
100
AcDbLine
 10
566.9588587074
 20
946.3594860338
 30
0.0
 11
566.9588587074
 21
1027.1118622777
 31
0.0
  0
LINE
  5
AF
330
1F
100
AcDbEntity
  8
0
  6
Continuous
 62
     7
370
    25
100
AcDbLine
 10
561.9588587074
 20
1027.1118622777
 30
0.0
 11
561.9588587074
 21
946.3594860338
 31
0.0
  0
LINE
  5
B0
330
1F
100
AcDbEntity
  8
0
  6
Continuous
 62
     7
370
    25
100
AcDbLine
 10
554.7588587074
 20
1027.1118622777
 30
0.0
 11
554.7588587074
 21
946.3594860338
 31
0.0
  0
LINE
  5
B1
330
1F
100
AcDbEntity
  8
0
  6
Continuous
 62
     7
370
    25
100
AcDbLine
 10
559.7588587074
 20
946.3594860338
 30
0.0
 11
559.7588587074
 21
1027.1118622777
 31
0.0
  0
SPLINE
  5
B2
330
1F
100
AcDbEntity
  8
0
  6
Continuous
 62
     7
370
    25
100
AcDbSpline
210
0.0
220
0.0
230
1.0
 70
     8
 71
     3
 72
    40
 73
    36
 74
     0
 42
0.000000001
 43
0.00000001
 40
0.0
 40
0.0
 40
0.0
 40
0.0
 40
0.0178203308133717
 40
0.0471253763484782
 40
0.0755677245937978
 40
0.10356762182502
 40
0.1316541640454688
 40
0.1604973552464254
 40
0.1905207182365521
 40
0.2217475607940744
 40
0.2538199922269527
 40
0.2862560418732765
 40
0.3186612969744396
 40
0.3509130560299614
 40
0.383000113396178
 40
0.4149478714496326
 40
0.4467919775222987
 40
0.4785687598998917
 40
0.5103128487788229
 40
0.5420575556983824
 40
0.5738271445887642
 40
0.6056542934568532
 40
0.6375764262492482
 40
0.6696349811236851
 40
0.701874909829377
 40
0.7343392495399137
 40
0.7670508286398131
 40
0.7999647233276914
 40
0.8327623637355682
 40
0.8648773507715842
 40
0.8925070131454466
 40
0.9219735197876546
 40
0.9503962351457688
 40
0.9783946283088057
 40
1.0
 40
1.0
 40
1.0
 40
1.0
 10
388.4858539819065
 20
1051.391774248907
 30
0.0
 10
388.6167435386325
 20
1051.697940722518
 30
0.0
 10
388.962877383475
 20
1052.507589569406
 30
0.0
 10
389.2595748573733
 20
1053.879984282905
 30
0.0
 10
389.2817327377932
 20
1055.464990133482
 30
0.0
 10
388.9800344171318
 20
1057.003122976913
 30
0.0
 10
388.3823290125495
 20
1058.475030963322
 30
0.0
 10
387.4979962983018
 20
1059.879718586809
 30
0.0
 10
386.324705954076
 20
1061.217873977157
 30
0.0
 10
384.8597320720435
 20
1062.480500526996
 30
0.0
 10
383.1135915993314
 20
1063.649249106698
 30
0.0
 10
381.1142443629004
 20
1064.703030706224
 30
0.0
 10
378.8986504234437
 20
1065.625847475277
 30
0.0
 10
376.503639535034
 20
1066.408208980773
 30
0.0
 10
373.9614487977442
 20
1067.045055912259
 30
0.0
 10
371.3029221771767
 20
1067.532844809733
 30
0.0
 10
368.5591342991389
 20
1067.86879857089
 30
0.0
 10
365.7618463699267
 20
1068.050909424672
 30
0.0
 10
362.9434332285373
 20
1068.078093946158
 30
0.0
 10
360.136803321348
 20
1067.950326204961
 30
0.0
 10
357.3747141759321
 20
1067.668720611415
 30
0.0
 10
354.6891733449398
 20
1067.235439241269
 30
0.0
 10
352.1107065857489
 20
1066.653371484264
 30
0.0
 10
349.6682039160365
 20
1065.92571952925
 30
0.0
 10
347.3888527901825
 20
1065.055426183382
 30
0.0
 10
345.298542358077
 20
1064.044508961932
 30
0.0
 10
343.4232802316355
 20
1062.893721090231
 30
0.0
 10
341.7938523641551
 20
1061.605044182329
 30
0.0
 10
340.4473257558107
 20
1060.186949026029
 30
0.0
 10
339.4569151414938
 20
1058.712281717137
 30
0.0
 10
338.7909345358559
 20
1057.179060460716
 30
0.0
 10
338.4497553564284
 20
1055.628421668582
 30
0.0
 10
338.4436187214239
 20
1054.040878079539
 30
0.0
 10
338.7170444500894
 20
1052.61835713768
 30
0.0
 10
339.0756635964386
 20
1051.763928448599
 30
0.0
 10
339.2318634327862
 20
1051.391774248905
 30
0.0
  0
SPLINE
  5
B3
330
1F
100
AcDbEntity
  8
0
  6
Continuous
 62
     7
370
    25
100
AcDbSpline
210
0.0
220
0.0
230
1.0
 70
     8
 71
     3
 72
    38
 73
    34
 74
     0
 42
0.000000001
 43
0.00000001
 40
0.0
 40
0.0
 40
0.0
 40
0.0
 40
0.0169629990783887
 40
0.0532052788226812
 40
0.0936034551887849
 40
0.1270646584146295
 40
0.1584266075690099
 40
0.1918074515521138
 40
0.2242928332145604
 40
0.2566523154377029
 40
0.2891372102780507
 40
0.3218760994789805
 40
0.354878371688064
 40
0.3881089884158908
 40
0.4215196098941153
 40
0.4550609765420541
 40
0.4886869068371961
 40
0.5223546057088081
 40
0.5560212725011396
 40
0.5896354195876848
 40
0.6231544705145268
 40
0.6565321091779949
 40
0.6897176922264275
 40
0.7226582724339693
 40
0.755306694457916
 40
0.7876429773046033
 40
0.8197231502040531
 40
0.8517536215374887
 40
0.8841301828607775
 40
0.9179563456633177
 40
0.9556341267789448
 40
0.9913785215894751
 40
1.0
 40
1.0
 40
1.0
 40
1.0
 10
343.7602223264833
 20
1053.511671824231
 30
0.0
 10
343.7053191645111
 20
1053.640774965113
 30
0.0
 10
343.5331127034084
 20
1054.045713300359
 30
0.0
 10
343.4271294395291
 20
1054.676745241923
 30
0.0
 10
343.4965736762055
 20
1055.400925112961
 30
0.0
 10
343.8011066670819
 20
1056.189188700941
 30
0.0
 10
344.3415322163271
 20
1057.015831742371
 30
0.0
 10
345.1640290367015
 20
1057.890573064475
 30
0.0
 10
346.2931907456044
 20
1058.784350620607
 30
0.0
 10
347.6860086129153
 20
1059.640808056568
 30
0.0
 10
349.3312495185617
 20
1060.440472119416
 30
0.0
 10
351.2089309664693
 20
1061.163086189837
 30
0.0
 10
353.2929997124731
 20
1061.790339349909
 30
0.0
 10
355.5513080138523
 20
1062.306360409707
 30
0.0
 10
357.9475388598536
 20
1062.698418560639
 30
0.0
 10
360.4426121142125
 20
1062.95708136993
 30
0.0
 10
362.9957210323491
 20
1063.076179144424
 30
0.0
 10
365.5650706235455
 20
1063.052728498406
 30
0.0
 10
368.108301407286
 20
1062.886911464291
 30
0.0
 10
370.5833678723293
 20
1062.582130939959
 30
0.0
 10
372.9491969859885
 20
1062.145070421046
 30
0.0
 10
375.1664803396119
 20
1061.585775949165
 30
0.0
 10
377.1981073030283
 20
1060.917951329963
 30
0.0
 10
379.0101118185558
 20
1060.159343651912
 30
0.0
 10
380.5730448584657
 20
1059.332177630554
 30
0.0
 10
381.8640448364234
 20
1058.463426023402
 30
0.0
 10
382.8695682307375
 20
1057.584554181673
 30
0.0
 10
383.5884683351871
 20
1056.730532232805
 30
0.0
 10
384.0388333164202
 20
1055.930930930711
 30
0.0
 10
384.2591986992107
 20
1055.187723862326
 30
0.0
 10
384.2756680370721
 20
1054.489698689694
 30
0.0
 10
384.1388805962961
 20
1053.918578977957
 30
0.0
 10
383.9870080039101
 20
1053.577878968633
 30
0.0
 10
383.9574950882085
 20
1053.511671824231
 30
0.0
  0
LINE
  5
B4
330
1F
100
AcDbEntity
  8
0
  6
Continuous
 62
     7
370
    25
100
AcDbLine
 10
383.9501900716
 20
1053.4959252833
 30
0.0
 11
373.2685588881
 21
1030.2598526233
 31
0.0
  0
LINE
  5
B5
330
1F
100
AcDbEntity
  8
0
  6
Continuous
 62
     7
370
    25
100
AcDbLine
 10
377.8115278151
 20
1028.1714481297
 30
0.0
 11
388.4931589985
 21
1051.4075207898
 31
0.0
  0
LINE
  5
B6
330
1F
100
AcDbEntity
  8
0
  6
Continuous
 62
     7
370
    25
100
AcDbLine
 10
354.4491585266
 20
1030.2598526233
 30
0.0
 11
343.7656743836
 21
1053.4999560818
 31
0.0
  0
LINE
  5
B7
330
1F
100
AcDbEntity
  8
0
  6
Continuous
 62
     7
370
    25
100
AcDbLine
 10
339.2264113757
 20
1051.4034899914
 30
0.0
 11
349.9061895996
 21
1028.1714481297
 31
0.0
  0
SPLINE
  5
B8
330
1F
100
AcDbEntity
  8
0
  6
Continuous
 62
     7
370
    25
100
AcDbSpline
210
0.0
220
0.0
230
1.0
 70
     8
 71
     3
 72
     9
 73
     5
 74
     0
 42
0.000000001
 43
0.00000001
 40
0.0
 40
0.0
 40
0.0
 40
0.0
 40
0.4827447561666136
 40
1.0
 40
1.0
 40
1.0
 40
1.0
 10
373.2685588881
 20
1030.259852623271
 30
0.0
 10
373.1541702747915
 20
1029.975756926335
 30
0.0
 10
372.9172156277502
 20
1029.387256081311
 30
0.0
 10
372.8787534634953
 20
1028.748595069176
 30
0.0
 10
372.8588587073452
 20
1028.418244311618
 30
0.0
  0
SPLINE
  5
B9
330
1F
100
AcDbEntity
  8
0
  6
Continuous
 62
     7
370
    25
100
AcDbSpline
210
0.0
220
0.0
230
1.0
 70
     8
 71
     3
 72
     9
 73
     5
 74
     0
 42
0.000000001
 43
0.00000001
 40
0.0
 40
0.0
 40
0.0
 40
0.0
 40
0.4927905271861704
 40
1.0
 40
1.0
 40
1.0
 40
1.0
 10
354.8588587073481
 20
1028.418244311619
 30
0.0
 10
354.8408099459601
 20
1028.732940698426
 30
0.0
 10
354.8041843202787
 20
1029.371541421139
 30
0.0
 10
354.5686325936679
 20
1029.960916168415
 30
0.0
 10
354.4491585265933
 20
1030.259852623272
 30
0.0
  0
LINE
  5
BA
330
1F
100
AcDbEntity
  8
0
  6
Continuous
 62
     7
370
    25
100
AcDbLine
 10
372.8588587073
 20
1028.4182443116
 30
0.0
 11
372.8588587074
 21
946.3594860338
 31
0.0
  0
LINE
  5
BB
330
1F
100
AcDbEntity
  8
0
  6
Continuous
 62
     7
370
    25
100
AcDbLine
 10
377.8588587074
 20
946.3594860338
 30
0.0
 11
377.8588587073
 21
1028.2744084392
 31
0.0
  0
LINE
  5
BC
330
1F
100
AcDbEntity
  8
0
  6
Continuous
 62
     7
370
    25
100
AcDbLine
 10
354.8588587074
 20
946.3594860338
 30
0.0
 11
354.8588587073
 21
1028.4182443116
 31
0.0
  0
LINE
  5
BD
330
1F
100
AcDbEntity
  8
0
  6
Continuous
 62
     7
370
    25
100
AcDbLine
 10
349.8588587073
 20
1028.2744084392
 30
0.0
 11
349.8588587074
 21
946.3594860338
 31
0.0
  0
LINE
  5
BE
330
1F
100
AcDbEntity
  8
0
  6
Continuous
 62
     7
370
    25
100
AcDbLine
 10
369.9588587074
 20
946.3594860338
 30
0.0
 11
369.9588587074
 21
1027.5084783424
 31
0.0
  0
LINE
  5
BF
330
1F
100
AcDbEntity
  8
0
  6
Continuous
 62
     7
370
    25
100
AcDbLine
 10
364.9588587074
 20
1027.5084783424
 30
0.0
 11
364.9588587074
 21
946.3594860338
 31
0.0
  0
LINE
  5
C0
330
1F
100
AcDbEntity
  8
0
  6
Continuous
 62
     7
370
    25
100
AcDbLine
 10
357.7588587074
 20
1027.5084783424
 30
0.0
 11
357.7588587074
 21
946.3594860338
 31
0.0
  0
LINE
  5
C1
330
1F
100
AcDbEntity
  8
0
  6
Continuous
 62
     7
370
    25
100
AcDbLine
 10
362.7588587074
 20
946.3594860338
 30
0.0
 11
362.7588587074
 21
1027.5084783424
 31
0.0
  0
LINE
  5
C2
330
1F
100
AcDbEntity
  8
0
  6
Continuous
 62
     7
370
    25
100
AcDbLine
 10
687.3588587074
 20
1146.3889411936
 30
0.0
 11
237.3588587074
 21
1146.3889411936
 31
0.0
  0
LINE
  5
C3
330
1F
100
AcDbEntity
  8
0
  6
Continuous
 62
     7
370
    25
100
AcDbLine
 10
659.7173087074
 20
758.1094860338
 30
0.0
 11
659.7173087074
 21
767.8672075041
 31
0.0
  0
LINE
  5
C4
330
1F
100
AcDbEntity
  8
0
  6
Continuous
 62
     7
370
    25
100
AcDbLine
 10
542.7262587074
 20
767.9594128723
 30
0.0
 11
542.7262587074
 21
767.0594860319
 31
0.0
  0
LINE
  5
C5
330
1F
100
AcDbEntity
  8
0
  6
Continuous
 62
     7
370
    25
100
AcDbLine
 10
544.4414587074
 20
767.0594860319
 30
0.0
 11
544.4414587074
 21
767.9594128723
 31
0.0
  0
LINE
  5
C6
330
1F
100
AcDbEntity
  8
0
  6
Continuous
 62
     7
370
    25
100
AcDbLine
 10
659.7173087074
 20
767.8672075041
 30
0.0
 11
659.7173087074
 21
769.0718115067
 31
0.0
  0
LINE
  5
C7
330
1F
100
AcDbEntity
  8
0
  6
Continuous
 62
     7
370
    25
100
AcDbLine
 10
380.3262587074
 20
767.9594128775
 30
0.0
 11
380.3262587074
 21
767.0594860319
 31
0.0
  0
LINE
  5
C8
330
1F
100
AcDbEntity
  8
0
  6
Continuous
 62
     7
370
    25
100
AcDbLine
 10
382.0414587074
 20
767.0594860319
 30
0.0
 11
382.0414587074
 21
767.9594128775
 31
0.0
  0
ARC
  5
C9
330
1F
100
AcDbEntity
  8
0
  6
Continuous
 62
     7
370
    25
100
AcDbCircle
 10
596.2233108543
 20
762.4594128723
 30
0.0
 40
5.500000000000114
100
AcDbArc
 50
56.7594878019
 51
90.0
  0
LWPOLYLINE
  5
CA
330
1F
100
AcDbEntity
  8
0
  6
Continuous
 62
     7
370
    25
100
AcDbPolyline
 90
        3
 70
   128
 43
0.0
 10
609.9742863443
 20
767.0594860319
 10
609.142905455
 20
769.0422751185
 10
609.127813336
 20
769.0718115067
  0
LINE
  5
CB
330
1F
100
AcDbEntity
  8
0
  6
Continuous
 62
     7
370
    25
100
AcDbLine
 10
498.6588588543
 20
767.9594128723
 30
0.0
 11
596.2233108543
 21
767.9594128723
 31
0.0
  0
LINE
  5
CC
330
1F
100
AcDbEntity
  8
0
  6
Continuous
 62
     7
370
    25
100
AcDbLine
 10
488.6588588543
 20
767.9594128723
 30
0.0
 11
498.6588588543
 21
767.9594128723
 31
0.0
  0
ARC
  5
CD
330
1F
100
AcDbEntity
  8
0
  6
Continuous
 62
     7
370
    25
100
AcDbCircle
 10
339.4233108543
 20
762.4594128775
 30
0.0
 40
5.5
100
AcDbArc
 50
90.0
 51
123.2405122969
  0
LWPOLYLINE
  5
CE
330
1F
100
AcDbEntity
  8
0
  6
Continuous
 62
     7
370
    25
100
AcDbPolyline
 90
        3
 70
   128
 43
0.0
 10
326.5188083699
 20
769.0718115067
 10
326.5037162535
 20
769.0422751237
 10
325.6723353625
 20
767.0594860319
  0
LINE
  5
CF
330
1F
100
AcDbEntity
  8
0
  6
Continuous
 62
     7
370
    25
100
AcDbLine
 10
339.4233108543
 20
767.9594128775
 30
0.0
 11
425.7793108543
 21
767.9594128775
 31
0.0
  0
LINE
  5
D0
330
1F
100
AcDbEntity
  8
0
  6
Continuous
 62
     7
370
    25
100
AcDbLine
 10
425.7793108543
 20
767.9594128775
 30
0.0
 11
435.7793108543
 21
767.9594128775
 31
0.0
  0
LINE
  5
D1
330
1F
100
AcDbEntity
  8
0
  6
Continuous
 62
     7
370
    25
100
AcDbLine
 10
241.6588587074
 20
228.6594860338
 30
0.0
 11
241.6588587074
 21
227.1594860338
 31
0.0
  0
LINE
  5
D2
330
1F
100
AcDbEntity
  8
0
  6
Continuous
 62
     7
370
    25
100
AcDbLine
 10
258.6588587074
 20
227.1594860338
 30
0.0
 11
258.6588587074
 21
228.6594860338
 31
0.0
  0
LINE
  5
D3
330
1F
100
AcDbEntity
  8
0
  6
Continuous
 62
     7
370
    25
100
AcDbLine
 10
241.6588587074
 20
227.1594860338
 30
0.0
 11
242.1588587074
 21
226.6594860338
 31
0.0
  0
LINE
  5
D4
330
1F
100
AcDbEntity
  8
0
  6
Continuous
 62
     7
370
    25
100
AcDbLine
 10
258.1588587074
 20
226.6594860338
 30
0.0
 11
258.6588587074
 21
227.1594860338
 31
0.0
  0
LINE
  5
D5
330
1F
100
AcDbEntity
  8
0
  6
Continuous
 62
     7
370
    25
100
AcDbLine
 10
258.6588587074
 20
228.6594860338
 30
0.0
 11
258.1588587074
 21
229.1594860338
 31
0.0
  0
LINE
  5
D6
330
1F
100
AcDbEntity
  8
0
  6
Continuous
 62
     7
370
    25
100
AcDbLine
 10
242.1588587074
 20
229.1594860338
 30
0.0
 11
241.6588587074
 21
228.6594860338
 31
0.0
  0
LINE
  5
D7
330
1F
100
AcDbEntity
  8
0
  6
Continuous
 62
     7
370
    25
100
AcDbLine
 10
258.6588587074
 20
754.3594860338
 30
0.0
 11
258.1588587074
 21
754.8594860338
 31
0.0
  0
LINE
  5
D8
330
1F
100
AcDbEntity
  8
0
  6
Continuous
 62
     7
370
    25
100
AcDbLine
 10
242.1588587074
 20
754.8594860338
 30
0.0
 11
241.6588587074
 21
754.3594860338
 31
0.0
  0
LINE
  5
D9
330
1F
100
AcDbEntity
  8
0
  6
Continuous
 62
     7
370
    25
100
AcDbLine
 10
258.6588587074
 20
752.8594860338
 30
0.0
 11
258.6588587074
 21
754.3594860338
 31
0.0
  0
LINE
  5
DA
330
1F
100
AcDbEntity
  8
0
  6
Continuous
 62
     7
370
    25
100
AcDbLine
 10
241.6588587074
 20
754.3594860338
 30
0.0
 11
241.6588587074
 21
752.8594860338
 31
0.0
  0
LINE
  5
DB
330
1F
100
AcDbEntity
  8
0
  6
Continuous
 62
     7
370
    25
100
AcDbLine
 10
241.6588587074
 20
752.8594860338
 30
0.0
 11
242.1588587074
 21
752.3594860338
 31
0.0
  0
LINE
  5
DC
330
1F
100
AcDbEntity
  8
0
  6
Continuous
 62
     7
370
    25
100
AcDbLine
 10
258.1588587074
 20
752.3594860338
 30
0.0
 11
258.6588587074
 21
752.8594860338
 31
0.0
  0
SPLINE
  5
DD
330
1F
100
AcDbEntity
  8
0
  6
Continuous
 62
     7
370
    25
100
AcDbSpline
210
0.0
220
0.0
230
1.0
 70
     8
 71
     3
 72
    12
 73
     8
 74
     0
 42
0.000000001
 43
0.00000001
 40
0.0
 40
0.0
 40
0.0
 40
0.0
 40
0.1763962382128058
 40
0.5365638846233176
 40
0.7577814011218192
 40
0.9056519226795487
 40
1.0
 40
1.0
 40
1.0
 40
1.0
 10
573.1588587073602
 20
716.7899333133598
 30
0.0
 10
573.1645568469849
 20
716.9048573287981
 30
0.0
 10
573.1818895064744
 20
717.2544343763865
 30
0.0
 10
573.3558225591348
 20
717.7356213972766
 30
0.0
 10
573.668306975873
 20
718.1020646415186
 30
0.0
 10
573.9388243304555
 20
718.2582476234059
 30
0.0
 10
574.097177555085
 20
718.2730863633964
 30
0.0
 10
574.1588587073602
 20
718.2788662935689
 30
0.0
  0
SPLINE
  5
DE
330
1F
100
AcDbEntity
  8
0
  6
Continuous
 62
     7
370
    25
100
AcDbSpline
210
0.0
220
0.0
230
1.0
 70
     8
 71
     3
 72
    12
 73
     8
 74
     0
 42
0.000000001
 43
0.00000001
 40
0.0
 40
0.0
 40
0.0
 40
0.0
 40
0.0715055978010958
 40
0.2076814571357852
 40
0.3963017263579016
 40
0.6631738080232538
 40
1.0
 40
1.0
 40
1.0
 40
1.0
 10
649.1588587073602
 20
718.2788662935689
 30
0.0
 10
649.205574876905
 20
718.2755607202785
 30
0.0
 10
649.341257710994
 20
718.265959985529
 30
0.0
 10
649.5816337375551
 20
718.1508876918566
 30
0.0
 10
649.859223641527
 20
717.8763336897798
 30
0.0
 10
650.1044846640195
 20
717.4062253811903
 30
0.0
 10
650.1393859529235
 20
717.0106434787419
 30
0.0
 10
650.1588587073603
 20
716.7899333133598
 30
0.0
  0
LINE
  5
DF
330
1F
100
AcDbEntity
  8
0
  6
Continuous
 62
     7
370
    25
100
AcDbLine
 10
574.1588587074
 20
718.2788662936
 30
0.0
 11
649.1588587074
 21
718.2788662936
 31
0.0
  0
LINE
  5
E0
330
1F
100
AcDbEntity
  8
0
  6
Continuous
 62
     7
370
    25
100
AcDbLine
 10
264.3588587074
 20
756.8594860338
 30
0.0
 11
263.8588587074
 21
756.8594860338
 31
0.0
  0
LINE
  5
E1
330
1F
100
AcDbEntity
  8
0
  6
Continuous
 62
     7
370
    25
100
AcDbLine
 10
245.1588587074
 20
758.1594860338
 30
0.0
 11
245.1588587074
 21
754.8594860338
 31
0.0
  0
LINE
  5
E2
330
1F
100
AcDbEntity
  8
0
  6
Continuous
 62
     7
370
    25
100
AcDbLine
 10
255.1588587074
 20
754.8594860338
 30
0.0
 11
255.1588587074
 21
758.1594860338
 31
0.0
  0
LINE
  5
E3
330
1F
100
AcDbEntity
  8
0
  6
Continuous
 62
     7
370
    25
100
AcDbLine
 10
246.2588587074
 20
761.1594860338
 30
0.0
 11
246.2588587074
 21
760.6594860338
 31
0.0
  0
LINE
  5
E4
330
1F
100
AcDbEntity
  8
0
  6
Continuous
 62
     7
370
    25
100
AcDbLine
 10
254.0588587074
 20
760.6594860338
 30
0.0
 11
254.0588587074
 21
761.1594860338
 31
0.0
  0
LINE
  5
E5
330
1F
100
AcDbEntity
  8
0
  6
Continuous
 62
     7
370
    25
100
AcDbLine
 10
254.0588587074
 20
223.6594860338
 30
0.0
 11
254.0588587074
 21
224.1594860338
 31
0.0
  0
LINE
  5
E6
330
1F
100
AcDbEntity
  8
0
  6
Continuous
 62
     7
370
    25
100
AcDbLine
 10
246.2588587074
 20
224.1594860338
 30
0.0
 11
246.2588587074
 21
223.6594860338
 31
0.0
  0
ARC
  5
E7
330
1F
100
AcDbEntity
  8
0
  6
Continuous
 62
     7
370
    25
100
AcDbCircle
 10
265.7588587074
 20
228.6594860338
 30
0.0
 40
0.5000000000000568
100
AcDbArc
 50
270.0
 51
0.0
  0
LINE
  5
E8
330
1F
100
AcDbEntity
  8
0
  6
Continuous
 62
     7
370
    25
100
AcDbLine
 10
266.2588587074
 20
228.6594860338
 30
0.0
 11
266.2588587074
 21
228.9094860338
 31
0.0
  0
ARC
  5
E9
330
1F
100
AcDbEntity
  8
0
  6
Continuous
 62
     7
370
    25
100
AcDbCircle
 10
265.7588587074
 20
228.9094860338
 30
0.0
 40
0.5000000000000568
100
AcDbArc
 50
0.0
 51
30.0000000002
  0
ARC
  5
EA
330
1F
100
AcDbEntity
  8
0
  6
Continuous
 62
     7
370
    25
100
AcDbCircle
 10
658.9588587074
 20
228.9094860338
 30
0.0
 40
0.5000000000001137
100
AcDbArc
 50
149.9999999998
 51
180.0
  0
ARC
  5
EB
330
1F
100
AcDbEntity
  8
0
  6
Continuous
 62
     7
370
    25
100
AcDbCircle
 10
658.9588587074
 20
228.6594860338
 30
0.0
 40
0.5000000000001137
100
AcDbArc
 50
180.0
 51
270.0
  0
LINE
  5
EC
330
1F
100
AcDbEntity
  8
0
  6
Continuous
 62
     7
370
    25
100
AcDbLine
 10
658.4588587074
 20
228.9094860338
 30
0.0
 11
658.4588587074
 21
228.6594860338
 31
0.0
  0
LINE
  5
ED
330
1F
100
AcDbEntity
  8
0
  6
Continuous
 62
     7
370
    25
100
AcDbLine
 10
315.8588587074
 20
62.6594860338
 30
0.0
 11
315.6588587074
 21
62.6594860338
 31
0.0
  0
LINE
  5
EE
330
1F
100
AcDbEntity
  8
0
  6
Continuous
 62
     7
370
    25
100
AcDbLine
 10
259.0588587074
 20
62.6594860338
 30
0.0
 11
258.8588587074
 21
62.6594860338
 31
0.0
  0
LINE
  5
EF
330
1F
100
AcDbEntity
  8
0
  6
Continuous
 62
     7
370
    25
100
AcDbLine
 10
315.8588587074
 20
60.1594860338
 30
0.0
 11
258.8588587074
 21
60.1594860338
 31
0.0
  0
LINE
  5
F0
330
1F
100
AcDbEntity
  8
0
  6
Continuous
 62
     7
370
    25
100
AcDbLine
 10
313.8588586366
 20
54.1594860338
 30
0.0
 11
260.8588587074
 21
54.1594860338
 31
0.0
  0
LINE
  5
F1
330
1F
100
AcDbEntity
  8
0
  6
Continuous
 62
     7
370
    25
100
AcDbLine
 10
665.8588587074
 20
62.6594860338
 30
0.0
 11
608.8588587074
 21
62.6594860338
 31
0.0
  0
LINE
  5
F2
330
1F
100
AcDbEntity
  8
0
  6
Continuous
 62
     7
370
    25
100
AcDbLine
 10
663.8588586366
 20
56.6594860338
 30
0.0
 11
610.8588587074
 21
56.6594860338
 31
0.0
  0
LINE
  5
F3
330
1F
100
AcDbEntity
  8
0
  6
Continuous
 62
     7
370
    25
100
AcDbLine
 10
668.2088587074
 20
226.6594860338
 30
0.0
 11
672.3588587074
 21
226.6594860338
 31
0.0
  0
LINE
  5
F4
330
1F
100
AcDbEntity
  8
0
  6
Continuous
 62
     7
370
    25
100
AcDbLine
 10
616.8588587074
 20
224.6594860338
 30
0.0
 11
672.3588587074
 21
224.6594860338
 31
0.0
  0
LINE
  5
F5
330
1F
100
AcDbEntity
  8
0
  6
Continuous
 62
     7
370
    25
100
AcDbLine
 10
672.3588587074
 20
224.6594860338
 30
0.0
 11
672.3588587074
 21
226.6594860338
 31
0.0
  0
LINE
  5
F6
330
1F
100
AcDbEntity
  8
0
  6
Continuous
 62
     7
370
    25
100
AcDbLine
 10
668.3185089277
 20
130.6594860338
 30
0.0
 11
606.399208487
 21
130.6594860338
 31
0.0
  0
LINE
  5
F7
330
1F
100
AcDbEntity
  8
0
  6
Continuous
 62
     7
370
    25
100
AcDbLine
 10
252.3588587074
 20
222.1594860338
 30
0.0
 11
307.8088587074
 21
222.1594860338
 31
0.0
  0
LINE
  5
F8
330
1F
100
AcDbEntity
  8
0
  6
Continuous
 62
     7
370
    25
100
AcDbLine
 10
252.3588587074
 20
222.1594860338
 30
0.0
 11
252.3588587074
 21
223.6594860338
 31
0.0
  0
LINE
  5
F9
330
1F
100
AcDbEntity
  8
0
  6
Continuous
 62
     7
370
    25
100
AcDbLine
 10
318.3185089277
 20
128.1594860338
 30
0.0
 11
256.399208487
 21
128.1594860338
 31
0.0
  0
LINE
  5
FA
330
1F
100
AcDbEntity
  8
0
  6
Continuous
 62
     7
370
    25
100
AcDbLine
 10
257.8905038942
 20
1143.8375020813
 30
0.0
 11
258.3588587074
 21
1143.8594860338
 31
0.0
  0
LINE
  5
FB
330
1F
100
AcDbEntity
  8
0
  6
Continuous
 62
     7
370
    25
100
AcDbLine
 10
258.3588587074
 20
1143.8594860338
 30
0.0
 11
420.300538027
 21
1143.8594860338
 31
0.0
  0
LINE
  5
FC
330
1F
100
AcDbEntity
  8
0
  6
Continuous
 62
     7
370
    25
100
AcDbLine
 10
434.3379146364
 20
1143.8594860338
 30
0.0
 11
500.2950570156
 21
1143.8594860338
 31
0.0
  0
LINE
  5
FD
330
1F
100
AcDbEntity
  8
0
  6
Continuous
 62
     7
370
    25
100
AcDbLine
 10
514.3505441289
 20
1143.8594860338
 30
0.0
 11
666.3588587074
 21
1143.8594860338
 31
0.0
  0
LINE
  5
FE
330
1F
100
AcDbEntity
  8
0
  6
Continuous
 62
     7
370
    25
100
AcDbLine
 10
666.3588587074
 20
1143.8594860338
 30
0.0
 11
666.8272135203
 21
1143.8375020813
 31
0.0
  0
LINE
  5
FF
330
1F
100
AcDbEntity
  8
0
  6
Continuous
 62
     7
370
    25
100
AcDbLine
 10
462.3588587074
 20
961.3594860338
 30
0.0
 11
445.3588587074
 21
961.3594860338
 31
0.0
  0
LINE
  5
100
330
1F
100
AcDbEntity
  8
0
  6
Continuous
 62
     7
370
    25
100
AcDbLine
 10
479.3588587074
 20
961.3594860338
 30
0.0
 11
462.3588587074
 21
961.3594860338
 31
0.0
  0
LINE
  5
101
330
1F
100
AcDbEntity
  8
0
  6
Continuous
 62
     7
370
    25
100
AcDbLine
 10
573.0588587073
 20
1024.09470532
 30
0.0
 11
573.0588587074
 21
1021.2686340327
 31
0.0
  0
ARC
  5
102
330
1F
100
AcDbEntity
  8
0
  6
Continuous
 62
     7
370
    25
100
AcDbCircle
 10
572.3588587074
 20
1026.8258708663
 30
0.0
 40
2.819444136895279
100
AcDbArc
 50
255.6244883864
 51
284.3755116136
  0
LINE
  5
103
330
1F
100
AcDbEntity
  8
0
  6
Continuous
 62
     7
370
    25
100
AcDbLine
 10
571.6588587073
 20
1021.2686340327
 30
0.0
 11
571.6588587074
 21
1024.09470532
 31
0.0
  0
ARC
  5
104
330
1F
100
AcDbEntity
  8
0
  6
Continuous
 62
     7
370
    25
100
AcDbCircle
 10
572.3588587074
 20
1023.999799579
 30
0.0
 40
2.819444136905068
100
AcDbArc
 50
255.6244883852
 51
284.3755116148
  0
LINE
  5
105
330
1F
100
AcDbEntity
  8
0
  6
Continuous
 62
     7
370
    25
100
AcDbLine
 10
573.0588587074
 20
960.0370894742
 30
0.0
 11
573.0588587074
 21
957.2110181869
 31
0.0
  0
ARC
  5
106
330
1F
100
AcDbEntity
  8
0
  6
Continuous
 62
     7
370
    25
100
AcDbCircle
 10
572.3588587074
 20
962.7682550204
 30
0.0
 40
2.81944413689145
100
AcDbArc
 50
255.624488386
 51
284.375511614
  0
LINE
  5
107
330
1F
100
AcDbEntity
  8
0
  6
Continuous
 62
     7
370
    25
100
AcDbLine
 10
571.6588587074
 20
957.2110181869
 30
0.0
 11
571.6588587074
 21
960.0370894742
 31
0.0
  0
ARC
  5
108
330
1F
100
AcDbEntity
  8
0
  6
Continuous
 62
     7
370
    25
100
AcDbCircle
 10
572.3588587074
 20
959.9421837331
 30
0.0
 40
2.81944413689331
100
AcDbArc
 50
255.6244883859
 51
284.3755116141
  0
LINE
  5
109
330
1F
100
AcDbEntity
  8
0
  6
Continuous
 62
     7
370
    25
100
AcDbLine
 10
550.0588587073
 20
1024.09470532
 30
0.0
 11
550.0588587073
 21
1021.2686340327
 31
0.0
  0
ARC
  5
10A
330
1F
100
AcDbEntity
  8
0
  6
Continuous
 62
     7
370
    25
100
AcDbCircle
 10
549.3588587074
 20
1026.8258708663
 30
0.0
 40
2.819444136887541
100
AcDbArc
 50
255.6244883863
 51
284.3755116137
  0
LINE
  5
10B
330
1F
100
AcDbEntity
  8
0
  6
Continuous
 62
     7
370
    25
100
AcDbLine
 10
548.6588587074
 20
1021.2686340327
 30
0.0
 11
548.6588587074
 21
1024.09470532
 31
0.0
  0
ARC
  5
10C
330
1F
100
AcDbEntity
  8
0
  6
Continuous
 62
     7
370
    25
100
AcDbCircle
 10
549.3588587074
 20
1023.999799579
 30
0.0
 40
2.819444136890204
100
AcDbArc
 50
255.6244883864
 51
284.3755116136
  0
LINE
  5
10D
330
1F
100
AcDbEntity
  8
0
  6
Continuous
 62
     7
370
    25
100
AcDbLine
 10
550.0588587074
 20
960.0370894742
 30
0.0
 11
550.0588587074
 21
957.2110181869
 31
0.0
  0
ARC
  5
10E
330
1F
100
AcDbEntity
  8
0
  6
Continuous
 62
     7
370
    25
100
AcDbCircle
 10
549.3588587074
 20
962.7682550204
 30
0.0
 40
2.819444136887375
100
AcDbArc
 50
255.624488386
 51
284.375511614
  0
LINE
  5
10F
330
1F
100
AcDbEntity
  8
0
  6
Continuous
 62
     7
370
    25
100
AcDbLine
 10
548.6588587074
 20
957.2110181869
 30
0.0
 11
548.6588587074
 21
960.0370894742
 31
0.0
  0
ARC
  5
110
330
1F
100
AcDbEntity
  8
0
  6
Continuous
 62
     7
370
    25
100
AcDbCircle
 10
549.3588587074
 20
959.9421837331
 30
0.0
 40
2.819444136887601
100
AcDbArc
 50
255.6244883863
 51
284.3755116137
  0
LWPOLYLINE
  5
111
330
1F
100
AcDbEntity
  8
0
  6
Continuous
 62
     7
370
    25
100
AcDbPolyline
 90
       17
 70
   128
 43
0.0
 10
564.4588587074
 20
1029.3171794427
 10
565.4155672883
 20
1029.1493096692
 10
566.2266256603
 20
1028.6712569997
 10
566.7685575387
 20
1027.9558006198
 10
566.9588587074
 20
1027.1118622777
 10
566.7685575387
 20
1026.2679239355
 10
566.2266256603
 20
1025.5524675556
 10
565.4155672883
 20
1025.0744148862
 10
564.4588587074
 20
1024.9065451126
 10
563.5021501265
 20
1025.0744148862
 10
562.6910917544
 20
1025.5524675556
 10
562.1491598761
 20
1026.2679239355
 10
561.9588587074
 20
1027.1118622777
 10
562.1491598761
 20
1027.9558006198
 10
562.6910917544
 20
1028.6712569997
 10
563.5021501265
 20
1029.1493096692
 10
564.4588587074
 20
1029.3171794427
  0
LINE
  5
112
330
1F
100
AcDbEntity
  8
0
  6
Continuous
 62
     7
370
    25
100
AcDbLine
 10
564.7013409257
 20
1024.09470532
 30
0.0
 11
564.7013409257
 21
1021.2686340327
 31
0.0
  0
ARC
  5
113
330
1F
100
AcDbEntity
  8
0
  6
Continuous
 62
     7
370
    25
100
AcDbCircle
 10
564.4588587074
 20
1026.9166374643
 30
0.0
 40
2.832330957574736
100
AcDbArc
 50
265.0887676059
 51
274.9112323941
  0
LINE
  5
114
330
1F
100
AcDbEntity
  8
0
  6
Continuous
 62
     7
370
    25
100
AcDbLine
 10
564.2163764891
 20
1021.2686340327
 30
0.0
 11
564.2163764891
 21
1024.09470532
 31
0.0
  0
ARC
  5
115
330
1F
100
AcDbEntity
  8
0
  6
Continuous
 62
     7
370
    25
100
AcDbCircle
 10
564.4588587074
 20
1024.090566177
 30
0.0
 40
2.832330957579677
100
AcDbArc
 50
265.0887676059
 51
274.9112323941
  0
LINE
  5
116
330
1F
100
AcDbEntity
  8
0
  6
Continuous
 62
     7
370
    25
100
AcDbLine
 10
564.7013409257
 20
960.0370894742
 30
0.0
 11
564.7013409257
 21
957.2110181869
 31
0.0
  0
ARC
  5
117
330
1F
100
AcDbEntity
  8
0
  6
Continuous
 62
     7
370
    25
100
AcDbCircle
 10
564.4588587074
 20
962.8590216185
 30
0.0
 40
2.832330957603566
100
AcDbArc
 50
265.0887676049
 51
274.9112323951
  0
LINE
  5
118
330
1F
100
AcDbEntity
  8
0
  6
Continuous
 62
     7
370
    25
100
AcDbLine
 10
564.2163764891
 20
957.2110181869
 30
0.0
 11
564.216376489
 21
960.0370894742
 31
0.0
  0
ARC
  5
119
330
1F
100
AcDbEntity
  8
0
  6
Continuous
 62
     7
370
    25
100
AcDbCircle
 10
564.4588587074
 20
960.0329503312
 30
0.0
 40
2.832330957583982
100
AcDbArc
 50
265.0887676059
 51
274.9112323941
  0
LWPOLYLINE
  5
11A
330
1F
100
AcDbEntity
  8
0
  6
Continuous
 62
     7
370
    25
100
AcDbPolyline
 90
       17
 70
   128
 43
0.0
 10
557.2588587074
 20
1029.3171794427
 10
556.3021501265
 20
1029.1493096692
 10
555.4910917544
 20
1028.6712569997
 10
554.9491598761
 20
1027.9558006198
 10
554.7588587074
 20
1027.1118622777
 10
554.9491598761
 20
1026.2679239355
 10
555.4910917544
 20
1025.5524675556
 10
556.3021501265
 20
1025.0744148862
 10
557.2588587074
 20
1024.9065451126
 10
558.2155672883
 20
1025.0744148862
 10
559.0266256603
 20
1025.5524675556
 10
559.5685575387
 20
1026.2679239355
 10
559.7588587074
 20
1027.1118622777
 10
559.5685575387
 20
1027.9558006198
 10
559.0266256603
 20
1028.6712569997
 10
558.2155672883
 20
1029.1493096692
 10
557.2588587074
 20
1029.3171794427
  0
LINE
  5
11B
330
1F
100
AcDbEntity
  8
0
  6
Continuous
 62
     7
370
    25
100
AcDbLine
 10
557.5013409257
 20
1024.09470532
 30
0.0
 11
557.5013409259
 21
1021.2686340327
 31
0.0
  0
ARC
  5
11C
330
1F
100
AcDbEntity
  8
0
  6
Continuous
 62
     7
370
    25
100
AcDbCircle
 10
557.2588587074
 20
1026.9166374643
 30
0.0
 40
2.832330957589412
100
AcDbArc
 50
265.0887676059
 51
274.9112323941
  0
LINE
  5
11D
330
1F
100
AcDbEntity
  8
0
  6
Continuous
 62
     7
370
    25
100
AcDbLine
 10
557.0163764889
 20
1021.2686340327
 30
0.0
 11
557.0163764891
 21
1024.09470532
 31
0.0
  0
ARC
  5
11E
330
1F
100
AcDbEntity
  8
0
  6
Continuous
 62
     7
370
    25
100
AcDbCircle
 10
557.2588587074
 20
1024.0905661771
 30
0.0
 40
2.832330957636341
100
AcDbArc
 50
265.0887676023
 51
274.9112323977
  0
LINE
  5
11F
330
1F
100
AcDbEntity
  8
0
  6
Continuous
 62
     7
370
    25
100
AcDbLine
 10
557.5013409257
 20
960.0370894742
 30
0.0
 11
557.5013409258
 21
957.2110181869
 31
0.0
  0
ARC
  5
120
330
1F
100
AcDbEntity
  8
0
  6
Continuous
 62
     7
370
    25
100
AcDbCircle
 10
557.2588587074
 20
962.8590216185
 30
0.0
 40
2.832330957567148
100
AcDbArc
 50
265.0887676048
 51
274.9112323952
  0
LINE
  5
121
330
1F
100
AcDbEntity
  8
0
  6
Continuous
 62
     7
370
    25
100
AcDbLine
 10
557.016376489
 20
957.2110181869
 30
0.0
 11
557.016376489
 21
960.0370894742
 31
0.0
  0
ARC
  5
122
330
1F
100
AcDbEntity
  8
0
  6
Continuous
 62
     7
370
    25
100
AcDbCircle
 10
557.2588587074
 20
960.0329503312
 30
0.0
 40
2.832330957609253
100
AcDbArc
 50
265.0887676045
 51
274.9112323955
  0
LINE
  5
123
330
1F
100
AcDbEntity
  8
0
  6
Continuous
 62
     7
370
    25
100
AcDbLine
 10
573.0588587074
 20
1021.2686340327
 30
0.0
 11
571.6588587073
 21
1021.2686340327
 31
0.0
  0
LINE
  5
124
330
1F
100
AcDbEntity
  8
0
  6
Continuous
 62
     7
370
    25
100
AcDbLine
 10
564.7013409257
 20
1021.2686340327
 30
0.0
 11
564.2163764891
 21
1021.2686340327
 31
0.0
  0
LINE
  5
125
330
1F
100
AcDbEntity
  8
0
  6
Continuous
 62
     7
370
    25
100
AcDbLine
 10
550.0588587073
 20
1021.2686340327
 30
0.0
 11
548.6588587074
 21
1021.2686340327
 31
0.0
  0
LINE
  5
126
330
1F
100
AcDbEntity
  8
0
  6
Continuous
 62
     7
370
    25
100
AcDbLine
 10
557.5013409259
 20
1021.2686340327
 30
0.0
 11
557.0163764889
 21
1021.2686340327
 31
0.0
  0
LINE
  5
127
330
1F
100
AcDbEntity
  8
0
  6
Continuous
 62
     7
370
    25
100
AcDbLine
 10
573.0588587074
 20
957.2110181869
 30
0.0
 11
571.6588587074
 21
957.2110181869
 31
0.0
  0
LINE
  5
128
330
1F
100
AcDbEntity
  8
0
  6
Continuous
 62
     7
370
    25
100
AcDbLine
 10
557.5013409258
 20
957.2110181869
 30
0.0
 11
557.016376489
 21
957.2110181869
 31
0.0
  0
LINE
  5
129
330
1F
100
AcDbEntity
  8
0
  6
Continuous
 62
     7
370
    25
100
AcDbLine
 10
550.0588587074
 20
957.2110181869
 30
0.0
 11
548.6588587074
 21
957.2110181869
 31
0.0
  0
LINE
  5
12A
330
1F
100
AcDbEntity
  8
0
  6
Continuous
 62
     7
370
    25
100
AcDbLine
 10
564.7013409257
 20
957.2110181869
 30
0.0
 11
564.2163764891
 21
957.2110181869
 31
0.0
  0
LINE
  5
12B
330
1F
100
AcDbEntity
  8
0
  6
Continuous
 62
     7
370
    25
100
AcDbLine
 10
376.0588587073
 20
1024.4913213848
 30
0.0
 11
376.0588587074
 21
1021.6652500975
 31
0.0
  0
ARC
  5
12C
330
1F
100
AcDbEntity
  8
0
  6
Continuous
 62
     7
370
    25
100
AcDbCircle
 10
375.3588587073
 20
1027.222486931
 30
0.0
 40
2.819444136889126
100
AcDbArc
 50
255.6244883864
 51
284.3755116136
  0
LINE
  5
12D
330
1F
100
AcDbEntity
  8
0
  6
Continuous
 62
     7
370
    25
100
AcDbLine
 10
374.6588587073
 20
1021.6652500975
 30
0.0
 11
374.6588587074
 21
1024.4913213848
 31
0.0
  0
ARC
  5
12E
330
1F
100
AcDbEntity
  8
0
  6
Continuous
 62
     7
370
    25
100
AcDbCircle
 10
375.3588587073
 20
1024.3964156437
 30
0.0
 40
2.819444136907821
100
AcDbArc
 50
255.6244883852
 51
284.3755116148
  0
LINE
  5
12F
330
1F
100
AcDbEntity
  8
0
  6
Continuous
 62
     7
370
    25
100
AcDbLine
 10
376.0588587073
 20
960.4337055389
 30
0.0
 11
376.0588587073
 21
957.6076342516
 31
0.0
  0
ARC
  5
130
330
1F
100
AcDbEntity
  8
0
  6
Continuous
 62
     7
370
    25
100
AcDbCircle
 10
375.3588587073
 20
963.1648710852
 30
0.0
 40
2.819444136894314
100
AcDbArc
 50
255.624488386
 51
284.375511614
  0
LINE
  5
131
330
1F
100
AcDbEntity
  8
0
  6
Continuous
 62
     7
370
    25
100
AcDbLine
 10
374.6588587073
 20
957.6076342516
 30
0.0
 11
374.6588587074
 21
960.4337055389
 31
0.0
  0
ARC
  5
132
330
1F
100
AcDbEntity
  8
0
  6
Continuous
 62
     7
370
    25
100
AcDbCircle
 10
375.3588587073
 20
960.3387997979
 30
0.0
 40
2.819444136893104
100
AcDbArc
 50
255.6244883859
 51
284.3755116142
  0
LINE
  5
133
330
1F
100
AcDbEntity
  8
0
  6
Continuous
 62
     7
370
    25
100
AcDbLine
 10
353.0588587073
 20
1024.4913213848
 30
0.0
 11
353.0588587073
 21
1021.6652500975
 31
0.0
  0
ARC
  5
134
330
1F
100
AcDbEntity
  8
0
  6
Continuous
 62
     7
370
    25
100
AcDbCircle
 10
352.3588587073
 20
1027.222486931
 30
0.0
 40
2.819444136888202
100
AcDbArc
 50
255.6244883864
 51
284.3755116137
  0
LINE
  5
135
330
1F
100
AcDbEntity
  8
0
  6
Continuous
 62
     7
370
    25
100
AcDbLine
 10
351.6588587074
 20
1021.6652500975
 30
0.0
 11
351.6588587074
 21
1024.4913213848
 31
0.0
  0
ARC
  5
136
330
1F
100
AcDbEntity
  8
0
  6
Continuous
 62
     7
370
    25
100
AcDbCircle
 10
352.3588587073
 20
1024.3964156437
 30
0.0
 40
2.819444136891444
100
AcDbArc
 50
255.6244883864
 51
284.3755116136
  0
LINE
  5
137
330
1F
100
AcDbEntity
  8
0
  6
Continuous
 62
     7
370
    25
100
AcDbLine
 10
353.0588587073
 20
960.4337055389
 30
0.0
 11
353.0588587073
 21
957.6076342516
 31
0.0
  0
ARC
  5
138
330
1F
100
AcDbEntity
  8
0
  6
Continuous
 62
     7
370
    25
100
AcDbCircle
 10
352.3588587074
 20
963.1648710852
 30
0.0
 40
2.819444136884732
100
AcDbArc
 50
255.624488386
 51
284.375511614
  0
LINE
  5
139
330
1F
100
AcDbEntity
  8
0
  6
Continuous
 62
     7
370
    25
100
AcDbLine
 10
351.6588587074
 20
957.6076342516
 30
0.0
 11
351.6588587074
 21
960.4337055389
 31
0.0
  0
ARC
  5
13A
330
1F
100
AcDbEntity
  8
0
  6
Continuous
 62
     7
370
    25
100
AcDbCircle
 10
352.3588587074
 20
960.3387997979
 30
0.0
 40
2.819444136882617
100
AcDbArc
 50
255.6244883863
 51
284.3755116137
  0
LWPOLYLINE
  5
13B
330
1F
100
AcDbEntity
  8
0
  6
Continuous
 62
     7
370
    25
100
AcDbPolyline
 90
       17
 70
   128
 43
0.0
 10
367.4588587074
 20
1029.7137955075
 10
368.4155672883
 20
1029.5459257339
 10
369.2266256603
 20
1029.0678730645
 10
369.7685575386
 20
1028.3524166846
 10
369.9588587074
 20
1027.5084783424
 10
369.7685575386
 20
1026.6645400003
 10
369.2266256603
 20
1025.9490836204
 10
368.4155672883
 20
1025.4710309509
 10
367.4588587074
 20
1025.3031611774
 10
366.5021501264
 20
1025.4710309509
 10
365.6910917544
 20
1025.9490836204
 10
365.1491598761
 20
1026.6645400003
 10
364.9588587074
 20
1027.5084783424
 10
365.1491598761
 20
1028.3524166846
 10
365.6910917544
 20
1029.0678730645
 10
366.5021501264
 20
1029.5459257339
 10
367.4588587074
 20
1029.7137955075
  0
LINE
  5
13C
330
1F
100
AcDbEntity
  8
0
  6
Continuous
 62
     7
370
    25
100
AcDbLine
 10
367.7013409257
 20
1024.4913213848
 30
0.0
 11
367.7013409257
 21
1021.6652500975
 31
0.0
  0
ARC
  5
13D
330
1F
100
AcDbEntity
  8
0
  6
Continuous
 62
     7
370
    25
100
AcDbCircle
 10
367.4588587074
 20
1027.3132535291
 30
0.0
 40
2.832330957566122
100
AcDbArc
 50
265.0887676059
 51
274.9112323941
  0
LINE
  5
13E
330
1F
100
AcDbEntity
  8
0
  6
Continuous
 62
     7
370
    25
100
AcDbLine
 10
367.216376489
 20
1021.6652500975
 30
0.0
 11
367.216376489
 21
1024.4913213848
 31
0.0
  0
ARC
  5
13F
330
1F
100
AcDbEntity
  8
0
  6
Continuous
 62
     7
370
    25
100
AcDbCircle
 10
367.4588587074
 20
1024.4871822418
 30
0.0
 40
2.832330957580012
100
AcDbArc
 50
265.0887676059
 51
274.9112323941
  0
LINE
  5
140
330
1F
100
AcDbEntity
  8
0
  6
Continuous
 62
     7
370
    25
100
AcDbLine
 10
367.7013409257
 20
960.4337055389
 30
0.0
 11
367.7013409257
 21
957.6076342516
 31
0.0
  0
ARC
  5
141
330
1F
100
AcDbEntity
  8
0
  6
Continuous
 62
     7
370
    25
100
AcDbCircle
 10
367.4588587074
 20
963.2556376832
 30
0.0
 40
2.832330957576938
100
AcDbArc
 50
265.0887676048
 51
274.9112323952
  0
LINE
  5
142
330
1F
100
AcDbEntity
  8
0
  6
Continuous
 62
     7
370
    25
100
AcDbLine
 10
367.216376489
 20
957.6076342516
 30
0.0
 11
367.216376489
 21
960.4337055389
 31
0.0
  0
ARC
  5
143
330
1F
100
AcDbEntity
  8
0
  6
Continuous
 62
     7
370
    25
100
AcDbCircle
 10
367.4588587074
 20
960.4295663959
 30
0.0
 40
2.832330957557029
100
AcDbArc
 50
265.0887676058
 51
274.9112323942
  0
LWPOLYLINE
  5
144
330
1F
100
AcDbEntity
  8
0
  6
Continuous
 62
     7
370
    25
100
AcDbPolyline
 90
       17
 70
   128
 43
0.0
 10
360.2588587074
 20
1029.7137955075
 10
359.3021501264
 20
1029.5459257339
 10
358.4910917544
 20
1029.0678730645
 10
357.9491598761
 20
1028.3524166846
 10
357.7588587074
 20
1027.5084783424
 10
357.9491598761
 20
1026.6645400003
 10
358.4910917544
 20
1025.9490836204
 10
359.3021501264
 20
1025.471030951
 10
360.2588587074
 20
1025.3031611774
 10
361.2155672883
 20
1025.471030951
 10
362.0266256603
 20
1025.9490836204
 10
362.5685575386
 20
1026.6645400003
 10
362.7588587074
 20
1027.5084783424
 10
362.5685575386
 20
1028.3524166846
 10
362.0266256603
 20
1029.0678730645
 10
361.2155672883
 20
1029.5459257339
 10
360.2588587074
 20
1029.7137955075
  0
LINE
  5
145
330
1F
100
AcDbEntity
  8
0
  6
Continuous
 62
     7
370
    25
100
AcDbLine
 10
360.5013409257
 20
1024.4913213848
 30
0.0
 11
360.5013409258
 21
1021.6652500975
 31
0.0
  0
ARC
  5
146
330
1F
100
AcDbEntity
  8
0
  6
Continuous
 62
     7
370
    25
100
AcDbCircle
 10
360.2588587074
 20
1027.3132535291
 30
0.0
 40
2.832330957554983
100
AcDbArc
 50
265.0887676059
 51
274.9112323941
  0
LINE
  5
147
330
1F
100
AcDbEntity
  8
0
  6
Continuous
 62
     7
370
    25
100
AcDbLine
 10
360.0163764889
 20
1021.6652500975
 30
0.0
 11
360.016376489
 21
1024.4913213848
 31
0.0
  0
ARC
  5
148
330
1F
100
AcDbEntity
  8
0
  6
Continuous
 62
     7
370
    25
100
AcDbCircle
 10
360.2588587074
 20
1024.4871822417
 30
0.0
 40
2.832330957535191
100
AcDbArc
 50
265.0887676021
 51
274.9112323979
  0
LINE
  5
149
330
1F
100
AcDbEntity
  8
0
  6
Continuous
 62
     7
370
    25
100
AcDbLine
 10
360.5013409257
 20
960.4337055389
 30
0.0
 11
360.5013409257
 21
957.6076342516
 31
0.0
  0
ARC
  5
14A
330
1F
100
AcDbEntity
  8
0
  6
Continuous
 62
     7
370
    25
100
AcDbCircle
 10
360.2588587074
 20
963.2556376833
 30
0.0
 40
2.832330957595465
100
AcDbArc
 50
265.0887676049
 51
274.9112323951
  0
LINE
  5
14B
330
1F
100
AcDbEntity
  8
0
  6
Continuous
 62
     7
370
    25
100
AcDbLine
 10
360.016376489
 20
957.6076342516
 30
0.0
 11
360.016376489
 21
960.4337055389
 31
0.0
  0
ARC
  5
14C
330
1F
100
AcDbEntity
  8
0
  6
Continuous
 62
     7
370
    25
100
AcDbCircle
 10
360.2588587074
 20
960.429566396
 30
0.0
 40
2.832330957619216
100
AcDbArc
 50
265.0887676045
 51
274.9112323955
  0
LINE
  5
14D
330
1F
100
AcDbEntity
  8
0
  6
Continuous
 62
     7
370
    25
100
AcDbLine
 10
376.0588587074
 20
1021.6652500975
 30
0.0
 11
374.6588587073
 21
1021.6652500975
 31
0.0
  0
LINE
  5
14E
330
1F
100
AcDbEntity
  8
0
  6
Continuous
 62
     7
370
    25
100
AcDbLine
 10
353.0588587073
 20
1021.6652500975
 30
0.0
 11
351.6588587074
 21
1021.6652500975
 31
0.0
  0
LINE
  5
14F
330
1F
100
AcDbEntity
  8
0
  6
Continuous
 62
     7
370
    25
100
AcDbLine
 10
367.7013409257
 20
1021.6652500975
 30
0.0
 11
367.216376489
 21
1021.6652500975
 31
0.0
  0
LINE
  5
150
330
1F
100
AcDbEntity
  8
0
  6
Continuous
 62
     7
370
    25
100
AcDbLine
 10
360.5013409258
 20
1021.6652500975
 30
0.0
 11
360.0163764889
 21
1021.6652500975
 31
0.0
  0
LINE
  5
151
330
1F
100
AcDbEntity
  8
0
  6
Continuous
 62
     7
370
    25
100
AcDbLine
 10
360.5013409257
 20
957.6076342516
 30
0.0
 11
360.016376489
 21
957.6076342516
 31
0.0
  0
LINE
  5
152
330
1F
100
AcDbEntity
  8
0
  6
Continuous
 62
     7
370
    25
100
AcDbLine
 10
353.0588587073
 20
957.6076342516
 30
0.0
 11
351.6588587074
 21
957.6076342516
 31
0.0
  0
LINE
  5
153
330
1F
100
AcDbEntity
  8
0
  6
Continuous
 62
     7
370
    25
100
AcDbLine
 10
376.0588587073
 20
957.6076342516
 30
0.0
 11
374.6588587073
 21
957.6076342516
 31
0.0
  0
LINE
  5
154
330
1F
100
AcDbEntity
  8
0
  6
Continuous
 62
     7
370
    25
100
AcDbLine
 10
367.7013409257
 20
957.6076342516
 30
0.0
 11
367.216376489
 21
957.6076342516
 31
0.0
  0
LINE
  5
155
330
1F
100
AcDbEntity
  8
0
  6
Continuous
 62
     7
370
    25
100
AcDbLine
 10
685.3088587074
 20
1111.9763113343
 30
0.0
 11
687.3588587074
 21
1111.9763113343
 31
0.0
  0
LINE
  5
156
330
1F
100
AcDbEntity
  8
0
  6
Continuous
 62
     7
370
    25
100
AcDbLine
 10
687.3588587074
 20
946.3594860338
 30
0.0
 11
687.3588587074
 21
1111.9763113343
 31
0.0
  0
LINE
  5
157
330
1F
100
AcDbEntity
  8
0
  6
Continuous
 62
     7
370
    25
100
AcDbLine
 10
687.3588587074
 20
946.3594860338
 30
0.0
 11
686.1488587074
 21
946.3594860338
 31
0.0
  0
LINE
  5
158
330
1F
100
AcDbEntity
  8
0
  6
Continuous
 62
     7
370
    25
100
AcDbLine
 10
237.3588587074
 20
1112.4763113343
 30
0.0
 11
237.3588587074
 21
1112.3763113343
 31
0.0
  0
ARC
  5
159
330
1F
100
AcDbEntity
  8
0
  6
Continuous
 62
     7
370
    25
100
AcDbCircle
 10
674.8588587074
 20
1041.0594860338
 30
0.0
 40
6.499999999999972
100
AcDbArc
 50
91.819219294
 51
198.0238349625
  0
ARC
  5
15A
330
1F
100
AcDbEntity
  8
0
  6
Continuous
 62
     7
370
    25
100
AcDbCircle
 10
668.8680130421
 20
1039.1101866174
 30
0.0
 40
0.2000000000000131
100
AcDbArc
 50
198.0238349625
 51
289.8430542566
  0
ARC
  5
15B
330
1F
100
AcDbEntity
  8
0
  6
Continuous
 62
     7
370
    25
100
AcDbCircle
 10
668.9621238385
 20
1039.1441484953
 30
0.0
 40
0.2000000000001458
100
AcDbArc
 50
289.8430542565
 51
17.9944826113
  0
ARC
  5
15C
330
1F
100
AcDbEntity
  8
0
  6
Continuous
 62
     7
370
    25
100
AcDbCircle
 10
674.8588587074
 20
1041.0594860338
 30
0.0
 40
5.999999999999837
100
AcDbArc
 50
91.8485716452
 51
197.9944826113
  0
LINE
  5
15D
330
1F
100
AcDbEntity
  8
0
  6
Continuous
 62
     7
370
    25
100
AcDbLine
 10
669.361662525
 20
1038.1992702845
 30
0.0
 11
669.2729064454
 21
1038.1530900995
 31
0.0
  0
ARC
  5
15E
330
1F
100
AcDbEntity
  8
0
  6
Continuous
 62
     7
370
    25
100
AcDbCircle
 10
669.3652195118
 20
1037.9756688556
 30
0.0
 40
0.2000000000000067
100
AcDbArc
 50
117.488161715
 51
209.3073810091
  0
ARC
  5
15F
330
1F
100
AcDbEntity
  8
0
  6
Continuous
 62
     7
370
    25
100
AcDbCircle
 10
674.8588587074
 20
1041.0594860338
 30
0.0
 40
6.500000000000048
100
AcDbArc
 50
209.3073810091
 51
325.1405979916
  0
ARC
  5
160
330
1F
100
AcDbEntity
  8
0
  6
Continuous
 62
     7
370
    25
100
AcDbCircle
 10
675.8814792511
 20
1047.1745696165
 30
0.0
 40
0.2000000000000904
100
AcDbArc
 50
172.3548925414
 51
260.5063208962
  0
ARC
  5
161
330
1F
100
AcDbEntity
  8
0
  6
Continuous
 62
     7
370
    25
100
AcDbCircle
 10
680.5426227209
 20
1038.5826278145
 30
0.0
 40
0.1999999999999972
100
AcDbArc
 50
156.4534963895
 51
244.6049247442
  0
LINE
  5
162
330
1F
100
AcDbEntity
  8
0
  6
Continuous
 62
     7
370
    25
100
AcDbLine
 10
680.4568512234
 20
1038.401953383
 30
0.0
 11
680.5472347304
 21
1038.3590456585
 31
0.0
  0
ARC
  5
163
330
1F
100
AcDbEntity
  8
0
  6
Continuous
 62
     7
370
    25
100
AcDbCircle
 10
680.6330062279
 20
1038.53972009
 30
0.0
 40
0.2000000000000955
100
AcDbArc
 50
244.6049247442
 51
336.4241440382
  0
ARC
  5
164
330
1F
100
AcDbEntity
  8
0
  6
Continuous
 62
     7
370
    25
100
AcDbCircle
 10
674.8588587074
 20
1041.0594860338
 30
0.0
 40
6.500000000000162
100
AcDbArc
 50
336.4241440382
 51
80.5356732474
  0
LINE
  5
165
330
1F
100
AcDbEntity
  8
0
  6
Continuous
 62
     7
370
    25
100
AcDbLine
 10
249.0344603858
 20
1047.2011769579
 30
0.0
 11
249.0211498979
 21
1047.3003388562
 31
0.0
  0
ARC
  5
166
330
1F
100
AcDbEntity
  8
0
  6
Continuous
 62
     7
370
    25
100
AcDbCircle
 10
248.8229276757
 20
1047.2737315148
 30
0.0
 40
0.200000000000068
100
AcDbArc
 50
7.6451074586
 51
99.4643267526
  0
ARC
  5
167
330
1F
100
AcDbEntity
  8
0
  6
Continuous
 62
     7
370
    25
100
AcDbCircle
 10
249.8588587074
 20
1041.0594860338
 30
0.0
 40
6.500000000000083
100
AcDbArc
 50
99.4643267526
 51
203.5758559618
  0
ARC
  5
168
330
1F
100
AcDbEntity
  8
0
  6
Continuous
 62
     7
370
    25
100
AcDbCircle
 10
244.0847111868
 20
1038.53972009
 30
0.0
 40
0.2000000000000459
100
AcDbArc
 50
203.5758559618
 51
295.3950752558
  0
LINE
  5
169
330
1F
100
AcDbEntity
  8
0
  6
Continuous
 62
     7
370
    25
100
AcDbLine
 10
244.1704826843
 20
1038.3590456585
 30
0.0
 11
244.2608661913
 21
1038.401953383
 31
0.0
  0
LINE
  5
16A
330
1F
100
AcDbEntity
  8
0
  6
Continuous
 62
     7
370
    25
100
AcDbLine
 10
255.4448109693
 20
1038.1530900995
 30
0.0
 11
255.3560548897
 21
1038.1992702845
 31
0.0
  0
ARC
  5
16B
330
1F
100
AcDbEntity
  8
0
  6
Continuous
 62
     7
370
    25
100
AcDbCircle
 10
255.2637418234
 20
1038.0218490406
 30
0.0
 40
0.2000000000000591
100
AcDbArc
 50
62.5118382849
 51
150.6632666397
  0
ARC
  5
16C
330
1F
100
AcDbEntity
  8
0
  6
Continuous
 62
     7
370
    25
100
AcDbCircle
 10
249.8588587074
 20
1041.0594860338
 30
0.0
 40
6.000000000000083
100
AcDbArc
 50
214.8887543596
 51
330.6632666397
  0
ARC
  5
16D
330
1F
100
AcDbEntity
  8
0
  6
Continuous
 62
     7
370
    25
100
AcDbCircle
 10
244.7732209332
 20
1037.5131797258
 30
0.0
 40
0.2000000000000747
100
AcDbArc
 50
34.8887543596
 51
123.0401827143
  0
LINE
  5
16E
330
1F
100
AcDbEntity
  8
0
  6
Continuous
 62
     7
370
    25
100
AcDbLine
 10
244.6641755176
 20
1037.6808374048
 30
0.0
 11
244.580303722
 21
1037.6262867581
 31
0.0
  0
ARC
  5
16F
330
1F
100
AcDbEntity
  8
0
  6
Continuous
 62
     7
370
    25
100
AcDbCircle
 10
244.6893491376
 20
1037.4586290791
 30
0.0
 40
0.2000000000000902
100
AcDbArc
 50
123.0401827143
 51
214.8594020084
  0
ARC
  5
170
330
1F
100
AcDbEntity
  8
0
  6
Continuous
 62
     7
370
    25
100
AcDbCircle
 10
249.8588587074
 20
1041.0594860338
 30
0.0
 40
6.500000000000117
100
AcDbArc
 50
214.8594020084
 51
330.6926189909
  0
ARC
  5
171
330
1F
100
AcDbEntity
  8
0
  6
Continuous
 62
     7
370
    25
100
AcDbCircle
 10
250.0588587074
 20
1047.3563106304
 30
0.0
 40
0.1999999999999602
100
AcDbArc
 50
88.180780706
 51
180.0
  0
LINE
  5
172
330
1F
100
AcDbEntity
  8
0
  6
Continuous
 62
     7
370
    25
100
AcDbLine
 10
249.8588587074
 20
1047.3563106304
 30
0.0
 11
249.8588587074
 21
1047.2562593877
 31
0.0
  0
ARC
  5
173
330
1F
100
AcDbEntity
  8
0
  6
Continuous
 62
     7
370
    25
100
AcDbCircle
 10
250.0588587074
 20
1047.2562593877
 30
0.0
 40
0.2000000000001288
100
AcDbArc
 50
180.0
 51
268.1514283548
  0
ARC
  5
174
330
1F
100
AcDbEntity
  8
0
  6
Continuous
 62
     7
370
    25
100
AcDbCircle
 10
255.7555935762
 20
1039.1441484953
 30
0.0
 40
0.2000000000000106
100
AcDbArc
 50
162.0055173887
 51
250.1569457435
  0
ARC
  5
175
330
1F
100
AcDbEntity
  8
0
  6
Continuous
 62
     7
370
    25
100
AcDbCircle
 10
255.8497043726
 20
1039.1101866174
 30
0.0
 40
0.1999999999999924
100
AcDbArc
 50
250.1569457435
 51
341.9761650375
  0
ARC
  5
176
330
1F
100
AcDbEntity
  8
0
  6
Continuous
 62
     7
370
    25
100
AcDbCircle
 10
249.8588587074
 20
1041.0594860338
 30
0.0
 40
6.500000000000026
100
AcDbArc
 50
341.9761650375
 51
88.180780706
  0
ARC
  5
177
330
1F
100
AcDbEntity
  8
0
  6
Continuous
 62
     7
370
    25
100
AcDbCircle
 10
249.8588587074
 20
1041.0594860338
 30
0.0
 40
5.999999999999946
100
AcDbArc
 50
342.0055173887
 51
88.1514283548
  0
LINE
  5
178
330
1F
100
AcDbEntity
  8
0
  6
Continuous
 62
     7
370
    25
100
AcDbLine
 10
255.6877046085
 20
1038.9560233028
 30
0.0
 11
255.7818154049
 21
1038.9220614249
 31
0.0
  0
LINE
  5
179
330
1F
100
AcDbEntity
  8
0
  6
Continuous
 62
     7
370
    25
100
AcDbLine
 10
239.8088587074
 20
1111.9763113343
 30
0.0
 11
239.8088587074
 21
1112.3763113343
 31
0.0
  0
ARC
  5
17A
330
1F
100
AcDbEntity
  8
0
  6
Continuous
 62
     7
370
    25
100
AcDbCircle
 10
249.8588587074
 20
1041.0594860338
 30
0.0
 40
6.000000000000104
100
AcDbArc
 50
99.4936791038
 51
203.5465036106
  0
ARC
  5
17B
330
1F
100
AcDbEntity
  8
0
  6
Continuous
 62
     7
370
    25
100
AcDbCircle
 10
674.8588587074
 20
1041.0594860338
 30
0.0
 40
6.000000000000182
100
AcDbArc
 50
336.4534963894
 51
80.5063208962
  0
LINE
  5
17C
330
1F
100
AcDbEntity
  8
0
  6
Continuous
 62
     7
370
    25
100
AcDbLine
 10
668.9359020098
 20
1038.9220614249
 30
0.0
 11
669.0300128062
 21
1038.9560233028
 31
0.0
  0
ARC
  5
17D
330
1F
100
AcDbEntity
  8
0
  6
Continuous
 62
     7
370
    25
100
AcDbCircle
 10
674.6588587074
 20
1047.3563106304
 30
0.0
 40
0.1999999999999318
100
AcDbArc
 50
0.0
 51
91.819219294
  0
LINE
  5
17E
330
1F
100
AcDbEntity
  8
0
  6
Continuous
 62
     7
370
    25
100
AcDbLine
 10
239.4088587074
 20
1111.9763113343
 30
0.0
 11
239.8088587074
 21
1111.9763113343
 31
0.0
  0
LINE
  5
17F
330
1F
100
AcDbEntity
  8
0
  6
Continuous
 62
     7
370
    25
100
AcDbLine
 10
675.6965675168
 20
1047.3003388562
 30
0.0
 11
675.6832570289
 21
1047.2011769579
 31
0.0
  0
ARC
  5
180
330
1F
100
AcDbEntity
  8
0
  6
Continuous
 62
     7
370
    25
100
AcDbCircle
 10
679.9444964815
 20
1037.5131797258
 30
0.0
 40
0.2000000000000747
100
AcDbArc
 50
56.9598172857
 51
145.1112456404
  0
ARC
  5
181
330
1F
100
AcDbEntity
  8
0
  6
Continuous
 62
     7
370
    25
100
AcDbCircle
 10
255.352497903
 20
1037.9756688556
 30
0.0
 40
0.2000000000000591
100
AcDbArc
 50
330.6926189909
 51
62.5118382849
  0
ARC
  5
182
330
1F
100
AcDbEntity
  8
0
  6
Continuous
 62
     7
370
    25
100
AcDbCircle
 10
248.8362381636
 20
1047.1745696165
 30
0.0
 40
0.2000000000000341
100
AcDbArc
 50
279.4936791038
 51
7.6451074586
  0
LINE
  5
183
330
1F
100
AcDbEntity
  8
0
  6
Continuous
 62
     7
370
    25
100
AcDbLine
 10
687.3588587074
 20
1112.4763113343
 30
0.0
 11
687.3588587074
 21
1112.3763113343
 31
0.0
  0
LINE
  5
184
330
1F
100
AcDbEntity
  8
0
  6
Continuous
 62
     7
370
    25
100
AcDbLine
 10
684.9088587074
 20
1112.3763113343
 30
0.0
 11
684.9088587074
 21
1111.9763113343
 31
0.0
  0
LINE
  5
185
330
1F
100
AcDbEntity
  8
0
  6
Continuous
 62
     7
370
    25
100
AcDbLine
 10
687.3588587074
 20
1112.3763113343
 30
0.0
 11
684.9088587074
 21
1112.3763113343
 31
0.0
  0
ARC
  5
186
330
1F
100
AcDbEntity
  8
0
  6
Continuous
 62
     7
370
    25
100
AcDbCircle
 10
675.894789739
 20
1047.2737315148
 30
0.0
 40
0.2000000000000774
100
AcDbArc
 50
80.5356732474
 51
172.3548925414
  0
ARC
  5
187
330
1F
100
AcDbEntity
  8
0
  6
Continuous
 62
     7
370
    25
100
AcDbCircle
 10
669.4539755914
 20
1038.0218490406
 30
0.0
 40
0.2000000000000591
100
AcDbArc
 50
29.3367333603
 51
117.4881617151
  0
LINE
  5
188
330
1F
100
AcDbEntity
  8
0
  6
Continuous
 62
     7
370
    25
100
AcDbLine
 10
684.9088587074
 20
1111.9763113343
 30
0.0
 11
685.3088587074
 21
1111.9763113343
 31
0.0
  0
LINE
  5
189
330
1F
100
AcDbEntity
  8
0
  6
Continuous
 62
     7
370
    25
100
AcDbLine
 10
239.8088587074
 20
1112.3763113343
 30
0.0
 11
237.3588587074
 21
1112.3763113343
 31
0.0
  0
ARC
  5
18A
330
1F
100
AcDbEntity
  8
0
  6
Continuous
 62
     7
370
    25
100
AcDbCircle
 10
674.8588587074
 20
1041.0594860338
 30
0.0
 40
6.000000000000106
100
AcDbArc
 50
209.3367333603
 51
325.1112456404
  0
LINE
  5
18B
330
1F
100
AcDbEntity
  8
0
  6
Continuous
 62
     7
370
    25
100
AcDbLine
 10
674.8588587074
 20
1047.2562593877
 30
0.0
 11
674.8588587074
 21
1047.3563106304
 31
0.0
  0
ARC
  5
18C
330
1F
100
AcDbEntity
  8
0
  6
Continuous
 62
     7
370
    25
100
AcDbCircle
 10
674.6588587074
 20
1047.2562593877
 30
0.0
 40
0.2000000000001297
100
AcDbArc
 50
271.8485716452
 51
0.0
  0
ARC
  5
18D
330
1F
100
AcDbEntity
  8
0
  6
Continuous
 62
     7
370
    25
100
AcDbCircle
 10
244.1750946938
 20
1038.5826278145
 30
0.0
 40
0.2000000000000215
100
AcDbArc
 50
295.3950752558
 51
23.5465036105
  0
ARC
  5
18E
330
1F
100
AcDbEntity
  8
0
  6
Continuous
 62
     7
370
    25
100
AcDbCircle
 10
680.0283682771
 20
1037.4586290791
 30
0.0
 40
0.2000000000001367
100
AcDbArc
 50
325.1405979916
 51
56.9598172856
  0
LINE
  5
18F
330
1F
100
AcDbEntity
  8
0
  6
Continuous
 62
     7
370
    25
100
AcDbLine
 10
680.1374136927
 20
1037.6262867581
 30
0.0
 11
680.0535418971
 21
1037.6808374048
 31
0.0
  0
LINE
  5
190
330
1F
100
AcDbEntity
  8
0
  6
Continuous
 62
     7
370
    25
100
AcDbLine
 10
663.6915630689
 20
1137.3971976526
 30
0.0
 11
663.1588587074
 21
1137.3898169209
 31
0.0
  0
LINE
  5
191
330
1F
100
AcDbEntity
  8
0
  6
Continuous
 62
     7
370
    25
100
AcDbLine
 10
687.3588587074
 20
1137.3971976526
 30
0.0
 11
687.3588587074
 21
1112.4763113343
 31
0.0
  0
LINE
  5
192
330
1F
100
AcDbEntity
  8
0
  6
Continuous
 62
     7
370
    25
100
AcDbLine
 10
237.3588587074
 20
1137.3971976526
 30
0.0
 11
237.3588587074
 21
1112.4763113343
 31
0.0
  0
LINE
  5
193
330
1F
100
AcDbEntity
  8
0
  6
Continuous
 62
     7
370
    25
100
AcDbLine
 10
261.5588587074
 20
1137.3898169209
 30
0.0
 11
261.0261543458
 21
1137.3971976526
 31
0.0
  0
LINE
  5
194
330
1F
100
AcDbEntity
  8
0
  6
Continuous
 62
     7
370
    25
100
AcDbLine
 10
406.7769728626
 20
1137.3898169209
 30
0.0
 11
261.5588587074
 21
1137.3898169209
 31
0.0
  0
LINE
  5
195
330
1F
100
AcDbEntity
  8
0
  6
Continuous
 62
     7
370
    25
100
AcDbLine
 10
407.3096772242
 20
1137.3971976526
 30
0.0
 11
406.7769728626
 21
1137.3898169209
 31
0.0
  0
LINE
  5
196
330
1F
100
AcDbEntity
  8
0
  6
Continuous
 62
     7
370
    25
100
AcDbLine
 10
428.0104792983
 20
1137.3898169209
 30
0.0
 11
427.4777749368
 21
1137.3971976526
 31
0.0
  0
LINE
  5
197
330
1F
100
AcDbEntity
  8
0
  6
Continuous
 62
     7
370
    25
100
AcDbLine
 10
486.7919838791
 20
1137.3898169209
 30
0.0
 11
428.0104792983
 21
1137.3898169209
 31
0.0
  0
LINE
  5
198
330
1F
100
AcDbEntity
  8
0
  6
Continuous
 62
     7
370
    25
100
AcDbLine
 10
487.3246882406
 20
1137.3971976526
 30
0.0
 11
486.7919838791
 21
1137.3898169209
 31
0.0
  0
LINE
  5
199
330
1F
100
AcDbEntity
  8
0
  6
Continuous
 62
     7
370
    25
100
AcDbLine
 10
508.002616763
 20
1137.3898169209
 30
0.0
 11
507.4699124014
 21
1137.3971976526
 31
0.0
  0
LINE
  5
19A
330
1F
100
AcDbEntity
  8
0
  6
Continuous
 62
     7
370
    25
100
AcDbLine
 10
663.1588587074
 20
1137.3898169209
 30
0.0
 11
508.002616763
 21
1137.3898169209
 31
0.0
  0
LINE
  5
19B
330
1F
100
AcDbEntity
  8
0
  6
Continuous
 62
     7
370
    25
100
AcDbLine
 10
237.3588587074
 20
1111.9763113343
 30
0.0
 11
237.3588587074
 21
946.3594860338
 31
0.0
  0
LINE
  5
19C
330
1F
100
AcDbEntity
  8
0
  6
Continuous
 62
     7
370
    25
100
AcDbLine
 10
238.5688587074
 20
946.3594860338
 30
0.0
 11
237.3588587074
 21
946.3594860338
 31
0.0
  0
LINE
  5
19D
330
1F
100
AcDbEntity
  8
0
  6
Continuous
 62
     7
370
    25
100
AcDbLine
 10
237.3588587074
 20
1111.9763113343
 30
0.0
 11
239.4088587074
 21
1111.9763113343
 31
0.0
  0
LINE
  5
19E
330
1F
100
AcDbEntity
  8
0
  6
Continuous
 62
     7
370
    25
100
AcDbLine
 10
687.3588587074
 20
1112.3763113343
 30
0.0
 11
687.3588587074
 21
1111.9763113343
 31
0.0
  0
LINE
  5
19F
330
1F
100
AcDbEntity
  8
0
  6
Continuous
 62
     7
370
    25
100
AcDbLine
 10
686.5588587074
 20
1112.3763113343
 30
0.0
 11
686.5588587074
 21
1111.9763113343
 31
0.0
  0
LINE
  5
1A0
330
1F
100
AcDbEntity
  8
0
  6
Continuous
 62
     7
370
    25
100
AcDbLine
 10
237.3588587074
 20
1112.3763113343
 30
0.0
 11
237.3588587074
 21
1111.9763113343
 31
0.0
  0
LINE
  5
1A1
330
1F
100
AcDbEntity
  8
0
  6
Continuous
 62
     7
370
    25
100
AcDbLine
 10
238.1588587074
 20
1112.3763113343
 30
0.0
 11
238.1588587074
 21
1111.9763113343
 31
0.0
  0
LWPOLYLINE
  5
1A2
330
1F
100
AcDbEntity
  8
0
  6
Continuous
 62
     7
370
    25
100
AcDbPolyline
 90
        9
 70
   128
 43
0.0
 10
503.547584142
 20
1139.2714342451
 10
503.1335192328
 20
1138.978104413
 10
503.003012653
 20
1138.6676427884
 10
503.1636646259
 20
1138.3581295142
 10
503.6061193715
 20
1138.0675895051
 10
504.3046099529
 20
1137.8129427424
 10
505.218458848
 20
1137.6090189168
 10
506.2944468588
 20
1137.467693802
 10
507.4699124014
 20
1137.3971976526
  0
LINE
  5
1A3
330
1F
100
AcDbEntity
  8
0
  6
Continuous
 62
     7
370
    25
100
AcDbLine
 10
503.547584142
 20
1138.498693584
 30
0.0
 11
503.2306687873
 21
1138.2975569765
 31
0.0
  0
LWPOLYLINE
  5
1A4
330
1F
100
AcDbEntity
  8
0
  6
Continuous
 62
     7
370
    25
100
AcDbPolyline
 90
        9
 70
   128
 43
0.0
 10
423.5535536473
 20
1139.2704716668
 10
423.1405529917
 20
1138.9771839923
 10
423.0109155534
 20
1138.6668327828
 10
423.1721844615
 20
1138.3574762412
 10
423.6149760673
 20
1138.0671146943
 10
424.3135259453
 20
1137.8126432195
 10
425.2271880304
 20
1137.6088685822
 10
426.3027996645
 20
1137.4676476838
 10
427.4777749368
 20
1137.3971976526
  0
LINE
  5
1A5
330
1F
100
AcDbEntity
  8
0
  6
Continuous
 62
     7
370
    25
100
AcDbLine
 10
423.5535536473
 20
1138.4977310058
 30
0.0
 11
423.2385313226
 21
1138.2975569764
 31
0.0
  0
LWPOLYLINE
  5
1A6
330
1F
100
AcDbEntity
  8
0
  6
Continuous
 62
     7
370
    25
100
AcDbPolyline
 90
        9
 70
   128
 43
0.0
 10
256.5588587074
 20
1138.6839273069
 10
256.6423538319
 20
1138.4484190686
 10
256.8900506311
 20
1138.2207763462
 10
257.2936765149
 20
1138.0086019626
 10
257.839751166
 20
1137.8189821285
 10
258.5100367561
 20
1137.6582497766
 10
259.2821470535
 20
1137.5317730538
 10
260.1302950801
 20
1137.4437760363
 10
261.0261543458
 20
1137.3971976526
  0
LWPOLYLINE
  5
1A7
330
1F
100
AcDbEntity
  8
0
  6
Continuous
 62
     7
370
    25
100
AcDbPolyline
 90
        9
 70
   128
 43
0.0
 10
663.6915630689
 20
1137.3971976526
 10
664.5874223347
 20
1137.4437760363
 10
665.4355703612
 20
1137.5317730538
 10
666.2076806586
 20
1137.6582497766
 10
666.8779662487
 20
1137.8189821285
 10
667.4240408998
 20
1138.0086019626
 10
667.8276667837
 20
1138.2207763462
 10
668.0753635828
 20
1138.4484190686
 10
668.1588587074
 20
1138.6839273069
  0
LINE
  5
1A8
330
1F
100
AcDbEntity
  8
0
  6
Continuous
 62
     7
370
    25
100
AcDbLine
 10
491.2489095301
 20
1138.0973829471
 30
0.0
 11
501.1641637674
 21
1143.1443543266
 31
0.0
  0
LWPOLYLINE
  5
1A9
330
1F
100
AcDbEntity
  8
0
  6
Continuous
 62
     7
370
    25
100
AcDbPolyline
 90
        9
 70
   128
 43
0.0
 10
501.1641637674
 20
1143.1443543266
 10
501.5918487765
 20
1143.4544854355
 10
501.7032594402
 20
1143.782514065
 10
501.4911820135
 20
1144.1072006431
 10
500.9693483279
 20
1144.4075219926
 10
500.1715466662
 20
1144.6640325642
 10
499.1494340009
 20
1144.8601235185
 10
497.9691912495
 20
1144.9830981347
 10
496.7072381164
 20
1145.0249939119
  0
LINE
  5
1AA
330
1F
100
AcDbEntity
  8
0
  6
Continuous
 62
     7
370
    25
100
AcDbLine
 10
496.7072381164
 20
1145.0249939119
 30
0.0
 11
437.9257335356
 21
1145.0249939119
 31
0.0
  0
ARC
  5
1AB
330
1F
100
AcDbEntity
  8
0
  6
Continuous
 62
     7
370
    25
100
AcDbCircle
 10
437.4250529208
 20
1133.7877651076
 30
0.0
 40
11.24837731757938
100
AcDbArc
 50
87.448843823
 51
110.5923678587
  0
LINE
  5
1AC
330
1F
100
AcDbEntity
  8
0
  6
Continuous
 62
     7
370
    25
100
AcDbLine
 10
433.4688078846
 20
1144.3174430463
 30
0.0
 11
423.5535536473
 21
1139.2704716668
 31
0.0
  0
LINE
  5
1AD
330
1F
100
AcDbEntity
  8
0
  6
Continuous
 62
     7
370
    25
100
AcDbLine
 10
411.2320054836
 20
1138.0964203688
 30
0.0
 11
421.1677517487
 21
1143.1433917483
 31
0.0
  0
LWPOLYLINE
  5
1AE
330
1F
100
AcDbEntity
  8
0
  6
Continuous
 62
     7
370
    25
100
AcDbPolyline
 90
        9
 70
   128
 43
0.0
 10
421.1677517487
 20
1143.1433917483
 10
421.5965485344
 20
1143.4535622347
 10
421.708864309
 20
1143.7817046266
 10
421.4974208064
 20
1144.1065547013
 10
420.9759199495
 20
1144.4070615844
 10
420.1781559405
 20
1144.6637518842
 10
419.1558253353
 20
1144.8599916035
 10
417.9751770129
 20
1144.9830640521
 10
416.7127191278
 20
1145.0249939119
  0
LINE
  5
1AF
330
1F
100
AcDbEntity
  8
0
  6
Continuous
 62
     7
370
    25
100
AcDbLine
 10
416.7127191278
 20
1145.0249939119
 30
0.0
 11
261.5588587074
 21
1145.0249939119
 31
0.0
  0
LWPOLYLINE
  5
1B0
330
1F
100
AcDbEntity
  8
0
  6
Continuous
 62
     7
370
    25
100
AcDbPolyline
 90
        9
 70
   128
 43
0.0
 10
261.5588587074
 20
1145.0249939119
 10
260.5834070973
 20
1145.0001282351
 10
259.6454415455
 20
1144.9264867784
 10
258.7810075423
 20
1144.8068995419
 10
258.0233248014
 20
1144.6459621959
 10
257.4015106458
 20
1144.4498594724
 10
256.9394610448
 20
1144.2261274891
 10
256.6549323053
 20
1143.9833641407
 10
256.5588587074
 20
1143.7308986864
  0
LINE
  5
1B1
330
1F
100
AcDbEntity
  8
0
  6
Continuous
 62
     7
370
    25
100
AcDbLine
 10
256.5588587074
 20
1143.7308986864
 30
0.0
 11
256.5588587074
 21
1138.6839273069
 31
0.0
  0
LINE
  5
1B2
330
1F
100
AcDbEntity
  8
0
  6
Continuous
 62
     7
370
    25
100
AcDbLine
 10
687.3588587074
 20
1146.3190891375
 30
0.0
 11
687.3588587074
 21
1137.3971976526
 31
0.0
  0
LINE
  5
1B3
330
1F
100
AcDbEntity
  8
0
  6
Continuous
 62
     7
370
    25
100
AcDbLine
 10
668.1588587074
 20
1138.6839273069
 30
0.0
 11
668.1588587074
 21
1143.7308986864
 31
0.0
  0
LWPOLYLINE
  5
1B4
330
1F
100
AcDbEntity
  8
0
  6
Continuous
 62
     7
370
    25
100
AcDbPolyline
 90
        9
 70
   128
 43
0.0
 10
668.1588587074
 20
1143.7308986864
 10
668.0627851094
 20
1143.9833641407
 10
667.7782563699
 20
1144.2261274891
 10
667.3162067689
 20
1144.4498594724
 10
666.6943926133
 20
1144.6459621959
 10
665.9367098725
 20
1144.8068995419
 10
665.0722758692
 20
1144.9264867784
 10
664.1343103174
 20
1145.0001282351
 10
663.1588587074
 20
1145.0249939119
  0
LINE
  5
1B5
330
1F
100
AcDbEntity
  8
0
  6
Continuous
 62
     7
370
    25
100
AcDbLine
 10
663.1588587074
 20
1145.0249939119
 30
0.0
 11
517.9383630281
 21
1145.0249939119
 31
0.0
  0
ARC
  5
1B6
330
1F
100
AcDbEntity
  8
0
  6
Continuous
 62
     7
370
    25
100
AcDbCircle
 10
517.438661972
 20
1133.7778405593
 30
0.0
 40
11.25824851758813
100
AcDbArc
 50
87.4560722712
 51
110.5685284269
  0
LINE
  5
1B7
330
1F
100
AcDbEntity
  8
0
  6
Continuous
 62
     7
370
    25
100
AcDbLine
 10
513.4833304072
 20
1144.3184056246
 30
0.0
 11
503.547584142
 21
1139.2714342451
 31
0.0
  0
LINE
  5
1B8
330
1F
100
AcDbEntity
  8
0
  6
Continuous
 62
     7
370
    25
100
AcDbLine
 10
237.3588587074
 20
1146.3190891375
 30
0.0
 11
237.3588587074
 21
1137.3971976526
 31
0.0
  0
ARC
  5
1B9
330
1F
100
AcDbEntity
  8
0
  6
Continuous
 62
     7
370
    25
100
AcDbCircle
 10
487.4945567516
 20
1147.7919953126
 30
0.0
 40
10.39618553622872
100
AcDbArc
 50
269.0637737425
 51
291.1694811426
  0
ARC
  5
1BA
330
1F
100
AcDbEntity
  8
0
  6
Continuous
 62
     7
370
    25
100
AcDbCircle
 10
407.478356518
 20
1147.8018512218
 30
0.0
 40
10.40602078604245
100
AcDbArc
 50
269.0712074178
 51
291.144356201
  0
LINE
  5
1BB
330
1F
100
AcDbEntity
  8
0
  6
Continuous
 62
     7
370
    25
100
AcDbLine
 10
433.4688078846
 20
1143.5447023853
 30
0.0
 11
423.5535536473
 21
1138.4977310058
 31
0.0
  0
LINE
  5
1BC
330
1F
100
AcDbEntity
  8
0
  6
Continuous
 62
     7
370
    25
100
AcDbLine
 10
513.4833304072
 20
1143.5456649635
 30
0.0
 11
503.547584142
 21
1138.498693584
 31
0.0
  0
ARC
  5
1BD
330
1F
100
AcDbEntity
  8
0
  6
Continuous
 62
     7
370
    25
100
AcDbCircle
 10
417.3838077915
 20
1134.7831664807
 30
0.0
 40
9.492837524003326
100
AcDbArc
 50
64.4057589081
 51
94.0538613939
  0
ARC
  5
1BE
330
1F
100
AcDbEntity
  8
0
  6
Continuous
 62
     7
370
    25
100
AcDbCircle
 10
497.3780105328
 20
1134.781503956
 30
0.0
 40
9.494473542082034
100
AcDbArc
 50
64.4083718268
 51
94.0512484712
  0
LWPOLYLINE
  5
1BF
330
1F
100
AcDbEntity
  8
0
  6
Continuous
 62
     7
370
    25
100
AcDbPolyline
 90
        9
 70
   128
 43
0.0
 10
668.1588587074
 20
1142.9581580254
 10
668.0627851094
 20
1143.2106234797
 10
667.7782563699
 20
1143.4533868281
 10
667.3162067689
 20
1143.6771188114
 10
666.6943926133
 20
1143.8732215349
 10
665.9367098725
 20
1144.0341588808
 10
665.0722758692
 20
1144.1537461174
 10
664.1343103174
 20
1144.227387574
 10
663.1588587074
 20
1144.2522532509
  0
LWPOLYLINE
  5
1C0
330
1F
100
AcDbEntity
  8
0
  6
Continuous
 62
     7
370
    25
100
AcDbPolyline
 90
        9
 70
   128
 43
0.0
 10
261.5588587074
 20
1144.2522532509
 10
260.5834070973
 20
1144.227387574
 10
259.6454415455
 20
1144.1537461174
 10
258.7810075423
 20
1144.0341588808
 10
258.0233248014
 20
1143.8732215349
 10
257.4015106458
 20
1143.6771188114
 10
256.9394610448
 20
1143.4533868281
 10
256.6549323053
 20
1143.2106234797
 10
256.5588587074
 20
1142.9581580254
  0
ARC
  5
1C1
330
1F
100
AcDbEntity
  8
0
  6
Continuous
 62
     7
370
    25
100
AcDbCircle
 10
437.4250529208
 20
1133.0150244466
 30
0.0
 40
11.24837731757397
100
AcDbArc
 50
87.448843823
 51
110.5923678587
  0
ARC
  5
1C2
330
1F
100
AcDbEntity
  8
0
  6
Continuous
 62
     7
370
    25
100
AcDbCircle
 10
517.438661972
 20
1133.0050998982
 30
0.0
 40
11.25824851759198
100
AcDbArc
 50
87.4560722712
 51
110.5685284269
  0
LINE
  5
1C3
330
1F
100
AcDbEntity
  8
0
  6
Continuous
 62
     7
370
    25
100
AcDbLine
 10
496.7072381164
 20
1144.2522532509
 30
0.0
 11
437.9257335356
 21
1144.2522532509
 31
0.0
  0
LINE
  5
1C4
330
1F
100
AcDbEntity
  8
0
  6
Continuous
 62
     7
370
    25
100
AcDbLine
 10
416.7127191278
 20
1144.2522532509
 30
0.0
 11
261.5588587074
 21
1144.2522532509
 31
0.0
  0
LINE
  5
1C5
330
1F
100
AcDbEntity
  8
0
  6
Continuous
 62
     7
370
    25
100
AcDbLine
 10
663.1588587074
 20
1144.2522532509
 30
0.0
 11
517.9383630281
 21
1144.2522532509
 31
0.0
  0
LINE
  5
1C6
330
1F
100
AcDbEntity
  8
0
  6
Continuous
 62
     7
370
    25
100
AcDbLine
 10
687.3588587074
 20
1146.3889411936
 30
0.0
 11
687.3588587074
 21
1146.3190891375
 31
0.0
  0
LINE
  5
1C7
330
1F
100
AcDbEntity
  8
0
  6
Continuous
 62
     7
370
    25
100
AcDbLine
 10
237.3588587074
 20
1146.3889411936
 30
0.0
 11
237.3588587074
 21
1146.3190891375
 31
0.0
  0
LINE
  5
1C8
330
1F
100
AcDbEntity
  8
0
  6
Continuous
 62
     7
370
    25
100
AcDbLine
 10
663.3588587074
 20
988.7507914462
 30
0.0
 11
663.3588587074
 21
985.8028918329
 31
0.0
  0
LINE
  5
1C9
330
1F
100
AcDbEntity
  8
0
  6
Continuous
 62
     7
370
    25
100
AcDbLine
 10
261.3588587074
 20
988.7507914462
 30
0.0
 11
261.3588587074
 21
985.8028918329
 31
0.0
  0
LINE
  5
1CA
330
1F
100
AcDbEntity
  8
0
  6
Continuous
 62
     7
370
    25
100
AcDbLine
 10
663.3588587074
 20
1055.4752414966
 30
0.0
 11
663.3588587074
 21
988.7507914462
 31
0.0
  0
LINE
  5
1CB
330
1F
100
AcDbEntity
  8
0
  6
Continuous
 62
     7
370
    25
100
AcDbLine
 10
261.3588587074
 20
1055.4752414966
 30
0.0
 11
261.3588587074
 21
988.7507914462
 31
0.0
  0
LINE
  5
1CC
330
1F
100
AcDbEntity
  8
0
  6
Continuous
 62
     7
370
    25
100
AcDbLine
 10
663.3588587074
 20
985.8028918329
 30
0.0
 11
663.3588587074
 21
976.6340436813
 31
0.0
  0
LINE
  5
1CD
330
1F
100
AcDbEntity
  8
0
  6
Continuous
 62
     7
370
    25
100
AcDbLine
 10
261.3588587074
 20
985.8028918329
 30
0.0
 11
261.3588587074
 21
976.6340436813
 31
0.0
  0
LWPOLYLINE
  5
1CE
330
1F
100
AcDbEntity
  8
0
  6
Continuous
 62
     7
370
    25
100
AcDbPolyline
 90
       24
 70
   128
 43
0.0
 10
505.3588587074
 20
984.674178678
 10
502.6355257254
 20
984.6418313081
 10
499.9629232842
 20
984.5453917685
 10
497.3908369104
 20
984.3866565455
 10
494.9671797066
 20
984.1685825759
 10
492.7370998208
 20
983.8952321652
 10
490.7421394218
 20
983.5716973143
 10
489.0194608471
 20
983.2040048653
 10
487.6011543393
 20
982.7990042329
 10
486.513640265
 20
982.3642398125
 10
485.7771769537
 20
981.9078104427
 10
485.4054833235
 20
981.4382185391
 10
485.4054833235
 20
980.9642117103
 10
485.7771769537
 20
980.4946198067
 10
486.513640265
 20
980.0381904369
 10
487.6011543393
 20
979.6034260165
 10
489.0194608471
 20
979.1984253841
 10
490.7421394218
 20
978.8307329351
 10
492.7370998208
 20
978.5071980842
 10
494.9671797066
 20
978.2338476734
 10
497.3908369104
 20
978.0157737039
 10
499.9629232842
 20
977.8570384809
 10
502.6355257254
 20
977.7605989413
 10
505.3588587074
 20
977.7282515714
  0
LINE
  5
1CF
330
1F
100
AcDbEntity
  8
0
  6
Continuous
 62
     7
370
    25
100
AcDbLine
 10
505.3588587074
 20
977.7282515714
 30
0.0
 11
546.8588587074
 21
977.7282515714
 31
0.0
  0
LINE
  5
1D0
330
1F
100
AcDbEntity
  8
0
  6
Continuous
 62
     7
370
    25
100
AcDbLine
 10
551.8588587074
 20
977.7282515714
 30
0.0
 11
554.7588587074
 21
977.7282515714
 31
0.0
  0
LINE
  5
1D1
330
1F
100
AcDbEntity
  8
0
  6
Continuous
 62
     7
370
    25
100
AcDbLine
 10
559.7588587074
 20
977.7282515714
 30
0.0
 11
561.9588587074
 21
977.7282515714
 31
0.0
  0
LINE
  5
1D2
330
1F
100
AcDbEntity
  8
0
  6
Continuous
 62
     7
370
    25
100
AcDbLine
 10
566.9588587074
 20
977.7282515714
 30
0.0
 11
569.8588587074
 21
977.7282515714
 31
0.0
  0
LINE
  5
1D3
330
1F
100
AcDbEntity
  8
0
  6
Continuous
 62
     7
370
    25
100
AcDbLine
 10
574.8588587074
 20
977.7282515714
 30
0.0
 11
615.3588587074
 21
977.7282515714
 31
0.0
  0
LWPOLYLINE
  5
1D4
330
1F
100
AcDbEntity
  8
0
  6
Continuous
 62
     7
370
    25
100
AcDbPolyline
 90
       24
 70
   128
 43
0.0
 10
615.3588587074
 20
977.7282515714
 10
618.0821916893
 20
977.7605989413
 10
620.7547941305
 20
977.8570384809
 10
623.3268805043
 20
978.0157737039
 10
625.7505377081
 20
978.2338476734
 10
627.9806175939
 20
978.5071980842
 10
629.9755779929
 20
978.8307329351
 10
631.6982565676
 20
979.1984253841
 10
633.1165630754
 20
979.6034260165
 10
634.2040771497
 20
980.0381904369
 10
634.940540461
 20
980.4946198067
 10
635.3122340912
 20
980.9642117103
 10
635.3122340912
 20
981.4382185391
 10
634.940540461
 20
981.9078104427
 10
634.2040771497
 20
982.3642398125
 10
633.1165630754
 20
982.7990042329
 10
631.6982565676
 20
983.2040048653
 10
629.9755779929
 20
983.5716973143
 10
627.9806175939
 20
983.8952321652
 10
625.7505377081
 20
984.1685825759
 10
623.3268805043
 20
984.3866565455
 10
620.7547941305
 20
984.5453917685
 10
618.0821916893
 20
984.6418313081
 10
615.3588587074
 20
984.674178678
  0
LINE
  5
1D5
330
1F
100
AcDbEntity
  8
0
  6
Continuous
 62
     7
370
    25
100
AcDbLine
 10
615.3588587074
 20
984.674178678
 30
0.0
 11
574.8588587074
 21
984.674178678
 31
0.0
  0
LINE
  5
1D6
330
1F
100
AcDbEntity
  8
0
  6
Continuous
 62
     7
370
    25
100
AcDbLine
 10
569.8588587074
 20
984.674178678
 30
0.0
 11
566.9588587074
 21
984.674178678
 31
0.0
  0
LINE
  5
1D7
330
1F
100
AcDbEntity
  8
0
  6
Continuous
 62
     7
370
    25
100
AcDbLine
 10
561.9588587074
 20
984.674178678
 30
0.0
 11
559.7588587074
 21
984.674178678
 31
0.0
  0
LINE
  5
1D8
330
1F
100
AcDbEntity
  8
0
  6
Continuous
 62
     7
370
    25
100
AcDbLine
 10
554.7588587074
 20
984.674178678
 30
0.0
 11
551.8588587074
 21
984.674178678
 31
0.0
  0
LINE
  5
1D9
330
1F
100
AcDbEntity
  8
0
  6
Continuous
 62
     7
370
    25
100
AcDbLine
 10
546.8588587074
 20
984.674178678
 30
0.0
 11
505.3588587074
 21
984.674178678
 31
0.0
  0
LWPOLYLINE
  5
1DA
330
1F
100
AcDbEntity
  8
0
  6
Continuous
 62
     7
370
    25
100
AcDbPolyline
 90
       24
 70
   128
 43
0.0
 10
309.3588587074
 20
984.674178678
 10
306.6355257254
 20
984.6418313081
 10
303.9629232842
 20
984.5453917685
 10
301.3908369104
 20
984.3866565455
 10
298.9671797066
 20
984.1685825759
 10
296.7370998208
 20
983.8952321652
 10
294.7421394218
 20
983.5716973143
 10
293.0194608471
 20
983.2040048653
 10
291.6011543393
 20
982.7990042329
 10
290.513640265
 20
982.3642398125
 10
289.7771769537
 20
981.9078104427
 10
289.4054833235
 20
981.4382185391
 10
289.4054833235
 20
980.9642117103
 10
289.7771769537
 20
980.4946198066
 10
290.513640265
 20
980.0381904369
 10
291.6011543393
 20
979.6034260165
 10
293.0194608471
 20
979.1984253841
 10
294.7421394218
 20
978.8307329351
 10
296.7370998208
 20
978.5071980842
 10
298.9671797066
 20
978.2338476734
 10
301.3908369104
 20
978.0157737039
 10
303.9629232842
 20
977.8570384809
 10
306.6355257254
 20
977.7605989413
 10
309.3588587074
 20
977.7282515714
  0
LINE
  5
1DB
330
1F
100
AcDbEntity
  8
0
  6
Continuous
 62
     7
370
    25
100
AcDbLine
 10
309.3588587074
 20
977.7282515714
 30
0.0
 11
349.8588587073
 21
977.7282515714
 31
0.0
  0
LINE
  5
1DC
330
1F
100
AcDbEntity
  8
0
  6
Continuous
 62
     7
370
    25
100
AcDbLine
 10
354.8588587073
 20
977.7282515714
 30
0.0
 11
357.7588587074
 21
977.7282515714
 31
0.0
  0
LINE
  5
1DD
330
1F
100
AcDbEntity
  8
0
  6
Continuous
 62
     7
370
    25
100
AcDbLine
 10
362.7588587074
 20
977.7282515714
 30
0.0
 11
364.9588587074
 21
977.7282515714
 31
0.0
  0
LINE
  5
1DE
330
1F
100
AcDbEntity
  8
0
  6
Continuous
 62
     7
370
    25
100
AcDbLine
 10
369.9588587074
 20
977.7282515714
 30
0.0
 11
372.8588587073
 21
977.7282515714
 31
0.0
  0
LINE
  5
1DF
330
1F
100
AcDbEntity
  8
0
  6
Continuous
 62
     7
370
    25
100
AcDbLine
 10
377.8588587073
 20
977.7282515714
 30
0.0
 11
419.3588587074
 21
977.7282515714
 31
0.0
  0
LWPOLYLINE
  5
1E0
330
1F
100
AcDbEntity
  8
0
  6
Continuous
 62
     7
370
    25
100
AcDbPolyline
 90
       24
 70
   128
 43
0.0
 10
419.3588587074
 20
977.7282515714
 10
422.0821916893
 20
977.7605989413
 10
424.7547941305
 20
977.8570384809
 10
427.3268805043
 20
978.0157737039
 10
429.7505377081
 20
978.2338476734
 10
431.9806175939
 20
978.5071980842
 10
433.9755779929
 20
978.8307329351
 10
435.6982565676
 20
979.1984253841
 10
437.1165630754
 20
979.6034260165
 10
438.2040771497
 20
980.0381904369
 10
438.940540461
 20
980.4946198066
 10
439.3122340912
 20
980.9642117103
 10
439.3122340912
 20
981.4382185391
 10
438.940540461
 20
981.9078104427
 10
438.2040771497
 20
982.3642398125
 10
437.1165630754
 20
982.7990042329
 10
435.6982565676
 20
983.2040048653
 10
433.9755779929
 20
983.5716973143
 10
431.9806175939
 20
983.8952321652
 10
429.7505377081
 20
984.1685825759
 10
427.3268805043
 20
984.3866565455
 10
424.7547941305
 20
984.5453917685
 10
422.0821916893
 20
984.6418313081
 10
419.3588587074
 20
984.674178678
  0
LINE
  5
1E1
330
1F
100
AcDbEntity
  8
0
  6
Continuous
 62
     7
370
    25
100
AcDbLine
 10
419.3588587074
 20
984.674178678
 30
0.0
 11
377.8588587073
 21
984.674178678
 31
0.0
  0
LINE
  5
1E2
330
1F
100
AcDbEntity
  8
0
  6
Continuous
 62
     7
370
    25
100
AcDbLine
 10
372.8588587073
 20
984.674178678
 30
0.0
 11
369.9588587074
 21
984.674178678
 31
0.0
  0
LINE
  5
1E3
330
1F
100
AcDbEntity
  8
0
  6
Continuous
 62
     7
370
    25
100
AcDbLine
 10
364.9588587074
 20
984.674178678
 30
0.0
 11
362.7588587074
 21
984.674178678
 31
0.0
  0
LINE
  5
1E4
330
1F
100
AcDbEntity
  8
0
  6
Continuous
 62
     7
370
    25
100
AcDbLine
 10
357.7588587074
 20
984.674178678
 30
0.0
 11
354.8588587073
 21
984.674178678
 31
0.0
  0
LINE
  5
1E5
330
1F
100
AcDbEntity
  8
0
  6
Continuous
 62
     7
370
    25
100
AcDbLine
 10
349.8588587073
 20
984.674178678
 30
0.0
 11
309.3588587074
 21
984.674178678
 31
0.0
  0
LINE
  5
1E6
330
1F
100
AcDbEntity
  8
0
  6
Continuous
 62
     7
370
    25
100
AcDbLine
 10
663.3588587074
 20
1057.8918592263
 30
0.0
 11
663.3588587074
 21
1055.4752414966
 31
0.0
  0
LINE
  5
1E7
330
1F
100
AcDbEntity
  8
0
  6
Continuous
 62
     7
370
    25
100
AcDbLine
 10
261.3588587074
 20
1057.8918592263
 30
0.0
 11
261.3588587074
 21
1055.4752414966
 31
0.0
  0
LINE
  5
1E8
330
1F
100
AcDbEntity
  8
0
  6
Continuous
 62
     7
370
    25
100
AcDbLine
 10
640.8588587074
 20
1069.1259497196
 30
0.0
 11
639.8588587074
 21
1069.1259497196
 31
0.0
  0
ARC
  5
1E9
330
1F
100
AcDbEntity
  8
0
  6
Continuous
 62
     7
370
    25
100
AcDbCircle
 10
639.5089789441
 20
1067.3858895544
 30
0.0
 40
1.774887384351752
100
AcDbArc
 50
78.6309454912
 51
130.3906919069
  0
LINE
  5
1EA
330
1F
100
AcDbEntity
  8
0
  6
Continuous
 62
     7
370
    25
100
AcDbLine
 10
638.3588587074
 20
1068.7377211519
 30
0.0
 11
638.3588587074
 21
1066.408349746
 31
0.0
  0
ARC
  5
1EB
330
1F
100
AcDbEntity
  8
0
  6
Continuous
 62
     7
370
    25
100
AcDbCircle
 10
639.5089789441
 20
1067.7601813435
 30
0.0
 40
1.774887384353
100
AcDbArc
 50
229.6093080931
 51
281.3690545088
  0
LINE
  5
1EC
330
1F
100
AcDbEntity
  8
0
  6
Continuous
 62
     7
370
    25
100
AcDbLine
 10
639.8588587074
 20
1066.0201211784
 30
0.0
 11
658.8588587074
 21
1066.0201211784
 31
0.0
  0
ARC
  5
1ED
330
1F
100
AcDbEntity
  8
0
  6
Continuous
 62
     7
370
    25
100
AcDbCircle
 10
659.2087384706
 20
1067.7601813435
 30
0.0
 40
1.774887384352331
100
AcDbArc
 50
258.6309454912
 51
310.3906919069
  0
LINE
  5
1EE
330
1F
100
AcDbEntity
  8
0
  6
Continuous
 62
     7
370
    25
100
AcDbLine
 10
660.3588587074
 20
1066.408349746
 30
0.0
 11
660.3588587074
 21
1068.7377211519
 31
0.0
  0
ARC
  5
1EF
330
1F
100
AcDbEntity
  8
0
  6
Continuous
 62
     7
370
    25
100
AcDbCircle
 10
659.2087384706
 20
1067.3858895544
 30
0.0
 40
1.774887384352331
100
AcDbArc
 50
49.6093080931
 51
101.3690545088
  0
LINE
  5
1F0
330
1F
100
AcDbEntity
  8
0
  6
Continuous
 62
     7
370
    25
100
AcDbLine
 10
658.8588587074
 20
1069.1259497196
 30
0.0
 11
657.8588587074
 21
1069.1259497196
 31
0.0
  0
ARC
  5
1F1
330
1F
100
AcDbEntity
  8
0
  6
Continuous
 62
     7
370
    25
100
AcDbCircle
 10
657.5089789441
 20
1070.8660098848
 30
0.0
 40
1.774887384350414
100
AcDbArc
 50
229.6093080931
 51
281.3690545088
  0
LINE
  5
1F2
330
1F
100
AcDbEntity
  8
0
  6
Continuous
 62
     7
370
    25
100
AcDbLine
 10
656.3588587074
 20
1069.5141782872
 30
0.0
 11
656.3588587074
 21
1070.3520787509
 31
0.0
  0
LINE
  5
1F3
330
1F
100
AcDbEntity
  8
0
  6
Continuous
 62
     7
370
    25
100
AcDbLine
 10
663.3588587074
 20
1070.3520787509
 30
0.0
 11
663.3588587074
 21
1057.8918592263
 31
0.0
  0
LINE
  5
1F4
330
1F
100
AcDbEntity
  8
0
  6
Continuous
 62
     7
370
    25
100
AcDbLine
 10
261.3588587074
 20
1070.3520787509
 30
0.0
 11
261.3588587074
 21
1057.8918592263
 31
0.0
  0
LINE
  5
1F5
330
1F
100
AcDbEntity
  8
0
  6
Continuous
 62
     7
370
    25
100
AcDbLine
 10
268.3588587074
 20
1070.3520787509
 30
0.0
 11
268.3588587074
 21
1069.5141782872
 31
0.0
  0
ARC
  5
1F6
330
1F
100
AcDbEntity
  8
0
  6
Continuous
 62
     7
370
    25
100
AcDbCircle
 10
267.2087384706
 20
1070.8660098848
 30
0.0
 40
1.77488738435402
100
AcDbArc
 50
258.6309454913
 51
310.3906919069
  0
LINE
  5
1F7
330
1F
100
AcDbEntity
  8
0
  6
Continuous
 62
     7
370
    25
100
AcDbLine
 10
266.8588587074
 20
1069.1259497196
 30
0.0
 11
265.8588587074
 21
1069.1259497196
 31
0.0
  0
ARC
  5
1F8
330
1F
100
AcDbEntity
  8
0
  6
Continuous
 62
     7
370
    25
100
AcDbCircle
 10
265.5089789441
 20
1067.3858895544
 30
0.0
 40
1.774887384350476
100
AcDbArc
 50
78.6309454912
 51
130.3906919069
  0
LINE
  5
1F9
330
1F
100
AcDbEntity
  8
0
  6
Continuous
 62
     7
370
    25
100
AcDbLine
 10
264.3588587074
 20
1068.7377211519
 30
0.0
 11
264.3588587074
 21
1066.408349746
 31
0.0
  0
ARC
  5
1FA
330
1F
100
AcDbEntity
  8
0
  6
Continuous
 62
     7
370
    25
100
AcDbCircle
 10
265.5089789441
 20
1067.7601813435
 30
0.0
 40
1.774887384352229
100
AcDbArc
 50
229.6093080931
 51
281.3690545088
  0
LINE
  5
1FB
330
1F
100
AcDbEntity
  8
0
  6
Continuous
 62
     7
370
    25
100
AcDbLine
 10
265.8588587074
 20
1066.0201211784
 30
0.0
 11
284.8588587074
 21
1066.0201211784
 31
0.0
  0
ARC
  5
1FC
330
1F
100
AcDbEntity
  8
0
  6
Continuous
 62
     7
370
    25
100
AcDbCircle
 10
285.2087384706
 20
1067.7601813435
 30
0.0
 40
1.774887384352193
100
AcDbArc
 50
258.6309454912
 51
310.3906919069
  0
LINE
  5
1FD
330
1F
100
AcDbEntity
  8
0
  6
Continuous
 62
     7
370
    25
100
AcDbLine
 10
286.3588587074
 20
1066.408349746
 30
0.0
 11
286.3588587074
 21
1068.7377211519
 31
0.0
  0
ARC
  5
1FE
330
1F
100
AcDbEntity
  8
0
  6
Continuous
 62
     7
370
    25
100
AcDbCircle
 10
285.2087384706
 20
1067.3858895544
 30
0.0
 40
1.774887384349636
100
AcDbArc
 50
49.609308093
 51
101.3690545088
  0
LINE
  5
1FF
330
1F
100
AcDbEntity
  8
0
  6
Continuous
 62
     7
370
    25
100
AcDbLine
 10
284.8588587074
 20
1069.1259497196
 30
0.0
 11
283.8588587074
 21
1069.1259497196
 31
0.0
  0
ARC
  5
200
330
1F
100
AcDbEntity
  8
0
  6
Continuous
 62
     7
370
    25
100
AcDbCircle
 10
283.5089789441
 20
1070.8660098848
 30
0.0
 40
1.774887384354426
100
AcDbArc
 50
229.6093080931
 51
281.3690545087
  0
LINE
  5
201
330
1F
100
AcDbEntity
  8
0
  6
Continuous
 62
     7
370
    25
100
AcDbLine
 10
282.3588587074
 20
1069.5141782872
 30
0.0
 11
282.3588587074
 21
1070.3520787509
 31
0.0
  0
LINE
  5
202
330
1F
100
AcDbEntity
  8
0
  6
Continuous
 62
     7
370
    25
100
AcDbLine
 10
642.3588587074
 20
1069.5141782872
 30
0.0
 11
642.3588587074
 21
1070.3520787509
 31
0.0
  0
ARC
  5
203
330
1F
100
AcDbEntity
  8
0
  6
Continuous
 62
     7
370
    25
100
AcDbCircle
 10
641.2087384706
 20
1070.8660098848
 30
0.0
 40
1.774887384349363
100
AcDbArc
 50
258.6309454912
 51
310.390691907
  0
LWPOLYLINE
  5
204
330
1F
100
AcDbEntity
  8
0
  6
Continuous
 62
     7
370
    25
100
AcDbPolyline
 90
       16
 70
   128
 43
0.0
 10
494.3588587074
 20
1064.3623353539
 10
492.48765349
 20
1064.3114329999
 10
490.6982289197
 20
1064.160950615
 10
489.0687914367
 20
1063.9174650015
 10
487.6705552781
 20
1063.5916176492
 10
486.5646300733
 20
1063.1976496509
 10
485.7993500607
 20
1062.7527792986
 10
485.408161649
 20
1062.2764495614
 10
485.408161649
 20
1061.7894783345
 10
485.7993500607
 20
1061.3131485973
 10
486.5646300733
 20
1060.868278245
 10
487.6705552781
 20
1060.4743102467
 10
489.0687914367
 20
1060.1484628943
 10
490.6982289197
 20
1059.9049772809
 10
492.48765349
 20
1059.754494896
 10
494.3588587074
 20
1059.703592542
  0
LINE
  5
205
330
1F
100
AcDbEntity
  8
0
  6
Continuous
 62
     7
370
    25
100
AcDbLine
 10
494.3588587074
 20
1059.703592542
 30
0.0
 11
537.4532999016
 21
1059.703592542
 31
0.0
  0
LINE
  5
206
330
1F
100
AcDbEntity
  8
0
  6
Continuous
 62
     7
370
    25
100
AcDbLine
 10
545.6944996483
 20
1059.703592542
 30
0.0
 11
576.0597185719
 21
1059.703592542
 31
0.0
  0
LINE
  5
207
330
1F
100
AcDbEntity
  8
0
  6
Continuous
 62
     7
370
    25
100
AcDbLine
 10
584.2444217005
 20
1059.703592542
 30
0.0
 11
626.3588587074
 21
1059.703592542
 31
0.0
  0
LWPOLYLINE
  5
208
330
1F
100
AcDbEntity
  8
0
  6
Continuous
 62
     7
370
    25
100
AcDbPolyline
 90
       16
 70
   128
 43
0.0
 10
626.3588587074
 20
1059.703592542
 10
628.2300639247
 20
1059.754494896
 10
630.019488495
 20
1059.9049772809
 10
631.648925978
 20
1060.1484628943
 10
633.0471621366
 20
1060.4743102467
 10
634.1530873414
 20
1060.868278245
 10
634.918367354
 20
1061.3131485973
 10
635.3095557657
 20
1061.7894783345
 10
635.3095557657
 20
1062.2764495614
 10
634.918367354
 20
1062.7527792986
 10
634.1530873414
 20
1063.1976496509
 10
633.0471621366
 20
1063.5916176492
 10
631.648925978
 20
1063.9174650015
 10
630.019488495
 20
1064.160950615
 10
628.2300639247
 20
1064.3114329999
 10
626.3588587074
 20
1064.3623353539
  0
LINE
  5
209
330
1F
100
AcDbEntity
  8
0
  6
Continuous
 62
     7
370
    25
100
AcDbLine
 10
626.3588587074
 20
1064.3623353539
 30
0.0
 11
577.8914681092
 21
1064.3623353539
 31
0.0
  0
LINE
  5
20A
330
1F
100
AcDbEntity
  8
0
  6
Continuous
 62
     7
370
    25
100
AcDbLine
 10
543.8572359649
 20
1064.3623353539
 30
0.0
 11
494.3588587074
 21
1064.3623353539
 31
0.0
  0
LWPOLYLINE
  5
20B
330
1F
100
AcDbEntity
  8
0
  6
Continuous
 62
     7
370
    25
100
AcDbPolyline
 90
       16
 70
   128
 43
0.0
 10
298.3588587074
 20
1064.3623353539
 10
296.48765349
 20
1064.3114329999
 10
294.6982289197
 20
1064.160950615
 10
293.0687914367
 20
1063.9174650015
 10
291.6705552781
 20
1063.5916176492
 10
290.5646300733
 20
1063.1976496509
 10
289.7993500607
 20
1062.7527792986
 10
289.408161649
 20
1062.2764495614
 10
289.408161649
 20
1061.7894783345
 10
289.7993500607
 20
1061.3131485973
 10
290.5646300733
 20
1060.868278245
 10
291.6705552781
 20
1060.4743102467
 10
293.0687914367
 20
1060.1484628943
 10
294.6982289197
 20
1059.9049772809
 10
296.48765349
 20
1059.754494896
 10
298.3588587074
 20
1059.703592542
  0
LINE
  5
20C
330
1F
100
AcDbEntity
  8
0
  6
Continuous
 62
     7
370
    25
100
AcDbLine
 10
298.3588587074
 20
1059.703592542
 30
0.0
 11
340.1885754707
 21
1059.703592542
 31
0.0
  0
LINE
  5
20D
330
1F
100
AcDbEntity
  8
0
  6
Continuous
 62
     7
370
    25
100
AcDbLine
 10
347.877171557
 20
1059.703592542
 30
0.0
 11
379.8106015671
 21
1059.703592542
 31
0.0
  0
LINE
  5
20E
330
1F
100
AcDbEntity
  8
0
  6
Continuous
 62
     7
370
    25
100
AcDbLine
 10
387.5565134176
 20
1059.703592542
 30
0.0
 11
430.3588587074
 21
1059.703592542
 31
0.0
  0
LWPOLYLINE
  5
20F
330
1F
100
AcDbEntity
  8
0
  6
Continuous
 62
     7
370
    25
100
AcDbPolyline
 90
       16
 70
   128
 43
0.0
 10
430.3588587074
 20
1059.703592542
 10
432.2300639247
 20
1059.754494896
 10
434.019488495
 20
1059.9049772809
 10
435.648925978
 20
1060.1484628943
 10
437.0471621367
 20
1060.4743102467
 10
438.1530873414
 20
1060.868278245
 10
438.918367354
 20
1061.3131485973
 10
439.3095557657
 20
1061.7894783345
 10
439.3095557657
 20
1062.2764495614
 10
438.918367354
 20
1062.7527792986
 10
438.1530873414
 20
1063.1976496509
 10
437.0471621367
 20
1063.5916176492
 10
435.648925978
 20
1063.9174650015
 10
434.019488495
 20
1064.160950615
 10
432.2300639247
 20
1064.3114329999
 10
430.3588587074
 20
1064.3623353539
  0
LINE
  5
210
330
1F
100
AcDbEntity
  8
0
  6
Continuous
 62
     7
370
    25
100
AcDbLine
 10
430.3588587074
 20
1064.3623353539
 30
0.0
 11
381.6821912356
 21
1064.3623353539
 31
0.0
  0
LINE
  5
211
330
1F
100
AcDbEntity
  8
0
  6
Continuous
 62
     7
370
    25
100
AcDbLine
 10
346.0380657292
 20
1064.3623353539
 30
0.0
 11
298.3588587074
 21
1064.3623353539
 31
0.0
  0
LWPOLYLINE
  5
212
330
1F
100
AcDbEntity
  8
0
  6
Continuous
 62
     7
370
    25
100
AcDbPolyline
 90
       11
 70
   128
 43
0.0
 10
485.8163904287
 20
981.9398209395
 10
486.513640265
 20
981.5154020664
 10
487.6011543393
 20
981.080637646
 10
489.0194608471
 20
980.6756370136
 10
490.7421394218
 20
980.3079445646
 10
492.7370998208
 20
979.9844097137
 10
494.9671797066
 20
979.711059303
 10
497.3908369104
 20
979.4929853334
 10
499.9629232842
 20
979.3342501104
 10
502.6355257254
 20
979.2378105708
 10
505.3588587074
 20
979.2054632009
  0
LWPOLYLINE
  5
213
330
1F
100
AcDbEntity
  8
0
  6
Continuous
 62
     7
370
    25
100
AcDbPolyline
 90
       11
 70
   128
 43
0.0
 10
615.3588587074
 20
979.2054632009
 10
618.0821916893
 20
979.2378105708
 10
620.7547941305
 20
979.3342501104
 10
623.3268805043
 20
979.4929853334
 10
625.7505377081
 20
979.711059303
 10
627.9806175939
 20
979.9844097137
 10
629.9755779929
 20
980.3079445646
 10
631.6982565676
 20
980.6756370136
 10
633.1165630754
 20
981.080637646
 10
634.2040771497
 20
981.5154020664
 10
634.9013269859
 20
981.9398209395
  0
LWPOLYLINE
  5
214
330
1F
100
AcDbEntity
  8
0
  6
Continuous
 62
     7
370
    25
100
AcDbPolyline
 90
       11
 70
   128
 43
0.0
 10
289.8163904288
 20
981.9398209395
 10
290.513640265
 20
981.5154020664
 10
291.6011543393
 20
981.080637646
 10
293.0194608471
 20
980.6756370136
 10
294.7421394218
 20
980.3079445646
 10
296.7370998208
 20
979.9844097137
 10
298.9671797066
 20
979.711059303
 10
301.3908369104
 20
979.4929853334
 10
303.9629232842
 20
979.3342501104
 10
306.6355257254
 20
979.2378105708
 10
309.3588587074
 20
979.2054632009
  0
LWPOLYLINE
  5
215
330
1F
100
AcDbEntity
  8
0
  6
Continuous
 62
     7
370
    25
100
AcDbPolyline
 90
       11
 70
   128
 43
0.0
 10
419.3588587074
 20
979.2054632009
 10
422.0821916893
 20
979.2378105708
 10
424.7547941305
 20
979.3342501104
 10
427.3268805043
 20
979.4929853334
 10
429.7505377081
 20
979.711059303
 10
431.9806175939
 20
979.9844097137
 10
433.9755779929
 20
980.3079445646
 10
435.6982565676
 20
980.6756370136
 10
437.1165630754
 20
981.080637646
 10
438.2040771497
 20
981.5154020664
 10
438.9013269859
 20
981.9398209394
  0
ARC
  5
216
330
1F
100
AcDbEntity
  8
0
  6
Continuous
 62
     7
370
    25
100
AcDbCircle
 10
493.083613792
 20
1046.1135829041
 30
0.0
 40
16.84819486708879
100
AcDbArc
 50
85.6591137028
 51
115.5945961577
  0
ARC
  5
217
330
1F
100
AcDbEntity
  8
0
  6
Continuous
 62
     7
370
    25
100
AcDbCircle
 10
297.083613792
 20
1046.1135829039
 30
0.0
 40
16.84819486733491
100
AcDbArc
 50
85.6591137029
 51
115.5945961572
  0
ARC
  5
218
330
1F
100
AcDbEntity
  8
0
  6
Continuous
 62
     7
370
    25
100
AcDbCircle
 10
431.6341036227
 20
1046.1135829038
 30
0.0
 40
16.84819486742169
100
AcDbArc
 50
64.405403843
 51
94.3408862971
  0
ARC
  5
219
330
1F
100
AcDbEntity
  8
0
  6
Continuous
 62
     7
370
    25
100
AcDbCircle
 10
627.6341036227
 20
1046.1135829039
 30
0.0
 40
16.84819486731262
100
AcDbArc
 50
64.4054038428
 51
94.3408862971
  0
LINE
  5
21A
330
1F
100
AcDbEntity
  8
0
  6
Continuous
 62
     7
370
    25
100
AcDbLine
 10
430.3588587074
 20
1062.9134466144
 30
0.0
 11
384.1408851331
 21
1062.9134466144
 31
0.0
  0
LINE
  5
21B
330
1F
100
AcDbEntity
  8
0
  6
Continuous
 62
     7
370
    25
100
AcDbLine
 10
343.5332616729
 20
1062.9134466144
 30
0.0
 11
298.3588587074
 21
1062.9134466144
 31
0.0
  0
LINE
  5
21C
330
1F
100
AcDbEntity
  8
0
  6
Continuous
 62
     7
370
    25
100
AcDbLine
 10
626.3588587074
 20
1062.9134466144
 30
0.0
 11
580.5494986165
 21
1062.9134466144
 31
0.0
  0
LINE
  5
21D
330
1F
100
AcDbEntity
  8
0
  6
Continuous
 62
     7
370
    25
100
AcDbLine
 10
541.1784307744
 20
1062.9134466144
 30
0.0
 11
494.3588587074
 21
1062.9134466144
 31
0.0
  0
LINE
  5
21E
330
1F
100
AcDbEntity
  8
0
  6
Continuous
 62
     7
370
    25
100
AcDbLine
 10
309.3588587074
 20
979.2054632009
 30
0.0
 11
349.8588587073
 21
979.2054632009
 31
0.0
  0
LINE
  5
21F
330
1F
100
AcDbEntity
  8
0
  6
Continuous
 62
     7
370
    25
100
AcDbLine
 10
354.8588587073
 20
979.2054632009
 30
0.0
 11
357.7588587074
 21
979.2054632009
 31
0.0
  0
LINE
  5
220
330
1F
100
AcDbEntity
  8
0
  6
Continuous
 62
     7
370
    25
100
AcDbLine
 10
362.7588587074
 20
979.2054632009
 30
0.0
 11
364.9588587074
 21
979.2054632009
 31
0.0
  0
LINE
  5
221
330
1F
100
AcDbEntity
  8
0
  6
Continuous
 62
     7
370
    25
100
AcDbLine
 10
369.9588587074
 20
979.2054632009
 30
0.0
 11
372.8588587073
 21
979.2054632009
 31
0.0
  0
LINE
  5
222
330
1F
100
AcDbEntity
  8
0
  6
Continuous
 62
     7
370
    25
100
AcDbLine
 10
377.8588587073
 20
979.2054632009
 30
0.0
 11
419.3588587074
 21
979.2054632009
 31
0.0
  0
LINE
  5
223
330
1F
100
AcDbEntity
  8
0
  6
Continuous
 62
     7
370
    25
100
AcDbLine
 10
505.3588587074
 20
979.2054632009
 30
0.0
 11
546.8588587074
 21
979.2054632009
 31
0.0
  0
LINE
  5
224
330
1F
100
AcDbEntity
  8
0
  6
Continuous
 62
     7
370
    25
100
AcDbLine
 10
551.8588587074
 20
979.2054632009
 30
0.0
 11
554.7588587074
 21
979.2054632009
 31
0.0
  0
LINE
  5
225
330
1F
100
AcDbEntity
  8
0
  6
Continuous
 62
     7
370
    25
100
AcDbLine
 10
559.7588587074
 20
979.2054632009
 30
0.0
 11
561.9588587074
 21
979.2054632009
 31
0.0
  0
LINE
  5
226
330
1F
100
AcDbEntity
  8
0
  6
Continuous
 62
     7
370
    25
100
AcDbLine
 10
566.9588587074
 20
979.2054632009
 30
0.0
 11
569.8588587074
 21
979.2054632009
 31
0.0
  0
LINE
  5
227
330
1F
100
AcDbEntity
  8
0
  6
Continuous
 62
     7
370
    25
100
AcDbLine
 10
574.8588587074
 20
979.2054632009
 30
0.0
 11
615.3588587074
 21
979.2054632009
 31
0.0
  0
ARC
  5
228
330
1F
100
AcDbEntity
  8
0
  6
Continuous
 62
     7
370
    25
100
AcDbCircle
 10
265.5089789441
 20
1065.937000815
 30
0.0
 40
1.774887384351718
100
AcDbArc
 50
78.6309454912
 51
130.3906919069
  0
ARC
  5
229
330
1F
100
AcDbEntity
  8
0
  6
Continuous
 62
     7
370
    25
100
AcDbCircle
 10
285.2087384706
 20
1065.937000815
 30
0.0
 40
1.774887384350896
100
AcDbArc
 50
49.6093080931
 51
101.3690545088
  0
ARC
  5
22A
330
1F
100
AcDbEntity
  8
0
  6
Continuous
 62
     7
370
    25
100
AcDbCircle
 10
639.5089789441
 20
1065.937000815
 30
0.0
 40
1.774887384352554
100
AcDbArc
 50
78.6309454912
 51
130.3906919069
  0
ARC
  5
22B
330
1F
100
AcDbEntity
  8
0
  6
Continuous
 62
     7
370
    25
100
AcDbCircle
 10
659.2087384706
 20
1065.937000815
 30
0.0
 40
1.77488738435339
100
AcDbArc
 50
49.6093080931
 51
101.3690545088
  0
LINE
  5
22C
330
1F
100
AcDbEntity
  8
0
  6
Continuous
 62
     7
370
    25
100
AcDbLine
 10
282.3588587074
 20
1068.0652895478
 30
0.0
 11
282.3588587074
 21
1069.5141782872
 31
0.0
  0
ARC
  5
22D
330
1F
100
AcDbEntity
  8
0
  6
Continuous
 62
     7
370
    25
100
AcDbCircle
 10
283.5089789441
 20
1069.4171211453
 30
0.0
 40
1.774887384350192
100
AcDbArc
 50
229.609308093
 51
281.3690545088
  0
LINE
  5
22E
330
1F
100
AcDbEntity
  8
0
  6
Continuous
 62
     7
370
    25
100
AcDbLine
 10
284.8588587074
 20
1067.6770609802
 30
0.0
 11
283.8588587074
 21
1067.6770609802
 31
0.0
  0
LINE
  5
22F
330
1F
100
AcDbEntity
  8
0
  6
Continuous
 62
     7
370
    25
100
AcDbLine
 10
266.8588587074
 20
1067.6770609802
 30
0.0
 11
265.8588587074
 21
1067.6770609802
 31
0.0
  0
LINE
  5
230
330
1F
100
AcDbEntity
  8
0
  6
Continuous
 62
     7
370
    25
100
AcDbLine
 10
268.3588587074
 20
1068.0652895478
 30
0.0
 11
268.3588587074
 21
1069.5141782872
 31
0.0
  0
ARC
  5
231
330
1F
100
AcDbEntity
  8
0
  6
Continuous
 62
     7
370
    25
100
AcDbCircle
 10
267.2087384706
 20
1069.4171211453
 30
0.0
 40
1.774887384349356
100
AcDbArc
 50
258.6309454912
 51
310.390691907
  0
LINE
  5
232
330
1F
100
AcDbEntity
  8
0
  6
Continuous
 62
     7
370
    25
100
AcDbLine
 10
656.3588587074
 20
1068.0652895478
 30
0.0
 11
656.3588587074
 21
1069.5141782872
 31
0.0
  0
ARC
  5
233
330
1F
100
AcDbEntity
  8
0
  6
Continuous
 62
     7
370
    25
100
AcDbCircle
 10
657.5089789441
 20
1069.4171211453
 30
0.0
 40
1.774887384350896
100
AcDbArc
 50
229.6093080931
 51
281.3690545088
  0
LINE
  5
234
330
1F
100
AcDbEntity
  8
0
  6
Continuous
 62
     7
370
    25
100
AcDbLine
 10
658.8588587074
 20
1067.6770609802
 30
0.0
 11
657.8588587074
 21
1067.6770609802
 31
0.0
  0
LINE
  5
235
330
1F
100
AcDbEntity
  8
0
  6
Continuous
 62
     7
370
    25
100
AcDbLine
 10
642.3588587074
 20
1068.0652895478
 30
0.0
 11
642.3588587074
 21
1069.5141782872
 31
0.0
  0
ARC
  5
236
330
1F
100
AcDbEntity
  8
0
  6
Continuous
 62
     7
370
    25
100
AcDbCircle
 10
641.2087384706
 20
1069.4171211453
 30
0.0
 40
1.774887384349991
100
AcDbArc
 50
258.6309454912
 51
310.3906919069
  0
LINE
  5
237
330
1F
100
AcDbEntity
  8
0
  6
Continuous
 62
     7
370
    25
100
AcDbLine
 10
640.8588587074
 20
1067.6770609802
 30
0.0
 11
639.8588587074
 21
1067.6770609802
 31
0.0
  0
LINE
  5
238
330
1F
100
AcDbEntity
  8
0
  6
Continuous
 62
     7
370
    25
100
AcDbLine
 10
663.3588587074
 20
976.6340436813
 30
0.0
 11
663.3588587074
 21
975.40303399
 31
0.0
  0
LINE
  5
239
330
1F
100
AcDbEntity
  8
0
  6
Continuous
 62
     7
370
    25
100
AcDbLine
 10
261.3588587074
 20
976.6340436813
 30
0.0
 11
261.3588587074
 21
975.40303399
 31
0.0
  0
LINE
  5
23A
330
1F
100
AcDbEntity
  8
0
  6
Continuous
 62
     7
370
    25
100
AcDbLine
 10
282.2730722697
 20
1071.5594860338
 30
0.0
 11
282.3588587074
 21
1071.2029224596
 31
0.0
  0
LINE
  5
23B
330
1F
100
AcDbEntity
  8
0
  6
Continuous
 62
     7
370
    25
100
AcDbLine
 10
642.3588587074
 20
1071.2029224596
 30
0.0
 11
642.444645145
 21
1071.5594860338
 31
0.0
  0
LINE
  5
23C
330
1F
100
AcDbEntity
  8
0
  6
Continuous
 62
     7
370
    25
100
AcDbLine
 10
642.3588587074
 20
1070.3520787509
 30
0.0
 11
642.3588587074
 21
1071.2029224596
 31
0.0
  0
LINE
  5
23D
330
1F
100
AcDbEntity
  8
0
  6
Continuous
 62
     7
370
    25
100
AcDbLine
 10
282.3588587074
 20
1071.2029224596
 30
0.0
 11
282.3588587074
 21
1070.3520787509
 31
0.0
  0
LINE
  5
23E
330
1F
100
AcDbEntity
  8
0
  6
Continuous
 62
     7
370
    25
100
AcDbLine
 10
268.3588587074
 20
1071.2029224596
 30
0.0
 11
268.444645145
 21
1071.5594860338
 31
0.0
  0
LINE
  5
23F
330
1F
100
AcDbEntity
  8
0
  6
Continuous
 62
     7
370
    25
100
AcDbLine
 10
261.3588587074
 20
1071.5594860338
 30
0.0
 11
261.3588587074
 21
1070.3520787509
 31
0.0
  0
LINE
  5
240
330
1F
100
AcDbEntity
  8
0
  6
Continuous
 62
     7
370
    25
100
AcDbLine
 10
268.3588587074
 20
1070.3520787509
 30
0.0
 11
268.3588587074
 21
1071.2029224596
 31
0.0
  0
LINE
  5
241
330
1F
100
AcDbEntity
  8
0
  6
Continuous
 62
     7
370
    25
100
AcDbLine
 10
656.2730722697
 20
1071.5594860338
 30
0.0
 11
656.3588587074
 21
1071.2029224596
 31
0.0
  0
LINE
  5
242
330
1F
100
AcDbEntity
  8
0
  6
Continuous
 62
     7
370
    25
100
AcDbLine
 10
663.3588587074
 20
1070.3520787509
 30
0.0
 11
663.3588587074
 21
1071.5594860338
 31
0.0
  0
LINE
  5
243
330
1F
100
AcDbEntity
  8
0
  6
Continuous
 62
     7
370
    25
100
AcDbLine
 10
656.3588587074
 20
1071.2029224596
 30
0.0
 11
656.3588587074
 21
1070.3520787509
 31
0.0
  0
LINE
  5
244
330
1F
100
AcDbEntity
  8
0
  6
Continuous
 62
     7
370
    25
100
AcDbLine
 10
268.3588587074
 20
1070.7750461707
 30
0.0
 11
268.444645145
 21
1071.5594860338
 31
0.0
  0
LINE
  5
245
330
1F
100
AcDbEntity
  8
0
  6
Continuous
 62
     7
370
    25
100
AcDbLine
 10
282.2730722697
 20
1071.5594860338
 30
0.0
 11
282.3588587074
 21
1070.7750461707
 31
0.0
  0
LINE
  5
246
330
1F
100
AcDbEntity
  8
0
  6
Continuous
 62
     7
370
    25
100
AcDbLine
 10
642.3588587074
 20
1070.7750461707
 30
0.0
 11
642.444645145
 21
1071.5594860338
 31
0.0
  0
LINE
  5
247
330
1F
100
AcDbEntity
  8
0
  6
Continuous
 62
     7
370
    25
100
AcDbLine
 10
656.2730722697
 20
1071.5594860338
 30
0.0
 11
656.3588587074
 21
1070.7750461707
 31
0.0
  0
ARC
  5
248
330
1F
100
AcDbEntity
  8
0
  6
Continuous
 62
     7
370
    25
100
AcDbCircle
 10
280.8588587074
 20
1071.0594860338
 30
0.0
 40
1.500000000000087
100
AcDbArc
 50
19.4712206345
 51
90.0
  0
LINE
  5
249
330
1F
100
AcDbEntity
  8
0
  6
Continuous
 62
     7
370
    25
100
AcDbLine
 10
280.8588587074
 20
1072.5594860338
 30
0.0
 11
280.4588587074
 21
1072.5594860338
 31
0.0
  0
ARC
  5
24A
330
1F
100
AcDbEntity
  8
0
  6
Continuous
 62
     7
370
    25
100
AcDbCircle
 10
280.4588587074
 20
1074.0594860338
 30
0.0
 40
1.5
100
AcDbArc
 50
180.0
 51
270.0
  0
LINE
  5
24B
330
1F
100
AcDbEntity
  8
0
  6
Continuous
 62
     7
370
    25
100
AcDbLine
 10
278.9588587074
 20
1074.0594860338
 30
0.0
 11
278.9588587074
 21
1077.4046820974
 31
0.0
  0
LINE
  5
24C
330
1F
100
AcDbEntity
  8
0
  6
Continuous
 62
     7
370
    25
100
AcDbLine
 10
271.7588587074
 20
1077.6633429684
 30
0.0
 11
271.7588587074
 21
1074.0594860338
 31
0.0
  0
ARC
  5
24D
330
1F
100
AcDbEntity
  8
0
  6
Continuous
 62
     7
370
    25
100
AcDbCircle
 10
270.2588587074
 20
1074.0594860338
 30
0.0
 40
1.5
100
AcDbArc
 50
270.0
 51
0.0
  0
LINE
  5
24E
330
1F
100
AcDbEntity
  8
0
  6
Continuous
 62
     7
370
    25
100
AcDbLine
 10
270.2588587074
 20
1072.5594860338
 30
0.0
 11
269.8588587074
 21
1072.5594860338
 31
0.0
  0
LINE
  5
24F
330
1F
100
AcDbEntity
  8
0
  6
Continuous
 62
     7
370
    25
100
AcDbLine
 10
261.3588587074
 20
1107.6003368168
 30
0.0
 11
261.3588587074
 21
1071.5594860338
 31
0.0
  0
ARC
  5
250
330
1F
100
AcDbEntity
  8
0
  6
Continuous
 62
     7
370
    25
100
AcDbCircle
 10
266.3588587074
 20
1107.6003368168
 30
0.0
 40
5.000000000000227
100
AcDbArc
 50
90.0
 51
180.0
  0
LINE
  5
251
330
1F
100
AcDbEntity
  8
0
  6
Continuous
 62
     7
370
    25
100
AcDbLine
 10
658.3588587074
 20
1112.6003368168
 30
0.0
 11
266.3588587074
 21
1112.6003368168
 31
0.0
  0
ARC
  5
252
330
1F
100
AcDbEntity
  8
0
  6
Continuous
 62
     7
370
    25
100
AcDbCircle
 10
658.3588587074
 20
1107.6003368169
 30
0.0
 40
5.0
100
AcDbArc
 50
0.0
 51
90.0
  0
LINE
  5
253
330
1F
100
AcDbEntity
  8
0
  6
Continuous
 62
     7
370
    25
100
AcDbLine
 10
663.3588587074
 20
1107.6003368169
 30
0.0
 11
663.3588587074
 21
1071.5594860338
 31
0.0
  0
ARC
  5
254
330
1F
100
AcDbEntity
  8
0
  6
Continuous
 62
     7
370
    25
100
AcDbCircle
 10
654.8588587074
 20
1071.0594860338
 30
0.0
 40
1.499999999999773
100
AcDbArc
 50
19.4712206345
 51
90.0
  0
LINE
  5
255
330
1F
100
AcDbEntity
  8
0
  6
Continuous
 62
     7
370
    25
100
AcDbLine
 10
654.8588587074
 20
1072.5594860338
 30
0.0
 11
654.4588587074
 21
1072.5594860338
 31
0.0
  0
ARC
  5
256
330
1F
100
AcDbEntity
  8
0
  6
Continuous
 62
     7
370
    25
100
AcDbCircle
 10
654.4588587074
 20
1074.0594860338
 30
0.0
 40
1.5
100
AcDbArc
 50
180.0
 51
270.0
  0
LINE
  5
257
330
1F
100
AcDbEntity
  8
0
  6
Continuous
 62
     7
370
    25
100
AcDbLine
 10
652.9588587074
 20
1074.0594860338
 30
0.0
 11
652.9588587074
 21
1077.4046820974
 31
0.0
  0
LINE
  5
258
330
1F
100
AcDbEntity
  8
0
  6
Continuous
 62
     7
370
    25
100
AcDbLine
 10
645.7588587074
 20
1077.6633429684
 30
0.0
 11
645.7588587074
 21
1074.0594860338
 31
0.0
  0
ARC
  5
259
330
1F
100
AcDbEntity
  8
0
  6
Continuous
 62
     7
370
    25
100
AcDbCircle
 10
644.2588587074
 20
1074.0594860338
 30
0.0
 40
1.5
100
AcDbArc
 50
270.0
 51
0.0
  0
LINE
  5
25A
330
1F
100
AcDbEntity
  8
0
  6
Continuous
 62
     7
370
    25
100
AcDbLine
 10
644.2588587074
 20
1072.5594860338
 30
0.0
 11
643.8588587074
 21
1072.5594860338
 31
0.0
  0
ARC
  5
25B
330
1F
100
AcDbEntity
  8
0
  6
Continuous
 62
     7
370
    25
100
AcDbCircle
 10
643.8588587074
 20
1071.0594860338
 30
0.0
 40
1.499999999999859
100
AcDbArc
 50
90.0
 51
160.5287793655
  0
ARC
  5
25C
330
1F
100
AcDbEntity
  8
0
  6
Continuous
 62
     7
370
    25
100
AcDbCircle
 10
269.8588587074
 20
1071.0594860338
 30
0.0
 40
1.5
100
AcDbArc
 50
90.0
 51
160.5287793655
  0
LINE
  5
25D
330
1F
100
AcDbEntity
  8
0
  6
Continuous
 62
     7
370
    25
100
AcDbLine
 10
261.3588587074
 20
975.40303399
 30
0.0
 11
261.3588587074
 21
954.4515579757
 31
0.0
  0
LINE
  5
25E
330
1F
100
AcDbEntity
  8
0
  6
Continuous
 62
     7
370
    25
100
AcDbLine
 10
663.3588587074
 20
975.40303399
 30
0.0
 11
663.3588587074
 21
954.4515579757
 31
0.0
  0
ARC
  5
25F
330
1F
100
AcDbEntity
  8
0
  6
Continuous
 62
     7
370
    25
100
AcDbCircle
 10
661.3588587074
 20
954.4515579757
 30
0.0
 40
2.0
100
AcDbArc
 50
270.0
 51
0.0
  0
LINE
  5
260
330
1F
100
AcDbEntity
  8
0
  6
Continuous
 62
     7
370
    25
100
AcDbLine
 10
661.3588587074
 20
952.4515579757
 30
0.0
 11
574.8588587074
 21
952.4515579757
 31
0.0
  0
LINE
  5
261
330
1F
100
AcDbEntity
  8
0
  6
Continuous
 62
     7
370
    25
100
AcDbLine
 10
569.8588587074
 20
952.4515579757
 30
0.0
 11
566.9588587074
 21
952.4515579757
 31
0.0
  0
LINE
  5
262
330
1F
100
AcDbEntity
  8
0
  6
Continuous
 62
     7
370
    25
100
AcDbLine
 10
561.9588587074
 20
952.4515579757
 30
0.0
 11
559.7588587074
 21
952.4515579757
 31
0.0
  0
LINE
  5
263
330
1F
100
AcDbEntity
  8
0
  6
Continuous
 62
     7
370
    25
100
AcDbLine
 10
554.7588587074
 20
952.4515579757
 30
0.0
 11
551.8588587074
 21
952.4515579757
 31
0.0
  0
LINE
  5
264
330
1F
100
AcDbEntity
  8
0
  6
Continuous
 62
     7
370
    25
100
AcDbLine
 10
546.8588587074
 20
952.4515579757
 30
0.0
 11
469.8588587074
 21
952.4515579757
 31
0.0
  0
LINE
  5
265
330
1F
100
AcDbEntity
  8
0
  6
Continuous
 62
     7
370
    25
100
AcDbLine
 10
454.8588587074
 20
952.4515579757
 30
0.0
 11
377.8588587073
 21
952.4515579757
 31
0.0
  0
LINE
  5
266
330
1F
100
AcDbEntity
  8
0
  6
Continuous
 62
     7
370
    25
100
AcDbLine
 10
372.8588587073
 20
952.4515579757
 30
0.0
 11
369.9588587074
 21
952.4515579757
 31
0.0
  0
LINE
  5
267
330
1F
100
AcDbEntity
  8
0
  6
Continuous
 62
     7
370
    25
100
AcDbLine
 10
364.9588587074
 20
952.4515579757
 30
0.0
 11
362.7588587074
 21
952.4515579757
 31
0.0
  0
LINE
  5
268
330
1F
100
AcDbEntity
  8
0
  6
Continuous
 62
     7
370
    25
100
AcDbLine
 10
357.7588587074
 20
952.4515579757
 30
0.0
 11
354.8588587074
 21
952.4515579757
 31
0.0
  0
LINE
  5
269
330
1F
100
AcDbEntity
  8
0
  6
Continuous
 62
     7
370
    25
100
AcDbLine
 10
349.8588587074
 20
952.4515579757
 30
0.0
 11
263.3588587074
 21
952.4515579757
 31
0.0
  0
ARC
  5
26A
330
1F
100
AcDbEntity
  8
0
  6
Continuous
 62
     7
370
    25
100
AcDbCircle
 10
263.3588587074
 20
954.4515579757
 30
0.0
 40
2.0
100
AcDbArc
 50
180.0
 51
270.0
  0
CIRCLE
  5
26B
330
1F
100
AcDbEntity
  8
0
  6
Continuous
 62
     7
370
    25
100
AcDbCircle
 10
649.3588587074
 20
1086.5594860338
 30
0.0
 40
9.497484303028045
  0
LINE
  5
26C
330
1F
100
AcDbEntity
  8
0
  6
Continuous
 62
     7
370
    25
100
AcDbLine
 10
639.3855635615
 20
1087.2682936231
 30
0.0
 11
639.8996355325
 21
1087.7142829934
 31
0.0
  0
LINE
  5
26D
330
1F
100
AcDbEntity
  8
0
  6
Continuous
 62
     7
370
    25
100
AcDbLine
 10
639.8996355325
 20
1087.7142829934
 30
0.0
 11
639.5056355561
 21
1088.2574010841
 31
0.0
  0
LINE
  5
26E
330
1F
100
AcDbEntity
  8
0
  6
Continuous
 62
     7
370
    25
100
AcDbLine
 10
639.5061511677
 20
1088.2604206755
 30
0.0
 11
640.062179574
 21
1088.6528603871
 31
0.0
  0
LINE
  5
26F
330
1F
100
AcDbEntity
  8
0
  6
Continuous
 62
     7
370
    25
100
AcDbLine
 10
640.062179574
 20
1088.6528603871
 30
0.0
 11
639.724369291
 21
1089.2325995134
 31
0.0
  0
LINE
  5
270
330
1F
100
AcDbEntity
  8
0
  6
Continuous
 62
     7
370
    25
100
AcDbLine
 10
639.7251837829
 20
1089.2355525441
 30
0.0
 11
640.3176129605
 21
1089.5705214761
 31
0.0
  0
LINE
  5
271
330
1F
100
AcDbEntity
  8
0
  6
Continuous
 62
     7
370
    25
100
AcDbLine
 10
640.3176129605
 20
1089.5705214761
 30
0.0
 11
640.0393676596
 21
1090.1810890762
 31
0.0
  0
LINE
  5
272
330
1F
100
AcDbEntity
  8
0
  6
Continuous
 62
     7
370
    25
100
AcDbLine
 10
640.0404728935
 20
1090.1839460406
 30
0.0
 11
640.6633834858
 21
1090.4580972944
 31
0.0
  0
LINE
  5
273
330
1F
100
AcDbEntity
  8
0
  6
Continuous
 62
     7
370
    25
100
AcDbLine
 10
640.6633834858
 20
1090.4580972944
 30
0.0
 11
640.447483302
 21
1091.0933927788
 31
0.0
  0
LINE
  5
274
330
1F
100
AcDbEntity
  8
0
  6
Continuous
 62
     7
370
    25
100
AcDbLine
 10
640.4488682433
 20
1091.0961251196
 30
0.0
 11
641.0960363251
 21
1091.3067194776
 31
0.0
  0
LINE
  5
275
330
1F
100
AcDbEntity
  8
0
  6
Continuous
 62
     7
370
    25
100
AcDbLine
 10
641.0960363251
 20
1091.3067194776
 30
0.0
 11
640.9446384618
 21
1091.9603951837
 31
0.0
  0
LINE
  5
276
330
1F
100
AcDbEntity
  8
0
  6
Continuous
 62
     7
370
    25
100
AcDbLine
 10
640.9462892558
 20
1091.962975623
 30
0.0
 11
641.6112485544
 21
1092.1079088735
 31
0.0
  0
LINE
  5
277
330
1F
100
AcDbEntity
  8
0
  6
Continuous
 62
     7
370
    25
100
AcDbLine
 10
641.6112485544
 20
1092.1079088735
 30
0.0
 11
641.5258657289
 21
1092.7734334897
 31
0.0
  0
LINE
  5
278
330
1F
100
AcDbEntity
  8
0
  6
Continuous
 62
     7
370
    25
100
AcDbLine
 10
641.5277658959
 20
1092.7758362204
 30
0.0
 11
642.2038723433
 21
1092.8536602624
 31
0.0
  0
LINE
  5
279
330
1F
100
AcDbEntity
  8
0
  6
Continuous
 62
     7
370
    25
100
AcDbLine
 10
642.2038723433
 20
1092.8536602624
 30
0.0
 11
642.1853576726
 21
1093.5243840869
 31
0.0
  0
LINE
  5
27A
330
1F
100
AcDbEntity
  8
0
  6
Continuous
 62
     7
370
    25
100
AcDbLine
 10
642.1874882195
 20
1093.5265851137
 30
0.0
 11
642.8679863908
 21
1093.5365223431
 31
0.0
  0
LINE
  5
27B
330
1F
100
AcDbEntity
  8
0
  6
Continuous
 62
     7
370
    25
100
AcDbLine
 10
642.8679863908
 20
1093.5365223431
 30
0.0
 11
642.9165248674
 21
1094.2057437251
 31
0.0
  0
LINE
  5
27C
330
1F
100
AcDbEntity
  8
0
  6
Continuous
 62
     7
370
    25
100
AcDbLine
 10
642.9188645064
 20
1094.2077210561
 30
0.0
 11
643.5969550889
 21
1094.1496721832
 31
0.0
  0
LINE
  5
27D
330
1F
100
AcDbEntity
  8
0
  6
Continuous
 62
     7
370
    25
100
AcDbLine
 10
643.5969550889
 20
1094.1496721832
 30
0.0
 11
643.7120617324
 21
1094.8107044839
 31
0.0
  0
LINE
  5
27E
330
1F
100
AcDbEntity
  8
0
  6
Continuous
 62
     7
370
    25
100
AcDbLine
 10
643.7145870847
 20
1094.8124383763
 30
0.0
 11
644.3834948234
 21
1094.6869833923
 31
0.0
  0
LINE
  5
27F
330
1F
100
AcDbEntity
  8
0
  6
Continuous
 62
     7
370
    25
100
AcDbLine
 10
644.3834948234
 20
1094.6869833923
 30
0.0
 11
644.5640195261
 21
1095.3332217952
 31
0.0
  0
LINE
  5
280
330
1F
100
AcDbEntity
  8
0
  6
Continuous
 62
     7
370
    25
100
AcDbLine
 10
644.5667053631
 20
1095.3346948968
 30
0.0
 11
645.2197467491
 21
1095.1430873344
 31
0.0
  0
LINE
  5
281
330
1F
100
AcDbEntity
  8
0
  6
Continuous
 62
     7
370
    25
100
AcDbLine
 10
645.2197467491
 20
1095.1430873344
 30
0.0
 11
645.463885768
 21
1095.7680748394
 31
0.0
  0
LINE
  5
282
330
1F
100
AcDbEntity
  8
0
  6
Continuous
 62
     7
370
    25
100
AcDbLine
 10
645.4667052527
 20
1095.7692724592
 30
0.0
 11
646.0973553133
 21
1095.5134267697
 31
0.0
  0
LINE
  5
283
330
1F
100
AcDbEntity
  8
0
  6
Continuous
 62
     7
370
    25
100
AcDbLine
 10
646.0973553133
 20
1095.5134267697
 30
0.0
 11
646.402669292
 21
1096.1109187078
 31
0.0
  0
LINE
  5
284
330
1F
100
AcDbEntity
  8
0
  6
Continuous
 62
     7
370
    25
100
AcDbLine
 10
646.4055942535
 20
1096.1118288659
 30
0.0
 11
647.0075517413
 21
1095.7943013889
 31
0.0
  0
LINE
  5
285
330
1F
100
AcDbEntity
  8
0
  6
Continuous
 62
     7
370
    25
100
AcDbLine
 10
647.0075517413
 20
1095.7943013889
 30
0.0
 11
647.3709900835
 21
1096.3583278185
 31
0.0
  0
LINE
  5
286
330
1F
100
AcDbEntity
  8
0
  6
Continuous
 62
     7
370
    25
100
AcDbLine
 10
647.3739912965
 20
1096.3589414206
 30
0.0
 11
647.9412416513
 21
1095.9829047857
 31
0.0
  0
LINE
  5
287
330
1F
100
AcDbEntity
  8
0
  6
Continuous
 62
     7
370
    25
100
AcDbLine
 10
647.9412416513
 20
1095.9829047857
 30
0.0
 11
648.3591730011
 21
1096.507830141
 31
0.0
  0
LINE
  5
288
330
1F
100
AcDbEntity
  8
0
  6
Continuous
 62
     7
370
    25
100
AcDbLine
 10
648.3622204786
 20
1096.5081410564
 30
0.0
 11
648.8890959223
 21
1096.0773524973
 31
0.0
  0
LINE
  5
289
330
1F
100
AcDbEntity
  8
0
  6
Continuous
 62
     7
370
    25
100
AcDbLine
 10
648.8890959223
 20
1096.0773524973
 30
0.0
 11
649.3573444478
 21
1096.5579318977
 31
0.0
  0
LINE
  5
28A
330
1F
100
AcDbEntity
  8
0
  6
Continuous
 62
     7
370
    25
100
AcDbLine
 10
649.3604077341
 20
1096.5579370071
 30
0.0
 11
649.7636025218
 21
1096.1547422193
 31
0.0
  0
LINE
  5
28B
330
1F
100
AcDbEntity
  8
0
  6
Continuous
 62
     7
370
    25
100
AcDbLine
 10
649.7636025218
 20
1096.1547422193
 30
0.0
 11
650.18811458
 21
1096.523484061
 31
0.0
  0
LINE
  5
28C
330
1F
100
AcDbEntity
  8
0
  6
Continuous
 62
     7
370
    25
100
AcDbLine
 10
650.1911677055
 20
1096.523234638
 30
0.0
 11
650.6307541776
 21
1096.003676894
 31
0.0
  0
LINE
  5
28D
330
1F
100
AcDbEntity
  8
0
  6
Continuous
 62
     7
370
    25
100
AcDbLine
 10
650.6307541776
 20
1096.003676894
 30
0.0
 11
651.1787117211
 21
1096.3909181265
 31
0.0
  0
LINE
  5
28E
330
1F
100
AcDbEntity
  8
0
  6
Continuous
 62
     7
370
    25
100
AcDbLine
 10
651.1817246846
 20
1096.3903651345
 30
0.0
 11
651.5672458391
 21
1095.8295176069
 31
0.0
  0
LINE
  5
28F
330
1F
100
AcDbEntity
  8
0
  6
Continuous
 62
     7
370
    25
100
AcDbLine
 10
651.5672458391
 20
1095.8295176069
 30
0.0
 11
652.1511254927
 21
1096.1601197726
 31
0.0
  0
LINE
  5
290
330
1F
100
AcDbEntity
  8
0
  6
Continuous
 62
     7
370
    25
100
AcDbLine
 10
652.1540681967
 20
1096.1592687488
 30
0.0
 11
652.4816720263
 21
1095.5627352287
 31
0.0
  0
LINE
  5
291
330
1F
100
AcDbEntity
  8
0
  6
Continuous
 62
     7
370
    25
100
AcDbLine
 10
652.4816720263
 20
1095.5627352287
 30
0.0
 11
653.0956398574
 21
1095.8333950598
 31
0.0
  0
LINE
  5
292
330
1F
100
AcDbEntity
  8
0
  6
Continuous
 62
     7
370
    25
100
AcDbLine
 10
653.0984829102
 20
1095.8322545168
 30
0.0
 11
653.3648960952
 21
1095.2059953606
 31
0.0
  0
LINE
  5
293
330
1F
100
AcDbEntity
  8
0
  6
Continuous
 62
     7
370
    25
100
AcDbLine
 10
653.3648960952
 20
1095.2059953606
 30
0.0
 11
654.0028175402
 21
1095.4140085137
 31
0.0
  0
LINE
  5
294
330
1F
100
AcDbEntity
  8
0
  6
Continuous
 62
     7
370
    25
100
AcDbLine
 10
654.0055325137
 20
1095.4125898286
 30
0.0
 11
654.2080931627
 21
1094.7628624294
 31
0.0
  0
LINE
  5
295
330
1F
100
AcDbEntity
  8
0
  6
Continuous
 62
     7
370
    25
100
AcDbLine
 10
654.2080931627
 20
1094.7628624294
 30
0.0
 11
654.8635943212
 21
1094.9061505057
 31
0.0
  0
LINE
  5
296
330
1F
100
AcDbEntity
  8
0
  6
Continuous
 62
     7
370
    25
100
AcDbLine
 10
654.8661541114
 20
1094.9044678702
 30
0.0
 11
655.0028382824
 21
1094.237764073
 31
0.0
  0
LINE
  5
297
330
1F
100
AcDbEntity
  8
0
  6
Continuous
 62
     7
370
    25
100
AcDbLine
 10
655.0028382824
 20
1094.237764073
 30
0.0
 11
655.6693696039
 21
1094.3148953855
 31
0.0
  0
LINE
  5
298
330
1F
100
AcDbEntity
  8
0
  6
Continuous
 62
     7
370
    25
100
AcDbLine
 10
655.6717486095
 20
1094.3129655977
 30
0.0
 11
655.7411906239
 21
1093.6359469005
 31
0.0
  0
LINE
  5
299
330
1F
100
AcDbEntity
  8
0
  6
Continuous
 62
     7
370
    25
100
AcDbLine
 10
655.7411906239
 20
1093.6359469005
 30
0.0
 11
656.4120923474
 21
1093.6461507786
 31
0.0
  0
LINE
  5
29A
330
1F
100
AcDbEntity
  8
0
  6
Continuous
 62
     7
370
    25
100
AcDbLine
 10
656.4142668241
 20
1093.6439931319
 30
0.0
 11
656.4157728146
 21
1092.9634240702
 31
0.0
  0
LINE
  5
29B
330
1F
100
AcDbEntity
  8
0
  6
Continuous
 62
     7
370
    25
100
AcDbLine
 10
656.4157728146
 20
1092.9634240702
 30
0.0
 11
657.0843415121
 21
1092.9065985601
 31
0.0
  0
LINE
  5
29C
330
1F
100
AcDbEntity
  8
0
  6
Continuous
 62
     7
370
    25
100
AcDbLine
 10
657.0862897063
 20
1092.9042346041
 30
0.0
 11
657.0198446522
 21
1092.2269152079
 31
0.0
  0
LINE
  5
29D
330
1F
100
AcDbEntity
  8
0
  6
Continuous
 62
     7
370
    25
100
AcDbLine
 10
657.0198446522
 20
1092.2269152079
 30
0.0
 11
657.6794002062
 21
1092.1036280913
 31
0.0
  0
LINE
  5
29E
330
1F
100
AcDbEntity
  8
0
  6
Continuous
 62
     7
370
    25
100
AcDbLine
 10
657.6811026658
 20
1092.1010814504
 30
0.0
 11
657.5473704507
 21
1091.4337792667
 31
0.0
  0
LINE
  5
29F
330
1F
100
AcDbEntity
  8
0
  6
Continuous
 62
     7
370
    25
100
AcDbLine
 10
657.5473704507
 20
1091.4337792667
 30
0.0
 11
658.1913228001
 21
1091.2452623877
 31
0.0
  0
LINE
  5
2A0
330
1F
100
AcDbEntity
  8
0
  6
Continuous
 62
     7
370
    25
100
AcDbLine
 10
658.1927625145
 20
1091.2425585071
 30
0.0
 11
657.9930793466
 21
1090.5919409987
 31
0.0
  0
LINE
  5
2A1
330
1F
100
AcDbEntity
  8
0
  6
Continuous
 62
     7
370
    25
100
AcDbLine
 10
657.9930793466
 20
1090.5919409987
 30
0.0
 11
658.6149943322
 21
1090.3400779558
 31
0.0
  0
LINE
  5
2A2
330
1F
100
AcDbEntity
  8
0
  6
Continuous
 62
     7
370
    25
100
AcDbLine
 10
658.6161569166
 20
1090.3372438516
 30
0.0
 11
658.3525179639
 21
1089.7098117737
 31
0.0
  0
LINE
  5
2A3
330
1F
100
AcDbEntity
  8
0
  6
Continuous
 62
     7
370
    25
100
AcDbLine
 10
658.3525179639
 20
1089.7098117737
 30
0.0
 11
658.9461816171
 21
1089.3971190989
 31
0.0
  0
SPLINE
  5
2A4
330
1F
100
AcDbEntity
  8
0
  6
Continuous
 62
     7
370
    25
100
AcDbSpline
210
0.0
220
0.0
230
1.0
 70
    24
 71
     3
 72
     9
 73
     5
 74
     0
 42
0.000000001
 43
0.00000001
 40
0.0
 40
0.0
 40
0.0
 40
0.0
 40
0.499962775429669
 40
1.0
 40
1.0
 40
1.0
 40
1.0
 10
658.9470554879831
 20
1089.394183149534
 30
0.0
 10
658.893246749717
 20
1089.295166766599
 30
0.0
 10
658.7856212605599
 20
1089.097119256262
 30
0.0
 10
658.6766063994808
 20
1088.896515087161
 30
0.0
 10
658.6220949109099
 20
1088.796205535206
 30
0.0
  0
LINE
  5
2A5
330
1F
100
AcDbEntity
  8
0
  6
Continuous
 62
     7
370
    25
100
AcDbLine
 10
658.6220949109
 20
1088.7962055352
 30
0.0
 11
659.1815755404
 21
1088.4258075507
 31
0.0
  0
LINE
  5
2A6
330
1F
100
AcDbEntity
  8
0
  6
Continuous
 62
     7
370
    25
100
AcDbLine
 10
659.1821519145
 20
1088.4227989662
 30
0.0
 11
658.7991166638
 21
1087.8602507349
 31
0.0
  0
LINE
  5
2A7
330
1F
100
AcDbEntity
  8
0
  6
Continuous
 62
     7
370
    25
100
AcDbLine
 10
658.7991166638
 20
1087.8602507349
 30
0.0
 11
659.3188241242
 21
1087.4358483346
 31
0.0
  0
LINE
  5
2A8
330
1F
100
AcDbEntity
  8
0
  6
Continuous
 62
     7
370
    25
100
AcDbLine
 10
659.3190972615
 20
1087.4327972391
 30
0.0
 11
658.8818144796
 21
1086.9112991236
 31
0.0
  0
SPLINE
  5
2A9
330
1F
100
AcDbEntity
  8
0
  6
Continuous
 62
     7
370
    25
100
AcDbSpline
210
0.0
220
0.0
230
1.0
 70
    24
 71
     3
 72
     9
 73
     5
 74
     0
 42
0.000000001
 43
0.00000001
 40
0.0
 40
0.0
 40
0.0
 40
0.0
 40
0.7418901379650148
 40
0.9999999999999999
 40
0.9999999999999999
 40
0.9999999999999999
 40
0.9999999999999999
 10
658.8818144796307
 20
1086.911299123579
 30
0.0
 10
658.9995816666581
 20
1086.79367462871
 30
0.0
 10
659.1583210554177
 20
1086.63512757592
 30
0.0
 10
659.3151315210035
 20
1086.478507109131
 30
0.0
 10
659.3556058486414
 20
1086.438081822057
 30
0.0
  0
LWPOLYLINE
  5
2AA
330
1F
100
AcDbEntity
  8
0
  6
Continuous
 62
     7
370
    25
100
AcDbPolyline
 90
        9
 70
   128
 43
0.0
 10
659.3556058486
 20
1086.4380818221
 10
659.3555982891
 20
1086.4374609362
 10
659.355590691
 20
1086.4368400509
 10
659.3555830543
 20
1086.436219166
 10
659.3555753791
 20
1086.4355982816
 10
659.3555676653
 20
1086.4349773976
 10
659.3555599129
 20
1086.4343565142
 10
659.355552122
 20
1086.4337356312
 10
659.3555442925
 20
1086.4331147487
  0
LINE
  5
2AB
330
1F
100
AcDbEntity
  8
0
  6
Continuous
 62
     7
370
    25
100
AcDbLine
 10
659.3555442925
 20
1086.4331147487
 30
0.0
 11
658.8693620693
 21
1085.9588323122
 31
0.0
  0
LINE
  5
2AC
330
1F
100
AcDbEntity
  8
0
  6
Continuous
 62
     7
370
    25
100
AcDbLine
 10
658.8693620693
 20
1085.9588323122
 30
0.0
 11
659.2943942408
 21
1085.4396397707
 31
0.0
  0
LINE
  5
2AD
330
1F
100
AcDbEntity
  8
0
  6
Continuous
 62
     7
370
    25
100
AcDbLine
 10
659.2940557744
 20
1085.4365952301
 30
0.0
 11
658.7618838531
 21
1085.0123670343
 31
0.0
  0
LINE
  5
2AE
330
1F
100
AcDbEntity
  8
0
  6
Continuous
 62
     7
370
    25
100
AcDbLine
 10
658.7618838531
 20
1085.0123670343
 30
0.0
 11
659.1329598687
 21
1084.4533358792
 31
0.0
  0
LINE
  5
2AF
330
1F
100
AcDbEntity
  8
0
  6
Continuous
 62
     7
370
    25
100
AcDbLine
 10
659.1323191354
 20
1084.4503403475
 30
0.0
 11
658.5604537179
 21
1084.081360058
 31
0.0
  0
LINE
  5
2B0
330
1F
100
AcDbEntity
  8
0
  6
Continuous
 62
     7
370
    25
100
AcDbLine
 10
658.5604537179
 20
1084.081360058
 30
0.0
 11
658.8738659088
 21
1083.4880759436
 31
0.0
  0
LINE
  5
2B1
330
1F
100
AcDbEntity
  8
0
  6
Continuous
 62
     7
370
    25
100
AcDbLine
 10
658.8729293325
 20
1083.4851593339
 30
0.0
 11
658.267084287
 21
1083.1751136973
 31
0.0
  0
LINE
  5
2B2
330
1F
100
AcDbEntity
  8
0
  6
Continuous
 62
     7
370
    25
100
AcDbLine
 10
658.267084287
 20
1083.1751136973
 30
0.0
 11
658.5197011423
 21
1082.5535045225
 31
0.0
  0
LINE
  5
2B3
330
1F
100
AcDbEntity
  8
0
  6
Continuous
 62
     7
370
    25
100
AcDbLine
 10
658.5184780607
 20
1082.5506959961
 30
0.0
 11
657.8847068108
 21
1082.3026828662
 31
0.0
  0
LINE
  5
2B4
330
1F
100
AcDbEntity
  8
0
  6
Continuous
 62
     7
370
    25
100
AcDbLine
 10
657.8847068108
 20
1082.3026828662
 30
0.0
 11
658.0740042662
 21
1081.6589595444
 31
0.0
  0
LINE
  5
2B5
330
1F
100
AcDbEntity
  8
0
  6
Continuous
 62
     7
370
    25
100
AcDbLine
 10
658.0725069102
 20
1081.6562871533
 30
0.0
 11
657.4171418786
 21
1081.4727846053
 31
0.0
  0
LINE
  5
2B6
330
1F
100
AcDbEntity
  8
0
  6
Continuous
 62
     7
370
    25
100
AcDbLine
 10
657.4171418786
 20
1081.4727846053
 30
0.0
 11
657.5412285366
 21
1080.813379007
 31
0.0
  0
LINE
  5
2B7
330
1F
100
AcDbEntity
  8
0
  6
Continuous
 62
     7
370
    25
100
AcDbLine
 10
657.5394718672
 20
1080.810869453
 30
0.0
 11
656.8690612447
 21
1080.6937109836
 31
0.0
  0
LINE
  5
2B8
330
1F
100
AcDbEntity
  8
0
  6
Continuous
 62
     7
370
    25
100
AcDbLine
 10
656.8690612447
 20
1080.6937109836
 30
0.0
 11
656.9266972724
 21
1080.0252116717
 31
0.0
  0
LINE
  5
2B9
330
1F
100
AcDbEntity
  8
0
  6
Continuous
 62
     7
370
    25
100
AcDbLine
 10
656.9246988471
 20
1080.0228900162
 30
0.0
 11
656.2459411495
 21
1079.9732462473
 31
0.0
  0
LINE
  5
2BA
330
1F
100
AcDbEntity
  8
0
  6
Continuous
 62
     7
370
    25
100
AcDbLine
 10
656.2459411495
 20
1079.9732462473
 30
0.0
 11
656.2365506669
 21
1079.3023326459
 31
0.0
  0
LINE
  5
2BB
330
1F
100
AcDbEntity
  8
0
  6
Continuous
 62
     7
370
    25
100
AcDbLine
 10
656.2343304466
 20
1079.3002220986
 30
0.0
 11
655.5540076032
 21
1079.3185890418
 31
0.0
  0
LINE
  5
2BC
330
1F
100
AcDbEntity
  8
0
  6
Continuous
 62
     7
370
    25
100
AcDbLine
 10
655.5540076032
 20
1079.3185890418
 30
0.0
 11
655.4776844368
 21
1078.6519646978
 31
0.0
  0
LINE
  5
2BD
330
1F
100
AcDbEntity
  8
0
  6
Continuous
 62
     7
370
    25
100
AcDbLine
 10
655.4752646024
 20
1078.6500863605
 30
0.0
 11
654.8001741769
 21
1078.7362804855
 31
0.0
  0
LINE
  5
2BE
330
1F
100
AcDbEntity
  8
0
  6
Continuous
 62
     7
370
    25
100
AcDbLine
 10
654.8001741769
 20
1078.7362804855
 30
0.0
 11
654.6576809225
 21
1078.0806060889
 31
0.0
  0
LINE
  5
2BF
330
1F
100
AcDbEntity
  8
0
  6
Continuous
 62
     7
370
    25
100
AcDbLine
 10
654.6550856578
 20
1078.0789787019
 30
0.0
 11
653.9919729252
 21
1078.232138813
 31
0.0
  0
LINE
  5
2C0
330
1F
100
AcDbEntity
  8
0
  6
Continuous
 62
     7
370
    25
100
AcDbLine
 10
653.9919729252
 20
1078.232138813
 30
0.0
 11
653.7847333283
 21
1077.5939656457
 31
0.0
  0
LINE
  5
2C1
330
1F
100
AcDbEntity
  8
0
  6
Continuous
 62
     7
370
    25
100
AcDbLine
 10
653.7819885616
 20
1077.5926054972
 30
0.0
 11
653.1374791276
 21
1077.8112012413
 31
0.0
  0
LINE
  5
2C2
330
1F
100
AcDbEntity
  8
0
  6
Continuous
 62
     7
370
    25
100
AcDbLine
 10
653.1374791276
 20
1077.8112012413
 30
0.0
 11
652.8675638579
 21
1077.1969057189
 31
0.0
  0
LINE
  5
2C3
330
1F
100
AcDbEntity
  8
0
  6
Continuous
 62
     7
370
    25
100
AcDbLine
 10
652.8646970152
 20
1077.1958263847
 30
0.0
 11
652.2452306039
 21
1077.4776736395
 31
0.0
  0
LINE
  5
2C4
330
1F
100
AcDbEntity
  8
0
  6
Continuous
 62
     7
370
    25
100
AcDbLine
 10
652.2452306039
 20
1077.4776736395
 30
0.0
 11
651.9153365654
 21
1076.8933935995
 31
0.0
  0
LINE
  5
2C5
330
1F
100
AcDbEntity
  8
0
  6
Continuous
 62
     7
370
    25
100
AcDbLine
 10
651.9123762914
 20
1076.8926058642
 30
0.0
 11
651.3241424063
 21
1077.234888505
 31
0.0
  0
LINE
  5
2C6
330
1F
100
AcDbEntity
  8
0
  6
Continuous
 62
     7
370
    25
100
AcDbLine
 10
651.3241424063
 20
1077.234888505
 30
0.0
 11
650.9375657911
 21
1076.6864618805
 31
0.0
  0
LINE
  5
2C7
330
1F
100
AcDbEntity
  8
0
  6
Continuous
 62
     7
370
    25
100
AcDbLine
 10
650.9345416639
 20
1076.685973615
 30
0.0
 11
650.3834177436
 21
1077.0852716668
 31
0.0
  0
LINE
  5
2C8
330
1F
100
AcDbEntity
  8
0
  6
Continuous
 62
     7
370
    25
100
AcDbLine
 10
650.3834177436
 20
1077.0852716668
 30
0.0
 11
649.9440210976
 21
1076.5781781553
 31
0.0
  0
LINE
  5
2C9
330
1F
100
AcDbEntity
  8
0
  6
Continuous
 62
     7
370
    25
100
AcDbLine
 10
649.9409633332
 20
1076.577994238
 30
0.0
 11
649.4324560257
 21
1077.0303180467
 31
0.0
  0
LINE
  5
2CA
330
1F
100
AcDbEntity
  8
0
  6
Continuous
 62
     7
370
    25
100
AcDbLine
 10
649.4324560257
 20
1077.0303180467
 30
0.0
 11
648.9446296549
 21
1076.5696243591
 31
0.0
  0
LINE
  5
2CB
330
1F
100
AcDbEntity
  8
0
  6
Continuous
 62
     7
370
    25
100
AcDbLine
 10
648.9415688055
 20
1076.5697466277
 30
0.0
 11
648.4807589477
 21
1077.0705767233
 31
0.0
  0
LINE
  5
2CC
330
1F
100
AcDbEntity
  8
0
  6
Continuous
 62
     7
370
    25
100
AcDbLine
 10
648.4807589477
 20
1077.0705767233
 30
0.0
 11
647.9493770519
 21
1076.6608859585
 31
0.0
  0
LINE
  5
2CD
330
1F
100
AcDbEntity
  8
0
  6
Continuous
 62
     7
370
    25
100
AcDbLine
 10
647.9463436925
 20
1076.6613131797
 30
0.0
 11
647.5378355522
 21
1077.2056454451
 31
0.0
  0
LINE
  5
2CE
330
1F
100
AcDbEntity
  8
0
  6
Continuous
 62
     7
370
    25
100
AcDbLine
 10
647.5378355522
 20
1077.2056454451
 30
0.0
 11
646.9682075239
 21
1076.8510510979
 31
0.0
  0
LINE
  5
2CF
330
1F
100
AcDbEntity
  8
0
  6
Continuous
 62
     7
370
    25
100
AcDbLine
 10
646.9652319787
 20
1076.8517790261
 30
0.0
 11
646.6131072182
 21
1077.43417465
 31
0.0
  0
LINE
  5
2D0
330
1F
100
AcDbEntity
  8
0
  6
Continuous
 62
     7
370
    25
100
AcDbLine
 10
646.6131072182
 20
1077.43417465
 30
0.0
 11
646.010924592
 21
1077.1382197098
 31
0.0
  0
LINE
  5
2D1
330
1F
100
AcDbEntity
  8
0
  6
Continuous
 62
     7
370
    25
100
AcDbLine
 10
646.0080365838
 20
1077.1392410603
 30
0.0
 11
645.7158135254
 21
1077.7538809499
 31
0.0
  0
LINE
  5
2D2
330
1F
100
AcDbEntity
  8
0
  6
Continuous
 62
     7
370
    25
100
AcDbLine
 10
645.7158135254
 20
1077.7538809499
 30
0.0
 11
645.0870931113
 21
1077.5195225007
 31
0.0
  0
LINE
  5
2D3
330
1F
100
AcDbEntity
  8
0
  6
Continuous
 62
     7
370
    25
100
AcDbLine
 10
645.0843214848
 20
1077.5208270597
 30
0.0
 11
644.8549199359
 21
1078.1615699451
 31
0.0
  0
LINE
  5
2D4
330
1F
100
AcDbEntity
  8
0
  6
Continuous
 62
     7
370
    25
100
AcDbLine
 10
644.8549199359
 20
1078.1615699451
 30
0.0
 11
644.2059437003
 21
1077.9911496189
 31
0.0
  0
LINE
  5
2D5
330
1F
100
AcDbEntity
  8
0
  6
Continuous
 62
     7
370
    25
100
AcDbLine
 10
644.203316171
 20
1077.9927243691
 30
0.0
 11
644.0390282137
 21
1078.6531681418
 31
0.0
  0
LINE
  5
2D6
330
1F
100
AcDbEntity
  8
0
  6
Continuous
 62
     7
370
    25
100
AcDbLine
 10
644.0390282137
 20
1078.6531681418
 30
0.0
 11
643.3762805129
 21
1078.5483887224
 31
0.0
  0
LINE
  5
2D7
330
1F
100
AcDbEntity
  8
0
  6
Continuous
 62
     7
370
    25
100
AcDbLine
 10
643.3738233228
 20
1078.5502179206
 30
0.0
 11
643.2762904794
 21
1079.2237636534
 31
0.0
  0
LINE
  5
2D8
330
1F
100
AcDbEntity
  8
0
  6
Continuous
 62
     7
370
    25
100
AcDbLine
 10
643.2762904794
 20
1079.2237636534
 30
0.0
 11
642.606393269
 21
1079.185672062
 31
0.0
  0
LINE
  5
2D9
330
1F
100
AcDbEntity
  8
0
  6
Continuous
 62
     7
370
    25
100
AcDbLine
 10
642.6041309566
 20
1079.1877374264
 30
0.0
 11
642.5743277561
 21
1079.8676552782
 31
0.0
  0
LINE
  5
2DA
330
1F
100
AcDbEntity
  8
0
  6
Continuous
 62
     7
370
    25
100
AcDbLine
 10
642.5743277561
 20
1079.8676552782
 30
0.0
 11
641.9039744277
 21
1079.8966321134
 31
0.0
  0
LINE
  5
2DB
330
1F
100
AcDbEntity
  8
0
  6
Continuous
 62
     7
370
    25
100
AcDbLine
 10
641.9019296099
 20
1079.898913014
 30
0.0
 11
641.9401538234
 21
1080.5784094638
 31
0.0
  0
LINE
  5
2DC
330
1F
100
AcDbEntity
  8
0
  6
Continuous
 62
     7
370
    25
100
AcDbLine
 10
641.9401538234
 20
1080.5784094638
 30
0.0
 11
641.2760423259
 21
1080.6741651987
 31
0.0
  0
LINE
  5
2DD
330
1F
100
AcDbEntity
  8
0
  6
Continuous
 62
     7
370
    25
100
AcDbLine
 10
641.2742354477
 20
1080.6766388477
 30
0.0
 11
641.3801051377
 21
1081.3489245895
 31
0.0
  0
LINE
  5
2DE
330
1F
100
AcDbEntity
  8
0
  6
Continuous
 62
     7
370
    25
100
AcDbLine
 10
641.3801051377
 20
1081.3489245895
 30
0.0
 11
640.7288710538
 21
1081.5105024643
 31
0.0
  0
LINE
  5
2DF
330
1F
100
AcDbEntity
  8
0
  6
Continuous
 62
     7
370
    25
100
AcDbLine
 10
640.727320141
 20
1081.5131441414
 30
0.0
 11
640.8997775202
 21
1082.1715019227
 31
0.0
  0
LINE
  5
2E0
330
1F
100
AcDbEntity
  8
0
  6
Continuous
 62
     7
370
    25
100
AcDbLine
 10
640.8997775202
 20
1082.1715019227
 30
0.0
 11
640.2679277654
 21
1082.3972875048
 31
0.0
  0
LINE
  5
2E1
330
1F
100
AcDbEntity
  8
0
  6
Continuous
 62
     7
370
    25
100
AcDbLine
 10
640.2666483426
 20
1082.4000708169
 30
0.0
 11
640.5039702457
 21
1083.0379225427
 31
0.0
  0
LINE
  5
2E2
330
1F
100
AcDbEntity
  8
0
  6
Continuous
 62
     7
370
    25
100
AcDbLine
 10
640.5039702457
 20
1083.0379225427
 30
0.0
 11
639.8978180538
 21
1083.3256598573
 31
0.0
  0
LINE
  5
2E3
330
1F
100
AcDbEntity
  8
0
  6
Continuous
 62
     7
370
    25
100
AcDbLine
 10
639.8968228764
 20
1083.3285569954
 30
0.0
 11
640.1966380897
 21
1083.939529461
 31
0.0
  0
LINE
  5
2E4
330
1F
100
AcDbEntity
  8
0
  6
Continuous
 62
     7
370
    25
100
AcDbLine
 10
640.1966380897
 20
1083.939529461
 30
0.0
 11
639.6222399333
 21
1084.2863435318
 31
0.0
  0
LINE
  5
2E5
330
1F
100
AcDbEntity
  8
0
  6
Continuous
 62
     7
370
    25
100
AcDbLine
 10
639.6215389725
 20
1084.289325545
 30
0.0
 11
639.9808518134
 21
1084.8673141194
 31
0.0
  0
LINE
  5
2E6
330
1F
100
AcDbEntity
  8
0
  6
Continuous
 62
     7
370
    25
100
AcDbLine
 10
639.9808518134
 20
1084.8673141194
 30
0.0
 11
639.4439468889
 21
1085.2697396948
 31
0.0
  0
LINE
  5
2E7
330
1F
100
AcDbEntity
  8
0
  6
Continuous
 62
     7
370
    25
100
AcDbLine
 10
639.4435471212
 20
1085.2727767943
 30
0.0
 11
639.8587674821
 21
1085.8120064001
 31
0.0
  0
LINE
  5
2E8
330
1F
100
AcDbEntity
  8
0
  6
Continuous
 62
     7
370
    25
100
AcDbLine
 10
639.8587674821
 20
1085.8120064001
 30
0.0
 11
639.364720366
 21
1086.2660225769
 31
0.0
  0
SPLINE
  5
2E9
330
1F
100
AcDbEntity
  8
0
  6
Continuous
 62
     7
370
    25
100
AcDbSpline
210
0.0
220
0.0
230
1.0
 70
     8
 71
     3
 72
     9
 73
     5
 74
     0
 42
0.000000001
 43
0.00000001
 40
0.0
 40
0.0
 40
0.0
 40
0.0
 40
0.5886511107999512
 40
1.0
 40
1.0
 40
1.0
 40
1.0
 10
639.364625799516
 20
1086.269084413806
 30
0.0
 10
639.4556998172736
 20
1086.365639438884
 30
0.0
 10
639.610416280195
 20
1086.52966703232
 30
0.0
 10
639.7671376739123
 20
1086.695820233887
 30
0.0
 10
639.8316048451319
 20
1086.764167168788
 30
0.0
  0
LINE
  5
2EA
330
1F
100
AcDbEntity
  8
0
  6
Continuous
 62
     7
370
    25
100
AcDbLine
 10
639.8316048555
 20
1086.7641672564
 30
0.0
 11
639.3853519697
 21
1087.265237649
 31
0.0
  0
LINE
  5
2EB
330
1F
100
AcDbEntity
  8
0
  6
Continuous
 62
     7
370
    25
100
AcDbLine
 10
659.3563430104
 20
1086.4373455535
 30
0.0
 11
659.3563430104
 21
1086.4338939172
 31
0.0
  0
LINE
  5
2EC
330
1F
100
AcDbEntity
  8
0
  6
Continuous
 62
     7
370
    25
100
AcDbLine
 10
659.3556058486
 20
1086.4380818221
 30
0.0
 11
659.3563430104
 21
1086.4373455535
 31
0.0
  0
LINE
  5
2ED
330
1F
100
AcDbEntity
  8
0
  6
Continuous
 62
     7
370
    25
100
AcDbLine
 10
659.3563430104
 20
1086.4338939172
 30
0.0
 11
659.3555442925
 21
1086.4331147487
 31
0.0
  0
CIRCLE
  5
2EE
330
1F
100
AcDbEntity
  8
0
  6
Continuous
 62
     7
370
    25
100
AcDbCircle
 10
275.3588587074
 20
1086.5594860338
 30
0.0
 40
9.497484303027989
  0
LINE
  5
2EF
330
1F
100
AcDbEntity
  8
0
  6
Continuous
 62
     7
370
    25
100
AcDbLine
 10
265.3855635615
 20
1087.2682936231
 30
0.0
 11
265.8996355325
 21
1087.7142829934
 31
0.0
  0
LINE
  5
2F0
330
1F
100
AcDbEntity
  8
0
  6
Continuous
 62
     7
370
    25
100
AcDbLine
 10
265.8996355325
 20
1087.7142829934
 30
0.0
 11
265.5056355561
 21
1088.2574010841
 31
0.0
  0
LINE
  5
2F1
330
1F
100
AcDbEntity
  8
0
  6
Continuous
 62
     7
370
    25
100
AcDbLine
 10
265.5061511677
 20
1088.2604206755
 30
0.0
 11
266.062179574
 21
1088.6528603871
 31
0.0
  0
LINE
  5
2F2
330
1F
100
AcDbEntity
  8
0
  6
Continuous
 62
     7
370
    25
100
AcDbLine
 10
266.062179574
 20
1088.6528603871
 30
0.0
 11
265.724369291
 21
1089.2325995134
 31
0.0
  0
LINE
  5
2F3
330
1F
100
AcDbEntity
  8
0
  6
Continuous
 62
     7
370
    25
100
AcDbLine
 10
265.7251837829
 20
1089.2355525441
 30
0.0
 11
266.3176129605
 21
1089.5705214761
 31
0.0
  0
LINE
  5
2F4
330
1F
100
AcDbEntity
  8
0
  6
Continuous
 62
     7
370
    25
100
AcDbLine
 10
266.3176129605
 20
1089.5705214761
 30
0.0
 11
266.0393676596
 21
1090.1810890762
 31
0.0
  0
LINE
  5
2F5
330
1F
100
AcDbEntity
  8
0
  6
Continuous
 62
     7
370
    25
100
AcDbLine
 10
266.0404728935
 20
1090.1839460407
 30
0.0
 11
266.6633834858
 21
1090.4580972944
 31
0.0
  0
LINE
  5
2F6
330
1F
100
AcDbEntity
  8
0
  6
Continuous
 62
     7
370
    25
100
AcDbLine
 10
266.6633834858
 20
1090.4580972944
 30
0.0
 11
266.447483302
 21
1091.0933927788
 31
0.0
  0
LINE
  5
2F7
330
1F
100
AcDbEntity
  8
0
  6
Continuous
 62
     7
370
    25
100
AcDbLine
 10
266.4488682433
 20
1091.0961251196
 30
0.0
 11
267.0960363251
 21
1091.3067194776
 31
0.0
  0
LINE
  5
2F8
330
1F
100
AcDbEntity
  8
0
  6
Continuous
 62
     7
370
    25
100
AcDbLine
 10
267.0960363251
 20
1091.3067194776
 30
0.0
 11
266.9446384618
 21
1091.9603951837
 31
0.0
  0
LINE
  5
2F9
330
1F
100
AcDbEntity
  8
0
  6
Continuous
 62
     7
370
    25
100
AcDbLine
 10
266.9462892558
 20
1091.962975623
 30
0.0
 11
267.6112485544
 21
1092.1079088735
 31
0.0
  0
LINE
  5
2FA
330
1F
100
AcDbEntity
  8
0
  6
Continuous
 62
     7
370
    25
100
AcDbLine
 10
267.6112485544
 20
1092.1079088735
 30
0.0
 11
267.5258657289
 21
1092.7734334898
 31
0.0
  0
LINE
  5
2FB
330
1F
100
AcDbEntity
  8
0
  6
Continuous
 62
     7
370
    25
100
AcDbLine
 10
267.5277658959
 20
1092.7758362204
 30
0.0
 11
268.2038723433
 21
1092.8536602625
 31
0.0
  0
LINE
  5
2FC
330
1F
100
AcDbEntity
  8
0
  6
Continuous
 62
     7
370
    25
100
AcDbLine
 10
268.2038723433
 20
1092.8536602625
 30
0.0
 11
268.1853576726
 21
1093.5243840869
 31
0.0
  0
LINE
  5
2FD
330
1F
100
AcDbEntity
  8
0
  6
Continuous
 62
     7
370
    25
100
AcDbLine
 10
268.1874882195
 20
1093.5265851137
 30
0.0
 11
268.8679863908
 21
1093.5365223431
 31
0.0
  0
LINE
  5
2FE
330
1F
100
AcDbEntity
  8
0
  6
Continuous
 62
     7
370
    25
100
AcDbLine
 10
268.8679863908
 20
1093.5365223431
 30
0.0
 11
268.9165248674
 21
1094.2057437252
 31
0.0
  0
LINE
  5
2FF
330
1F
100
AcDbEntity
  8
0
  6
Continuous
 62
     7
370
    25
100
AcDbLine
 10
268.9188645064
 20
1094.2077210561
 30
0.0
 11
269.5969550889
 21
1094.1496721832
 31
0.0
  0
LINE
  5
300
330
1F
100
AcDbEntity
  8
0
  6
Continuous
 62
     7
370
    25
100
AcDbLine
 10
269.5969550889
 20
1094.1496721832
 30
0.0
 11
269.7120617324
 21
1094.8107044839
 31
0.0
  0
LINE
  5
301
330
1F
100
AcDbEntity
  8
0
  6
Continuous
 62
     7
370
    25
100
AcDbLine
 10
269.7145870847
 20
1094.8124383763
 30
0.0
 11
270.3834948234
 21
1094.6869833923
 31
0.0
  0
LINE
  5
302
330
1F
100
AcDbEntity
  8
0
  6
Continuous
 62
     7
370
    25
100
AcDbLine
 10
270.3834948234
 20
1094.6869833923
 30
0.0
 11
270.5640195261
 21
1095.3332217952
 31
0.0
  0
LINE
  5
303
330
1F
100
AcDbEntity
  8
0
  6
Continuous
 62
     7
370
    25
100
AcDbLine
 10
270.5667053631
 20
1095.3346948968
 30
0.0
 11
271.2197467491
 21
1095.1430873344
 31
0.0
  0
LINE
  5
304
330
1F
100
AcDbEntity
  8
0
  6
Continuous
 62
     7
370
    25
100
AcDbLine
 10
271.2197467491
 20
1095.1430873344
 30
0.0
 11
271.463885768
 21
1095.7680748394
 31
0.0
  0
LINE
  5
305
330
1F
100
AcDbEntity
  8
0
  6
Continuous
 62
     7
370
    25
100
AcDbLine
 10
271.4667052527
 20
1095.7692724593
 30
0.0
 11
272.0973553133
 21
1095.5134267697
 31
0.0
  0
LINE
  5
306
330
1F
100
AcDbEntity
  8
0
  6
Continuous
 62
     7
370
    25
100
AcDbLine
 10
272.0973553133
 20
1095.5134267697
 30
0.0
 11
272.402669292
 21
1096.1109187078
 31
0.0
  0
LINE
  5
307
330
1F
100
AcDbEntity
  8
0
  6
Continuous
 62
     7
370
    25
100
AcDbLine
 10
272.4055942535
 20
1096.1118288659
 30
0.0
 11
273.0075517413
 21
1095.7943013889
 31
0.0
  0
LINE
  5
308
330
1F
100
AcDbEntity
  8
0
  6
Continuous
 62
     7
370
    25
100
AcDbLine
 10
273.0075517413
 20
1095.7943013889
 30
0.0
 11
273.3709900835
 21
1096.3583278185
 31
0.0
  0
LINE
  5
309
330
1F
100
AcDbEntity
  8
0
  6
Continuous
 62
     7
370
    25
100
AcDbLine
 10
273.3739912965
 20
1096.3589414206
 30
0.0
 11
273.9412416513
 21
1095.9829047857
 31
0.0
  0
LINE
  5
30A
330
1F
100
AcDbEntity
  8
0
  6
Continuous
 62
     7
370
    25
100
AcDbLine
 10
273.9412416513
 20
1095.9829047857
 30
0.0
 11
274.3591730011
 21
1096.507830141
 31
0.0
  0
LINE
  5
30B
330
1F
100
AcDbEntity
  8
0
  6
Continuous
 62
     7
370
    25
100
AcDbLine
 10
274.3622204786
 20
1096.5081410564
 30
0.0
 11
274.8890959223
 21
1096.0773524973
 31
0.0
  0
LINE
  5
30C
330
1F
100
AcDbEntity
  8
0
  6
Continuous
 62
     7
370
    25
100
AcDbLine
 10
274.8890959223
 20
1096.0773524973
 30
0.0
 11
275.3573444478
 21
1096.5579318977
 31
0.0
  0
LINE
  5
30D
330
1F
100
AcDbEntity
  8
0
  6
Continuous
 62
     7
370
    25
100
AcDbLine
 10
275.3604077341
 20
1096.5579370071
 30
0.0
 11
275.7636025218
 21
1096.1547422193
 31
0.0
  0
LINE
  5
30E
330
1F
100
AcDbEntity
  8
0
  6
Continuous
 62
     7
370
    25
100
AcDbLine
 10
275.7636025218
 20
1096.1547422193
 30
0.0
 11
276.18811458
 21
1096.523484061
 31
0.0
  0
LINE
  5
30F
330
1F
100
AcDbEntity
  8
0
  6
Continuous
 62
     7
370
    25
100
AcDbLine
 10
276.1911677055
 20
1096.523234638
 30
0.0
 11
276.6307541776
 21
1096.003676894
 31
0.0
  0
LINE
  5
310
330
1F
100
AcDbEntity
  8
0
  6
Continuous
 62
     7
370
    25
100
AcDbLine
 10
276.6307541776
 20
1096.003676894
 30
0.0
 11
277.1787117211
 21
1096.3909181265
 31
0.0
  0
LINE
  5
311
330
1F
100
AcDbEntity
  8
0
  6
Continuous
 62
     7
370
    25
100
AcDbLine
 10
277.1817246846
 20
1096.3903651345
 30
0.0
 11
277.5672458391
 21
1095.8295176069
 31
0.0
  0
LINE
  5
312
330
1F
100
AcDbEntity
  8
0
  6
Continuous
 62
     7
370
    25
100
AcDbLine
 10
277.5672458391
 20
1095.8295176069
 30
0.0
 11
278.1511254928
 21
1096.1601197726
 31
0.0
  0
LINE
  5
313
330
1F
100
AcDbEntity
  8
0
  6
Continuous
 62
     7
370
    25
100
AcDbLine
 10
278.1540681967
 20
1096.1592687488
 30
0.0
 11
278.4816720263
 21
1095.5627352287
 31
0.0
  0
LINE
  5
314
330
1F
100
AcDbEntity
  8
0
  6
Continuous
 62
     7
370
    25
100
AcDbLine
 10
278.4816720263
 20
1095.5627352287
 30
0.0
 11
279.0956398574
 21
1095.8333950598
 31
0.0
  0
LINE
  5
315
330
1F
100
AcDbEntity
  8
0
  6
Continuous
 62
     7
370
    25
100
AcDbLine
 10
279.0984829102
 20
1095.8322545168
 30
0.0
 11
279.3648960952
 21
1095.2059953606
 31
0.0
  0
LINE
  5
316
330
1F
100
AcDbEntity
  8
0
  6
Continuous
 62
     7
370
    25
100
AcDbLine
 10
279.3648960952
 20
1095.2059953606
 30
0.0
 11
280.0028175402
 21
1095.4140085137
 31
0.0
  0
LINE
  5
317
330
1F
100
AcDbEntity
  8
0
  6
Continuous
 62
     7
370
    25
100
AcDbLine
 10
280.0055325137
 20
1095.4125898286
 30
0.0
 11
280.2080931627
 21
1094.7628624294
 31
0.0
  0
LINE
  5
318
330
1F
100
AcDbEntity
  8
0
  6
Continuous
 62
     7
370
    25
100
AcDbLine
 10
280.2080931627
 20
1094.7628624294
 30
0.0
 11
280.8635943212
 21
1094.9061505057
 31
0.0
  0
LINE
  5
319
330
1F
100
AcDbEntity
  8
0
  6
Continuous
 62
     7
370
    25
100
AcDbLine
 10
280.8661541114
 20
1094.9044678702
 30
0.0
 11
281.0028382824
 21
1094.237764073
 31
0.0
  0
LINE
  5
31A
330
1F
100
AcDbEntity
  8
0
  6
Continuous
 62
     7
370
    25
100
AcDbLine
 10
281.0028382824
 20
1094.237764073
 30
0.0
 11
281.6693696039
 21
1094.3148953855
 31
0.0
  0
LINE
  5
31B
330
1F
100
AcDbEntity
  8
0
  6
Continuous
 62
     7
370
    25
100
AcDbLine
 10
281.6717486095
 20
1094.3129655977
 30
0.0
 11
281.7411906239
 21
1093.6359469005
 31
0.0
  0
LINE
  5
31C
330
1F
100
AcDbEntity
  8
0
  6
Continuous
 62
     7
370
    25
100
AcDbLine
 10
281.7411906239
 20
1093.6359469005
 30
0.0
 11
282.4120923474
 21
1093.6461507786
 31
0.0
  0
LINE
  5
31D
330
1F
100
AcDbEntity
  8
0
  6
Continuous
 62
     7
370
    25
100
AcDbLine
 10
282.4142668241
 20
1093.643993132
 30
0.0
 11
282.4157728146
 21
1092.9634240702
 31
0.0
  0
LINE
  5
31E
330
1F
100
AcDbEntity
  8
0
  6
Continuous
 62
     7
370
    25
100
AcDbLine
 10
282.4157728146
 20
1092.9634240702
 30
0.0
 11
283.0843415121
 21
1092.9065985601
 31
0.0
  0
LINE
  5
31F
330
1F
100
AcDbEntity
  8
0
  6
Continuous
 62
     7
370
    25
100
AcDbLine
 10
283.0862897063
 20
1092.9042346041
 30
0.0
 11
283.0198446522
 21
1092.2269152079
 31
0.0
  0
LINE
  5
320
330
1F
100
AcDbEntity
  8
0
  6
Continuous
 62
     7
370
    25
100
AcDbLine
 10
283.0198446522
 20
1092.2269152079
 30
0.0
 11
283.6794002062
 21
1092.1036280913
 31
0.0
  0
LINE
  5
321
330
1F
100
AcDbEntity
  8
0
  6
Continuous
 62
     7
370
    25
100
AcDbLine
 10
283.6811026658
 20
1092.1010814504
 30
0.0
 11
283.5473704507
 21
1091.4337792667
 31
0.0
  0
LINE
  5
322
330
1F
100
AcDbEntity
  8
0
  6
Continuous
 62
     7
370
    25
100
AcDbLine
 10
283.5473704507
 20
1091.4337792667
 30
0.0
 11
284.1913228001
 21
1091.2452623877
 31
0.0
  0
LINE
  5
323
330
1F
100
AcDbEntity
  8
0
  6
Continuous
 62
     7
370
    25
100
AcDbLine
 10
284.1927625145
 20
1091.2425585071
 30
0.0
 11
283.9930793466
 21
1090.5919409987
 31
0.0
  0
LINE
  5
324
330
1F
100
AcDbEntity
  8
0
  6
Continuous
 62
     7
370
    25
100
AcDbLine
 10
283.9930793466
 20
1090.5919409987
 30
0.0
 11
284.6149943322
 21
1090.3400779558
 31
0.0
  0
LINE
  5
325
330
1F
100
AcDbEntity
  8
0
  6
Continuous
 62
     7
370
    25
100
AcDbLine
 10
284.6161569166
 20
1090.3372438516
 30
0.0
 11
284.3525179639
 21
1089.7098117737
 31
0.0
  0
LINE
  5
326
330
1F
100
AcDbEntity
  8
0
  6
Continuous
 62
     7
370
    25
100
AcDbLine
 10
284.3525179639
 20
1089.7098117737
 30
0.0
 11
284.9461816171
 21
1089.3971190989
 31
0.0
  0
SPLINE
  5
327
330
1F
100
AcDbEntity
  8
0
  6
Continuous
 62
     7
370
    25
100
AcDbSpline
210
0.0
220
0.0
230
1.0
 70
    24
 71
     3
 72
     9
 73
     5
 74
     0
 42
0.000000001
 43
0.00000001
 40
0.0
 40
0.0
 40
0.0
 40
0.0
 40
0.499962775429669
 40
1.0
 40
1.0
 40
1.0
 40
1.0
 10
284.9470554879834
 20
1089.394183149541
 30
0.0
 10
284.8932467497173
 20
1089.295166766605
 30
0.0
 10
284.78562126056
 20
1089.097119256268
 30
0.0
 10
284.6766063994811
 20
1088.896515087167
 30
0.0
 10
284.6220949109102
 20
1088.796205535212
 30
0.0
  0
LINE
  5
328
330
1F
100
AcDbEntity
  8
0
  6
Continuous
 62
     7
370
    25
100
AcDbLine
 10
284.6220949109
 20
1088.7962055352
 30
0.0
 11
285.1815755404
 21
1088.4258075507
 31
0.0
  0
LINE
  5
329
330
1F
100
AcDbEntity
  8
0
  6
Continuous
 62
     7
370
    25
100
AcDbLine
 10
285.1821519145
 20
1088.4227989662
 30
0.0
 11
284.7991166638
 21
1087.8602507349
 31
0.0
  0
LINE
  5
32A
330
1F
100
AcDbEntity
  8
0
  6
Continuous
 62
     7
370
    25
100
AcDbLine
 10
284.7991166638
 20
1087.8602507349
 30
0.0
 11
285.3188241242
 21
1087.4358483346
 31
0.0
  0
LINE
  5
32B
330
1F
100
AcDbEntity
  8
0
  6
Continuous
 62
     7
370
    25
100
AcDbLine
 10
285.3190972615
 20
1087.4327972391
 30
0.0
 11
284.8818144796
 21
1086.9112991236
 31
0.0
  0
SPLINE
  5
32C
330
1F
100
AcDbEntity
  8
0
  6
Continuous
 62
     7
370
    25
100
AcDbSpline
210
0.0
220
0.0
230
1.0
 70
    24
 71
     3
 72
     9
 73
     5
 74
     0
 42
0.000000001
 43
0.00000001
 40
0.0
 40
0.0
 40
0.0
 40
0.0
 40
0.7418901379650148
 40
0.9999999999999999
 40
0.9999999999999999
 40
0.9999999999999999
 40
0.9999999999999999
 10
284.8818144796311
 20
1086.911299123585
 30
0.0
 10
284.9995816666585
 20
1086.793674628716
 30
0.0
 10
285.1583210554181
 20
1086.635127575926
 30
0.0
 10
285.3151315210038
 20
1086.478507109138
 30
0.0
 10
285.3556058486417
 20
1086.438081822063
 30
0.0
  0
LWPOLYLINE
  5
32D
330
1F
100
AcDbEntity
  8
0
  6
Continuous
 62
     7
370
    25
100
AcDbPolyline
 90
        9
 70
   128
 43
0.0
 10
285.3556058486
 20
1086.4380818221
 10
285.3555982891
 20
1086.4374609362
 10
285.355590691
 20
1086.4368400509
 10
285.3555830543
 20
1086.436219166
 10
285.3555753791
 20
1086.4355982816
 10
285.3555676653
 20
1086.4349773976
 10
285.3555599129
 20
1086.4343565142
 10
285.355552122
 20
1086.4337356312
 10
285.3555442925
 20
1086.4331147487
  0
LINE
  5
32E
330
1F
100
AcDbEntity
  8
0
  6
Continuous
 62
     7
370
    25
100
AcDbLine
 10
285.3555442925
 20
1086.4331147487
 30
0.0
 11
284.8693620693
 21
1085.9588323122
 31
0.0
  0
LINE
  5
32F
330
1F
100
AcDbEntity
  8
0
  6
Continuous
 62
     7
370
    25
100
AcDbLine
 10
284.8693620693
 20
1085.9588323122
 30
0.0
 11
285.2943942408
 21
1085.4396397707
 31
0.0
  0
LINE
  5
330
330
1F
100
AcDbEntity
  8
0
  6
Continuous
 62
     7
370
    25
100
AcDbLine
 10
285.2940557744
 20
1085.4365952301
 30
0.0
 11
284.7618838531
 21
1085.0123670343
 31
0.0
  0
LINE
  5
331
330
1F
100
AcDbEntity
  8
0
  6
Continuous
 62
     7
370
    25
100
AcDbLine
 10
284.7618838531
 20
1085.0123670343
 30
0.0
 11
285.1329598687
 21
1084.4533358792
 31
0.0
  0
LINE
  5
332
330
1F
100
AcDbEntity
  8
0
  6
Continuous
 62
     7
370
    25
100
AcDbLine
 10
285.1323191354
 20
1084.4503403475
 30
0.0
 11
284.5604537179
 21
1084.081360058
 31
0.0
  0
LINE
  5
333
330
1F
100
AcDbEntity
  8
0
  6
Continuous
 62
     7
370
    25
100
AcDbLine
 10
284.5604537179
 20
1084.081360058
 30
0.0
 11
284.8738659088
 21
1083.4880759437
 31
0.0
  0
LINE
  5
334
330
1F
100
AcDbEntity
  8
0
  6
Continuous
 62
     7
370
    25
100
AcDbLine
 10
284.8729293325
 20
1083.4851593339
 30
0.0
 11
284.267084287
 21
1083.1751136973
 31
0.0
  0
LINE
  5
335
330
1F
100
AcDbEntity
  8
0
  6
Continuous
 62
     7
370
    25
100
AcDbLine
 10
284.267084287
 20
1083.1751136973
 30
0.0
 11
284.5197011423
 21
1082.5535045225
 31
0.0
  0
LINE
  5
336
330
1F
100
AcDbEntity
  8
0
  6
Continuous
 62
     7
370
    25
100
AcDbLine
 10
284.5184780607
 20
1082.5506959961
 30
0.0
 11
283.8847068108
 21
1082.3026828662
 31
0.0
  0
LINE
  5
337
330
1F
100
AcDbEntity
  8
0
  6
Continuous
 62
     7
370
    25
100
AcDbLine
 10
283.8847068108
 20
1082.3026828662
 30
0.0
 11
284.0740042662
 21
1081.6589595444
 31
0.0
  0
LINE
  5
338
330
1F
100
AcDbEntity
  8
0
  6
Continuous
 62
     7
370
    25
100
AcDbLine
 10
284.0725069102
 20
1081.6562871533
 30
0.0
 11
283.4171418786
 21
1081.4727846053
 31
0.0
  0
LINE
  5
339
330
1F
100
AcDbEntity
  8
0
  6
Continuous
 62
     7
370
    25
100
AcDbLine
 10
283.4171418786
 20
1081.4727846053
 30
0.0
 11
283.5412285366
 21
1080.813379007
 31
0.0
  0
LINE
  5
33A
330
1F
100
AcDbEntity
  8
0
  6
Continuous
 62
     7
370
    25
100
AcDbLine
 10
283.5394718672
 20
1080.810869453
 30
0.0
 11
282.8690612447
 21
1080.6937109836
 31
0.0
  0
LINE
  5
33B
330
1F
100
AcDbEntity
  8
0
  6
Continuous
 62
     7
370
    25
100
AcDbLine
 10
282.8690612447
 20
1080.6937109836
 30
0.0
 11
282.9266972724
 21
1080.0252116717
 31
0.0
  0
LINE
  5
33C
330
1F
100
AcDbEntity
  8
0
  6
Continuous
 62
     7
370
    25
100
AcDbLine
 10
282.9246988471
 20
1080.0228900163
 30
0.0
 11
282.2459411495
 21
1079.9732462473
 31
0.0
  0
LINE
  5
33D
330
1F
100
AcDbEntity
  8
0
  6
Continuous
 62
     7
370
    25
100
AcDbLine
 10
282.2459411495
 20
1079.9732462473
 30
0.0
 11
282.2365506669
 21
1079.3023326459
 31
0.0
  0
LINE
  5
33E
330
1F
100
AcDbEntity
  8
0
  6
Continuous
 62
     7
370
    25
100
AcDbLine
 10
282.2343304466
 20
1079.3002220986
 30
0.0
 11
281.5540076032
 21
1079.3185890418
 31
0.0
  0
LINE
  5
33F
330
1F
100
AcDbEntity
  8
0
  6
Continuous
 62
     7
370
    25
100
AcDbLine
 10
281.5540076032
 20
1079.3185890418
 30
0.0
 11
281.4776844368
 21
1078.6519646978
 31
0.0
  0
LINE
  5
340
330
1F
100
AcDbEntity
  8
0
  6
Continuous
 62
     7
370
    25
100
AcDbLine
 10
281.4752646024
 20
1078.6500863606
 30
0.0
 11
280.8001741769
 21
1078.7362804855
 31
0.0
  0
LINE
  5
341
330
1F
100
AcDbEntity
  8
0
  6
Continuous
 62
     7
370
    25
100
AcDbLine
 10
280.8001741769
 20
1078.7362804855
 30
0.0
 11
280.6576809225
 21
1078.0806060889
 31
0.0
  0
LINE
  5
342
330
1F
100
AcDbEntity
  8
0
  6
Continuous
 62
     7
370
    25
100
AcDbLine
 10
280.6550856578
 20
1078.0789787019
 30
0.0
 11
279.9919729252
 21
1078.232138813
 31
0.0
  0
LINE
  5
343
330
1F
100
AcDbEntity
  8
0
  6
Continuous
 62
     7
370
    25
100
AcDbLine
 10
279.9919729252
 20
1078.232138813
 30
0.0
 11
279.7847333283
 21
1077.5939656458
 31
0.0
  0
LINE
  5
344
330
1F
100
AcDbEntity
  8
0
  6
Continuous
 62
     7
370
    25
100
AcDbLine
 10
279.7819885616
 20
1077.5926054972
 30
0.0
 11
279.1374791276
 21
1077.8112012413
 31
0.0
  0
LINE
  5
345
330
1F
100
AcDbEntity
  8
0
  6
Continuous
 62
     7
370
    25
100
AcDbLine
 10
279.1374791276
 20
1077.8112012413
 30
0.0
 11
278.8675638579
 21
1077.1969057189
 31
0.0
  0
LINE
  5
346
330
1F
100
AcDbEntity
  8
0
  6
Continuous
 62
     7
370
    25
100
AcDbLine
 10
278.8646970152
 20
1077.1958263847
 30
0.0
 11
278.2452306039
 21
1077.4776736395
 31
0.0
  0
LINE
  5
347
330
1F
100
AcDbEntity
  8
0
  6
Continuous
 62
     7
370
    25
100
AcDbLine
 10
278.2452306039
 20
1077.4776736395
 30
0.0
 11
277.9153365654
 21
1076.8933935995
 31
0.0
  0
LINE
  5
348
330
1F
100
AcDbEntity
  8
0
  6
Continuous
 62
     7
370
    25
100
AcDbLine
 10
277.9123762914
 20
1076.8926058643
 30
0.0
 11
277.3241424063
 21
1077.234888505
 31
0.0
  0
LINE
  5
349
330
1F
100
AcDbEntity
  8
0
  6
Continuous
 62
     7
370
    25
100
AcDbLine
 10
277.3241424063
 20
1077.234888505
 30
0.0
 11
276.9375657911
 21
1076.6864618805
 31
0.0
  0
LINE
  5
34A
330
1F
100
AcDbEntity
  8
0
  6
Continuous
 62
     7
370
    25
100
AcDbLine
 10
276.9345416639
 20
1076.685973615
 30
0.0
 11
276.3834177436
 21
1077.0852716668
 31
0.0
  0
LINE
  5
34B
330
1F
100
AcDbEntity
  8
0
  6
Continuous
 62
     7
370
    25
100
AcDbLine
 10
276.3834177436
 20
1077.0852716668
 30
0.0
 11
275.9440210976
 21
1076.5781781553
 31
0.0
  0
LINE
  5
34C
330
1F
100
AcDbEntity
  8
0
  6
Continuous
 62
     7
370
    25
100
AcDbLine
 10
275.9409633332
 20
1076.577994238
 30
0.0
 11
275.4324560257
 21
1077.0303180467
 31
0.0
  0
LINE
  5
34D
330
1F
100
AcDbEntity
  8
0
  6
Continuous
 62
     7
370
    25
100
AcDbLine
 10
275.4324560257
 20
1077.0303180467
 30
0.0
 11
274.9446296549
 21
1076.5696243591
 31
0.0
  0
LINE
  5
34E
330
1F
100
AcDbEntity
  8
0
  6
Continuous
 62
     7
370
    25
100
AcDbLine
 10
274.9415688055
 20
1076.5697466277
 30
0.0
 11
274.4807589477
 21
1077.0705767233
 31
0.0
  0
LINE
  5
34F
330
1F
100
AcDbEntity
  8
0
  6
Continuous
 62
     7
370
    25
100
AcDbLine
 10
274.4807589477
 20
1077.0705767233
 30
0.0
 11
273.9493770519
 21
1076.6608859585
 31
0.0
  0
LINE
  5
350
330
1F
100
AcDbEntity
  8
0
  6
Continuous
 62
     7
370
    25
100
AcDbLine
 10
273.9463436925
 20
1076.6613131797
 30
0.0
 11
273.5378355522
 21
1077.2056454451
 31
0.0
  0
LINE
  5
351
330
1F
100
AcDbEntity
  8
0
  6
Continuous
 62
     7
370
    25
100
AcDbLine
 10
273.5378355522
 20
1077.2056454451
 30
0.0
 11
272.9682075239
 21
1076.8510510979
 31
0.0
  0
LINE
  5
352
330
1F
100
AcDbEntity
  8
0
  6
Continuous
 62
     7
370
    25
100
AcDbLine
 10
272.9652319787
 20
1076.8517790261
 30
0.0
 11
272.6131072182
 21
1077.43417465
 31
0.0
  0
LINE
  5
353
330
1F
100
AcDbEntity
  8
0
  6
Continuous
 62
     7
370
    25
100
AcDbLine
 10
272.6131072182
 20
1077.43417465
 30
0.0
 11
272.010924592
 21
1077.1382197098
 31
0.0
  0
LINE
  5
354
330
1F
100
AcDbEntity
  8
0
  6
Continuous
 62
     7
370
    25
100
AcDbLine
 10
272.0080365838
 20
1077.1392410603
 30
0.0
 11
271.7158135254
 21
1077.7538809499
 31
0.0
  0
LINE
  5
355
330
1F
100
AcDbEntity
  8
0
  6
Continuous
 62
     7
370
    25
100
AcDbLine
 10
271.7158135254
 20
1077.7538809499
 30
0.0
 11
271.0870931113
 21
1077.5195225007
 31
0.0
  0
LINE
  5
356
330
1F
100
AcDbEntity
  8
0
  6
Continuous
 62
     7
370
    25
100
AcDbLine
 10
271.0843214848
 20
1077.5208270597
 30
0.0
 11
270.8549199359
 21
1078.1615699451
 31
0.0
  0
LINE
  5
357
330
1F
100
AcDbEntity
  8
0
  6
Continuous
 62
     7
370
    25
100
AcDbLine
 10
270.8549199359
 20
1078.1615699451
 30
0.0
 11
270.2059437003
 21
1077.991149619
 31
0.0
  0
LINE
  5
358
330
1F
100
AcDbEntity
  8
0
  6
Continuous
 62
     7
370
    25
100
AcDbLine
 10
270.203316171
 20
1077.9927243691
 30
0.0
 11
270.0390282137
 21
1078.6531681418
 31
0.0
  0
LINE
  5
359
330
1F
100
AcDbEntity
  8
0
  6
Continuous
 62
     7
370
    25
100
AcDbLine
 10
270.0390282137
 20
1078.6531681418
 30
0.0
 11
269.3762805129
 21
1078.5483887224
 31
0.0
  0
LINE
  5
35A
330
1F
100
AcDbEntity
  8
0
  6
Continuous
 62
     7
370
    25
100
AcDbLine
 10
269.3738233228
 20
1078.5502179206
 30
0.0
 11
269.2762904794
 21
1079.2237636534
 31
0.0
  0
LINE
  5
35B
330
1F
100
AcDbEntity
  8
0
  6
Continuous
 62
     7
370
    25
100
AcDbLine
 10
269.2762904794
 20
1079.2237636534
 30
0.0
 11
268.606393269
 21
1079.185672062
 31
0.0
  0
LINE
  5
35C
330
1F
100
AcDbEntity
  8
0
  6
Continuous
 62
     7
370
    25
100
AcDbLine
 10
268.6041309566
 20
1079.1877374264
 30
0.0
 11
268.5743277561
 21
1079.8676552782
 31
0.0
  0
LINE
  5
35D
330
1F
100
AcDbEntity
  8
0
  6
Continuous
 62
     7
370
    25
100
AcDbLine
 10
268.5743277561
 20
1079.8676552782
 30
0.0
 11
267.9039744277
 21
1079.8966321134
 31
0.0
  0
LINE
  5
35E
330
1F
100
AcDbEntity
  8
0
  6
Continuous
 62
     7
370
    25
100
AcDbLine
 10
267.9019296099
 20
1079.898913014
 30
0.0
 11
267.9401538234
 21
1080.5784094638
 31
0.0
  0
LINE
  5
35F
330
1F
100
AcDbEntity
  8
0
  6
Continuous
 62
     7
370
    25
100
AcDbLine
 10
267.9401538234
 20
1080.5784094638
 30
0.0
 11
267.2760423259
 21
1080.6741651987
 31
0.0
  0
LINE
  5
360
330
1F
100
AcDbEntity
  8
0
  6
Continuous
 62
     7
370
    25
100
AcDbLine
 10
267.2742354477
 20
1080.6766388478
 30
0.0
 11
267.3801051377
 21
1081.3489245895
 31
0.0
  0
LINE
  5
361
330
1F
100
AcDbEntity
  8
0
  6
Continuous
 62
     7
370
    25
100
AcDbLine
 10
267.3801051377
 20
1081.3489245895
 30
0.0
 11
266.7288710538
 21
1081.5105024643
 31
0.0
  0
LINE
  5
362
330
1F
100
AcDbEntity
  8
0
  6
Continuous
 62
     7
370
    25
100
AcDbLine
 10
266.727320141
 20
1081.5131441414
 30
0.0
 11
266.8997775202
 21
1082.1715019227
 31
0.0
  0
LINE
  5
363
330
1F
100
AcDbEntity
  8
0
  6
Continuous
 62
     7
370
    25
100
AcDbLine
 10
266.8997775202
 20
1082.1715019227
 30
0.0
 11
266.2679277654
 21
1082.3972875048
 31
0.0
  0
LINE
  5
364
330
1F
100
AcDbEntity
  8
0
  6
Continuous
 62
     7
370
    25
100
AcDbLine
 10
266.2666483426
 20
1082.4000708169
 30
0.0
 11
266.5039702457
 21
1083.0379225427
 31
0.0
  0
LINE
  5
365
330
1F
100
AcDbEntity
  8
0
  6
Continuous
 62
     7
370
    25
100
AcDbLine
 10
266.5039702457
 20
1083.0379225427
 30
0.0
 11
265.8978180538
 21
1083.3256598573
 31
0.0
  0
LINE
  5
366
330
1F
100
AcDbEntity
  8
0
  6
Continuous
 62
     7
370
    25
100
AcDbLine
 10
265.8968228764
 20
1083.3285569954
 30
0.0
 11
266.1966380897
 21
1083.939529461
 31
0.0
  0
LINE
  5
367
330
1F
100
AcDbEntity
  8
0
  6
Continuous
 62
     7
370
    25
100
AcDbLine
 10
266.1966380897
 20
1083.939529461
 30
0.0
 11
265.6222399333
 21
1084.2863435318
 31
0.0
  0
LINE
  5
368
330
1F
100
AcDbEntity
  8
0
  6
Continuous
 62
     7
370
    25
100
AcDbLine
 10
265.6215389725
 20
1084.289325545
 30
0.0
 11
265.9808518134
 21
1084.8673141194
 31
0.0
  0
LINE
  5
369
330
1F
100
AcDbEntity
  8
0
  6
Continuous
 62
     7
370
    25
100
AcDbLine
 10
265.9808518134
 20
1084.8673141194
 30
0.0
 11
265.4439468889
 21
1085.2697396948
 31
0.0
  0
LINE
  5
36A
330
1F
100
AcDbEntity
  8
0
  6
Continuous
 62
     7
370
    25
100
AcDbLine
 10
265.4435471212
 20
1085.2727767944
 30
0.0
 11
265.8587674821
 21
1085.8120064001
 31
0.0
  0
LINE
  5
36B
330
1F
100
AcDbEntity
  8
0
  6
Continuous
 62
     7
370
    25
100
AcDbLine
 10
265.8587674821
 20
1085.8120064001
 30
0.0
 11
265.364720366
 21
1086.2660225769
 31
0.0
  0
SPLINE
  5
36C
330
1F
100
AcDbEntity
  8
0
  6
Continuous
 62
     7
370
    25
100
AcDbSpline
210
0.0
220
0.0
230
1.0
 70
     8
 71
     3
 72
     9
 73
     5
 74
     0
 42
0.000000001
 43
0.00000001
 40
0.0
 40
0.0
 40
0.0
 40
0.0
 40
0.5886511107999512
 40
1.0
 40
1.0
 40
1.0
 40
1.0
 10
265.3646257995163
 20
1086.269084413813
 30
0.0
 10
265.455699817274
 20
1086.365639438891
 30
0.0
 10
265.6104162801954
 20
1086.529667032326
 30
0.0
 10
265.7671376739126
 20
1086.695820233894
 30
0.0
 10
265.8316048451321
 20
1086.764167168795
 30
0.0
  0
LINE
  5
36D
330
1F
100
AcDbEntity
  8
0
  6
Continuous
 62
     7
370
    25
100
AcDbLine
 10
265.8316048555
 20
1086.7641672564
 30
0.0
 11
265.3853519697
 21
1087.265237649
 31
0.0
  0
LINE
  5
36E
330
1F
100
AcDbEntity
  8
0
  6
Continuous
 62
     7
370
    25
100
AcDbLine
 10
285.3563430104
 20
1086.4373455535
 30
0.0
 11
285.3563430104
 21
1086.4338939172
 31
0.0
  0
LINE
  5
36F
330
1F
100
AcDbEntity
  8
0
  6
Continuous
 62
     7
370
    25
100
AcDbLine
 10
285.3556058486
 20
1086.4380818221
 30
0.0
 11
285.3563430104
 21
1086.4373455535
 31
0.0
  0
LINE
  5
370
330
1F
100
AcDbEntity
  8
0
  6
Continuous
 62
     7
370
    25
100
AcDbLine
 10
285.3563430104
 20
1086.4338939172
 30
0.0
 11
285.3555442925
 21
1086.4331147487
 31
0.0
  0
LINE
  5
371
330
1F
100
AcDbEntity
  8
0
  6
Continuous
 62
     7
370
    25
100
AcDbLine
 10
265.8588587074
 20
758.1094860339
 30
0.0
 11
264.3588587074
 21
758.1094860339
 31
0.0
  0
LINE
  5
372
330
1F
100
AcDbEntity
  8
0
  6
Continuous
 62
     7
370
    25
100
AcDbLine
 10
265.8588587074
 20
755.8594860323
 30
0.0
 11
265.8588587074
 21
758.1094860339
 31
0.0
  0
LINE
  5
373
330
1F
100
AcDbEntity
  8
0
  6
Continuous
 62
     7
370
    25
100
AcDbLine
 10
264.3588587074
 20
756.1594860338
 30
0.0
 11
264.3588587074
 21
758.1094860339
 31
0.0
  0
LINE
  5
374
330
1F
100
AcDbEntity
  8
0
  6
Continuous
 62
     7
370
    25
100
AcDbLine
 10
659.7588587074
 20
758.1094860338
 30
0.0
 11
658.8588587074
 21
758.1094860338
 31
0.0
  0
LINE
  5
375
330
1F
100
AcDbEntity
  8
0
  6
Continuous
 62
     7
370
    25
100
AcDbLine
 10
658.8588587074
 20
755.8594860323
 30
0.0
 11
658.8588587074
 21
758.1094860338
 31
0.0
  0
LINE
  5
376
330
1F
100
AcDbEntity
  8
0
  6
Continuous
 62
     7
370
    25
100
AcDbLine
 10
656.5588587074
 20
757.8594860323
 30
0.0
 11
656.5588587074
 21
758.2594860352
 31
0.0
  0
LINE
  5
377
330
1F
100
AcDbEntity
  8
0
  6
Continuous
 62
     7
370
    25
100
AcDbLine
 10
658.0588587074
 20
757.4594860312
 30
0.0
 11
658.0588587074
 21
758.2594860352
 31
0.0
  0
LINE
  5
378
330
1F
100
AcDbEntity
  8
0
  6
Continuous
 62
     7
370
    25
100
AcDbLine
 10
266.6588587074
 20
757.4594860333
 30
0.0
 11
266.6588587074
 21
758.2594860352
 31
0.0
  0
LINE
  5
379
330
1F
100
AcDbEntity
  8
0
  6
Continuous
 62
     7
370
    25
100
AcDbLine
 10
268.1588587074
 20
757.8594860323
 30
0.0
 11
268.1588587074
 21
758.2594860352
 31
0.0
  0
LINE
  5
37A
330
1F
100
AcDbEntity
  8
0
  6
Continuous
 62
     7
370
    25
100
AcDbLine
 10
656.5588587074
 20
760.2594860349
 30
0.0
 11
658.0588587074
 21
760.2594860349
 31
0.0
  0
LINE
  5
37B
330
1F
100
AcDbEntity
  8
0
  6
Continuous
 62
     7
370
    25
100
AcDbLine
 10
656.5588587074
 20
758.2594860352
 30
0.0
 11
656.5588587074
 21
760.2594860349
 31
0.0
  0
LINE
  5
37C
330
1F
100
AcDbEntity
  8
0
  6
Continuous
 62
     7
370
    25
100
AcDbLine
 10
658.0588587074
 20
760.2594860349
 30
0.0
 11
658.0588587074
 21
758.2594860352
 31
0.0
  0
LINE
  5
37D
330
1F
100
AcDbEntity
  8
0
  6
Continuous
 62
     7
370
    25
100
AcDbLine
 10
266.883822144
 20
760.2594860349
 30
0.0
 11
268.1588587074
 21
760.2594860349
 31
0.0
  0
LINE
  5
37E
330
1F
100
AcDbEntity
  8
0
  6
Continuous
 62
     7
370
    25
100
AcDbLine
 10
266.6588587074
 20
758.2594860352
 30
0.0
 11
266.6588587074
 21
760.2594860349
 31
0.0
  0
LINE
  5
37F
330
1F
100
AcDbEntity
  8
0
  6
Continuous
 62
     7
370
    25
100
AcDbLine
 10
268.1588587074
 20
760.2594860349
 30
0.0
 11
268.1588587074
 21
758.2594860352
 31
0.0
  0
LINE
  5
380
330
1F
100
AcDbEntity
  8
0
  6
Continuous
 62
     7
370
    25
100
AcDbLine
 10
656.5588587074
 20
760.2594860344
 30
0.0
 11
656.5588587074
 21
762.2594860341
 31
0.0
  0
LINE
  5
381
330
1F
100
AcDbEntity
  8
0
  6
Continuous
 62
     7
370
    25
100
AcDbLine
 10
658.0588587074
 20
762.2594860341
 30
0.0
 11
658.0588587074
 21
760.2594860344
 31
0.0
  0
LINE
  5
382
330
1F
100
AcDbEntity
  8
0
  6
Continuous
 62
     7
370
    25
100
AcDbLine
 10
268.1588587074
 20
762.2594860341
 30
0.0
 11
268.1588587074
 21
760.2594860344
 31
0.0
  0
LINE
  5
383
330
1F
100
AcDbEntity
  8
0
  6
Continuous
 62
     7
370
    25
100
AcDbLine
 10
656.5588587074
 20
762.2594860341
 30
0.0
 11
656.5588587074
 21
769.0718115067
 31
0.0
  0
LINE
  5
384
330
1F
100
AcDbEntity
  8
0
  6
Continuous
 62
     7
370
    25
100
AcDbLine
 10
658.0588587074
 20
762.2594860341
 30
0.0
 11
658.0588587074
 21
769.0718115067
 31
0.0
  0
LINE
  5
385
330
1F
100
AcDbEntity
  8
0
  6
Continuous
 62
     7
370
    25
100
AcDbLine
 10
268.1588587074
 20
762.2594860341
 30
0.0
 11
268.1588587074
 21
769.0718115067
 31
0.0
  0
LINE
  5
386
330
1F
100
AcDbEntity
  8
0
  6
Continuous
 62
     7
370
    25
100
AcDbLine
 10
658.1588587074
 20
758.8594860325
 30
0.0
 11
659.6588587074
 21
758.8594860325
 31
0.0
  0
LINE
  5
387
330
1F
100
AcDbEntity
  8
0
  6
Continuous
 62
     7
370
    25
100
AcDbLine
 10
659.6588587074
 20
758.8594860325
 30
0.0
 11
659.6588587074
 21
758.1094860338
 31
0.0
  0
LINE
  5
388
330
1F
100
AcDbEntity
  8
0
  6
Continuous
 62
     7
370
    25
100
AcDbLine
 10
658.1588587074
 20
757.3793544464
 30
0.0
 11
658.1588587074
 21
758.8594860325
 31
0.0
  0
LINE
  5
389
330
1F
100
AcDbEntity
  8
0
  6
Continuous
 62
     7
370
    25
100
AcDbLine
 10
265.0588587074
 20
758.1094860339
 30
0.0
 11
265.0588587074
 21
758.1594860338
 31
0.0
  0
LINE
  5
38A
330
1F
100
AcDbEntity
  8
0
  6
Continuous
 62
     7
370
    25
100
AcDbLine
 10
266.5588587074
 20
758.8594860325
 30
0.0
 11
266.5588587074
 21
757.3793544489
 31
0.0
  0
LINE
  5
38B
330
1F
100
AcDbEntity
  8
0
  6
Continuous
 62
     7
370
    25
100
AcDbLine
 10
658.1588587074
 20
758.8594860303
 30
0.0
 11
658.0588587074
 21
758.8594860303
 31
0.0
  0
LINE
  5
38C
330
1F
100
AcDbEntity
  8
0
  6
Continuous
 62
     7
370
    25
100
AcDbLine
 10
266.6588587074
 20
758.8594860303
 30
0.0
 11
266.5588587074
 21
758.8594860303
 31
0.0
  0
LINE
  5
38D
330
1F
100
AcDbEntity
  8
0
  6
Continuous
 62
     7
370
    25
100
AcDbLine
 10
265.8588587059
 20
752.3594860338
 30
0.0
 11
265.8588587059
 21
755.8594860323
 31
0.0
  0
ARC
  5
38E
330
1F
100
AcDbEntity
  8
0
  6
Continuous
 62
     7
370
    25
100
AcDbCircle
 10
267.8588587059
 20
755.8594860323
 30
0.0
 40
2.0
100
AcDbArc
 50
90.0
 51
180.0
  0
LINE
  5
38F
330
1F
100
AcDbEntity
  8
0
  6
Continuous
 62
     7
370
    25
100
AcDbLine
 10
267.8588587059
 20
757.8594860323
 30
0.0
 11
268.8588587059
 21
757.8594860323
 31
0.0
  0
ARC
  5
390
330
1F
100
AcDbEntity
  8
0
  6
Continuous
 62
     7
370
    25
100
AcDbCircle
 10
268.8588587059
 20
759.8594860323
 30
0.0
 40
2.0
100
AcDbArc
 50
270.0
 51
0.0
  0
LINE
  5
391
330
1F
100
AcDbEntity
  8
0
  6
Continuous
 62
     7
370
    25
100
AcDbLine
 10
270.8588587059
 20
759.8594860323
 30
0.0
 11
270.8588587059
 21
764.6094860323
 31
0.0
  0
LINE
  5
392
330
1F
100
AcDbEntity
  8
0
  6
Continuous
 62
     7
370
    25
100
AcDbLine
 10
653.8588587059
 20
764.6094860323
 30
0.0
 11
653.8588587059
 21
759.8594860323
 31
0.0
  0
ARC
  5
393
330
1F
100
AcDbEntity
  8
0
  6
Continuous
 62
     7
370
    25
100
AcDbCircle
 10
655.8588587059
 20
759.8594860323
 30
0.0
 40
2.0
100
AcDbArc
 50
180.0
 51
270.0
  0
LINE
  5
394
330
1F
100
AcDbEntity
  8
0
  6
Continuous
 62
     7
370
    25
100
AcDbLine
 10
655.8588587059
 20
757.8594860323
 30
0.0
 11
656.8588587059
 21
757.8594860323
 31
0.0
  0
ARC
  5
395
330
1F
100
AcDbEntity
  8
0
  6
Continuous
 62
     7
370
    25
100
AcDbCircle
 10
656.8588587059
 20
755.8594860323
 30
0.0
 40
2.0
100
AcDbArc
 50
0.0
 51
90.0
  0
LINE
  5
396
330
1F
100
AcDbEntity
  8
0
  6
Continuous
 62
     7
370
    25
100
AcDbLine
 10
658.8588587059
 20
755.8594860323
 30
0.0
 11
658.8588587059
 21
752.3594860338
 31
0.0
  0
LINE
  5
397
330
1F
100
AcDbEntity
  8
0
  6
Continuous
 62
     7
370
    25
100
AcDbLine
 10
270.8588587059
 20
764.6094860323
 30
0.0
 11
270.8588587059
 21
767.0594860319
 31
0.0
  0
LINE
  5
398
330
1F
100
AcDbEntity
  8
0
  6
Continuous
 62
     7
370
    25
100
AcDbLine
 10
653.8588587059
 20
767.0594860319
 30
0.0
 11
270.8588587059
 21
767.0594860319
 31
0.0
  0
LINE
  5
399
330
1F
100
AcDbEntity
  8
0
  6
Continuous
 62
     7
370
    25
100
AcDbLine
 10
653.8588587059
 20
767.0594860319
 30
0.0
 11
653.8588587059
 21
764.6094860323
 31
0.0
  0
ARC
  5
39A
330
1F
100
AcDbEntity
  8
0
  6
Continuous
 62
     7
370
    25
100
AcDbCircle
 10
488.6588588543
 20
772.4594128723
 30
0.0
 40
4.49999999999994
100
AcDbArc
 50
228.8335345699
 51
270.0
  0
ARC
  5
39B
330
1F
100
AcDbEntity
  8
0
  6
Continuous
 62
     7
370
    25
100
AcDbCircle
 10
435.7793108543
 20
772.4594128775
 30
0.0
 40
4.499999999999958
100
AcDbArc
 50
270.0
 51
311.1664653296
  0
ARC
  5
39C
330
1F
100
AcDbEntity
  8
0
  6
Continuous
 62
     7
370
    25
100
AcDbCircle
 10
435.7793108543
 20
772.4594128775
 30
0.0
 40
4.59999999999998
100
AcDbArc
 50
269.591845794
 51
270.4081542061
  0
LINE
  5
39D
330
1F
100
AcDbEntity
  8
0
  6
Continuous
 62
     7
370
    25
100
AcDbLine
 10
435.5735394883
 20
767.9594128775
 30
0.0
 11
435.7465424116
 21
767.8595295932
 31
0.0
  0
LINE
  5
39E
330
1F
100
AcDbEntity
  8
0
  6
Continuous
 62
     7
370
    25
100
AcDbLine
 10
435.812079297
 20
767.8595295932
 30
0.0
 11
435.9939537471
 21
767.9645348559
 31
0.0
  0
LINE
  5
39F
330
1F
100
AcDbEntity
  8
0
  6
Continuous
 62
     7
370
    25
100
AcDbLine
 10
442.8793108543
 20
768.7729511592
 30
0.0
 11
442.8793108543
 21
769.0718115067
 31
0.0
  0
ARC
  5
3A0
330
1F
100
AcDbEntity
  8
0
  6
Continuous
 62
     7
370
    25
100
AcDbCircle
 10
435.7793108543
 20
772.4594128775
 30
0.0
 40
7.999999999999954
100
AcDbArc
 50
327.4392401507
 51
332.5607598493
  0
LINE
  5
3A1
330
1F
100
AcDbEntity
  8
0
  6
Continuous
 62
     7
370
    25
100
AcDbLine
 10
440.6263632006
 20
767.0594860319
 30
0.0
 11
442.5218803523
 21
768.1538633697
 31
0.0
  0
LINE
  5
3A2
330
1F
100
AcDbEntity
  8
0
  6
Continuous
 62
     7
370
    25
100
AcDbLine
 10
429.3735394883
 20
767.9594128775
 30
0.0
 11
430.932258508
 21
767.0594860319
 31
0.0
  0
ARC
  5
3A3
330
1F
100
AcDbEntity
  8
0
  6
Continuous
 62
     7
370
    25
100
AcDbCircle
 10
488.6588588543
 20
772.4594128723
 30
0.0
 40
4.550000000000068
100
AcDbArc
 50
268.4635032319
 51
271.5364967681
  0
LINE
  5
3A4
330
1F
100
AcDbEntity
  8
0
  6
Continuous
 62
     7
370
    25
100
AcDbLine
 10
488.7808612504
 20
767.911048835
 30
0.0
 11
488.8646302202
 21
767.9594128723
 31
0.0
  0
LINE
  5
3A5
330
1F
100
AcDbEntity
  8
0
  6
Continuous
 62
     7
370
    25
100
AcDbLine
 10
488.4442159614
 20
767.9645348507
 30
0.0
 11
488.5368564581
 21
767.911048835
 31
0.0
  0
LINE
  5
3A6
330
1F
100
AcDbEntity
  8
0
  6
Continuous
 62
     7
370
    25
100
AcDbLine
 10
493.7395834619
 20
767.0594860319
 30
0.0
 11
494.2591564654
 21
767.9594128723
 31
0.0
  0
LINE
  5
3A7
330
1F
100
AcDbEntity
  8
0
  6
Continuous
 62
     7
370
    25
100
AcDbLine
 10
482.4163175921
 20
769.0718115067
 30
0.0
 11
483.5781342467
 21
767.0594860319
 31
0.0
  0
LINE
  5
3A8
330
1F
100
AcDbEntity
  8
0
  6
Continuous
 62
     7
370
    25
100
AcDbLine
 10
237.3588587074
 20
784.6041298052
 30
0.0
 11
237.3588587074
 21
801.6949162943
 31
0.0
  0
LINE
  5
3A9
330
1F
100
AcDbEntity
  8
0
  6
Continuous
 62
     7
370
    25
100
AcDbLine
 10
687.3588587074
 20
784.6041298052
 30
0.0
 11
687.3588587074
 21
801.6949162943
 31
0.0
  0
LINE
  5
3AA
330
1F
100
AcDbEntity
  8
0
  6
Continuous
 62
     7
370
    25
100
AcDbLine
 10
237.3588587074
 20
769.8040969068
 30
0.0
 11
237.3588587074
 21
784.6041298052
 31
0.0
  0
LINE
  5
3AB
330
1F
100
AcDbEntity
  8
0
  6
Continuous
 62
     7
370
    25
100
AcDbLine
 10
687.3588587074
 20
769.8040969068
 30
0.0
 11
687.3588587074
 21
784.6041298052
 31
0.0
  0
LINE
  5
3AC
330
1F
100
AcDbEntity
  8
0
  6
Continuous
 62
     7
370
    25
100
AcDbLine
 10
237.3588587074
 20
801.6949162943
 30
0.0
 11
237.3588587074
 21
808.7742803039
 31
0.0
  0
LINE
  5
3AD
330
1F
100
AcDbEntity
  8
0
  6
Continuous
 62
     7
370
    25
100
AcDbLine
 10
687.3588587074
 20
801.6949162943
 30
0.0
 11
687.3588587074
 21
808.7742803039
 31
0.0
  0
LINE
  5
3AE
330
1F
100
AcDbEntity
  8
0
  6
Continuous
 62
     7
370
    25
100
AcDbLine
 10
687.3588587074
 20
769.0718115067
 30
0.0
 11
687.3588587074
 21
769.8040969068
 31
0.0
  0
LINE
  5
3AF
330
1F
100
AcDbEntity
  8
0
  6
Continuous
 62
     7
370
    25
100
AcDbLine
 10
687.3588587074
 20
769.0718115067
 30
0.0
 11
237.3588587074
 21
769.0718115067
 31
0.0
  0
LINE
  5
3B0
330
1F
100
AcDbEntity
  8
0
  6
Continuous
 62
     7
370
    25
100
AcDbLine
 10
237.3588587074
 20
769.0718115067
 30
0.0
 11
237.3588587074
 21
769.8040969068
 31
0.0
  0
LINE
  5
3B1
330
1F
100
AcDbEntity
  8
0
  6
Continuous
 62
     7
370
    25
100
AcDbLine
 10
687.3588587074
 20
808.7742803039
 30
0.0
 11
687.3588587074
 21
815.081036568
 31
0.0
  0
LINE
  5
3B2
330
1F
100
AcDbEntity
  8
0
  6
Continuous
 62
     7
370
    25
100
AcDbLine
 10
237.3588587074
 20
808.7742803039
 30
0.0
 11
237.3588587074
 21
815.081036568
 31
0.0
  0
LINE
  5
3B3
330
1F
100
AcDbEntity
  8
0
  6
Continuous
 62
     7
370
    25
100
AcDbLine
 10
237.3588587074
 20
815.081036568
 30
0.0
 11
237.3588587074
 21
889.9429708723
 31
0.0
  0
LINE
  5
3B4
330
1F
100
AcDbEntity
  8
0
  6
Continuous
 62
     7
370
    25
100
AcDbLine
 10
252.2588587074
 20
889.9429708723
 30
0.0
 11
252.2588587074
 21
888.9712445511
 31
0.0
  0
ARC
  5
3B5
330
1F
100
AcDbEntity
  8
0
  6
Continuous
 62
     7
370
    25
100
AcDbCircle
 10
252.5588587074
 20
888.9833645922
 30
0.0
 40
0.3002447258422941
100
AcDbArc
 50
182.3134992123
 51
357.6865007877
  0
ARC
  5
3B6
330
1F
100
AcDbEntity
  8
0
  6
Continuous
 62
     7
370
    25
100
AcDbCircle
 10
268.1588587074
 20
888.9833645922
 30
0.0
 40
0.3002447258422135
100
AcDbArc
 50
182.3134992124
 51
357.6865007877
  0
LINE
  5
3B7
330
1F
100
AcDbEntity
  8
0
  6
Continuous
 62
     7
370
    25
100
AcDbLine
 10
268.4588587074
 20
888.9712445511
 30
0.0
 11
268.4588587074
 21
890.8066996293
 31
0.0
  0
LINE
  5
3B8
330
1F
100
AcDbEntity
  8
0
  6
Continuous
 62
     7
370
    25
100
AcDbLine
 10
287.2588587074
 20
890.8066996293
 30
0.0
 11
268.4588587074
 21
890.8066996293
 31
0.0
  0
LINE
  5
3B9
330
1F
100
AcDbEntity
  8
0
  6
Continuous
 62
     7
370
    25
100
AcDbLine
 10
287.2588587074
 20
890.5970784743
 30
0.0
 11
287.2588587074
 21
890.8066996293
 31
0.0
  0
ARC
  5
3BA
330
1F
100
AcDbEntity
  8
0
  6
Continuous
 62
     7
370
    25
100
AcDbCircle
 10
287.5588587074
 20
890.6091985154
 30
0.0
 40
0.3002447258422703
100
AcDbArc
 50
182.3134992124
 51
357.6865007876
  0
ARC
  5
3BB
330
1F
100
AcDbEntity
  8
0
  6
Continuous
 62
     7
370
    25
100
AcDbCircle
 10
637.1588587074
 20
890.6091985154
 30
0.0
 40
0.3002447258422181
100
AcDbArc
 50
182.3134992124
 51
357.6865007877
  0
LINE
  5
3BC
330
1F
100
AcDbEntity
  8
0
  6
Continuous
 62
     7
370
    25
100
AcDbLine
 10
637.4588587074
 20
890.8066996293
 30
0.0
 11
637.4588587074
 21
890.5970784743
 31
0.0
  0
LINE
  5
3BD
330
1F
100
AcDbEntity
  8
0
  6
Continuous
 62
     7
370
    25
100
AcDbLine
 10
656.2588587074
 20
890.8066996293
 30
0.0
 11
637.4588587074
 21
890.8066996293
 31
0.0
  0
LINE
  5
3BE
330
1F
100
AcDbEntity
  8
0
  6
Continuous
 62
     7
370
    25
100
AcDbLine
 10
656.2588587074
 20
890.8066996293
 30
0.0
 11
656.2588587074
 21
888.9712445511
 31
0.0
  0
ARC
  5
3BF
330
1F
100
AcDbEntity
  8
0
  6
Continuous
 62
     7
370
    25
100
AcDbCircle
 10
656.5588587074
 20
888.9833645922
 30
0.0
 40
0.3002447258423271
100
AcDbArc
 50
182.3134992124
 51
357.6865007876
  0
ARC
  5
3C0
330
1F
100
AcDbEntity
  8
0
  6
Continuous
 62
     7
370
    25
100
AcDbCircle
 10
672.1588587074
 20
888.9833645922
 30
0.0
 40
0.3002447258424407
100
AcDbArc
 50
182.3134992124
 51
357.6865007877
  0
LINE
  5
3C1
330
1F
100
AcDbEntity
  8
0
  6
Continuous
 62
     7
370
    25
100
AcDbLine
 10
672.4588587074
 20
888.9712445511
 30
0.0
 11
672.4588587074
 21
889.9429708723
 31
0.0
  0
LINE
  5
3C2
330
1F
100
AcDbEntity
  8
0
  6
Continuous
 62
     7
370
    25
100
AcDbLine
 10
687.3588587074
 20
815.081036568
 30
0.0
 11
687.3588587074
 21
889.9429708723
 31
0.0
  0
LINE
  5
3C3
330
1F
100
AcDbEntity
  8
0
  6
Continuous
 62
     7
370
    25
100
AcDbLine
 10
257.8588587074
 20
896.8735494804
 30
0.0
 11
262.8588587074
 21
896.8735494804
 31
0.0
  0
LINE
  5
3C4
330
1F
100
AcDbEntity
  8
0
  6
Continuous
 62
     7
370
    25
100
AcDbLine
 10
257.8588587074
 20
896.1427131143
 30
0.0
 11
262.8588587074
 21
896.1427131143
 31
0.0
  0
LWPOLYLINE
  5
3C5
330
1F
100
AcDbEntity
  8
0
  6
Continuous
 62
     7
370
    25
100
AcDbPolyline
 90
        9
 70
   128
 43
0.0
 10
262.8588587074
 20
896.8735494804
 10
263.8343103174
 20
896.8344728276
 10
264.7722758692
 20
896.7187445633
 10
265.6367098724
 20
896.5308120596
 10
266.3943926133
 20
896.2778974574
 10
267.0162067689
 20
895.9697201228
 10
267.4782563699
 20
895.6181231382
 10
267.7627851094
 20
895.2366181784
 10
267.8588587074
 20
894.839866265
  0
LINE
  5
3C6
330
1F
100
AcDbEntity
  8
0
  6
Continuous
 62
     7
370
    25
100
AcDbLine
 10
267.8588587074
 20
894.839866265
 30
0.0
 11
267.8588587074
 21
894.1090298989
 31
0.0
  0
LWPOLYLINE
  5
3C7
330
1F
100
AcDbEntity
  8
0
  6
Continuous
 62
     7
370
    25
100
AcDbPolyline
 90
        9
 70
   128
 43
0.0
 10
262.8588587074
 20
896.1427131143
 10
263.8343103174
 20
896.1036364615
 10
264.7722758692
 20
895.9879081972
 10
265.6367098724
 20
895.7999756935
 10
266.3943926133
 20
895.5470610913
 10
267.0162067689
 20
895.2388837567
 10
267.4782563699
 20
894.8872867721
 10
267.7627851094
 20
894.5057818122
 10
267.8588587074
 20
894.1090298989
  0
LWPOLYLINE
  5
3C8
330
1F
100
AcDbEntity
  8
0
  6
Continuous
 62
     7
370
    25
100
AcDbPolyline
 90
        9
 70
   128
 43
0.0
 10
252.8588587074
 20
894.1090298989
 10
252.9549323053
 20
894.5057818122
 10
253.2394610448
 20
894.8872867721
 10
253.7015106458
 20
895.2388837567
 10
254.3233248014
 20
895.5470610913
 10
255.0810075423
 20
895.7999756935
 10
255.9454415455
 20
895.9879081972
 10
256.8834070973
 20
896.1036364615
 10
257.8588587074
 20
896.1427131143
  0
LINE
  5
3C9
330
1F
100
AcDbEntity
  8
0
  6
Continuous
 62
     7
370
    25
100
AcDbLine
 10
267.8588587074
 20
894.1090298989
 30
0.0
 11
267.8588587074
 21
890.4994476161
 31
0.0
  0
LINE
  5
3CA
330
1F
100
AcDbEntity
  8
0
  6
Continuous
 62
     7
370
    25
100
AcDbLine
 10
252.8588587074
 20
890.4994476161
 30
0.0
 11
252.8588587074
 21
894.1090298989
 31
0.0
  0
LWPOLYLINE
  5
3CB
330
1F
100
AcDbEntity
  8
0
  6
Continuous
 62
     7
370
    25
100
AcDbPolyline
 90
       10
 70
   128
 43
0.0
 10
263.3588587074
 20
892.9905041304
 10
263.1779365697
 20
892.5731677555
 10
262.6569920367
 20
892.2061683067
 10
261.8588587074
 20
891.9337713338
 10
260.8798032404
 20
891.7888319318
 10
259.8379141743
 20
891.7888319318
 10
258.8588587074
 20
891.9337713338
 10
258.060725378
 20
892.2061683067
 10
257.539780845
 20
892.5731677555
 10
257.3588587074
 20
892.9905041304
  0
LINE
  5
3CC
330
1F
100
AcDbEntity
  8
0
  6
Continuous
 62
     7
370
    25
100
AcDbLine
 10
263.3588587074
 20
894.0073457381
 30
0.0
 11
263.3588587074
 21
892.9905041304
 31
0.0
  0
LWPOLYLINE
  5
3CD
330
1F
100
AcDbEntity
  8
0
  6
Continuous
 62
     7
370
    25
100
AcDbPolyline
 90
       10
 70
   128
 43
0.0
 10
257.3588587074
 20
894.0073457381
 10
257.539780845
 20
894.424682113
 10
258.060725378
 20
894.7916815618
 10
258.8588587074
 20
895.0640785348
 10
259.8379141743
 20
895.2090179367
 10
260.8798032404
 20
895.2090179367
 10
261.8588587074
 20
895.0640785348
 10
262.6569920367
 20
894.7916815618
 10
263.1779365697
 20
894.424682113
 10
263.3588587074
 20
894.0073457381
  0
LINE
  5
3CE
330
1F
100
AcDbEntity
  8
0
  6
Continuous
 62
     7
370
    25
100
AcDbLine
 10
257.3588587074
 20
892.9905041304
 30
0.0
 11
257.3588587074
 21
894.0073457381
 31
0.0
  0
LINE
  5
3CF
330
1F
100
AcDbEntity
  8
0
  6
Continuous
 62
     7
370
    25
100
AcDbLine
 10
252.8588587074
 20
894.839866265
 30
0.0
 11
252.8588587074
 21
894.1090298989
 31
0.0
  0
LWPOLYLINE
  5
3D0
330
1F
100
AcDbEntity
  8
0
  6
Continuous
 62
     7
370
    25
100
AcDbPolyline
 90
        9
 70
   128
 43
0.0
 10
252.8588587074
 20
894.839866265
 10
252.9549323053
 20
895.2366181784
 10
253.2394610448
 20
895.6181231382
 10
253.7015106458
 20
895.9697201228
 10
254.3233248014
 20
896.2778974574
 10
255.0810075423
 20
896.5308120596
 10
255.9454415455
 20
896.7187445633
 10
256.8834070973
 20
896.8344728276
 10
257.8588587074
 20
896.8735494804
  0
LWPOLYLINE
  5
3D1
330
1F
100
AcDbEntity
  8
0
  6
Continuous
 62
     7
370
    25
100
AcDbPolyline
 90
        9
 70
   128
 43
0.0
 10
656.8588587074
 20
894.1090298989
 10
656.9549323053
 20
894.5057818122
 10
657.2394610448
 20
894.8872867721
 10
657.7015106458
 20
895.2388837567
 10
658.3233248014
 20
895.5470610913
 10
659.0810075423
 20
895.7999756935
 10
659.9454415455
 20
895.9879081972
 10
660.8834070973
 20
896.1036364615
 10
661.8588587074
 20
896.1427131143
  0
LINE
  5
3D2
330
1F
100
AcDbEntity
  8
0
  6
Continuous
 62
     7
370
    25
100
AcDbLine
 10
661.8588587074
 20
896.1427131143
 30
0.0
 11
666.8588587074
 21
896.1427131143
 31
0.0
  0
LWPOLYLINE
  5
3D3
330
1F
100
AcDbEntity
  8
0
  6
Continuous
 62
     7
370
    25
100
AcDbPolyline
 90
        9
 70
   128
 43
0.0
 10
666.8588587074
 20
896.1427131143
 10
667.8343103174
 20
896.1036364615
 10
668.7722758692
 20
895.9879081972
 10
669.6367098724
 20
895.7999756935
 10
670.3943926133
 20
895.5470610913
 10
671.0162067689
 20
895.2388837567
 10
671.4782563699
 20
894.8872867721
 10
671.7627851094
 20
894.5057818122
 10
671.8588587074
 20
894.1090298989
  0
LINE
  5
3D4
330
1F
100
AcDbEntity
  8
0
  6
Continuous
 62
     7
370
    25
100
AcDbLine
 10
671.8588587074
 20
894.1090298989
 30
0.0
 11
671.8588587074
 21
890.4994476161
 31
0.0
  0
LINE
  5
3D5
330
1F
100
AcDbEntity
  8
0
  6
Continuous
 62
     7
370
    25
100
AcDbLine
 10
656.8588587074
 20
890.4994476161
 30
0.0
 11
656.8588587074
 21
894.1090298989
 31
0.0
  0
LWPOLYLINE
  5
3D6
330
1F
100
AcDbEntity
  8
0
  6
Continuous
 62
     7
370
    25
100
AcDbPolyline
 90
       10
 70
   128
 43
0.0
 10
667.3588587074
 20
892.9905041304
 10
667.1779365697
 20
892.5731677555
 10
666.6569920367
 20
892.2061683067
 10
665.8588587074
 20
891.9337713338
 10
664.8798032404
 20
891.7888319318
 10
663.8379141743
 20
891.7888319318
 10
662.8588587074
 20
891.9337713338
 10
662.060725378
 20
892.2061683067
 10
661.539780845
 20
892.5731677555
 10
661.3588587074
 20
892.9905041304
  0
LINE
  5
3D7
330
1F
100
AcDbEntity
  8
0
  6
Continuous
 62
     7
370
    25
100
AcDbLine
 10
667.3588587074
 20
894.0073457381
 30
0.0
 11
667.3588587074
 21
892.9905041304
 31
0.0
  0
LWPOLYLINE
  5
3D8
330
1F
100
AcDbEntity
  8
0
  6
Continuous
 62
     7
370
    25
100
AcDbPolyline
 90
       10
 70
   128
 43
0.0
 10
661.3588587074
 20
894.0073457381
 10
661.539780845
 20
894.424682113
 10
662.060725378
 20
894.7916815618
 10
662.8588587074
 20
895.0640785348
 10
663.8379141743
 20
895.2090179367
 10
664.8798032404
 20
895.2090179367
 10
665.8588587074
 20
895.0640785348
 10
666.6569920367
 20
894.7916815618
 10
667.1779365697
 20
894.424682113
 10
667.3588587074
 20
894.0073457381
  0
LINE
  5
3D9
330
1F
100
AcDbEntity
  8
0
  6
Continuous
 62
     7
370
    25
100
AcDbLine
 10
661.3588587074
 20
892.9905041304
 30
0.0
 11
661.3588587074
 21
894.0073457381
 31
0.0
  0
LINE
  5
3DA
330
1F
100
AcDbEntity
  8
0
  6
Continuous
 62
     7
370
    25
100
AcDbLine
 10
661.8588587074
 20
896.8735494804
 30
0.0
 11
666.8588587074
 21
896.8735494804
 31
0.0
  0
LWPOLYLINE
  5
3DB
330
1F
100
AcDbEntity
  8
0
  6
Continuous
 62
     7
370
    25
100
AcDbPolyline
 90
        9
 70
   128
 43
0.0
 10
666.8588587074
 20
896.8735494804
 10
667.8343103174
 20
896.8344728276
 10
668.7722758692
 20
896.7187445633
 10
669.6367098724
 20
896.5308120596
 10
670.3943926133
 20
896.2778974574
 10
671.0162067689
 20
895.9697201228
 10
671.4782563699
 20
895.6181231382
 10
671.7627851094
 20
895.2366181784
 10
671.8588587074
 20
894.839866265
  0
LINE
  5
3DC
330
1F
100
AcDbEntity
  8
0
  6
Continuous
 62
     7
370
    25
100
AcDbLine
 10
671.8588587074
 20
894.839866265
 30
0.0
 11
671.8588587074
 21
894.1090298989
 31
0.0
  0
LINE
  5
3DD
330
1F
100
AcDbEntity
  8
0
  6
Continuous
 62
     7
370
    25
100
AcDbLine
 10
656.8588587074
 20
894.839866265
 30
0.0
 11
656.8588587074
 21
894.1090298989
 31
0.0
  0
LWPOLYLINE
  5
3DE
330
1F
100
AcDbEntity
  8
0
  6
Continuous
 62
     7
370
    25
100
AcDbPolyline
 90
        9
 70
   128
 43
0.0
 10
656.8588587074
 20
894.839866265
 10
656.9549323053
 20
895.2366181784
 10
657.2394610448
 20
895.6181231382
 10
657.7015106458
 20
895.9697201228
 10
658.3233248014
 20
896.2778974574
 10
659.0810075423
 20
896.5308120596
 10
659.9454415455
 20
896.7187445633
 10
660.8834070973
 20
896.8344728276
 10
661.8588587074
 20
896.8735494804
  0
LINE
  5
3DF
330
1F
100
AcDbEntity
  8
0
  6
Continuous
 62
     7
370
    25
100
AcDbLine
 10
267.8588587074
 20
888.9712445511
 30
0.0
 11
267.8588587074
 21
890.4994476161
 31
0.0
  0
LINE
  5
3E0
330
1F
100
AcDbEntity
  8
0
  6
Continuous
 62
     7
370
    25
100
AcDbLine
 10
252.8588587074
 20
890.4994476161
 30
0.0
 11
252.8588587074
 21
888.9712445511
 31
0.0
  0
LINE
  5
3E1
330
1F
100
AcDbEntity
  8
0
  6
Continuous
 62
     7
370
    25
100
AcDbLine
 10
671.8588587074
 20
888.9712445511
 30
0.0
 11
671.8588587074
 21
890.4994476161
 31
0.0
  0
LINE
  5
3E2
330
1F
100
AcDbEntity
  8
0
  6
Continuous
 62
     7
370
    25
100
AcDbLine
 10
656.8588587074
 20
890.4994476161
 30
0.0
 11
656.8588587074
 21
888.9712445511
 31
0.0
  0
LINE
  5
3E3
330
1F
100
AcDbEntity
  8
0
  6
Continuous
 62
     7
370
    25
100
AcDbLine
 10
237.3588587074
 20
889.9429708723
 30
0.0
 11
237.3588587074
 21
891.3594860338
 31
0.0
  0
LINE
  5
3E4
330
1F
100
AcDbEntity
  8
0
  6
Continuous
 62
     7
370
    25
100
AcDbLine
 10
252.2588587074
 20
891.3594860338
 30
0.0
 11
238.5588587074
 21
891.3594860338
 31
0.0
  0
LINE
  5
3E5
330
1F
100
AcDbEntity
  8
0
  6
Continuous
 62
     7
370
    25
100
AcDbLine
 10
252.2588587074
 20
891.3594860338
 30
0.0
 11
252.2588587074
 21
889.9429708723
 31
0.0
  0
LINE
  5
3E6
330
1F
100
AcDbEntity
  8
0
  6
Continuous
 62
     7
370
    25
100
AcDbLine
 10
686.1588587074
 20
891.3594860338
 30
0.0
 11
672.4588587074
 21
891.3594860338
 31
0.0
  0
LINE
  5
3E7
330
1F
100
AcDbEntity
  8
0
  6
Continuous
 62
     7
370
    25
100
AcDbLine
 10
687.3588587074
 20
891.3594860338
 30
0.0
 11
687.3588587074
 21
889.9429708723
 31
0.0
  0
LINE
  5
3E8
330
1F
100
AcDbEntity
  8
0
  6
Continuous
 62
     7
370
    25
100
AcDbLine
 10
672.4588587074
 20
889.9429708723
 30
0.0
 11
672.4588587074
 21
891.3594860338
 31
0.0
  0
LINE
  5
3E9
330
1F
100
AcDbEntity
  8
0
  6
Continuous
 62
     7
370
    25
100
AcDbLine
 10
636.8588587074
 20
891.2256996602
 30
0.0
 11
636.8588587074
 21
890.5970784743
 31
0.0
  0
LINE
  5
3EA
330
1F
100
AcDbEntity
  8
0
  6
Continuous
 62
     7
370
    25
100
AcDbLine
 10
287.8588587074
 20
890.5970784743
 30
0.0
 11
287.8588587074
 21
891.2256996602
 31
0.0
  0
ARC
  5
3EB
330
1F
100
AcDbEntity
  8
0
  6
Continuous
 62
     7
370
    25
100
AcDbCircle
 10
292.3850598921
 20
892.814788148
 30
0.0
 40
4.565962104851052
100
AcDbArc
 50
84.0438340645
 51
172.4331460208
  0
LINE
  5
3EC
330
1F
100
AcDbEntity
  8
0
  6
Continuous
 62
     7
370
    25
100
AcDbLine
 10
631.8588587074
 20
897.3561012429
 30
0.0
 11
292.8588587074
 21
897.3561012429
 31
0.0
  0
ARC
  5
3ED
330
1F
100
AcDbEntity
  8
0
  6
Continuous
 62
     7
370
    25
100
AcDbCircle
 10
632.3326575226
 20
892.814788148
 30
0.0
 40
4.565962104851109
100
AcDbArc
 50
7.5668539792
 51
95.9561659355
  0
LINE
  5
3EE
330
1F
100
AcDbEntity
  8
0
  6
Continuous
 62
     7
370
    25
100
AcDbLine
 10
636.8588587074
 20
891.2256996602
 30
0.0
 11
636.8588587074
 21
893.4160474749
 31
0.0
  0
LINE
  5
3EF
330
1F
100
AcDbEntity
  8
0
  6
Continuous
 62
     7
370
    25
100
AcDbLine
 10
287.8588587074
 20
893.4160474749
 30
0.0
 11
287.8588587074
 21
891.2256996602
 31
0.0
  0
LINE
  5
3F0
330
1F
100
AcDbEntity
  8
0
  6
Continuous
 62
     7
370
    25
100
AcDbLine
 10
645.3588587073
 20
890.8066996293
 30
0.0
 11
645.3588587073
 21
891.6169040821
 31
0.0
  0
LINE
  5
3F1
330
1F
100
AcDbEntity
  8
0
  6
Continuous
 62
     7
370
    25
100
AcDbLine
 10
497.7340658916
 20
767.9594128723
 30
0.0
 11
497.2606027154
 21
767.0594860319
 31
0.0
  0
ARC
  5
3F2
330
1F
100
AcDbEntity
  8
0
  6
Continuous
 62
     7
370
    25
100
AcDbCircle
 10
488.6588587073
 20
772.1594860338
 30
0.0
 40
9.99999999999999
100
AcDbArc
 50
197.9849671659
 51
210.6638297551
  0
LINE
  5
3F3
330
1F
100
AcDbEntity
  8
0
  6
Continuous
 62
     7
370
    25
100
AcDbLine
 10
497.1799728034
 20
767.9594128723
 30
0.0
 11
496.6738446699
 21
767.0594860319
 31
0.0
  0
LWPOLYLINE
  5
3F4
330
1F
100
AcDbEntity
  8
0
  6
Continuous
 62
     7
370
    25
100
AcDbPolyline
 90
        3
 70
   128
 43
0.0
 10
480.6438727447
 20
767.0594860319
 10
479.8129758977
 20
768.6953328447
 10
479.6746355348
 20
769.0718115067
  0
LWPOLYLINE
  5
3F5
330
1F
100
AcDbEntity
  8
0
  6
Continuous
 62
     7
370
    25
100
AcDbPolyline
 90
        3
 70
   128
 43
0.0
 10
445.5702343184
 20
769.0718115067
 10
445.1330256909
 20
767.9571660132
 10
444.6606027154
 20
767.0594860319
  0
LINE
  5
3F6
330
1F
100
AcDbEntity
  8
0
  6
Continuous
 62
     7
370
    25
100
AcDbLine
 10
427.4571146993
 20
767.0594860319
 30
0.0
 11
426.9836515206
 21
767.9594128775
 31
0.0
  0
ARC
  5
3F7
330
1F
100
AcDbEntity
  8
0
  6
Continuous
 62
     7
370
    25
100
AcDbCircle
 10
436.0588587073
 20
772.1594860338
 30
0.0
 40
9.500000000000082
100
AcDbArc
 50
327.5310750813
 51
341.0333119895
  0
LINE
  5
3F8
330
1F
100
AcDbEntity
  8
0
  6
Continuous
 62
     7
370
    25
100
AcDbLine
 10
428.0438727448
 20
767.0594860319
 30
0.0
 11
427.5377446087
 21
767.9594128775
 31
0.0
  0
LINE
  5
3F9
330
1F
100
AcDbEntity
  8
0
  6
Continuous
 62
     7
370
    25
100
AcDbLine
 10
279.3588587073
 20
890.8066996293
 30
0.0
 11
279.3588587073
 21
891.6169040821
 31
0.0
  0
LINE
  5
3FA
330
1F
100
AcDbEntity
  8
0
  6
Continuous
 62
     7
370
    25
100
AcDbLine
 10
239.8088587074
 20
946.3594860338
 30
0.0
 11
238.5688587074
 21
946.3594860338
 31
0.0
  0
LINE
  5
3FB
330
1F
100
AcDbEntity
  8
0
  6
Continuous
 62
     7
370
    25
100
AcDbLine
 10
684.9088587074
 20
946.3594860338
 30
0.0
 11
239.8088587074
 21
946.3594860338
 31
0.0
  0
LINE
  5
3FC
330
1F
100
AcDbEntity
  8
0
  6
Continuous
 62
     7
370
    25
100
AcDbLine
 10
686.1488587074
 20
946.3594860338
 30
0.0
 11
684.9088587074
 21
946.3594860338
 31
0.0
  0
LINE
  5
3FD
330
1F
100
AcDbEntity
  8
0
  6
Continuous
 62
     7
370
    25
100
AcDbLine
 10
686.1488587074
 20
901.6919863006
 30
0.0
 11
686.1488587074
 21
946.3594860338
 31
0.0
  0
LINE
  5
3FE
330
1F
100
AcDbEntity
  8
0
  6
Continuous
 62
     7
370
    25
100
AcDbLine
 10
238.5688587074
 20
901.6919863006
 30
0.0
 11
238.5688587074
 21
946.3594860338
 31
0.0
  0
LINE
  5
3FF
330
1F
100
AcDbEntity
  8
0
  6
Continuous
 62
     7
370
    25
100
AcDbLine
 10
687.3588587074
 20
945.1480713212
 30
0.0
 11
686.1588587074
 21
945.1480713212
 31
0.0
  0
LINE
  5
400
330
1F
100
AcDbEntity
  8
0
  6
Continuous
 62
     7
370
    25
100
AcDbLine
 10
687.3588587074
 20
945.1480713212
 30
0.0
 11
687.3588587074
 21
902.8016289906
 31
0.0
  0
LINE
  5
401
330
1F
100
AcDbEntity
  8
0
  6
Continuous
 62
     7
370
    25
100
AcDbLine
 10
686.1588587074
 20
945.1480713212
 30
0.0
 11
686.1588587074
 21
902.8016289906
 31
0.0
  0
LINE
  5
402
330
1F
100
AcDbEntity
  8
0
  6
Continuous
 62
     7
370
    25
100
AcDbLine
 10
237.3588587074
 20
945.1480713212
 30
0.0
 11
238.5588587074
 21
945.1480713212
 31
0.0
  0
LINE
  5
403
330
1F
100
AcDbEntity
  8
0
  6
Continuous
 62
     7
370
    25
100
AcDbLine
 10
238.5588587074
 20
902.8016289906
 30
0.0
 11
238.5588587074
 21
945.1480713212
 31
0.0
  0
LINE
  5
404
330
1F
100
AcDbEntity
  8
0
  6
Continuous
 62
     7
370
    25
100
AcDbLine
 10
237.3588587074
 20
902.8016289906
 30
0.0
 11
237.3588587074
 21
945.1480713212
 31
0.0
  0
LWPOLYLINE
  5
405
330
1F
100
AcDbEntity
  8
0
  6
Continuous
 62
     7
370
    25
100
AcDbPolyline
 90
        9
 70
   128
 43
0.0
 10
639.3488587074
 20
896.8006419782
 10
639.3104292682
 20
896.9562261467
 10
639.1966177724
 20
897.1058313029
 10
639.011797932
 20
897.2437082044
 10
638.7630722697
 20
897.3645583194
 10
638.4599991734
 20
897.4637374457
 10
638.1142255721
 20
897.5374341849
 10
637.7390393514
 20
897.5828164129
 10
637.3488587074
 20
897.598140116
  0
LINE
  5
406
330
1F
100
AcDbEntity
  8
0
  6
Continuous
 62
     7
370
    25
100
AcDbLine
 10
637.3488587074
 20
897.598140116
 30
0.0
 11
287.3688587074
 21
897.598140116
 31
0.0
  0
LWPOLYLINE
  5
407
330
1F
100
AcDbEntity
  8
0
  6
Continuous
 62
     7
370
    25
100
AcDbPolyline
 90
        9
 70
   128
 43
0.0
 10
287.3688587074
 20
897.598140116
 10
286.9786780633
 20
897.5828164129
 10
286.6034918426
 20
897.5374341849
 10
286.2577182413
 20
897.4637374457
 10
285.954645145
 20
897.3645583194
 10
285.7059194827
 20
897.2437082044
 10
285.5210996423
 20
897.1058313029
 10
285.4072881465
 20
896.9562261467
 10
285.3688587074
 20
896.8006419782
  0
LINE
  5
408
330
1F
100
AcDbEntity
  8
0
  6
Continuous
 62
     7
370
    25
100
AcDbLine
 10
285.3688587074
 20
896.8006419782
 30
0.0
 11
285.3688587074
 21
892.41440222
 31
0.0
  0
LWPOLYLINE
  5
409
330
1F
100
AcDbEntity
  8
0
  6
Continuous
 62
     7
370
    25
100
AcDbPolyline
 90
        9
 70
   128
 43
0.0
 10
283.3688587074
 20
891.6169040821
 10
283.7590393514
 20
891.6322277852
 10
284.1342255721
 20
891.6776100132
 10
284.4799991734
 20
891.7513067525
 10
284.7830722697
 20
891.8504858787
 10
285.031797932
 20
891.9713359937
 10
285.2166177724
 20
892.1092128953
 10
285.3304292682
 20
892.2588180515
 10
285.3688587074
 20
892.41440222
  0
LINE
  5
40A
330
1F
100
AcDbEntity
  8
0
  6
Continuous
 62
     7
370
    25
100
AcDbLine
 10
283.3688587074
 20
891.6169040821
 30
0.0
 11
267.8588587074
 21
891.6169040821
 31
0.0
  0
LINE
  5
40B
330
1F
100
AcDbEntity
  8
0
  6
Continuous
 62
     7
370
    25
100
AcDbLine
 10
252.8588587074
 20
891.6169040821
 30
0.0
 11
238.5688587074
 21
891.6169040821
 31
0.0
  0
LINE
  5
40C
330
1F
100
AcDbEntity
  8
0
  6
Continuous
 62
     7
370
    25
100
AcDbLine
 10
686.1488587074
 20
891.6169040821
 30
0.0
 11
671.8588587074
 21
891.6169040821
 31
0.0
  0
LINE
  5
40D
330
1F
100
AcDbEntity
  8
0
  6
Continuous
 62
     7
370
    25
100
AcDbLine
 10
656.8588587074
 20
891.6169040821
 30
0.0
 11
641.3488587074
 21
891.6169040821
 31
0.0
  0
LWPOLYLINE
  5
40E
330
1F
100
AcDbEntity
  8
0
  6
Continuous
 62
     7
370
    25
100
AcDbPolyline
 90
        9
 70
   128
 43
0.0
 10
639.3488587074
 20
892.41440222
 10
639.3872881465
 20
892.2588180515
 10
639.5010996423
 20
892.1092128953
 10
639.6859194827
 20
891.9713359937
 10
639.934645145
 20
891.8504858787
 10
640.2377182413
 20
891.7513067525
 10
640.5834918426
 20
891.6776100132
 10
640.9586780633
 20
891.6322277852
 10
641.3488587074
 20
891.6169040821
  0
LINE
  5
40F
330
1F
100
AcDbEntity
  8
0
  6
Continuous
 62
     7
370
    25
100
AcDbLine
 10
639.3488587074
 20
892.41440222
 30
0.0
 11
639.3488587074
 21
896.8006419782
 31
0.0
  0
LINE
  5
410
330
1F
100
AcDbEntity
  8
0
  6
Continuous
 62
     7
370
    25
100
AcDbLine
 10
686.1488587074
 20
891.6169040821
 30
0.0
 11
686.1488587074
 21
901.6919863006
 31
0.0
  0
LINE
  5
411
330
1F
100
AcDbEntity
  8
0
  6
Continuous
 62
     7
370
    25
100
AcDbLine
 10
238.5688587074
 20
891.6169040821
 30
0.0
 11
238.5688587074
 21
901.6919863006
 31
0.0
  0
LINE
  5
412
330
1F
100
AcDbEntity
  8
0
  6
Continuous
 62
     7
370
    25
100
AcDbLine
 10
687.3588587074
 20
894.3082738225
 30
0.0
 11
686.1588587074
 21
894.3082738225
 31
0.0
  0
LINE
  5
413
330
1F
100
AcDbEntity
  8
0
  6
Continuous
 62
     7
370
    25
100
AcDbLine
 10
687.3588587074
 20
902.8016289906
 30
0.0
 11
687.3588587074
 21
894.3082738225
 31
0.0
  0
LINE
  5
414
330
1F
100
AcDbEntity
  8
0
  6
Continuous
 62
     7
370
    25
100
AcDbLine
 10
686.1588587074
 20
902.8016289906
 30
0.0
 11
686.1588587074
 21
894.3082738225
 31
0.0
  0
LINE
  5
415
330
1F
100
AcDbEntity
  8
0
  6
Continuous
 62
     7
370
    25
100
AcDbLine
 10
237.3588587074
 20
894.3082738225
 30
0.0
 11
238.5588587074
 21
894.3082738225
 31
0.0
  0
LINE
  5
416
330
1F
100
AcDbEntity
  8
0
  6
Continuous
 62
     7
370
    25
100
AcDbLine
 10
238.5588587074
 20
894.3082738225
 30
0.0
 11
238.5588587074
 21
902.8016289906
 31
0.0
  0
LINE
  5
417
330
1F
100
AcDbEntity
  8
0
  6
Continuous
 62
     7
370
    25
100
AcDbLine
 10
237.3588587074
 20
894.3082738225
 30
0.0
 11
237.3588587074
 21
902.8016289906
 31
0.0
  0
LINE
  5
418
330
1F
100
AcDbEntity
  8
0
  6
Continuous
 62
     7
370
    25
100
AcDbLine
 10
686.1588587074
 20
943.9094860338
 30
0.0
 11
686.1488587074
 21
944.0672833722
 31
0.0
  0
ARC
  5
419
330
1F
100
AcDbEntity
  8
0
  6
Continuous
 62
     7
370
    25
100
AcDbCircle
 10
684.9088587074
 20
943.9094860338
 30
0.0
 40
2.449999999999984
100
AcDbArc
 50
30.3675383763
 51
59.5941085903
  0
ARC
  5
41A
330
1F
100
AcDbEntity
  8
0
  6
Continuous
 62
     7
370
    25
100
AcDbCircle
 10
239.8088587074
 20
943.9094860338
 30
0.0
 40
2.450000000000042
100
AcDbArc
 50
120.4058914097
 51
149.6324616237
  0
LINE
  5
41B
330
1F
100
AcDbEntity
  8
0
  6
Continuous
 62
     7
370
    25
100
AcDbLine
 10
238.5688587074
 20
944.0672833722
 30
0.0
 11
238.5588587074
 21
943.9094860338
 31
0.0
  0
LINE
  5
41C
330
1F
100
AcDbEntity
  8
0
  6
Continuous
 62
     7
370
    25
100
AcDbLine
 10
237.3588587074
 20
892.025482491
 30
0.0
 11
238.5588587074
 21
892.025482491
 31
0.0
  0
LINE
  5
41D
330
1F
100
AcDbEntity
  8
0
  6
Continuous
 62
     7
370
    25
100
AcDbLine
 10
237.3588587074
 20
893.6204787667
 30
0.0
 11
238.5588587074
 21
893.6204787667
 31
0.0
  0
LINE
  5
41E
330
1F
100
AcDbEntity
  8
0
  6
Continuous
 62
     7
370
    25
100
AcDbLine
 10
238.5588587074
 20
892.025482491
 30
0.0
 11
238.5588587074
 21
893.6204787667
 31
0.0
  0
LINE
  5
41F
330
1F
100
AcDbEntity
  8
0
  6
Continuous
 62
     7
370
    25
100
AcDbLine
 10
237.3588587074
 20
892.025482491
 30
0.0
 11
237.3588587074
 21
893.6204787667
 31
0.0
  0
LINE
  5
420
330
1F
100
AcDbEntity
  8
0
  6
Continuous
 62
     7
370
    25
100
AcDbLine
 10
238.5588587074
 20
893.6204787667
 30
0.0
 11
238.5588587074
 21
894.3082738225
 31
0.0
  0
LINE
  5
421
330
1F
100
AcDbEntity
  8
0
  6
Continuous
 62
     7
370
    25
100
AcDbLine
 10
237.3588587074
 20
893.6204787667
 30
0.0
 11
237.3588587074
 21
894.3082738225
 31
0.0
  0
LINE
  5
422
330
1F
100
AcDbEntity
  8
0
  6
Continuous
 62
     7
370
    25
100
AcDbLine
 10
687.3588587074
 20
893.6199113481
 30
0.0
 11
686.1588587074
 21
893.6199113481
 31
0.0
  0
LINE
  5
423
330
1F
100
AcDbEntity
  8
0
  6
Continuous
 62
     7
370
    25
100
AcDbLine
 10
687.3588587074
 20
892.025482491
 30
0.0
 11
686.1588587074
 21
892.025482491
 31
0.0
  0
LINE
  5
424
330
1F
100
AcDbEntity
  8
0
  6
Continuous
 62
     7
370
    25
100
AcDbLine
 10
687.3588587074
 20
893.6199113481
 30
0.0
 11
687.3588587074
 21
892.025482491
 31
0.0
  0
LINE
  5
425
330
1F
100
AcDbEntity
  8
0
  6
Continuous
 62
     7
370
    25
100
AcDbLine
 10
686.1588587074
 20
893.6199113481
 30
0.0
 11
686.1588587074
 21
892.025482491
 31
0.0
  0
LINE
  5
426
330
1F
100
AcDbEntity
  8
0
  6
Continuous
 62
     7
370
    25
100
AcDbLine
 10
687.3588587074
 20
894.3082738225
 30
0.0
 11
687.3588587074
 21
893.6199113481
 31
0.0
  0
LINE
  5
427
330
1F
100
AcDbEntity
  8
0
  6
Continuous
 62
     7
370
    25
100
AcDbLine
 10
686.1588587074
 20
894.3082738225
 30
0.0
 11
686.1588587074
 21
893.6199113481
 31
0.0
  0
LINE
  5
428
330
1F
100
AcDbEntity
  8
0
  6
Continuous
 62
     7
370
    25
100
AcDbLine
 10
687.3588587074
 20
891.3594860338
 30
0.0
 11
686.1588587074
 21
891.3594860338
 31
0.0
  0
LINE
  5
429
330
1F
100
AcDbEntity
  8
0
  6
Continuous
 62
     7
370
    25
100
AcDbLine
 10
687.3588587074
 20
892.025482491
 30
0.0
 11
687.3588587074
 21
891.3594860338
 31
0.0
  0
LINE
  5
42A
330
1F
100
AcDbEntity
  8
0
  6
Continuous
 62
     7
370
    25
100
AcDbLine
 10
686.1588587074
 20
892.025482491
 30
0.0
 11
686.1588587074
 21
891.3594860338
 31
0.0
  0
LINE
  5
42B
330
1F
100
AcDbEntity
  8
0
  6
Continuous
 62
     7
370
    25
100
AcDbLine
 10
237.3588587074
 20
891.3594860338
 30
0.0
 11
238.5588587074
 21
891.3594860338
 31
0.0
  0
LINE
  5
42C
330
1F
100
AcDbEntity
  8
0
  6
Continuous
 62
     7
370
    25
100
AcDbLine
 10
238.5588587074
 20
891.3594860338
 30
0.0
 11
238.5588587074
 21
892.025482491
 31
0.0
  0
LINE
  5
42D
330
1F
100
AcDbEntity
  8
0
  6
Continuous
 62
     7
370
    25
100
AcDbLine
 10
237.3588587074
 20
891.3594860338
 30
0.0
 11
237.3588587074
 21
892.025482491
 31
0.0
  0
LINE
  5
42E
330
1F
100
AcDbEntity
  8
0
  6
Continuous
 62
     7
370
    25
100
AcDbLine
 10
686.1588587074
 20
908.7594860338
 30
0.0
 11
686.1488587074
 21
908.7594860338
 31
0.0
  0
LINE
  5
42F
330
1F
100
AcDbEntity
  8
0
  6
Continuous
 62
     7
370
    25
100
AcDbLine
 10
238.5688587074
 20
908.7594860338
 30
0.0
 11
238.5588587074
 21
908.7594860338
 31
0.0
  0
LINE
  5
430
330
1F
100
AcDbEntity
  8
0
  6
Continuous
 62
     7
370
    25
100
AcDbLine
 10
278.5088587073
 20
890.8066996293
 30
0.0
 11
278.5088587073
 21
891.6169040821
 31
0.0
  0
LINE
  5
431
330
1F
100
AcDbEntity
  8
0
  6
Continuous
 62
     7
370
    25
100
AcDbLine
 10
279.3088587073
 20
890.8066996293
 30
0.0
 11
279.3088587073
 21
891.6169040821
 31
0.0
  0
LINE
  5
432
330
1F
100
AcDbEntity
  8
0
  6
Continuous
 62
     7
370
    25
100
AcDbLine
 10
646.2088587073
 20
891.6169040821
 30
0.0
 11
646.2088587073
 21
890.8066996293
 31
0.0
  0
LINE
  5
433
330
1F
100
AcDbEntity
  8
0
  6
Continuous
 62
     7
370
    25
100
AcDbLine
 10
645.4088587073
 20
891.6169040821
 30
0.0
 11
645.4088587073
 21
890.8066996293
 31
0.0
  0
LINE
  5
434
330
1F
100
AcDbEntity
  8
0
  6
Continuous
 62
     7
370
    25
100
AcDbLine
 10
424.8178896441
 20
767.9594128775
 30
0.0
 11
425.1965385141
 21
767.0594860319
 31
0.0
  0
LWPOLYLINE
  5
435
330
1F
100
AcDbEntity
  8
0
  6
Continuous
 62
     7
370
    25
100
AcDbPolyline
 90
        3
 70
   128
 43
0.0
 10
446.9211789006
 20
767.0594860319
 10
447.3351701568
 20
768.0552443139
 10
447.6548177455
 20
769.0718115067
  0
LWPOLYLINE
  5
436
330
1F
100
AcDbEntity
  8
0
  6
Continuous
 62
     7
370
    25
100
AcDbPolyline
 90
        3
 70
   128
 43
0.0
 10
477.0628996692
 20
769.0718115067
 10
477.3825472579
 20
768.0552443139
 10
477.7965385141
 20
767.0594860319
  0
LINE
  5
437
330
1F
100
AcDbEntity
  8
0
  6
Continuous
 62
     7
370
    25
100
AcDbLine
 10
499.5211789006
 20
767.0594860319
 30
0.0
 11
499.8998277687
 21
767.9594128723
 31
0.0
  0
LINE
  5
438
330
1F
100
AcDbEntity
  8
0
  6
Continuous
 62
     7
370
    25
100
AcDbLine
 10
487.3588587074
 20
897.598140116
 30
0.0
 11
487.3588587074
 21
897.3561012429
 31
0.0
  0
LINE
  5
439
330
1F
100
AcDbEntity
  8
0
  6
Continuous
 62
     7
370
    25
100
AcDbLine
 10
486.5588587074
 20
897.3561012429
 30
0.0
 11
486.5588587074
 21
897.598140116
 31
0.0
  0
LINE
  5
43A
330
1F
100
AcDbEntity
  8
0
  6
Continuous
 62
     7
370
    25
100
AcDbLine
 10
437.3588587074
 20
897.3561012429
 30
0.0
 11
437.3588587074
 21
897.598140116
 31
0.0
  0
LINE
  5
43B
330
1F
100
AcDbEntity
  8
0
  6
Continuous
 62
     7
370
    25
100
AcDbLine
 10
438.1588587074
 20
897.598140116
 30
0.0
 11
438.1588587074
 21
897.3561012429
 31
0.0
  0
LINE
  5
43C
330
1F
100
AcDbEntity
  8
0
  6
Continuous
 62
     7
370
    25
100
AcDbLine
 10
682.8517876395
 20
751.0094860338
 30
0.0
 11
682.8517876395
 21
750.3094860338
 31
0.0
  0
LINE
  5
43D
330
1F
100
AcDbEntity
  8
0
  6
Continuous
 62
     7
370
    25
100
AcDbLine
 10
682.8288587074
 20
751.0094860338
 30
0.0
 11
682.8517876395
 21
751.0094860338
 31
0.0
  0
LINE
  5
43E
330
1F
100
AcDbEntity
  8
0
  6
Continuous
 62
     7
370
    25
100
AcDbLine
 10
241.8659297752
 20
750.3094860338
 30
0.0
 11
241.8659297752
 21
751.0094860338
 31
0.0
  0
LINE
  5
43F
330
1F
100
AcDbEntity
  8
0
  6
Continuous
 62
     7
370
    25
100
AcDbLine
 10
241.8659297752
 20
751.0094860338
 30
0.0
 11
241.8888587074
 21
751.0094860338
 31
0.0
  0
LINE
  5
440
330
1F
100
AcDbEntity
  8
0
  6
Continuous
 62
     7
370
    25
100
AcDbLine
 10
241.6588587074
 20
228.6594860338
 30
0.0
 11
258.6588587074
 21
228.6594860338
 31
0.0
  0
LINE
  5
441
330
1F
100
AcDbEntity
  8
0
  6
Continuous
 62
     7
370
    25
100
AcDbLine
 10
241.6588587074
 20
227.1594860338
 30
0.0
 11
258.6588587074
 21
227.1594860338
 31
0.0
  0
LINE
  5
442
330
1F
100
AcDbEntity
  8
0
  6
Continuous
 62
     7
370
    25
100
AcDbLine
 10
242.1588587074
 20
226.6594860338
 30
0.0
 11
255.023176484
 21
226.6594860338
 31
0.0
  0
LWPOLYLINE
  5
443
330
1F
100
AcDbEntity
  8
0
  6
Continuous
 62
     7
370
    25
100
AcDbPolyline
 90
        3
 70
   128
 43
0.0
 10
256.7447294644
 20
229.1594860338
 10
256.9045910325
 20
228.9685893949
 10
256.9122143555
 20
228.9594860338
  0
LINE
  5
444
330
1F
100
AcDbEntity
  8
0
  6
Continuous
 62
     7
370
    25
100
AcDbLine
 10
257.130992011
 20
228.9594860338
 30
0.0
 11
256.9122143555
 21
228.9594860338
 31
0.0
  0
LWPOLYLINE
  5
445
330
1F
100
AcDbEntity
  8
0
  6
Continuous
 62
     7
370
    25
100
AcDbPolyline
 90
        3
 70
   128
 43
0.0
 10
257.130992011
 20
228.9594860338
 10
257.123368688
 20
228.9685893949
 10
256.9635071198
 20
229.1594860338
  0
LINE
  5
446
330
1F
100
AcDbEntity
  8
0
  6
Continuous
 62
     7
370
    25
100
AcDbLine
 10
256.9635071198
 20
228.9594860338
 30
0.0
 11
256.9635071198
 21
229.1594860338
 31
0.0
  0
LINE
  5
447
330
1F
100
AcDbEntity
  8
0
  6
Continuous
 62
     7
370
    25
100
AcDbLine
 10
258.6588587074
 20
754.3594860338
 30
0.0
 11
241.6588587074
 21
754.3594860338
 31
0.0
  0
LINE
  5
448
330
1F
100
AcDbEntity
  8
0
  6
Continuous
 62
     7
370
    25
100
AcDbLine
 10
258.1588587074
 20
754.8594860338
 30
0.0
 11
242.1588587074
 21
754.8594860338
 31
0.0
  0
LINE
  5
449
330
1F
100
AcDbEntity
  8
0
  6
Continuous
 62
     7
370
    25
100
AcDbLine
 10
258.6588587074
 20
752.8594860338
 30
0.0
 11
241.6588587074
 21
752.8594860338
 31
0.0
  0
LINE
  5
44A
330
1F
100
AcDbEntity
  8
0
  6
Continuous
 62
     7
370
    25
100
AcDbLine
 10
271.361182503
 20
318.7594860338
 30
0.0
 11
307.3605039591
 21
318.7594860338
 31
0.0
  0
LINE
  5
44B
330
1F
100
AcDbEntity
  8
0
  6
Continuous
 62
     7
370
    25
100
AcDbLine
 10
309.3588587074
 20
316.7607375986
 30
0.0
 11
309.3588587074
 21
260.757840782
 31
0.0
  0
SPLINE
  5
44C
330
1F
100
AcDbEntity
  8
0
  6
Continuous
 62
     7
370
    25
100
AcDbSpline
210
0.0
220
0.0
230
1.0
 70
     8
 71
     3
 72
    11
 73
     7
 74
     0
 42
0.000000001
 43
0.00000001
 40
0.0
 40
0.0
 40
0.0
 40
0.0
 40
0.2833229682742945
 40
0.558046278621556
 40
0.7754268978867095
 40
1.0
 40
1.0
 40
1.0
 40
1.0
 10
309.35885870736
 20
260.7578407820313
 30
0.0
 10
309.319933445961
 20
260.4607270893781
 30
0.0
 10
309.2432644155594
 20
259.8755179497078
 30
0.0
 10
308.7089054504246
 20
259.2263437545138
 30
0.0
 10
308.0575925887381
 20
258.8311836374643
 30
0.0
 10
307.5953742606334
 20
258.783643131004
 30
0.0
 10
307.3605039591178
 20
258.7594860337891
 30
0.0
  0
LINE
  5
44D
330
1F
100
AcDbEntity
  8
0
  6
Continuous
 62
     7
370
    25
100
AcDbLine
 10
307.3605039591
 20
258.7594860338
 30
0.0
 11
271.361182503
 21
258.7594860338
 31
0.0
  0
SPLINE
  5
44E
330
1F
100
AcDbEntity
  8
0
  6
Continuous
 62
     7
370
    25
100
AcDbSpline
210
0.0
220
0.0
230
1.0
 70
     8
 71
     3
 72
    11
 73
     7
 74
     0
 42
0.000000001
 43
0.00000001
 40
0.0
 40
0.0
 40
0.0
 40
0.0
 40
0.2832771686238255
 40
0.55800224890051
 40
0.7754022428539215
 40
1.0
 40
1.0
 40
1.0
 40
1.0
 10
271.3611825029736
 20
258.7594860337891
 30
0.0
 10
271.0640668909755
 20
258.797769865966
 30
0.0
 10
270.4788055355199
 20
258.8731817480989
 30
0.0
 10
269.828616549605
 20
259.4061204142197
 30
0.0
 10
269.4320785892542
 20
260.056544844117
 30
0.0
 10
269.3835288724729
 20
260.5186527739331
 30
0.0
 10
269.35885870736
 20
260.753469363696
 30
0.0
  0
LINE
  5
44F
330
1F
100
AcDbEntity
  8
0
  6
Continuous
 62
     7
370
    25
100
AcDbLine
 10
269.3588587074
 20
260.7534693637
 30
0.0
 11
269.3588587074
 21
316.7651081541
 31
0.0
  0
SPLINE
  5
450
330
1F
100
AcDbEntity
  8
0
  6
Continuous
 62
     7
370
    25
100
AcDbSpline
210
0.0
220
0.0
230
1.0
 70
     8
 71
     3
 72
    11
 73
     7
 74
     0
 42
0.000000001
 43
0.00000001
 40
0.0
 40
0.0
 40
0.0
 40
0.0
 40
0.2833534124411252
 40
0.558111699096261
 40
0.775483542421178
 40
1.0
 40
1.0
 40
1.0
 40
1.0
 10
269.3588587073599
 20
316.7651081540625
 30
0.0
 10
269.3984368293943
 20
317.0621567288692
 30
0.0
 10
269.4763925269993
 20
317.647243329278
 30
0.0
 10
270.0120587473706
 20
318.2953530996853
 30
0.0
 10
270.6640847235434
 20
318.6892585017976
 30
0.0
 10
271.1263253504224
 20
318.7358258835478
 30
0.0
 10
271.3611825029735
 20
318.7594860337891
 30
0.0
  0
SPLINE
  5
451
330
1F
100
AcDbEntity
  8
0
  6
Continuous
 62
     7
370
    25
100
AcDbSpline
210
0.0
220
0.0
230
1.0
 70
     8
 71
     3
 72
    11
 73
     7
 74
     0
 42
0.000000001
 43
0.00000001
 40
0.0
 40
0.0
 40
0.0
 40
0.0
 40
0.2833048031626429
 40
0.5580362635661725
 40
0.7754301448953711
 40
1.0
 40
1.0
 40
1.0
 40
1.0
 10
307.3605039591178
 20
318.7594860337891
 30
0.0
 10
307.6576232430768
 20
318.720539215654
 30
0.0
 10
308.2428704157438
 20
318.6438241842558
 30
0.0
 10
308.8920062511279
 20
318.1092925952783
 30
0.0
 10
309.2871512500103
 20
317.4578883888712
 30
0.0
 10
309.3346988847923
 20
316.9956230626811
 30
0.0
 10
309.3588587073599
 20
316.7607375986383
 30
0.0
  0
SPLINE
  5
452
330
1F
100
AcDbEntity
  8
0
  6
Continuous
 62
     7
370
    25
100
AcDbSpline
210
0.0
220
0.0
230
1.0
 70
     8
 71
     3
 72
    13
 73
     9
 74
     0
 42
0.000000001
 43
0.00000001
 40
0.0
 40
0.0
 40
0.0
 40
0.0
 40
0.1275744813591049
 40
0.2546483440425906
 40
0.5000017710082056
 40
0.7453551979738147
 40
0.8725131741728124
 40
1.0
 40
1.0
 40
1.0
 40
1.0
 10
307.3605039591178
 20
258.7594860337891
 30
0.0
 10
307.4936937070875
 20
258.7670402962337
 30
0.0
 10
307.7595505493227
 20
258.7821191772253
 30
0.0
 10
308.2596553771691
 20
258.9436216824965
 30
0.0
 10
308.807880952242
 20
259.3104525966
 30
0.0
 10
309.1748186525047
 20
259.8587523447902
 30
0.0
 10
309.3361605532185
 20
260.3589023491069
 30
0.0
 10
309.3512861448901
 20
260.6247468667233
 30
0.0
 10
309.35885870736
 20
260.7578407820313
 30
0.0
  0
SPLINE
  5
453
330
1F
100
AcDbEntity
  8
0
  6
Continuous
 62
     7
370
    25
100
AcDbSpline
210
0.0
220
0.0
230
1.0
 70
     8
 71
     3
 72
    13
 73
     9
 74
     0
 42
0.000000001
 43
0.00000001
 40
0.0
 40
0.0
 40
0.0
 40
0.0
 40
0.1275693177285173
 40
0.2546459829165763
 40
0.5000146894810205
 40
0.7453717616663734
 40
0.8725249485133847
 40
1.0
 40
1.0
 40
1.0
 40
1.0
 10
309.3588587073599
 20
316.7607375986383
 30
0.0
 10
309.3513039181186
 20
316.8939330337958
 30
0.0
 10
309.3362235150378
 20
317.1598095243943
 30
0.0
 10
309.1747166545281
 20
317.659971941647
 30
0.0
 10
308.8079050813872
 20
318.2082949869063
 30
0.0
 10
308.2596102703341
 20
318.5753657078637
 30
0.0
 10
307.759446695945
 20
318.7367775050851
 30
0.0
 10
307.4935968878418
 20
318.751910148046
 30
0.0
 10
307.3605039591178
 20
318.7594860337891
 30
0.0
  0
SPLINE
  5
454
330
1F
100
AcDbEntity
  8
0
  6
Continuous
 62
     7
370
    25
100
AcDbSpline
210
0.0
220
0.0
230
1.0
 70
     8
 71
     3
 72
    13
 73
     9
 74
     0
 42
0.000000001
 43
0.00000001
 40
0.0
 40
0.0
 40
0.0
 40
0.0
 40
0.1275360740474341
 40
0.2545887198592393
 40
0.4999418984797865
 40
0.7453299828649759
 40
0.8725055605771155
 40
0.9999999999999999
 40
0.9999999999999999
 40
0.9999999999999999
 40
0.9999999999999999
 10
271.3611825029735
 20
318.7594860337891
 30
0.0
 10
271.2280199795644
 20
318.7522187899179
 30
0.0
 10
270.9621996881593
 20
318.7377118488199
 30
0.0
 10
270.4618435095339
 20
318.5772207238434
 30
0.0
 10
269.9129236451822
 20
318.211441318473
 30
0.0
 10
269.5448604146923
 20
317.6638663282334
 30
0.0
 10
269.3824302476539
 20
317.1640193442971
 30
0.0
 10
269.3667224431536
 20
316.8981894956309
 30
0.0
 10
269.3588587073599
 20
316.7651081540625
 30
0.0
  0
SPLINE
  5
455
330
1F
100
AcDbEntity
  8
0
  6
Continuous
 62
     7
370
    25
100
AcDbSpline
210
0.0
220
0.0
230
1.0
 70
     8
 71
     3
 72
    13
 73
     9
 74
     0
 42
0.000000001
 43
0.00000001
 40
0.0
 40
0.0
 40
0.0
 40
0.0
 40
0.1275872441294498
 40
0.2546759233236671
 40
0.5000487292309094
 40
0.7453982611490075
 40
0.872539756542471
 40
1.0
 40
1.0
 40
1.0
 40
1.0
 10
269.3588587073599
 20
260.753469363696
 30
0.0
 10
269.3667038788433
 20
260.6202978622442
 30
0.0
 10
269.3823635657091
 20
260.3544752455393
 30
0.0
 10
269.5449499108999
 20
259.8547314124002
 30
0.0
 10
269.9129255986444
 20
259.3073280371789
 30
0.0
 10
270.4619245927868
 20
258.9415752610004
 30
0.0
 10
270.9623119762614
 20
258.7813149228193
 30
0.0
 10
271.2281147370169
 20
258.7667684006275
 30
0.0
 10
271.3611825029735
 20
258.7594860337891
 30
0.0
  0
LINE
  5
456
330
1F
100
AcDbEntity
  8
0
  6
Continuous
 62
     7
370
    25
100
AcDbLine
 10
573.1588587074
 20
716.7899333134
 30
0.0
 11
573.1588587074
 21
692.8164167025
 31
0.0
  0
LINE
  5
457
330
1F
100
AcDbEntity
  8
0
  6
Continuous
 62
     7
370
    25
100
AcDbLine
 10
650.1588587074
 20
692.8164167025
 30
0.0
 11
650.1588587074
 21
716.7899333134
 31
0.0
  0
LINE
  5
458
330
1F
100
AcDbEntity
  8
0
  6
Continuous
 62
     7
370
    25
100
AcDbLine
 10
567.6588587074
 20
683.2640735244
 30
0.0
 11
655.6588587074
 21
683.2640735244
 31
0.0
  0
ARC
  5
459
330
1F
100
AcDbEntity
  8
0
  6
Continuous
 62
     7
370
    25
100
AcDbCircle
 10
655.6588587074
 20
686.2640735244
 30
0.0
 40
3.000000000000114
100
AcDbArc
 50
270.0
 51
0.0
  0
ARC
  5
45A
330
1F
100
AcDbEntity
  8
0
  6
Continuous
 62
     7
370
    25
100
AcDbCircle
 10
567.6588587074
 20
686.2640735244
 30
0.0
 40
3.0
100
AcDbArc
 50
180.0
 51
270.0
  0
LINE
  5
45B
330
1F
100
AcDbEntity
  8
0
  6
Continuous
 62
     7
370
    25
100
AcDbLine
 10
658.6588587074
 20
721.2640735244
 30
0.0
 11
658.6588587074
 21
686.2640735244
 31
0.0
  0
LINE
  5
45C
330
1F
100
AcDbEntity
  8
0
  6
Continuous
 62
     7
370
    25
100
AcDbLine
 10
564.6588587074
 20
721.2640735244
 30
0.0
 11
564.6588587074
 21
686.2640735244
 31
0.0
  0
ARC
  5
45D
330
1F
100
AcDbEntity
  8
0
  6
Continuous
 62
     7
370
    25
100
AcDbCircle
 10
655.6588587074
 20
721.2640735244
 30
0.0
 40
3.000000000000114
100
AcDbArc
 50
0.0
 51
90.0
  0
LINE
  5
45E
330
1F
100
AcDbEntity
  8
0
  6
Continuous
 62
     7
370
    25
100
AcDbLine
 10
567.6588587074
 20
724.2640735244
 30
0.0
 11
655.6588587074
 21
724.2640735244
 31
0.0
  0
ARC
  5
45F
330
1F
100
AcDbEntity
  8
0
  6
Continuous
 62
     7
370
    25
100
AcDbCircle
 10
567.6588587074
 20
721.2640735244
 30
0.0
 40
3.0
100
AcDbArc
 50
90.0
 51
180.0
  0
LINE
  5
460
330
1F
100
AcDbEntity
  8
0
  6
Continuous
 62
     7
370
    25
100
AcDbLine
 10
682.9088587074
 20
750.3094860338
 30
0.0
 11
682.8288587074
 21
750.3094860338
 31
0.0
  0
LINE
  5
461
330
1F
100
AcDbEntity
  8
0
  6
Continuous
 62
     7
370
    25
100
AcDbLine
 10
241.8088587074
 20
231.2094860338
 30
0.0
 11
241.8888587074
 21
231.2094860338
 31
0.0
  0
LINE
  5
462
330
1F
100
AcDbEntity
  8
0
  6
Continuous
 62
     7
370
    25
100
AcDbLine
 10
241.8888587074
 20
750.3094860338
 30
0.0
 11
241.8088587074
 21
750.3094860338
 31
0.0
  0
LINE
  5
463
330
1F
100
AcDbEntity
  8
0
  6
Continuous
 62
     7
370
    25
100
AcDbLine
 10
682.8288587074
 20
231.2094860338
 30
0.0
 11
682.9088587074
 21
231.2094860338
 31
0.0
  0
LINE
  5
464
330
1F
100
AcDbEntity
  8
0
  6
Continuous
 62
     7
370
    25
100
AcDbLine
 10
682.9088587074
 20
750.3094860338
 30
0.0
 11
684.9588587074
 21
750.3094860338
 31
0.0
  0
LINE
  5
465
330
1F
100
AcDbEntity
  8
0
  6
Continuous
 62
     7
370
    25
100
AcDbLine
 10
684.9588587074
 20
231.2094860338
 30
0.0
 11
684.9588587074
 21
750.3094860338
 31
0.0
  0
LINE
  5
466
330
1F
100
AcDbEntity
  8
0
  6
Continuous
 62
     7
370
    25
100
AcDbLine
 10
684.9588587074
 20
231.2094860338
 30
0.0
 11
682.9088587074
 21
231.2094860338
 31
0.0
  0
LINE
  5
467
330
1F
100
AcDbEntity
  8
0
  6
Continuous
 62
     7
370
    25
100
AcDbLine
 10
241.8888587074
 20
750.3094860338
 30
0.0
 11
241.8888587074
 21
752.3594860338
 31
0.0
  0
LINE
  5
468
330
1F
100
AcDbEntity
  8
0
  6
Continuous
 62
     7
370
    25
100
AcDbLine
 10
682.8288587074
 20
752.3594860338
 30
0.0
 11
241.8888587074
 21
752.3594860338
 31
0.0
  0
LINE
  5
469
330
1F
100
AcDbEntity
  8
0
  6
Continuous
 62
     7
370
    25
100
AcDbLine
 10
682.8288587074
 20
752.3594860338
 30
0.0
 11
682.8288587074
 21
750.3094860338
 31
0.0
  0
LINE
  5
46A
330
1F
100
AcDbEntity
  8
0
  6
Continuous
 62
     7
370
    25
100
AcDbLine
 10
239.7588587074
 20
231.2094860338
 30
0.0
 11
239.7588587074
 21
750.3094860338
 31
0.0
  0
LINE
  5
46B
330
1F
100
AcDbEntity
  8
0
  6
Continuous
 62
     7
370
    25
100
AcDbLine
 10
239.7588587074
 20
750.3094860338
 30
0.0
 11
241.8088587074
 21
750.3094860338
 31
0.0
  0
LINE
  5
46C
330
1F
100
AcDbEntity
  8
0
  6
Continuous
 62
     7
370
    25
100
AcDbLine
 10
241.8088587074
 20
231.2094860338
 30
0.0
 11
239.7588587074
 21
231.2094860338
 31
0.0
  0
LINE
  5
46D
330
1F
100
AcDbEntity
  8
0
  6
Continuous
 62
     7
370
    25
100
AcDbLine
 10
241.8888587074
 20
229.1594860338
 30
0.0
 11
682.8288587074
 21
229.1594860338
 31
0.0
  0
LINE
  5
46E
330
1F
100
AcDbEntity
  8
0
  6
Continuous
 62
     7
370
    25
100
AcDbLine
 10
241.8888587074
 20
229.1594860338
 30
0.0
 11
241.8888587074
 21
231.2094860338
 31
0.0
  0
LINE
  5
46F
330
1F
100
AcDbEntity
  8
0
  6
Continuous
 62
     7
370
    25
100
AcDbLine
 10
682.8288587074
 20
231.2094860338
 30
0.0
 11
682.8288587074
 21
229.1594860338
 31
0.0
  0
LINE
  5
470
330
1F
100
AcDbEntity
  8
0
  6
Continuous
 62
     7
370
    25
100
AcDbLine
 10
241.8088587074
 20
751.5594860338
 30
0.0
 11
241.8088587074
 21
752.3594860338
 31
0.0
  0
LINE
  5
471
330
1F
100
AcDbEntity
  8
0
  6
Continuous
 62
     7
370
    25
100
AcDbLine
 10
241.8088587074
 20
752.3594860338
 30
0.0
 11
241.8888587074
 21
752.3594860338
 31
0.0
  0
LINE
  5
472
330
1F
100
AcDbEntity
  8
0
  6
Continuous
 62
     7
370
    25
100
AcDbLine
 10
241.8088587074
 20
751.5594860338
 30
0.0
 11
241.8888587074
 21
751.5594860338
 31
0.0
  0
SPLINE
  5
473
330
1F
100
AcDbEntity
  8
0
  6
Continuous
 62
     7
370
    25
100
AcDbSpline
210
0.0
220
0.0
230
1.0
 70
     8
 71
     3
 72
    11
 73
     7
 74
     0
 42
0.000000001
 43
0.00000001
 40
0.0
 40
0.0
 40
0.0
 40
0.0
 40
0.2500000000000225
 40
0.5000000000000132
 40
0.750000000000011
 40
1.0
 40
1.0
 40
1.0
 40
1.0
 10
241.8088587073603
 20
751.5594860337892
 30
0.0
 10
241.6450624026025
 20
751.5406965678051
 30
0.0
 10
241.3174697930868
 20
751.5031176358368
 30
0.0
 10
240.9042886217158
 20
751.2140561194335
 30
0.0
 10
240.6152271053126
 20
750.8008749480625
 30
0.0
 10
240.5776481733444
 20
750.4732823385468
 30
0.0
 10
240.5588587073603
 20
750.309486033789
 30
0.0
  0
SPLINE
  5
474
330
1F
100
AcDbEntity
  8
0
  6
Continuous
 62
     7
370
    25
100
AcDbSpline
210
0.0
220
0.0
230
1.0
 70
     8
 71
     3
 72
    11
 73
     7
 74
     0
 42
0.000000001
 43
0.00000001
 40
0.0
 40
0.0
 40
0.0
 40
0.0
 40
0.2499999999999894
 40
0.4999999999999927
 40
0.7500000000000004
 40
1.0
 40
1.0
 40
1.0
 40
1.0
 10
241.8088587073603
 20
752.3594860337893
 30
0.0
 10
241.5402327675575
 20
752.3286713095753
 30
0.0
 10
241.002980887952
 20
752.267041861147
 30
0.0
 10
240.3253637669031
 20
751.7929809742463
 30
0.0
 10
239.8513028800023
 20
751.1153638531973
 30
0.0
 10
239.7896734315742
 20
750.5781119735917
 30
0.0
 10
239.7588587073603
 20
750.3094860337889
 30
0.0
  0
LINE
  5
475
330
1F
100
AcDbEntity
  8
0
  6
Continuous
 62
     7
370
    25
100
AcDbLine
 10
682.9088587074
 20
751.5594860338
 30
0.0
 11
682.9088587074
 21
752.3594860338
 31
0.0
  0
SPLINE
  5
476
330
1F
100
AcDbEntity
  8
0
  6
Continuous
 62
     7
370
    25
100
AcDbSpline
210
0.0
220
0.0
230
1.0
 70
     8
 71
     3
 72
    11
 73
     7
 74
     0
 42
0.000000001
 43
0.00000001
 40
0.0
 40
0.0
 40
0.0
 40
0.0
 40
0.2499999999999936
 40
0.5000000000000022
 40
0.7500000000000011
 40
0.9999999999999999
 40
0.9999999999999999
 40
0.9999999999999999
 40
0.9999999999999999
 10
684.9588587073604
 20
750.309486033789
 30
0.0
 10
684.9280439831464
 20
750.5781119735918
 30
0.0
 10
684.8664145347183
 20
751.1153638531974
 30
0.0
 10
684.3923536478175
 20
751.792980974246
 30
0.0
 10
683.7147365267689
 20
752.267041861147
 30
0.0
 10
683.177484647163
 20
752.3286713095748
 30
0.0
 10
682.9088587073604
 20
752.359486033789
 30
0.0
  0
SPLINE
  5
477
330
1F
100
AcDbEntity
  8
0
  6
Continuous
 62
     7
370
    25
100
AcDbSpline
210
0.0
220
0.0
230
1.0
 70
     8
 71
     3
 72
    11
 73
     7
 74
     0
 42
0.000000001
 43
0.00000001
 40
0.0
 40
0.0
 40
0.0
 40
0.0
 40
0.2500000000000139
 40
0.4999999999999901
 40
0.7500000000000056
 40
1.0
 40
1.0
 40
1.0
 40
1.0
 10
684.1588587073604
 20
750.309486033789
 30
0.0
 10
684.1400692413763
 20
750.4732823385467
 30
0.0
 10
684.1024903094079
 20
750.8008749480624
 30
0.0
 10
683.8134287930048
 20
751.2140561194335
 30
0.0
 10
683.4002476216339
 20
751.5031176358368
 30
0.0
 10
683.0726550121183
 20
751.5406965678048
 30
0.0
 10
682.9088587073604
 20
751.559486033789
 30
0.0
  0
LINE
  5
478
330
1F
100
AcDbEntity
  8
0
  6
Continuous
 62
     7
370
    25
100
AcDbLine
 10
682.8288587074
 20
752.3594860338
 30
0.0
 11
682.9088587074
 21
752.3594860338
 31
0.0
  0
LINE
  5
479
330
1F
100
AcDbEntity
  8
0
  6
Continuous
 62
     7
370
    25
100
AcDbLine
 10
682.8288587074
 20
751.5594860338
 30
0.0
 11
682.9088587074
 21
751.5594860338
 31
0.0
  0
LINE
  5
47A
330
1F
100
AcDbEntity
  8
0
  6
Continuous
 62
     7
370
    25
100
AcDbLine
 10
241.8088587074
 20
229.9594860338
 30
0.0
 11
241.8088587074
 21
229.1594860338
 31
0.0
  0
SPLINE
  5
47B
330
1F
100
AcDbEntity
  8
0
  6
Continuous
 62
     7
370
    25
100
AcDbSpline
210
0.0
220
0.0
230
1.0
 70
     8
 71
     3
 72
    11
 73
     7
 74
     0
 42
0.000000001
 43
0.00000001
 40
0.0
 40
0.0
 40
0.0
 40
0.0
 40
0.2500000000000038
 40
0.5000000000000113
 40
0.7500000000000138
 40
1.0
 40
1.0
 40
1.0
 40
1.0
 10
239.7588587073603
 20
231.2094860337889
 30
0.0
 10
239.7896734315743
 20
230.9408600939862
 30
0.0
 10
239.8513028800024
 20
230.4036082143806
 30
0.0
 10
240.3253637669032
 20
229.725991093332
 30
0.0
 10
241.0029808879518
 20
229.2519302064312
 30
0.0
 10
241.5402327675573
 20
229.1903007580031
 30
0.0
 10
241.8088587073601
 20
229.159486033789
 30
0.0
  0
SPLINE
  5
47C
330
1F
100
AcDbEntity
  8
0
  6
Continuous
 62
     7
370
    25
100
AcDbSpline
210
0.0
220
0.0
230
1.0
 70
     8
 71
     3
 72
    11
 73
     7
 74
     0
 42
0.000000001
 43
0.00000001
 40
0.0
 40
0.0
 40
0.0
 40
0.0
 40
0.2499999999999971
 40
0.49999999999999
 40
0.7499999999999861
 40
1.0
 40
1.0
 40
1.0
 40
1.0
 10
240.5588587073603
 20
231.2094860337889
 30
0.0
 10
240.5776481733445
 20
231.0456897290312
 30
0.0
 10
240.6152271053129
 20
230.7180971195156
 30
0.0
 10
240.9042886217156
 20
230.3049159481444
 30
0.0
 10
241.3174697930869
 20
230.0158544317415
 30
0.0
 10
241.6450624026024
 20
229.9782754997732
 30
0.0
 10
241.8088587073602
 20
229.959486033789
 30
0.0
  0
LINE
  5
47D
330
1F
100
AcDbEntity
  8
0
  6
Continuous
 62
     7
370
    25
100
AcDbLine
 10
241.8888587074
 20
229.9594860338
 30
0.0
 11
241.8088587074
 21
229.9594860338
 31
0.0
  0
LINE
  5
47E
330
1F
100
AcDbEntity
  8
0
  6
Continuous
 62
     7
370
    25
100
AcDbLine
 10
241.8888587074
 20
229.1594860338
 30
0.0
 11
241.8088587074
 21
229.1594860338
 31
0.0
  0
LINE
  5
47F
330
1F
100
AcDbEntity
  8
0
  6
Continuous
 62
     7
370
    25
100
AcDbLine
 10
682.9088587074
 20
229.9594860338
 30
0.0
 11
682.9088587074
 21
229.1594860338
 31
0.0
  0
LINE
  5
480
330
1F
100
AcDbEntity
  8
0
  6
Continuous
 62
     7
370
    25
100
AcDbLine
 10
682.9088587074
 20
229.9594860338
 30
0.0
 11
682.8288587074
 21
229.9594860338
 31
0.0
  0
LINE
  5
481
330
1F
100
AcDbEntity
  8
0
  6
Continuous
 62
     7
370
    25
100
AcDbLine
 10
682.9088587074
 20
229.1594860338
 30
0.0
 11
682.8288587074
 21
229.1594860338
 31
0.0
  0
SPLINE
  5
482
330
1F
100
AcDbEntity
  8
0
  6
Continuous
 62
     7
370
    25
100
AcDbSpline
210
0.0
220
0.0
230
1.0
 70
     8
 71
     3
 72
    11
 73
     7
 74
     0
 42
0.000000001
 43
0.00000001
 40
0.0
 40
0.0
 40
0.0
 40
0.0
 40
0.2500000000000038
 40
0.4999999999999989
 40
0.7499999999999998
 40
1.0
 40
1.0
 40
1.0
 40
1.0
 10
682.9088587073604
 20
229.1594860337889
 30
0.0
 10
683.1774846471632
 20
229.190300758003
 30
0.0
 10
683.7147365267689
 20
229.251930206431
 30
0.0
 10
684.3923536478175
 20
229.7259910933319
 30
0.0
 10
684.8664145347184
 20
230.4036082143805
 30
0.0
 10
684.9280439831464
 20
230.9408600939861
 30
0.0
 10
684.9588587073604
 20
231.2094860337889
 30
0.0
  0
SPLINE
  5
483
330
1F
100
AcDbEntity
  8
0
  6
Continuous
 62
     7
370
    25
100
AcDbSpline
210
0.0
220
0.0
230
1.0
 70
     8
 71
     3
 72
    11
 73
     7
 74
     0
 42
0.000000001
 43
0.00000001
 40
0.0
 40
0.0
 40
0.0
 40
0.0
 40
0.2500000000000016
 40
0.5000000000000007
 40
0.750000000000002
 40
1.0
 40
1.0
 40
1.0
 40
1.0
 10
682.9088587073604
 20
229.9594860337889
 30
0.0
 10
683.0726550121183
 20
229.9782754997731
 30
0.0
 10
683.4002476216338
 20
230.0158544317414
 30
0.0
 10
683.8134287930051
 20
230.3049159481444
 30
0.0
 10
684.1024903094078
 20
230.7180971195155
 30
0.0
 10
684.1400692413763
 20
231.0456897290311
 30
0.0
 10
684.1588587073604
 20
231.2094860337889
 30
0.0
  0
LINE
  5
484
330
1F
100
AcDbEntity
  8
0
  6
Continuous
 62
     7
370
    25
100
AcDbLine
 10
243.1588587074
 20
758.1594860338
 30
0.0
 11
243.1588587074
 21
760.6594860338
 31
0.0
  0
LINE
  5
485
330
1F
100
AcDbEntity
  8
0
  6
Continuous
 62
     7
370
    25
100
AcDbLine
 10
243.1588587074
 20
760.6594860338
 30
0.0
 11
257.0058263866
 21
760.6594860338
 31
0.0
  0
LINE
  5
486
330
1F
100
AcDbEntity
  8
0
  6
Continuous
 62
     7
370
    25
100
AcDbLine
 10
243.1588587074
 20
758.1594860338
 30
0.0
 11
257.0058263866
 21
758.1594860338
 31
0.0
  0
LINE
  5
487
330
1F
100
AcDbEntity
  8
0
  6
Continuous
 62
     7
370
    25
100
AcDbLine
 10
266.521047864
 20
760.6594860338
 30
0.0
 11
266.521047864
 21
758.1594860338
 31
0.0
  0
LINE
  5
488
330
1F
100
AcDbEntity
  8
0
  6
Continuous
 62
     7
370
    25
100
AcDbLine
 10
257.0058263866
 20
760.6594860338
 30
0.0
 11
266.521047864
 21
760.6594860338
 31
0.0
  0
LINE
  5
489
330
1F
100
AcDbEntity
  8
0
  6
Continuous
 62
     7
370
    25
100
AcDbLine
 10
257.0058263866
 20
758.1594860338
 30
0.0
 11
266.521047864
 21
758.1594860338
 31
0.0
  0
SPLINE
  5
48A
330
1F
100
AcDbEntity
  8
0
  6
Continuous
 62
     7
370
    25
100
AcDbSpline
210
0.0
220
0.0
230
1.0
 70
     8
 71
     3
 72
    12
 73
     8
 74
     0
 42
0.000000001
 43
0.00000001
 40
0.0
 40
0.0
 40
0.0
 40
0.0
 40
0.2152788140908876
 40
0.4305597103602788
 40
0.6458406093150395
 40
0.8611214901206032
 40
1.0
 40
1.0
 40
1.0
 40
1.0
 10
266.5210478640159
 20
758.1594860337873
 30
0.0
 10
266.5668336387718
 20
758.2206209361037
 30
0.0
 10
266.6584056311241
 20
758.3428913320339
 30
0.0
 10
266.7957772582311
 20
759.296197740726
 30
0.0
 10
266.9330964214837
 20
760.6985795872095
 30
0.0
 10
267.0543509357971
 20
762.2440976829511
 30
0.0
 10
267.129421044314
 20
763.260800608509
 30
0.0
 10
267.1588587073593
 20
763.6594860337873
 30
0.0
  0
SPLINE
  5
48B
330
1F
100
AcDbEntity
  8
0
  6
Continuous
 62
     7
370
    25
100
AcDbSpline
210
0.0
220
0.0
230
1.0
 70
     8
 71
     3
 72
    12
 73
     8
 74
     0
 42
0.000000001
 43
0.00000001
 40
0.0
 40
0.0
 40
0.0
 40
0.0
 40
0.2166694938786086
 40
0.4333389848626241
 40
0.6500003492899687
 40
0.8666616527448244
 40
1.0
 40
1.0
 40
1.0
 40
1.0
 10
266.5210478640158
 20
760.6594860337874
 30
0.0
 10
266.5671297533737
 20
760.6932688065177
 30
0.0
 10
266.6592935314738
 20
760.7608343515273
 30
0.0
 10
266.7975520664868
 20
761.2873732013393
 30
0.0
 10
266.9357507932831
 20
762.0610487773969
 30
0.0
 10
267.0564262420736
 20
762.9027837430207
 30
0.0
 10
267.1306006856768
 20
763.4507347391657
 30
0.0
 10
267.1588587073593
 20
763.6594860337873
 30
0.0
  0
LINE
  5
48C
330
1F
100
AcDbEntity
  8
0
  6
Continuous
 62
     7
370
    25
100
AcDbLine
 10
246.1588587074
 20
763.6594860338
 30
0.0
 11
246.1588587074
 21
760.6594860338
 31
0.0
  0
ARC
  5
48D
330
1F
100
AcDbEntity
  8
0
  6
Continuous
 62
     7
370
    25
100
AcDbCircle
 10
252.8588587074
 20
771.1594860338
 30
0.0
 40
3.200000000000045
100
AcDbArc
 50
220.722667646
 51
270.0
  0
LINE
  5
48E
330
1F
100
AcDbEntity
  8
0
  6
Continuous
 62
     7
370
    25
100
AcDbLine
 10
253.8588587074
 20
767.9594860338
 30
0.0
 11
252.8588587074
 21
767.9594860338
 31
0.0
  0
LINE
  5
48F
330
1F
100
AcDbEntity
  8
0
  6
Continuous
 62
     7
370
    25
100
AcDbLine
 10
246.1588587074
 20
763.6594860338
 30
0.0
 11
246.1588587074
 21
769.0718115067
 31
0.0
  0
ARC
  5
490
330
1F
100
AcDbEntity
  8
0
  6
Continuous
 62
     7
370
    25
100
AcDbCircle
 10
253.8588587074
 20
771.1594860338
 30
0.0
 40
3.200000000000045
100
AcDbArc
 50
270.0
 51
319.277332354
  0
LINE
  5
491
330
1F
100
AcDbEntity
  8
0
  6
Continuous
 62
     7
370
    25
100
AcDbLine
 10
267.1588587074
 20
769.0718115067
 30
0.0
 11
267.1588587074
 21
763.6594860338
 31
0.0
  0
LINE
  5
492
330
1F
100
AcDbEntity
  8
0
  6
Continuous
 62
     7
370
    25
100
AcDbLine
 10
239.4088587074
 20
768.1594860338
 30
0.0
 11
240.6588587074
 21
768.1594860338
 31
0.0
  0
ARC
  5
493
330
1F
100
AcDbEntity
  8
0
  6
Continuous
 62
     7
370
    25
100
AcDbCircle
 10
240.6588587074
 20
766.1594860338
 30
0.0
 40
2.0
100
AcDbArc
 50
0.0
 51
90.0
  0
LINE
  5
494
330
1F
100
AcDbEntity
  8
0
  6
Continuous
 62
     7
370
    25
100
AcDbLine
 10
242.6588587074
 20
766.1594860338
 30
0.0
 11
242.6588587074
 21
758.1594860338
 31
0.0
  0
ARC
  5
495
330
1F
100
AcDbEntity
  8
0
  6
Continuous
 62
     7
370
    25
100
AcDbCircle
 10
244.6588587074
 20
758.1594860338
 30
0.0
 40
2.0
100
AcDbArc
 50
180.0
 51
270.0
  0
LINE
  5
496
330
1F
100
AcDbEntity
  8
0
  6
Continuous
 62
     7
370
    25
100
AcDbLine
 10
244.6588587074
 20
756.1594860338
 30
0.0
 11
245.1588587074
 21
756.1594860338
 31
0.0
  0
LINE
  5
497
330
1F
100
AcDbEntity
  8
0
  6
Continuous
 62
     7
370
    25
100
AcDbLine
 10
255.1588587074
 20
756.1594860338
 30
0.0
 11
262.9088587074
 21
756.1594860338
 31
0.0
  0
LINE
  5
498
330
1F
100
AcDbEntity
  8
0
  6
Continuous
 62
     7
370
    25
100
AcDbLine
 10
239.7588587074
 20
237.6594860338
 30
0.0
 11
239.4088587074
 21
237.6594860338
 31
0.0
  0
LINE
  5
499
330
1F
100
AcDbEntity
  8
0
  6
Continuous
 62
     7
370
    25
100
AcDbLine
 10
237.3588587074
 20
768.1594860338
 30
0.0
 11
239.4088587074
 21
768.1594860338
 31
0.0
  0
LINE
  5
49A
330
1F
100
AcDbEntity
  8
0
  6
Continuous
 62
     7
370
    25
100
AcDbLine
 10
239.4088587074
 20
237.6594860338
 30
0.0
 11
237.3588587074
 21
237.6594860338
 31
0.0
  0
LINE
  5
49B
330
1F
100
AcDbEntity
  8
0
  6
Continuous
 62
     7
370
    25
100
AcDbLine
 10
237.3588587074
 20
237.6594860338
 30
0.0
 11
237.3588587074
 21
768.1594860338
 31
0.0
  0
LINE
  5
49C
330
1F
100
AcDbEntity
  8
0
  6
Continuous
 62
     7
370
    25
100
AcDbLine
 10
264.9588587074
 20
752.3594860338
 30
0.0
 11
264.9588587074
 21
756.1594860338
 31
0.0
  0
LINE
  5
49D
330
1F
100
AcDbEntity
  8
0
  6
Continuous
 62
     7
370
    25
100
AcDbLine
 10
262.9088587074
 20
756.1594860338
 30
0.0
 11
264.9588587074
 21
756.1594860338
 31
0.0
  0
LINE
  5
49E
330
1F
100
AcDbEntity
  8
0
  6
Continuous
 62
     7
370
    25
100
AcDbLine
 10
238.1588587074
 20
226.6594860338
 30
0.0
 11
237.3588587074
 21
226.6594860338
 31
0.0
  0
LINE
  5
49F
330
1F
100
AcDbEntity
  8
0
  6
Continuous
 62
     7
370
    25
100
AcDbLine
 10
238.1588587074
 20
231.6594860338
 30
0.0
 11
238.1588587074
 21
226.6594860338
 31
0.0
  0
LINE
  5
4A0
330
1F
100
AcDbEntity
  8
0
  6
Continuous
 62
     7
370
    25
100
AcDbLine
 10
237.3588587074
 20
226.6594860338
 30
0.0
 11
237.3588587074
 21
231.6594860338
 31
0.0
  0
LINE
  5
4A1
330
1F
100
AcDbEntity
  8
0
  6
Continuous
 62
     7
370
    25
100
AcDbLine
 10
238.1588587074
 20
237.6594860338
 30
0.0
 11
238.1588587074
 21
231.6594860338
 31
0.0
  0
LINE
  5
4A2
330
1F
100
AcDbEntity
  8
0
  6
Continuous
 62
     7
370
    25
100
AcDbLine
 10
237.3588587074
 20
237.6594860338
 30
0.0
 11
237.3588587074
 21
231.6594860338
 31
0.0
  0
LINE
  5
4A3
330
1F
100
AcDbEntity
  8
0
  6
Continuous
 62
     7
370
    25
100
AcDbLine
 10
268.1588587074
 20
888.6859275962
 30
0.0
 11
268.1588587074
 21
891.6169040821
 31
0.0
  0
LINE
  5
4A4
330
1F
100
AcDbEntity
  8
0
  6
Continuous
 62
     7
370
    25
100
AcDbLine
 10
238.1588587074
 20
768.1594860338
 30
0.0
 11
238.1588587074
 21
769.0718115067
 31
0.0
  0
LINE
  5
4A5
330
1F
100
AcDbEntity
  8
0
  6
Continuous
 62
     7
370
    25
100
AcDbLine
 10
237.3588587074
 20
768.1594860338
 30
0.0
 11
237.3588587074
 21
769.0718115067
 31
0.0
  0
LINE
  5
4A6
330
1F
100
AcDbEntity
  8
0
  6
Continuous
 62
     7
370
    25
100
AcDbLine
 10
239.4088587074
 20
225.8594860338
 30
0.0
 11
242.1588587074
 21
225.8594860338
 31
0.0
  0
LINE
  5
4A7
330
1F
100
AcDbEntity
  8
0
  6
Continuous
 62
     7
370
    25
100
AcDbLine
 10
239.4088587074
 20
226.6594860338
 30
0.0
 11
242.1588587074
 21
226.6594860338
 31
0.0
  0
ARC
  5
4A8
330
1F
100
AcDbEntity
  8
0
  6
Continuous
 62
     7
370
    25
100
AcDbCircle
 10
239.4088587074
 20
227.9094860338
 30
0.0
 40
2.050000000000012
100
AcDbArc
 50
217.5718693195
 51
270.0
  0
ARC
  5
4A9
330
1F
100
AcDbEntity
  8
0
  6
Continuous
 62
     7
370
    25
100
AcDbCircle
 10
239.4088587074
 20
227.9094860338
 30
0.0
 40
1.249999999999972
100
AcDbArc
 50
180.0
 51
270.0
  0
LINE
  5
4AA
330
1F
100
AcDbEntity
  8
0
  6
Continuous
 62
     7
370
    25
100
AcDbLine
 10
687.3588587074
 20
232.6594860338
 30
0.0
 11
685.3088587074
 21
232.6594860338
 31
0.0
  0
LINE
  5
4AB
330
1F
100
AcDbEntity
  8
0
  6
Continuous
 62
     7
370
    25
100
AcDbLine
 10
685.3088587074
 20
768.1594860338
 30
0.0
 11
687.3588587074
 21
768.1594860338
 31
0.0
  0
LINE
  5
4AC
330
1F
100
AcDbEntity
  8
0
  6
Continuous
 62
     7
370
    25
100
AcDbLine
 10
687.3588587074
 20
768.1594860338
 30
0.0
 11
687.3588587074
 21
232.6594860338
 31
0.0
  0
LINE
  5
4AD
330
1F
100
AcDbEntity
  8
0
  6
Continuous
 62
     7
370
    25
100
AcDbLine
 10
685.3088587074
 20
768.1594860338
 30
0.0
 11
661.8088587074
 21
768.1594860338
 31
0.0
  0
LINE
  5
4AE
330
1F
100
AcDbEntity
  8
0
  6
Continuous
 62
     7
370
    25
100
AcDbLine
 10
684.9588587074
 20
232.6594860338
 30
0.0
 11
685.3088587074
 21
232.6594860338
 31
0.0
  0
LINE
  5
4AF
330
1F
100
AcDbEntity
  8
0
  6
Continuous
 62
     7
370
    25
100
AcDbLine
 10
659.7588587074
 20
768.1594860338
 30
0.0
 11
659.7588587074
 21
752.3594860338
 31
0.0
  0
LINE
  5
4B0
330
1F
100
AcDbEntity
  8
0
  6
Continuous
 62
     7
370
    25
100
AcDbLine
 10
659.7588587074
 20
768.1594860338
 30
0.0
 11
661.8088587074
 21
768.1594860338
 31
0.0
  0
LINE
  5
4B1
330
1F
100
AcDbEntity
  8
0
  6
Continuous
 62
     7
370
    25
100
AcDbLine
 10
686.5588587074
 20
232.6594860338
 30
0.0
 11
686.5588587074
 21
231.6594860338
 31
0.0
  0
LINE
  5
4B2
330
1F
100
AcDbEntity
  8
0
  6
Continuous
 62
     7
370
    25
100
AcDbLine
 10
687.3588587074
 20
232.6594860338
 30
0.0
 11
687.3588587074
 21
231.6594860338
 31
0.0
  0
LINE
  5
4B3
330
1F
100
AcDbEntity
  8
0
  6
Continuous
 62
     7
370
    25
100
AcDbLine
 10
687.3588587074
 20
226.6594860338
 30
0.0
 11
686.5588587074
 21
226.6594860338
 31
0.0
  0
LINE
  5
4B4
330
1F
100
AcDbEntity
  8
0
  6
Continuous
 62
     7
370
    25
100
AcDbLine
 10
686.5588587074
 20
226.6594860338
 30
0.0
 11
686.5588587074
 21
231.6594860338
 31
0.0
  0
LINE
  5
4B5
330
1F
100
AcDbEntity
  8
0
  6
Continuous
 62
     7
370
    25
100
AcDbLine
 10
687.3588587074
 20
231.6594860338
 30
0.0
 11
687.3588587074
 21
226.6594860338
 31
0.0
  0
LINE
  5
4B6
330
1F
100
AcDbEntity
  8
0
  6
Continuous
 62
     7
370
    25
100
AcDbLine
 10
656.5588587074
 20
891.6169040821
 30
0.0
 11
656.5588587074
 21
888.6859275962
 31
0.0
  0
LINE
  5
4B7
330
1F
100
AcDbEntity
  8
0
  6
Continuous
 62
     7
370
    25
100
AcDbLine
 10
686.5588587074
 20
769.0718115067
 30
0.0
 11
686.5588587074
 21
768.1594860338
 31
0.0
  0
LINE
  5
4B8
330
1F
100
AcDbEntity
  8
0
  6
Continuous
 62
     7
370
    25
100
AcDbLine
 10
687.3588587074
 20
768.1594860338
 30
0.0
 11
687.3588587074
 21
769.0718115067
 31
0.0
  0
LINE
  5
4B9
330
1F
100
AcDbEntity
  8
0
  6
Continuous
 62
     7
370
    25
100
AcDbLine
 10
679.5588587074
 20
225.8594860338
 30
0.0
 11
676.5588587074
 21
225.8594860338
 31
0.0
  0
LINE
  5
4BA
330
1F
100
AcDbEntity
  8
0
  6
Continuous
 62
     7
370
    25
100
AcDbLine
 10
676.5588587074
 20
225.8594860338
 30
0.0
 11
676.5588587074
 21
226.6594860338
 31
0.0
  0
LINE
  5
4BB
330
1F
100
AcDbEntity
  8
0
  6
Continuous
 62
     7
370
    25
100
AcDbLine
 10
679.5588587074
 20
226.6594860338
 30
0.0
 11
676.7304315826
 21
226.6594860338
 31
0.0
  0
ARC
  5
4BC
330
1F
100
AcDbEntity
  8
0
  6
Continuous
 62
     7
370
    25
100
AcDbCircle
 10
685.3088587074
 20
227.9094860338
 30
0.0
 40
2.050000000000064
100
AcDbArc
 50
270.0
 51
322.4281306801
  0
ARC
  5
4BD
330
1F
100
AcDbEntity
  8
0
  6
Continuous
 62
     7
370
    25
100
AcDbCircle
 10
685.3088587074
 20
227.9094860338
 30
0.0
 40
1.25
100
AcDbArc
 50
270.0
 51
0.0
  0
LINE
  5
4BE
330
1F
100
AcDbEntity
  8
0
  6
Continuous
 62
     7
370
    25
100
AcDbLine
 10
685.3088587074
 20
225.8594860338
 30
0.0
 11
679.5588587074
 21
225.8594860338
 31
0.0
  0
LINE
  5
4BF
330
1F
100
AcDbEntity
  8
0
  6
Continuous
 62
     7
370
    25
100
AcDbLine
 10
685.3088587074
 20
226.6594860338
 30
0.0
 11
679.5588587074
 21
226.6594860338
 31
0.0
  0
LINE
  5
4C0
330
1F
100
AcDbEntity
  8
0
  6
Continuous
 62
     7
370
    25
100
AcDbLine
 10
676.5588587074
 20
225.8594860338
 30
0.0
 11
674.5588587074
 21
225.8594860338
 31
0.0
  0
LINE
  5
4C1
330
1F
100
AcDbEntity
  8
0
  6
Continuous
 62
     7
370
    25
100
AcDbLine
 10
672.5588587074
 20
225.8594860338
 30
0.0
 11
672.3588587074
 21
225.8594860338
 31
0.0
  0
LINE
  5
4C2
330
1F
100
AcDbEntity
  8
0
  6
Continuous
 62
     7
370
    25
100
AcDbLine
 10
674.5588587074
 20
225.8594860338
 30
0.0
 11
672.5588587074
 21
225.8594860338
 31
0.0
  0
LWPOLYLINE
  5
4C3
330
1F
100
AcDbEntity
  8
0
  6
Continuous
 62
     7
370
    25
100
AcDbPolyline
 90
        3
 70
   128
 43
0.0
 10
664.3488587074
 20
892.3546212517
 10
665.527879405
 20
892.425482461
 10
666.059117364
 20
892.5077651917
  0
LWPOLYLINE
  5
4C4
330
1F
100
AcDbEntity
  8
0
  6
Continuous
 62
     7
370
    25
100
AcDbPolyline
 90
        3
 70
   128
 43
0.0
 10
662.702051632
 20
892.4960676995
 10
663.1698380097
 20
892.425482461
 10
664.3488587074
 20
892.3546212517
  0
LWPOLYLINE
  5
4C5
330
1F
100
AcDbEntity
  8
0
  6
Continuous
 62
     7
370
    25
100
AcDbPolyline
 90
       19
 70
   128
 43
0.0
 10
664.3488587074
 20
892.7733077741
 10
665.3578181302
 20
892.8442479325
 10
666.2450821559
 20
893.0485119775
 10
666.9036336485
 20
893.3614626508
 10
667.2540415787
 20
893.7453534824
 10
667.2540415787
 20
894.1538815725
 10
666.9036336485
 20
894.5377724041
 10
666.2450821559
 20
894.8507230773
 10
665.3578181302
 20
895.0549871224
 10
664.3488587074
 20
895.1259272807
 10
663.3398992845
 20
895.0549871224
 10
662.4526352588
 20
894.8507230773
 10
661.7940837662
 20
894.5377724041
 10
661.443675836
 20
894.1538815725
 10
661.443675836
 20
893.7453534824
 10
661.7940837662
 20
893.3614626508
 10
662.4526352588
 20
893.0485119775
 10
663.3398992845
 20
892.8442479325
 10
664.3488587074
 20
892.7733077741
  0
ARC
  5
4C6
330
1F
100
AcDbEntity
  8
0
  6
Continuous
 62
     7
370
    25
100
AcDbCircle
 10
664.5050002819
 20
899.9588364846
 30
0.0
 40
5.537022575991195
100
AcDbArc
 50
268.3840702783
 51
290.5740413029
  0
ARC
  5
4C7
330
1F
100
AcDbEntity
  8
0
  6
Continuous
 62
     7
370
    25
100
AcDbCircle
 10
664.1927171328
 20
899.9588364846
 30
0.0
 40
5.537022575997078
100
AcDbArc
 50
249.4259586971
 51
271.6159297217
  0
LWPOLYLINE
  5
4C8
330
1F
100
AcDbEntity
  8
0
  6
Continuous
 62
     7
370
    25
100
AcDbPolyline
 90
        3
 70
   128
 43
0.0
 10
664.3488587074
 20
894.5934842623
 10
665.3151343741
 20
894.6701255003
 10
666.1309260736
 20
894.8870371452
  0
LWPOLYLINE
  5
4C9
330
1F
100
AcDbEntity
  8
0
  6
Continuous
 62
     7
370
    25
100
AcDbPolyline
 90
        3
 70
   128
 43
0.0
 10
662.5667913411
 20
894.8870371452
 10
663.3825830406
 20
894.6701255003
 10
664.3488587074
 20
894.5934842623
  0
LWPOLYLINE
  5
4CA
330
1F
100
AcDbEntity
  8
0
  6
Continuous
 62
     7
370
    25
100
AcDbPolyline
 90
        3
 70
   128
 43
0.0
 10
260.3688587074
 20
892.3546212517
 10
261.547879405
 20
892.425482461
 10
262.0156657827
 20
892.4960676995
  0
LWPOLYLINE
  5
4CB
330
1F
100
AcDbEntity
  8
0
  6
Continuous
 62
     7
370
    25
100
AcDbPolyline
 90
        3
 70
   128
 43
0.0
 10
258.6586000507
 20
892.5077651917
 10
259.1898380097
 20
892.425482461
 10
260.3688587074
 20
892.3546212517
  0
LWPOLYLINE
  5
4CC
330
1F
100
AcDbEntity
  8
0
  6
Continuous
 62
     7
370
    25
100
AcDbPolyline
 90
       19
 70
   128
 43
0.0
 10
260.3688587074
 20
892.7733077741
 10
261.3778181302
 20
892.8442479325
 10
262.2650821559
 20
893.0485119775
 10
262.9236336485
 20
893.3614626508
 10
263.2740415787
 20
893.7453534824
 10
263.2740415787
 20
894.1538815725
 10
262.9236336485
 20
894.5377724041
 10
262.2650821559
 20
894.8507230773
 10
261.3778181302
 20
895.0549871224
 10
260.3688587074
 20
895.1259272807
 10
259.3598992845
 20
895.0549871224
 10
258.4726352588
 20
894.8507230773
 10
257.8140837662
 20
894.5377724041
 10
257.463675836
 20
894.1538815725
 10
257.463675836
 20
893.7453534824
 10
257.8140837662
 20
893.3614626508
 10
258.4726352588
 20
893.0485119775
 10
259.3598992845
 20
892.8442479325
 10
260.3688587074
 20
892.7733077741
  0
ARC
  5
4CD
330
1F
100
AcDbEntity
  8
0
  6
Continuous
 62
     7
370
    25
100
AcDbCircle
 10
260.5250002819
 20
899.9588364846
 30
0.0
 40
5.537022575997551
100
AcDbArc
 50
268.3840702783
 51
290.5740413029
  0
ARC
  5
4CE
330
1F
100
AcDbEntity
  8
0
  6
Continuous
 62
     7
370
    25
100
AcDbCircle
 10
260.2127171328
 20
899.9588364846
 30
0.0
 40
5.537022575997986
100
AcDbArc
 50
249.4259586971
 51
271.6159297217
  0
LWPOLYLINE
  5
4CF
330
1F
100
AcDbEntity
  8
0
  6
Continuous
 62
     7
370
    25
100
AcDbPolyline
 90
        3
 70
   128
 43
0.0
 10
260.3688587074
 20
894.5934842623
 10
261.3351343741
 20
894.6701255003
 10
262.1509260643
 20
894.8870371415
  0
LWPOLYLINE
  5
4D0
330
1F
100
AcDbEntity
  8
0
  6
Continuous
 62
     7
370
    25
100
AcDbPolyline
 90
        3
 70
   128
 43
0.0
 10
258.5867913507
 20
894.8870371414
 10
259.4025830406
 20
894.6701255003
 10
260.3688587074
 20
894.5934842623
  0
ARC
  5
4D1
330
1F
100
AcDbEntity
  8
0
  6
Continuous
 62
     7
370
    25
100
AcDbCircle
 10
253.3588587074
 20
771.1594860338
 30
0.0
 40
2.949999999999938
100
AcDbArc
 50
270.0
 51
314.9530248054
  0
ARC
  5
4D2
330
1F
100
AcDbEntity
  8
0
  6
Continuous
 62
     7
370
    25
100
AcDbCircle
 10
253.3588587074
 20
771.1594860338
 30
0.0
 40
2.949999999999938
100
AcDbArc
 50
225.0469751946
 51
270.0
  0
LWPOLYLINE
  5
4D3
330
1F
100
AcDbEntity
  8
0
  6
Continuous
 62
     7
370
    25
100
AcDbPolyline
 90
        3
 70
   128
 43
0.0
 10
253.3588587074
 20
768.6344860338
 10
254.3251343741
 20
768.8266902142
 10
254.7791544754
 20
769.0718115067
  0
LWPOLYLINE
  5
4D4
330
1F
100
AcDbEntity
  8
0
  6
Continuous
 62
     7
370
    25
100
AcDbPolyline
 90
        3
 70
   128
 43
0.0
 10
251.9385629393
 20
769.0718115067
 10
252.3925830406
 20
768.8266902142
 10
253.3588587074
 20
768.6344860338
  0
LWPOLYLINE
  5
4D5
330
1F
100
AcDbEntity
  8
0
  6
Continuous
 62
     7
370
    25
100
AcDbPolyline
 90
        3
 70
   128
 43
0.0
 10
253.1316692077
 20
769.0718115067
 10
253.3588587074
 20
769.0594860338
 10
253.5588587073
 20
769.0690315377
  0
LINE
  5
4D6
330
1F
100
AcDbEntity
  8
0
  6
Continuous
 62
     7
370
    25
100
AcDbLine
 10
652.3588587074
 20
890.8066996293
 30
0.0
 11
652.3588587074
 21
891.6169040821
 31
0.0
  0
ARC
  5
4D7
330
1F
100
AcDbEntity
  8
0
  6
Continuous
 62
     7
370
    25
100
AcDbCircle
 10
680.0588587074
 20
233.1594860338
 30
0.0
 40
5.000000000000068
100
AcDbArc
 50
270.0
 51
306.8698976458
  0
LWPOLYLINE
  5
4D8
330
1F
100
AcDbEntity
  8
0
  6
Continuous
 62
     7
370
    25
100
AcDbPolyline
 90
        3
 70
   128
 43
0.0
 10
684.9588587074
 20
232.1644985967
 10
684.9627851094
 20
232.1840344237
 10
685.0337958929
 20
232.6594860338
  0
LINE
  5
4D9
330
1F
100
AcDbEntity
  8
0
  6
Continuous
 62
     7
370
    25
100
AcDbLine
 10
680.0588587074
 20
228.1594860338
 30
0.0
 11
668.0823581069
 21
228.1594860338
 31
0.0
  0
LINE
  5
4DA
330
1F
100
AcDbEntity
  8
0
  6
Continuous
 62
     7
370
    25
100
AcDbLine
 10
660.8588587074
 20
228.1594860338
 30
0.0
 11
660.8588587074
 21
229.1594860338
 31
0.0
  0
LINE
  5
4DB
330
1F
100
AcDbEntity
  8
0
  6
Continuous
 62
     7
370
    25
100
AcDbLine
 10
660.8588587074
 20
768.1594860338
 30
0.0
 11
660.8588587074
 21
769.0718115067
 31
0.0
  0
LINE
  5
4DC
330
1F
100
AcDbEntity
  8
0
  6
Continuous
 62
     7
370
    25
100
AcDbLine
 10
682.2588587074
 20
768.1594860338
 30
0.0
 11
682.2588587074
 21
769.0718115067
 31
0.0
  0
LINE
  5
4DD
330
1F
100
AcDbEntity
  8
0
  6
Continuous
 62
     7
370
    25
100
AcDbLine
 10
683.0588587074
 20
769.0718115067
 30
0.0
 11
683.0588587074
 21
768.1594860338
 31
0.0
  0
LINE
  5
4DE
330
1F
100
AcDbEntity
  8
0
  6
Continuous
 62
     7
370
    25
100
AcDbLine
 10
684.2588587074
 20
769.0718115067
 30
0.0
 11
684.2588587074
 21
768.1594860338
 31
0.0
  0
LINE
  5
4DF
330
1F
100
AcDbEntity
  8
0
  6
Continuous
 62
     7
370
    25
100
AcDbLine
 10
685.0588587074
 20
769.0718115067
 30
0.0
 11
685.0588587074
 21
768.1594860338
 31
0.0
  0
LINE
  5
4E0
330
1F
100
AcDbEntity
  8
0
  6
Continuous
 62
     7
370
    25
100
AcDbLine
 10
239.6588587074
 20
769.0718115067
 30
0.0
 11
239.6588587074
 21
768.1594860338
 31
0.0
  0
LWPOLYLINE
  5
4E1
330
1F
100
AcDbEntity
  8
0
  6
Continuous
 62
     7
370
    25
100
AcDbPolyline
 90
        3
 70
   128
 43
0.0
 10
239.6588587074
 20
233.1594860338
 10
239.7549323054
 20
232.1840344237
 10
239.7588587074
 20
232.1644985967
  0
LWPOLYLINE
  5
4E2
330
1F
100
AcDbEntity
  8
0
  6
Continuous
 62
     7
370
    25
100
AcDbPolyline
 90
        3
 70
   128
 43
0.0
 10
241.6383459138
 20
229.1749531297
 10
241.8810075423
 20
229.0021379723
 10
241.9537899671
 20
228.9544172935
  0
LINE
  5
4E3
330
1F
100
AcDbEntity
  8
0
  6
Continuous
 62
     7
370
    25
100
AcDbLine
 10
239.6588587074
 20
237.6594860338
 30
0.0
 11
239.6588587074
 21
233.1594860338
 31
0.0
  0
LINE
  5
4E4
330
1F
100
AcDbEntity
  8
0
  6
Continuous
 62
     7
370
    25
100
AcDbLine
 10
272.3588587074
 20
890.8066996293
 30
0.0
 11
272.3588587074
 21
891.6169040821
 31
0.0
  0
LINE
  5
4E5
330
1F
100
AcDbEntity
  8
0
  6
Continuous
 62
     7
370
    25
100
AcDbLine
 10
263.8588587074
 20
758.1594860338
 30
0.0
 11
263.8588587074
 21
756.1594860338
 31
0.0
  0
LINE
  5
4E6
330
1F
100
AcDbEntity
  8
0
  6
Continuous
 62
     7
370
    25
100
AcDbLine
 10
263.8588587074
 20
229.1594860338
 30
0.0
 11
263.8588587074
 21
228.1594860338
 31
0.0
  0
LINE
  5
4E7
330
1F
100
AcDbEntity
  8
0
  6
Continuous
 62
     7
370
    25
100
AcDbLine
 10
254.0588587074
 20
761.1594860338
 30
0.0
 11
246.2588587074
 21
761.1594860338
 31
0.0
  0
LINE
  5
4E8
330
1F
100
AcDbEntity
  8
0
  6
Continuous
 62
     7
370
    25
100
AcDbLine
 10
246.2588587074
 20
223.6594860338
 30
0.0
 11
254.0588587074
 21
223.6594860338
 31
0.0
  0
LINE
  5
4E9
330
1F
100
AcDbEntity
  8
0
  6
Continuous
 62
     7
370
    25
100
AcDbLine
 10
242.1588587074
 20
224.1594860338
 30
0.0
 11
242.1588587074
 21
226.6594860338
 31
0.0
  0
LINE
  5
4EA
330
1F
100
AcDbEntity
  8
0
  6
Continuous
 62
     7
370
    25
100
AcDbLine
 10
242.1588587074
 20
224.1594860338
 30
0.0
 11
255.023176484
 21
224.1594860338
 31
0.0
  0
LINE
  5
4EB
330
1F
100
AcDbEntity
  8
0
  6
Continuous
 62
     7
370
    25
100
AcDbLine
 10
255.023176484
 20
226.6594860338
 30
0.0
 11
304.5749381515
 21
226.6594860338
 31
0.0
  0
LINE
  5
4EC
330
1F
100
AcDbEntity
  8
0
  6
Continuous
 62
     7
370
    25
100
AcDbLine
 10
255.023176484
 20
224.1594860338
 30
0.0
 11
304.5749381515
 21
224.1594860338
 31
0.0
  0
LINE
  5
4ED
330
1F
100
AcDbEntity
  8
0
  6
Continuous
 62
     7
370
    25
100
AcDbLine
 10
305.3588587074
 20
224.1594860338
 30
0.0
 11
305.3588587074
 21
226.6594860338
 31
0.0
  0
LINE
  5
4EE
330
1F
100
AcDbEntity
  8
0
  6
Continuous
 62
     7
370
    25
100
AcDbLine
 10
304.5749381515
 20
226.6594860338
 30
0.0
 11
305.3588587074
 21
226.6594860338
 31
0.0
  0
LINE
  5
4EF
330
1F
100
AcDbEntity
  8
0
  6
Continuous
 62
     7
370
    25
100
AcDbLine
 10
304.5749381515
 20
224.1594860338
 30
0.0
 11
305.3588587074
 21
224.1594860338
 31
0.0
  0
LINE
  5
4F0
330
1F
100
AcDbEntity
  8
0
  6
Continuous
 62
     7
370
    25
100
AcDbLine
 10
305.3588587074
 20
224.1594860338
 30
0.0
 11
307.3588587074
 21
224.1594860338
 31
0.0
  0
LINE
  5
4F1
330
1F
100
AcDbEntity
  8
0
  6
Continuous
 62
     7
370
    25
100
AcDbLine
 10
307.3588587074
 20
224.1594860338
 30
0.0
 11
307.8088587074
 21
224.1594860338
 31
0.0
  0
LINE
  5
4F2
330
1F
100
AcDbEntity
  8
0
  6
Continuous
 62
     7
370
    25
100
AcDbLine
 10
307.8088587074
 20
225.4094860338
 30
0.0
 11
307.8088587074
 21
219.6594860338
 31
0.0
  0
LINE
  5
4F3
330
1F
100
AcDbEntity
  8
0
  6
Continuous
 62
     7
370
    25
100
AcDbLine
 10
616.8588587074
 20
219.6594860338
 30
0.0
 11
616.8588587074
 21
225.4094860338
 31
0.0
  0
LINE
  5
4F4
330
1F
100
AcDbEntity
  8
0
  6
Continuous
 62
     7
370
    25
100
AcDbLine
 10
312.8088587074
 20
214.6594860338
 30
0.0
 11
611.8588587074
 21
214.6594860338
 31
0.0
  0
ARC
  5
4F5
330
1F
100
AcDbEntity
  8
0
  6
Continuous
 62
     7
370
    25
100
AcDbCircle
 10
312.8088587074
 20
219.6594860338
 30
0.0
 40
5.000000000000114
100
AcDbArc
 50
180.0
 51
270.0
  0
ARC
  5
4F6
330
1F
100
AcDbEntity
  8
0
  6
Continuous
 62
     7
370
    25
100
AcDbCircle
 10
611.8588587074
 20
219.6594860338
 30
0.0
 40
5.000000000000114
100
AcDbArc
 50
270.0
 51
0.0
  0
LINE
  5
4F7
330
1F
100
AcDbEntity
  8
0
  6
Continuous
 62
     7
370
    25
100
AcDbLine
 10
616.8588587074
 20
228.1594860338
 30
0.0
 11
616.8588587074
 21
225.4094860338
 31
0.0
  0
LINE
  5
4F8
330
1F
100
AcDbEntity
  8
0
  6
Continuous
 62
     7
370
    25
100
AcDbLine
 10
307.8088587074
 20
225.4094860338
 30
0.0
 11
307.8088587074
 21
228.1594860338
 31
0.0
  0
LINE
  5
4F9
330
1F
100
AcDbEntity
  8
0
  6
Continuous
 62
     7
370
    25
100
AcDbLine
 10
307.8088587074
 20
228.1594860338
 30
0.0
 11
616.8588587074
 21
228.1594860338
 31
0.0
  0
LINE
  5
4FA
330
1F
100
AcDbEntity
  8
0
  6
Continuous
 62
     7
370
    25
100
AcDbLine
 10
616.8588587074
 20
228.1594860338
 30
0.0
 11
618.3588587074
 21
228.1594860338
 31
0.0
  0
LINE
  5
4FB
330
1F
100
AcDbEntity
  8
0
  6
Continuous
 62
     7
370
    25
100
AcDbLine
 10
618.3588587074
 20
226.6594860338
 30
0.0
 11
616.8588587074
 21
226.6594860338
 31
0.0
  0
LINE
  5
4FC
330
1F
100
AcDbEntity
  8
0
  6
Continuous
 62
     7
370
    25
100
AcDbLine
 10
306.3088587074
 20
228.1594860338
 30
0.0
 11
307.8088587074
 21
228.1594860338
 31
0.0
  0
LINE
  5
4FD
330
1F
100
AcDbEntity
  8
0
  6
Continuous
 62
     7
370
    25
100
AcDbLine
 10
307.8088587074
 20
226.6594860338
 30
0.0
 11
306.3088587074
 21
226.6594860338
 31
0.0
  0
LINE
  5
4FE
330
1F
100
AcDbEntity
  8
0
  6
Continuous
 62
     7
370
    25
100
AcDbLine
 10
668.2088587074
 20
228.1594860338
 30
0.0
 11
668.2088587074
 21
226.6594860338
 31
0.0
  0
LINE
  5
4FF
330
1F
100
AcDbEntity
  8
0
  6
Continuous
 62
     7
370
    25
100
AcDbLine
 10
666.2088587074
 20
228.1594860338
 30
0.0
 11
668.0823581069
 21
228.1594860338
 31
0.0
  0
LINE
  5
500
330
1F
100
AcDbEntity
  8
0
  6
Continuous
 62
     7
370
    25
100
AcDbLine
 10
668.2088587074
 20
226.6594860338
 30
0.0
 11
666.2088587074
 21
226.6594860338
 31
0.0
  0
LINE
  5
501
330
1F
100
AcDbEntity
  8
0
  6
Continuous
 62
     7
370
    25
100
AcDbLine
 10
618.3588587074
 20
228.1594860338
 30
0.0
 11
666.2088587074
 21
228.1594860338
 31
0.0
  0
LINE
  5
502
330
1F
100
AcDbEntity
  8
0
  6
Continuous
 62
     7
370
    25
100
AcDbLine
 10
618.3588587074
 20
226.6594860338
 30
0.0
 11
666.2088587074
 21
226.6594860338
 31
0.0
  0
LINE
  5
503
330
1F
100
AcDbEntity
  8
0
  6
Continuous
 62
     7
370
    25
100
AcDbLine
 10
258.6588587074
 20
228.1594860338
 30
0.0
 11
306.3088587074
 21
228.1594860338
 31
0.0
  0
LINE
  5
504
330
1F
100
AcDbEntity
  8
0
  6
Continuous
 62
     7
370
    25
100
AcDbLine
 10
305.3588587074
 20
226.6594860338
 30
0.0
 11
306.3088587074
 21
226.6594860338
 31
0.0
  0
LINE
  5
505
330
1F
100
AcDbEntity
  8
0
  6
Continuous
 62
     7
370
    25
100
AcDbLine
 10
239.6659297752
 20
229.4094860338
 30
0.0
 11
239.6659297752
 21
232.8936652709
 31
0.0
  0
SPLINE
  5
506
330
1F
100
AcDbEntity
  8
0
  6
Continuous
 62
     7
370
    25
100
AcDbSpline
210
0.0
220
0.0
230
1.0
 70
     8
 71
     3
 72
    13
 73
     9
 74
     0
 42
0.000000001
 43
0.00000001
 40
0.0
 40
0.0
 40
0.0
 40
0.0
 40
0.2575520435717084
 40
0.4679181941714926
 40
0.5989059325550911
 40
0.7308660834004005
 40
0.8643777285770355
 40
0.9999999999999999
 40
0.9999999999999999
 40
0.9999999999999999
 40
0.9999999999999999
 10
240.9088587073574
 20
226.6594860337872
 30
0.0
 10
240.7483495840364
 20
226.6987239560407
 30
0.0
 10
240.4567380786844
 20
226.7700110538609
 30
0.0
 10
240.1227249403999
 20
227.2304818681415
 30
0.0
 10
239.9264890491856
 20
227.7292356023179
 30
0.0
 10
239.8001823625903
 20
228.2318086050564
 30
0.0
 10
239.7091942659921
 20
228.8006436751609
 30
0.0
 10
239.6804264739004
 20
229.2054802988315
 30
0.0
 10
239.6659297751693
 20
229.4094860337872
 30
0.0
  0
LINE
  5
507
330
1F
100
AcDbEntity
  8
0
  6
Continuous
 62
     7
370
    25
100
AcDbLine
 10
668.8088587074
 20
226.6594860338
 30
0.0
 11
668.8088587074
 21
228.1594860338
 31
0.0
  0
SPLINE
  5
508
330
1F
100
AcDbEntity
  8
0
  6
Continuous
 62
     7
370
    25
100
AcDbSpline
210
0.0
220
0.0
230
1.0
 70
     8
 71
     3
 72
    13
 73
     9
 74
     0
 42
0.000000001
 43
0.00000001
 40
0.0
 40
0.0
 40
0.0
 40
0.0
 40
0.1356222713497102
 40
0.2691339164924338
 40
0.4010940673425349
 40
0.5320818057684692
 40
0.7424479560557736
 40
1.0
 40
1.0
 40
1.0
 40
1.0
 10
685.0517876395456
 20
229.4094860337873
 30
0.0
 10
685.0372909408109
 20
229.2054802989448
 30
0.0
 10
685.0085231487082
 20
228.8006436754411
 30
0.0
 10
684.917535052102
 20
228.2318086054634
 30
0.0
 10
684.7912283654994
 20
227.7292356026584
 30
0.0
 10
684.594992474468
 20
227.2304818686822
 30
0.0
 10
684.2609793363695
 20
226.770011054063
 30
0.0
 10
683.9693678309353
 20
226.6987239561458
 30
0.0
 10
683.8088587073576
 20
226.6594860337872
 30
0.0
  0
LINE
  5
509
330
1F
100
AcDbEntity
  8
0
  6
Continuous
 62
     7
370
    25
100
AcDbLine
 10
676.7304315826
 20
226.6594860338
 30
0.0
 11
672.3588587074
 21
226.6594860338
 31
0.0
  0
LINE
  5
50A
330
1F
100
AcDbEntity
  8
0
  6
Continuous
 62
     7
370
    25
100
AcDbLine
 10
685.0517876395
 20
229.4094860338
 30
0.0
 11
685.0517876395
 21
232.6594860338
 31
0.0
  0
LINE
  5
50B
330
1F
100
AcDbEntity
  8
0
  6
Continuous
 62
     7
370
    25
100
AcDbLine
 10
685.0588587074
 20
229.4094860338
 30
0.0
 11
686.5588587074
 21
229.4094860338
 31
0.0
  0
SPLINE
  5
50C
330
1F
100
AcDbEntity
  8
0
  6
Continuous
 62
     7
370
    25
100
AcDbSpline
210
0.0
220
0.0
230
1.0
 70
     8
 71
     3
 72
    12
 73
     8
 74
     0
 42
0.000000001
 43
0.00000001
 40
0.0
 40
0.0
 40
0.0
 40
0.0
 40
0.2234356531983941
 40
0.446897164863639
 40
0.6703588044539909
 40
0.8938202392987397
 40
1.0
 40
1.0
 40
1.0
 40
1.0
 10
683.8088587073576
 20
226.6594860337874
 30
0.0
 10
684.1306220230857
 20
226.6924358229752
 30
0.0
 10
684.7741858925831
 20
226.7583392146681
 30
0.0
 10
685.6227911471095
 20
227.270789000348
 30
0.0
 10
686.2459035803608
 20
228.019585687418
 30
0.0
 10
686.5274334618914
 20
228.7844985995042
 30
0.0
 10
686.5512025242491
 20
229.257219339719
 30
0.0
 10
686.5588587073577
 20
229.4094860337874
 30
0.0
  0
SPLINE
  5
50D
330
1F
100
AcDbEntity
  8
0
  6
Continuous
 62
     7
370
    25
100
AcDbSpline
210
0.0
220
0.0
230
1.0
 70
     8
 71
     3
 72
    12
 73
     8
 74
     0
 42
0.000000001
 43
0.00000001
 40
0.0
 40
0.0
 40
0.0
 40
0.0
 40
0.2234363863880435
 40
0.4468979002808093
 40
0.6703595416995656
 40
0.8938209783772908
 40
1.0
 40
1.0
 40
1.0
 40
1.0
 10
238.1588587073575
 20
229.4094860337872
 30
0.0
 10
238.1918087107495
 20
229.0877216528769
 30
0.0
 10
238.2577124230684
 20
228.4441567056519
 30
0.0
 10
238.7701637862071
 20
227.5955511123109
 30
0.0
 10
239.5189611889421
 20
226.972439536074
 30
0.0
 10
240.2838734043327
 20
226.6909109643867
 30
0.0
 10
240.7565930766072
 20
226.6671421128276
 30
0.0
 10
240.9088587073575
 20
226.6594860337872
 30
0.0
  0
LINE
  5
50E
330
1F
100
AcDbEntity
  8
0
  6
Continuous
 62
     7
370
    25
100
AcDbLine
 10
239.6588587074
 20
229.4094860338
 30
0.0
 11
238.1588587074
 21
229.4094860338
 31
0.0
  0
LINE
  5
50F
330
1F
100
AcDbEntity
  8
0
  6
Continuous
 62
     7
370
    25
100
AcDbLine
 10
239.6588587074
 20
229.4094860338
 30
0.0
 11
239.6588587074
 21
233.1594860338
 31
0.0
  0
LINE
  5
510
330
1F
100
AcDbEntity
  8
0
  6
Continuous
 62
     7
370
    25
100
AcDbLine
 10
685.0588587074
 20
229.4094860338
 30
0.0
 11
685.0588587074
 21
232.6594860338
 31
0.0
  0
ENDSEC
  0
SECTION
  2
OBJECTS
  0
DICTIONARY
  5
C
330
0
100
AcDbDictionary
281
     1
  3
ACAD_GROUP
350
D
  3
ACAD_LAYOUT
350
1A
  3
ACAD_MLINESTYLE
350
17
  3
ACAD_PLOTSETTINGS
350
19
  3
ACAD_PLOTSTYLENAME
350
E
  3
ACAD_SCALELIST
350
47
  0
DICTIONARY
  5
D
102
{ACAD_REACTORS
330
C
102
}
330
C
100
AcDbDictionary
281
     1
  0
DICTIONARY
  5
1A
102
{ACAD_REACTORS
330
C
102
}
330
C
100
AcDbDictionary
281
     1
  3
Layout1
350
1E
  3
Layout2
350
26
  3
Model
350
22
  0
DICTIONARY
  5
17
102
{ACAD_REACTORS
330
C
102
}
330
C
100
AcDbDictionary
281
     1
  3
Standard
350
18
  0
DICTIONARY
  5
19
102
{ACAD_REACTORS
330
C
102
}
330
C
100
AcDbDictionary
281
     1
  0
ACDBDICTIONARYWDFLT
  5
E
102
{ACAD_REACTORS
330
C
102
}
330
C
100
AcDbDictionary
281
     1
  3
Normal
350
F
100
AcDbDictionaryWithDefault
340
F
  0
DICTIONARY
  5
47
102
{ACAD_REACTORS
330
C
102
}
330
C
100
AcDbDictionary
281
     1
  3
A0
350
48
  3
A1
350
49
  3
A2
350
4A
  3
A3
350
4B
  3
A4
350
4C
  3
A5
350
4D
  3
A6
350
4E
  3
A7
350
4F
  3
A8
350
50
  3
A9
350
51
  3
B0
350
52
  3
B1
350
53
  3
B2
350
54
  3
B3
350
55
  3
B4
350
56
  3
B5
350
57
  3
B6
350
58
  3
B7
350
59
  3
B8
350
5A
  3
B9
350
5B
  3
C0
350
5C
  3
C1
350
5D
  3
C2
350
5E
  3
C3
350
5F
  3
C4
350
60
  3
C5
350
61
  3
C6
350
62
  3
C7
350
63
  3
C8
350
64
  3
C9
350
65
  3
D0
350
66
  3
D1
350
67
  3
D2
350
68
  0
LAYOUT
  5
1E
102
{ACAD_REACTORS
330
1A
102
}
330
1A
100
AcDbPlotSettings
  1

  2
none_device
  4

  6

 40
0.0
 41
0.0
 42
0.0
 43
0.0
 44
0.0
 45
0.0
 46
0.0
 47
0.0
 48
0.0
 49
0.0
140
0.0
141
0.0
142
1.0
143
1.0
 70
   688
 72
     1
 73
     0
 74
     5
  7

 75
    16
147
1.0
148
0.0
149
0.0
100
AcDbLayout
  1
Layout1
 70
     1
 71
     1
 10
0.0
 20
0.0
 11
420.0
 21
297.0
 12
0.0
 22
0.0
 32
0.0
 14
1.0000000000E+20
 24
1.0000000000E+20
 34
1.0000000000E+20
 15
-1.0000000000E+20
 25
-1.0000000000E+20
 35
-1.0000000000E+20
146
0.0
 13
0.0
 23
0.0
 33
0.0
 16
1.0
 26
0.0
 36
0.0
 17
0.0
 27
1.0
 37
0.0
 76
     0
330
1B
  0
LAYOUT
  5
26
102
{ACAD_REACTORS
330
1A
102
}
330
1A
100
AcDbPlotSettings
  1

  2
none_device
  4

  6

 40
0.0
 41
0.0
 42
0.0
 43
0.0
 44
0.0
 45
0.0
 46
0.0
 47
0.0
 48
0.0
 49
0.0
140
0.0
141
0.0
142
1.0
143
1.0
 70
   688
 72
     1
 73
     0
 74
     5
  7

 75
    16
147
1.0
148
0.0
149
0.0
100
AcDbLayout
  1
Layout2
 70
     1
 71
     2
 10
0.0
 20
0.0
 11
0.0
 21
0.0
 12
0.0
 22
0.0
 32
0.0
 14
0.0
 24
0.0
 34
0.0
 15
0.0
 25
0.0
 35
0.0
146
0.0
 13
0.0
 23
0.0
 33
0.0
 16
1.0
 26
0.0
 36
0.0
 17
0.0
 27
1.0
 37
0.0
 76
     0
330
23
  0
LAYOUT
  5
22
102
{ACAD_REACTORS
330
1A
102
}
330
1A
100
AcDbPlotSettings
  1

  2
none_device
  4
Letter_(8.50_x_11.00_Inches)
  6

 40
6.35
 41
6.35
 42
6.35000508
 43
6.35000508
 44
215.9
 45
279.4
 46
0.0
 47
0.0
 48
0.0
 49
0.0
140
0.0
141
0.0
142
1.0
143
1.0
 70
  1712
 72
     1
 73
     0
 74
     0
  7

 75
     0
147
1.0
148
0.0
149
0.0
100
AcDbLayout
  1
Model
 70
     1
 71
     0
 10
0.0
 20
0.0
 11
900.0
 21
1200.0
 12
0.0
 22
0.0
 32
0.0
 14
0.0
 24
0.0
 34
0.0
 15
900.0
 25
1200.0
 35
0.0
146
0.0
 13
0.0
 23
0.0
 33
0.0
 16
1.0
 26
0.0
 36
0.0
 17
0.0
 27
1.0
 37
0.0
 76
     0
330
1F
331
29
  0
MLINESTYLE
  5
18
102
{ACAD_REACTORS
330
17
102
}
330
17
100
AcDbMlineStyle
  2
Standard
 70
     0
  3

 62
   256
 51
90.0
 52
90.0
 71
     2
 49
0.5
 62
   256
  6
BYLAYER
 49
-0.5
 62
   256
  6
BYLAYER
  0
ACDBPLACEHOLDER
  5
F
102
{ACAD_REACTORS
330
E
102
}
330
E
  0
SCALE
  5
48
102
{ACAD_REACTORS
330
47
102
}
330
47
100
AcDbScale
 70
     0
300
1:1
140
1.0
141
1.0
290
     1
  0
SCALE
  5
49
102
{ACAD_REACTORS
330
47
102
}
330
47
100
AcDbScale
 70
     0
300
1:2
140
1.0
141
2.0
290
     0
  0
SCALE
  5
4A
102
{ACAD_REACTORS
330
47
102
}
330
47
100
AcDbScale
 70
     0
300
1:4
140
1.0
141
4.0
290
     0
  0
SCALE
  5
4B
102
{ACAD_REACTORS
330
47
102
}
330
47
100
AcDbScale
 70
     0
300
1:5
140
1.0
141
5.0
290
     0
  0
SCALE
  5
4C
102
{ACAD_REACTORS
330
47
102
}
330
47
100
AcDbScale
 70
     0
300
1:8
140
1.0
141
8.0
290
     0
  0
SCALE
  5
4D
102
{ACAD_REACTORS
330
47
102
}
330
47
100
AcDbScale
 70
     0
300
1:10
140
1.0
141
10.0
290
     0
  0
SCALE
  5
4E
102
{ACAD_REACTORS
330
47
102
}
330
47
100
AcDbScale
 70
     0
300
1:16
140
1.0
141
16.0
290
     0
  0
SCALE
  5
4F
102
{ACAD_REACTORS
330
47
102
}
330
47
100
AcDbScale
 70
     0
300
1:20
140
1.0
141
20.0
290
     0
  0
SCALE
  5
50
102
{ACAD_REACTORS
330
47
102
}
330
47
100
AcDbScale
 70
     0
300
1:30
140
1.0
141
30.0
290
     0
  0
SCALE
  5
51
102
{ACAD_REACTORS
330
47
102
}
330
47
100
AcDbScale
 70
     0
300
1:40
140
1.0
141
40.0
290
     0
  0
SCALE
  5
52
102
{ACAD_REACTORS
330
47
102
}
330
47
100
AcDbScale
 70
     0
300
1:50
140
1.0
141
50.0
290
     0
  0
SCALE
  5
53
102
{ACAD_REACTORS
330
47
102
}
330
47
100
AcDbScale
 70
     0
300
1:100
140
1.0
141
100.0
290
     0
  0
SCALE
  5
54
102
{ACAD_REACTORS
330
47
102
}
330
47
100
AcDbScale
 70
     0
300
2:1
140
2.0
141
1.0
290
     0
  0
SCALE
  5
55
102
{ACAD_REACTORS
330
47
102
}
330
47
100
AcDbScale
 70
     0
300
4:1
140
4.0
141
1.0
290
     0
  0
SCALE
  5
56
102
{ACAD_REACTORS
330
47
102
}
330
47
100
AcDbScale
 70
     0
300
8:1
140
8.0
141
1.0
290
     0
  0
SCALE
  5
57
102
{ACAD_REACTORS
330
47
102
}
330
47
100
AcDbScale
 70
     0
300
10:1
140
10.0
141
1.0
290
     0
  0
SCALE
  5
58
102
{ACAD_REACTORS
330
47
102
}
330
47
100
AcDbScale
 70
     0
300
100:1
140
100.0
141
1.0
290
     0
  0
SCALE
  5
59
102
{ACAD_REACTORS
330
47
102
}
330
47
100
AcDbScale
 70
     0
300
1/128" = 1'-0"
140
0.0078125
141
12.0
290
     0
  0
SCALE
  5
5A
102
{ACAD_REACTORS
330
47
102
}
330
47
100
AcDbScale
 70
     0
300
1/64" = 1'-0"
140
0.015625
141
12.0
290
     0
  0
SCALE
  5
5B
102
{ACAD_REACTORS
330
47
102
}
330
47
100
AcDbScale
 70
     0
300
1/32" = 1'-0"
140
0.03125
141
12.0
290
     0
  0
SCALE
  5
5C
102
{ACAD_REACTORS
330
47
102
}
330
47
100
AcDbScale
 70
     0
300
1/16" = 1'-0"
140
0.0625
141
12.0
290
     0
  0
SCALE
  5
5D
102
{ACAD_REACTORS
330
47
102
}
330
47
100
AcDbScale
 70
     0
300
3/32" = 1'-0"
140
0.09375
141
12.0
290
     0
  0
SCALE
  5
5E
102
{ACAD_REACTORS
330
47
102
}
330
47
100
AcDbScale
 70
     0
300
1/8" = 1'-0"
140
0.125
141
12.0
290
     0
  0
SCALE
  5
5F
102
{ACAD_REACTORS
330
47
102
}
330
47
100
AcDbScale
 70
     0
300
3/16" = 1'-0"
140
0.1875
141
12.0
290
     0
  0
SCALE
  5
60
102
{ACAD_REACTORS
330
47
102
}
330
47
100
AcDbScale
 70
     0
300
1/4" = 1'-0"
140
0.25
141
12.0
290
     0
  0
SCALE
  5
61
102
{ACAD_REACTORS
330
47
102
}
330
47
100
AcDbScale
 70
     0
300
3/8" = 1'-0"
140
0.375
141
12.0
290
     0
  0
SCALE
  5
62
102
{ACAD_REACTORS
330
47
102
}
330
47
100
AcDbScale
 70
     0
300
1/2" = 1'-0"
140
0.5
141
12.0
290
     0
  0
SCALE
  5
63
102
{ACAD_REACTORS
330
47
102
}
330
47
100
AcDbScale
 70
     0
300
3/4" = 1'-0"
140
0.75
141
12.0
290
     0
  0
SCALE
  5
64
102
{ACAD_REACTORS
330
47
102
}
330
47
100
AcDbScale
 70
     0
300
1" = 1'-0"
140
1.0
141
12.0
290
     0
  0
SCALE
  5
65
102
{ACAD_REACTORS
330
47
102
}
330
47
100
AcDbScale
 70
     0
300
1-1/2" = 1'-0"
140
1.5
141
12.0
290
     0
  0
SCALE
  5
66
102
{ACAD_REACTORS
330
47
102
}
330
47
100
AcDbScale
 70
     0
300
3" = 1'-0"
140
3.0
141
12.0
290
     0
  0
SCALE
  5
67
102
{ACAD_REACTORS
330
47
102
}
330
47
100
AcDbScale
 70
     0
300
6" = 1'-0"
140
6.0
141
12.0
290
     0
  0
SCALE
  5
68
102
{ACAD_REACTORS
330
47
102
}
330
47
100
AcDbScale
 70
     0
300
1'-0" = 1'-0"
140
12.0
141
12.0
290
     0
  0
ENDSEC
  0
EOF
