  0
SECTION
  2
HEADER
  9
$ACADVER
  1
AC1015
  9
$ACADMAINTVER
 70
     6
  9
$DWGCODEPAGE
  3
ANSI_1252
  9
$INSBASE
 10
0.0
 20
0.0
 30
0.0
  9
$EXTMIN
 10
0.0
 20
0.0
 30
0.0
  9
$EXTMAX
 10
900.0
 20
1200.0
 30
0.0
  9
$LIMMIN
 10
0.0
 20
0.0
  9
$LIMMAX
 10
900.0
 20
1200.0
  9
$ORTHOMODE
 70
     0
  9
$REGENMODE
 70
     1
  9
$FILLMODE
 70
     1
  9
$QTEXTMODE
 70
     0
  9
$MIRRTEXT
 70
     1
  9
$LTSCALE
 40
1.0
  9
$ATTMODE
 70
     1
  9
$TEXTSIZE
 40
3.5
  9
$TRACEWID
 40
1.0
  9
$TEXTSTYLE
  7
Standard
  9
$CLAYER
  8
0
  9
$CELTYPE
  6
ByLayer
  9
$CECOLOR
 62
   256
  9
$CELTSCALE
 40
1.0
  9
$DISPSILH
 70
     0
  9
$DIMSCALE
 40
1.0
  9
$DIMASZ
 40
3.302
  9
$DIMEXO
 40
1.0
  9
$DIMDLI
 40
3.75
  9
$DIMRND
 40
0.0
  9
$DIMDLE
 40
0.0
  9
$DIMEXE
 40
1.0
  9
$DIMTP
 40
0.0
  9
$DIMTM
 40
0.0
  9
$DIMTXT
 40
3.5
  9
$DIMCEN
 40
2.5
  9
$DIMTSZ
 40
0.0
  9
$DIMTOL
 70
     0
  9
$DIMLIM
 70
     0
  9
$DIMTIH
 70
     1
  9
$DIMTOH
 70
     1
  9
$DIMSE1
 70
     0
  9
$DIMSE2
 70
     0
  9
$DIMTAD
 70
     1
  9
$DIMZIN
 70
     0
  9
$DIMBLK
  1

  9
$DIMASO
 70
     1
  9
$DIMSHO
 70
     1
  9
$DIMPOST
  1

  9
$DIMAPOST
  1

  9
$DIMALT
 70
     0
  9
$DIMALTD
 70
     3
  9
$DIMALTF
 40
0.0393700787
  9
$DIMLFAC
 40
1.0
  9
$DIMTOFL
 70
     1
  9
$DIMTVP
 40
0.0
  9
$DIMTIX
 70
     0
  9
$DIMSOXD
 70
     0
  9
$DIMSAH
 70
     0
  9
$DIMBLK1
  1

  9
$DIMBLK2
  1

  9
$DIMSTYLE
  2
ISO-25
  9
$DIMCLRD
 70
     0
  9
$DIMCLRE
 70
     0
  9
$DIMCLRT
 70
     0
  9
$DIMTFAC
 40
1.0
  9
$DIMGAP
 40
1.524
  9
$DIMJUST
 70
     0
  9
$DIMSD1
 70
     0
  9
$DIMSD2
 70
     0
  9
$DIMTOLJ
 70
     0
  9
$DIMTZIN
 70
     0
  9
$DIMALTZ
 70
     0
  9
$DIMALTTZ
 70
     0
  9
$DIMUPT
 70
     0
  9
$DIMDEC
 70
     3
  9
$DIMTDEC
 70
     3
  9
$DIMALTU
 70
     2
  9
$DIMALTTD
 70
     3
  9
$DIMTXSTY
  7
Standard
  9
$DIMAUNIT
 70
     0
  9
$DIMADEC
 70
     2
  9
$DIMALTRND
 40
0.0
  9
$DIMAZIN
 70
     0
  9
$DIMDSEP
 70
    44
  9
$DIMATFIT
 70
     3
  9
$DIMFRAC
 70
     0
  9
$DIMLDRBLK
  1

  9
$DIMLUNIT
 70
     2
  9
$DIMLWD
 70
    -2
  9
$DIMLWE
 70
    -2
  9
$DIMTMOVE
 70
     0
  9
$LUNITS
 70
     2
  9
$LUPREC
 70
     8
  9
$SKETCHINC
 40
1.0
  9
$FILLETRAD
 40
10.0
  9
$AUNITS
 70
     0
  9
$AUPREC
 70
     8
  9
$MENU
  1
.
  9
$ELEVATION
 40
0.0
  9
$PELEVATION
 40
0.0
  9
$THICKNESS
 40
0.0
  9
$LIMCHECK
 70
     0
  9
$CHAMFERA
 40
0.0
  9
$CHAMFERB
 40
0.0
  9
$CHAMFERC
 40
0.0
  9
$CHAMFERD
 40
0.0
  9
$SKPOLY
 70
     0
  9
$TDCREATE
 40
2458432.455484606
  9
$TDUCREATE
 40
2458432.455484606
  9
$TDUPDATE
 40
2458432.455485695
  9
$TDUUPDATE
 40
2458432.455485695
  9
$TDINDWG
 40
0.0000000116
  9
$TDUSRTIMER
 40
0.0000000116
  9
$USRTIMER
 70
     1
  9
$ANGBASE
 50
0.0
  9
$ANGDIR
 70
     0
  9
$PDMODE
 70
     0
  9
$PDSIZE
 40
-1.0
  9
$PLINEWID
 40
0.0
  9
$SPLFRAME
 70
     0
  9
$SPLINETYPE
 70
     6
  9
$SPLINESEGS
 70
     8
  9
$HANDSEED
  5
427
  9
$SURFTAB1
 70
     6
  9
$SURFTAB2
 70
     6
  9
$SURFTYPE
 70
     6
  9
$SURFU
 70
     6
  9
$SURFV
 70
     6
  9
$UCSBASE
  2

  9
$UCSNAME
  2

  9
$UCSORG
 10
0.0
 20
0.0
 30
0.0
  9
$UCSXDIR
 10
1.0
 20
0.0
 30
0.0
  9
$UCSYDIR
 10
0.0
 20
1.0
 30
0.0
  9
$UCSORTHOREF
  2

  9
$UCSORTHOVIEW
 70
     0
  9
$UCSORGTOP
 10
0.0
 20
0.0
 30
0.0
  9
$UCSORGBOTTOM
 10
0.0
 20
0.0
 30
0.0
  9
$UCSORGLEFT
 10
0.0
 20
0.0
 30
0.0
  9
$UCSORGRIGHT
 10
0.0
 20
0.0
 30
0.0
  9
$UCSORGFRONT
 10
0.0
 20
0.0
 30
0.0
  9
$UCSORGBACK
 10
0.0
 20
0.0
 30
0.0
  9
$PUCSBASE
  2

  9
$PUCSNAME
  2

  9
$PUCSORG
 10
0.0
 20
0.0
 30
0.0
  9
$PUCSXDIR
 10
1.0
 20
0.0
 30
0.0
  9
$PUCSYDIR
 10
0.0
 20
1.0
 30
0.0
  9
$PUCSORTHOREF
  2

  9
$PUCSORTHOVIEW
 70
     0
  9
$PUCSORGTOP
 10
0.0
 20
0.0
 30
0.0
  9
$PUCSORGBOTTOM
 10
0.0
 20
0.0
 30
0.0
  9
$PUCSORGLEFT
 10
0.0
 20
0.0
 30
0.0
  9
$PUCSORGRIGHT
 10
0.0
 20
0.0
 30
0.0
  9
$PUCSORGFRONT
 10
0.0
 20
0.0
 30
0.0
  9
$PUCSORGBACK
 10
0.0
 20
0.0
 30
0.0
  9
$USERI1
 70
     0
  9
$USERI2
 70
     0
  9
$USERI3
 70
     0
  9
$USERI4
 70
     0
  9
$USERI5
 70
     0
  9
$USERR1
 40
0.0
  9
$USERR2
 40
0.0
  9
$USERR3
 40
0.0
  9
$USERR4
 40
0.0
  9
$USERR5
 40
0.0
  9
$WORLDVIEW
 70
     1
  9
$SHADEDGE
 70
     3
  9
$SHADEDIF
 70
    70
  9
$TILEMODE
 70
     1
  9
$MAXACTVP
 70
    64
  9
$PINSBASE
 10
0.0
 20
0.0
 30
0.0
  9
$PLIMCHECK
 70
     0
  9
$PEXTMIN
 10
1.0000000000E+20
 20
1.0000000000E+20
 30
1.0000000000E+20
  9
$PEXTMAX
 10
-1.0000000000E+20
 20
-1.0000000000E+20
 30
-1.0000000000E+20
  9
$PLIMMIN
 10
0.0
 20
0.0
  9
$PLIMMAX
 10
420.0
 20
297.0
  9
$UNITMODE
 70
     0
  9
$VISRETAIN
 70
     1
  9
$PLINEGEN
 70
     0
  9
$PSLTSCALE
 70
     1
  9
$TREEDEPTH
 70
  3020
  9
$CMLSTYLE
  2
Standard
  9
$CMLJUST
 70
     0
  9
$CMLSCALE
 40
20.0
  9
$PROXYGRAPHICS
 70
     1
  9
$MEASUREMENT
 70
     1
  9
$CELWEIGHT
370
    -1
  9
$ENDCAPS
280
     0
  9
$JOINSTYLE
280
     0
  9
$LWDISPLAY
290
     1
  9
$INSUNITS
 70
     4
  9
$HYPERLINKBASE
  1

  9
$STYLESHEET
  1

  9
$XEDIT
290
     1
  9
$CEPSNTYPE
380
     0
  9
$PSTYLEMODE
290
     1
  9
$FINGERPRINTGUID
  2
{87DC1EEB-40DD-4019-8429-0F8103F58DD7}
  9
$VERSIONGUID
  2
{FAEB1C32-E019-11D5-929B-00C0DF256EC4}
  9
$EXTNAMES
290
     1
  9
$PSVPSCALE
 40
0.0
  9
$OLESTARTUP
290
     0
  0
ENDSEC
  0
SECTION
  2
CLASSES
  0
CLASS
  1
ACDBDICTIONARYWDFLT
  2
AcDbDictionaryWithDefault
  3
ObjectDBX Classes
 90
        0
280
     0
281
     0
  0
CLASS
  1
VISUALSTYLE
  2
AcDbVisualStyle
  3
ObjectDBX Classes
 90
     4095
280
     0
281
     0
  0
CLASS
  1
MATERIAL
  2
AcDbMaterial
  3
ObjectDBX Classes
 90
     1153
280
     0
281
     0
  0
CLASS
  1
SCALE
  2
AcDbScale
  3
ObjectDBX Classes
 90
     1153
280
     0
281
     0
  0
CLASS
  1
TABLESTYLE
  2
AcDbTableStyle
  3
ObjectDBX Classes
 90
     4095
280
     0
281
     0
  0
CLASS
  1
MLEADERSTYLE
  2
AcDbMLeaderStyle
  3
ACDB_MLEADERSTYLE_CLASS
 90
     4095
280
     0
281
     0
  0
CLASS
  1
SUN
  2
AcDbSun
  3
SCENEOE
 90
     1153
280
     0
281
     0
  0
CLASS
  1
ACDBPLACEHOLDER
  2
AcDbPlaceHolder
  3
ObjectDBX Classes
 90
        0
280
     0
281
     0
  0
CLASS
  1
LAYOUT
  2
AcDbLayout
  3
ObjectDBX Classes
 90
        0
280
     0
281
     0
  0
ENDSEC
  0
SECTION
  2
TABLES
  0
TABLE
  2
VPORT
  5
8
330
0
100
AcDbSymbolTable
 70
     1
  0
VPORT
  5
29
330
8
100
AcDbSymbolTableRecord
100
AcDbViewportTableRecord
  2
*Active
 70
     0
 10
0.0
 20
0.0
 11
1.0
 21
1.0
 12
450.0
 22
600.0
 13
0.0
 23
0.0
 14
10.0
 24
10.0
 15
10.0
 25
10.0
 16
0.0
 26
0.0
 36
1.0
 17
0.0
 27
0.0
 37
0.0
 40
1200.0
 41
0.75
 42
50.0
 43
0.0
 44
0.0
 50
0.0
 51
0.0
 71
     0
 72
  2000
 73
     1
 74
     3
 75
     0
 76
     0
 77
     0
 78
     0
281
     0
 65
     1
110
0.0
120
0.0
130
0.0
111
1.0
121
0.0
131
0.0
112
0.0
122
1.0
132
0.0
 79
     0
146
0.0
  0
ENDTAB
  0
TABLE
  2
LTYPE
  5
5
330
0
100
AcDbSymbolTable
 70
     6
  0
LTYPE
  5
14
330
5
100
AcDbSymbolTableRecord
100
AcDbLinetypeTableRecord
  2
ByBlock
 70
     0
  3

 72
    65
 73
     0
 40
0.0
  0
LTYPE
  5
15
330
5
100
AcDbSymbolTableRecord
100
AcDbLinetypeTableRecord
  2
ByLayer
 70
     0
  3

 72
    65
 73
     0
 40
0.0
  0
LTYPE
  5
16
330
5
100
AcDbSymbolTableRecord
100
AcDbLinetypeTableRecord
  2
Continuous
 70
     0
  3
Solid line
 72
    65
 73
     0
 40
0.0
  0
LTYPE
  5
6E
330
5
100
AcDbSymbolTableRecord
100
AcDbLinetypeTableRecord
  2
HIDDEN
 70
     0
  3
Hidden __ __ __ __ __ __ __ __ __ __ __ __ __ __
 72
    65
 73
     2
 40
1.905
 49
1.27
 74
     0
 49
-0.635
 74
     0
  0
LTYPE
  5
6F
330
5
100
AcDbSymbolTableRecord
100
AcDbLinetypeTableRecord
  2
PHANTOM
 70
     0
  3
Phantom ______  __  __  ______  __  __  ______
 72
    65
 73
     6
 40
12.7
 49
6.35
 74
     0
 49
-1.27
 74
     0
 49
1.27
 74
     0
 49
-1.27
 74
     0
 49
1.27
 74
     0
 49
-1.27
 74
     0
  0
LTYPE
  5
70
330
5
100
AcDbSymbolTableRecord
100
AcDbLinetypeTableRecord
  2
CENTER
 70
     0
  3
Center ____ _ ____ _ ____ _ ____ _ ____ _ ____
 72
    65
 73
     4
 40
10.16
 49
6.35
 74
     0
 49
-1.27
 74
     0
 49
1.27
 74
     0
 49
-1.27
 74
     0
  0
LTYPE
  5
71
330
5
100
AcDbSymbolTableRecord
100
AcDbLinetypeTableRecord
  2
CENTERX2
 70
     0
  3
Center (2x) ________  __  ________  __  _____
 72
    65
 73
     4
 40
20.32
 49
12.7
 74
     0
 49
-2.54
 74
     0
 49
2.54
 74
     0
 49
-2.54
 74
     0
  0
LTYPE
  5
72
330
5
100
AcDbSymbolTableRecord
100
AcDbLinetypeTableRecord
  2
DOT2
 70
     0
  3
Dot (.5x) ........................................
 72
    65
 73
     2
 40
0.635
 49
0.0
 74
     0
 49
-0.635
 74
     0
  0
ENDTAB
  0
TABLE
  2
LAYER
  5
2
330
0
100
AcDbSymbolTable
 70
     4
  0
LAYER
  5
10
330
2
100
AcDbSymbolTableRecord
100
AcDbLayerTableRecord
  2
0
 70
     0
 62
     7
  6
Continuous
370
    -3
390
F
  0
LAYER
  5
73
330
2
100
AcDbSymbolTableRecord
100
AcDbLayerTableRecord
  2
FORMAT
 70
     0
 62
     7
  6
Continuous
370
    -3
390
F
  0
LAYER
  5
74
330
2
100
AcDbSymbolTableRecord
100
AcDbLayerTableRecord
  2
SLD-0
 70
     0
 62
     1
  6
Continuous
370
    -3
390
F
  0
LAYER
  5
75
330
2
100
AcDbSymbolTableRecord
100
AcDbLayerTableRecord
  2
WATERMARK
 70
     0
 62
     1
  6
Continuous
370
    -3
390
F
  0
ENDTAB
  0
TABLE
  2
STYLE
  5
3
330
0
100
AcDbSymbolTable
 70
     1
  0
STYLE
  5
11
330
3
100
AcDbSymbolTableRecord
100
AcDbTextStyleTableRecord
  2
Standard
 70
     0
 40
0.0
 41
1.0
 50
0.0
 71
     0
 42
3.5
  3
txt
  4

  0
ENDTAB
  0
TABLE
  2
VIEW
  5
6
330
0
100
AcDbSymbolTable
 70
     0
  0
ENDTAB
  0
TABLE
  2
UCS
  5
7
330
0
100
AcDbSymbolTable
 70
     0
  0
ENDTAB
  0
TABLE
  2
APPID
  5
9
330
0
100
AcDbSymbolTable
 70
     1
  0
APPID
  5
12
330
9
100
AcDbSymbolTableRecord
100
AcDbRegAppTableRecord
  2
ACAD
 70
     0
  0
ENDTAB
  0
TABLE
  2
DIMSTYLE
  5
A
330
0
100
AcDbSymbolTable
 70
     1
100
AcDbDimStyleTable
  0
DIMSTYLE
105
27
330
A
100
AcDbSymbolTableRecord
100
AcDbDimStyleTableRecord
  2
ISO-25
 70
     0
 41
2.5
 42
0.625
 43
3.75
 44
1.25
 73
     0
 74
     0
 77
     1
 78
     8
140
2.5
141
2.5
143
0.0393700787
147
0.625
171
     3
172
     1
178
     0
271
     2
272
     2
274
     3
278
    44
283
     0
284
     8
340
11
  0
ENDTAB
  0
TABLE
  2
BLOCK_RECORD
  5
1
330
0
100
AcDbSymbolTable
 70
     1
  0
BLOCK_RECORD
  5
1F
330
1
100
AcDbSymbolTableRecord
100
AcDbBlockTableRecord
  2
*Model_Space
340
22
  0
BLOCK_RECORD
  5
1B
330
1
100
AcDbSymbolTableRecord
100
AcDbBlockTableRecord
  2
*Paper_Space
340
1E
  0
BLOCK_RECORD
  5
23
330
1
100
AcDbSymbolTableRecord
100
AcDbBlockTableRecord
  2
*Paper_Space0
340
26
  0
ENDTAB
  0
ENDSEC
  0
SECTION
  2
BLOCKS
  0
BLOCK
  5
20
330
1F
100
AcDbEntity
  8
0
100
AcDbBlockBegin
  2
*Model_Space
 70
     0
 10
0.0
 20
0.0
 30
0.0
  3
*Model_Space
  1

  0
ENDBLK
  5
21
330
1F
100
AcDbEntity
  8
0
100
AcDbBlockEnd
  0
BLOCK
  5
1C
330
1B
100
AcDbEntity
 67
     1
  8
0
100
AcDbBlockBegin
  2
*Paper_Space
 70
     0
 10
0.0
 20
0.0
 30
0.0
  3
*Paper_Space
  1

  0
ENDBLK
  5
1D
330
1B
100
AcDbEntity
 67
     1
  8
0
100
AcDbBlockEnd
  0
BLOCK
  5
24
330
23
100
AcDbEntity
  8
0
100
AcDbBlockBegin
  2
*Paper_Space0
 70
     0
 10
0.0
 20
0.0
 30
0.0
  3
*Paper_Space0
  1

  0
ENDBLK
  5
25
330
23
100
AcDbEntity
  8
0
100
AcDbBlockEnd
  0
ENDSEC
  0
SECTION
  2
ENTITIES
  0
LINE
  5
76
330
1F
100
AcDbEntity
  8
0
  6
Continuous
 62
     7
370
    25
100
AcDbLine
 10
759.8799412878
 20
67.5829368236
 30
0.0
 11
759.8799412878
 21
71.5829368236
 31
0.0
  0
LINE
  5
77
330
1F
100
AcDbEntity
  8
0
  6
Continuous
 62
     7
370
    25
100
AcDbLine
 10
702.8799412878
 20
71.5829368236
 30
0.0
 11
702.8799412878
 21
67.5829368236
 31
0.0
  0
ARC
  5
78
330
1F
100
AcDbEntity
  8
0
  6
Continuous
 62
     7
370
    25
100
AcDbCircle
 10
757.8799412878
 20
67.5829368236
 30
0.0
 40
2.0
100
AcDbArc
 50
270.0
 51
0.0
  0
ARC
  5
79
330
1F
100
AcDbEntity
  8
0
  6
Continuous
 62
     7
370
    25
100
AcDbCircle
 10
704.8799412878
 20
67.5829368236
 30
0.0
 40
2.0
100
AcDbArc
 50
180.0
 51
270.0
  0
LINE
  5
7A
330
1F
100
AcDbEntity
  8
0
  6
Continuous
 62
     7
370
    25
100
AcDbLine
 10
174.8799412878
 20
65.0829368236
 30
0.0
 11
174.8799412878
 21
67.5829368236
 31
0.0
  0
LINE
  5
7B
330
1F
100
AcDbEntity
  8
0
  6
Continuous
 62
     7
370
    25
100
AcDbLine
 10
117.8799412878
 20
67.5829368236
 30
0.0
 11
117.8799412878
 21
65.0829368236
 31
0.0
  0
ARC
  5
7C
330
1F
100
AcDbEntity
  8
0
  6
Continuous
 62
     7
370
    25
100
AcDbCircle
 10
172.8799412878
 20
65.0829368236
 30
0.0
 40
2.000000000000028
100
AcDbArc
 50
270.0
 51
0.0
  0
ARC
  5
7D
330
1F
100
AcDbEntity
  8
0
  6
Continuous
 62
     7
370
    25
100
AcDbCircle
 10
119.8799412878
 20
65.0829368236
 30
0.0
 40
2.000000000000014
100
AcDbArc
 50
180.0
 51
270.0
  0
ARC
  5
7E
330
1F
100
AcDbEntity
  8
0
  6
Continuous
 62
     7
370
    25
100
AcDbCircle
 10
172.8799412878
 20
67.5829368236
 30
0.0
 40
2.000000000000028
100
AcDbArc
 50
270.0
 51
0.0
  0
ARC
  5
7F
330
1F
100
AcDbEntity
  8
0
  6
Continuous
 62
     7
370
    25
100
AcDbCircle
 10
119.8799412878
 20
67.5829368236
 30
0.0
 40
2.000000000000014
100
AcDbArc
 50
180.0
 51
270.0
  0
LINE
  5
80
330
1F
100
AcDbEntity
  8
0
  6
Continuous
 62
     7
370
    25
100
AcDbLine
 10
174.8799412878
 20
67.5829368236
 30
0.0
 11
174.8799412878
 21
71.5829368236
 31
0.0
  0
LINE
  5
81
330
1F
100
AcDbEntity
  8
0
  6
Continuous
 62
     7
370
    25
100
AcDbLine
 10
117.8799412878
 20
71.5829368236
 30
0.0
 11
117.8799412878
 21
67.5829368236
 31
0.0
  0
LINE
  5
82
330
1F
100
AcDbEntity
  8
0
  6
Continuous
 62
     7
370
    25
100
AcDbLine
 10
174.6799412878
 20
71.5829368236
 30
0.0
 11
174.6799412878
 21
139.5829368236
 31
0.0
  0
LINE
  5
83
330
1F
100
AcDbEntity
  8
0
  6
Continuous
 62
     7
370
    25
100
AcDbLine
 10
118.0799412878
 20
139.5829368236
 30
0.0
 11
118.0799412878
 21
71.5829368236
 31
0.0
  0
LINE
  5
84
330
1F
100
AcDbEntity
  8
0
  6
Continuous
 62
     7
370
    25
100
AcDbLine
 10
759.6799412878
 20
71.5829368236
 30
0.0
 11
759.6799412878
 21
139.5829368236
 31
0.0
  0
LINE
  5
85
330
1F
100
AcDbEntity
  8
0
  6
Continuous
 62
     7
370
    25
100
AcDbLine
 10
703.0799412878
 20
139.5829368236
 30
0.0
 11
703.0799412878
 21
71.5829368236
 31
0.0
  0
ARC
  5
86
330
1F
100
AcDbEntity
  8
0
  6
Continuous
 62
     7
370
    25
100
AcDbCircle
 10
179.7799412878
 20
232.0829368236
 30
0.0
 40
1.500000000000057
100
AcDbArc
 50
90.0
 51
180.0
  0
ARC
  5
87
330
1F
100
AcDbEntity
  8
0
  6
Continuous
 62
     7
370
    25
100
AcDbCircle
 10
112.9799412878
 20
232.0829368236
 30
0.0
 40
1.500000000000057
100
AcDbArc
 50
0.0
 51
90.0
  0
ARC
  5
88
330
1F
100
AcDbEntity
  8
0
  6
Continuous
 62
     7
370
    25
100
AcDbCircle
 10
173.5799412878
 20
145.6155027693
 30
0.0
 40
4.7
100
AcDbArc
 50
350.5402980318
 51
0.0
  0
ARC
  5
89
330
1F
100
AcDbEntity
  8
0
  6
Continuous
 62
     7
370
    25
100
AcDbCircle
 10
119.1799412878
 20
145.6155027693
 30
0.0
 40
4.699999999999987
100
AcDbArc
 50
180.0
 51
189.4597019682
  0
LINE
  5
8A
330
1F
100
AcDbEntity
  8
0
  6
Continuous
 62
     7
370
    25
100
AcDbLine
 10
178.2799412878
 20
145.6155027693
 30
0.0
 11
178.2799412878
 21
232.0829368236
 31
0.0
  0
LINE
  5
8B
330
1F
100
AcDbEntity
  8
0
  6
Continuous
 62
     7
370
    25
100
AcDbLine
 10
114.4799412878
 20
232.0829368236
 30
0.0
 11
114.4799412878
 21
145.6155027693
 31
0.0
  0
LINE
  5
8C
330
1F
100
AcDbEntity
  8
0
  6
Continuous
 62
     7
370
    25
100
AcDbLine
 10
114.5438545148
 20
144.8430395448
 30
0.0
 11
115.4202910674
 21
139.5829368236
 31
0.0
  0
LINE
  5
8D
330
1F
100
AcDbEntity
  8
0
  6
Continuous
 62
     7
370
    25
100
AcDbLine
 10
177.3395915081
 20
139.5829368236
 30
0.0
 11
178.2160280608
 21
144.8430395448
 31
0.0
  0
ARC
  5
8E
330
1F
100
AcDbEntity
  8
0
  6
Continuous
 62
     7
370
    25
100
AcDbCircle
 10
764.7799412878
 20
232.0829368236
 30
0.0
 40
1.5
100
AcDbArc
 50
90.0
 51
180.0
  0
ARC
  5
8F
330
1F
100
AcDbEntity
  8
0
  6
Continuous
 62
     7
370
    25
100
AcDbCircle
 10
697.9799412878
 20
232.0829368236
 30
0.0
 40
1.5
100
AcDbArc
 50
0.0
 51
90.0
  0
LINE
  5
90
330
1F
100
AcDbEntity
  8
0
  6
Continuous
 62
     7
370
    25
100
AcDbLine
 10
763.2799412878
 20
145.6155027693
 30
0.0
 11
763.2799412878
 21
232.0829368236
 31
0.0
  0
LINE
  5
91
330
1F
100
AcDbEntity
  8
0
  6
Continuous
 62
     7
370
    25
100
AcDbLine
 10
699.4799412878
 20
232.0829368236
 30
0.0
 11
699.4799412878
 21
145.6155027693
 31
0.0
  0
ARC
  5
92
330
1F
100
AcDbEntity
  8
0
  6
Continuous
 62
     7
370
    25
100
AcDbCircle
 10
758.5799412878
 20
145.6155027693
 30
0.0
 40
4.700000000000122
100
AcDbArc
 50
350.5402980318
 51
0.0
  0
ARC
  5
93
330
1F
100
AcDbEntity
  8
0
  6
Continuous
 62
     7
370
    25
100
AcDbCircle
 10
704.1799412878
 20
145.6155027693
 30
0.0
 40
4.700000000000045
100
AcDbArc
 50
180.0
 51
189.4597019682
  0
LINE
  5
94
330
1F
100
AcDbEntity
  8
0
  6
Continuous
 62
     7
370
    25
100
AcDbLine
 10
699.5438545148
 20
144.8430395448
 30
0.0
 11
700.4202910674
 21
139.5829368236
 31
0.0
  0
LINE
  5
95
330
1F
100
AcDbEntity
  8
0
  6
Continuous
 62
     7
370
    25
100
AcDbLine
 10
762.3395915081
 20
139.5829368236
 30
0.0
 11
763.2160280608
 21
144.8430395448
 31
0.0
  0
ARC
  5
96
330
1F
100
AcDbEntity
  8
0
  6
Continuous
 62
     7
370
    25
100
AcDbCircle
 10
179.7799412878
 20
229.5829368236
 30
0.0
 40
1.5
100
AcDbArc
 50
90.0
 51
180.0
  0
ARC
  5
97
330
1F
100
AcDbEntity
  8
0
  6
Continuous
 62
     7
370
    25
100
AcDbCircle
 10
112.9799412878
 20
229.5829368236
 30
0.0
 40
1.5
100
AcDbArc
 50
0.0
 51
90.0
  0
LINE
  5
98
330
1F
100
AcDbEntity
  8
0
  6
Continuous
 62
     7
370
    25
100
AcDbLine
 10
178.2799412878
 20
143.1155027693
 30
0.0
 11
178.2799412878
 21
145.6155027693
 31
0.0
  0
LINE
  5
99
330
1F
100
AcDbEntity
  8
0
  6
Continuous
 62
     7
370
    25
100
AcDbLine
 10
114.4799412878
 20
145.6155027693
 30
0.0
 11
114.4799412878
 21
143.1155027693
 31
0.0
  0
ARC
  5
9A
330
1F
100
AcDbEntity
  8
0
  6
Continuous
 62
     7
370
    25
100
AcDbCircle
 10
173.5799412878
 20
143.1155027693
 30
0.0
 40
4.7
100
AcDbArc
 50
350.5402980318
 51
0.0
  0
ARC
  5
9B
330
1F
100
AcDbEntity
  8
0
  6
Continuous
 62
     7
370
    25
100
AcDbCircle
 10
119.1799412878
 20
143.1155027693
 30
0.0
 40
4.699999999999987
100
AcDbArc
 50
180.0
 51
189.4597019682
  0
LINE
  5
9C
330
1F
100
AcDbEntity
  8
0
  6
Continuous
 62
     7
370
    25
100
AcDbLine
 10
114.5438545148
 20
142.3430395448
 30
0.0
 11
115.4202910674
 21
137.0829368236
 31
0.0
  0
LINE
  5
9D
330
1F
100
AcDbEntity
  8
0
  6
Continuous
 62
     7
370
    25
100
AcDbLine
 10
177.3395915081
 20
137.0829368236
 30
0.0
 11
178.2160280608
 21
142.3430395448
 31
0.0
  0
LINE
  5
9E
330
1F
100
AcDbEntity
  8
0
  6
Continuous
 62
     7
370
    25
100
AcDbLine
 10
434.1299412924
 20
973.2067421429
 30
0.0
 11
434.1299412924
 21
972.2829368236
 31
0.0
  0
LINE
  5
9F
330
1F
100
AcDbEntity
  8
0
  6
Continuous
 62
     7
370
    25
100
AcDbLine
 10
472.1299412924
 20
972.2829368236
 30
0.0
 11
472.1299412924
 21
973.2067421429
 31
0.0
  0
ARC
  5
A0
330
1F
100
AcDbEntity
  8
0
  6
Continuous
 62
     7
370
    25
100
AcDbCircle
 10
436.1299412924
 20
972.2829368236
 30
0.0
 40
2.0
100
AcDbArc
 50
180.0
 51
270.0
  0
ARC
  5
A1
330
1F
100
AcDbEntity
  8
0
  6
Continuous
 62
     7
370
    25
100
AcDbCircle
 10
470.1299412924
 20
972.2829368236
 30
0.0
 40
2.0
100
AcDbArc
 50
270.0
 51
0.0
  0
ARC
  5
A2
330
1F
100
AcDbEntity
  8
0
  6
Continuous
 62
     7
370
    25
100
AcDbCircle
 10
470.1299412924
 20
973.2067421429
 30
0.0
 40
2.0
100
AcDbArc
 50
0.0
 51
57.5027570594
  0
ARC
  5
A3
330
1F
100
AcDbEntity
  8
0
  6
Continuous
 62
     7
370
    25
100
AcDbCircle
 10
436.1299412924
 20
973.2067421429
 30
0.0
 40
2.0
100
AcDbArc
 50
122.4972429406
 51
180.0
  0
ARC
  5
A4
330
1F
100
AcDbEntity
  8
0
  6
Continuous
 62
     7
370
    25
100
AcDbCircle
 10
452.6517161429
 20
945.7685106749
 30
0.0
 40
34.53221327345199
100
AcDbArc
 50
57.5027570594
 51
89.2065044192
  0
ARC
  5
A5
330
1F
100
AcDbEntity
  8
0
  6
Continuous
 62
     7
370
    25
100
AcDbCircle
 10
453.6081664419
 20
945.7685106749
 30
0.0
 40
34.53221327345199
100
AcDbArc
 50
90.7934955808
 51
122.4972429406
  0
ARC
  5
A6
330
1F
100
AcDbEntity
  8
0
  6
Continuous
 62
     7
370
    25
100
AcDbCircle
 10
438.2578022675
 20
968.2829368236
 30
0.0
 40
2.0
100
AcDbArc
 50
42.8789036033
 51
90.0
  0
ARC
  5
A7
330
1F
100
AcDbEntity
  8
0
  6
Continuous
 62
     7
370
    25
100
AcDbCircle
 10
468.0020803173
 20
968.2829368236
 30
0.0
 40
2.0
100
AcDbArc
 50
90.0
 51
137.1210963967
  0
LINE
  5
A8
330
1F
100
AcDbEntity
  8
0
  6
Continuous
 62
     7
370
    25
100
AcDbLine
 10
439.7233892507
 20
969.6438390223
 30
0.0
 11
445.0955282756
 21
963.8584585339
 31
0.0
  0
LINE
  5
A9
330
1F
100
AcDbEntity
  8
0
  6
Continuous
 62
     7
370
    25
100
AcDbLine
 10
461.1643543091
 20
963.8584585339
 30
0.0
 11
466.5364933341
 21
969.6438390223
 31
0.0
  0
ARC
  5
AA
330
1F
100
AcDbEntity
  8
0
  6
Continuous
 62
     7
370
    25
100
AcDbCircle
 10
443.6299412924
 20
962.4975563352
 30
0.0
 40
2.00000000000003
100
AcDbArc
 50
0.0
 51
42.8789036033
  0
ARC
  5
AB
330
1F
100
AcDbEntity
  8
0
  6
Continuous
 62
     7
370
    25
100
AcDbCircle
 10
462.6299412924
 20
962.4975563352
 30
0.0
 40
2.00000000000003
100
AcDbArc
 50
137.1210963967
 51
180.0
  0
LINE
  5
AC
330
1F
100
AcDbEntity
  8
0
  6
Continuous
 62
     7
370
    25
100
AcDbLine
 10
445.6299412924
 20
962.4975563352
 30
0.0
 11
445.6299412924
 21
955.2829368236
 31
0.0
  0
LINE
  5
AD
330
1F
100
AcDbEntity
  8
0
  6
Continuous
 62
     7
370
    25
100
AcDbLine
 10
460.6299412924
 20
955.2829368236
 30
0.0
 11
460.6299412924
 21
962.4975563352
 31
0.0
  0
ARC
  5
AE
330
1F
100
AcDbEntity
  8
0
  6
Continuous
 62
     7
370
    25
100
AcDbCircle
 10
23.4925432528
 20
1074.0872754462
 30
0.0
 40
2.499999999999943
100
AcDbArc
 50
61.9
 51
241.9
  0
LINE
  5
AF
330
1F
100
AcDbEntity
  8
0
  6
Continuous
 62
     7
370
    25
100
AcDbLine
 10
49.2205195788
 20
1063.1838749267
 30
0.0
 11
24.6700729558
 21
1076.2925926113
 31
0.0
  0
LINE
  5
B0
330
1F
100
AcDbEntity
  8
0
  6
Continuous
 62
     7
370
    25
100
AcDbLine
 10
22.3150135497
 20
1071.8819582812
 30
0.0
 11
46.8654601727
 21
1058.7732405966
 31
0.0
  0
LINE
  5
B1
330
1F
100
AcDbEntity
  8
0
  6
Continuous
 62
     7
370
    25
100
AcDbLine
 10
46.8654601727
 20
1058.7732405966
 30
0.0
 11
90.3827572335
 21
1035.5371679365
 31
0.0
  0
LINE
  5
B2
330
1F
100
AcDbEntity
  8
0
  6
Continuous
 62
     7
370
    25
100
AcDbLine
 10
92.7378166396
 20
1039.9478022666
 30
0.0
 11
49.2205195788
 21
1063.1838749267
 31
0.0
  0
LINE
  5
B3
330
1F
100
AcDbEntity
  8
0
  6
Continuous
 62
     7
370
    25
100
AcDbLine
 10
90.3827572335
 20
1035.5371679365
 30
0.0
 11
91.8761660858
 21
1034.7397618716
 31
0.0
  0
LINE
  5
B4
330
1F
100
AcDbEntity
  8
0
  6
Continuous
 62
     7
370
    25
100
AcDbLine
 10
94.2312254919
 20
1039.1503962017
 30
0.0
 11
92.7378166396
 21
1039.9478022666
 31
0.0
  0
LINE
  5
B5
330
1F
100
AcDbEntity
  8
0
  6
Continuous
 62
     7
370
    25
100
AcDbLine
 10
220.5276698176
 20
966.0462562901
 30
0.0
 11
240.6855759076
 21
955.2829368236
 31
0.0
  0
LINE
  5
B6
330
1F
100
AcDbEntity
  8
0
  6
Continuous
 62
     7
370
    25
100
AcDbLine
 10
100.5584160392
 20
1030.1038721359
 30
0.0
 11
215.2349086215
 21
968.8723275774
 31
0.0
  0
LINE
  5
B7
330
1F
100
AcDbEntity
  8
0
  6
Continuous
 62
     7
370
    25
100
AcDbLine
 10
91.8761660858
 20
1034.7397618716
 30
0.0
 11
95.2656548431
 21
1032.9299434232
 31
0.0
  0
LINE
  5
B8
330
1F
100
AcDbEntity
  8
0
  6
Continuous
 62
     7
370
    25
100
AcDbLine
 10
251.3010193802
 20
955.2829368236
 30
0.0
 11
94.2312254919
 21
1039.1503962017
 31
0.0
  0
LINE
  5
B9
330
1F
100
AcDbEntity
  8
0
  6
Continuous
 62
     7
370
    25
100
AcDbLine
 10
251.4883027378
 20
955.2829368236
 30
0.0
 11
96.1223491032
 21
1038.2406302325
 31
0.0
  0
ARC
  5
BA
330
1F
100
AcDbEntity
  8
0
  6
Continuous
 62
     7
370
    25
100
AcDbCircle
 10
23.4925432528
 20
1074.483891511
 30
0.0
 40
2.500000000000142
100
AcDbArc
 50
61.9
 51
184.5496650462
  0
LINE
  5
BB
330
1F
100
AcDbEntity
  8
0
  6
Continuous
 62
     7
370
    25
100
AcDbLine
 10
49.2205195788
 20
1063.5804909914
 30
0.0
 11
24.6700729558
 21
1076.689208676
 31
0.0
  0
LINE
  5
BC
330
1F
100
AcDbEntity
  8
0
  6
Continuous
 62
     7
370
    25
100
AcDbLine
 10
92.7378166396
 20
1040.3444183313
 30
0.0
 11
49.2205195788
 21
1063.5804909914
 31
0.0
  0
LINE
  5
BD
330
1F
100
AcDbEntity
  8
0
  6
Continuous
 62
     7
370
    25
100
AcDbLine
 10
94.2312254919
 20
1039.5470122665
 30
0.0
 11
92.7378166396
 21
1040.3444183313
 31
0.0
  0
LINE
  5
BE
330
1F
100
AcDbEntity
  8
0
  6
Continuous
 62
     7
370
    25
100
AcDbLine
 10
252.0438152632
 20
955.2829368236
 30
0.0
 11
94.2312254919
 21
1039.5470122665
 31
0.0
  0
LINE
  5
BF
330
1F
100
AcDbEntity
  8
0
  6
Continuous
 62
     7
370
    25
100
AcDbLine
 10
252.2310986208
 20
955.2829368236
 30
0.0
 11
96.1223491032
 21
1038.6372462973
 31
0.0
  0
LINE
  5
C0
330
1F
100
AcDbEntity
  8
0
  6
Continuous
 62
     7
370
    25
100
AcDbLine
 10
749.8799412878
 20
1091.4829368236
 30
0.0
 11
750.3799412878
 21
1091.4829368236
 31
0.0
  0
LINE
  5
C1
330
1F
100
AcDbEntity
  8
0
  6
Continuous
 62
     7
370
    25
100
AcDbLine
 10
750.3799412878
 20
1099.4829368236
 30
0.0
 11
749.8799412878
 21
1099.4829368236
 31
0.0
  0
LINE
  5
C2
330
1F
100
AcDbEntity
  8
0
  6
Continuous
 62
     7
370
    25
100
AcDbLine
 10
737.3794281365
 20
1105.4799079753
 30
0.0
 11
736.8799412878
 21
1104.9804211266
 31
0.0
  0
LINE
  5
C3
330
1F
100
AcDbEntity
  8
0
  6
Continuous
 62
     7
370
    25
100
AcDbLine
 10
736.8799412878
 20
1085.9854525206
 30
0.0
 11
736.9818845991
 21
1085.8835092093
 31
0.0
  0
LINE
  5
C4
330
1F
100
AcDbEntity
  8
0
  6
Continuous
 62
     7
370
    25
100
AcDbLine
 10
740.7779979769
 20
1085.8835092097
 30
0.0
 11
740.8799412878
 21
1085.9854525206
 31
0.0
  0
LINE
  5
C5
330
1F
100
AcDbEntity
  8
0
  6
Continuous
 62
     7
370
    25
100
AcDbLine
 10
740.8799412878
 20
1104.9804211266
 30
0.0
 11
740.3798681592
 21
1105.4804942552
 31
0.0
  0
ARC
  5
C6
330
1F
100
AcDbEntity
  8
0
  6
Continuous
 62
     7
370
    25
100
AcDbCircle
 10
741.2799412878
 20
1090.0829368236
 30
0.0
 40
0.4000000000000909
100
AcDbArc
 50
90.0
 51
180.0
  0
ARC
  5
C7
330
1F
100
AcDbEntity
  8
0
  6
Continuous
 62
     7
370
    25
100
AcDbCircle
 10
741.2799412878
 20
1100.8829368236
 30
0.0
 40
0.4000000000000909
100
AcDbArc
 50
180.0
 51
270.0
  0
ARC
  5
C8
330
1F
100
AcDbEntity
  8
0
  6
Continuous
 62
     7
370
    25
100
AcDbCircle
 10
748.1799412878
 20
1100.2829368236
 30
0.0
 40
0.2000000000000455
100
AcDbArc
 50
0.0
 51
90.0000000003
  0
ARC
  5
C9
330
1F
100
AcDbEntity
  8
0
  6
Continuous
 62
     7
370
    25
100
AcDbCircle
 10
748.1799412878
 20
1090.6829368236
 30
0.0
 40
0.2000000000000455
100
AcDbArc
 50
269.9999999997
 51
0.0
  0
LINE
  5
CA
330
1F
100
AcDbEntity
  8
0
  6
Continuous
 62
     7
370
    25
100
AcDbLine
 10
741.2799412878
 20
1090.4829368236
 30
0.0
 11
748.1799412878
 21
1090.4829368236
 31
0.0
  0
LINE
  5
CB
330
1F
100
AcDbEntity
  8
0
  6
Continuous
 62
     7
370
    25
100
AcDbLine
 10
748.1799412878
 20
1100.4829368236
 30
0.0
 11
741.2799412878
 21
1100.4829368236
 31
0.0
  0
LINE
  5
CC
330
1F
100
AcDbEntity
  8
0
  6
Continuous
 62
     7
370
    25
100
AcDbLine
 10
61.2799412878
 20
503.7329368236
 30
0.0
 11
60.7799412878
 21
503.7329368236
 31
0.0
  0
LINE
  5
CD
330
1F
100
AcDbEntity
  8
0
  6
Continuous
 62
     7
370
    25
100
AcDbLine
 10
60.7799412878
 20
496.7329368236
 30
0.0
 11
61.2799412878
 21
496.7329368236
 31
0.0
  0
ARC
  5
CE
330
1F
100
AcDbEntity
  8
0
  6
Continuous
 62
     7
370
    25
100
AcDbCircle
 10
63.2799412878
 20
492.2329368236
 30
0.0
 40
2.0
100
AcDbArc
 50
180.0
 51
270.0
  0
ARC
  5
CF
330
1F
100
AcDbEntity
  8
0
  6
Continuous
 62
     7
370
    25
100
AcDbCircle
 10
63.2799412878
 20
508.2329368236
 30
0.0
 40
2.0
100
AcDbArc
 50
90.0
 51
180.0
  0
LINE
  5
D0
330
1F
100
AcDbEntity
  8
0
  6
Continuous
 62
     7
370
    25
100
AcDbLine
 10
67.9799412878
 20
510.2329368236
 30
0.0
 11
63.2799412878
 21
510.2329368236
 31
0.0
  0
LINE
  5
D1
330
1F
100
AcDbEntity
  8
0
  6
Continuous
 62
     7
370
    25
100
AcDbLine
 10
63.2799412878
 20
490.2329368236
 30
0.0
 11
67.9799412878
 21
490.2329368236
 31
0.0
  0
LINE
  5
D2
330
1F
100
AcDbEntity
  8
0
  6
Continuous
 62
     7
370
    25
100
AcDbLine
 10
40.6799412878
 20
237.5829368236
 30
0.0
 11
40.6799412878
 21
236.0829368236
 31
0.0
  0
LINE
  5
D3
330
1F
100
AcDbEntity
  8
0
  6
Continuous
 62
     7
370
    25
100
AcDbLine
 10
57.6799412878
 20
236.0829368236
 30
0.0
 11
57.6799412878
 21
237.5829368236
 31
0.0
  0
LINE
  5
D4
330
1F
100
AcDbEntity
  8
0
  6
Continuous
 62
     7
370
    25
100
AcDbLine
 10
57.6799412878
 20
237.5829368236
 30
0.0
 11
57.1799412878
 21
238.0829368236
 31
0.0
  0
LINE
  5
D5
330
1F
100
AcDbEntity
  8
0
  6
Continuous
 62
     7
370
    25
100
AcDbLine
 10
41.1799412878
 20
238.0829368236
 30
0.0
 11
40.6799412878
 21
237.5829368236
 31
0.0
  0
LINE
  5
D6
330
1F
100
AcDbEntity
  8
0
  6
Continuous
 62
     7
370
    25
100
AcDbLine
 10
40.6799412878
 20
236.0829368236
 30
0.0
 11
41.1799412878
 21
235.5829368236
 31
0.0
  0
LINE
  5
D7
330
1F
100
AcDbEntity
  8
0
  6
Continuous
 62
     7
370
    25
100
AcDbLine
 10
57.1799412878
 20
235.5829368236
 30
0.0
 11
57.6799412878
 21
236.0829368236
 31
0.0
  0
LINE
  5
D8
330
1F
100
AcDbEntity
  8
0
  6
Continuous
 62
     7
370
    25
100
AcDbLine
 10
42.6799412878
 20
241.9829368236
 30
0.0
 11
42.6799412878
 21
241.8415154673
 31
0.0
  0
LINE
  5
D9
330
1F
100
AcDbEntity
  8
0
  6
Continuous
 62
     7
370
    25
100
AcDbLine
 10
57.6799412878
 20
761.7829368236
 30
0.0
 11
57.6799412878
 21
763.2829368236
 31
0.0
  0
LINE
  5
DA
330
1F
100
AcDbEntity
  8
0
  6
Continuous
 62
     7
370
    25
100
AcDbLine
 10
40.6799412878
 20
763.2829368236
 30
0.0
 11
40.6799412878
 21
761.7829368236
 31
0.0
  0
LINE
  5
DB
330
1F
100
AcDbEntity
  8
0
  6
Continuous
 62
     7
370
    25
100
AcDbLine
 10
57.6799412878
 20
763.2829368236
 30
0.0
 11
57.1799412878
 21
763.7829368236
 31
0.0
  0
LINE
  5
DC
330
1F
100
AcDbEntity
  8
0
  6
Continuous
 62
     7
370
    25
100
AcDbLine
 10
41.1799412878
 20
763.7829368236
 30
0.0
 11
40.6799412878
 21
763.2829368236
 31
0.0
  0
LINE
  5
DD
330
1F
100
AcDbEntity
  8
0
  6
Continuous
 62
     7
370
    25
100
AcDbLine
 10
40.6799412878
 20
761.7829368236
 30
0.0
 11
41.1799412878
 21
761.2829368236
 31
0.0
  0
LINE
  5
DE
330
1F
100
AcDbEntity
  8
0
  6
Continuous
 62
     7
370
    25
100
AcDbLine
 10
57.1799412878
 20
761.2829368236
 30
0.0
 11
57.6799412878
 21
761.7829368236
 31
0.0
  0
LINE
  5
DF
330
1F
100
AcDbEntity
  8
0
  6
Continuous
 62
     7
370
    25
100
AcDbLine
 10
42.6799412878
 20
757.5243581798
 30
0.0
 11
42.6799412878
 21
757.3829368236
 31
0.0
  0
LWPOLYLINE
  5
E0
330
1F
100
AcDbEntity
  8
0
  6
Continuous
 62
     7
370
    25
100
AcDbPolyline
 90
       11
 70
   128
 43
0.0
 10
36.5960529681
 20
327.2013691941
 10
36.4273640127
 20
327.0061735988
 10
36.3754999955
 20
326.9387829413
 10
36.361312145
 20
326.9196419015
 10
36.3575993665
 20
326.9145802
 10
36.3566491101
 20
326.9132811291
 10
36.3564086712
 20
326.9129521999
 10
36.3563481856
 20
326.9128694386
 10
36.3563330118
 20
326.9128486757
 10
36.3563279363
 20
326.9128417306
 10
36.3563279456
 20
326.9128417433
  0
LINE
  5
E1
330
1F
100
AcDbEntity
  8
0
  6
Continuous
 62
     7
370
    25
100
AcDbLine
 10
60.7799412879
 20
284.7329368236
 30
0.0
 11
67.2650125378
 21
286.3542046361
 31
0.0
  0
LINE
  5
E2
330
1F
100
AcDbEntity
  8
0
  6
Continuous
 62
     7
370
    25
100
AcDbLine
 10
67.2650125378
 20
294.1116690111
 30
0.0
 11
60.7799412879
 21
295.7329368236
 31
0.0
  0
ARC
  5
E3
330
1F
100
AcDbEntity
  8
0
  6
Continuous
 62
     7
370
    25
100
AcDbCircle
 10
66.7799412878
 20
292.1713840108
 30
0.0
 40
2.000000000006115
100
AcDbArc
 50
53.130102355
 51
75.9637565331
  0
ARC
  5
E4
330
1F
100
AcDbEntity
  8
0
  6
Continuous
 62
     7
370
    25
100
AcDbCircle
 10
66.7799412878
 20
288.2944896364
 30
0.0
 40
2.00000000000606
100
AcDbArc
 50
284.0362434669
 51
306.869897645
  0
LINE
  5
E5
330
1F
100
AcDbEntity
  8
0
  6
Continuous
 62
     7
370
    25
100
AcDbLine
 10
60.7799412879
 20
703.6329368236
 30
0.0
 11
67.2650125378
 21
705.2542046361
 31
0.0
  0
LINE
  5
E6
330
1F
100
AcDbEntity
  8
0
  6
Continuous
 62
     7
370
    25
100
AcDbLine
 10
67.2650125378
 20
713.0116690111
 30
0.0
 11
60.7799412879
 21
714.6329368236
 31
0.0
  0
ARC
  5
E7
330
1F
100
AcDbEntity
  8
0
  6
Continuous
 62
     7
370
    25
100
AcDbCircle
 10
66.7799412878
 20
711.0713840108
 30
0.0
 40
2.00000000000617
100
AcDbArc
 50
53.1301023549
 51
75.9637565331
  0
ARC
  5
E8
330
1F
100
AcDbEntity
  8
0
  6
Continuous
 62
     7
370
    25
100
AcDbCircle
 10
66.7799412878
 20
707.1944896364
 30
0.0
 40
2.00000000000606
100
AcDbArc
 50
284.0362434669
 51
306.8698976451
  0
LINE
  5
E9
330
1F
100
AcDbEntity
  8
0
  6
Continuous
 62
     7
370
    25
100
AcDbLine
 10
42.1799412878
 20
769.5829368236
 30
0.0
 11
42.1799412878
 21
767.0829368236
 31
0.0
  0
SPLINE
  5
EA
330
1F
100
AcDbEntity
  8
0
  6
Continuous
 62
     7
370
    25
100
AcDbSpline
210
0.0
220
0.0
230
1.0
 70
     8
 71
     3
 72
    13
 73
     9
 74
     0
 42
0.000000001
 43
0.00000001
 40
0.0
 40
0.0
 40
0.0
 40
0.0
 40
0.1537005146059922
 40
0.4677837651248446
 40
0.6522647620195313
 40
0.8142558356553076
 40
0.9817880838856466
 40
1.0
 40
1.0
 40
1.0
 40
1.0
 10
816.5823272250732
 20
362.9208835652645
 30
0.0
 10
816.5819632849382
 20
362.9279622828909
 30
0.0
 10
816.5808556420191
 20
362.9495061872302
 30
0.0
 10
816.603122770706
 20
362.9900938154208
 30
0.0
 10
816.6652602143417
 20
363.038197234713
 30
0.0
 10
816.7367303477916
 20
363.0658087662538
 30
0.0
 10
816.7954416605771
 20
363.0769793268097
 30
0.0
 10
816.8265861094823
 20
363.0751004775807
 30
0.0
 10
816.8296397725294
 20
363.0749162594403
 30
0.0
  0
LINE
  5
EB
330
1F
100
AcDbEntity
  8
0
  6
Continuous
 62
     7
370
    25
100
AcDbLine
 10
816.8299412878
 20
363.075554719
 30
0.0
 11
821.9299412878
 21
363.075554719
 31
0.0
  0
ARC
  5
EC
330
1F
100
AcDbEntity
  8
0
  6
Continuous
 62
     7
370
    25
100
AcDbCircle
 10
821.9299412878
 20
363.325554719
 30
0.0
 40
0.25
100
AcDbArc
 50
270.0
 51
0.0
  0
ARC
  5
ED
330
1F
100
AcDbEntity
  8
0
  6
Continuous
 62
     7
370
    25
100
AcDbCircle
 10
821.9299412878
 20
367.7633759336
 30
0.0
 40
0.25
100
AcDbArc
 50
0.0
 51
90.0
  0
LINE
  5
EE
330
1F
100
AcDbEntity
  8
0
  6
Continuous
 62
     7
370
    25
100
AcDbLine
 10
821.9299412878
 20
368.0133759336
 30
0.0
 11
816.8299412878
 21
368.0133759336
 31
0.0
  0
ARC
  5
EF
330
1F
100
AcDbEntity
  8
0
  6
Continuous
 62
     7
370
    25
100
AcDbCircle
 10
815.6299412878
 20
367.0329368236
 30
0.0
 40
0.2499999999998989
100
AcDbArc
 50
121.0756875732
 51
180.0
  0
LINE
  5
F0
330
1F
100
AcDbEntity
  8
0
  6
Continuous
 62
     7
370
    25
100
AcDbLine
 10
816.8299412878
 20
349.1524977135
 30
0.0
 11
821.9299412878
 21
349.1524977135
 31
0.0
  0
ARC
  5
F1
330
1F
100
AcDbEntity
  8
0
  6
Continuous
 62
     7
370
    25
100
AcDbCircle
 10
821.9299412878
 20
349.4024977135
 30
0.0
 40
0.2500000000001137
100
AcDbArc
 50
270.0
 51
0.0
  0
SPLINE
  5
F2
330
1F
100
AcDbEntity
  8
0
  6
Continuous
 62
     7
370
    25
100
AcDbSpline
210
0.0
220
0.0
230
1.0
 70
     8
 71
     3
 72
    13
 73
     9
 74
     0
 42
0.000000001
 43
0.00000001
 40
0.0
 40
0.0
 40
0.0
 40
0.0
 40
0.1560186113415905
 40
0.4086735129026459
 40
0.5953335874213088
 40
0.7561090603043579
 40
0.9249103809558894
 40
1.0
 40
1.0
 40
1.0
 40
1.0
 10
816.5788952336852
 20
355.0268901670685
 30
0.0
 10
816.5791516745039
 20
355.0246718980678
 30
0.0
 10
816.5798233928924
 20
355.0188613875316
 30
0.0
 10
816.5694645502858
 20
354.9958108758739
 30
0.0
 10
816.5237440731654
 20
354.9560543723098
 30
0.0
 10
816.455969594799
 20
354.9255167718252
 30
0.0
 10
816.3871142341487
 20
354.9089196228322
 30
0.0
 10
816.3434003125225
 20
354.9100659284339
 30
0.0
 10
816.3299415849211
 20
354.9104188552423
 30
0.0
  0
LINE
  5
F3
330
1F
100
AcDbEntity
  8
0
  6
Continuous
 62
     7
370
    25
100
AcDbLine
 10
816.3299412878
 20
354.9085274876
 30
0.0
 11
811.2299412878
 21
354.9085274876
 31
0.0
  0
ARC
  5
F4
330
1F
100
AcDbEntity
  8
0
  6
Continuous
 62
     7
370
    25
100
AcDbCircle
 10
811.2299412878
 20
354.6585274876
 30
0.0
 40
0.25
100
AcDbArc
 50
90.0
 51
180.0
  0
ARC
  5
F5
330
1F
100
AcDbEntity
  8
0
  6
Continuous
 62
     7
370
    25
100
AcDbCircle
 10
811.2299412878
 20
349.8323605155
 30
0.0
 40
0.25
100
AcDbArc
 50
180.0
 51
270.0
  0
LINE
  5
F6
330
1F
100
AcDbEntity
  8
0
  6
Continuous
 62
     7
370
    25
100
AcDbLine
 10
811.2299412878
 20
349.5823605155
 30
0.0
 11
816.3299412878
 21
349.5823605155
 31
0.0
  0
ARC
  5
F7
330
1F
100
AcDbEntity
  8
0
  6
Continuous
 62
     7
370
    25
100
AcDbCircle
 10
817.5299412878
 20
350.1329368236
 30
0.0
 40
0.25
100
AcDbArc
 50
270.0
 51
0.0
  0
LINE
  5
F8
330
1F
100
AcDbEntity
  8
0
  6
Continuous
 62
     7
370
    25
100
AcDbLine
 10
817.2667208751
 20
349.8829368236
 30
0.0
 11
817.5299412878
 21
349.8829368236
 31
0.0
  0
ARC
  5
F9
330
1F
100
AcDbEntity
  8
0
  6
Continuous
 62
     7
370
    25
100
AcDbCircle
 10
811.2299412878
 20
367.3335131317
 30
0.0
 40
0.25
100
AcDbArc
 50
90.0
 51
180.0
  0
LINE
  5
FA
330
1F
100
AcDbEntity
  8
0
  6
Continuous
 62
     7
370
    25
100
AcDbLine
 10
815.7584202709
 20
367.5835131317
 30
0.0
 11
811.2299412878
 21
367.5835131317
 31
0.0
  0
LINE
  5
FB
330
1F
100
AcDbEntity
  8
0
  6
Continuous
 62
     7
370
    25
100
AcDbLine
 10
810.1799412878
 20
353.5829368236
 30
0.0
 11
810.2681474048
 21
353.4301593475
 31
0.0
  0
LINE
  5
FC
330
1F
100
AcDbEntity
  8
0
  6
Continuous
 62
     7
370
    25
100
AcDbLine
 10
815.3799412878
 20
363.5829368236
 30
0.0
 11
815.2917351708
 21
363.7357142997
 31
0.0
  0
LINE
  5
FD
330
1F
100
AcDbEntity
  8
0
  6
Continuous
 62
     7
370
    25
100
AcDbLine
 10
810.2681474048
 20
363.7357142997
 30
0.0
 11
810.1799412878
 21
363.5829368236
 31
0.0
  0
LINE
  5
FE
330
1F
100
AcDbEntity
  8
0
  6
Continuous
 62
     7
370
    25
100
AcDbLine
 10
809.9299412878
 20
363.5829368236
 30
0.0
 11
809.7335843539
 21
363.9230370096
 31
0.0
  0
LINE
  5
FF
330
1F
100
AcDbEntity
  8
0
  6
Continuous
 62
     7
370
    25
100
AcDbLine
 10
809.7335843539
 20
353.2428366376
 30
0.0
 11
809.9299412878
 21
353.5829368236
 31
0.0
  0
LINE
  5
100
330
1F
100
AcDbEntity
  8
0
  6
Continuous
 62
     7
370
    25
100
AcDbLine
 10
809.9299412878
 20
355.5829368236
 30
0.0
 11
810.1799412878
 21
355.5829368236
 31
0.0
  0
LINE
  5
101
330
1F
100
AcDbEntity
  8
0
  6
Continuous
 62
     7
370
    25
100
AcDbLine
 10
810.1799412878
 20
361.5829368236
 30
0.0
 11
809.9299412878
 21
361.5829368236
 31
0.0
  0
LWPOLYLINE
  5
102
330
1F
100
AcDbEntity
  8
0
  6
Continuous
 62
     7
370
    25
100
AcDbPolyline
 90
        3
 70
   128
 43
0.0
 10
65.8133840297
 20
906.2861778052
 10
65.8284629518
 20
906.2750026482
 10
65.8798372599
 20
906.2463787073
  0
LINE
  5
103
330
1F
100
AcDbEntity
  8
0
  6
Continuous
 62
     7
370
    25
100
AcDbLine
 10
73.1323965252
 20
901.4840667456
 30
0.0
 11
73.2422020132
 21
901.7366020787
 31
0.0
  0
LINE
  5
104
330
1F
100
AcDbEntity
  8
0
  6
Continuous
 62
     7
370
    25
100
AcDbLine
 10
65.9057214181
 20
904.9265946301
 30
0.0
 11
65.8237545734
 21
904.7380837932
 31
0.0
  0
LINE
  5
105
330
1F
100
AcDbEntity
  8
0
  6
Continuous
 62
     7
370
    25
100
AcDbLine
 10
44.1799412878
 20
767.0829368236
 30
0.0
 11
44.1799412878
 21
763.7829368236
 31
0.0
  0
LINE
  5
106
330
1F
100
AcDbEntity
  8
0
  6
Continuous
 62
     7
370
    25
100
AcDbLine
 10
54.1799412878
 20
763.7829368236
 30
0.0
 11
54.1799412878
 21
767.0829368236
 31
0.0
  0
LINE
  5
107
330
1F
100
AcDbEntity
  8
0
  6
Continuous
 62
     7
370
    25
100
AcDbLine
 10
45.2799412878
 20
770.0829368236
 30
0.0
 11
45.2799412878
 21
769.5829368236
 31
0.0
  0
LINE
  5
108
330
1F
100
AcDbEntity
  8
0
  6
Continuous
 62
     7
370
    25
100
AcDbLine
 10
53.0799412878
 20
769.5829368236
 30
0.0
 11
53.0799412878
 21
770.0829368236
 31
0.0
  0
LINE
  5
109
330
1F
100
AcDbEntity
  8
0
  6
Continuous
 62
     7
370
    25
100
AcDbLine
 10
53.0799412878
 20
232.5829368236
 30
0.0
 11
53.0799412878
 21
233.0829368236
 31
0.0
  0
LINE
  5
10A
330
1F
100
AcDbEntity
  8
0
  6
Continuous
 62
     7
370
    25
100
AcDbLine
 10
45.2799412878
 20
233.0829368236
 30
0.0
 11
45.2799412878
 21
232.5829368236
 31
0.0
  0
LINE
  5
10B
330
1F
100
AcDbEntity
  8
0
  6
Continuous
 62
     7
370
    25
100
AcDbLine
 10
41.1799412878
 20
235.5829368236
 30
0.0
 11
41.1799412878
 21
233.0829368236
 31
0.0
  0
LINE
  5
10C
330
1F
100
AcDbEntity
  8
0
  6
Continuous
 62
     7
370
    25
100
AcDbLine
 10
794.9799412878
 20
235.0829368236
 30
0.0
 11
794.9799412878
 21
235.5829368236
 31
0.0
  0
LINE
  5
10D
330
1F
100
AcDbEntity
  8
0
  6
Continuous
 62
     7
370
    25
100
AcDbLine
 10
786.9799412878
 20
235.5829368236
 30
0.0
 11
786.9799412878
 21
235.0829368236
 31
0.0
  0
ARC
  5
10E
330
1F
100
AcDbEntity
  8
0
  6
Continuous
 62
     7
370
    25
100
AcDbCircle
 10
842.6799412882
 20
298.0464451505
 30
0.0
 40
2.000000000000063
100
AcDbArc
 50
0.0
 51
75.5224878141
  0
ARC
  5
10F
330
1F
100
AcDbEntity
  8
0
  6
Continuous
 62
     7
370
    25
100
AcDbCircle
 10
880.6799412882
 20
298.0464451505
 30
0.0
 40
2.000000000000091
100
AcDbArc
 50
104.4775121859
 51
180.0
  0
LINE
  5
110
330
1F
100
AcDbEntity
  8
0
  6
Continuous
 62
     7
370
    25
100
AcDbLine
 10
880.1799412882
 20
299.9829368236
 30
0.0
 11
880.1799412882
 21
307.5829368236
 31
0.0
  0
LINE
  5
111
330
1F
100
AcDbEntity
  8
0
  6
Continuous
 62
     7
370
    25
100
AcDbLine
 10
843.1799412882
 20
307.5829368236
 30
0.0
 11
843.1799412882
 21
299.9829368236
 31
0.0
  0
LINE
  5
112
330
1F
100
AcDbEntity
  8
0
  6
Continuous
 62
     7
370
    25
100
AcDbLine
 10
878.6799412882
 20
284.736248755
 30
0.0
 11
878.6799412882
 21
298.0464451505
 31
0.0
  0
LINE
  5
113
330
1F
100
AcDbEntity
  8
0
  6
Continuous
 62
     7
370
    25
100
AcDbLine
 10
844.6799412882
 20
298.0464451505
 30
0.0
 11
844.6799412882
 21
294.0829368236
 31
0.0
  0
LINE
  5
114
330
1F
100
AcDbEntity
  8
0
  6
Continuous
 62
     7
370
    25
100
AcDbLine
 10
837.1799412882
 20
262.5829368236
 30
0.0
 11
837.6799412882
 21
263.3329368236
 31
0.0
  0
LINE
  5
115
330
1F
100
AcDbEntity
  8
0
  6
Continuous
 62
     7
370
    25
100
AcDbLine
 10
837.6799412882
 20
297.8329368236
 30
0.0
 11
837.1799412882
 21
298.5829368236
 31
0.0
  0
ARC
  5
116
330
1F
100
AcDbEntity
  8
0
  6
Continuous
 62
     7
370
    25
100
AcDbCircle
 10
839.6799412882
 20
265.0829368236
 30
0.0
 40
2.0
100
AcDbArc
 50
90.0
 51
180.0
  0
ARC
  5
117
330
1F
100
AcDbEntity
  8
0
  6
Continuous
 62
     7
370
    25
100
AcDbCircle
 10
839.6799412882
 20
296.0829368236
 30
0.0
 40
2.0
100
AcDbArc
 50
180.0
 51
270.0
  0
LINE
  5
118
330
1F
100
AcDbEntity
  8
0
  6
Continuous
 62
     7
370
    25
100
AcDbLine
 10
839.6799412882
 20
267.0829368236
 30
0.0
 11
841.6799412882
 21
267.0829368236
 31
0.0
  0
LINE
  5
119
330
1F
100
AcDbEntity
  8
0
  6
Continuous
 62
     7
370
    25
100
AcDbLine
 10
841.6799412882
 20
294.0829368236
 30
0.0
 11
839.6799412882
 21
294.0829368236
 31
0.0
  0
LINE
  5
11A
330
1F
100
AcDbEntity
  8
0
  6
Continuous
 62
     7
370
    25
100
AcDbLine
 10
841.6799412882
 20
267.0829368236
 30
0.0
 11
861.6799412882
 21
267.0829368236
 31
0.0
  0
LINE
  5
11B
330
1F
100
AcDbEntity
  8
0
  6
Continuous
 62
     7
370
    25
100
AcDbLine
 10
861.6799412882
 20
294.0829368236
 30
0.0
 11
841.6799412882
 21
294.0829368236
 31
0.0
  0
ARC
  5
11C
330
1F
100
AcDbEntity
  8
0
  6
Continuous
 62
     7
370
    25
100
AcDbCircle
 10
861.6799412882
 20
280.5829368236
 30
0.0
 40
17.50000000000002
100
AcDbArc
 50
230.4823472029
 51
129.5176527973
  0
ARC
  5
11D
330
1F
100
AcDbEntity
  8
0
  6
Continuous
 62
     7
370
    25
100
AcDbCircle
 10
805.6799412882
 20
269.5829368236
 30
0.0
 40
0.5
100
AcDbArc
 50
360.0
 51
90.0
  0
ARC
  5
11E
330
1F
100
AcDbEntity
  8
0
  6
Continuous
 62
     7
370
    25
100
AcDbCircle
 10
805.6799412882
 20
291.5829368236
 30
0.0
 40
0.5
100
AcDbArc
 50
270.0
 51
0.0
  0
LINE
  5
11F
330
1F
100
AcDbEntity
  8
0
  6
Continuous
 62
     7
370
    25
100
AcDbLine
 10
805.6799412882
 20
291.0829368236
 30
0.0
 11
804.9799412878
 21
291.0829368236
 31
0.0
  0
LINE
  5
120
330
1F
100
AcDbEntity
  8
0
  6
Continuous
 62
     7
370
    25
100
AcDbLine
 10
804.9799412878
 20
270.0829368236
 30
0.0
 11
805.6799412882
 21
270.0829368236
 31
0.0
  0
LINE
  5
121
330
1F
100
AcDbEntity
  8
0
  6
Continuous
 62
     7
370
    25
100
AcDbLine
 10
804.9799412878
 20
322.2829368236
 30
0.0
 11
805.4799412878
 21
322.2829368236
 31
0.0
  0
LINE
  5
122
330
1F
100
AcDbEntity
  8
0
  6
Continuous
 62
     7
370
    25
100
AcDbLine
 10
805.4799412878
 20
322.2829368236
 30
0.0
 11
805.4799412878
 21
327.2829368236
 31
0.0
  0
LINE
  5
123
330
1F
100
AcDbEntity
  8
0
  6
Continuous
 62
     7
370
    25
100
AcDbLine
 10
804.9799412878
 20
499.2829368236
 30
0.0
 11
805.4799412878
 21
499.2829368236
 31
0.0
  0
LINE
  5
124
330
1F
100
AcDbEntity
  8
0
  6
Continuous
 62
     7
370
    25
100
AcDbLine
 10
805.4799412878
 20
494.2829368236
 30
0.0
 11
805.4799412878
 21
499.2829368236
 31
0.0
  0
LINE
  5
125
330
1F
100
AcDbEntity
  8
0
  6
Continuous
 62
     7
370
    25
100
AcDbLine
 10
805.4799412878
 20
327.2829368236
 30
0.0
 11
805.4799412878
 21
352.9106851288
 31
0.0
  0
LINE
  5
126
330
1F
100
AcDbEntity
  8
0
  6
Continuous
 62
     7
370
    25
100
AcDbLine
 10
805.4799412878
 20
364.2551885183
 30
0.0
 11
805.4799412878
 21
494.2829368236
 31
0.0
  0
LINE
  5
127
330
1F
100
AcDbEntity
  8
0
  6
Continuous
 62
     7
370
    25
100
AcDbLine
 10
805.4799412878
 20
321.697150386
 30
0.0
 11
805.4799412878
 21
322.2829368236
 31
0.0
  0
LINE
  5
128
330
1F
100
AcDbEntity
  8
0
  6
Continuous
 62
     7
370
    25
100
AcDbLine
 10
805.4799412878
 20
291.0829368236
 30
0.0
 11
805.4799412878
 21
321.697150386
 31
0.0
  0
LINE
  5
129
330
1F
100
AcDbEntity
  8
0
  6
Continuous
 62
     7
370
    25
100
AcDbLine
 10
804.9799412878
 20
252.2829368236
 30
0.0
 11
805.4799412878
 21
252.2829368236
 31
0.0
  0
LINE
  5
12A
330
1F
100
AcDbEntity
  8
0
  6
Continuous
 62
     7
370
    25
100
AcDbLine
 10
805.4799412878
 20
252.2829368236
 30
0.0
 11
805.4799412878
 21
257.2829368236
 31
0.0
  0
LINE
  5
12B
330
1F
100
AcDbEntity
  8
0
  6
Continuous
 62
     7
370
    25
100
AcDbLine
 10
805.4799412878
 20
257.2829368236
 30
0.0
 11
805.4799412878
 21
270.0829368236
 31
0.0
  0
LINE
  5
12C
330
1F
100
AcDbEntity
  8
0
  6
Continuous
 62
     7
370
    25
100
AcDbLine
 10
60.7799412878
 20
533.1329368236
 30
0.0
 11
67.9799412878
 21
533.1329368236
 31
0.0
  0
LINE
  5
12D
330
1F
100
AcDbEntity
  8
0
  6
Continuous
 62
     7
370
    25
100
AcDbLine
 10
61.2799412878
 20
493.1329368236
 30
0.0
 11
60.7799412878
 21
493.1329368236
 31
0.0
  0
LINE
  5
12E
330
1F
100
AcDbEntity
  8
0
  6
Continuous
 62
     7
370
    25
100
AcDbLine
 10
66.663446433
 20
485.1329368236
 30
0.0
 11
60.7799412878
 21
485.1329368236
 31
0.0
  0
LINE
  5
12F
330
1F
100
AcDbEntity
  8
0
  6
Continuous
 62
     7
370
    25
100
AcDbLine
 10
67.9799412878
 20
485.1329368236
 30
0.0
 11
66.663446433
 21
485.1329368236
 31
0.0
  0
LINE
  5
130
330
1F
100
AcDbEntity
  8
0
  6
Continuous
 62
     7
370
    25
100
AcDbLine
 10
66.663446433
 20
403.1329368236
 30
0.0
 11
60.7799412878
 21
403.1329368236
 31
0.0
  0
LINE
  5
131
330
1F
100
AcDbEntity
  8
0
  6
Continuous
 62
     7
370
    25
100
AcDbLine
 10
66.663446433
 20
395.1329368236
 30
0.0
 11
60.7799412878
 21
395.1329368236
 31
0.0
  0
LINE
  5
132
330
1F
100
AcDbEntity
  8
0
  6
Continuous
 62
     7
370
    25
100
AcDbLine
 10
67.9799412878
 20
403.1329368236
 30
0.0
 11
66.663446433
 21
403.1329368236
 31
0.0
  0
LINE
  5
133
330
1F
100
AcDbEntity
  8
0
  6
Continuous
 62
     7
370
    25
100
AcDbLine
 10
67.9799412878
 20
395.1329368236
 30
0.0
 11
66.663446433
 21
395.1329368236
 31
0.0
  0
LINE
  5
134
330
1F
100
AcDbEntity
  8
0
  6
Continuous
 62
     7
370
    25
100
AcDbLine
 10
731.3799412878
 20
71.5829368236
 30
0.0
 11
702.8799412878
 21
71.5829368236
 31
0.0
  0
LINE
  5
135
330
1F
100
AcDbEntity
  8
0
  6
Continuous
 62
     7
370
    25
100
AcDbLine
 10
759.8799412878
 20
71.5829368236
 30
0.0
 11
731.3799412878
 21
71.5829368236
 31
0.0
  0
LINE
  5
136
330
1F
100
AcDbEntity
  8
0
  6
Continuous
 62
     7
370
    25
100
AcDbLine
 10
731.3799412878
 20
65.5829368236
 30
0.0
 11
704.8799412878
 21
65.5829368236
 31
0.0
  0
LINE
  5
137
330
1F
100
AcDbEntity
  8
0
  6
Continuous
 62
     7
370
    25
100
AcDbLine
 10
757.8799412878
 20
65.5829368236
 30
0.0
 11
731.3799412878
 21
65.5829368236
 31
0.0
  0
LINE
  5
138
330
1F
100
AcDbEntity
  8
0
  6
Continuous
 62
     7
370
    25
100
AcDbLine
 10
172.8799412878
 20
63.0829368236
 30
0.0
 11
119.8799412878
 21
63.0829368236
 31
0.0
  0
LINE
  5
139
330
1F
100
AcDbEntity
  8
0
  6
Continuous
 62
     7
370
    25
100
AcDbLine
 10
172.8799412878
 20
65.5829368236
 30
0.0
 11
119.8799412878
 21
65.5829368236
 31
0.0
  0
LINE
  5
13A
330
1F
100
AcDbEntity
  8
0
  6
Continuous
 62
     7
370
    25
100
AcDbLine
 10
174.8799412878
 20
71.5829368236
 30
0.0
 11
117.8799412878
 21
71.5829368236
 31
0.0
  0
LINE
  5
13B
330
1F
100
AcDbEntity
  8
0
  6
Continuous
 62
     7
370
    25
100
AcDbLine
 10
191.3799412878
 20
233.5829368236
 30
0.0
 11
191.3799412878
 21
234.7829368236
 31
0.0
  0
LINE
  5
13C
330
1F
100
AcDbEntity
  8
0
  6
Continuous
 62
     7
370
    25
100
AcDbLine
 10
101.3799412878
 20
233.5829368236
 30
0.0
 11
101.3799412878
 21
234.7829368236
 31
0.0
  0
LINE
  5
13D
330
1F
100
AcDbEntity
  8
0
  6
Continuous
 62
     7
370
    25
100
AcDbLine
 10
101.3799412878
 20
233.5829368236
 30
0.0
 11
191.3799412878
 21
233.5829368236
 31
0.0
  0
LINE
  5
13E
330
1F
100
AcDbEntity
  8
0
  6
Continuous
 62
     7
370
    25
100
AcDbLine
 10
177.3395915081
 20
139.5829368236
 30
0.0
 11
115.4202910674
 21
139.5829368236
 31
0.0
  0
LINE
  5
13F
330
1F
100
AcDbEntity
  8
0
  6
Continuous
 62
     7
370
    25
100
AcDbLine
 10
686.3799412878
 20
233.5829368236
 30
0.0
 11
686.3799412878
 21
234.7829368236
 31
0.0
  0
LINE
  5
140
330
1F
100
AcDbEntity
  8
0
  6
Continuous
 62
     7
370
    25
100
AcDbLine
 10
776.3799412878
 20
233.5829368236
 30
0.0
 11
776.3799412878
 21
234.7829368236
 31
0.0
  0
LINE
  5
141
330
1F
100
AcDbEntity
  8
0
  6
Continuous
 62
     7
370
    25
100
AcDbLine
 10
686.3799412878
 20
233.5829368236
 30
0.0
 11
776.3799412878
 21
233.5829368236
 31
0.0
  0
LINE
  5
142
330
1F
100
AcDbEntity
  8
0
  6
Continuous
 62
     7
370
    25
100
AcDbLine
 10
731.3799412878
 20
139.5829368236
 30
0.0
 11
700.4202910674
 21
139.5829368236
 31
0.0
  0
LINE
  5
143
330
1F
100
AcDbEntity
  8
0
  6
Continuous
 62
     7
370
    25
100
AcDbLine
 10
762.3395915081
 20
139.5829368236
 30
0.0
 11
731.3799412878
 21
139.5829368236
 31
0.0
  0
LINE
  5
144
330
1F
100
AcDbEntity
  8
0
  6
Continuous
 62
     7
370
    25
100
AcDbLine
 10
101.3799412878
 20
231.0829368236
 30
0.0
 11
114.4799412878
 21
231.0829368236
 31
0.0
  0
LINE
  5
145
330
1F
100
AcDbEntity
  8
0
  6
Continuous
 62
     7
370
    25
100
AcDbLine
 10
178.2799412878
 20
231.0829368236
 30
0.0
 11
191.3799412878
 21
231.0829368236
 31
0.0
  0
LINE
  5
146
330
1F
100
AcDbEntity
  8
0
  6
Continuous
 62
     7
370
    25
100
AcDbLine
 10
101.3799412878
 20
231.0829368236
 30
0.0
 11
101.3799412878
 21
233.0829368236
 31
0.0
  0
LINE
  5
147
330
1F
100
AcDbEntity
  8
0
  6
Continuous
 62
     7
370
    25
100
AcDbLine
 10
191.3799412878
 20
231.0829368236
 30
0.0
 11
191.3799412878
 21
233.0829368236
 31
0.0
  0
LINE
  5
148
330
1F
100
AcDbEntity
  8
0
  6
Continuous
 62
     7
370
    25
100
AcDbLine
 10
177.3395915081
 20
137.0829368236
 30
0.0
 11
174.6799412878
 21
137.0829368236
 31
0.0
  0
LINE
  5
149
330
1F
100
AcDbEntity
  8
0
  6
Continuous
 62
     7
370
    25
100
AcDbLine
 10
118.0799412878
 20
137.0829368236
 30
0.0
 11
115.4202910674
 21
137.0829368236
 31
0.0
  0
LINE
  5
14A
330
1F
100
AcDbEntity
  8
0
  6
Continuous
 62
     7
370
    25
100
AcDbLine
 10
802.9799412878
 20
952.9096473061
 30
0.0
 11
802.9799412878
 21
952.8824652268
 31
0.0
  0
LINE
  5
14B
330
1F
100
AcDbEntity
  8
0
  6
Continuous
 62
     7
370
    25
100
AcDbLine
 10
804.1799412878
 20
1140.2914236994
 30
0.0
 11
804.1799412878
 21
1139.8914236994
 31
0.0
  0
LINE
  5
14C
330
1F
100
AcDbEntity
  8
0
  6
Continuous
 62
     7
370
    25
100
AcDbLine
 10
802.9799412878
 20
1140.2914236994
 30
0.0
 11
802.9799412878
 21
1139.8914236994
 31
0.0
  0
LINE
  5
14D
330
1F
100
AcDbEntity
  8
0
  6
Continuous
 62
     7
370
    25
100
AcDbLine
 10
470.1299412061
 20
970.2829368236
 30
0.0
 11
436.1299412924
 21
970.2829368236
 31
0.0
  0
LINE
  5
14E
330
1F
100
AcDbEntity
  8
0
  6
Continuous
 62
     7
370
    25
100
AcDbLine
 10
46.8659986107
 20
1058.7729549782
 30
0.0
 11
46.9300550515
 21
1058.759276121
 31
0.0
  0
LINE
  5
14F
330
1F
100
AcDbEntity
  8
0
  6
Continuous
 62
     7
370
    25
100
AcDbLine
 10
95.3127560312
 20
1033.0181561098
 30
0.0
 11
100.6055172273
 21
1030.1920848225
 31
0.0
  0
LINE
  5
150
330
1F
100
AcDbEntity
  8
0
  6
Continuous
 62
     7
370
    25
100
AcDbLine
 10
95.2656548431
 20
1032.9299434232
 30
0.0
 11
95.3127560312
 21
1033.0181561098
 31
0.0
  0
LINE
  5
151
330
1F
100
AcDbEntity
  8
0
  6
Continuous
 62
     7
370
    25
100
AcDbLine
 10
100.5584160392
 20
1030.1038721359
 30
0.0
 11
100.6055172273
 21
1030.1920848225
 31
0.0
  0
LINE
  5
152
330
1F
100
AcDbEntity
  8
0
  6
Continuous
 62
     7
370
    25
100
AcDbLine
 10
215.2820098096
 20
968.960540264
 30
0.0
 11
220.5747710057
 21
966.1344689767
 31
0.0
  0
LINE
  5
153
330
1F
100
AcDbEntity
  8
0
  6
Continuous
 62
     7
370
    25
100
AcDbLine
 10
215.2349086215
 20
968.8723275774
 30
0.0
 11
215.2820098096
 21
968.960540264
 31
0.0
  0
LINE
  5
154
330
1F
100
AcDbEntity
  8
0
  6
Continuous
 62
     7
370
    25
100
AcDbLine
 10
220.5276698176
 20
966.0462562901
 30
0.0
 11
220.5747710057
 21
966.1344689767
 31
0.0
  0
LINE
  5
155
330
1F
100
AcDbEntity
  8
0
  6
Continuous
 62
     7
370
    25
100
AcDbLine
 10
96.1223491032
 20
1038.2406302325
 30
0.0
 11
96.0807998798
 21
1038.1628154517
 31
0.0
  0
LINE
  5
156
330
1F
100
AcDbEntity
  8
0
  6
Continuous
 62
     7
370
    25
100
AcDbLine
 10
96.1223491032
 20
1038.6372462973
 30
0.0
 11
96.0807998798
 21
1038.5594315165
 31
0.0
  0
LINE
  5
157
330
1F
100
AcDbEntity
  8
0
  6
Continuous
 62
     7
370
    25
100
AcDbLine
 10
752.4799412878
 20
1120.8997621241
 30
0.0
 11
752.4299412878
 21
1120.8997621241
 31
0.0
  0
LINE
  5
158
330
1F
100
AcDbEntity
  8
0
  6
Continuous
 62
     7
370
    25
100
AcDbLine
 10
752.4799412878
 20
1121.3997621241
 30
0.0
 11
752.4799412878
 21
1120.8997621241
 31
0.0
  0
LINE
  5
159
330
1F
100
AcDbEntity
  8
0
  6
Continuous
 62
     7
370
    25
100
AcDbLine
 10
752.1799412878
 20
1121.3997621241
 30
0.0
 11
752.4799412878
 21
1121.3997621241
 31
0.0
  0
LINE
  5
15A
330
1F
100
AcDbEntity
  8
0
  6
Continuous
 62
     7
370
    25
100
AcDbLine
 10
752.1799412878
 20
1128.0337654404
 30
0.0
 11
752.1799412878
 21
1121.3997621241
 31
0.0
  0
ARC
  5
15B
330
1F
100
AcDbEntity
  8
0
  6
Continuous
 62
     7
370
    25
100
AcDbCircle
 10
776.1799412878
 20
1121.3997621241
 30
0.0
 40
24.9000000000004
100
AcDbArc
 50
105.0
 51
164.548306569
  0
LINE
  5
15C
330
1F
100
AcDbEntity
  8
0
  6
Continuous
 62
     7
370
    25
100
AcDbLine
 10
803.0322993859
 20
1154.3732066836
 30
0.0
 11
769.7353470647
 21
1145.4513151987
 31
0.0
  0
ARC
  5
15D
330
1F
100
AcDbEntity
  8
0
  6
Continuous
 62
     7
370
    25
100
AcDbCircle
 10
803.3299412878
 20
1153.2623919834
 30
0.0
 40
1.149999999999977
100
AcDbArc
 50
0.0
 51
105.0
  0
LINE
  5
15E
330
1F
100
AcDbEntity
  8
0
  6
Continuous
 62
     7
370
    25
100
AcDbLine
 10
804.4799412878
 20
1140.2914236994
 30
0.0
 11
804.4799412878
 21
1153.2623919834
 31
0.0
  0
LINE
  5
15F
330
1F
100
AcDbEntity
  8
0
  6
Continuous
 62
     7
370
    25
100
AcDbLine
 10
804.4799412878
 20
1140.2914236994
 30
0.0
 11
802.9299412878
 21
1140.2914236994
 31
0.0
  0
LINE
  5
160
330
1F
100
AcDbEntity
  8
0
  6
Continuous
 62
     7
370
    25
100
AcDbLine
 10
802.9299412878
 20
1140.2914236994
 30
0.0
 11
802.9299412878
 21
1139.8914236994
 31
0.0
  0
LINE
  5
161
330
1F
100
AcDbEntity
  8
0
  6
Continuous
 62
     7
370
    25
100
AcDbLine
 10
802.9299412878
 20
1139.8914236994
 30
0.0
 11
803.3299412878
 21
1139.8914236994
 31
0.0
  0
LINE
  5
162
330
1F
100
AcDbEntity
  8
0
  6
Continuous
 62
     7
370
    25
100
AcDbLine
 10
803.3299412878
 20
955.2829368236
 30
0.0
 11
752.4299412878
 21
955.2829368236
 31
0.0
  0
ARC
  5
163
330
1F
100
AcDbEntity
  8
0
  6
Continuous
 62
     7
370
    25
100
AcDbCircle
 10
779.5799412878
 20
1132.6635511825
 30
0.0
 40
2.599999999999951
100
AcDbArc
 50
190.1041827161
 51
349.8958172839
  0
ARC
  5
164
330
1F
100
AcDbEntity
  8
0
  6
Continuous
 62
     7
370
    25
100
AcDbCircle
 10
776.7741437185
 20
1132.1635511825
 30
0.0
 40
0.2500000000000484
100
AcDbArc
 50
10.1041827161
 51
190.1041827161
  0
ARC
  5
165
330
1F
100
AcDbEntity
  8
0
  6
Continuous
 62
     7
370
    25
100
AcDbCircle
 10
779.5799412878
 20
1132.6635511825
 30
0.0
 40
3.100000000000048
100
AcDbArc
 50
190.1041827161
 51
349.8958172839
  0
ARC
  5
166
330
1F
100
AcDbEntity
  8
0
  6
Continuous
 62
     7
370
    25
100
AcDbCircle
 10
782.3857388571
 20
1132.1635511825
 30
0.0
 40
0.2500000000000484
100
AcDbArc
 50
349.8958172839
 51
169.8958172839
  0
ARC
  5
167
330
1F
100
AcDbEntity
  8
0
  6
Continuous
 62
     7
370
    25
100
AcDbCircle
 10
776.7741437185
 20
1133.1635511825
 30
0.0
 40
0.2500000000000484
100
AcDbArc
 50
169.8958172839
 51
349.8958172839
  0
ARC
  5
168
330
1F
100
AcDbEntity
  8
0
  6
Continuous
 62
     7
370
    25
100
AcDbCircle
 10
779.5799412878
 20
1132.6635511825
 30
0.0
 40
2.60000000000003
100
AcDbArc
 50
10.1041827161
 51
169.8958172839
  0
ARC
  5
169
330
1F
100
AcDbEntity
  8
0
  6
Continuous
 62
     7
370
    25
100
AcDbCircle
 10
782.3857388571
 20
1133.1635511825
 30
0.0
 40
0.2500000000000484
100
AcDbArc
 50
190.1041827161
 51
10.1041827161
  0
ARC
  5
16A
330
1F
100
AcDbEntity
  8
0
  6
Continuous
 62
     7
370
    25
100
AcDbCircle
 10
779.5799412878
 20
1132.6635511825
 30
0.0
 40
3.100000000000087
100
AcDbArc
 50
10.1041827161
 51
169.8958172839
  0
LINE
  5
16B
330
1F
100
AcDbEntity
  8
0
  6
Continuous
 62
     7
370
    25
100
AcDbLine
 10
805.3799412878
 20
955.2829368236
 30
0.0
 11
805.3799412878
 21
1139.8914236994
 31
0.0
  0
LINE
  5
16C
330
1F
100
AcDbEntity
  8
0
  6
Continuous
 62
     7
370
    25
100
AcDbLine
 10
805.3799412878
 20
955.2829368236
 30
0.0
 11
803.3299412878
 21
955.2829368236
 31
0.0
  0
LINE
  5
16D
330
1F
100
AcDbEntity
  8
0
  6
Continuous
 62
     7
370
    25
100
AcDbLine
 10
803.3299412878
 20
1139.8914236994
 30
0.0
 11
805.3799412878
 21
1139.8914236994
 31
0.0
  0
LINE
  5
16E
330
1F
100
AcDbEntity
  8
0
  6
Continuous
 62
     7
370
    25
100
AcDbLine
 10
750.3799412878
 20
955.2829368236
 30
0.0
 11
750.3799412878
 21
1120.8997621241
 31
0.0
  0
LINE
  5
16F
330
1F
100
AcDbEntity
  8
0
  6
Continuous
 62
     7
370
    25
100
AcDbLine
 10
750.3799412878
 20
1120.8997621241
 30
0.0
 11
752.4299412878
 21
1120.8997621241
 31
0.0
  0
LINE
  5
170
330
1F
100
AcDbEntity
  8
0
  6
Continuous
 62
     7
370
    25
100
AcDbLine
 10
752.4299412878
 20
955.2829368236
 30
0.0
 11
750.3799412878
 21
955.2829368236
 31
0.0
  0
LINE
  5
171
330
1F
100
AcDbEntity
  8
0
  6
Continuous
 62
     7
370
    25
100
AcDbLine
 10
805.3799412878
 20
1144.8914236994
 30
0.0
 11
805.3799412878
 21
1153.2623919834
 31
0.0
  0
LINE
  5
172
330
1F
100
AcDbEntity
  8
0
  6
Continuous
 62
     7
370
    25
100
AcDbLine
 10
804.5799412878
 20
1144.8914236994
 30
0.0
 11
804.5799412878
 21
1153.2623919834
 31
0.0
  0
LINE
  5
173
330
1F
100
AcDbEntity
  8
0
  6
Continuous
 62
     7
370
    25
100
AcDbLine
 10
802.7993622453
 20
1155.2425399272
 30
0.0
 11
769.5024099241
 21
1146.3206484424
 31
0.0
  0
LINE
  5
174
330
1F
100
AcDbEntity
  8
0
  6
Continuous
 62
     7
370
    25
100
AcDbLine
 10
803.0064174814
 20
1154.4697992662
 30
0.0
 11
769.7094651602
 21
1145.5479077813
 31
0.0
  0
LINE
  5
175
330
1F
100
AcDbEntity
  8
0
  6
Continuous
 62
     7
370
    25
100
AcDbLine
 10
805.3799412878
 20
1142.8914236994
 30
0.0
 11
804.5799412878
 21
1142.8914236994
 31
0.0
  0
LINE
  5
176
330
1F
100
AcDbEntity
  8
0
  6
Continuous
 62
     7
370
    25
100
AcDbLine
 10
804.5799412878
 20
1142.8914236994
 30
0.0
 11
804.5799412878
 21
1144.8914236994
 31
0.0
  0
LINE
  5
177
330
1F
100
AcDbEntity
  8
0
  6
Continuous
 62
     7
370
    25
100
AcDbLine
 10
805.3799412878
 20
1144.8914236994
 30
0.0
 11
805.3799412878
 21
1142.8914236994
 31
0.0
  0
LINE
  5
178
330
1F
100
AcDbEntity
  8
0
  6
Continuous
 62
     7
370
    25
100
AcDbLine
 10
751.1799412878
 20
1121.3997621241
 30
0.0
 11
751.1799412878
 21
1121.2997621241
 31
0.0
  0
LINE
  5
179
330
1F
100
AcDbEntity
  8
0
  6
Continuous
 62
     7
370
    25
100
AcDbLine
 10
750.3799412878
 20
1121.3997621241
 30
0.0
 11
750.3799412878
 21
1121.2997621241
 31
0.0
  0
LINE
  5
17A
330
1F
100
AcDbEntity
  8
0
  6
Continuous
 62
     7
370
    25
100
AcDbLine
 10
751.1799412878
 20
1121.2997621241
 30
0.0
 11
750.3799412878
 21
1121.2997621241
 31
0.0
  0
ARC
  5
17B
330
1F
100
AcDbEntity
  8
0
  6
Continuous
 62
     7
370
    25
100
AcDbCircle
 10
803.3299412878
 20
1153.2623919834
 30
0.0
 40
1.250000000000031
100
AcDbArc
 50
0.0
 51
105.0
  0
ARC
  5
17C
330
1F
100
AcDbEntity
  8
0
  6
Continuous
 62
     7
370
    25
100
AcDbCircle
 10
803.3299412878
 20
1153.2623919834
 30
0.0
 40
2.049999999999955
100
AcDbArc
 50
0.0
 51
105.0
  0
ARC
  5
17D
330
1F
100
AcDbEntity
  8
0
  6
Continuous
 62
     7
370
    25
100
AcDbCircle
 10
776.1799412878
 20
1121.3997621241
 30
0.0
 40
25.00000000000024
100
AcDbArc
 50
105.0
 51
180.0
  0
ARC
  5
17E
330
1F
100
AcDbEntity
  8
0
  6
Continuous
 62
     7
370
    25
100
AcDbCircle
 10
776.1799412878
 20
1121.3997621241
 30
0.0
 40
25.80000000000028
100
AcDbArc
 50
105.0
 51
180.0
  0
LINE
  5
17F
330
1F
100
AcDbEntity
  8
0
  6
Continuous
 62
     7
370
    25
100
AcDbLine
 10
751.1799412878
 20
1120.8997621241
 30
0.0
 11
751.1799412878
 21
1121.2997621241
 31
0.0
  0
LINE
  5
180
330
1F
100
AcDbEntity
  8
0
  6
Continuous
 62
     7
370
    25
100
AcDbLine
 10
750.3799412878
 20
1121.2997621241
 30
0.0
 11
750.3799412878
 21
1120.8997621241
 31
0.0
  0
LINE
  5
181
330
1F
100
AcDbEntity
  8
0
  6
Continuous
 62
     7
370
    25
100
AcDbLine
 10
698.9235097091
 20
1064.3986922864
 30
0.0
 11
693.0858767496
 21
997.674242236
 31
0.0
  0
LINE
  5
182
330
1F
100
AcDbEntity
  8
0
  6
Continuous
 62
     7
370
    25
100
AcDbLine
 10
700.4178017562
 20
1064.2679586722
 30
0.0
 11
694.5801687968
 21
997.5435086219
 31
0.0
  0
LINE
  5
183
330
1F
100
AcDbEntity
  8
0
  6
Continuous
 62
     7
370
    25
100
AcDbLine
 10
695.6083519473
 20
996.2035542522
 30
0.0
 11
747.6074737764
 21
987.0347061006
 31
0.0
  0
LINE
  5
184
330
1F
100
AcDbEntity
  8
0
  6
Continuous
 62
     7
370
    25
100
AcDbLine
 10
695.3478796808
 20
994.7263426227
 30
0.0
 11
747.3470015099
 21
985.557494471
 31
0.0
  0
ARC
  5
185
330
1F
100
AcDbEntity
  8
0
  6
Continuous
 62
     7
370
    25
100
AcDbCircle
 10
695.8254121694
 20
997.4345639434
 30
0.0
 40
2.749999999999948
100
AcDbArc
 50
175.0
 51
260.0
  0
ARC
  5
186
330
1F
100
AcDbEntity
  8
0
  6
Continuous
 62
     7
370
    25
100
AcDbCircle
 10
695.8254121694
 20
997.4345639434
 30
0.0
 40
1.249999999999923
100
AcDbArc
 50
175.0
 51
260.0
  0
LINE
  5
187
330
1F
100
AcDbEntity
  8
0
  6
Continuous
 62
     7
370
    25
100
AcDbLine
 10
749.8799412878
 20
984.3264847798
 30
0.0
 11
749.8799412878
 21
963.3750087655
 31
0.0
  0
LINE
  5
188
330
1F
100
AcDbEntity
  8
0
  6
Continuous
 62
     7
370
    25
100
AcDbLine
 10
748.3799412878
 20
984.3264847798
 30
0.0
 11
748.3799412878
 21
963.3750087655
 31
0.0
  0
LINE
  5
189
330
1F
100
AcDbEntity
  8
0
  6
Continuous
 62
     7
370
    25
100
AcDbLine
 10
749.8799412878
 20
963.3750087655
 30
0.0
 11
749.8799412878
 21
961.3750087655
 31
0.0
  0
LINE
  5
18A
330
1F
100
AcDbEntity
  8
0
  6
Continuous
 62
     7
370
    25
100
AcDbLine
 10
749.8799412878
 20
961.3750087655
 30
0.0
 11
748.3799412878
 21
961.3750087655
 31
0.0
  0
LINE
  5
18B
330
1F
100
AcDbEntity
  8
0
  6
Continuous
 62
     7
370
    25
100
AcDbLine
 10
748.3799412878
 20
961.3750087655
 30
0.0
 11
748.3799412878
 21
963.3750087655
 31
0.0
  0
LINE
  5
18C
330
1F
100
AcDbEntity
  8
0
  6
Continuous
 62
     7
370
    25
100
AcDbLine
 10
748.3799412878
 20
1116.5237876066
 30
0.0
 11
748.3799412878
 21
1080.4829368236
 31
0.0
  0
LINE
  5
18D
330
1F
100
AcDbEntity
  8
0
  6
Continuous
 62
     7
370
    25
100
AcDbLine
 10
749.8799412878
 20
1116.5237876066
 30
0.0
 11
749.8799412878
 21
1080.4829368236
 31
0.0
  0
ARC
  5
18E
330
1F
100
AcDbEntity
  8
0
  6
Continuous
 62
     7
370
    25
100
AcDbCircle
 10
747.1299412878
 20
1080.4829368236
 30
0.0
 40
1.25
100
AcDbArc
 50
285.0
 51
0.0
  0
ARC
  5
18F
330
1F
100
AcDbEntity
  8
0
  6
Continuous
 62
     7
370
    25
100
AcDbCircle
 10
747.1299412878
 20
1080.4829368236
 30
0.0
 40
2.75
100
AcDbArc
 50
285.0
 51
0.0
  0
ARC
  5
190
330
1F
100
AcDbEntity
  8
0
  6
Continuous
 62
     7
370
    25
100
AcDbCircle
 10
747.1299412878
 20
984.3264847798
 30
0.0
 40
1.25000000000036
100
AcDbArc
 50
0.0
 51
80.0
  0
ARC
  5
191
330
1F
100
AcDbEntity
  8
0
  6
Continuous
 62
     7
370
    25
100
AcDbCircle
 10
747.1299412878
 20
984.3264847798
 30
0.0
 40
2.750000000000284
100
AcDbArc
 50
0.0
 51
80.0
  0
ARC
  5
192
330
1F
100
AcDbEntity
  8
0
  6
Continuous
 62
     7
370
    25
100
AcDbCircle
 10
701.6630451288
 20
1064.1590139938
 30
0.0
 40
1.249999999999923
100
AcDbArc
 50
105.0
 51
175.0
  0
ARC
  5
193
330
1F
100
AcDbEntity
  8
0
  6
Continuous
 62
     7
370
    25
100
AcDbCircle
 10
701.6630451288
 20
1064.1590139938
 30
0.0
 40
2.750000000000004
100
AcDbArc
 50
105.0
 51
175.0
  0
LINE
  5
194
330
1F
100
AcDbEntity
  8
0
  6
Continuous
 62
     7
370
    25
100
AcDbLine
 10
747.4534650942
 20
1079.2755295407
 30
0.0
 11
700.9512927548
 21
1066.8153100161
 31
0.0
  0
LINE
  5
195
330
1F
100
AcDbEntity
  8
0
  6
Continuous
 62
     7
370
    25
100
AcDbLine
 10
747.8416936618
 20
1077.8266408013
 30
0.0
 11
701.3395213224
 21
1065.3664212767
 31
0.0
  0
LINE
  5
196
330
1F
100
AcDbEntity
  8
0
  6
Continuous
 62
     7
370
    25
100
AcDbLine
 10
748.3799412878
 20
1121.5237876066
 30
0.0
 11
749.8799412878
 21
1121.5237876066
 31
0.0
  0
LINE
  5
197
330
1F
100
AcDbEntity
  8
0
  6
Continuous
 62
     7
370
    25
100
AcDbLine
 10
748.3799412878
 20
1116.5237876066
 30
0.0
 11
748.3799412878
 21
1121.5237876066
 31
0.0
  0
LINE
  5
198
330
1F
100
AcDbEntity
  8
0
  6
Continuous
 62
     7
370
    25
100
AcDbLine
 10
749.8799412878
 20
1121.5237876066
 30
0.0
 11
749.8799412878
 21
1116.5237876066
 31
0.0
  0
LINE
  5
199
330
1F
100
AcDbEntity
  8
0
  6
Continuous
 62
     7
370
    25
100
AcDbLine
 10
740.3799412878
 20
1095.357344707
 30
0.0
 11
737.3799412878
 21
1095.357344707
 31
0.0
  0
LINE
  5
19A
330
1F
100
AcDbEntity
  8
0
  6
Continuous
 62
     7
370
    25
100
AcDbLine
 10
737.3799412878
 20
1095.3607963433
 30
0.0
 11
737.3799412878
 21
1095.357344707
 31
0.0
  0
LINE
  5
19B
330
1F
100
AcDbEntity
  8
0
  6
Continuous
 62
     7
370
    25
100
AcDbLine
 10
740.3799412878
 20
1095.3607963433
 30
0.0
 11
737.3799412878
 21
1095.3607963433
 31
0.0
  0
LINE
  5
19C
330
1F
100
AcDbEntity
  8
0
  6
Continuous
 62
     7
370
    25
100
AcDbLine
 10
740.3799412878
 20
1095.357344707
 30
0.0
 11
740.3799412878
 21
1095.3607963433
 31
0.0
  0
LINE
  5
19D
330
1F
100
AcDbEntity
  8
0
  6
Continuous
 62
     7
370
    25
100
AcDbLine
 10
740.8479733802
 20
1094.8822831208
 30
0.0
 11
740.3799412878
 21
1095.3565655385
 31
0.0
  0
LINE
  5
19E
330
1F
100
AcDbEntity
  8
0
  6
Continuous
 62
     7
370
    25
100
AcDbLine
 10
740.8479733791
 20
1094.8822830803
 30
0.0
 11
736.9119091773
 21
1094.882283102
 31
0.0
  0
LINE
  5
19F
330
1F
100
AcDbEntity
  8
0
  6
Continuous
 62
     7
370
    25
100
AcDbLine
 10
737.3799412878
 20
1095.3565655385
 30
0.0
 11
736.9119091773
 21
1094.882283102
 31
0.0
  0
LINE
  5
1A0
330
1F
100
AcDbEntity
  8
0
  6
Continuous
 62
     7
370
    25
100
AcDbLine
 10
737.3799412878
 20
1095.357344707
 30
0.0
 11
737.3799412878
 21
1095.3565655385
 31
0.0
  0
LINE
  5
1A1
330
1F
100
AcDbEntity
  8
0
  6
Continuous
 62
     7
370
    25
100
AcDbLine
 10
740.3799412878
 20
1095.3565655385
 30
0.0
 11
740.3799412878
 21
1095.357344707
 31
0.0
  0
SPLINE
  5
1A2
330
1F
100
AcDbEntity
  8
0
  6
Continuous
 62
     7
370
    25
100
AcDbSpline
210
0.0
220
0.0
230
1.0
 70
     8
 71
     3
 72
     9
 73
     5
 74
     0
 42
0.000000001
 43
0.00000001
 40
0.0
 40
0.0
 40
0.0
 40
0.0
 40
0.7418901379650148
 40
0.9999999999999999
 40
0.9999999999999999
 40
0.9999999999999999
 40
0.9999999999999999
 10
736.9119091773438
 20
1095.834749913372
 30
0.0
 10
737.02644562838
 20
1095.717125418504
 30
0.0
 10
737.180830280736
 20
1095.558578365713
 30
0.0
 10
737.3390922998659
 20
1095.401957898925
 30
0.0
 10
737.3799412877889
 20
1095.36153261185
 30
0.0
  0
LINE
  5
1A3
330
1F
100
AcDbEntity
  8
0
  6
Continuous
 62
     7
370
    25
100
AcDbLine
 10
736.9119091773
 20
1095.8347499134
 30
0.0
 11
740.8479733791
 21
1095.8347498936
 31
0.0
  0
SPLINE
  5
1A4
330
1F
100
AcDbEntity
  8
0
  6
Continuous
 62
     7
370
    25
100
AcDbSpline
210
0.0
220
0.0
230
1.0
 70
     8
 71
     3
 72
     9
 73
     5
 74
     0
 42
0.000000001
 43
0.00000001
 40
0.0
 40
0.0
 40
0.0
 40
0.0
 40
0.258109883462665
 40
1.0
 40
1.0
 40
1.0
 40
1.0
 10
740.3799412877889
 20
1095.36153261185
 30
0.0
 10
740.4207902757114
 20
1095.401957898925
 30
0.0
 10
740.5790522817007
 20
1095.558578352712
 30
0.0
 10
740.733436921583
 20
1095.717125392172
 30
0.0
 10
740.8479733600568
 20
1095.834749873753
 30
0.0
  0
LINE
  5
1A5
330
1F
100
AcDbEntity
  8
0
  6
Continuous
 62
     7
370
    25
100
AcDbLine
 10
737.3799412878
 20
1095.3615326119
 30
0.0
 11
737.3799412878
 21
1095.3607963433
 31
0.0
  0
LINE
  5
1A6
330
1F
100
AcDbEntity
  8
0
  6
Continuous
 62
     7
370
    25
100
AcDbLine
 10
740.3799412878
 20
1095.3607963433
 30
0.0
 11
740.3799412878
 21
1095.3615326119
 31
0.0
  0
LINE
  5
1A7
330
1F
100
AcDbEntity
  8
0
  6
Continuous
 62
     7
370
    25
100
AcDbLine
 10
737.380908078
 20
1105.4813877968
 30
0.0
 11
736.9862457591
 21
1105.0781930091
 31
0.0
  0
LINE
  5
1A8
330
1F
100
AcDbEntity
  8
0
  6
Continuous
 62
     7
370
    25
100
AcDbLine
 10
736.9862457591
 20
1105.0781930091
 30
0.0
 11
737.3809029634
 21
1105.4469348508
 31
0.0
  0
LINE
  5
1A9
330
1F
100
AcDbEntity
  8
0
  6
Continuous
 62
     7
370
    25
100
AcDbLine
 10
737.3809080717
 20
1105.4466854278
 30
0.0
 11
736.9119091773
 21
1104.9271276838
 31
0.0
  0
LINE
  5
1AA
330
1F
100
AcDbEntity
  8
0
  6
Continuous
 62
     7
370
    25
100
AcDbLine
 10
736.9119091773
 20
1104.9271276838
 30
0.0
 11
737.3809029633
 21
1105.3143689163
 31
0.0
  0
LINE
  5
1AB
330
1F
100
AcDbEntity
  8
0
  6
Continuous
 62
     7
370
    25
100
AcDbLine
 10
737.380908078
 20
1105.3138159243
 30
0.0
 11
736.9119091773
 21
1104.7529683967
 31
0.0
  0
LINE
  5
1AC
330
1F
100
AcDbEntity
  8
0
  6
Continuous
 62
     7
370
    25
100
AcDbLine
 10
736.9119091773
 20
1104.7529683967
 30
0.0
 11
737.3809029634
 21
1105.0835705624
 31
0.0
  0
LINE
  5
1AD
330
1F
100
AcDbEntity
  8
0
  6
Continuous
 62
     7
370
    25
100
AcDbLine
 10
737.380908078
 20
1105.0827195386
 30
0.0
 11
736.9119091773
 21
1104.4861860185
 31
0.0
  0
LINE
  5
1AE
330
1F
100
AcDbEntity
  8
0
  6
Continuous
 62
     7
370
    25
100
AcDbLine
 10
736.9119091773
 20
1104.4861860185
 30
0.0
 11
737.3809029633
 21
1104.7568458496
 31
0.0
  0
LINE
  5
1AF
330
1F
100
AcDbEntity
  8
0
  6
Continuous
 62
     7
370
    25
100
AcDbLine
 10
737.3809080717
 20
1104.7557053066
 30
0.0
 11
736.9119091773
 21
1104.1294461504
 31
0.0
  0
LINE
  5
1B0
330
1F
100
AcDbEntity
  8
0
  6
Continuous
 62
     7
370
    25
100
AcDbLine
 10
736.9119091773
 20
1104.1294461504
 30
0.0
 11
737.3809029634
 21
1104.3374593035
 31
0.0
  0
LINE
  5
1B1
330
1F
100
AcDbEntity
  8
0
  6
Continuous
 62
     7
370
    25
100
AcDbLine
 10
737.380908078
 20
1104.3360406184
 30
0.0
 11
736.9119091773
 21
1103.6863132192
 31
0.0
  0
LINE
  5
1B2
330
1F
100
AcDbEntity
  8
0
  6
Continuous
 62
     7
370
    25
100
AcDbLine
 10
736.9119091773
 20
1103.6863132192
 30
0.0
 11
737.3809029633
 21
1103.8296012955
 31
0.0
  0
LINE
  5
1B3
330
1F
100
AcDbEntity
  8
0
  6
Continuous
 62
     7
370
    25
100
AcDbLine
 10
737.3809080717
 20
1103.82791866
 30
0.0
 11
736.9119091773
 21
1103.1612148628
 31
0.0
  0
LINE
  5
1B4
330
1F
100
AcDbEntity
  8
0
  6
Continuous
 62
     7
370
    25
100
AcDbLine
 10
736.9119091773
 20
1103.1612148628
 30
0.0
 11
737.3809029634
 21
1103.2383461753
 31
0.0
  0
LINE
  5
1B5
330
1F
100
AcDbEntity
  8
0
  6
Continuous
 62
     7
370
    25
100
AcDbLine
 10
737.380908078
 20
1103.2364163875
 30
0.0
 11
736.9119091773
 21
1102.5593976903
 31
0.0
  0
LINE
  5
1B6
330
1F
100
AcDbEntity
  8
0
  6
Continuous
 62
     7
370
    25
100
AcDbLine
 10
736.9119091773
 20
1102.5593976903
 30
0.0
 11
737.3809029633
 21
1102.5696015684
 31
0.0
  0
LINE
  5
1B7
330
1F
100
AcDbEntity
  8
0
  6
Continuous
 62
     7
370
    25
100
AcDbLine
 10
737.3809080717
 20
1102.5674439217
 30
0.0
 11
736.9119091773
 21
1101.88687486
 31
0.0
  0
LINE
  5
1B8
330
1F
100
AcDbEntity
  8
0
  6
Continuous
 62
     7
370
    25
100
AcDbLine
 10
736.9119091773
 20
1101.88687486
 30
0.0
 11
737.3809029634
 21
1101.8300493499
 31
0.0
  0
LINE
  5
1B9
330
1F
100
AcDbEntity
  8
0
  6
Continuous
 62
     7
370
    25
100
AcDbLine
 10
737.380908078
 20
1101.8276853939
 30
0.0
 11
736.9119091773
 21
1101.1503659977
 31
0.0
  0
LINE
  5
1BA
330
1F
100
AcDbEntity
  8
0
  6
Continuous
 62
     7
370
    25
100
AcDbLine
 10
736.9119091773
 20
1101.1503659977
 30
0.0
 11
737.3809029634
 21
1101.0270788811
 31
0.0
  0
LINE
  5
1BB
330
1F
100
AcDbEntity
  8
0
  6
Continuous
 62
     7
370
    25
100
AcDbLine
 10
737.380908078
 20
1101.0245322402
 30
0.0
 11
736.9119091773
 21
1100.3572300565
 31
0.0
  0
LINE
  5
1BC
330
1F
100
AcDbEntity
  8
0
  6
Continuous
 62
     7
370
    25
100
AcDbLine
 10
736.9119091773
 20
1100.3572300565
 30
0.0
 11
737.3809029634
 21
1100.1687131775
 31
0.0
  0
LINE
  5
1BD
330
1F
100
AcDbEntity
  8
0
  6
Continuous
 62
     7
370
    25
100
AcDbLine
 10
737.380908078
 20
1100.1660092969
 30
0.0
 11
736.9119091773
 21
1099.5153917885
 31
0.0
  0
LINE
  5
1BE
330
1F
100
AcDbEntity
  8
0
  6
Continuous
 62
     7
370
    25
100
AcDbLine
 10
736.9119091773
 20
1099.5153917885
 30
0.0
 11
737.3809029633
 21
1099.2635287456
 31
0.0
  0
LINE
  5
1BF
330
1F
100
AcDbEntity
  8
0
  6
Continuous
 62
     7
370
    25
100
AcDbLine
 10
737.380908078
 20
1099.2606946414
 30
0.0
 11
736.9119091773
 21
1098.6332625635
 31
0.0
  0
LINE
  5
1C0
330
1F
100
AcDbEntity
  8
0
  6
Continuous
 62
     7
370
    25
100
AcDbLine
 10
736.9119091773
 20
1098.6332625635
 30
0.0
 11
737.3809029634
 21
1098.3205698887
 31
0.0
  0
SPLINE
  5
1C1
330
1F
100
AcDbEntity
  8
0
  6
Continuous
 62
     7
370
    25
100
AcDbSpline
210
0.0
220
0.0
230
1.0
 70
     8
 71
     3
 72
     9
 73
     5
 74
     0
 42
0.000000001
 43
0.00000001
 40
0.0
 40
0.0
 40
0.0
 40
0.0
 40
0.499962775429669
 40
1.0
 40
1.0
 40
1.0
 40
1.0
 10
737.3809081269083
 20
1098.317633939328
 30
0.0
 10
737.3016919003741
 20
1098.218617556393
 30
0.0
 10
737.1432476512674
 20
1098.020570046055
 30
0.0
 10
736.9890258292124
 20
1097.819965876954
 30
0.0
 10
736.9119091773438
 20
1097.719656325
 30
0.0
  0
LINE
  5
1C2
330
1F
100
AcDbEntity
  8
0
  6
Continuous
 62
     7
370
    25
100
AcDbLine
 10
736.9119091773
 20
1097.719656325
 30
0.0
 11
737.3809029633
 21
1097.3492583404
 31
0.0
  0
LINE
  5
1C3
330
1F
100
AcDbEntity
  8
0
  6
Continuous
 62
     7
370
    25
100
AcDbLine
 10
737.3809080717
 20
1097.3462497559
 30
0.0
 11
736.9119091773
 21
1096.7837015246
 31
0.0
  0
LINE
  5
1C4
330
1F
100
AcDbEntity
  8
0
  6
Continuous
 62
     7
370
    25
100
AcDbLine
 10
736.9119091773
 20
1096.7837015246
 30
0.0
 11
737.3809029633
 21
1096.3592991244
 31
0.0
  0
LINE
  5
1C5
330
1F
100
AcDbEntity
  8
0
  6
Continuous
 62
     7
370
    25
100
AcDbLine
 10
737.3809080717
 20
1096.3562480289
 30
0.0
 11
736.9119091773
 21
1095.8347499134
 31
0.0
  0
LINE
  5
1C6
330
1F
100
AcDbEntity
  8
0
  6
Continuous
 62
     7
370
    25
100
AcDbLine
 10
736.9119091773
 20
1094.882283102
 30
0.0
 11
737.3809029634
 21
1094.3630905605
 31
0.0
  0
LINE
  5
1C7
330
1F
100
AcDbEntity
  8
0
  6
Continuous
 62
     7
370
    25
100
AcDbLine
 10
737.3809080717
 20
1094.3600460199
 30
0.0
 11
736.9119091773
 21
1093.9358178241
 31
0.0
  0
LINE
  5
1C8
330
1F
100
AcDbEntity
  8
0
  6
Continuous
 62
     7
370
    25
100
AcDbLine
 10
736.9119091773
 20
1093.9358178241
 30
0.0
 11
737.3809029633
 21
1093.376786669
 31
0.0
  0
LINE
  5
1C9
330
1F
100
AcDbEntity
  8
0
  6
Continuous
 62
     7
370
    25
100
AcDbLine
 10
737.380908078
 20
1093.3737911373
 30
0.0
 11
736.9119091773
 21
1093.0048108478
 31
0.0
  0
LINE
  5
1CA
330
1F
100
AcDbEntity
  8
0
  6
Continuous
 62
     7
370
    25
100
AcDbLine
 10
736.9119091773
 20
1093.0048108478
 30
0.0
 11
737.3809029633
 21
1092.4115267334
 31
0.0
  0
LINE
  5
1CB
330
1F
100
AcDbEntity
  8
0
  6
Continuous
 62
     7
370
    25
100
AcDbLine
 10
737.3809080717
 20
1092.4086101237
 30
0.0
 11
736.9119091773
 21
1092.0985644871
 31
0.0
  0
LINE
  5
1CC
330
1F
100
AcDbEntity
  8
0
  6
Continuous
 62
     7
370
    25
100
AcDbLine
 10
736.9119091773
 20
1092.0985644871
 30
0.0
 11
737.3809029633
 21
1091.4769553123
 31
0.0
  0
LINE
  5
1CD
330
1F
100
AcDbEntity
  8
0
  6
Continuous
 62
     7
370
    25
100
AcDbLine
 10
737.380908078
 20
1091.4741467859
 30
0.0
 11
736.9119091773
 21
1091.226133656
 31
0.0
  0
LINE
  5
1CE
330
1F
100
AcDbEntity
  8
0
  6
Continuous
 62
     7
370
    25
100
AcDbLine
 10
736.9119091773
 20
1091.226133656
 30
0.0
 11
737.3809029633
 21
1090.5824103342
 31
0.0
  0
LINE
  5
1CF
330
1F
100
AcDbEntity
  8
0
  6
Continuous
 62
     7
370
    25
100
AcDbLine
 10
737.380908078
 20
1090.5797379431
 30
0.0
 11
736.9119091773
 21
1090.3962353951
 31
0.0
  0
LINE
  5
1D0
330
1F
100
AcDbEntity
  8
0
  6
Continuous
 62
     7
370
    25
100
AcDbLine
 10
736.9119091773
 20
1090.3962353951
 30
0.0
 11
737.3809029633
 21
1089.7368297968
 31
0.0
  0
LINE
  5
1D1
330
1F
100
AcDbEntity
  8
0
  6
Continuous
 62
     7
370
    25
100
AcDbLine
 10
737.380908078
 20
1089.7343202428
 30
0.0
 11
736.9119091773
 21
1089.6171617734
 31
0.0
  0
LINE
  5
1D2
330
1F
100
AcDbEntity
  8
0
  6
Continuous
 62
     7
370
    25
100
AcDbLine
 10
736.9119091773
 20
1089.6171617734
 30
0.0
 11
737.3809029633
 21
1088.9486624615
 31
0.0
  0
LINE
  5
1D3
330
1F
100
AcDbEntity
  8
0
  6
Continuous
 62
     7
370
    25
100
AcDbLine
 10
737.3809080717
 20
1088.946340806
 30
0.0
 11
736.9119091773
 21
1088.8966970371
 31
0.0
  0
LINE
  5
1D4
330
1F
100
AcDbEntity
  8
0
  6
Continuous
 62
     7
370
    25
100
AcDbLine
 10
736.9119091773
 20
1088.8966970371
 30
0.0
 11
737.3809029633
 21
1088.2257834357
 31
0.0
  0
LINE
  5
1D5
330
1F
100
AcDbEntity
  8
0
  6
Continuous
 62
     7
370
    25
100
AcDbLine
 10
737.3809080717
 20
1088.2236728884
 30
0.0
 11
736.9119091773
 21
1088.2420398316
 31
0.0
  0
LINE
  5
1D6
330
1F
100
AcDbEntity
  8
0
  6
Continuous
 62
     7
370
    25
100
AcDbLine
 10
736.9119091773
 20
1088.2420398316
 30
0.0
 11
737.3809029633
 21
1087.5754154876
 31
0.0
  0
LINE
  5
1D7
330
1F
100
AcDbEntity
  8
0
  6
Continuous
 62
     7
370
    25
100
AcDbLine
 10
737.380908078
 20
1087.5735371503
 30
0.0
 11
736.9119091773
 21
1087.6597312753
 31
0.0
  0
LINE
  5
1D8
330
1F
100
AcDbEntity
  8
0
  6
Continuous
 62
     7
370
    25
100
AcDbLine
 10
736.9119091773
 20
1087.6597312753
 30
0.0
 11
737.3809029634
 21
1087.0040568786
 31
0.0
  0
LINE
  5
1D9
330
1F
100
AcDbEntity
  8
0
  6
Continuous
 62
     7
370
    25
100
AcDbLine
 10
737.3809080717
 20
1087.0024294917
 30
0.0
 11
736.9119091773
 21
1087.1555896028
 31
0.0
  0
LINE
  5
1DA
330
1F
100
AcDbEntity
  8
0
  6
Continuous
 62
     7
370
    25
100
AcDbLine
 10
736.9119091773
 20
1087.1555896028
 30
0.0
 11
737.3809029634
 21
1086.5174164355
 31
0.0
  0
LINE
  5
1DB
330
1F
100
AcDbEntity
  8
0
  6
Continuous
 62
     7
370
    25
100
AcDbLine
 10
737.380908078
 20
1086.516056287
 30
0.0
 11
736.9119091773
 21
1086.7346520311
 31
0.0
  0
LINE
  5
1DC
330
1F
100
AcDbEntity
  8
0
  6
Continuous
 62
     7
370
    25
100
AcDbLine
 10
736.9119091773
 20
1086.7346520311
 30
0.0
 11
737.3809029633
 21
1086.1203565087
 31
0.0
  0
LINE
  5
1DD
330
1F
100
AcDbEntity
  8
0
  6
Continuous
 62
     7
370
    25
100
AcDbLine
 10
737.380908078
 20
1086.1192771745
 30
0.0
 11
736.9119091773
 21
1086.4011244293
 31
0.0
  0
LINE
  5
1DE
330
1F
100
AcDbEntity
  8
0
  6
Continuous
 62
     7
370
    25
100
AcDbLine
 10
736.9119091773
 20
1086.4011244293
 30
0.0
 11
737.3809029633
 21
1085.8168443893
 31
0.0
  0
LINE
  5
1DF
330
1F
100
AcDbEntity
  8
0
  6
Continuous
 62
     7
370
    25
100
AcDbLine
 10
737.380908078
 20
1085.816056654
 30
0.0
 11
736.9119091773
 21
1086.1583392948
 31
0.0
  0
LINE
  5
1E0
330
1F
100
AcDbEntity
  8
0
  6
Continuous
 62
     7
370
    25
100
AcDbLine
 10
736.9119091773
 20
1086.1583392948
 30
0.0
 11
737.3809029634
 21
1085.6099126703
 31
0.0
  0
LINE
  5
1E1
330
1F
100
AcDbEntity
  8
0
  6
Continuous
 62
     7
370
    25
100
AcDbLine
 10
737.380908078
 20
1085.6094244048
 30
0.0
 11
736.9119091773
 21
1086.0087224566
 31
0.0
  0
LINE
  5
1E2
330
1F
100
AcDbEntity
  8
0
  6
Continuous
 62
     7
370
    25
100
AcDbLine
 10
736.9119091773
 20
1086.0087224566
 30
0.0
 11
737.3809029634
 21
1085.5016289451
 31
0.0
  0
LINE
  5
1E3
330
1F
100
AcDbEntity
  8
0
  6
Continuous
 62
     7
370
    25
100
AcDbLine
 10
737.380908078
 20
1085.5014450278
 30
0.0
 11
736.9119091773
 21
1085.9537688365
 31
0.0
  0
LINE
  5
1E4
330
1F
100
AcDbEntity
  8
0
  6
Continuous
 62
     7
370
    25
100
AcDbLine
 10
736.9119091773
 20
1085.9537688365
 30
0.0
 11
737.3809029634
 21
1085.4930751488
 31
0.0
  0
LINE
  5
1E5
330
1F
100
AcDbEntity
  8
0
  6
Continuous
 62
     7
370
    25
100
AcDbLine
 10
736.8799412878
 20
1085.9854525206
 30
0.0
 11
736.8799412878
 21
1104.9804211266
 31
0.0
  0
LINE
  5
1E6
330
1F
100
AcDbEntity
  8
0
  6
Continuous
 62
     7
370
    25
100
AcDbLine
 10
740.8479733802
 20
1095.834749934
 30
0.0
 11
740.3789744976
 21
1096.3562480341
 31
0.0
  0
LINE
  5
1E7
330
1F
100
AcDbEntity
  8
0
  6
Continuous
 62
     7
370
    25
100
AcDbLine
 10
740.3789796123
 20
1096.3592991244
 30
0.0
 11
740.8479733601
 21
1096.7837014892
 31
0.0
  0
LINE
  5
1E8
330
1F
100
AcDbEntity
  8
0
  6
Continuous
 62
     7
370
    25
100
AcDbLine
 10
740.8479733802
 20
1096.7837015468
 30
0.0
 11
740.3789744976
 21
1097.3462497598
 31
0.0
  0
LINE
  5
1E9
330
1F
100
AcDbEntity
  8
0
  6
Continuous
 62
     7
370
    25
100
AcDbLine
 10
740.378979619
 20
1097.3492583496
 30
0.0
 11
740.8479733601
 21
1097.7196562941
 31
0.0
  0
LINE
  5
1EA
330
1F
100
AcDbEntity
  8
0
  6
Continuous
 62
     7
370
    25
100
AcDbLine
 10
740.8479733802
 20
1097.7196563486
 30
0.0
 11
740.3789744976
 21
1098.3176338786
 31
0.0
  0
LINE
  5
1EB
330
1F
100
AcDbEntity
  8
0
  6
Continuous
 62
     7
370
    25
100
AcDbLine
 10
740.3789796123
 20
1098.3205698888
 30
0.0
 11
740.8479733601
 21
1098.6332625373
 31
0.0
  0
LINE
  5
1EC
330
1F
100
AcDbEntity
  8
0
  6
Continuous
 62
     7
370
    25
100
AcDbLine
 10
740.8479733802
 20
1098.6332625882
 30
0.0
 11
740.3789744974
 21
1099.2606946415
 31
0.0
  0
LINE
  5
1ED
330
1F
100
AcDbEntity
  8
0
  6
Continuous
 62
     7
370
    25
100
AcDbLine
 10
740.378979619
 20
1099.2635287569
 30
0.0
 11
740.8479733601
 21
1099.5153917674
 31
0.0
  0
LINE
  5
1EE
330
1F
100
AcDbEntity
  8
0
  6
Continuous
 62
     7
370
    25
100
AcDbLine
 10
740.8479733802
 20
1099.5153918142
 30
0.0
 11
740.3789744974
 21
1100.166009297
 31
0.0
  0
LINE
  5
1EF
330
1F
100
AcDbEntity
  8
0
  6
Continuous
 62
     7
370
    25
100
AcDbLine
 10
740.3789796123
 20
1100.1687131776
 30
0.0
 11
740.8479733601
 21
1100.3572300407
 31
0.0
  0
LINE
  5
1F0
330
1F
100
AcDbEntity
  8
0
  6
Continuous
 62
     7
370
    25
100
AcDbLine
 10
740.8479733802
 20
1100.3572300828
 30
0.0
 11
740.3789744974
 21
1101.0245322403
 31
0.0
  0
LINE
  5
1F1
330
1F
100
AcDbEntity
  8
0
  6
Continuous
 62
     7
370
    25
100
AcDbLine
 10
740.3789796123
 20
1101.0270788811
 30
0.0
 11
740.8479733601
 21
1101.1503659874
 31
0.0
  0
LINE
  5
1F2
330
1F
100
AcDbEntity
  8
0
  6
Continuous
 62
     7
370
    25
100
AcDbLine
 10
740.8479733802
 20
1101.1503660244
 30
0.0
 11
740.3789744974
 21
1101.8276853941
 31
0.0
  0
LINE
  5
1F3
330
1F
100
AcDbEntity
  8
0
  6
Continuous
 62
     7
370
    25
100
AcDbLine
 10
740.378979619
 20
1101.8300493636
 30
0.0
 11
740.8479733601
 21
1101.8868748552
 31
0.0
  0
LINE
  5
1F4
330
1F
100
AcDbEntity
  8
0
  6
Continuous
 62
     7
370
    25
100
AcDbLine
 10
740.8479733802
 20
1101.8868748868
 30
0.0
 11
740.3789744974
 21
1102.5674439174
 31
0.0
  0
LINE
  5
1F5
330
1F
100
AcDbEntity
  8
0
  6
Continuous
 62
     7
370
    25
100
AcDbLine
 10
740.3789796123
 20
1102.5696015684
 30
0.0
 11
740.8479733601
 21
1102.5593976911
 31
0.0
  0
LINE
  5
1F6
330
1F
100
AcDbEntity
  8
0
  6
Continuous
 62
     7
370
    25
100
AcDbLine
 10
740.8479733802
 20
1102.559397717
 30
0.0
 11
740.3789744976
 21
1103.2364163875
 31
0.0
  0
LINE
  5
1F7
330
1F
100
AcDbEntity
  8
0
  6
Continuous
 62
     7
370
    25
100
AcDbLine
 10
740.3789796123
 20
1103.2383461753
 30
0.0
 11
740.8479733601
 21
1103.1612148692
 31
0.0
  0
LINE
  5
1F8
330
1F
100
AcDbEntity
  8
0
  6
Continuous
 62
     7
370
    25
100
AcDbLine
 10
740.8479733802
 20
1103.1612148891
 30
0.0
 11
740.3789744976
 21
1103.8279186529
 31
0.0
  0
LINE
  5
1F9
330
1F
100
AcDbEntity
  8
0
  6
Continuous
 62
     7
370
    25
100
AcDbLine
 10
740.378979619
 20
1103.8296013104
 30
0.0
 11
740.8479733601
 21
1103.6863132312
 31
0.0
  0
LINE
  5
1FA
330
1F
100
AcDbEntity
  8
0
  6
Continuous
 62
     7
370
    25
100
AcDbLine
 10
740.8479733802
 20
1103.6863132449
 30
0.0
 11
740.3789744974
 21
1104.3360406185
 31
0.0
  0
LINE
  5
1FB
330
1F
100
AcDbEntity
  8
0
  6
Continuous
 62
     7
370
    25
100
AcDbLine
 10
740.3789796123
 20
1104.3374593034
 30
0.0
 11
740.8479733601
 21
1104.1294461677
 31
0.0
  0
LINE
  5
1FC
330
1F
100
AcDbEntity
  8
0
  6
Continuous
 62
     7
370
    25
100
AcDbLine
 10
740.8479733802
 20
1104.1294461751
 30
0.0
 11
740.3789744974
 21
1104.7557052973
 31
0.0
  0
LINE
  5
1FD
330
1F
100
AcDbEntity
  8
0
  6
Continuous
 62
     7
370
    25
100
AcDbLine
 10
740.3789796123
 20
1104.7568458496
 30
0.0
 11
740.8479733601
 21
1104.4861860411
 31
0.0
  0
LINE
  5
1FE
330
1F
100
AcDbEntity
  8
0
  6
Continuous
 62
     7
370
    25
100
AcDbLine
 10
740.8479733802
 20
1104.486186042
 30
0.0
 11
740.3789744974
 21
1105.0827195387
 31
0.0
  0
LINE
  5
1FF
330
1F
100
AcDbEntity
  8
0
  6
Continuous
 62
     7
370
    25
100
AcDbLine
 10
740.3789796123
 20
1105.0835705624
 30
0.0
 11
740.8479733601
 21
1104.7529684244
 31
0.0
  0
LINE
  5
200
330
1F
100
AcDbEntity
  8
0
  6
Continuous
 62
     7
370
    25
100
AcDbLine
 10
740.8479733802
 20
1104.7529684189
 30
0.0
 11
740.3789744976
 21
1105.3138159243
 31
0.0
  0
LINE
  5
201
330
1F
100
AcDbEntity
  8
0
  6
Continuous
 62
     7
370
    25
100
AcDbLine
 10
740.3789796123
 20
1105.3143689163
 30
0.0
 11
740.8479733601
 21
1104.9271277161
 31
0.0
  0
LINE
  5
202
330
1F
100
AcDbEntity
  8
0
  6
Continuous
 62
     7
370
    25
100
AcDbLine
 10
740.8479733802
 20
1104.9271277043
 30
0.0
 11
740.3789744976
 21
1105.4466854158
 31
0.0
  0
LINE
  5
203
330
1F
100
AcDbEntity
  8
0
  6
Continuous
 62
     7
370
    25
100
AcDbLine
 10
740.3789796123
 20
1105.4469348507
 30
0.0
 11
740.7736367781
 21
1105.0781930458
 31
0.0
  0
LINE
  5
204
330
1F
100
AcDbEntity
  8
0
  6
Continuous
 62
     7
370
    25
100
AcDbLine
 10
740.7736367974
 20
1105.0781930291
 30
0.0
 11
740.3789744975
 21
1105.4813877969
 31
0.0
  0
LINE
  5
205
330
1F
100
AcDbEntity
  8
0
  6
Continuous
 62
     7
370
    25
100
AcDbLine
 10
740.3789796123
 20
1085.493075149
 30
0.0
 11
740.8479733601
 21
1085.953768798
 31
0.0
  0
LINE
  5
206
330
1F
100
AcDbEntity
  8
0
  6
Continuous
 62
     7
370
    25
100
AcDbLine
 10
740.8479733802
 20
1085.9537688187
 30
0.0
 11
740.3789744975
 21
1085.5014450277
 31
0.0
  0
LINE
  5
207
330
1F
100
AcDbEntity
  8
0
  6
Continuous
 62
     7
370
    25
100
AcDbLine
 10
740.3789796123
 20
1085.5016289452
 30
0.0
 11
740.8479733601
 21
1086.0087224142
 31
0.0
  0
LINE
  5
208
330
1F
100
AcDbEntity
  8
0
  6
Continuous
 62
     7
370
    25
100
AcDbLine
 10
740.8479733802
 20
1086.0087224408
 30
0.0
 11
740.3789744975
 21
1085.6094244047
 31
0.0
  0
LINE
  5
209
330
1F
100
AcDbEntity
  8
0
  6
Continuous
 62
     7
370
    25
100
AcDbLine
 10
740.378979619
 20
1085.6099126583
 30
0.0
 11
740.8479733601
 21
1086.158339249
 31
0.0
  0
LINE
  5
20A
330
1F
100
AcDbEntity
  8
0
  6
Continuous
 62
     7
370
    25
100
AcDbLine
 10
740.8479733802
 20
1086.1583392813
 30
0.0
 11
740.3789744974
 21
1085.816056654
 31
0.0
  0
LINE
  5
20B
330
1F
100
AcDbEntity
  8
0
  6
Continuous
 62
     7
370
    25
100
AcDbLine
 10
740.3789796123
 20
1085.8168443893
 30
0.0
 11
740.8479733601
 21
1086.4011243804
 31
0.0
  0
LINE
  5
20C
330
1F
100
AcDbEntity
  8
0
  6
Continuous
 62
     7
370
    25
100
AcDbLine
 10
740.8479733802
 20
1086.4011244181
 30
0.0
 11
740.3789744974
 21
1086.1192771745
 31
0.0
  0
LINE
  5
20D
330
1F
100
AcDbEntity
  8
0
  6
Continuous
 62
     7
370
    25
100
AcDbLine
 10
740.378979619
 20
1086.1203564986
 30
0.0
 11
740.8479733601
 21
1086.7346519798
 31
0.0
  0
LINE
  5
20E
330
1F
100
AcDbEntity
  8
0
  6
Continuous
 62
     7
370
    25
100
AcDbLine
 10
740.8479733802
 20
1086.7346520225
 30
0.0
 11
740.3789744974
 21
1086.516056287
 31
0.0
  0
LINE
  5
20F
330
1F
100
AcDbEntity
  8
0
  6
Continuous
 62
     7
370
    25
100
AcDbLine
 10
740.3789796123
 20
1086.5174164357
 30
0.0
 11
740.8479733601
 21
1087.1555895495
 31
0.0
  0
LINE
  5
210
330
1F
100
AcDbEntity
  8
0
  6
Continuous
 62
     7
370
    25
100
AcDbLine
 10
740.8479733802
 20
1087.1555895967
 30
0.0
 11
740.3789744974
 21
1087.0024295057
 31
0.0
  0
LINE
  5
211
330
1F
100
AcDbEntity
  8
0
  6
Continuous
 62
     7
370
    25
100
AcDbLine
 10
740.378979619
 20
1087.0040568711
 30
0.0
 11
740.8479733601
 21
1087.6597312205
 31
0.0
  0
LINE
  5
212
330
1F
100
AcDbEntity
  8
0
  6
Continuous
 62
     7
370
    25
100
AcDbLine
 10
740.8479733802
 20
1087.6597312719
 30
0.0
 11
740.3789744976
 21
1087.5735371503
 31
0.0
  0
LINE
  5
213
330
1F
100
AcDbEntity
  8
0
  6
Continuous
 62
     7
370
    25
100
AcDbLine
 10
740.378979619
 20
1087.5754154812
 30
0.0
 11
740.8479733601
 21
1088.2420397759
 31
0.0
  0
LINE
  5
214
330
1F
100
AcDbEntity
  8
0
  6
Continuous
 62
     7
370
    25
100
AcDbLine
 10
740.8479733802
 20
1088.2420398308
 30
0.0
 11
740.3789744974
 21
1088.223672902
 31
0.0
  0
LINE
  5
215
330
1F
100
AcDbEntity
  8
0
  6
Continuous
 62
     7
370
    25
100
AcDbLine
 10
740.3789796123
 20
1088.2257834357
 30
0.0
 11
740.8479733601
 21
1088.896696981
 31
0.0
  0
LINE
  5
216
330
1F
100
AcDbEntity
  8
0
  6
Continuous
 62
     7
370
    25
100
AcDbLine
 10
740.8479733802
 20
1088.896697039
 30
0.0
 11
740.3789744976
 21
1088.9463408191
 31
0.0
  0
LINE
  5
217
330
1F
100
AcDbEntity
  8
0
  6
Continuous
 62
     7
370
    25
100
AcDbLine
 10
740.3789796123
 20
1088.9486624615
 30
0.0
 11
740.8479733601
 21
1089.6171617176
 31
0.0
  0
LINE
  5
218
330
1F
100
AcDbEntity
  8
0
  6
Continuous
 62
     7
370
    25
100
AcDbLine
 10
740.8479733802
 20
1089.617161778
 30
0.0
 11
740.3789744974
 21
1089.7343202428
 31
0.0
  0
LINE
  5
219
330
1F
100
AcDbEntity
  8
0
  6
Continuous
 62
     7
370
    25
100
AcDbLine
 10
740.3789796123
 20
1089.7368297968
 30
0.0
 11
740.8479733601
 21
1090.39623534
 31
0.0
  0
LINE
  5
21A
330
1F
100
AcDbEntity
  8
0
  6
Continuous
 62
     7
370
    25
100
AcDbLine
 10
740.8479733802
 20
1090.3962354023
 30
0.0
 11
740.3789744974
 21
1090.5797379432
 31
0.0
  0
LINE
  5
21B
330
1F
100
AcDbEntity
  8
0
  6
Continuous
 62
     7
370
    25
100
AcDbLine
 10
740.378979619
 20
1090.5824103335
 30
0.0
 11
740.8479733601
 21
1091.2261336022
 31
0.0
  0
LINE
  5
21C
330
1F
100
AcDbEntity
  8
0
  6
Continuous
 62
     7
370
    25
100
AcDbLine
 10
740.8479733802
 20
1091.2261336658
 30
0.0
 11
740.3789744976
 21
1091.4741467859
 31
0.0
  0
LINE
  5
21D
330
1F
100
AcDbEntity
  8
0
  6
Continuous
 62
     7
370
    25
100
AcDbLine
 10
740.378979619
 20
1091.4769553132
 30
0.0
 11
740.8479733601
 21
1092.0985644351
 31
0.0
  0
LINE
  5
21E
330
1F
100
AcDbEntity
  8
0
  6
Continuous
 62
     7
370
    25
100
AcDbLine
 10
740.8479733802
 20
1092.0985644993
 30
0.0
 11
740.3789744974
 21
1092.4086101336
 31
0.0
  0
LINE
  5
21F
330
1F
100
AcDbEntity
  8
0
  6
Continuous
 62
     7
370
    25
100
AcDbLine
 10
740.378979619
 20
1092.4115267358
 30
0.0
 11
740.8479733601
 21
1093.0048107982
 31
0.0
  0
LINE
  5
220
330
1F
100
AcDbEntity
  8
0
  6
Continuous
 62
     7
370
    25
100
AcDbLine
 10
740.8479733802
 20
1093.0048108623
 30
0.0
 11
740.3789744974
 21
1093.3737911374
 31
0.0
  0
LINE
  5
221
330
1F
100
AcDbEntity
  8
0
  6
Continuous
 62
     7
370
    25
100
AcDbLine
 10
740.378979619
 20
1093.3767866728
 30
0.0
 11
740.8479733601
 21
1093.9358177774
 31
0.0
  0
LINE
  5
222
330
1F
100
AcDbEntity
  8
0
  6
Continuous
 62
     7
370
    25
100
AcDbLine
 10
740.8479733802
 20
1093.9358178408
 30
0.0
 11
740.3789744974
 21
1094.3600460277
 31
0.0
  0
LINE
  5
223
330
1F
100
AcDbEntity
  8
0
  6
Continuous
 62
     7
370
    25
100
AcDbLine
 10
740.378979619
 20
1094.3630905659
 30
0.0
 11
740.8479733601
 21
1094.8822830586
 31
0.0
  0
LINE
  5
224
330
1F
100
AcDbEntity
  8
0
  6
Continuous
 62
     7
370
    25
100
AcDbLine
 10
740.8799412878
 20
1095.4829368236
 30
0.0
 11
740.8799412878
 21
1085.9854525206
 31
0.0
  0
LINE
  5
225
330
1F
100
AcDbEntity
  8
0
  6
Continuous
 62
     7
370
    25
100
AcDbLine
 10
740.8799412878
 20
1104.9804211266
 30
0.0
 11
740.8799412878
 21
1095.4829368236
 31
0.0
  0
LINE
  5
226
330
1F
100
AcDbEntity
  8
0
  6
Continuous
 62
     7
370
    25
100
AcDbLine
 10
737.3799412878
 20
1096.357926658
 30
0.0
 11
740.3799412878
 21
1096.357926658
 31
0.0
  0
LINE
  5
227
330
1F
100
AcDbEntity
  8
0
  6
Continuous
 62
     7
370
    25
100
AcDbLine
 10
736.9119091773
 20
1096.7837015246
 30
0.0
 11
740.8479733791
 21
1096.7837015069
 31
0.0
  0
LINE
  5
228
330
1F
100
AcDbEntity
  8
0
  6
Continuous
 62
     7
370
    25
100
AcDbLine
 10
740.8479733791
 20
1093.9358178007
 30
0.0
 11
736.9119091773
 21
1093.9358178241
 31
0.0
  0
LINE
  5
229
330
1F
100
AcDbEntity
  8
0
  6
Continuous
 62
     7
370
    25
100
AcDbLine
 10
740.3799412878
 20
1094.3614115542
 30
0.0
 11
737.3799412878
 21
1094.3614115542
 31
0.0
  0
LINE
  5
22A
330
1F
100
AcDbEntity
  8
0
  6
Continuous
 62
     7
370
    25
100
AcDbLine
 10
737.3799412878
 20
1097.3480605178
 30
0.0
 11
740.3799412878
 21
1097.3480605178
 31
0.0
  0
LINE
  5
22B
330
1F
100
AcDbEntity
  8
0
  6
Continuous
 62
     7
370
    25
100
AcDbLine
 10
736.9119091773
 20
1097.719656325
 30
0.0
 11
740.8479733791
 21
1097.7196563095
 31
0.0
  0
LINE
  5
22C
330
1F
100
AcDbEntity
  8
0
  6
Continuous
 62
     7
370
    25
100
AcDbLine
 10
740.3799412878
 20
1093.3749788293
 30
0.0
 11
737.3799412878
 21
1093.3749788293
 31
0.0
  0
LINE
  5
22D
330
1F
100
AcDbEntity
  8
0
  6
Continuous
 62
     7
370
    25
100
AcDbLine
 10
740.8479733791
 20
1093.004810823
 30
0.0
 11
736.9119091773
 21
1093.0048108478
 31
0.0
  0
LINE
  5
22E
330
1F
100
AcDbEntity
  8
0
  6
Continuous
 62
     7
370
    25
100
AcDbLine
 10
737.3799412878
 20
1098.3195586782
 30
0.0
 11
740.3799412878
 21
1098.3195586782
 31
0.0
  0
LINE
  5
22F
330
1F
100
AcDbEntity
  8
0
  6
Continuous
 62
     7
370
    25
100
AcDbLine
 10
736.9119091773
 20
1098.6332625635
 30
0.0
 11
740.8479733791
 21
1098.6332625504
 31
0.0
  0
LINE
  5
230
330
1F
100
AcDbEntity
  8
0
  6
Continuous
 62
     7
370
    25
100
AcDbLine
 10
740.3799412878
 20
1092.4096081238
 30
0.0
 11
737.3799412878
 21
1092.4096081238
 31
0.0
  0
LINE
  5
231
330
1F
100
AcDbEntity
  8
0
  6
Continuous
 62
     7
370
    25
100
AcDbLine
 10
740.8479733791
 20
1092.0985644611
 30
0.0
 11
736.9119091773
 21
1092.0985644871
 31
0.0
  0
LINE
  5
232
330
1F
100
AcDbEntity
  8
0
  6
Continuous
 62
     7
370
    25
100
AcDbLine
 10
737.3799412878
 20
1099.2627142507
 30
0.0
 11
740.3799412878
 21
1099.2627142507
 31
0.0
  0
LINE
  5
233
330
1F
100
AcDbEntity
  8
0
  6
Continuous
 62
     7
370
    25
100
AcDbLine
 10
736.9119091773
 20
1099.5153917885
 30
0.0
 11
740.8479733791
 21
1099.515391778
 31
0.0
  0
LINE
  5
234
330
1F
100
AcDbEntity
  8
0
  6
Continuous
 62
     7
370
    25
100
AcDbLine
 10
740.3799412878
 20
1091.4749451028
 30
0.0
 11
737.3799412878
 21
1091.4749451028
 31
0.0
  0
LINE
  5
235
330
1F
100
AcDbEntity
  8
0
  6
Continuous
 62
     7
370
    25
100
AcDbLine
 10
740.8479733791
 20
1091.2261336291
 30
0.0
 11
736.9119091773
 21
1091.226133656
 31
0.0
  0
LINE
  5
236
330
1F
100
AcDbEntity
  8
0
  6
Continuous
 62
     7
370
    25
100
AcDbLine
 10
737.3799412878
 20
1100.1681035366
 30
0.0
 11
740.3799412878
 21
1100.1681035366
 31
0.0
  0
LINE
  5
237
330
1F
100
AcDbEntity
  8
0
  6
Continuous
 62
     7
370
    25
100
AcDbLine
 10
736.9119091773
 20
1100.3572300565
 30
0.0
 11
740.8479733791
 21
1100.3572300486
 31
0.0
  0
LINE
  5
238
330
1F
100
AcDbEntity
  8
0
  6
Continuous
 62
     7
370
    25
100
AcDbLine
 10
740.3799412878
 20
1090.5803286102
 30
0.0
 11
737.3799412878
 21
1090.5803286102
 31
0.0
  0
LINE
  5
239
330
1F
100
AcDbEntity
  8
0
  6
Continuous
 62
     7
370
    25
100
AcDbLine
 10
740.8479733791
 20
1090.3962353675
 30
0.0
 11
736.9119091773
 21
1090.3962353951
 31
0.0
  0
LINE
  5
23A
330
1F
100
AcDbEntity
  8
0
  6
Continuous
 62
     7
370
    25
100
AcDbLine
 10
737.3799412878
 20
1101.0266801854
 30
0.0
 11
740.3799412878
 21
1101.0266801854
 31
0.0
  0
LINE
  5
23B
330
1F
100
AcDbEntity
  8
0
  6
Continuous
 62
     7
370
    25
100
AcDbLine
 10
736.9119091773
 20
1101.1503659977
 30
0.0
 11
740.8479733791
 21
1101.1503659925
 31
0.0
  0
LINE
  5
23C
330
1F
100
AcDbEntity
  8
0
  6
Continuous
 62
     7
370
    25
100
AcDbLine
 10
740.8479733791
 20
1089.6171617455
 30
0.0
 11
736.9119091773
 21
1089.6171617734
 31
0.0
  0
LINE
  5
23D
330
1F
100
AcDbEntity
  8
0
  6
Continuous
 62
     7
370
    25
100
AcDbLine
 10
740.3799412878
 20
1089.7346973583
 30
0.0
 11
737.3799412878
 21
1089.7346973583
 31
0.0
  0
LINE
  5
23E
330
1F
100
AcDbEntity
  8
0
  6
Continuous
 62
     7
370
    25
100
AcDbLine
 10
737.3799412878
 20
1101.829865583
 30
0.0
 11
740.3799412878
 21
1101.829865583
 31
0.0
  0
LINE
  5
23F
330
1F
100
AcDbEntity
  8
0
  6
Continuous
 62
     7
370
    25
100
AcDbLine
 10
736.9119091773
 20
1101.88687486
 30
0.0
 11
740.8479733791
 21
1101.8868748576
 31
0.0
  0
LINE
  5
240
330
1F
100
AcDbEntity
  8
0
  6
Continuous
 62
     7
370
    25
100
AcDbLine
 10
740.8479733791
 20
1088.896697009
 30
0.0
 11
736.9119091773
 21
1088.8966970371
 31
0.0
  0
LINE
  5
241
330
1F
100
AcDbEntity
  8
0
  6
Continuous
 62
     7
370
    25
100
AcDbLine
 10
740.3799412878
 20
1088.9465006149
 30
0.0
 11
737.3799412878
 21
1088.9465006149
 31
0.0
  0
LINE
  5
242
330
1F
100
AcDbEntity
  8
0
  6
Continuous
 62
     7
370
    25
100
AcDbLine
 10
737.3799412878
 20
1102.5696345665
 30
0.0
 11
740.3799412878
 21
1102.5696345665
 31
0.0
  0
LINE
  5
243
330
1F
100
AcDbEntity
  8
0
  6
Continuous
 62
     7
370
    25
100
AcDbLine
 10
740.3799412878
 20
1088.2236137816
 30
0.0
 11
737.3799412878
 21
1088.2236137816
 31
0.0
  0
LINE
  5
244
330
1F
100
AcDbEntity
  8
0
  6
Continuous
 62
     7
370
    25
100
AcDbLine
 10
737.3799412878
 20
1103.2385956087
 30
0.0
 11
740.3799412878
 21
1103.2385956087
 31
0.0
  0
LINE
  5
245
330
1F
100
AcDbEntity
  8
0
  6
Continuous
 62
     7
370
    25
100
AcDbLine
 10
740.3799412878
 20
1087.5732597044
 30
0.0
 11
737.3799412878
 21
1087.5732597044
 31
0.0
  0
LINE
  5
246
330
1F
100
AcDbEntity
  8
0
  6
Continuous
 62
     7
370
    25
100
AcDbLine
 10
737.3799412878
 20
1103.830064672
 30
0.0
 11
740.3799412878
 21
1103.830064672
 31
0.0
  0
LINE
  5
247
330
1F
100
AcDbEntity
  8
0
  6
Continuous
 62
     7
370
    25
100
AcDbLine
 10
740.3799412878
 20
1087.0019365065
 30
0.0
 11
737.3799412878
 21
1087.0019365065
 31
0.0
  0
LINE
  5
248
330
1F
100
AcDbEntity
  8
0
  6
Continuous
 62
     7
370
    25
100
AcDbLine
 10
737.3799412878
 20
1104.338131993
 30
0.0
 11
740.3799412878
 21
1104.338131993
 31
0.0
  0
LINE
  5
249
330
1F
100
AcDbEntity
  8
0
  6
Continuous
 62
     7
370
    25
100
AcDbLine
 10
740.3799412878
 20
1086.5153526602
 30
0.0
 11
737.3799412878
 21
1086.5153526602
 31
0.0
  0
LINE
  5
24A
330
1F
100
AcDbEntity
  8
0
  6
Continuous
 62
     7
370
    25
100
AcDbLine
 10
737.3799412878
 20
1104.757721131
 30
0.0
 11
740.3799412878
 21
1104.757721131
 31
0.0
  0
LINE
  5
24B
330
1F
100
AcDbEntity
  8
0
  6
Continuous
 62
     7
370
    25
100
AcDbLine
 10
740.3799412878
 20
1086.1183699507
 30
0.0
 11
737.3799412878
 21
1086.1183699507
 31
0.0
  0
LINE
  5
24C
330
1F
100
AcDbEntity
  8
0
  6
Continuous
 62
     7
370
    25
100
AcDbLine
 10
737.3799412878
 20
1105.0846396901
 30
0.0
 11
740.3799412878
 21
1105.0846396901
 31
0.0
  0
LINE
  5
24D
330
1F
100
AcDbEntity
  8
0
  6
Continuous
 62
     7
370
    25
100
AcDbLine
 10
740.3799412878
 20
1085.8149548978
 30
0.0
 11
737.3799412878
 21
1085.8149548978
 31
0.0
  0
LINE
  5
24E
330
1F
100
AcDbEntity
  8
0
  6
Continuous
 62
     7
370
    25
100
AcDbLine
 10
737.3799412878
 20
1105.315621208
 30
0.0
 11
740.3799412878
 21
1105.315621208
 31
0.0
  0
LINE
  5
24F
330
1F
100
AcDbEntity
  8
0
  6
Continuous
 62
     7
370
    25
100
AcDbLine
 10
740.3799412878
 20
1085.6081391245
 30
0.0
 11
737.3799412878
 21
1085.6081391245
 31
0.0
  0
LINE
  5
250
330
1F
100
AcDbEntity
  8
0
  6
Continuous
 62
     7
370
    25
100
AcDbLine
 10
737.3799412878
 20
1105.4483577938
 30
0.0
 11
740.3799412878
 21
1105.4483577938
 31
0.0
  0
LINE
  5
251
330
1F
100
AcDbEntity
  8
0
  6
Continuous
 62
     7
370
    25
100
AcDbLine
 10
740.3799412878
 20
1085.4999890656
 30
0.0
 11
737.3799412878
 21
1085.4999890656
 31
0.0
  0
LINE
  5
252
330
1F
100
AcDbEntity
  8
0
  6
Continuous
 62
     7
370
    25
100
AcDbLine
 10
737.3799412878
 20
1105.4829368236
 30
0.0
 11
740.3799412878
 21
1105.4829368236
 31
0.0
  0
LINE
  5
253
330
1F
100
AcDbEntity
  8
0
  6
Continuous
 62
     7
370
    25
100
AcDbLine
 10
740.3799412878
 20
1085.4915853209
 30
0.0
 11
737.3799412878
 21
1085.4915853209
 31
0.0
  0
LINE
  5
254
330
1F
100
AcDbEntity
  8
0
  6
Continuous
 62
     7
370
    25
100
AcDbLine
 10
96.9798653203
 20
779.7829368256
 30
0.0
 11
96.9799412878
 21
779.7829368256
 31
0.0
  0
ARC
  5
255
330
1F
100
AcDbEntity
  8
0
  6
Continuous
 62
     7
370
    25
100
AcDbCircle
 10
95.9799412818
 20
898.4829368236
 30
0.0
 40
1.0
100
AcDbArc
 50
0.0
 51
90.0
  0
LINE
  5
256
330
1F
100
AcDbEntity
  8
0
  6
Continuous
 62
     7
370
    25
100
AcDbLine
 10
96.9799412818
 20
898.4829368236
 30
0.0
 11
96.9799412818
 21
779.7952622964
 31
0.0
  0
ARC
  5
257
330
1F
100
AcDbEntity
  8
0
  6
Continuous
 62
     7
370
    25
100
AcDbCircle
 10
95.9799412818
 20
779.7952622964
 30
0.0
 40
1.0
100
AcDbArc
 50
270.0
 51
0.0
  0
LINE
  5
258
330
1F
100
AcDbEntity
  8
0
  6
Continuous
 62
     7
370
    25
100
AcDbLine
 10
95.8008481425
 20
899.4829368236
 30
0.0
 11
95.9799412818
 21
899.4829368236
 31
0.0
  0
LINE
  5
259
330
1F
100
AcDbEntity
  8
0
  6
Continuous
 62
     7
370
    25
100
AcDbLine
 10
95.9799412818
 20
778.7952622964
 30
0.0
 11
95.9481871184
 21
778.7952622964
 31
0.0
  0
LINE
  5
25A
330
1F
100
AcDbEntity
  8
0
  6
Continuous
 62
     7
370
    25
100
AcDbLine
 10
53.227842867
 20
823.7572737623
 30
0.0
 11
77.5519598206
 21
898.6192080666
 31
0.0
  0
LINE
  5
25B
330
1F
100
AcDbEntity
  8
0
  6
Continuous
 62
     7
370
    25
100
AcDbLine
 10
52.466997654
 20
824.0044873578
 30
0.0
 11
76.7911146075
 21
898.8664216621
 31
0.0
  0
LINE
  5
25C
330
1F
100
AcDbEntity
  8
0
  6
Continuous
 62
     7
370
    25
100
AcDbLine
 10
34.7654808726
 20
778.7275476966
 30
0.0
 11
22.3467787262
 21
793.527580595
 31
0.0
  0
LINE
  5
25D
330
1F
100
AcDbEntity
  8
0
  6
Continuous
 62
     7
370
    25
100
AcDbLine
 10
35.3783164271
 20
779.2417777843
 30
0.0
 11
22.9596142807
 21
794.0418106828
 31
0.0
  0
LINE
  5
25E
330
1F
100
AcDbEntity
  8
0
  6
Continuous
 62
     7
370
    25
100
AcDbLine
 10
94.9799412818
 20
777.9952622964
 30
0.0
 11
36.335871981
 21
777.9952622964
 31
0.0
  0
LINE
  5
25F
330
1F
100
AcDbEntity
  8
0
  6
Continuous
 62
     7
370
    25
100
AcDbLine
 10
94.9799412818
 20
778.7952622964
 30
0.0
 11
36.335871981
 21
778.7952622964
 31
0.0
  0
ARC
  5
260
330
1F
100
AcDbEntity
  8
0
  6
Continuous
 62
     7
370
    25
100
AcDbCircle
 10
42.9564324911
 20
827.0946573015
 30
0.0
 40
10.80000000000004
100
AcDbArc
 50
290.0
 51
342.0
  0
ARC
  5
261
330
1F
100
AcDbEntity
  8
0
  6
Continuous
 62
     7
370
    25
100
AcDbCircle
 10
42.9564324911
 20
827.0946573015
 30
0.0
 40
9.999999999999986
100
AcDbArc
 50
290.0
 51
342.0
  0
ARC
  5
262
330
1F
100
AcDbEntity
  8
0
  6
Continuous
 62
     7
370
    25
100
AcDbCircle
 10
30.6200587118
 20
800.4696867796
 30
0.0
 40
10.00000000000009
100
AcDbArc
 50
110.0
 51
220.0
  0
ARC
  5
263
330
1F
100
AcDbEntity
  8
0
  6
Continuous
 62
     7
370
    25
100
AcDbCircle
 10
30.6200587118
 20
800.4696867796
 30
0.0
 40
10.80000000000006
100
AcDbArc
 50
110.0
 51
220.0
  0
LINE
  5
264
330
1F
100
AcDbEntity
  8
0
  6
Continuous
 62
     7
370
    25
100
AcDbLine
 10
26.9262411639
 20
810.6183670841
 30
0.0
 11
46.3766339243
 21
817.6977310937
 31
0.0
  0
LINE
  5
265
330
1F
100
AcDbEntity
  8
0
  6
Continuous
 62
     7
370
    25
100
AcDbLine
 10
27.1998572786
 20
809.8666129875
 30
0.0
 11
46.650250039
 21
816.9459769971
 31
0.0
  0
ARC
  5
266
330
1F
100
AcDbEntity
  8
0
  6
Continuous
 62
     7
370
    25
100
AcDbCircle
 10
36.335871981
 20
780.0452622964
 30
0.0
 40
2.049999999999977
100
AcDbArc
 50
220.0
 51
270.0
  0
ARC
  5
267
330
1F
100
AcDbEntity
  8
0
  6
Continuous
 62
     7
370
    25
100
AcDbCircle
 10
36.335871981
 20
780.0452622964
 30
0.0
 40
1.24999999999999
100
AcDbArc
 50
220.0
 51
270.0
  0
LINE
  5
268
330
1F
100
AcDbEntity
  8
0
  6
Continuous
 62
     7
370
    25
100
AcDbLine
 10
96.9799412818
 20
778.7952622964
 30
0.0
 11
96.9799412818
 21
777.9952622964
 31
0.0
  0
LINE
  5
269
330
1F
100
AcDbEntity
  8
0
  6
Continuous
 62
     7
370
    25
100
AcDbLine
 10
96.9799412818
 20
777.9952622964
 30
0.0
 11
94.9799412818
 21
777.9952622964
 31
0.0
  0
LINE
  5
26A
330
1F
100
AcDbEntity
  8
0
  6
Continuous
 62
     7
370
    25
100
AcDbLine
 10
94.9799412818
 20
778.7952622964
 30
0.0
 11
96.9799412818
 21
778.7952622964
 31
0.0
  0
ARC
  5
26B
330
1F
100
AcDbEntity
  8
0
  6
Continuous
 62
     7
370
    25
100
AcDbCircle
 10
78.740780466
 20
898.2329368236
 30
0.0
 40
2.049999999999955
100
AcDbArc
 50
90.0
 51
162.0
  0
ARC
  5
26C
330
1F
100
AcDbEntity
  8
0
  6
Continuous
 62
     7
370
    25
100
AcDbCircle
 10
78.740780466
 20
898.2329368236
 30
0.0
 40
1.249999999999896
100
AcDbArc
 50
90.0
 51
162.0
  0
LINE
  5
26D
330
1F
100
AcDbEntity
  8
0
  6
Continuous
 62
     7
370
    25
100
AcDbLine
 10
94.8326023059
 20
899.4829368236
 30
0.0
 11
78.740780466
 21
899.4829368236
 31
0.0
  0
LINE
  5
26E
330
1F
100
AcDbEntity
  8
0
  6
Continuous
 62
     7
370
    25
100
AcDbLine
 10
94.8326023059
 20
900.2829368236
 30
0.0
 11
78.740780466
 21
900.2829368236
 31
0.0
  0
LINE
  5
26F
330
1F
100
AcDbEntity
  8
0
  6
Continuous
 62
     7
370
    25
100
AcDbLine
 10
96.8326023059
 20
900.2829368236
 30
0.0
 11
96.8326023059
 21
899.4829368236
 31
0.0
  0
LINE
  5
270
330
1F
100
AcDbEntity
  8
0
  6
Continuous
 62
     7
370
    25
100
AcDbLine
 10
96.8326023059
 20
899.4829368236
 30
0.0
 11
95.9799412818
 21
899.4829368236
 31
0.0
  0
LINE
  5
271
330
1F
100
AcDbEntity
  8
0
  6
Continuous
 62
     7
370
    25
100
AcDbLine
 10
95.8008481425
 20
899.4829368236
 30
0.0
 11
94.8326023059
 21
899.4829368236
 31
0.0
  0
LINE
  5
272
330
1F
100
AcDbEntity
  8
0
  6
Continuous
 62
     7
370
    25
100
AcDbLine
 10
94.9299412878
 20
900.2829368236
 30
0.0
 11
96.8326023059
 21
900.2829368236
 31
0.0
  0
LINE
  5
273
330
1F
100
AcDbEntity
  8
0
  6
Continuous
 62
     7
370
    25
100
AcDbLine
 10
68.0131165139
 20
903.7633170548
 30
0.0
 11
76.1203710594
 21
900.153734772
 31
0.0
  0
LINE
  5
274
330
1F
100
AcDbEntity
  8
0
  6
Continuous
 62
     7
370
    25
100
AcDbLine
 10
67.6877271994
 20
903.0324806887
 30
0.0
 11
75.7949817449
 21
899.4228984059
 31
0.0
  0
LINE
  5
275
330
1F
100
AcDbEntity
  8
0
  6
Continuous
 62
     7
370
    25
100
AcDbLine
 10
63.4453892256
 20
905.7970002702
 30
0.0
 11
63.1199999112
 21
905.0661639041
 31
0.0
  0
LINE
  5
276
330
1F
100
AcDbEntity
  8
0
  6
Continuous
 62
     7
370
    25
100
AcDbLine
 10
63.4453892256
 20
905.7970002702
 30
0.0
 11
68.0131165139
 21
903.7633170548
 31
0.0
  0
LINE
  5
277
330
1F
100
AcDbEntity
  8
0
  6
Continuous
 62
     7
370
    25
100
AcDbLine
 10
63.1199999112
 20
905.0661639041
 30
0.0
 11
67.6877271994
 21
903.0324806887
 31
0.0
  0
ARC
  5
278
330
1F
100
AcDbEntity
  8
0
  6
Continuous
 62
     7
370
    25
100
AcDbCircle
 10
75.2865609411
 20
898.2809665838
 30
0.0
 40
1.250000000000058
100
AcDbArc
 50
342.0
 51
66.0
  0
ARC
  5
279
330
1F
100
AcDbEntity
  8
0
  6
Continuous
 62
     7
370
    25
100
AcDbCircle
 10
75.2865609411
 20
898.2809665838
 30
0.0
 40
2.050000000000156
100
AcDbArc
 50
31.7904482413
 51
66.0
  0
LINE
  5
27A
330
1F
100
AcDbEntity
  8
0
  6
Continuous
 62
     7
370
    25
100
AcDbLine
 10
77.0717570929
 20
899.7301504191
 30
0.0
 11
77.2735186079
 21
899.6645941289
 31
0.0
  0
LINE
  5
27B
330
1F
100
AcDbEntity
  8
0
  6
Continuous
 62
     7
370
    25
100
AcDbLine
 10
77.0717570929
 20
899.7301504191
 30
0.0
 11
76.9774747724
 21
899.4399792736
 31
0.0
  0
ARC
  5
27C
330
1F
100
AcDbEntity
  8
0
  6
Continuous
 62
     7
370
    25
100
AcDbCircle
 10
78.9533129093
 20
898.8870444256
 30
0.0
 40
2.049999999999781
100
AcDbArc
 50
142.0
 51
155.8278304165
  0
LINE
  5
27D
330
1F
100
AcDbEntity
  8
0
  6
Continuous
 62
     7
370
    25
100
AcDbLine
 10
77.3378908644
 20
900.14915045
 30
0.0
 11
77.6625783102
 21
900.5647314293
 31
0.0
  0
LINE
  5
27E
330
1F
100
AcDbEntity
  8
0
  6
Continuous
 62
     7
370
    25
100
AcDbLine
 10
78.4403364606
 20
900.2608010695
 30
0.0
 11
78.5041949034
 21
900.3425361489
 31
0.0
  0
SPLINE
  5
27F
330
1F
100
AcDbEntity
  8
0
  6
Continuous
 62
     7
370
    25
100
AcDbSpline
210
0.0
220
0.0
230
1.0
 70
     8
 71
     3
 72
    13
 73
     9
 74
     0
 42
0.000000001
 43
0.00000001
 40
0.0
 40
0.0
 40
0.0
 40
0.0
 40
0.1336921125945786
 40
0.261330984226496
 40
0.3835549177803666
 40
0.5010915032723825
 40
0.7072834188121452
 40
1.0
 40
1.0
 40
1.0
 40
1.0
 10
805.3799412877855
 20
954.075865755772
 30
0.0
 10
805.3682847658802
 20
954.0625190665327
 30
0.0
 10
805.3454994999205
 20
954.0364299924101
 30
0.0
 10
805.1723756433864
 20
953.9547070332794
 30
0.0
 10
804.9259244467324
 20
953.8425781010759
 30
0.0
 10
804.5413260582785
 20
953.6571888193472
 30
0.0
 10
803.8963806034386
 20
953.3168865859241
 30
0.0
 10
803.287298350233
 20
953.0118853231338
 30
0.0
 10
802.9299412877856
 20
952.8329368235841
 30
0.0
  0
LINE
  5
280
330
1F
100
AcDbEntity
  8
0
  6
Continuous
 62
     7
370
    25
100
AcDbLine
 10
805.3799412878
 20
917.6829368236
 30
0.0
 11
805.3799412878
 21
954.0758657558
 31
0.0
  0
LINE
  5
281
330
1F
100
AcDbEntity
  8
0
  6
Continuous
 62
     7
370
    25
100
AcDbLine
 10
802.9299412878
 20
917.6829368236
 30
0.0
 11
805.3799412878
 21
917.6829368236
 31
0.0
  0
LINE
  5
282
330
1F
100
AcDbEntity
  8
0
  6
Continuous
 62
     7
370
    25
100
AcDbLine
 10
153.8899412878
 20
955.2829368236
 30
0.0
 11
750.3799412878
 21
955.2829368236
 31
0.0
  0
SPLINE
  5
283
330
1F
100
AcDbEntity
  8
0
  6
Continuous
 62
     7
370
    25
100
AcDbSpline
210
0.0
220
0.0
230
1.0
 70
     8
 71
     3
 72
    12
 73
     8
 74
     0
 42
0.000000001
 43
0.00000001
 40
0.0
 40
0.0
 40
0.0
 40
0.0
 40
0.2256471098599669
 40
0.4513366839867235
 40
0.6770264566945672
 40
0.9027160158545874
 40
1.0
 40
1.0
 40
1.0
 40
1.0
 10
802.9299412877855
 20
952.8329368235841
 30
0.0
 10
803.023461395401
 20
953.1224334186551
 30
0.0
 10
803.2105192100723
 20
953.7014810888243
 30
0.0
 10
803.4911595661563
 20
954.4628872511163
 30
0.0
 10
803.7716395216768
 20
955.0179491352097
 30
0.0
 10
803.9994706841629
 20
955.258083625358
 30
0.0
 10
804.1327305518162
 20
955.2771836413463
 30
0.0
 10
804.1728702199738
 20
955.282936823584
 30
0.0
  0
LINE
  5
284
330
1F
100
AcDbEntity
  8
0
  6
Continuous
 62
     7
370
    25
100
AcDbLine
 10
153.8899412878
 20
955.2829368236
 30
0.0
 11
153.8899412878
 21
952.8329368236
 31
0.0
  0
LINE
  5
285
330
1F
100
AcDbEntity
  8
0
  6
Continuous
 62
     7
370
    25
100
AcDbLine
 10
153.8899412878
 20
917.6829368236
 30
0.0
 11
802.9299412878
 21
917.6829368236
 31
0.0
  0
LINE
  5
286
330
1F
100
AcDbEntity
  8
0
  6
Continuous
 62
     7
370
    25
100
AcDbLine
 10
153.8899412878
 20
952.8329368236
 30
0.0
 11
153.8899412878
 21
917.6829368236
 31
0.0
  0
LINE
  5
287
330
1F
100
AcDbEntity
  8
0
  6
Continuous
 62
     7
370
    25
100
AcDbLine
 10
804.17287022
 20
954.0829368236
 30
0.0
 11
804.17287022
 21
955.2829368236
 31
0.0
  0
SPLINE
  5
288
330
1F
100
AcDbEntity
  8
0
  6
Continuous
 62
     7
370
    25
100
AcDbSpline
210
0.0
220
0.0
230
1.0
 70
     8
 71
     3
 72
    11
 73
     7
 74
     0
 42
0.000000001
 43
0.00000001
 40
0.0
 40
0.0
 40
0.0
 40
0.0
 40
0.2657210447342478
 40
0.5202381807569144
 40
0.7747258001506648
 40
1.0
 40
1.0
 40
1.0
 40
1.0
 10
802.9299412877855
 20
952.8329368235841
 30
0.0
 10
803.0401080386459
 20
953.00712949487
 30
0.0
 10
803.2557964501709
 20
953.3481701471137
 30
0.0
 10
803.5767337131863
 20
953.7670409363246
 30
0.0
 10
803.8811141403628
 20
954.0350799528128
 30
0.0
 10
804.0796478659298
 20
954.0676455221778
 30
0.0
 10
804.1728702199738
 20
954.0829368235841
 30
0.0
  0
LWPOLYLINE
  5
289
330
1F
100
AcDbEntity
  8
0
  6
Continuous
 62
     7
370
    25
100
AcDbPolyline
 90
        2
 70
   128
 43
0.0
 10
802.9299412878
 20
952.8329368236
 10
802.9299412878
 20
952.8329368236
  0
SPLINE
  5
28A
330
1F
100
AcDbEntity
  8
0
  6
Continuous
 62
     7
370
    25
100
AcDbSpline
210
0.0
220
0.0
230
1.0
 70
     8
 71
     3
 72
    13
 73
     9
 74
     0
 42
0.000000001
 43
0.00000001
 40
0.0
 40
0.0
 40
0.0
 40
0.0
 40
0.1182968544160217
 40
0.2337751511479818
 40
0.3483788298718261
 40
0.4640967207804225
 40
0.6803948286592517
 40
1.0
 40
1.0
 40
1.0
 40
1.0
 10
804.1799412877856
 20
954.075865755772
 30
0.0
 10
804.173877071361
 20
954.0624108340081
 30
0.0
 10
804.1618931253948
 20
954.0358215693603
 30
0.0
 10
804.072119903175
 20
953.9530150294754
 30
0.0
 10
803.9448217200611
 20
953.839433245534
 30
0.0
 10
803.7441659785165
 20
953.649364066935
 30
0.0
 10
803.414719885322
 20
953.3083684867665
 30
0.0
 10
803.1110473266874
 20
953.0105509875035
 30
0.0
 10
802.9299412877856
 20
952.8329368235841
 30
0.0
  0
LINE
  5
28B
330
1F
100
AcDbEntity
  8
0
  6
Continuous
 62
     7
370
    25
100
AcDbLine
 10
805.3799412878
 20
954.0758657558
 30
0.0
 11
804.1799412878
 21
954.0758657558
 31
0.0
  0
LINE
  5
28C
330
1F
100
AcDbEntity
  8
0
  6
Continuous
 62
     7
370
    25
100
AcDbLine
 10
76.207323937
 20
900.9489332808
 30
0.0
 11
78.7299412878
 21
900.2829368236
 31
0.0
  0
LINE
  5
28D
330
1F
100
AcDbEntity
  8
0
  6
Continuous
 62
     7
370
    25
100
AcDbLine
 10
72.8381454412
 20
903.2317246123
 30
0.0
 11
72.5403920134
 21
902.5433621378
 31
0.0
  0
LINE
  5
28E
330
1F
100
AcDbEntity
  8
0
  6
Continuous
 62
     7
370
    25
100
AcDbLine
 10
53.3047658568
 20
911.7250797804
 30
0.0
 11
72.8381454412
 21
903.2317246123
 31
0.0
  0
LINE
  5
28F
330
1F
100
AcDbEntity
  8
0
  6
Continuous
 62
     7
370
    25
100
AcDbLine
 10
61.8631327893
 20
952.7829368236
 30
0.0
 11
61.8631327893
 21
954.071522111
 31
0.0
  0
LINE
  5
290
330
1F
100
AcDbEntity
  8
0
  6
Continuous
 62
     7
370
    25
100
AcDbLine
 10
62.1131327893
 20
952.7829368236
 30
0.0
 11
61.8631327893
 21
952.7829368236
 31
0.0
  0
LINE
  5
291
330
1F
100
AcDbEntity
  8
0
  6
Continuous
 62
     7
370
    25
100
AcDbLine
 10
62.1131327893
 20
952.8329368236
 30
0.0
 11
62.1131327893
 21
952.7829368236
 31
0.0
  0
LINE
  5
292
330
1F
100
AcDbEntity
  8
0
  6
Continuous
 62
     7
370
    25
100
AcDbLine
 10
153.4299412878
 20
917.6829368236
 30
0.0
 11
153.4299412878
 21
952.8329368236
 31
0.0
  0
LINE
  5
293
330
1F
100
AcDbEntity
  8
0
  6
Continuous
 62
     7
370
    25
100
AcDbLine
 10
96.9299412878
 20
917.6829368236
 30
0.0
 11
153.4299412878
 21
917.6829368236
 31
0.0
  0
ARC
  5
294
330
1F
100
AcDbEntity
  8
0
  6
Continuous
 62
     7
370
    25
100
AcDbCircle
 10
94.9299412878
 20
902.2829368236
 30
0.0
 40
2.0
100
AcDbArc
 50
270.0
 51
360.0
  0
LINE
  5
295
330
1F
100
AcDbEntity
  8
0
  6
Continuous
 62
     7
370
    25
100
AcDbLine
 10
78.7299412878
 20
900.2829368236
 30
0.0
 11
94.9299412878
 21
900.2829368236
 31
0.0
  0
ARC
  5
296
330
1F
100
AcDbEntity
  8
0
  6
Continuous
 62
     7
370
    25
100
AcDbCircle
 10
75.1131327893
 20
922.2883777599
 30
0.0
 40
0.2503511010932207
100
AcDbArc
 50
79.8945592916
 51
255.7948950782
  0
ARC
  5
297
330
1F
100
AcDbEntity
  8
0
  6
Continuous
 62
     7
370
    25
100
AcDbCircle
 10
74.6131327893
 20
919.4829368236
 30
0.0
 40
2.600000000000103
100
AcDbArc
 50
279.7110222516
 51
80.2889777484
  0
ARC
  5
298
330
1F
100
AcDbEntity
  8
0
  6
Continuous
 62
     7
370
    25
100
AcDbCircle
 10
75.1131327893
 20
916.6774958873
 30
0.0
 40
0.2503511010932207
100
AcDbArc
 50
104.2051049218
 51
280.1054407084
  0
ARC
  5
299
330
1F
100
AcDbEntity
  8
0
  6
Continuous
 62
     7
370
    25
100
AcDbCircle
 10
74.6131327893
 20
919.4829368236
 30
0.0
 40
3.10000000000006
100
AcDbArc
 50
280.1054407084
 51
79.8945592916
  0
ARC
  5
29A
330
1F
100
AcDbEntity
  8
0
  6
Continuous
 62
     7
370
    25
100
AcDbCircle
 10
74.6131327893
 20
919.4829368236
 30
0.0
 40
3.10000000000006
100
AcDbArc
 50
100.1054407084
 51
259.8945592916
  0
ARC
  5
29B
330
1F
100
AcDbEntity
  8
0
  6
Continuous
 62
     7
370
    25
100
AcDbCircle
 10
74.1131327893
 20
916.6774958873
 30
0.0
 40
0.2503511010932207
100
AcDbArc
 50
259.8945592916
 51
75.7948950782
  0
ARC
  5
29C
330
1F
100
AcDbEntity
  8
0
  6
Continuous
 62
     7
370
    25
100
AcDbCircle
 10
74.6131327893
 20
919.4829368236
 30
0.0
 40
2.600000000000084
100
AcDbArc
 50
99.7110222516
 51
260.2889777484
  0
ARC
  5
29D
330
1F
100
AcDbEntity
  8
0
  6
Continuous
 62
     7
370
    25
100
AcDbCircle
 10
74.1131327893
 20
922.2883777599
 30
0.0
 40
0.2503511010932207
100
AcDbArc
 50
284.2051049219
 51
100.1054407084
  0
LINE
  5
29E
330
1F
100
AcDbEntity
  8
0
  6
Continuous
 62
     7
370
    25
100
AcDbLine
 10
96.9299412878
 20
902.2829368236
 30
0.0
 11
96.9299412878
 21
917.6829368236
 31
0.0
  0
ARC
  5
29F
330
1F
100
AcDbEntity
  8
0
  6
Continuous
 62
     7
370
    25
100
AcDbCircle
 10
62.1131327893
 20
931.9829368236
 30
0.0
 40
22.09000000000002
100
AcDbArc
 50
90.648449555
 51
246.5
  0
LINE
  5
2A0
330
1F
100
AcDbEntity
  8
0
  6
Continuous
 62
     7
370
    25
100
AcDbLine
 10
72.5403920134
 20
902.5433621378
 30
0.0
 11
76.207323937
 21
900.9489332808
 31
0.0
  0
LINE
  5
2A1
330
1F
100
AcDbEntity
  8
0
  6
Continuous
 62
     7
370
    25
100
AcDbLine
 10
153.4299412878
 20
955.2829368236
 30
0.0
 11
153.4299412878
 21
952.8329368236
 31
0.0
  0
LINE
  5
2A2
330
1F
100
AcDbEntity
  8
0
  6
Continuous
 62
     7
370
    25
100
AcDbLine
 10
62.1131327893
 20
952.8329368236
 30
0.0
 11
62.1131327893
 21
954.9459678219
 31
0.0
  0
LINE
  5
2A3
330
1F
100
AcDbEntity
  8
0
  6
Continuous
 62
     7
370
    25
100
AcDbLine
 10
62.1131327893
 20
955.2829368236
 30
0.0
 11
153.4299412878
 21
955.2829368236
 31
0.0
  0
ARC
  5
2A4
330
1F
100
AcDbEntity
  8
0
  6
Continuous
 62
     7
370
    25
100
AcDbCircle
 10
62.1131327893
 20
931.9829368236
 30
0.0
 40
22.10000000000008
100
AcDbArc
 50
90.0
 51
246.5
  0
LINE
  5
2A5
330
1F
100
AcDbEntity
  8
0
  6
Continuous
 62
     7
370
    25
100
AcDbLine
 10
62.1131327893
 20
955.2829368236
 30
0.0
 11
62.1131327893
 21
954.9459678219
 31
0.0
  0
ARC
  5
2A6
330
1F
100
AcDbEntity
  8
0
  6
Continuous
 62
     7
370
    25
100
AcDbCircle
 10
62.1131327893
 20
931.9829368236
 30
0.0
 40
23.30000000000003
100
AcDbArc
 50
90.0
 51
246.5
  0
LINE
  5
2A7
330
1F
100
AcDbEntity
  8
0
  6
Continuous
 62
     7
370
    25
100
AcDbLine
 10
76.176806808
 20
900.9622025061
 30
0.0
 11
75.9933822363
 21
900.5403548719
 31
0.0
  0
LINE
  5
2A8
330
1F
100
AcDbEntity
  8
0
  6
Continuous
 62
     7
370
    25
100
AcDbLine
 10
75.9933822363
 20
900.5403548719
 30
0.0
 11
52.8222794834
 21
910.6154370904
 31
0.0
  0
LINE
  5
2A9
330
1F
100
AcDbEntity
  8
0
  6
Continuous
 62
     7
370
    25
100
AcDbLine
 10
72.8341753883
 20
903.2225464294
 30
0.0
 11
53.3007783661
 21
911.7159091797
 31
0.0
  0
LINE
  5
2AA
330
1F
100
AcDbEntity
  8
0
  6
Continuous
 62
     7
370
    25
100
AcDbLine
 10
153.8899412878
 20
955.239365713
 30
0.0
 11
153.4299412878
 21
955.2829368236
 31
0.0
  0
LWPOLYLINE
  5
2AB
330
1F
100
AcDbEntity
  8
0
  6
Continuous
 62
     7
370
    25
100
AcDbPolyline
 90
        3
 70
   128
 43
0.0
 10
153.8899412878
 20
953.9952190613
 10
153.6738041903
 20
954.0589184241
 10
153.4299412878
 20
954.0829368236
  0
ARC
  5
2AC
330
1F
100
AcDbEntity
  8
0
  6
Continuous
 62
     7
370
    25
100
AcDbCircle
 10
153.4299412878
 20
952.8329368236
 30
0.0
 40
0.4500000000007276
100
AcDbArc
 50
0.0000000002
 51
90.0000000001
  0
LINE
  5
2AD
330
1F
100
AcDbEntity
  8
0
  6
Continuous
 62
     7
370
    25
100
AcDbLine
 10
153.8799412878
 20
927.8829368236
 30
0.0
 11
153.8799412878
 21
952.8329368236
 31
0.0
  0
LINE
  5
2AE
330
1F
100
AcDbEntity
  8
0
  6
Continuous
 62
     7
370
    25
100
AcDbLine
 10
58.7299412878
 20
758.4258300424
 30
0.0
 11
58.7299412878
 21
759.1258657558
 31
0.0
  0
LINE
  5
2AF
330
1F
100
AcDbEntity
  8
0
  6
Continuous
 62
     7
370
    25
100
AcDbLine
 10
58.3799412878
 20
241.5329368236
 30
0.0
 11
58.7299412878
 21
241.5329368236
 31
0.0
  0
LINE
  5
2B0
330
1F
100
AcDbEntity
  8
0
  6
Continuous
 62
     7
370
    25
100
AcDbLine
 10
46.0767066555
 20
245.5329368236
 30
0.0
 11
46.1873913622
 21
245.5329368236
 31
0.0
  0
LINE
  5
2B1
330
1F
100
AcDbEntity
  8
0
  6
Continuous
 62
     7
370
    25
100
AcDbLine
 10
45.071362644
 20
755.1329368236
 30
0.0
 11
44.9299412878
 21
755.1329368236
 31
0.0
  0
LINE
  5
2B2
330
1F
100
AcDbEntity
  8
0
  6
Continuous
 62
     7
370
    25
100
AcDbLine
 10
58.7299412878
 20
759.1258657558
 30
0.0
 11
58.3799412878
 21
759.1258657558
 31
0.0
  0
LINE
  5
2B3
330
1F
100
AcDbEntity
  8
0
  6
Continuous
 62
     7
370
    25
100
AcDbLine
 10
51.9799412878
 20
739.6829368236
 30
0.0
 11
51.9799412878
 21
741.2829368236
 31
0.0
  0
LINE
  5
2B4
330
1F
100
AcDbEntity
  8
0
  6
Continuous
 62
     7
370
    25
100
AcDbLine
 10
51.9799412878
 20
741.2829368236
 30
0.0
 11
51.9719848634
 21
741.4472187098
 31
0.0
  0
LINE
  5
2B5
330
1F
100
AcDbEntity
  8
0
  6
Continuous
 62
     7
370
    25
100
AcDbLine
 10
48.5878977062
 20
741.4472186481
 30
0.0
 11
48.5799412878
 21
741.2829368236
 31
0.0
  0
LINE
  5
2B6
330
1F
100
AcDbEntity
  8
0
  6
Continuous
 62
     7
370
    25
100
AcDbLine
 10
48.5799412878
 20
741.2829368236
 30
0.0
 11
48.5799412878
 21
739.6829368236
 31
0.0
  0
LINE
  5
2B7
330
1F
100
AcDbEntity
  8
0
  6
Continuous
 62
     7
370
    25
100
AcDbLine
 10
48.5799412878
 20
739.6829368236
 30
0.0
 11
48.5806768081
 21
739.6329345441
 31
0.0
  0
LINE
  5
2B8
330
1F
100
AcDbEntity
  8
0
  6
Continuous
 62
     7
370
    25
100
AcDbLine
 10
51.9792057686
 20
739.6329345805
 30
0.0
 11
51.9799412878
 21
739.6829368236
 31
0.0
  0
LINE
  5
2B9
330
1F
100
AcDbEntity
  8
0
  6
Continuous
 62
     7
370
    25
100
AcDbLine
 10
51.9799412878
 20
494.8829368236
 30
0.0
 11
51.9799412878
 21
496.4829368236
 31
0.0
  0
LINE
  5
2BA
330
1F
100
AcDbEntity
  8
0
  6
Continuous
 62
     7
370
    25
100
AcDbLine
 10
51.9799412878
 20
496.4829368236
 30
0.0
 11
51.9792062562
 21
496.5329224944
 31
0.0
  0
LINE
  5
2BB
330
1F
100
AcDbEntity
  8
0
  6
Continuous
 62
     7
370
    25
100
AcDbLine
 10
48.5806763126
 20
496.532922262
 30
0.0
 11
48.5799412878
 21
496.4829368236
 31
0.0
  0
LINE
  5
2BC
330
1F
100
AcDbEntity
  8
0
  6
Continuous
 62
     7
370
    25
100
AcDbLine
 10
48.5799412878
 20
496.4829368236
 30
0.0
 11
48.5799412878
 21
494.8829368236
 31
0.0
  0
LINE
  5
2BD
330
1F
100
AcDbEntity
  8
0
  6
Continuous
 62
     7
370
    25
100
AcDbLine
 10
48.5799412878
 20
494.8829368236
 30
0.0
 11
48.5806762595
 21
494.8329531888
 31
0.0
  0
LINE
  5
2BE
330
1F
100
AcDbEntity
  8
0
  6
Continuous
 62
     7
370
    25
100
AcDbLine
 10
51.9792063084
 20
494.8329529277
 30
0.0
 11
51.9799412878
 21
494.8829368236
 31
0.0
  0
LINE
  5
2BF
330
1F
100
AcDbEntity
  8
0
  6
Continuous
 62
     7
370
    25
100
AcDbLine
 10
51.9799412878
 20
258.0829368236
 30
0.0
 11
51.9799412878
 21
259.6829368236
 31
0.0
  0
LINE
  5
2C0
330
1F
100
AcDbEntity
  8
0
  6
Continuous
 62
     7
370
    25
100
AcDbLine
 10
51.9799412878
 20
259.6829368236
 30
0.0
 11
51.9792060039
 21
259.7329310699
 31
0.0
  0
LINE
  5
2C1
330
1F
100
AcDbEntity
  8
0
  6
Continuous
 62
     7
370
    25
100
AcDbLine
 10
48.580676569
 20
259.7329309766
 30
0.0
 11
48.5799412878
 21
259.6829368236
 31
0.0
  0
LINE
  5
2C2
330
1F
100
AcDbEntity
  8
0
  6
Continuous
 62
     7
370
    25
100
AcDbLine
 10
48.5799412878
 20
259.6829368236
 30
0.0
 11
48.5799412878
 21
258.0829368236
 31
0.0
  0
LINE
  5
2C3
330
1F
100
AcDbEntity
  8
0
  6
Continuous
 62
     7
370
    25
100
AcDbLine
 10
48.5799412878
 20
258.0829368236
 30
0.0
 11
48.5878976739
 21
257.9186553314
 31
0.0
  0
LINE
  5
2C4
330
1F
100
AcDbEntity
  8
0
  6
Continuous
 62
     7
370
    25
100
AcDbLine
 10
51.9719848952
 20
257.9186552644
 30
0.0
 11
51.9799412878
 21
258.0829368236
 31
0.0
  0
LINE
  5
2C5
330
1F
100
AcDbEntity
  8
0
  6
Continuous
 62
     7
370
    25
100
AcDbLine
 10
60.7799412878
 20
241.5329368236
 30
0.0
 11
58.7299412878
 21
241.5329368236
 31
0.0
  0
SPLINE
  5
2C6
330
1F
100
AcDbEntity
  8
0
  6
Continuous
 62
     7
370
    25
100
AcDbSpline
210
0.0
220
0.0
230
1.0
 70
     8
 71
     3
 72
    11
 73
     7
 74
     0
 42
0.000000001
 43
0.00000001
 40
0.0
 40
0.0
 40
0.0
 40
0.0
 40
0.2500000000000064
 40
0.5000000000000152
 40
0.7500000000000068
 40
1.0
 40
1.0
 40
1.0
 40
1.0
 10
58.72994128780451
 20
758.4258300423959
 30
0.0
 10
58.99856722760738
 20
758.380588940828
 30
0.0
 10
59.53581910721289
 20
758.2901067376926
 30
0.0
 10
60.21343622826164
 20
758.154383432989
 30
0.0
 10
60.68749711516253
 20
758.0186601282857
 30
0.0
 10
60.74912656359055
 20
757.9281779251502
 30
0.0
 10
60.77994128780462
 20
757.8829368235823
 30
0.0
  0
LINE
  5
2C7
330
1F
100
AcDbEntity
  8
0
  6
Continuous
 62
     7
370
    25
100
AcDbLine
 10
60.7799412878
 20
757.8829368236
 30
0.0
 11
60.7799412878
 21
241.5329368236
 31
0.0
  0
LINE
  5
2C8
330
1F
100
AcDbEntity
  8
0
  6
Continuous
 62
     7
370
    25
100
AcDbLine
 10
58.7299412878
 20
759.1329368236
 30
0.0
 11
58.3799412878
 21
759.1329368236
 31
0.0
  0
LINE
  5
2C9
330
1F
100
AcDbEntity
  8
0
  6
Continuous
 62
     7
370
    25
100
AcDbLine
 10
58.7299412878
 20
759.9329368236
 30
0.0
 11
58.3799412878
 21
759.9329368236
 31
0.0
  0
LINE
  5
2CA
330
1F
100
AcDbEntity
  8
0
  6
Continuous
 62
     7
370
    25
100
AcDbLine
 10
58.7299412878
 20
759.9329368236
 30
0.0
 11
58.7299412878
 21
759.1329368236
 31
0.0
  0
SPLINE
  5
2CB
330
1F
100
AcDbEntity
  8
0
  6
Continuous
 62
     7
370
    25
100
AcDbSpline
210
0.0
220
0.0
230
1.0
 70
     8
 71
     3
 72
    11
 73
     7
 74
     0
 42
0.000000001
 43
0.00000001
 40
0.0
 40
0.0
 40
0.0
 40
0.0
 40
0.096328196154971
 40
0.39755213076996
 40
0.6987760653849844
 40
1.0
 40
1.0
 40
1.0
 40
1.0
 10
59.91521884377826
 20
758.208318522464
 30
0.0
 10
59.90715608599767
 20
758.2600084557187
 30
0.0
 10
59.87388061045107
 20
758.4733358502415
 30
0.0
 10
59.62858221795858
 20
758.7855141306212
 30
0.0
 10
59.22281249095068
 20
759.0770666202818
 30
0.0
 10
58.89423168885344
 20
759.1143134224825
 30
0.0
 10
58.72994128780473
 20
759.1329368235829
 30
0.0
  0
SPLINE
  5
2CC
330
1F
100
AcDbEntity
  8
0
  6
Continuous
 62
     7
370
    25
100
AcDbSpline
210
0.0
220
0.0
230
1.0
 70
     8
 71
     3
 72
    11
 73
     7
 74
     0
 42
0.000000001
 43
0.00000001
 40
0.0
 40
0.0
 40
0.0
 40
0.0
 40
0.2499999999999876
 40
0.4999999999999948
 40
0.7499999999999925
 40
1.0
 40
1.0
 40
1.0
 40
1.0
 10
60.77994128780473
 20
757.8829368235836
 30
0.0
 10
60.74912656359066
 20
758.1515627633861
 30
0.0
 10
60.68749711516247
 20
758.6888146429917
 30
0.0
 10
60.21343622826147
 20
759.3664317640403
 30
0.0
 10
59.53581910721301
 20
759.8404926509407
 30
0.0
 10
58.99856722760744
 20
759.9021220993689
 30
0.0
 10
58.72994128780473
 20
759.9329368235828
 30
0.0
  0
LINE
  5
2CD
330
1F
100
AcDbEntity
  8
0
  6
Continuous
 62
     7
370
    25
100
AcDbLine
 10
58.7299412878
 20
240.2329368236
 30
0.0
 11
58.3799412878
 21
240.2329368236
 31
0.0
  0
LINE
  5
2CE
330
1F
100
AcDbEntity
  8
0
  6
Continuous
 62
     7
370
    25
100
AcDbLine
 10
58.7299412878
 20
239.4329368236
 30
0.0
 11
58.3799412878
 21
239.4329368236
 31
0.0
  0
ARC
  5
2CF
330
1F
100
AcDbEntity
  8
0
  6
Continuous
 62
     7
370
    25
100
AcDbCircle
 10
58.7299412878
 20
241.4829368236
 30
0.0
 40
2.049999999999997
100
AcDbArc
 50
270.0
 51
0.0
  0
ARC
  5
2D0
330
1F
100
AcDbEntity
  8
0
  6
Continuous
 62
     7
370
    25
100
AcDbCircle
 10
58.7299412878
 20
241.4829368236
 30
0.0
 40
1.249999999999979
100
AcDbArc
 50
270.0
 51
0.0
  0
LINE
  5
2D1
330
1F
100
AcDbEntity
  8
0
  6
Continuous
 62
     7
370
    25
100
AcDbLine
 10
60.7799412878
 20
241.4829368236
 30
0.0
 11
60.7799412878
 21
241.5329368236
 31
0.0
  0
LINE
  5
2D2
330
1F
100
AcDbEntity
  8
0
  6
Continuous
 62
     7
370
    25
100
AcDbLine
 10
59.9799412878
 20
241.5329368236
 30
0.0
 11
59.9799412878
 21
241.4829368236
 31
0.0
  0
LINE
  5
2D3
330
1F
100
AcDbEntity
  8
0
  6
Continuous
 62
     7
370
    25
100
AcDbLine
 10
40.1799412878
 20
239.4329368236
 30
0.0
 11
40.1799412878
 21
240.1329368236
 31
0.0
  0
LINE
  5
2D4
330
1F
100
AcDbEntity
  8
0
  6
Continuous
 62
     7
370
    25
100
AcDbLine
 10
40.9299412878
 20
240.2329368236
 30
0.0
 11
41.071362644
 21
240.2329368236
 31
0.0
  0
LINE
  5
2D5
330
1F
100
AcDbEntity
  8
0
  6
Continuous
 62
     7
370
    25
100
AcDbLine
 10
40.9275187645
 20
239.4329368236
 30
0.0
 11
40.1799412878
 21
239.4329368236
 31
0.0
  0
LINE
  5
2D6
330
1F
100
AcDbEntity
  8
0
  6
Continuous
 62
     7
370
    25
100
AcDbLine
 10
40.1799412878
 20
759.2329368236
 30
0.0
 11
40.1799412878
 21
759.9329368236
 31
0.0
  0
LINE
  5
2D7
330
1F
100
AcDbEntity
  8
0
  6
Continuous
 62
     7
370
    25
100
AcDbLine
 10
41.071362644
 20
759.1329368236
 30
0.0
 11
40.9299412878
 21
759.1329368236
 31
0.0
  0
LINE
  5
2D8
330
1F
100
AcDbEntity
  8
0
  6
Continuous
 62
     7
370
    25
100
AcDbLine
 10
40.1799412878
 20
759.9329368236
 30
0.0
 11
40.9311639708
 21
759.9329368236
 31
0.0
  0
LINE
  5
2D9
330
1F
100
AcDbEntity
  8
0
  6
Continuous
 62
     7
370
    25
100
AcDbLine
 10
61.2799412878
 20
492.2329368236
 30
0.0
 11
61.2799412878
 21
508.2329368236
 31
0.0
  0
LINE
  5
2DA
330
1F
100
AcDbEntity
  8
0
  6
Continuous
 62
     7
370
    25
100
AcDbLine
 10
56.2958786746
 20
237.5829368236
 30
0.0
 11
57.6799412878
 21
237.5829368236
 31
0.0
  0
LINE
  5
2DB
330
1F
100
AcDbEntity
  8
0
  6
Continuous
 62
     7
370
    25
100
AcDbLine
 10
40.6799412878
 20
237.5829368236
 30
0.0
 11
56.2958786746
 21
237.5829368236
 31
0.0
  0
LINE
  5
2DC
330
1F
100
AcDbEntity
  8
0
  6
Continuous
 62
     7
370
    25
100
AcDbLine
 10
56.2958786746
 20
236.0829368236
 30
0.0
 11
57.6799412878
 21
236.0829368236
 31
0.0
  0
LINE
  5
2DD
330
1F
100
AcDbEntity
  8
0
  6
Continuous
 62
     7
370
    25
100
AcDbLine
 10
40.6799412878
 20
236.0829368236
 30
0.0
 11
56.2958786746
 21
236.0829368236
 31
0.0
  0
LWPOLYLINE
  5
2DE
330
1F
100
AcDbEntity
  8
0
  6
Continuous
 62
     7
370
    25
100
AcDbPolyline
 90
        3
 70
   128
 43
0.0
 10
44.6383219322
 20
238.0829368236
 10
44.5338802522
 20
237.8920401847
 10
44.5288997389
 20
237.8829368236
  0
LINE
  5
2DF
330
1F
100
AcDbEntity
  8
0
  6
Continuous
 62
     7
370
    25
100
AcDbLine
 10
44.8637673807
 20
237.8829368236
 30
0.0
 11
44.5288997389
 21
237.8829368236
 31
0.0
  0
LWPOLYLINE
  5
2E0
330
1F
100
AcDbEntity
  8
0
  6
Continuous
 62
     7
370
    25
100
AcDbPolyline
 90
        3
 70
   128
 43
0.0
 10
44.8637673807
 20
237.8829368236
 10
44.8687478939
 20
237.8920401847
 10
44.9731895739
 20
238.0829368236
  0
LINE
  5
2E1
330
1F
100
AcDbEntity
  8
0
  6
Continuous
 62
     7
370
    25
100
AcDbLine
 10
41.1799412878
 20
235.5829368236
 30
0.0
 11
42.8286884533
 21
235.5829368236
 31
0.0
  0
LINE
  5
2E2
330
1F
100
AcDbEntity
  8
0
  6
Continuous
 62
     7
370
    25
100
AcDbLine
 10
45.7750270292
 20
245.0829368236
 30
0.0
 11
45.9063733873
 21
245.0829368236
 31
0.0
  0
LINE
  5
2E3
330
1F
100
AcDbEntity
  8
0
  6
Continuous
 62
     7
370
    25
100
AcDbLine
 10
44.6383219322
 20
237.8829368236
 30
0.0
 11
44.6383219322
 21
238.0829368236
 31
0.0
  0
LINE
  5
2E4
330
1F
100
AcDbEntity
  8
0
  6
Continuous
 62
     7
370
    25
100
AcDbLine
 10
56.9901885412
 20
761.7829368236
 30
0.0
 11
40.6799412878
 21
761.7829368236
 31
0.0
  0
LINE
  5
2E5
330
1F
100
AcDbEntity
  8
0
  6
Continuous
 62
     7
370
    25
100
AcDbLine
 10
57.6799412878
 20
761.7829368236
 30
0.0
 11
56.9901885412
 21
761.7829368236
 31
0.0
  0
LINE
  5
2E6
330
1F
100
AcDbEntity
  8
0
  6
Continuous
 62
     7
370
    25
100
AcDbLine
 10
56.9901885412
 20
763.2829368236
 30
0.0
 11
40.6799412878
 21
763.2829368236
 31
0.0
  0
LINE
  5
2E7
330
1F
100
AcDbEntity
  8
0
  6
Continuous
 62
     7
370
    25
100
AcDbLine
 10
57.6799412878
 20
763.2829368236
 30
0.0
 11
56.9901885412
 21
763.2829368236
 31
0.0
  0
LINE
  5
2E8
330
1F
100
AcDbEntity
  8
0
  6
Continuous
 62
     7
370
    25
100
AcDbLine
 10
56.5307622322
 20
763.7829368236
 30
0.0
 11
41.1799412878
 21
763.7829368236
 31
0.0
  0
LINE
  5
2E9
330
1F
100
AcDbEntity
  8
0
  6
Continuous
 62
     7
370
    25
100
AcDbLine
 10
57.1799412878
 20
763.7829368236
 30
0.0
 11
56.5307622322
 21
763.7829368236
 31
0.0
  0
LINE
  5
2EA
330
1F
100
AcDbEntity
  8
0
  6
Continuous
 62
     7
370
    25
100
AcDbLine
 10
37.1799412878
 20
325.6841883884
 30
0.0
 11
37.1799412878
 21
269.6812915718
 31
0.0
  0
LINE
  5
2EB
330
1F
100
AcDbEntity
  8
0
  6
Continuous
 62
     7
370
    25
100
AcDbLine
 10
38.7799412878
 20
267.6829368236
 30
0.0
 11
37.1799412878
 21
267.6829368236
 31
0.0
  0
SPLINE
  5
2EC
330
1F
100
AcDbEntity
  8
0
  6
Continuous
 62
     7
370
    25
100
AcDbSpline
210
0.0
220
0.0
230
1.0
 70
    24
 71
     3
 72
    11
 73
     7
 74
     0
 42
0.000000001
 43
0.00000001
 40
0.0
 40
0.0
 40
0.0
 40
0.0
 40
0.2833229682742945
 40
0.558046278621556
 40
0.7754268978867095
 40
1.0
 40
1.0
 40
1.0
 40
1.0
 10
37.17994128778768
 20
269.6812915718249
 30
0.0
 10
37.17994128778768
 20
269.3841778791717
 30
0.0
 10
37.17994128778773
 20
268.7989687395015
 30
0.0
 10
37.17994128778762
 20
268.1497945443074
 30
0.0
 10
37.17994128778778
 20
267.7546344272579
 30
0.0
 10
37.17994128778773
 20
267.7070939207976
 30
0.0
 10
37.17994128778768
 20
267.6829368235827
 30
0.0
  0
LINE
  5
2ED
330
1F
100
AcDbEntity
  8
0
  6
Continuous
 62
     7
370
    25
100
AcDbLine
 10
38.7799412878
 20
327.6829368236
 30
0.0
 11
37.1799412878
 21
327.6829368236
 31
0.0
  0
SPLINE
  5
2EE
330
1F
100
AcDbEntity
  8
0
  6
Continuous
 62
     7
370
    25
100
AcDbSpline
210
0.0
220
0.0
230
1.0
 70
    24
 71
     3
 72
    11
 73
     7
 74
     0
 42
0.000000001
 43
0.00000001
 40
0.0
 40
0.0
 40
0.0
 40
0.0
 40
0.2833048031626429
 40
0.5580362635661725
 40
0.7754301448953711
 40
1.0
 40
1.0
 40
1.0
 40
1.0
 10
37.17994128778768
 20
327.6829368235827
 30
0.0
 10
37.17994128778762
 20
327.6439900054476
 30
0.0
 10
37.17994128778762
 20
327.5672749740495
 30
0.0
 10
37.17994128778756
 20
327.0327433850719
 30
0.0
 10
37.17994128778762
 20
326.3813391786648
 30
0.0
 10
37.17994128778762
 20
325.9190738524748
 30
0.0
 10
37.17994128778768
 20
325.6841883884319
 30
0.0
  0
LINE
  5
2EF
330
1F
100
AcDbEntity
  8
0
  6
Continuous
 62
     7
370
    25
100
AcDbLine
 10
35.7799412878
 20
270.2206523317
 30
0.0
 11
35.7799412878
 21
325.1452213155
 31
0.0
  0
SPLINE
  5
2F0
330
1F
100
AcDbEntity
  8
0
  6
Continuous
 62
     7
370
    25
100
AcDbSpline
210
0.0
220
0.0
230
1.0
 70
     8
 71
     3
 72
    11
 73
     7
 74
     0
 42
0.000000001
 43
0.00000001
 40
0.0
 40
0.0
 40
0.0
 40
0.0
 40
0.2514401155114613
 40
0.5021687862219011
 40
0.7628301310728067
 40
1.0
 40
1.0
 40
1.0
 40
1.0
 10
35.77994128778766
 20
270.2206523316726
 30
0.0
 10
35.79825206775728
 20
269.9685095672571
 30
0.0
 10
35.83482181770908
 20
269.4649374713581
 30
0.0
 10
36.1320806837161
 20
268.7492312716583
 30
0.0
 10
36.5756839219904
 20
268.1258579284117
 30
0.0
 10
36.98495975154703
 20
267.8258584366921
 30
0.0
 10
37.17994128778768
 20
267.6829368235827
 30
0.0
  0
SPLINE
  5
2F1
330
1F
100
AcDbEntity
  8
0
  6
Continuous
 62
     7
370
    25
100
AcDbSpline
210
0.0
220
0.0
230
1.0
 70
    24
 71
     3
 72
    13
 73
     9
 74
     0
 42
0.000000001
 43
0.00000001
 40
0.0
 40
0.0
 40
0.0
 40
0.0
 40
0.1275744813591049
 40
0.2546483440425906
 40
0.5000017710082056
 40
0.7453551979738147
 40
0.8725131741728124
 40
1.0
 40
1.0
 40
1.0
 40
1.0
 10
37.17994128778768
 20
267.6829368235827
 30
0.0
 10
37.17994128778762
 20
267.6904910860274
 30
0.0
 10
37.17994128778773
 20
267.705569967019
 30
0.0
 10
37.17994128778768
 20
267.8670724722901
 30
0.0
 10
37.17994128778751
 20
268.2339033863936
 30
0.0
 10
37.17994128778784
 20
268.7822031345838
 30
0.0
 10
37.17994128778762
 20
269.2823531389005
 30
0.0
 10
37.17994128778773
 20
269.5481976565169
 30
0.0
 10
37.17994128778768
 20
269.6812915718249
 30
0.0
  0
SPLINE
  5
2F2
330
1F
100
AcDbEntity
  8
0
  6
Continuous
 62
     7
370
    25
100
AcDbSpline
210
0.0
220
0.0
230
1.0
 70
     8
 71
     3
 72
    11
 73
     7
 74
     0
 42
0.000000001
 43
0.00000001
 40
0.0
 40
0.0
 40
0.0
 40
0.0
 40
0.2371761177076138
 40
0.4978312223648395
 40
0.7485598887879957
 40
0.9999999999999999
 40
0.9999999999999999
 40
0.9999999999999999
 40
0.9999999999999999
 10
37.17994128778762
 20
327.6829368235827
 30
0.0
 10
36.98495475799718
 20
327.5400110382589
 30
0.0
 10
36.57567922297089
 20
327.240010687874
 30
0.0
 10
36.13207836711385
 20
326.6166365667189
 30
0.0
 10
35.83482178974317
 20
325.9009361655089
 30
0.0
 10
35.79825205842646
 20
325.3973640764723
 30
0.0
 10
35.77994128778766
 20
325.1452213154928
 30
0.0
  0
SPLINE
  5
2F3
330
1F
100
AcDbEntity
  8
0
  6
Continuous
 62
     7
370
    25
100
AcDbSpline
210
0.0
220
0.0
230
1.0
 70
    24
 71
     3
 72
    13
 73
     9
 74
     0
 42
0.000000001
 43
0.00000001
 40
0.0
 40
0.0
 40
0.0
 40
0.0
 40
0.1275693177285173
 40
0.2546459829165763
 40
0.5000146894810205
 40
0.7453717616663734
 40
0.8725249485133847
 40
1.0
 40
1.0
 40
1.0
 40
1.0
 10
37.17994128778768
 20
325.6841883884319
 30
0.0
 10
37.17994128778768
 20
325.8173838235894
 30
0.0
 10
37.17994128778762
 20
326.0832603141879
 30
0.0
 10
37.17994128778784
 20
326.5834227314406
 30
0.0
 10
37.1799412877874
 20
327.1317457767
 30
0.0
 10
37.17994128778773
 20
327.4988164976573
 30
0.0
 10
37.17994128778762
 20
327.6602282948787
 30
0.0
 10
37.17994128778768
 20
327.6753609378397
 30
0.0
 10
37.17994128778768
 20
327.6829368235827
 30
0.0
  0
ARC
  5
2F4
330
1F
100
AcDbEntity
  8
0
  6
Continuous
 62
     7
370
    25
100
AcDbCircle
 10
38.8009214731
 20
692.6870839521
 30
0.0
 40
0.5000000000000355
100
AcDbArc
 50
210.0
 51
267.5951418064
  0
ARC
  5
2F5
330
1F
100
AcDbEntity
  8
0
  6
Continuous
 62
     7
370
    25
100
AcDbCircle
 10
38.8009214731
 20
732.6879646763
 30
0.0
 40
0.4999999999999473
100
AcDbArc
 50
92.4048581936
 51
150.0
  0
LINE
  5
2F6
330
1F
100
AcDbEntity
  8
0
  6
Continuous
 62
     7
370
    25
100
AcDbLine
 10
38.3679087712
 20
692.4370839521
 30
0.0
 11
36.8469285859
 21
695.0714989104
 31
0.0
  0
SPLINE
  5
2F7
330
1F
100
AcDbEntity
  8
0
  6
Continuous
 62
     7
370
    25
100
AcDbSpline
210
0.0
220
0.0
230
1.0
 70
     8
 71
     3
 72
     9
 73
     5
 74
     0
 42
0.000000001
 43
0.00000001
 40
0.0
 40
0.0
 40
0.0
 40
0.0
 40
0.4999928052377697
 40
0.9999999999999999
 40
0.9999999999999999
 40
0.9999999999999999
 40
0.9999999999999999
 10
36.84692858589484
 20
695.1875243142077
 30
0.0
 10
36.83898980574823
 20
695.1658953149795
 30
0.0
 10
36.82311201698113
 20
695.1226366940522
 30
0.0
 10
36.83898965343313
 20
695.0885450018206
 30
0.0
 10
36.84692858589484
 20
695.0714989104233
 30
0.0
  0
SPLINE
  5
2F8
330
1F
100
AcDbEntity
  8
0
  6
Continuous
 62
     7
370
    25
100
AcDbSpline
210
0.0
220
0.0
230
1.0
 70
     8
 71
     3
 72
     9
 73
     5
 74
     0
 42
0.000000001
 43
0.00000001
 40
0.0
 40
0.0
 40
0.0
 40
0.0
 40
0.4999928052376024
 40
1.0
 40
1.0
 40
1.0
 40
1.0
 10
36.84692858589544
 20
730.3035497179922
 30
0.0
 10
36.83898980574879
 20
730.2865041756188
 30
0.0
 10
36.82311201698163
 20
730.2524126003102
 30
0.0
 10
36.83898965343369
 20
730.209153950399
 30
0.0
 10
36.84692858589544
 20
730.1875243142077
 30
0.0
  0
LINE
  5
2F9
330
1F
100
AcDbEntity
  8
0
  6
Continuous
 62
     7
370
    25
100
AcDbLine
 10
38.3679087712
 20
732.9379646763
 30
0.0
 11
36.8469285859
 21
730.303549718
 31
0.0
  0
SPLINE
  5
2FA
330
1F
100
AcDbEntity
  8
0
  6
Continuous
 62
     7
370
    25
100
AcDbSpline
210
0.0
220
0.0
230
1.0
 70
     8
 71
     3
 72
    12
 73
     8
 74
     0
 42
0.000000001
 43
0.00000001
 40
0.0
 40
0.0
 40
0.0
 40
0.0
 40
0.2526335935619503
 40
0.4991112428196388
 40
0.7494048679685887
 40
0.8428769288218628
 40
1.0
 40
1.0
 40
1.0
 40
1.0
 10
36.84692858589544
 20
695.1875243142076
 30
0.0
 10
36.83515571670776
 20
695.1891229095346
 30
0.0
 10
36.81189684883923
 20
695.1922811470796
 30
0.0
 10
36.79240544569984
 20
695.2271142790256
 30
0.0
 10
36.78429514188514
 20
695.262897582028
 30
0.0
 10
36.78057437614585
 20
695.2950924177788
 30
0.0
 10
36.78018526214633
 20
695.3113225945496
 30
0.0
 10
36.77994128778761
 20
695.3214989104233
 30
0.0
  0
LINE
  5
2FB
330
1F
100
AcDbEntity
  8
0
  6
Continuous
 62
     7
370
    25
100
AcDbLine
 10
36.7799412878
 20
695.3214989104
 30
0.0
 11
36.7799412878
 21
730.053549718
 31
0.0
  0
SPLINE
  5
2FC
330
1F
100
AcDbEntity
  8
0
  6
Continuous
 62
     7
370
    25
100
AcDbSpline
210
0.0
220
0.0
230
1.0
 70
     8
 71
     3
 72
    12
 73
     8
 74
     0
 42
0.000000001
 43
0.00000001
 40
0.0
 40
0.0
 40
0.0
 40
0.0
 40
0.2526335952366233
 40
0.4991112461283053
 40
0.7494048729373034
 40
0.8428422724506419
 40
1.0
 40
1.0
 40
1.0
 40
1.0
 10
36.84692858589544
 20
730.1875243142077
 30
0.0
 10
36.83515571661889
 20
730.1859257180076
 30
0.0
 10
36.81189684857483
 20
730.1827674787371
 30
0.0
 10
36.79240544673446
 20
730.147934359555
 30
0.0
 10
36.78429561525892
 20
730.1121531192281
 30
0.0
 10
36.78057453828076
 20
730.079958542113
 30
0.0
 10
36.78018535771227
 20
730.0637283120575
 30
0.0
 10
36.77994128778766
 20
730.0535497179923
 30
0.0
  0
SPLINE
  5
2FD
330
1F
100
AcDbEntity
  8
0
  6
Continuous
 62
     7
370
    25
100
AcDbSpline
210
0.0
220
0.0
230
1.0
 70
     8
 71
     3
 72
    12
 73
     8
 74
     0
 42
0.000000001
 43
0.00000001
 40
0.0
 40
0.0
 40
0.0
 40
0.0
 40
0.2526335952363417
 40
0.4991112461283057
 40
0.7494048729377106
 40
0.8428422697599174
 40
1.0
 40
1.0
 40
1.0
 40
1.0
 10
36.84692858589472
 20
695.0714989104233
 30
0.0
 10
36.83515571661822
 20
695.0942463552758
 30
0.0
 10
36.81189684857411
 20
695.1391869560539
 30
0.0
 10
36.79240544673401
 20
695.2052248623966
 30
0.0
 10
36.78429561529445
 20
695.2517153857973
 30
0.0
 10
36.78057453829337
 20
695.2902119891451
 30
0.0
 10
36.78018535771932
 20
695.3094401806161
 30
0.0
 10
36.77994128778694
 20
695.3214989104233
 30
0.0
  0
SPLINE
  5
2FE
330
1F
100
AcDbEntity
  8
0
  6
Continuous
 62
     7
370
    25
100
AcDbSpline
210
0.0
220
0.0
230
1.0
 70
     8
 71
     3
 72
    12
 73
     8
 74
     0
 42
0.000000001
 43
0.00000001
 40
0.0
 40
0.0
 40
0.0
 40
0.0
 40
0.1571230733353168
 40
0.2505951320308591
 40
0.5008887571803448
 40
0.7473664064378711
 40
1.0
 40
1.0
 40
1.0
 40
1.0
 10
36.7799412877875
 20
730.0535497179923
 30
0.0
 10
36.78018526215271
 20
730.0656058145438
 30
0.0
 10
36.78057437615695
 20
730.0848340478201
 30
0.0
 10
36.78429514191406
 20
730.1233304853258
 30
0.0
 10
36.79240544570006
 20
730.1698237756176
 30
0.0
 10
36.81189684883912
 20
730.2358616699072
 30
0.0
 10
36.83515571670759
 20
730.2808022723149
 30
0.0
 10
36.84692858589533
 20
730.3035497179922
 30
0.0
  0
LINE
  5
2FF
330
1F
100
AcDbEntity
  8
0
  6
Continuous
 62
     7
370
    25
100
AcDbLine
 10
45.6941548502
 20
754.3687232612
 30
0.0
 11
40.8299412878
 21
759.2329368236
 31
0.0
  0
ARC
  5
300
330
1F
100
AcDbEntity
  8
0
  6
Continuous
 62
     7
370
    25
100
AcDbCircle
 10
44.2799412878
 20
752.9545096988
 30
0.0
 40
2.000000000000046
100
AcDbArc
 50
0.0
 51
45.0
  0
LINE
  5
301
330
1F
100
AcDbEntity
  8
0
  6
Continuous
 62
     7
370
    25
100
AcDbLine
 10
46.2799412878
 20
742.4829368236
 30
0.0
 11
46.2799412878
 21
752.9545096988
 31
0.0
  0
ARC
  5
302
330
1F
100
AcDbEntity
  8
0
  6
Continuous
 62
     7
370
    25
100
AcDbCircle
 10
48.2799412878
 20
742.4829368236
 30
0.0
 40
2.0
100
AcDbArc
 50
180.0
 51
270.0
  0
LINE
  5
303
330
1F
100
AcDbEntity
  8
0
  6
Continuous
 62
     7
370
    25
100
AcDbLine
 10
48.3799412878
 20
740.4829368236
 30
0.0
 11
48.2799412878
 21
740.4829368236
 31
0.0
  0
ARC
  5
304
330
1F
100
AcDbEntity
  8
0
  6
Continuous
 62
     7
370
    25
100
AcDbCircle
 10
50.2799412878
 20
740.4829368236
 30
0.0
 40
1.900000000000013
100
AcDbArc
 50
180.0
 51
0.0
  0
LINE
  5
305
330
1F
100
AcDbEntity
  8
0
  6
Continuous
 62
     7
370
    25
100
AcDbLine
 10
52.1799412878
 20
258.8829368236
 30
0.0
 11
58.3799412878
 21
258.8829368236
 31
0.0
  0
ARC
  5
306
330
1F
100
AcDbEntity
  8
0
  6
Continuous
 62
     7
370
    25
100
AcDbCircle
 10
50.2799412878
 20
258.8829368236
 30
0.0
 40
1.900000000000013
100
AcDbArc
 50
0.0
 51
180.0
  0
LINE
  5
307
330
1F
100
AcDbEntity
  8
0
  6
Continuous
 62
     7
370
    25
100
AcDbLine
 10
48.2799412878
 20
258.8829368236
 30
0.0
 11
48.3799412878
 21
258.8829368236
 31
0.0
  0
ARC
  5
308
330
1F
100
AcDbEntity
  8
0
  6
Continuous
 62
     7
370
    25
100
AcDbCircle
 10
48.2799412878
 20
256.8829368236
 30
0.0
 40
2.0
100
AcDbArc
 50
90.0
 51
180.0
  0
LINE
  5
309
330
1F
100
AcDbEntity
  8
0
  6
Continuous
 62
     7
370
    25
100
AcDbLine
 10
46.2799412878
 20
246.4113639483
 30
0.0
 11
46.2799412878
 21
256.8829368236
 31
0.0
  0
ARC
  5
30A
330
1F
100
AcDbEntity
  8
0
  6
Continuous
 62
     7
370
    25
100
AcDbCircle
 10
44.2799412878
 20
246.4113639483
 30
0.0
 40
2.000000000000007
100
AcDbArc
 50
315.0
 51
0.0
  0
LINE
  5
30B
330
1F
100
AcDbEntity
  8
0
  6
Continuous
 62
     7
370
    25
100
AcDbLine
 10
40.8299412878
 20
240.1329368236
 30
0.0
 11
45.6941548502
 21
244.997150386
 31
0.0
  0
CIRCLE
  5
30C
330
1F
100
AcDbEntity
  8
0
  6
Continuous
 62
     7
370
    25
100
AcDbCircle
 10
50.2799412878
 20
495.6829368236
 30
0.0
 40
1.900000000000013
  0
LINE
  5
30D
330
1F
100
AcDbEntity
  8
0
  6
Continuous
 62
     7
370
    25
100
AcDbLine
 10
58.3799412878
 20
740.4829368236
 30
0.0
 11
52.1799412878
 21
740.4829368236
 31
0.0
  0
LINE
  5
30E
330
1F
100
AcDbEntity
  8
0
  6
Continuous
 62
     7
370
    25
100
AcDbLine
 10
58.3799412878
 20
258.8829368236
 30
0.0
 11
58.3799412878
 21
740.4829368236
 31
0.0
  0
LINE
  5
30F
330
1F
100
AcDbEntity
  8
0
  6
Continuous
 62
     7
370
    25
100
AcDbLine
 10
38.7799412878
 20
759.2329368236
 30
0.0
 11
40.8299412878
 21
759.2329368236
 31
0.0
  0
LINE
  5
310
330
1F
100
AcDbEntity
  8
0
  6
Continuous
 62
     7
370
    25
100
AcDbLine
 10
40.8299412878
 20
240.1329368236
 30
0.0
 11
38.7799412878
 21
240.1329368236
 31
0.0
  0
LINE
  5
311
330
1F
100
AcDbEntity
  8
0
  6
Continuous
 62
     7
370
    25
100
AcDbLine
 10
38.7799412878
 20
240.1329368236
 30
0.0
 11
38.7799412878
 21
759.2329368236
 31
0.0
  0
ARC
  5
312
330
1F
100
AcDbEntity
  8
0
  6
Continuous
 62
     7
370
    25
100
AcDbCircle
 10
44.2799412878
 20
246.4113639483
 30
0.0
 40
2.100000000000051
100
AcDbArc
 50
315.0
 51
0.0
  0
LINE
  5
313
330
1F
100
AcDbEntity
  8
0
  6
Continuous
 62
     7
370
    25
100
AcDbLine
 10
46.3799412878
 20
256.8829368236
 30
0.0
 11
46.3799412878
 21
246.4113639483
 31
0.0
  0
ARC
  5
314
330
1F
100
AcDbEntity
  8
0
  6
Continuous
 62
     7
370
    25
100
AcDbCircle
 10
48.2799412878
 20
256.8829368236
 30
0.0
 40
1.900000000000034
100
AcDbArc
 50
90.0
 51
180.0
  0
LINE
  5
315
330
1F
100
AcDbEntity
  8
0
  6
Continuous
 62
     7
370
    25
100
AcDbLine
 10
48.3799412878
 20
258.7829368236
 30
0.0
 11
48.2799412878
 21
258.7829368236
 31
0.0
  0
ARC
  5
316
330
1F
100
AcDbEntity
  8
0
  6
Continuous
 62
     7
370
    25
100
AcDbCircle
 10
50.2799412878
 20
258.7829368236
 30
0.0
 40
1.900000000000013
100
AcDbArc
 50
180.0
 51
0.0
  0
LINE
  5
317
330
1F
100
AcDbEntity
  8
0
  6
Continuous
 62
     7
370
    25
100
AcDbLine
 10
58.3799412878
 20
258.7829368236
 30
0.0
 11
52.1799412878
 21
258.7829368236
 31
0.0
  0
LINE
  5
318
330
1F
100
AcDbEntity
  8
0
  6
Continuous
 62
     7
370
    25
100
AcDbLine
 10
45.7648655283
 20
244.9264397078
 30
0.0
 11
40.971362644
 21
240.1329368236
 31
0.0
  0
LINE
  5
319
330
1F
100
AcDbEntity
  8
0
  6
Continuous
 62
     7
370
    25
100
AcDbLine
 10
58.3799412878
 20
240.1329368236
 30
0.0
 11
58.3799412878
 21
258.7829368236
 31
0.0
  0
ARC
  5
31A
330
1F
100
AcDbEntity
  8
0
  6
Continuous
 62
     7
370
    25
100
AcDbCircle
 10
50.2799412878
 20
740.5829368236
 30
0.0
 40
1.900000000000013
100
AcDbArc
 50
0.0
 51
180.0
  0
ARC
  5
31B
330
1F
100
AcDbEntity
  8
0
  6
Continuous
 62
     7
370
    25
100
AcDbCircle
 10
44.2799412878
 20
752.9545096988
 30
0.0
 40
2.100000000000044
100
AcDbArc
 50
0.0
 51
45.0
  0
LINE
  5
31C
330
1F
100
AcDbEntity
  8
0
  6
Continuous
 62
     7
370
    25
100
AcDbLine
 10
45.7648655283
 20
754.4394339393
 30
0.0
 11
40.971362644
 21
759.2329368236
 31
0.0
  0
LINE
  5
31D
330
1F
100
AcDbEntity
  8
0
  6
Continuous
 62
     7
370
    25
100
AcDbLine
 10
58.3799412878
 20
759.2329368236
 30
0.0
 11
58.3799412878
 21
740.5829368236
 31
0.0
  0
LINE
  5
31E
330
1F
100
AcDbEntity
  8
0
  6
Continuous
 62
     7
370
    25
100
AcDbLine
 10
48.3799412878
 20
740.5829368236
 30
0.0
 11
48.2799412878
 21
740.5829368236
 31
0.0
  0
ARC
  5
31F
330
1F
100
AcDbEntity
  8
0
  6
Continuous
 62
     7
370
    25
100
AcDbCircle
 10
48.2799412878
 20
742.4829368236
 30
0.0
 40
1.900000000000013
100
AcDbArc
 50
180.0
 51
270.0
  0
LINE
  5
320
330
1F
100
AcDbEntity
  8
0
  6
Continuous
 62
     7
370
    25
100
AcDbLine
 10
46.3799412878
 20
742.4829368236
 30
0.0
 11
46.3799412878
 21
752.9545096988
 31
0.0
  0
LINE
  5
321
330
1F
100
AcDbEntity
  8
0
  6
Continuous
 62
     7
370
    25
100
AcDbLine
 10
58.3799412878
 20
740.5829368236
 30
0.0
 11
52.1799412878
 21
740.5829368236
 31
0.0
  0
SPLINE
  5
322
330
1F
100
AcDbEntity
  8
0
  6
Continuous
 62
     7
370
    25
100
AcDbSpline
210
0.0
220
0.0
230
1.0
 70
     8
 71
     3
 72
    11
 73
     7
 74
     0
 42
0.000000001
 43
0.00000001
 40
0.0
 40
0.0
 40
0.0
 40
0.0
 40
0.2500000000000038
 40
0.4999999999999989
 40
0.7499999999999998
 40
1.0
 40
1.0
 40
1.0
 40
1.0
 10
40.90994128778608
 20
238.0829368235826
 30
0.0
 10
40.91505973413989
 20
238.1137515477966
 30
0.0
 10
40.92529662684763
 20
238.1753809962246
 30
0.0
 10
40.94065196590929
 20
238.6494418831255
 30
0.0
 10
40.95600730497095
 20
239.3270590041742
 30
0.0
 10
40.9662441976788
 20
239.8643108837798
 30
0.0
 10
40.97136264403256
 20
240.1329368235826
 30
0.0
  0
LINE
  5
323
330
1F
100
AcDbEntity
  8
0
  6
Continuous
 62
     7
370
    25
100
AcDbLine
 10
58.3799412878
 20
240.1329368236
 30
0.0
 11
58.3799412878
 21
238.0829368236
 31
0.0
  0
LINE
  5
324
330
1F
100
AcDbEntity
  8
0
  6
Continuous
 62
     7
370
    25
100
AcDbLine
 10
58.3799412878
 20
238.0829368236
 30
0.0
 11
40.9099412878
 21
238.0829368236
 31
0.0
  0
LINE
  5
325
330
1F
100
AcDbEntity
  8
0
  6
Continuous
 62
     7
370
    25
100
AcDbLine
 10
40.9099412878
 20
760.4829368236
 30
0.0
 11
40.9099412878
 21
761.2829368236
 31
0.0
  0
SPLINE
  5
326
330
1F
100
AcDbEntity
  8
0
  6
Continuous
 62
     7
370
    25
100
AcDbSpline
210
0.0
220
0.0
230
1.0
 70
     8
 71
     3
 72
    11
 73
     7
 74
     0
 42
0.000000001
 43
0.00000001
 40
0.0
 40
0.0
 40
0.0
 40
0.0
 40
0.2499999999999936
 40
0.5000000000000022
 40
0.7500000000000011
 40
0.9999999999999999
 40
0.9999999999999999
 40
0.9999999999999999
 40
0.9999999999999999
 10
40.97136264403179
 20
759.2329368235826
 30
0.0
 10
40.96624419767792
 20
759.5015627633854
 30
0.0
 10
40.95600730497018
 20
760.038814642991
 30
0.0
 10
40.94065196590868
 20
760.7164317640396
 30
0.0
 10
40.92529662684685
 20
761.1904926509407
 30
0.0
 10
40.91505973413939
 20
761.2521220993684
 30
0.0
 10
40.90994128778536
 20
761.2829368235826
 30
0.0
  0
LINE
  5
327
330
1F
100
AcDbEntity
  8
0
  6
Continuous
 62
     7
370
    25
100
AcDbLine
 10
58.3799412878
 20
761.2829368236
 30
0.0
 11
58.3799412878
 21
759.2329368236
 31
0.0
  0
LINE
  5
328
330
1F
100
AcDbEntity
  8
0
  6
Continuous
 62
     7
370
    25
100
AcDbLine
 10
40.9099412878
 20
761.2829368236
 30
0.0
 11
58.3799412878
 21
761.2829368236
 31
0.0
  0
LINE
  5
329
330
1F
100
AcDbEntity
  8
0
  6
Continuous
 62
     7
370
    25
100
AcDbLine
 10
40.9099412878
 20
238.8829368236
 30
0.0
 11
40.9099412878
 21
238.0829368236
 31
0.0
  0
ARC
  5
32A
330
1F
100
AcDbEntity
  8
0
  6
Continuous
 62
     7
370
    25
100
AcDbCircle
 10
40.8299412878
 20
759.2329368236
 30
0.0
 40
2.050000000000068
100
AcDbArc
 50
90.0
 51
180.0
  0
ARC
  5
32B
330
1F
100
AcDbEntity
  8
0
  6
Continuous
 62
     7
370
    25
100
AcDbCircle
 10
40.8299412878
 20
759.2329368236
 30
0.0
 40
1.25
100
AcDbArc
 50
90.0
 51
180.0
  0
LINE
  5
32C
330
1F
100
AcDbEntity
  8
0
  6
Continuous
 62
     7
370
    25
100
AcDbLine
 10
40.8299412878
 20
761.2829368236
 30
0.0
 11
40.9099412878
 21
761.2829368236
 31
0.0
  0
LINE
  5
32D
330
1F
100
AcDbEntity
  8
0
  6
Continuous
 62
     7
370
    25
100
AcDbLine
 10
40.8299412878
 20
760.4829368236
 30
0.0
 11
40.9099412878
 21
760.4829368236
 31
0.0
  0
ARC
  5
32E
330
1F
100
AcDbEntity
  8
0
  6
Continuous
 62
     7
370
    25
100
AcDbCircle
 10
40.8299412878
 20
240.1329368236
 30
0.0
 40
2.04999999999999
100
AcDbArc
 50
180.0
 51
270.0
  0
ARC
  5
32F
330
1F
100
AcDbEntity
  8
0
  6
Continuous
 62
     7
370
    25
100
AcDbCircle
 10
40.8299412878
 20
240.1329368236
 30
0.0
 40
1.250000000000028
100
AcDbArc
 50
180.0
 51
270.0
  0
LINE
  5
330
330
1F
100
AcDbEntity
  8
0
  6
Continuous
 62
     7
370
    25
100
AcDbLine
 10
40.9099412878
 20
238.8829368236
 30
0.0
 11
40.8299412878
 21
238.8829368236
 31
0.0
  0
LINE
  5
331
330
1F
100
AcDbEntity
  8
0
  6
Continuous
 62
     7
370
    25
100
AcDbLine
 10
40.9099412878
 20
238.0829368236
 30
0.0
 11
40.8299412878
 21
238.0829368236
 31
0.0
  0
LINE
  5
332
330
1F
100
AcDbEntity
  8
0
  6
Continuous
 62
     7
370
    25
100
AcDbLine
 10
97.9799412878
 20
778.3829368236
 30
0.0
 11
97.9799412878
 21
777.0829368236
 31
0.0
  0
LINE
  5
333
330
1F
100
AcDbEntity
  8
0
  6
Continuous
 62
     7
370
    25
100
AcDbLine
 10
95.4799412878
 20
777.9952622964
 30
0.0
 11
95.4799412878
 21
777.0829368236
 31
0.0
  0
LINE
  5
334
330
1F
100
AcDbEntity
  8
0
  6
Continuous
 62
     7
370
    25
100
AcDbLine
 10
47.7242512112
 20
767.0829368236
 30
0.0
 11
67.9799412878
 21
767.0829368236
 31
0.0
  0
LINE
  5
335
330
1F
100
AcDbEntity
  8
0
  6
Continuous
 62
     7
370
    25
100
AcDbLine
 10
47.7242512112
 20
769.5829368236
 30
0.0
 11
67.9799412878
 21
769.5829368236
 31
0.0
  0
LINE
  5
336
330
1F
100
AcDbEntity
  8
0
  6
Continuous
 62
     7
370
    25
100
AcDbLine
 10
42.1799412878
 20
769.5829368236
 30
0.0
 11
47.7242512112
 21
769.5829368236
 31
0.0
  0
LINE
  5
337
330
1F
100
AcDbEntity
  8
0
  6
Continuous
 62
     7
370
    25
100
AcDbLine
 10
42.1799412878
 20
767.0829368236
 30
0.0
 11
47.7242512112
 21
767.0829368236
 31
0.0
  0
LINE
  5
338
330
1F
100
AcDbEntity
  8
0
  6
Continuous
 62
     7
370
    25
100
AcDbLine
 10
70.0299412878
 20
241.5829368236
 30
0.0
 11
71.7799412878
 21
241.5829368236
 31
0.0
  0
LINE
  5
339
330
1F
100
AcDbEntity
  8
0
  6
Continuous
 62
     7
370
    25
100
AcDbLine
 10
99.0299412878
 20
777.0829368236
 30
0.0
 11
70.0299412878
 21
777.0829368236
 31
0.0
  0
ARC
  5
33A
330
1F
100
AcDbEntity
  8
0
  6
Continuous
 62
     7
370
    25
100
AcDbCircle
 10
99.0299412878
 20
777.7329368236
 30
0.0
 40
0.650000000000091
100
AcDbArc
 50
270.0
 51
90.0
  0
LINE
  5
33B
330
1F
100
AcDbEntity
  8
0
  6
Continuous
 62
     7
370
    25
100
AcDbLine
 10
779.6799412878
 20
235.5829368236
 30
0.0
 11
802.9299412878
 21
235.5829368236
 31
0.0
  0
LINE
  5
33C
330
1F
100
AcDbEntity
  8
0
  6
Continuous
 62
     7
370
    25
100
AcDbLine
 10
779.6799412878
 20
235.5829368236
 30
0.0
 11
779.6799412878
 21
236.8329368236
 31
0.0
  0
ARC
  5
33D
330
1F
100
AcDbEntity
  8
0
  6
Continuous
 62
     7
370
    25
100
AcDbCircle
 10
779.4299412878
 20
236.8329368236
 30
0.0
 40
0.25
100
AcDbArc
 50
0.0000000001
 51
180.0
  0
ARC
  5
33E
330
1F
100
AcDbEntity
  8
0
  6
Continuous
 62
     7
370
    25
100
AcDbCircle
 10
100.5299412878
 20
236.8329368236
 30
0.0
 40
0.2500000000000853
100
AcDbArc
 50
0.0
 51
180.0
  0
LINE
  5
33F
330
1F
100
AcDbEntity
  8
0
  6
Continuous
 62
     7
370
    25
100
AcDbLine
 10
100.2799412878
 20
236.8329368236
 30
0.0
 11
100.2799412878
 21
235.5829368236
 31
0.0
  0
LINE
  5
340
330
1F
100
AcDbEntity
  8
0
  6
Continuous
 62
     7
370
    25
100
AcDbLine
 10
76.7799412878
 20
235.5829368236
 30
0.0
 11
100.2799412878
 21
235.5829368236
 31
0.0
  0
ARC
  5
341
330
1F
100
AcDbEntity
  8
0
  6
Continuous
 62
     7
370
    25
100
AcDbCircle
 10
76.7799412878
 20
240.5829368236
 30
0.0
 40
5.000000000000057
100
AcDbArc
 50
180.0
 51
270.0
  0
LINE
  5
342
330
1F
100
AcDbEntity
  8
0
  6
Continuous
 62
     7
370
    25
100
AcDbLine
 10
71.7799412878
 20
241.5829368236
 30
0.0
 11
71.7799412878
 21
240.5829368236
 31
0.0
  0
LINE
  5
343
330
1F
100
AcDbEntity
  8
0
  6
Continuous
 62
     7
370
    25
100
AcDbLine
 10
168.8252407494
 20
839.8829368236
 30
0.0
 11
231.1346418262
 21
839.8829368236
 31
0.0
  0
LINE
  5
344
330
1F
100
AcDbEntity
  8
0
  6
Continuous
 62
     7
370
    25
100
AcDbLine
 10
243.8252407494
 20
814.8829368236
 30
0.0
 11
306.1346418262
 21
814.8829368236
 31
0.0
  0
LINE
  5
345
330
1F
100
AcDbEntity
  8
0
  6
Continuous
 62
     7
370
    25
100
AcDbLine
 10
243.8252407494
 20
864.8829368236
 30
0.0
 11
306.1346418262
 21
864.8829368236
 31
0.0
  0
LINE
  5
346
330
1F
100
AcDbEntity
  8
0
  6
Continuous
 62
     7
370
    25
100
AcDbLine
 10
318.8252407494
 20
839.8829368236
 30
0.0
 11
381.1346418262
 21
839.8829368236
 31
0.0
  0
LINE
  5
347
330
1F
100
AcDbEntity
  8
0
  6
Continuous
 62
     7
370
    25
100
AcDbLine
 10
393.8252407494
 20
814.8829368236
 30
0.0
 11
456.1346418262
 21
814.8829368236
 31
0.0
  0
LINE
  5
348
330
1F
100
AcDbEntity
  8
0
  6
Continuous
 62
     7
370
    25
100
AcDbLine
 10
393.8252407494
 20
864.8829368236
 30
0.0
 11
456.1346418262
 21
864.8829368236
 31
0.0
  0
LINE
  5
349
330
1F
100
AcDbEntity
  8
0
  6
Continuous
 62
     7
370
    25
100
AcDbLine
 10
468.8252407494
 20
839.8829368236
 30
0.0
 11
531.1346418262
 21
839.8829368236
 31
0.0
  0
LINE
  5
34A
330
1F
100
AcDbEntity
  8
0
  6
Continuous
 62
     7
370
    25
100
AcDbLine
 10
543.8252407494
 20
814.8829368236
 30
0.0
 11
606.1346418262
 21
814.8829368236
 31
0.0
  0
LINE
  5
34B
330
1F
100
AcDbEntity
  8
0
  6
Continuous
 62
     7
370
    25
100
AcDbLine
 10
543.8252407494
 20
864.8829368236
 30
0.0
 11
606.1346418262
 21
864.8829368236
 31
0.0
  0
LINE
  5
34C
330
1F
100
AcDbEntity
  8
0
  6
Continuous
 62
     7
370
    25
100
AcDbLine
 10
618.8252407494
 20
839.8829368236
 30
0.0
 11
681.1346418262
 21
839.8829368236
 31
0.0
  0
LINE
  5
34D
330
1F
100
AcDbEntity
  8
0
  6
Continuous
 62
     7
370
    25
100
AcDbLine
 10
693.8252407494
 20
814.8829368236
 30
0.0
 11
756.1346418262
 21
814.8829368236
 31
0.0
  0
LINE
  5
34E
330
1F
100
AcDbEntity
  8
0
  6
Continuous
 62
     7
370
    25
100
AcDbLine
 10
693.8252407494
 20
864.8829368236
 30
0.0
 11
756.1346418262
 21
864.8829368236
 31
0.0
  0
LINE
  5
34F
330
1F
100
AcDbEntity
  8
0
  6
Continuous
 62
     7
370
    25
100
AcDbLine
 10
693.8252407494
 20
839.8829368236
 30
0.0
 11
756.1346418262
 21
839.8829368236
 31
0.0
  0
LINE
  5
350
330
1F
100
AcDbEntity
  8
0
  6
Continuous
 62
     7
370
    25
100
AcDbLine
 10
618.8252407494
 20
864.8829368236
 30
0.0
 11
681.1346418262
 21
864.8829368236
 31
0.0
  0
LINE
  5
351
330
1F
100
AcDbEntity
  8
0
  6
Continuous
 62
     7
370
    25
100
AcDbLine
 10
618.8252407494
 20
814.8829368236
 30
0.0
 11
681.1346418262
 21
814.8829368236
 31
0.0
  0
LINE
  5
352
330
1F
100
AcDbEntity
  8
0
  6
Continuous
 62
     7
370
    25
100
AcDbLine
 10
543.8252407494
 20
839.8829368236
 30
0.0
 11
606.1346418262
 21
839.8829368236
 31
0.0
  0
LINE
  5
353
330
1F
100
AcDbEntity
  8
0
  6
Continuous
 62
     7
370
    25
100
AcDbLine
 10
468.8252407494
 20
864.8829368236
 30
0.0
 11
531.1346418262
 21
864.8829368236
 31
0.0
  0
LINE
  5
354
330
1F
100
AcDbEntity
  8
0
  6
Continuous
 62
     7
370
    25
100
AcDbLine
 10
468.8252407494
 20
814.8829368236
 30
0.0
 11
531.1346418262
 21
814.8829368236
 31
0.0
  0
LINE
  5
355
330
1F
100
AcDbEntity
  8
0
  6
Continuous
 62
     7
370
    25
100
AcDbLine
 10
393.8252407494
 20
839.8829368236
 30
0.0
 11
456.1346418262
 21
839.8829368236
 31
0.0
  0
LINE
  5
356
330
1F
100
AcDbEntity
  8
0
  6
Continuous
 62
     7
370
    25
100
AcDbLine
 10
318.8252407494
 20
864.8829368236
 30
0.0
 11
381.1346418262
 21
864.8829368236
 31
0.0
  0
LINE
  5
357
330
1F
100
AcDbEntity
  8
0
  6
Continuous
 62
     7
370
    25
100
AcDbLine
 10
318.8252407494
 20
814.8829368236
 30
0.0
 11
381.1346418262
 21
814.8829368236
 31
0.0
  0
LINE
  5
358
330
1F
100
AcDbEntity
  8
0
  6
Continuous
 62
     7
370
    25
100
AcDbLine
 10
243.8252407494
 20
839.8829368236
 30
0.0
 11
306.1346418262
 21
839.8829368236
 31
0.0
  0
LINE
  5
359
330
1F
100
AcDbEntity
  8
0
  6
Continuous
 62
     7
370
    25
100
AcDbLine
 10
168.8252407494
 20
864.8829368236
 30
0.0
 11
231.1346418262
 21
864.8829368236
 31
0.0
  0
LINE
  5
35A
330
1F
100
AcDbEntity
  8
0
  6
Continuous
 62
     7
370
    25
100
AcDbLine
 10
168.8252407494
 20
814.8829368236
 30
0.0
 11
231.1346418262
 21
814.8829368236
 31
0.0
  0
SPLINE
  5
35B
330
1F
100
AcDbEntity
  8
0
  6
Continuous
 62
     7
370
    25
100
AcDbSpline
210
0.0
220
0.0
230
1.0
 70
     8
 71
     3
 72
    17
 73
    13
 74
     0
 42
0.000000001
 43
0.00000001
 40
0.0
 40
0.0
 40
0.0
 40
0.0
 40
0.1134691409143155
 40
0.2302260747276585
 40
0.3437354275907619
 40
0.4605361783209715
 40
0.5740457178287012
 40
0.6908466730205752
 40
0.8043561351736267
 40
0.9211570132012709
 40
0.9605128258295929
 40
1.0
 40
1.0
 40
1.0
 40
1.0
 10
804.9799412877858
 20
917.0758657557681
 30
0.0
 10
804.9736467769391
 20
917.0288528092793
 30
0.0
 10
804.9608753704324
 20
916.9334647060092
 30
0.0
 10
804.8582403513618
 20
916.7910307751323
 30
0.0
 10
804.6962902552528
 20
916.6472341092582
 30
0.0
 10
804.4771193038166
 20
916.5047675403362
 30
0.0
 10
804.2055961597343
 20
916.3609508022508
 30
0.0
 10
803.8949523610779
 20
916.2184812470739
 30
0.0
 10
803.5499581456681
 20
916.074683211703
 30
0.0
 10
803.265787846831
 20
915.9628821700052
 30
0.0
 10
803.0568360398097
 20
915.8819182102065
 30
0.0
 10
802.9722864949032
 20
915.8492820776469
 30
0.0
 10
802.9299412877859
 20
915.83293682358
 30
0.0
  0
LINE
  5
35C
330
1F
100
AcDbEntity
  8
0
  6
Continuous
 62
     7
370
    25
100
AcDbLine
 10
804.9799412878
 20
917.0758657558
 30
0.0
 11
804.9799412878
 21
235.5829368236
 31
0.0
  0
LINE
  5
35D
330
1F
100
AcDbEntity
  8
0
  6
Continuous
 62
     7
370
    25
100
AcDbLine
 10
802.9299412878
 20
235.5829368236
 30
0.0
 11
804.9799412878
 21
235.5829368236
 31
0.0
  0
LINE
  5
35E
330
1F
100
AcDbEntity
  8
0
  6
Continuous
 62
     7
370
    25
100
AcDbLine
 10
96.9799412878
 20
778.3829368236
 30
0.0
 11
99.0299412878
 21
778.3829368236
 31
0.0
  0
LINE
  5
35F
330
1F
100
AcDbEntity
  8
0
  6
Continuous
 62
     7
370
    25
100
AcDbLine
 10
96.9799412878
 20
917.0758657558
 30
0.0
 11
96.9799412878
 21
898.4829368236
 31
0.0
  0
LINE
  5
360
330
1F
100
AcDbEntity
  8
0
  6
Continuous
 62
     7
370
    25
100
AcDbLine
 10
96.9799412878
 20
779.7952622964
 30
0.0
 11
96.9799412878
 21
778.7952622964
 31
0.0
  0
SPLINE
  5
361
330
1F
100
AcDbEntity
  8
0
  6
Continuous
 62
     7
370
    25
100
AcDbSpline
210
0.0
220
0.0
230
1.0
 70
     8
 71
     3
 72
    12
 73
     8
 74
     0
 42
0.000000001
 43
0.00000001
 40
0.0
 40
0.0
 40
0.0
 40
0.0
 40
0.2301699461467808
 40
0.4604227344550609
 40
0.6906759109412308
 40
0.9209289349060265
 40
1.0
 40
1.0
 40
1.0
 40
1.0
 10
99.02994128778569
 20
915.832936823585
 30
0.0
 10
98.78286198394775
 20
915.9283266258725
 30
0.0
 10
98.28861444813892
 20
916.1191405628946
 30
0.0
 10
97.642487106054
 20
916.405432538327
 30
0.0
 10
97.17854132947352
 20
916.6915476685468
 30
0.0
 10
96.9957323812558
 20
916.9156622392858
 30
0.0
 10
96.98315610281716
 20
917.0432508723354
 30
0.0
 10
96.9799412877858
 20
917.075865755773
 30
0.0
  0
LINE
  5
362
330
1F
100
AcDbEntity
  8
0
  6
Continuous
 62
     7
370
    25
100
AcDbLine
 10
96.9799412878
 20
917.0758657558
 30
0.0
 11
97.7799412878
 21
917.0758657558
 31
0.0
  0
SPLINE
  5
363
330
1F
100
AcDbEntity
  8
0
  6
Continuous
 62
     7
370
    25
100
AcDbSpline
210
0.0
220
0.0
230
1.0
 70
     8
 71
     3
 72
    11
 73
     7
 74
     0
 42
0.000000001
 43
0.00000001
 40
0.0
 40
0.0
 40
0.0
 40
0.0
 40
0.2542997317784785
 40
0.5087760894399748
 40
0.7632534766320074
 40
1.0
 40
1.0
 40
1.0
 40
1.0
 10
99.02994128778575
 20
915.8329368235849
 30
0.0
 10
98.86330928153109
 20
915.938312270121
 30
0.0
 10
98.52992953344847
 20
916.1491363525395
 30
0.0
 10
98.11197813205486
 20
916.465390235888
 30
0.0
 10
97.83183373679039
 20
916.7744588268489
 30
0.0
 10
97.79681746340823
 20
916.9778438592562
 30
0.0
 10
97.77994128778572
 20
917.0758657557731
 30
0.0
  0
SPLINE
  5
364
330
1F
100
AcDbEntity
  8
0
  6
Continuous
 62
     7
370
    25
100
AcDbSpline
210
0.0
220
0.0
230
1.0
 70
     8
 71
     3
 72
    10
 73
     6
 74
     0
 42
0.000000001
 43
0.00000001
 40
0.0
 40
0.0
 40
0.0
 40
0.0
 40
0.3106044767706982
 40
0.6553022383853783
 40
1.0
 40
1.0
 40
1.0
 40
1.0
 10
98.1284784190063
 20
917.6829368235841
 30
0.0
 10
98.22181121990143
 20
917.5639995756951
 30
0.0
 10
98.41872143181219
 20
917.3130700154411
 30
0.0
 10
98.71920905473897
 20
916.6338660062049
 30
0.0
 10
98.92636387676995
 20
916.0999132177916
 30
0.0
 10
99.02994128778563
 20
915.8329368235848
 30
0.0
  0
SPLINE
  5
365
330
1F
100
AcDbEntity
  8
0
  6
Continuous
 62
     7
370
    25
100
AcDbSpline
210
0.0
220
0.0
230
1.0
 70
     8
 71
     3
 72
    11
 73
     7
 74
     0
 42
0.000000001
 43
0.00000001
 40
0.0
 40
0.0
 40
0.0
 40
0.0
 40
0.2499999999999873
 40
0.4999999999999895
 40
0.7500000000000098
 40
1.0
 40
1.0
 40
1.0
 40
1.0
 10
97.7870123555979
 20
917.0829368235848
 30
0.0
 10
97.89058976661352
 20
917.0641473576005
 30
0.0
 10
98.09774458864507
 20
917.026568425632
 30
0.0
 10
98.40847682169135
 20
916.7375069092298
 30
0.0
 10
98.71920905473903
 20
916.324325737858
 30
0.0
 10
98.92636387677013
 20
915.9967331283425
 30
0.0
 10
99.02994128778563
 20
915.8329368235848
 30
0.0
  0
LINE
  5
366
330
1F
100
AcDbEntity
  8
0
  6
Continuous
 62
     7
370
    25
100
AcDbLine
 10
97.7870123556
 20
917.0829368236
 30
0.0
 11
97.7870123556
 21
917.6829368236
 31
0.0
  0
LINE
  5
367
330
1F
100
AcDbEntity
  8
0
  6
Continuous
 62
     7
370
    25
100
AcDbLine
 10
153.8899412878
 20
917.8829368236
 30
0.0
 11
153.4299412878
 21
917.8829368236
 31
0.0
  0
SPLINE
  5
368
330
1F
100
AcDbEntity
  8
0
  6
Continuous
 62
     7
370
    25
100
AcDbSpline
210
0.0
220
0.0
230
1.0
 70
     8
 71
     3
 72
    10
 73
     6
 74
     0
 42
0.000000001
 43
0.00000001
 40
0.0
 40
0.0
 40
0.0
 40
0.0
 40
0.3446977616133604
 40
0.6893955232267308
 40
1.0
 40
1.0
 40
1.0
 40
1.0
 10
802.9299412877859
 20
915.83293682358
 30
0.0
 10
803.0335186988016
 20
916.0999132177866
 30
0.0
 10
803.2406735208331
 20
916.6338660062004
 30
0.0
 10
803.5411611437604
 20
917.3130700154386
 30
0.0
 10
803.7380713556726
 20
917.5639995756937
 30
0.0
 10
803.8314041565689
 20
917.6829368235841
 30
0.0
  0
SPLINE
  5
369
330
1F
100
AcDbEntity
  8
0
  6
Continuous
 62
     7
370
    25
100
AcDbSpline
210
0.0
220
0.0
230
1.0
 70
     8
 71
     3
 72
    15
 73
    11
 74
     0
 42
0.000000001
 43
0.00000001
 40
0.0
 40
0.0
 40
0.0
 40
0.0
 40
0.1253510903900729
 40
0.2543311564908891
 40
0.3797658073002961
 40
0.5088369174200847
 40
0.6342720666281606
 40
0.7633437066845464
 40
0.8802107727010734
 40
1.0
 40
1.0
 40
1.0
 40
1.0
 10
804.1799412877859
 20
917.0758657557682
 30
0.0
 10
804.1752549632497
 20
917.0239327182925
 30
0.0
 10
804.1657466427775
 20
916.9185631563671
 30
0.0
 10
804.0895002980113
 20
916.7612023661675
 30
0.0
 10
803.9697764011604
 20
916.6023306981454
 30
0.0
 10
803.8089233450522
 20
916.4448938655232
 30
0.0
 10
803.6117211302338
 20
916.285987496772
 30
0.0
 10
803.3941815407576
 20
916.1320919595402
 30
0.0
 10
803.1632163405675
 20
915.980606346981
 30
0.0
 10
803.0083371062343
 20
915.882563532518
 30
0.0
 10
802.9299412877859
 20
915.8329368235801
 30
0.0
  0
LINE
  5
36A
330
1F
100
AcDbEntity
  8
0
  6
Continuous
 62
     7
370
    25
100
AcDbLine
 10
804.9799412878
 20
917.0758657558
 30
0.0
 11
804.1799412878
 21
917.0758657558
 31
0.0
  0
LINE
  5
36B
330
1F
100
AcDbEntity
  8
0
  6
Continuous
 62
     7
370
    25
100
AcDbLine
 10
804.17287022
 20
917.0829368236
 30
0.0
 11
804.17287022
 21
917.8829368236
 31
0.0
  0
SPLINE
  5
36C
330
1F
100
AcDbEntity
  8
0
  6
Continuous
 62
     7
370
    25
100
AcDbSpline
210
0.0
220
0.0
230
1.0
 70
     8
 71
     3
 72
    11
 73
     7
 74
     0
 42
0.000000001
 43
0.00000001
 40
0.0
 40
0.0
 40
0.0
 40
0.0
 40
0.2500000000000034
 40
0.49999999999998
 40
0.7500000000000104
 40
1.0
 40
1.0
 40
1.0
 40
1.0
 10
802.9299412877859
 20
915.83293682358
 30
0.0
 10
803.0335186988016
 20
915.9967331283378
 30
0.0
 10
803.2406735208328
 20
916.3243257378535
 30
0.0
 10
803.55140575388
 20
916.7375069092245
 30
0.0
 10
803.8621379869271
 20
917.0265684256277
 30
0.0
 10
804.0692928089584
 20
917.0641473575959
 30
0.0
 10
804.172870219974
 20
917.08293682358
 30
0.0
  0
LINE
  5
36D
330
1F
100
AcDbEntity
  8
0
  6
Continuous
 62
     7
370
    25
100
AcDbLine
 10
67.9799412878
 20
777.0829368236
 30
0.0
 11
67.9799412878
 21
241.5829368236
 31
0.0
  0
LINE
  5
36E
330
1F
100
AcDbEntity
  8
0
  6
Continuous
 62
     7
370
    25
100
AcDbLine
 10
67.9799412878
 20
777.0829368236
 30
0.0
 11
70.0299412878
 21
777.0829368236
 31
0.0
  0
LINE
  5
36F
330
1F
100
AcDbEntity
  8
0
  6
Continuous
 62
     7
370
    25
100
AcDbLine
 10
70.0299412878
 20
241.5829368236
 30
0.0
 11
67.9799412878
 21
241.5829368236
 31
0.0
  0
LINE
  5
370
330
1F
100
AcDbEntity
  8
0
  6
Continuous
 62
     7
370
    25
100
AcDbLine
 10
779.1799412878
 20
236.8329368236
 30
0.0
 11
779.1799412878
 21
234.7829368236
 31
0.0
  0
LINE
  5
371
330
1F
100
AcDbEntity
  8
0
  6
Continuous
 62
     7
370
    25
100
AcDbLine
 10
100.7799412878
 20
234.7829368236
 30
0.0
 11
779.1799412878
 21
234.7829368236
 31
0.0
  0
LINE
  5
372
330
1F
100
AcDbEntity
  8
0
  6
Continuous
 62
     7
370
    25
100
AcDbLine
 10
100.7799412878
 20
234.7829368236
 30
0.0
 11
100.7799412878
 21
236.8329368236
 31
0.0
  0
LINE
  5
373
330
1F
100
AcDbEntity
  8
0
  6
Continuous
 62
     7
370
    25
100
AcDbLine
 10
153.4299412878
 20
927.8829368236
 30
0.0
 11
153.8899412878
 21
927.8829368236
 31
0.0
  0
SPLINE
  5
374
330
1F
100
AcDbEntity
  8
0
  6
Continuous
 62
     7
370
    25
100
AcDbSpline
210
0.0
220
0.0
230
1.0
 70
     8
 71
     3
 72
    13
 73
     9
 74
     0
 42
0.000000001
 43
0.00000001
 40
0.0
 40
0.0
 40
0.0
 40
0.0
 40
0.0075462231146946
 40
0.2722763788513876
 40
0.4815195415730698
 40
0.6613541616925847
 40
0.83045889493967
 40
1.0
 40
1.0
 40
1.0
 40
1.0
 10
816.5799412877908
 20
362.6762576529756
 30
0.0
 10
816.5799381037484
 20
362.6761507037064
 30
0.0
 10
816.5798232198447
 20
362.6722918514945
 30
0.0
 10
816.5682375602332
 20
362.6652766984357
 30
0.0
 10
816.5255187809604
 20
362.6564074316045
 30
0.0
 10
816.4698471778568
 20
362.6501232217408
 30
0.0
 10
816.4037113844757
 20
362.6459035734703
 30
0.0
 10
816.3545524350775
 20
362.6453440937256
 30
0.0
 10
816.3299412877909
 20
362.6450639933864
 30
0.0
  0
LINE
  5
375
330
1F
100
AcDbEntity
  8
0
  6
Continuous
 62
     7
370
    25
100
AcDbLine
 10
816.5799412878
 20
362.676257653
 30
0.0
 11
816.5799412878
 21
355.186198805
 31
0.0
  0
SPLINE
  5
376
330
1F
100
AcDbEntity
  8
0
  6
Continuous
 62
     7
370
    25
100
AcDbSpline
210
0.0
220
0.0
230
1.0
 70
     8
 71
     3
 72
    13
 73
     9
 74
     0
 42
0.000000001
 43
0.00000001
 40
0.0
 40
0.0
 40
0.0
 40
0.0
 40
0.1695411050603169
 40
0.3386458383075219
 40
0.5184804584268253
 40
0.7277236211485645
 40
0.9924537768859454
 40
1.0
 40
1.0
 40
1.0
 40
1.0
 10
815.6299412877908
 20
362.6450639933861
 30
0.0
 10
815.6053301405042
 20
362.6453440937254
 30
0.0
 10
815.5561711911059
 20
362.6459035734704
 30
0.0
 10
815.4900353977253
 20
362.6501232217406
 30
0.0
 10
815.434363794621
 20
362.6564074316046
 30
0.0
 10
815.3916450153487
 20
362.6652766984354
 30
0.0
 10
815.3800593557366
 20
362.6722918514947
 30
0.0
 10
815.3799444718334
 20
362.6761507037064
 30
0.0
 10
815.3799412877909
 20
362.6762576529756
 30
0.0
  0
LINE
  5
377
330
1F
100
AcDbEntity
  8
0
  6
Continuous
 62
     7
370
    25
100
AcDbLine
 10
815.3799412878
 20
354.9085274876
 30
0.0
 11
815.3799412878
 21
362.676257653
 31
0.0
  0
LINE
  5
378
330
1F
100
AcDbEntity
  8
0
  6
Continuous
 62
     7
370
    25
100
AcDbLine
 10
816.3299412878
 20
362.6450639934
 30
0.0
 11
815.6299412878
 21
362.6450639934
 31
0.0
  0
SPLINE
  5
379
330
1F
100
AcDbEntity
  8
0
  6
Continuous
 62
     7
370
    25
100
AcDbSpline
210
0.0
220
0.0
230
1.0
 70
     8
 71
     3
 72
    12
 73
     8
 74
     0
 42
0.000000001
 43
0.00000001
 40
0.0
 40
0.0
 40
0.0
 40
0.0
 40
0.2289440738516527
 40
0.4594214300241413
 40
0.6825355698157529
 40
0.8947175231628335
 40
1.0
 40
1.0
 40
1.0
 40
1.0
 10
815.3799412877909
 20
362.9206508797544
 30
0.0
 10
815.3972757723684
 20
363.0495304560824
 30
0.0
 10
815.4320608338874
 20
363.3081527399503
 30
0.0
 10
815.7059306797001
 20
363.6507635934444
 30
0.0
 10
816.1029672141829
 20
363.8978239003885
 30
0.0
 10
816.5038432035357
 20
364.0089082561408
 30
0.0
 10
816.7487285966226
 20
364.0183567434929
 30
0.0
 10
816.8299412877908
 20
364.0214901973737
 30
0.0
  0
SPLINE
  5
37A
330
1F
100
AcDbEntity
  8
0
  6
Continuous
 62
     7
370
    25
100
AcDbSpline
210
0.0
220
0.0
230
1.0
 70
     8
 71
     3
 72
    12
 73
     8
 74
     0
 42
0.000000001
 43
0.00000001
 40
0.0
 40
0.0
 40
0.0
 40
0.0
 40
0.2028202020467186
 40
0.4049472449426295
 40
0.6098312030740504
 40
0.8226939241826845
 40
1.0
 40
1.0
 40
1.0
 40
1.0
 10
816.829941287791
 20
367.9940402328767
 30
0.0
 10
816.6728004472557
 20
367.9818172136885
 30
0.0
 10
816.3590558113632
 20
367.9574129487526
 30
0.0
 10
815.9386595608936
 20
367.7677617424216
 30
0.0
 10
815.611581025454
 20
367.4856315866518
 30
0.0
 10
815.413371759188
 20
367.1459861241241
 30
0.0
 10
815.3903865532659
 20
366.9052384764483
 30
0.0
 10
815.3799412877911
 20
366.7958344928188
 30
0.0
  0
LINE
  5
37B
330
1F
100
AcDbEntity
  8
0
  6
Continuous
 62
     7
370
    25
100
AcDbLine
 10
815.3799412878
 20
362.9206508798
 30
0.0
 11
815.3799412878
 21
366.7958344928
 31
0.0
  0
LINE
  5
37C
330
1F
100
AcDbEntity
  8
0
  6
Continuous
 62
     7
370
    25
100
AcDbLine
 10
822.1799412878
 20
367.7633759336
 30
0.0
 11
822.1799412878
 21
363.8881923206
 31
0.0
  0
LINE
  5
37D
330
1F
100
AcDbEntity
  8
0
  6
Continuous
 62
     7
370
    25
100
AcDbLine
 10
822.1799412878
 20
363.8881923206
 30
0.0
 11
822.1799412878
 21
363.325554719
 31
0.0
  0
LINE
  5
37E
330
1F
100
AcDbEntity
  8
0
  6
Continuous
 62
     7
370
    25
100
AcDbLine
 10
815.3799412878
 20
362.676257653
 30
0.0
 11
815.3799412878
 21
362.9206508798
 31
0.0
  0
LINE
  5
37F
330
1F
100
AcDbEntity
  8
0
  6
Continuous
 62
     7
370
    25
100
AcDbLine
 10
816.5799412878
 20
362.9206508798
 30
0.0
 11
816.5799412878
 21
362.676257653
 31
0.0
  0
LINE
  5
380
330
1F
100
AcDbEntity
  8
0
  6
Continuous
 62
     7
370
    25
100
AcDbLine
 10
816.8299412878
 20
368.0133759336
 30
0.0
 11
816.8299412878
 21
367.9940402329
 31
0.0
  0
LINE
  5
381
330
1F
100
AcDbEntity
  8
0
  6
Continuous
 62
     7
370
    25
100
AcDbLine
 10
815.3799412878
 20
366.7958344928
 30
0.0
 11
815.3799412878
 21
367.0329368236
 31
0.0
  0
SPLINE
  5
382
330
1F
100
AcDbEntity
  8
0
  6
Continuous
 62
     7
370
    25
100
AcDbSpline
210
0.0
220
0.0
230
1.0
 70
     8
 71
     3
 72
    10
 73
     6
 74
     0
 42
0.000000001
 43
0.00000001
 40
0.0
 40
0.0
 40
0.0
 40
0.0
 40
0.3816828359345585
 40
0.7620612310503693
 40
1.0
 40
1.0
 40
1.0
 40
1.0
 10
816.8299412877906
 20
349.1718334142876
 30
0.0
 10
816.6736903151451
 20
349.1846897946068
 30
0.0
 10
816.3617223738162
 20
349.2103586172273
 30
0.0
 10
815.9837715241789
 20
349.3673336517753
 30
0.0
 10
815.8210415009966
 20
349.5226082553623
 30
0.0
 10
815.7584202709266
 20
349.5823605154868
 30
0.0
  0
LINE
  5
383
330
1F
100
AcDbEntity
  8
0
  6
Continuous
 62
     7
370
    25
100
AcDbLine
 10
822.1799412878
 20
349.9651353151
 30
0.0
 11
822.1799412878
 21
349.4024977135
 31
0.0
  0
LINE
  5
384
330
1F
100
AcDbEntity
  8
0
  6
Continuous
 62
     7
370
    25
100
AcDbLine
 10
822.1799412878
 20
353.2662308713
 30
0.0
 11
822.1799412878
 21
349.9651353151
 31
0.0
  0
SPLINE
  5
385
330
1F
100
AcDbEntity
  8
0
  6
Continuous
 62
     7
370
    25
100
AcDbSpline
210
0.0
220
0.0
230
1.0
 70
     8
 71
     3
 72
    13
 73
     9
 74
     0
 42
0.000000001
 43
0.00000001
 40
0.0
 40
0.0
 40
0.0
 40
0.0
 40
0.0075462231147139
 40
0.2722763788513687
 40
0.4815195415730587
 40
0.661354161692577
 40
0.8304588949396638
 40
0.9999999999999999
 40
0.9999999999999999
 40
0.9999999999999999
 40
0.9999999999999999
 10
816.5799412877909
 20
355.2496211667755
 30
0.0
 10
816.5799444718333
 20
355.2498361017707
 30
0.0
 10
816.5800593557362
 20
355.2575912027366
 30
0.0
 10
816.591645015349
 20
355.2715408582086
 30
0.0
 10
816.6343637946212
 20
355.2888945854438
 30
0.0
 10
816.6900353977251
 20
355.3010599623303
 30
0.0
 10
816.756171191106
 20
355.3091678780995
 30
0.0
 10
816.8053301405042
 20
355.3102388702637
 30
0.0
 10
816.8299412877908
 20
355.3107750563747
 30
0.0
  0
LINE
  5
386
330
1F
100
AcDbEntity
  8
0
  6
Continuous
 62
     7
370
    25
100
AcDbLine
 10
816.5799412878
 20
355.2496211668
 30
0.0
 11
816.5799412878
 21
362.676257653
 31
0.0
  0
LINE
  5
387
330
1F
100
AcDbEntity
  8
0
  6
Continuous
 62
     7
370
    25
100
AcDbLine
 10
816.5799412878
 20
362.9206508798
 30
0.0
 11
816.5799412878
 21
363.0723510724
 31
0.0
  0
SPLINE
  5
388
330
1F
100
AcDbEntity
  8
0
  6
Continuous
 62
     7
370
    25
100
AcDbSpline
210
0.0
220
0.0
230
1.0
 70
     8
 71
     3
 72
    13
 73
     9
 74
     0
 42
0.000000001
 43
0.00000001
 40
0.0
 40
0.0
 40
0.0
 40
0.0
 40
0.1695411050603316
 40
0.338645838307553
 40
0.518480458426872
 40
0.7277236211486114
 40
0.9924537768859322
 40
0.9999999999999999
 40
0.9999999999999999
 40
0.9999999999999999
 40
0.9999999999999999
 10
817.5299412877908
 20
355.3107750563749
 30
0.0
 10
817.5545524350774
 20
355.3102388702638
 30
0.0
 10
817.6037113844757
 20
355.3091678780993
 30
0.0
 10
817.6698471778567
 20
355.3010599623306
 30
0.0
 10
817.7255187809607
 20
355.2888945854438
 30
0.0
 10
817.768237560233
 20
355.2715408582088
 30
0.0
 10
817.7798232198454
 20
355.2575912027368
 30
0.0
 10
817.7799381037483
 20
355.2498361017707
 30
0.0
 10
817.7799412877908
 20
355.2496211667755
 30
0.0
  0
LINE
  5
389
330
1F
100
AcDbEntity
  8
0
  6
Continuous
 62
     7
370
    25
100
AcDbLine
 10
817.7799412878
 20
363.075554719
 30
0.0
 11
817.7799412878
 21
355.2496211668
 31
0.0
  0
LINE
  5
38A
330
1F
100
AcDbEntity
  8
0
  6
Continuous
 62
     7
370
    25
100
AcDbLine
 10
816.8299412878
 20
355.3107750564
 30
0.0
 11
817.5299412878
 21
355.3107750564
 31
0.0
  0
SPLINE
  5
38B
330
1F
100
AcDbEntity
  8
0
  6
Continuous
 62
     7
370
    25
100
AcDbSpline
210
0.0
220
0.0
230
1.0
 70
     8
 71
     3
 72
    12
 73
     8
 74
     0
 42
0.000000001
 43
0.00000001
 40
0.0
 40
0.0
 40
0.0
 40
0.0
 40
0.2289440738516495
 40
0.4594214300241393
 40
0.682535569815751
 40
0.8947175231628327
 40
0.9999999999999999
 40
0.9999999999999999
 40
0.9999999999999999
 40
0.9999999999999999
 10
817.7799412877908
 20
355.0271354985983
 30
0.0
 10
817.7626068032133
 20
354.9110873399242
 30
0.0
 10
817.7278217416944
 20
354.6782138258262
 30
0.0
 10
817.4539518958817
 20
354.3693256384437
 30
0.0
 10
817.0569153613989
 20
354.1464565166923
 30
0.0
 10
816.6560393720462
 20
354.0462072416273
 30
0.0
 10
816.4111539789591
 20
354.0376802585217
 30
0.0
 10
816.3299412877909
 20
354.0348524081676
 30
0.0
  0
SPLINE
  5
38C
330
1F
100
AcDbEntity
  8
0
  6
Continuous
 62
     7
370
    25
100
AcDbSpline
210
0.0
220
0.0
230
1.0
 70
     8
 71
     3
 72
    12
 73
     8
 74
     0
 42
0.000000001
 43
0.00000001
 40
0.0
 40
0.0
 40
0.0
 40
0.0
 40
0.2028202020467181
 40
0.4049472449426295
 40
0.6098312030740507
 40
0.822693924182685
 40
1.0
 40
1.0
 40
1.0
 40
1.0
 10
816.3299412877906
 20
349.6124967891525
 30
0.0
 10
816.4870821283259
 20
349.6237130316851
 30
0.0
 10
816.8008267642185
 20
349.6461071840739
 30
0.0
 10
817.221223014688
 20
349.8201678518467
 30
0.0
 10
817.5483015501277
 20
350.079212315132
 30
0.0
 10
817.7465108163938
 20
350.3912230966877
 30
0.0
 10
817.7694960223158
 20
350.6125791639197
 30
0.0
 10
817.7799412877906
 20
350.7131709486767
 30
0.0
  0
LINE
  5
38D
330
1F
100
AcDbEntity
  8
0
  6
Continuous
 62
     7
370
    25
100
AcDbLine
 10
817.7799412878
 20
355.0271354986
 30
0.0
 11
817.7799412878
 21
350.7131709487
 31
0.0
  0
LINE
  5
38E
330
1F
100
AcDbEntity
  8
0
  6
Continuous
 62
     7
370
    25
100
AcDbLine
 10
810.9799412878
 20
349.8323605155
 30
0.0
 11
810.9799412878
 21
354.1463250654
 31
0.0
  0
LINE
  5
38F
330
1F
100
AcDbEntity
  8
0
  6
Continuous
 62
     7
370
    25
100
AcDbLine
 10
810.9799412878
 20
354.1463250654
 30
0.0
 11
810.9799412878
 21
354.6585274876
 31
0.0
  0
LINE
  5
390
330
1F
100
AcDbEntity
  8
0
  6
Continuous
 62
     7
370
    25
100
AcDbLine
 10
816.5799412878
 20
355.0271354986
 30
0.0
 11
816.5799412878
 21
355.2496211668
 31
0.0
  0
LINE
  5
391
330
1F
100
AcDbEntity
  8
0
  6
Continuous
 62
     7
370
    25
100
AcDbLine
 10
817.7799412878
 20
355.2496211668
 30
0.0
 11
817.7799412878
 21
355.0271354986
 31
0.0
  0
LINE
  5
392
330
1F
100
AcDbEntity
  8
0
  6
Continuous
 62
     7
370
    25
100
AcDbLine
 10
816.3299412878
 20
349.5823605155
 30
0.0
 11
816.3299412878
 21
349.6124967892
 31
0.0
  0
LINE
  5
393
330
1F
100
AcDbEntity
  8
0
  6
Continuous
 62
     7
370
    25
100
AcDbLine
 10
817.7799412878
 20
350.7131709487
 30
0.0
 11
817.7799412878
 21
350.1329368236
 31
0.0
  0
LINE
  5
394
330
1F
100
AcDbEntity
  8
0
  6
Continuous
 62
     7
370
    25
100
AcDbLine
 10
810.9799412878
 20
366.8213107095
 30
0.0
 11
810.9799412878
 21
367.3335131317
 31
0.0
  0
LINE
  5
395
330
1F
100
AcDbEntity
  8
0
  6
Continuous
 62
     7
370
    25
100
AcDbLine
 10
810.9799412878
 20
364.0842551318
 30
0.0
 11
810.9799412878
 21
366.8213107095
 31
0.0
  0
LINE
  5
396
330
1F
100
AcDbEntity
  8
0
  6
Continuous
 62
     7
370
    25
100
AcDbLine
 10
810.6265232752
 20
353.0816185154
 30
0.0
 11
810.1799412878
 21
355.2155030763
 31
0.0
  0
SPLINE
  5
397
330
1F
100
AcDbEntity
  8
0
  6
Continuous
 62
     7
370
    25
100
AcDbSpline
210
0.0
220
0.0
230
1.0
 70
     8
 71
     3
 72
     9
 73
     5
 74
     0
 42
0.000000001
 43
0.00000001
 40
0.0
 40
0.0
 40
0.0
 40
0.0
 40
0.0702005767034448
 40
1.0
 40
1.0
 40
1.0
 40
1.0
 10
810.1799412877908
 20
355.2155030763122
 30
0.0
 10
810.1803874040585
 20
355.2660887664682
 30
0.0
 10
810.186742284439
 20
355.9866767235961
 30
0.0
 10
810.4146317663343
 20
356.6928179407432
 30
0.0
 10
810.626523275176
 20
357.3493876372125
 30
0.0
  0
LINE
  5
398
330
1F
100
AcDbEntity
  8
0
  6
Continuous
 62
     7
370
    25
100
AcDbLine
 10
810.6265232752
 20
357.3493876372
 30
0.0
 11
814.9333593004
 21
357.3493876372
 31
0.0
  0
SPLINE
  5
399
330
1F
100
AcDbEntity
  8
0
  6
Continuous
 62
     7
370
    25
100
AcDbSpline
210
0.0
220
0.0
230
1.0
 70
     8
 71
     3
 72
     9
 73
     5
 74
     0
 42
0.000000001
 43
0.00000001
 40
0.0
 40
0.0
 40
0.0
 40
0.0
 40
0.0702005767034446
 40
1.0
 40
1.0
 40
1.0
 40
1.0
 10
815.3799412877909
 20
355.2155030763122
 30
0.0
 10
815.3794951715232
 20
355.2660887664681
 30
0.0
 10
815.3731402911426
 20
355.9866767235961
 30
0.0
 10
815.1452508092472
 20
356.6928179407432
 30
0.0
 10
814.9333593004055
 20
357.3493876372125
 30
0.0
  0
LINE
  5
39A
330
1F
100
AcDbEntity
  8
0
  6
Continuous
 62
     7
370
    25
100
AcDbLine
 10
815.3156970588
 20
354.9085274876
 30
0.0
 11
815.3799412878
 21
355.2155030763
 31
0.0
  0
LINE
  5
39B
330
1F
100
AcDbEntity
  8
0
  6
Continuous
 62
     7
370
    25
100
AcDbLine
 10
810.6265232752
 20
353.0816185154
 30
0.0
 11
810.9799412878
 21
353.0816185154
 31
0.0
  0
SPLINE
  5
39C
330
1F
100
AcDbEntity
  8
0
  6
Continuous
 62
     7
370
    25
100
AcDbSpline
210
0.0
220
0.0
230
1.0
 70
     8
 71
     3
 72
     9
 73
     5
 74
     0
 42
0.000000001
 43
0.00000001
 40
0.0
 40
0.0
 40
0.0
 40
0.0
 40
0.2575513451038189
 40
1.0
 40
1.0
 40
1.0
 40
1.0
 10
814.9333593004055
 20
357.3493876372125
 30
0.0
 10
815.0007745231804
 20
357.5803102522686
 30
0.0
 10
815.2625290201245
 20
358.4769183245853
 30
0.0
 10
815.329912507917
 20
359.4084398716631
 30
0.0
 10
815.3799412877909
 20
360.1000467912978
 30
0.0
  0
SPLINE
  5
39D
330
1F
100
AcDbEntity
  8
0
  6
Continuous
 62
     7
370
    25
100
AcDbSpline
210
0.0
220
0.0
230
1.0
 70
     8
 71
     3
 72
     9
 73
     5
 74
     0
 42
0.000000001
 43
0.00000001
 40
0.0
 40
0.0
 40
0.0
 40
0.0
 40
0.2575513451038153
 40
1.0
 40
1.0
 40
1.0
 40
1.0
 10
810.626523275176
 20
357.3493876372125
 30
0.0
 10
810.5591080524013
 20
357.5803102522686
 30
0.0
 10
810.2973535554572
 20
358.4769183245853
 30
0.0
 10
810.2299700676647
 20
359.4084398716632
 30
0.0
 10
810.1799412877909
 20
360.1000467912978
 30
0.0
  0
LINE
  5
39E
330
1F
100
AcDbEntity
  8
0
  6
Continuous
 62
     7
370
    25
100
AcDbLine
 10
810.1799412878
 20
355.2155030763
 30
0.0
 11
810.1799412878
 21
360.1000467913
 31
0.0
  0
SPLINE
  5
39F
330
1F
100
AcDbEntity
  8
0
  6
Continuous
 62
     7
370
    25
100
AcDbSpline
210
0.0
220
0.0
230
1.0
 70
     8
 71
     3
 72
     9
 73
     5
 74
     0
 42
0.000000001
 43
0.00000001
 40
0.0
 40
0.0
 40
0.0
 40
0.0
 40
0.268633605055556
 40
1.0
 40
1.0
 40
1.0
 40
1.0
 10
810.1799412877909
 20
360.1000467912978
 30
0.0
 10
810.1865702403753
 20
360.3501586769073
 30
0.0
 10
810.2112467978117
 20
361.2812107899057
 30
0.0
 10
810.4511015614117
 20
362.1877174427206
 30
0.0
 10
810.626523275176
 20
362.850705945383
 30
0.0
  0
LINE
  5
3A0
330
1F
100
AcDbEntity
  8
0
  6
Continuous
 62
     7
370
    25
100
AcDbLine
 10
810.6265232752
 20
362.8507059454
 30
0.0
 11
814.9333593004
 21
362.8507059454
 31
0.0
  0
SPLINE
  5
3A1
330
1F
100
AcDbEntity
  8
0
  6
Continuous
 62
     7
370
    25
100
AcDbSpline
210
0.0
220
0.0
230
1.0
 70
     8
 71
     3
 72
     9
 73
     5
 74
     0
 42
0.000000001
 43
0.00000001
 40
0.0
 40
0.0
 40
0.0
 40
0.0
 40
0.268633605055555
 40
0.9999999999999999
 40
0.9999999999999999
 40
0.9999999999999999
 40
0.9999999999999999
 10
815.3799412877909
 20
360.1000467912978
 30
0.0
 10
815.3733123352064
 20
360.3501586769072
 30
0.0
 10
815.3486357777699
 20
361.2812107899057
 30
0.0
 10
815.10878101417
 20
362.1877174427206
 30
0.0
 10
814.9333593004055
 20
362.850705945383
 30
0.0
  0
LINE
  5
3A2
330
1F
100
AcDbEntity
  8
0
  6
Continuous
 62
     7
370
    25
100
AcDbLine
 10
814.9333593004
 20
362.8507059454
 30
0.0
 11
815.3799412878
 21
363.4674805386
 31
0.0
  0
LINE
  5
3A3
330
1F
100
AcDbEntity
  8
0
  6
Continuous
 62
     7
370
    25
100
AcDbLine
 10
810.6265232752
 20
362.8507059454
 30
0.0
 11
810.1799412878
 21
363.4674805386
 31
0.0
  0
LINE
  5
3A4
330
1F
100
AcDbEntity
  8
0
  6
Continuous
 62
     7
370
    25
100
AcDbLine
 10
810.1799412878
 20
360.1000467913
 30
0.0
 11
810.1799412878
 21
363.4674805386
 31
0.0
  0
LINE
  5
3A5
330
1F
100
AcDbEntity
  8
0
  6
Continuous
 62
     7
370
    25
100
AcDbLine
 10
810.3290613691
 20
353.4653280412
 30
0.0
 11
810.6265232752
 21
353.0816185154
 31
0.0
  0
LINE
  5
3A6
330
1F
100
AcDbEntity
  8
0
  6
Continuous
 62
     7
370
    25
100
AcDbLine
 10
810.1799412878
 20
353.5829368236
 30
0.0
 11
810.1799412878
 21
355.2155030763
 31
0.0
  0
SPLINE
  5
3A7
330
1F
100
AcDbEntity
  8
0
  6
Continuous
 62
     7
370
    25
100
AcDbSpline
210
0.0
220
0.0
230
1.0
 70
     8
 71
     3
 72
     9
 73
     5
 74
     0
 42
0.000000001
 43
0.00000001
 40
0.0
 40
0.0
 40
0.0
 40
0.0
 40
0.070200576703407
 40
0.9999999999999999
 40
0.9999999999999999
 40
0.9999999999999999
 40
0.9999999999999999
 10
810.1799412877909
 20
363.4674805385677
 30
0.0
 10
810.1803874040585
 20
363.4821017458432
 30
0.0
 10
810.1867422844391
 20
363.6903793407307
 30
0.0
 10
810.4146317663343
 20
363.8944812729143
 30
0.0
 10
810.626523275176
 20
364.0842551317525
 30
0.0
  0
LINE
  5
3A8
330
1F
100
AcDbEntity
  8
0
  6
Continuous
 62
     7
370
    25
100
AcDbLine
 10
810.6265232752
 20
364.0842551318
 30
0.0
 11
814.9333593004
 21
364.0842551318
 31
0.0
  0
LINE
  5
3A9
330
1F
100
AcDbEntity
  8
0
  6
Continuous
 62
     7
370
    25
100
AcDbLine
 10
815.2308212065
 20
363.700545606
 30
0.0
 11
814.9333593004
 21
364.0842551318
 31
0.0
  0
LINE
  5
3AA
330
1F
100
AcDbEntity
  8
0
  6
Continuous
 62
     7
370
    25
100
AcDbLine
 10
810.1799412878
 20
363.4674805386
 30
0.0
 11
810.1799412878
 21
363.5829368236
 31
0.0
  0
LINE
  5
3AB
330
1F
100
AcDbEntity
  8
0
  6
Continuous
 62
     7
370
    25
100
AcDbLine
 10
818.2265232752
 20
353.9753587802
 30
0.0
 11
817.7799412878
 21
356.6337117563
 31
0.0
  0
SPLINE
  5
3AC
330
1F
100
AcDbEntity
  8
0
  6
Continuous
 62
     7
370
    25
100
AcDbSpline
210
0.0
220
0.0
230
1.0
 70
     8
 71
     3
 72
     9
 73
     5
 74
     0
 42
0.000000001
 43
0.00000001
 40
0.0
 40
0.0
 40
0.0
 40
0.0
 40
0.070200576703442
 40
1.0
 40
1.0
 40
1.0
 40
1.0
 10
817.7799412877908
 20
356.63371175633
 30
0.0
 10
817.7803874040586
 20
356.6967304511742
 30
0.0
 10
817.7867422844387
 20
357.5944252822342
 30
0.0
 10
818.0146317663342
 20
358.4741226382071
 30
0.0
 10
818.2265232751761
 20
359.2920647324661
 30
0.0
  0
LINE
  5
3AD
330
1F
100
AcDbEntity
  8
0
  6
Continuous
 62
     7
370
    25
100
AcDbLine
 10
818.2265232752
 20
359.2920647325
 30
0.0
 11
822.5333593004
 21
359.2920647325
 31
0.0
  0
SPLINE
  5
3AE
330
1F
100
AcDbEntity
  8
0
  6
Continuous
 62
     7
370
    25
100
AcDbSpline
210
0.0
220
0.0
230
1.0
 70
     8
 71
     3
 72
     9
 73
     5
 74
     0
 42
0.000000001
 43
0.00000001
 40
0.0
 40
0.0
 40
0.0
 40
0.0
 40
0.0702005767034418
 40
1.0
 40
1.0
 40
1.0
 40
1.0
 10
822.9799412877909
 20
356.63371175633
 30
0.0
 10
822.9794951715232
 20
356.6967304511741
 30
0.0
 10
822.9731402911431
 20
357.5944252822342
 30
0.0
 10
822.7452508092476
 20
358.4741226382071
 30
0.0
 10
822.5333593004057
 20
359.2920647324661
 30
0.0
  0
LINE
  5
3AF
330
1F
100
AcDbEntity
  8
0
  6
Continuous
 62
     7
370
    25
100
AcDbLine
 10
822.5333593004
 20
353.9753587802
 30
0.0
 11
822.9799412878
 21
356.6337117563
 31
0.0
  0
LINE
  5
3B0
330
1F
100
AcDbEntity
  8
0
  6
Continuous
 62
     7
370
    25
100
AcDbLine
 10
818.2265232752
 20
353.9753587802
 30
0.0
 11
822.5333593004
 21
353.9753587802
 31
0.0
  0
SPLINE
  5
3B1
330
1F
100
AcDbEntity
  8
0
  6
Continuous
 62
     7
370
    25
100
AcDbSpline
210
0.0
220
0.0
230
1.0
 70
     8
 71
     3
 72
     9
 73
     5
 74
     0
 42
0.000000001
 43
0.00000001
 40
0.0
 40
0.0
 40
0.0
 40
0.0
 40
0.2575513451038153
 40
1.0
 40
1.0
 40
1.0
 40
1.0
 10
818.226523275176
 20
359.2920647324661
 30
0.0
 10
818.159108052401
 20
359.4854718235036
 30
0.0
 10
817.8973535554572
 20
360.2364175852487
 30
0.0
 10
817.8299700676647
 20
361.016604803444
 30
0.0
 10
817.7799412877908
 20
361.5958537541604
 30
0.0
  0
SPLINE
  5
3B2
330
1F
100
AcDbEntity
  8
0
  6
Continuous
 62
     7
370
    25
100
AcDbSpline
210
0.0
220
0.0
230
1.0
 70
     8
 71
     3
 72
     9
 73
     5
 74
     0
 42
0.000000001
 43
0.00000001
 40
0.0
 40
0.0
 40
0.0
 40
0.0
 40
0.2575513451038188
 40
1.0
 40
1.0
 40
1.0
 40
1.0
 10
822.5333593004057
 20
359.2920647324661
 30
0.0
 10
822.6007745231805
 20
359.4854718235036
 30
0.0
 10
822.8625290201246
 20
360.2364175852487
 30
0.0
 10
822.929912507917
 20
361.016604803444
 30
0.0
 10
822.979941287791
 20
361.5958537541604
 30
0.0
  0
LINE
  5
3B3
330
1F
100
AcDbEntity
  8
0
  6
Continuous
 62
     7
370
    25
100
AcDbLine
 10
822.9799412878
 20
361.5958537542
 30
0.0
 11
822.9799412878
 21
356.6337117563
 31
0.0
  0
SPLINE
  5
3B4
330
1F
100
AcDbEntity
  8
0
  6
Continuous
 62
     7
370
    25
100
AcDbSpline
210
0.0
220
0.0
230
1.0
 70
     8
 71
     3
 72
     9
 73
     5
 74
     0
 42
0.000000001
 43
0.00000001
 40
0.0
 40
0.0
 40
0.0
 40
0.0
 40
0.4193685337932018
 40
1.0
 40
1.0
 40
1.0
 40
1.0
 10
817.7799412877908
 20
361.5958537541604
 30
0.0
 10
817.7836658748821
 20
361.8056101194676
 30
0.0
 10
817.792547292516
 20
362.3057820408324
 30
0.0
 10
817.9392647483676
 20
362.7927853016206
 30
0.0
 10
818.0244535198767
 20
363.0755547189795
 30
0.0
  0
LINE
  5
3B5
330
1F
100
AcDbEntity
  8
0
  6
Continuous
 62
     7
370
    25
100
AcDbLine
 10
822.1799412878
 20
363.8996427759
 30
0.0
 11
822.5333593004
 21
363.8996427759
 31
0.0
  0
SPLINE
  5
3B6
330
1F
100
AcDbEntity
  8
0
  6
Continuous
 62
     7
370
    25
100
AcDbSpline
210
0.0
220
0.0
230
1.0
 70
     8
 71
     3
 72
     9
 73
     5
 74
     0
 42
0.000000001
 43
0.00000001
 40
0.0
 40
0.0
 40
0.0
 40
0.0
 40
0.2686336050555571
 40
0.9999999999999999
 40
0.9999999999999999
 40
0.9999999999999999
 40
0.9999999999999999
 10
822.9799412877909
 20
361.5958537541604
 30
0.0
 10
822.9733123352063
 20
361.8053326404871
 30
0.0
 10
822.94863577777
 20
362.5851266885302
 30
0.0
 10
822.70878101417
 20
363.3443629144166
 30
0.0
 10
822.5333593004057
 20
363.8996427758545
 30
0.0
  0
SPLINE
  5
3B7
330
1F
100
AcDbEntity
  8
0
  6
Continuous
 62
     7
370
    25
100
AcDbSpline
210
0.0
220
0.0
230
1.0
 70
     8
 71
     3
 72
     9
 73
     5
 74
     0
 42
0.000000001
 43
0.00000001
 40
0.0
 40
0.0
 40
0.0
 40
0.0
 40
0.07020057670342
 40
1.0
 40
1.0
 40
1.0
 40
1.0
 10
817.7799412877908
 20
353.6207948257518
 30
0.0
 10
817.7803874040584
 20
353.6292000894049
 30
0.0
 10
817.7867422844387
 20
353.7489322062611
 30
0.0
 10
818.0146317663342
 20
353.8662638684014
 30
0.0
 10
818.2265232751761
 20
353.9753587801939
 30
0.0
  0
SPLINE
  5
3B8
330
1F
100
AcDbEntity
  8
0
  6
Continuous
 62
     7
370
    25
100
AcDbSpline
210
0.0
220
0.0
230
1.0
 70
     8
 71
     3
 72
     9
 73
     5
 74
     0
 42
0.000000001
 43
0.00000001
 40
0.0
 40
0.0
 40
0.0
 40
0.0
 40
0.0702005767034198
 40
1.0
 40
1.0
 40
1.0
 40
1.0
 10
822.9799412877909
 20
353.6207948257518
 30
0.0
 10
822.9794951715232
 20
353.6292000894049
 30
0.0
 10
822.9731402911424
 20
353.7489322062611
 30
0.0
 10
822.7452508092472
 20
353.8662638684014
 30
0.0
 10
822.5333593004057
 20
353.9753587801939
 30
0.0
  0
LINE
  5
3B9
330
1F
100
AcDbEntity
  8
0
  6
Continuous
 62
     7
370
    25
100
AcDbLine
 10
822.9799412878
 20
356.6337117563
 30
0.0
 11
822.9799412878
 21
353.6207948258
 31
0.0
  0
LINE
  5
3BA
330
1F
100
AcDbEntity
  8
0
  6
Continuous
 62
     7
370
    25
100
AcDbLine
 10
822.5333593004
 20
363.8996427759
 30
0.0
 11
822.9799412878
 21
363.5450788214
 31
0.0
  0
LINE
  5
3BB
330
1F
100
AcDbEntity
  8
0
  6
Continuous
 62
     7
370
    25
100
AcDbLine
 10
822.9799412878
 20
361.5958537542
 30
0.0
 11
822.9799412878
 21
363.5827861172
 31
0.0
  0
LINE
  5
3BC
330
1F
100
AcDbEntity
  8
0
  6
Continuous
 62
     7
370
    25
100
AcDbLine
 10
818.2265232752
 20
353.2662308713
 30
0.0
 11
817.7799412878
 21
353.6207948258
 31
0.0
  0
LINE
  5
3BD
330
1F
100
AcDbEntity
  8
0
  6
Continuous
 62
     7
370
    25
100
AcDbLine
 10
822.5333593004
 20
353.2662308713
 30
0.0
 11
822.9799412878
 21
353.6207948258
 31
0.0
  0
LINE
  5
3BE
330
1F
100
AcDbEntity
  8
0
  6
Continuous
 62
     7
370
    25
100
AcDbLine
 10
818.2265232752
 20
353.2662308713
 30
0.0
 11
822.5333593004
 21
353.2662308713
 31
0.0
  0
LINE
  5
3BF
330
1F
100
AcDbEntity
  8
0
  6
Continuous
 62
     7
370
    25
100
AcDbLine
 10
805.1765232752
 20
360.4867695125
 30
0.0
 11
804.9799412878
 21
361.3161841759
 31
0.0
  0
LINE
  5
3C0
330
1F
100
AcDbEntity
  8
0
  6
Continuous
 62
     7
370
    25
100
AcDbLine
 10
804.9799412878
 20
363.4805168732
 30
0.0
 11
805.1765232752
 21
364.2551885183
 31
0.0
  0
LINE
  5
3C1
330
1F
100
AcDbEntity
  8
0
  6
Continuous
 62
     7
370
    25
100
AcDbLine
 10
805.1765232752
 20
364.2551885183
 30
0.0
 11
809.4833593004
 21
364.2551885183
 31
0.0
  0
SPLINE
  5
3C2
330
1F
100
AcDbEntity
  8
0
  6
Continuous
 62
     7
370
    25
100
AcDbSpline
210
0.0
220
0.0
230
1.0
 70
     8
 71
     3
 72
     9
 73
     5
 74
     0
 42
0.000000001
 43
0.00000001
 40
0.0
 40
0.0
 40
0.0
 40
0.0
 40
0.0702005767034004
 40
1.0
 40
1.0
 40
1.0
 40
1.0
 10
809.9299412877908
 20
362.3709790154002
 30
0.0
 10
809.9294951715233
 20
362.4156459293708
 30
0.0
 10
809.9231402911427
 20
363.051921528065
 30
0.0
 10
809.6952508092472
 20
363.6754407268781
 30
0.0
 10
809.4833593004056
 20
364.2551885183489
 30
0.0
  0
LINE
  5
3C3
330
1F
100
AcDbEntity
  8
0
  6
Continuous
 62
     7
370
    25
100
AcDbLine
 10
809.4833593004
 20
360.4867695125
 30
0.0
 11
809.9299412878
 21
362.3709790154
 31
0.0
  0
LINE
  5
3C4
330
1F
100
AcDbEntity
  8
0
  6
Continuous
 62
     7
370
    25
100
AcDbLine
 10
805.1765232752
 20
360.4867695125
 30
0.0
 11
809.4833593004
 21
360.4867695125
 31
0.0
  0
LINE
  5
3C5
330
1F
100
AcDbEntity
  8
0
  6
Continuous
 62
     7
370
    25
100
AcDbLine
 10
804.9799412878
 20
359.4998111766
 30
0.0
 11
805.1765232752
 21
360.4867695125
 31
0.0
  0
SPLINE
  5
3C6
330
1F
100
AcDbEntity
  8
0
  6
Continuous
 62
     7
370
    25
100
AcDbSpline
210
0.0
220
0.0
230
1.0
 70
     8
 71
     3
 72
     9
 73
     5
 74
     0
 42
0.000000001
 43
0.00000001
 40
0.0
 40
0.0
 40
0.0
 40
0.0
 40
0.2686336050555592
 40
1.0
 40
1.0
 40
1.0
 40
1.0
 10
809.9299412877908
 20
357.6506436650682
 30
0.0
 10
809.9233123352063
 20
357.9085268646136
 30
0.0
 10
809.89863577777
 20
358.8685080236802
 30
0.0
 10
809.65878101417
 20
359.803181061979
 30
0.0
 10
809.4833593004056
 20
360.4867695124515
 30
0.0
  0
LINE
  5
3C7
330
1F
100
AcDbEntity
  8
0
  6
Continuous
 62
     7
370
    25
100
AcDbLine
 10
809.9299412878
 20
362.3709790154
 30
0.0
 11
809.9299412878
 21
357.6506436651
 31
0.0
  0
SPLINE
  5
3C8
330
1F
100
AcDbEntity
  8
0
  6
Continuous
 62
     7
370
    25
100
AcDbSpline
210
0.0
220
0.0
230
1.0
 70
     8
 71
     3
 72
     9
 73
     5
 74
     0
 42
0.000000001
 43
0.00000001
 40
0.0
 40
0.0
 40
0.0
 40
0.0
 40
0.9250528692550067
 40
1.0
 40
1.0
 40
1.0
 40
1.0
 10
805.176523275176
 20
354.8145178176847
 30
0.0
 10
805.0979695624127
 20
355.0505526175119
 30
0.0
 10
805.0130514832692
 20
355.3057107902737
 30
0.0
 10
804.9822497865715
 20
355.5708915321873
 30
0.0
 10
804.979941287782
 20
355.5907660679225
 30
0.0
  0
SPLINE
  5
3C9
330
1F
100
AcDbEntity
  8
0
  6
Continuous
 62
     7
370
    25
100
AcDbSpline
210
0.0
220
0.0
230
1.0
 70
     8
 71
     3
 72
     9
 73
     5
 74
     0
 42
0.000000001
 43
0.00000001
 40
0.0
 40
0.0
 40
0.0
 40
0.0
 40
0.2575513451038194
 40
0.9999999999999999
 40
0.9999999999999999
 40
0.9999999999999999
 40
0.9999999999999999
 10
809.4833593004056
 20
354.8145178176847
 30
0.0
 10
809.5507745231805
 20
355.0526155101354
 30
0.0
 10
809.8125290201245
 20
355.9770824056769
 30
0.0
 10
809.879912507917
 20
356.9375475847734
 30
0.0
 10
809.9299412877908
 20
357.6506436650682
 30
0.0
  0
LINE
  5
3CA
330
1F
100
AcDbEntity
  8
0
  6
Continuous
 62
     7
370
    25
100
AcDbLine
 10
805.1765232752
 20
354.8145178177
 30
0.0
 11
809.4833593004
 21
354.8145178177
 31
0.0
  0
LINE
  5
3CB
330
1F
100
AcDbEntity
  8
0
  6
Continuous
 62
     7
370
    25
100
AcDbLine
 10
804.9799412878
 20
354.4231480685
 30
0.0
 11
805.1765232752
 21
354.8145178177
 31
0.0
  0
SPLINE
  5
3CC
330
1F
100
AcDbEntity
  8
0
  6
Continuous
 62
     7
370
    25
100
AcDbSpline
210
0.0
220
0.0
230
1.0
 70
     8
 71
     3
 72
     9
 73
     5
 74
     0
 42
0.000000001
 43
0.00000001
 40
0.0
 40
0.0
 40
0.0
 40
0.0
 40
0.0702005767034453
 40
0.9999999999999999
 40
0.9999999999999999
 40
0.9999999999999999
 40
0.9999999999999999
 10
809.9299412877908
 20
353.86260147325
 30
0.0
 10
809.9294951715233
 20
353.8851675230431
 30
0.0
 10
809.9231402911424
 20
354.2066185830308
 30
0.0
 10
809.6952508092472
 20
354.5216250170236
 30
0.0
 10
809.4833593004056
 20
354.8145178176847
 30
0.0
  0
LINE
  5
3CD
330
1F
100
AcDbEntity
  8
0
  6
Continuous
 62
     7
370
    25
100
AcDbLine
 10
809.9299412878
 20
357.6506436651
 30
0.0
 11
809.9299412878
 21
353.8626014732
 31
0.0
  0
LINE
  5
3CE
330
1F
100
AcDbEntity
  8
0
  6
Continuous
 62
     7
370
    25
100
AcDbLine
 10
805.1765232752
 20
352.9106851288
 30
0.0
 11
805.0005783577
 21
353.2857222941
 31
0.0
  0
LINE
  5
3CF
330
1F
100
AcDbEntity
  8
0
  6
Continuous
 62
     7
370
    25
100
AcDbLine
 10
809.4833593004
 20
352.9106851288
 30
0.0
 11
809.9299412878
 21
353.8626014732
 31
0.0
  0
LINE
  5
3D0
330
1F
100
AcDbEntity
  8
0
  6
Continuous
 62
     7
370
    25
100
AcDbLine
 10
805.1765232752
 20
352.9106851288
 30
0.0
 11
809.4833593004
 21
352.9106851288
 31
0.0
  0
LINE
  5
3D1
330
1F
100
AcDbEntity
  8
0
  6
Continuous
 62
     7
370
    25
100
AcDbLine
 10
809.4833593004
 20
364.2551885183
 30
0.0
 11
809.6593042178
 21
363.880151353
 31
0.0
  0
LINE
  5
3D2
330
1F
100
AcDbEntity
  8
0
  6
Continuous
 62
     7
370
    25
100
AcDbLine
 10
809.9299412878
 20
363.5829368236
 30
0.0
 11
809.9299412878
 21
362.3709790154
 31
0.0
  0
LINE
  5
3D3
330
1F
100
AcDbEntity
  8
0
  6
Continuous
 62
     7
370
    25
100
AcDbLine
 10
805.1765232752
 20
364.2551885183
 30
0.0
 11
805.0005783577
 21
363.880151353
 31
0.0
  0
LINE
  5
3D4
330
1F
100
AcDbEntity
  8
0
  6
Continuous
 62
     7
370
    25
100
AcDbLine
 10
809.9299412878
 20
353.8626014732
 30
0.0
 11
809.9299412878
 21
353.5829368236
 31
0.0
  0
LINE
  5
3D5
330
1F
100
AcDbEntity
  8
0
  6
Continuous
 62
     7
370
    25
100
AcDbLine
 10
798.2299412878
 20
235.0829368236
 30
0.0
 11
800.2299412878
 21
235.0829368236
 31
0.0
  0
LINE
  5
3D6
330
1F
100
AcDbEntity
  8
0
  6
Continuous
 62
     7
370
    25
100
AcDbLine
 10
800.2299412878
 20
235.0829368236
 30
0.0
 11
800.2299412878
 21
233.5829368236
 31
0.0
  0
LINE
  5
3D7
330
1F
100
AcDbEntity
  8
0
  6
Continuous
 62
     7
370
    25
100
AcDbLine
 10
800.2299412878
 20
233.5829368236
 30
0.0
 11
798.2299412878
 21
233.5829368236
 31
0.0
  0
LINE
  5
3D8
330
1F
100
AcDbEntity
  8
0
  6
Continuous
 62
     7
370
    25
100
AcDbLine
 10
782.2299412878
 20
235.0829368236
 30
0.0
 11
798.2299412878
 21
235.0829368236
 31
0.0
  0
LINE
  5
3D9
330
1F
100
AcDbEntity
  8
0
  6
Continuous
 62
     7
370
    25
100
AcDbLine
 10
782.2299412878
 20
233.5829368236
 30
0.0
 11
798.2299412878
 21
233.5829368236
 31
0.0
  0
LINE
  5
3DA
330
1F
100
AcDbEntity
  8
0
  6
Continuous
 62
     7
370
    25
100
AcDbLine
 10
780.2299412878
 20
233.5829368236
 30
0.0
 11
780.2299412878
 21
235.0829368236
 31
0.0
  0
LINE
  5
3DB
330
1F
100
AcDbEntity
  8
0
  6
Continuous
 62
     7
370
    25
100
AcDbLine
 10
780.2299412878
 20
235.0829368236
 30
0.0
 11
782.2299412878
 21
235.0829368236
 31
0.0
  0
LINE
  5
3DC
330
1F
100
AcDbEntity
  8
0
  6
Continuous
 62
     7
370
    25
100
AcDbLine
 10
782.2299412878
 20
233.5829368236
 30
0.0
 11
780.2299412878
 21
233.5829368236
 31
0.0
  0
ARC
  5
3DD
330
1F
100
AcDbEntity
  8
0
  6
Continuous
 62
     7
370
    25
100
AcDbCircle
 10
800.2299412878
 20
236.3329368236
 30
0.0
 40
2.750000000000034
100
AcDbArc
 50
270.0
 51
344.1733798682
  0
ARC
  5
3DE
330
1F
100
AcDbEntity
  8
0
  6
Continuous
 62
     7
370
    25
100
AcDbCircle
 10
800.2299412878
 20
236.3329368236
 30
0.0
 40
1.250000000000102
100
AcDbArc
 50
270.0
 51
323.1301023544
  0
LINE
  5
3DF
330
1F
100
AcDbEntity
  8
0
  6
Continuous
 62
     7
370
    25
100
AcDbLine
 10
98.2799412878
 20
777.0829368236
 30
0.0
 11
98.2799412878
 21
778.3829368236
 31
0.0
  0
LINE
  5
3E0
330
1F
100
AcDbEntity
  8
0
  6
Continuous
 62
     7
370
    25
100
AcDbLine
 10
98.7799412878
 20
777.0829368236
 30
0.0
 11
98.7799412878
 21
778.3829368236
 31
0.0
  0
LINE
  5
3E1
330
1F
100
AcDbEntity
  8
0
  6
Continuous
 62
     7
370
    25
100
AcDbLine
 10
53.0799412878
 20
770.0829368236
 30
0.0
 11
45.2799412878
 21
770.0829368236
 31
0.0
  0
LINE
  5
3E2
330
1F
100
AcDbEntity
  8
0
  6
Continuous
 62
     7
370
    25
100
AcDbLine
 10
45.2799412878
 20
232.5829368236
 30
0.0
 11
53.0799412878
 21
232.5829368236
 31
0.0
  0
LINE
  5
3E3
330
1F
100
AcDbEntity
  8
0
  6
Continuous
 62
     7
370
    25
100
AcDbLine
 10
101.8799412878
 20
233.0829368236
 30
0.0
 11
114.0979752765
 21
233.0829368236
 31
0.0
  0
LINE
  5
3E4
330
1F
100
AcDbEntity
  8
0
  6
Continuous
 62
     7
370
    25
100
AcDbLine
 10
99.8799412878
 20
233.0829368236
 30
0.0
 11
99.8799412878
 21
235.5829368236
 31
0.0
  0
LINE
  5
3E5
330
1F
100
AcDbEntity
  8
0
  6
Continuous
 62
     7
370
    25
100
AcDbLine
 10
99.8799412878
 20
233.0829368236
 30
0.0
 11
101.8799412878
 21
233.0829368236
 31
0.0
  0
LINE
  5
3E6
330
1F
100
AcDbEntity
  8
0
  6
Continuous
 62
     7
370
    25
100
AcDbLine
 10
178.661907299
 20
233.0829368236
 30
0.0
 11
191.8799412878
 21
233.0829368236
 31
0.0
  0
LINE
  5
3E7
330
1F
100
AcDbEntity
  8
0
  6
Continuous
 62
     7
370
    25
100
AcDbLine
 10
193.8799412878
 20
233.0829368236
 30
0.0
 11
193.8799412878
 21
234.7829368236
 31
0.0
  0
LINE
  5
3E8
330
1F
100
AcDbEntity
  8
0
  6
Continuous
 62
     7
370
    25
100
AcDbLine
 10
191.8799412878
 20
233.0829368236
 30
0.0
 11
193.8799412878
 21
233.0829368236
 31
0.0
  0
LINE
  5
3E9
330
1F
100
AcDbEntity
  8
0
  6
Continuous
 62
     7
370
    25
100
AcDbLine
 10
97.8799412878
 20
233.0829368236
 30
0.0
 11
99.8799412878
 21
233.0829368236
 31
0.0
  0
LINE
  5
3EA
330
1F
100
AcDbEntity
  8
0
  6
Continuous
 62
     7
370
    25
100
AcDbLine
 10
82.367362921
 20
233.0829368236
 30
0.0
 11
92.9799412878
 21
233.0829368236
 31
0.0
  0
LINE
  5
3EB
330
1F
100
AcDbEntity
  8
0
  6
Continuous
 62
     7
370
    25
100
AcDbLine
 10
94.4799412878
 20
233.0829368236
 30
0.0
 11
97.8799412878
 21
233.0829368236
 31
0.0
  0
LINE
  5
3EC
330
1F
100
AcDbEntity
  8
0
  6
Continuous
 62
     7
370
    25
100
AcDbLine
 10
80.7795497124
 20
233.0829368236
 30
0.0
 11
82.367362921
 21
233.0829368236
 31
0.0
  0
LINE
  5
3ED
330
1F
100
AcDbEntity
  8
0
  6
Continuous
 62
     7
370
    25
100
AcDbLine
 10
42.8286884533
 20
233.0829368236
 30
0.0
 11
80.7795497124
 21
233.0829368236
 31
0.0
  0
LINE
  5
3EE
330
1F
100
AcDbEntity
  8
0
  6
Continuous
 62
     7
370
    25
100
AcDbLine
 10
42.8286884533
 20
235.5829368236
 30
0.0
 11
76.7799412818
 21
235.5829368236
 31
0.0
  0
LINE
  5
3EF
330
1F
100
AcDbEntity
  8
0
  6
Continuous
 62
     7
370
    25
100
AcDbLine
 10
41.1799412878
 20
233.0829368236
 30
0.0
 11
42.8286884533
 21
233.0829368236
 31
0.0
  0
LINE
  5
3F0
330
1F
100
AcDbEntity
  8
0
  6
Continuous
 62
     7
370
    25
100
AcDbLine
 10
779.6799412818
 20
235.5829368236
 30
0.0
 11
779.1799412878
 21
235.5829368236
 31
0.0
  0
SPLINE
  5
3F1
330
1F
100
AcDbEntity
  8
0
  6
Continuous
 62
     7
370
    25
100
AcDbSpline
210
0.0
220
0.0
230
1.0
 70
     8
 71
     3
 72
     9
 73
     5
 74
     0
 42
0.000000001
 43
0.00000001
 40
0.0
 40
0.0
 40
0.0
 40
0.0
 40
0.6376133816628432
 40
1.0
 40
1.0
 40
1.0
 40
1.0
 10
100.3398202051515
 20
237.0829368235808
 30
0.0
 10
100.4161875093602
 20
236.9366330315601
 30
0.0
 10
100.5359580574774
 20
236.7071776966687
 30
0.0
 10
100.7150432209837
 20
236.5308372562236
 30
0.0
 10
100.7799412877811
 20
236.4669338403346
 30
0.0
  0
LINE
  5
3F2
330
1F
100
AcDbEntity
  8
0
  6
Continuous
 62
     7
370
    25
100
AcDbLine
 10
100.2799412818
 20
235.5829368236
 30
0.0
 11
100.7799412818
 21
235.5829368236
 31
0.0
  0
LINE
  5
3F3
330
1F
100
AcDbEntity
  8
0
  6
Continuous
 62
     7
370
    25
100
AcDbLine
 10
92.9799412878
 20
228.5829368236
 30
0.0
 11
92.9799412878
 21
234.3329368236
 31
0.0
  0
LINE
  5
3F4
330
1F
100
AcDbEntity
  8
0
  6
Continuous
 62
     7
370
    25
100
AcDbLine
 10
94.4799412878
 20
228.5829368236
 30
0.0
 11
94.4799412878
 21
234.3329368236
 31
0.0
  0
LINE
  5
3F5
330
1F
100
AcDbEntity
  8
0
  6
Continuous
 62
     7
370
    25
100
AcDbLine
 10
92.9799412878
 20
223.5829368236
 30
0.0
 11
94.4799412878
 21
223.5829368236
 31
0.0
  0
LINE
  5
3F6
330
1F
100
AcDbEntity
  8
0
  6
Continuous
 62
     7
370
    25
100
AcDbLine
 10
92.9799412878
 20
223.5829368236
 30
0.0
 11
92.9799412878
 21
228.5829368236
 31
0.0
  0
LINE
  5
3F7
330
1F
100
AcDbEntity
  8
0
  6
Continuous
 62
     7
370
    25
100
AcDbLine
 10
94.4799412878
 20
223.5829368236
 30
0.0
 11
94.4799412878
 21
228.5829368236
 31
0.0
  0
ARC
  5
3F8
330
1F
100
AcDbEntity
  8
0
  6
Continuous
 62
     7
370
    25
100
AcDbCircle
 10
95.7299412878
 20
234.3329368236
 30
0.0
 40
1.249999999999986
100
AcDbArc
 50
90.0
 51
180.0
  0
ARC
  5
3F9
330
1F
100
AcDbEntity
  8
0
  6
Continuous
 62
     7
370
    25
100
AcDbCircle
 10
95.7299412878
 20
234.3329368236
 30
0.0
 40
2.750000000000007
100
AcDbArc
 50
152.9643082106
 51
180.0
  0
LINE
  5
3FA
330
1F
100
AcDbEntity
  8
0
  6
Continuous
 62
     7
370
    25
100
AcDbLine
 10
880.1799412882
 20
299.9829368236
 30
0.0
 11
843.1799412882
 21
299.9829368236
 31
0.0
  0
LINE
  5
3FB
330
1F
100
AcDbEntity
  8
0
  6
Continuous
 62
     7
370
    25
100
AcDbLine
 10
880.1799412882
 20
307.5829368236
 30
0.0
 11
843.1799412882
 21
307.5829368236
 31
0.0
  0
LINE
  5
3FC
330
1F
100
AcDbEntity
  8
0
  6
Continuous
 62
     7
370
    25
100
AcDbLine
 10
837.6799412882
 20
297.8329368236
 30
0.0
 11
837.6799412882
 21
263.3329368236
 31
0.0
  0
ARC
  5
3FD
330
1F
100
AcDbEntity
  8
0
  6
Continuous
 62
     7
370
    25
100
AcDbCircle
 10
861.6799412882
 20
280.5829368236
 30
0.0
 40
13.50000000000011
100
AcDbArc
 50
270.0
 51
90.0
  0
LINE
  5
3FE
330
1F
100
AcDbEntity
  8
0
  6
Continuous
 62
     7
370
    25
100
AcDbLine
 10
806.1799412882
 20
279.8329368236
 30
0.0
 11
806.1799412882
 21
281.3329368236
 31
0.0
  0
LINE
  5
3FF
330
1F
100
AcDbEntity
  8
0
  6
Continuous
 62
     7
370
    25
100
AcDbLine
 10
806.1799412882
 20
281.3329368236
 30
0.0
 11
806.1799412882
 21
291.3329368236
 31
0.0
  0
LINE
  5
400
330
1F
100
AcDbEntity
  8
0
  6
Continuous
 62
     7
370
    25
100
AcDbLine
 10
806.1799412882
 20
269.8329368236
 30
0.0
 11
806.1799412882
 21
279.8329368236
 31
0.0
  0
ARC
  5
401
330
1F
100
AcDbEntity
  8
0
  6
Continuous
 62
     7
370
    25
100
AcDbCircle
 10
816.1799412882
 20
266.5829368236
 30
0.0
 40
2.0
100
AcDbArc
 50
0.0
 51
90.0
  0
ARC
  5
402
330
1F
100
AcDbEntity
  8
0
  6
Continuous
 62
     7
370
    25
100
AcDbCircle
 10
816.1799412882
 20
294.5829368236
 30
0.0
 40
2.0
100
AcDbArc
 50
270.0
 51
0.0
  0
LINE
  5
403
330
1F
100
AcDbEntity
  8
0
  6
Continuous
 62
     7
370
    25
100
AcDbLine
 10
816.1799412882
 20
268.5829368236
 30
0.0
 11
806.6799412882
 21
268.5829368236
 31
0.0
  0
ARC
  5
404
330
1F
100
AcDbEntity
  8
0
  6
Continuous
 62
     7
370
    25
100
AcDbCircle
 10
806.6799412882
 20
292.0829368236
 30
0.0
 40
0.5000000000000568
100
AcDbArc
 50
90.0
 51
180.0
  0
LINE
  5
405
330
1F
100
AcDbEntity
  8
0
  6
Continuous
 62
     7
370
    25
100
AcDbLine
 10
806.1799412882
 20
291.3329368236
 30
0.0
 11
806.1799412882
 21
292.0829368236
 31
0.0
  0
LINE
  5
406
330
1F
100
AcDbEntity
  8
0
  6
Continuous
 62
     7
370
    25
100
AcDbLine
 10
806.6799412882
 20
292.5829368236
 30
0.0
 11
816.1799412882
 21
292.5829368236
 31
0.0
  0
ARC
  5
407
330
1F
100
AcDbEntity
  8
0
  6
Continuous
 62
     7
370
    25
100
AcDbCircle
 10
806.6799412882
 20
269.0829368236
 30
0.0
 40
0.5000000000000568
100
AcDbArc
 50
180.0
 51
270.0
  0
LINE
  5
408
330
1F
100
AcDbEntity
  8
0
  6
Continuous
 62
     7
370
    25
100
AcDbLine
 10
806.1799412882
 20
269.0829368236
 30
0.0
 11
806.1799412882
 21
269.8329368236
 31
0.0
  0
LINE
  5
409
330
1F
100
AcDbEntity
  8
0
  6
Continuous
 62
     7
370
    25
100
AcDbLine
 10
820.3139158844
 20
280.5829368236
 30
0.0
 11
821.1799412882
 21
282.3149876311
 31
0.0
  0
LINE
  5
40A
330
1F
100
AcDbEntity
  8
0
  6
Continuous
 62
     7
370
    25
100
AcDbLine
 10
820.3139158844
 20
280.5829368236
 30
0.0
 11
818.1799412882
 21
280.5829368236
 31
0.0
  0
LINE
  5
40B
330
1F
100
AcDbEntity
  8
0
  6
Continuous
 62
     7
370
    25
100
AcDbLine
 10
818.1799412882
 20
280.5829368236
 30
0.0
 11
818.1799412882
 21
299.5829368236
 31
0.0
  0
LINE
  5
40C
330
1F
100
AcDbEntity
  8
0
  6
Continuous
 62
     7
370
    25
100
AcDbLine
 10
818.1799412882
 20
299.5829368236
 30
0.0
 11
820.3139158844
 21
301.7169114198
 31
0.0
  0
LINE
  5
40D
330
1F
100
AcDbEntity
  8
0
  6
Continuous
 62
     7
370
    25
100
AcDbLine
 10
821.1799412882
 20
300.850886016
 30
0.0
 11
820.3139158844
 21
301.7169114198
 31
0.0
  0
LINE
  5
40E
330
1F
100
AcDbEntity
  8
0
  6
Continuous
 62
     7
370
    25
100
AcDbLine
 10
821.1799412882
 20
300.850886016
 30
0.0
 11
821.1799412882
 21
282.3149876311
 31
0.0
  0
LINE
  5
40F
330
1F
100
AcDbEntity
  8
0
  6
Continuous
 62
     7
370
    25
100
AcDbLine
 10
820.3139158844
 20
259.4489622274
 30
0.0
 11
821.1799412882
 21
260.3149876311
 31
0.0
  0
LINE
  5
410
330
1F
100
AcDbEntity
  8
0
  6
Continuous
 62
     7
370
    25
100
AcDbLine
 10
820.3139158844
 20
259.4489622274
 30
0.0
 11
818.1799412882
 21
261.5829368236
 31
0.0
  0
LINE
  5
411
330
1F
100
AcDbEntity
  8
0
  6
Continuous
 62
     7
370
    25
100
AcDbLine
 10
818.1799412882
 20
261.5829368236
 30
0.0
 11
818.1799412882
 21
280.5829368236
 31
0.0
  0
LINE
  5
412
330
1F
100
AcDbEntity
  8
0
  6
Continuous
 62
     7
370
    25
100
AcDbLine
 10
821.1799412882
 20
278.850886016
 30
0.0
 11
820.3139158844
 21
280.5829368236
 31
0.0
  0
LINE
  5
413
330
1F
100
AcDbEntity
  8
0
  6
Continuous
 62
     7
370
    25
100
AcDbLine
 10
821.1799412882
 20
278.850886016
 30
0.0
 11
821.1799412882
 21
260.3149876311
 31
0.0
  0
LINE
  5
414
330
1F
100
AcDbEntity
  8
0
  6
Continuous
 62
     7
370
    25
100
AcDbLine
 10
821.1799412882
 20
282.3149876311
 30
0.0
 11
836.6799412882
 21
282.3149876311
 31
0.0
  0
LINE
  5
415
330
1F
100
AcDbEntity
  8
0
  6
Continuous
 62
     7
370
    25
100
AcDbLine
 10
836.6799412882
 20
278.850886016
 30
0.0
 11
821.1799412882
 21
278.850886016
 31
0.0
  0
LINE
  5
416
330
1F
100
AcDbEntity
  8
0
  6
Continuous
 62
     7
370
    25
100
AcDbLine
 10
836.6799412882
 20
300.850886016
 30
0.0
 11
821.1799412882
 21
300.850886016
 31
0.0
  0
LINE
  5
417
330
1F
100
AcDbEntity
  8
0
  6
Continuous
 62
     7
370
    25
100
AcDbLine
 10
821.1799412882
 20
260.3149876311
 30
0.0
 11
836.6799412882
 21
260.3149876311
 31
0.0
  0
LINE
  5
418
330
1F
100
AcDbEntity
  8
0
  6
Continuous
 62
     7
370
    25
100
AcDbLine
 10
837.1799412882
 20
300.4848606122
 30
0.0
 11
837.1799412882
 21
282.1810130349
 31
0.0
  0
ELLIPSE
  5
419
330
1F
100
AcDbEntity
  8
0
  6
Continuous
 62
     7
370
    25
100
AcDbEllipse
 10
836.6799412882
 20
282.1810130349
 30
0.0
 11
0.4999999999998863
 21
0.0
 31
0.0
210
0.0
220
0.0
230
1.0
 40
0.2679491924
 41
0.0
 42
1.570796326794897
  0
ELLIPSE
  5
41A
330
1F
100
AcDbEntity
  8
0
  6
Continuous
 62
     7
370
    25
100
AcDbEllipse
 10
836.6799412882
 20
300.4848606122
 30
0.0
 11
0.4999999999998863
 21
0.0
 31
0.0
210
0.0
220
0.0
230
1.0
 40
0.7320508076
 41
0.0
 42
1.570796326794897
  0
LINE
  5
41B
330
1F
100
AcDbEntity
  8
0
  6
Continuous
 62
     7
370
    25
100
AcDbLine
 10
837.1799412882
 20
278.9848606122
 30
0.0
 11
837.1799412882
 21
260.6810130349
 31
0.0
  0
ELLIPSE
  5
41C
330
1F
100
AcDbEntity
  8
0
  6
Continuous
 62
     7
370
    25
100
AcDbEllipse
 10
836.6799412882
 20
260.6810130349
 30
0.0
 11
0.5
 21
0.0
 31
0.0
210
0.0
220
0.0
230
1.0
 40
0.7320508076
 41
4.7123889803847
 42
6.283185307179586
  0
ELLIPSE
  5
41D
330
1F
100
AcDbEntity
  8
0
  6
Continuous
 62
     7
370
    25
100
AcDbEllipse
 10
836.6799412882
 20
278.9848606122
 30
0.0
 11
0.4999999999998863
 21
0.0
 31
0.0
210
0.0
220
0.0
230
1.0
 40
0.2679491924
 41
4.712388980384693
 42
6.283185307179586
  0
LINE
  5
41E
330
1F
100
AcDbEntity
  8
0
  6
Continuous
 62
     7
370
    25
100
AcDbLine
 10
837.1799412882
 20
282.1810130349
 30
0.0
 11
837.1799412882
 21
278.9848606122
 31
0.0
  0
LINE
  5
41F
330
1F
100
AcDbEntity
  8
0
  6
Continuous
 62
     7
370
    25
100
AcDbLine
 10
821.1799412882
 20
258.5829368236
 30
0.0
 11
820.3139158844
 21
259.4489622274
 31
0.0
  0
LINE
  5
420
330
1F
100
AcDbEntity
  8
0
  6
Continuous
 62
     7
370
    25
100
AcDbLine
 10
836.6799412882
 20
258.5829368236
 30
0.0
 11
821.1799412882
 21
258.5829368236
 31
0.0
  0
LINE
  5
421
330
1F
100
AcDbEntity
  8
0
  6
Continuous
 62
     7
370
    25
100
AcDbLine
 10
820.3139158844
 20
301.7169114198
 30
0.0
 11
821.1799412882
 21
302.5829368236
 31
0.0
  0
LINE
  5
422
330
1F
100
AcDbEntity
  8
0
  6
Continuous
 62
     7
370
    25
100
AcDbLine
 10
821.1799412882
 20
302.5829368236
 30
0.0
 11
836.6799412882
 21
302.5829368236
 31
0.0
  0
ARC
  5
423
330
1F
100
AcDbEntity
  8
0
  6
Continuous
 62
     7
370
    25
100
AcDbCircle
 10
836.6799412882
 20
259.0829368236
 30
0.0
 40
0.5000000000001137
100
AcDbArc
 50
270.0
 51
0.0
  0
LINE
  5
424
330
1F
100
AcDbEntity
  8
0
  6
Continuous
 62
     7
370
    25
100
AcDbLine
 10
837.1799412882
 20
260.6810130349
 30
0.0
 11
837.1799412882
 21
259.0829368236
 31
0.0
  0
ARC
  5
425
330
1F
100
AcDbEntity
  8
0
  6
Continuous
 62
     7
370
    25
100
AcDbCircle
 10
836.6799412882
 20
302.0829368236
 30
0.0
 40
0.5000000000000568
100
AcDbArc
 50
360.0
 51
90.0000000001
  0
LINE
  5
426
330
1F
100
AcDbEntity
  8
0
  6
Continuous
 62
     7
370
    25
100
AcDbLine
 10
837.1799412882
 20
302.0829368236
 30
0.0
 11
837.1799412882
 21
300.4848606122
 31
0.0
  0
ENDSEC
  0
SECTION
  2
OBJECTS
  0
DICTIONARY
  5
C
330
0
100
AcDbDictionary
281
     1
  3
ACAD_GROUP
350
D
  3
ACAD_LAYOUT
350
1A
  3
ACAD_MLINESTYLE
350
17
  3
ACAD_PLOTSETTINGS
350
19
  3
ACAD_PLOTSTYLENAME
350
E
  3
ACAD_SCALELIST
350
47
  0
DICTIONARY
  5
D
102
{ACAD_REACTORS
330
C
102
}
330
C
100
AcDbDictionary
281
     1
  0
DICTIONARY
  5
1A
102
{ACAD_REACTORS
330
C
102
}
330
C
100
AcDbDictionary
281
     1
  3
Layout1
350
1E
  3
Layout2
350
26
  3
Model
350
22
  0
DICTIONARY
  5
17
102
{ACAD_REACTORS
330
C
102
}
330
C
100
AcDbDictionary
281
     1
  3
Standard
350
18
  0
DICTIONARY
  5
19
102
{ACAD_REACTORS
330
C
102
}
330
C
100
AcDbDictionary
281
     1
  0
ACDBDICTIONARYWDFLT
  5
E
102
{ACAD_REACTORS
330
C
102
}
330
C
100
AcDbDictionary
281
     1
  3
Normal
350
F
100
AcDbDictionaryWithDefault
340
F
  0
DICTIONARY
  5
47
102
{ACAD_REACTORS
330
C
102
}
330
C
100
AcDbDictionary
281
     1
  3
A0
350
48
  3
A1
350
49
  3
A2
350
4A
  3
A3
350
4B
  3
A4
350
4C
  3
A5
350
4D
  3
A6
350
4E
  3
A7
350
4F
  3
A8
350
50
  3
A9
350
51
  3
B0
350
52
  3
B1
350
53
  3
B2
350
54
  3
B3
350
55
  3
B4
350
56
  3
B5
350
57
  3
B6
350
58
  3
B7
350
59
  3
B8
350
5A
  3
B9
350
5B
  3
C0
350
5C
  3
C1
350
5D
  3
C2
350
5E
  3
C3
350
5F
  3
C4
350
60
  3
C5
350
61
  3
C6
350
62
  3
C7
350
63
  3
C8
350
64
  3
C9
350
65
  3
D0
350
66
  3
D1
350
67
  3
D2
350
68
  0
LAYOUT
  5
1E
102
{ACAD_REACTORS
330
1A
102
}
330
1A
100
AcDbPlotSettings
  1

  2
none_device
  4

  6

 40
0.0
 41
0.0
 42
0.0
 43
0.0
 44
0.0
 45
0.0
 46
0.0
 47
0.0
 48
0.0
 49
0.0
140
0.0
141
0.0
142
1.0
143
1.0
 70
   688
 72
     1
 73
     0
 74
     5
  7

 75
    16
147
1.0
148
0.0
149
0.0
100
AcDbLayout
  1
Layout1
 70
     1
 71
     1
 10
0.0
 20
0.0
 11
420.0
 21
297.0
 12
0.0
 22
0.0
 32
0.0
 14
1.0000000000E+20
 24
1.0000000000E+20
 34
1.0000000000E+20
 15
-1.0000000000E+20
 25
-1.0000000000E+20
 35
-1.0000000000E+20
146
0.0
 13
0.0
 23
0.0
 33
0.0
 16
1.0
 26
0.0
 36
0.0
 17
0.0
 27
1.0
 37
0.0
 76
     0
330
1B
  0
LAYOUT
  5
26
102
{ACAD_REACTORS
330
1A
102
}
330
1A
100
AcDbPlotSettings
  1

  2
none_device
  4

  6

 40
0.0
 41
0.0
 42
0.0
 43
0.0
 44
0.0
 45
0.0
 46
0.0
 47
0.0
 48
0.0
 49
0.0
140
0.0
141
0.0
142
1.0
143
1.0
 70
   688
 72
     1
 73
     0
 74
     5
  7

 75
    16
147
1.0
148
0.0
149
0.0
100
AcDbLayout
  1
Layout2
 70
     1
 71
     2
 10
0.0
 20
0.0
 11
0.0
 21
0.0
 12
0.0
 22
0.0
 32
0.0
 14
0.0
 24
0.0
 34
0.0
 15
0.0
 25
0.0
 35
0.0
146
0.0
 13
0.0
 23
0.0
 33
0.0
 16
1.0
 26
0.0
 36
0.0
 17
0.0
 27
1.0
 37
0.0
 76
     0
330
23
  0
LAYOUT
  5
22
102
{ACAD_REACTORS
330
1A
102
}
330
1A
100
AcDbPlotSettings
  1

  2
none_device
  4
Letter_(8.50_x_11.00_Inches)
  6

 40
6.35
 41
6.35
 42
6.35000508
 43
6.35000508
 44
215.9
 45
279.4
 46
0.0
 47
0.0
 48
0.0
 49
0.0
140
0.0
141
0.0
142
1.0
143
1.0
 70
  1712
 72
     1
 73
     0
 74
     0
  7

 75
     0
147
1.0
148
0.0
149
0.0
100
AcDbLayout
  1
Model
 70
     1
 71
     0
 10
0.0
 20
0.0
 11
900.0
 21
1200.0
 12
0.0
 22
0.0
 32
0.0
 14
0.0
 24
0.0
 34
0.0
 15
900.0
 25
1200.0
 35
0.0
146
0.0
 13
0.0
 23
0.0
 33
0.0
 16
1.0
 26
0.0
 36
0.0
 17
0.0
 27
1.0
 37
0.0
 76
     0
330
1F
331
29
  0
MLINESTYLE
  5
18
102
{ACAD_REACTORS
330
17
102
}
330
17
100
AcDbMlineStyle
  2
Standard
 70
     0
  3

 62
   256
 51
90.0
 52
90.0
 71
     2
 49
0.5
 62
   256
  6
BYLAYER
 49
-0.5
 62
   256
  6
BYLAYER
  0
ACDBPLACEHOLDER
  5
F
102
{ACAD_REACTORS
330
E
102
}
330
E
  0
SCALE
  5
48
102
{ACAD_REACTORS
330
47
102
}
330
47
100
AcDbScale
 70
     0
300
1:1
140
1.0
141
1.0
290
     1
  0
SCALE
  5
49
102
{ACAD_REACTORS
330
47
102
}
330
47
100
AcDbScale
 70
     0
300
1:2
140
1.0
141
2.0
290
     0
  0
SCALE
  5
4A
102
{ACAD_REACTORS
330
47
102
}
330
47
100
AcDbScale
 70
     0
300
1:4
140
1.0
141
4.0
290
     0
  0
SCALE
  5
4B
102
{ACAD_REACTORS
330
47
102
}
330
47
100
AcDbScale
 70
     0
300
1:5
140
1.0
141
5.0
290
     0
  0
SCALE
  5
4C
102
{ACAD_REACTORS
330
47
102
}
330
47
100
AcDbScale
 70
     0
300
1:8
140
1.0
141
8.0
290
     0
  0
SCALE
  5
4D
102
{ACAD_REACTORS
330
47
102
}
330
47
100
AcDbScale
 70
     0
300
1:10
140
1.0
141
10.0
290
     0
  0
SCALE
  5
4E
102
{ACAD_REACTORS
330
47
102
}
330
47
100
AcDbScale
 70
     0
300
1:16
140
1.0
141
16.0
290
     0
  0
SCALE
  5
4F
102
{ACAD_REACTORS
330
47
102
}
330
47
100
AcDbScale
 70
     0
300
1:20
140
1.0
141
20.0
290
     0
  0
SCALE
  5
50
102
{ACAD_REACTORS
330
47
102
}
330
47
100
AcDbScale
 70
     0
300
1:30
140
1.0
141
30.0
290
     0
  0
SCALE
  5
51
102
{ACAD_REACTORS
330
47
102
}
330
47
100
AcDbScale
 70
     0
300
1:40
140
1.0
141
40.0
290
     0
  0
SCALE
  5
52
102
{ACAD_REACTORS
330
47
102
}
330
47
100
AcDbScale
 70
     0
300
1:50
140
1.0
141
50.0
290
     0
  0
SCALE
  5
53
102
{ACAD_REACTORS
330
47
102
}
330
47
100
AcDbScale
 70
     0
300
1:100
140
1.0
141
100.0
290
     0
  0
SCALE
  5
54
102
{ACAD_REACTORS
330
47
102
}
330
47
100
AcDbScale
 70
     0
300
2:1
140
2.0
141
1.0
290
     0
  0
SCALE
  5
55
102
{ACAD_REACTORS
330
47
102
}
330
47
100
AcDbScale
 70
     0
300
4:1
140
4.0
141
1.0
290
     0
  0
SCALE
  5
56
102
{ACAD_REACTORS
330
47
102
}
330
47
100
AcDbScale
 70
     0
300
8:1
140
8.0
141
1.0
290
     0
  0
SCALE
  5
57
102
{ACAD_REACTORS
330
47
102
}
330
47
100
AcDbScale
 70
     0
300
10:1
140
10.0
141
1.0
290
     0
  0
SCALE
  5
58
102
{ACAD_REACTORS
330
47
102
}
330
47
100
AcDbScale
 70
     0
300
100:1
140
100.0
141
1.0
290
     0
  0
SCALE
  5
59
102
{ACAD_REACTORS
330
47
102
}
330
47
100
AcDbScale
 70
     0
300
1/128" = 1'-0"
140
0.0078125
141
12.0
290
     0
  0
SCALE
  5
5A
102
{ACAD_REACTORS
330
47
102
}
330
47
100
AcDbScale
 70
     0
300
1/64" = 1'-0"
140
0.015625
141
12.0
290
     0
  0
SCALE
  5
5B
102
{ACAD_REACTORS
330
47
102
}
330
47
100
AcDbScale
 70
     0
300
1/32" = 1'-0"
140
0.03125
141
12.0
290
     0
  0
SCALE
  5
5C
102
{ACAD_REACTORS
330
47
102
}
330
47
100
AcDbScale
 70
     0
300
1/16" = 1'-0"
140
0.0625
141
12.0
290
     0
  0
SCALE
  5
5D
102
{ACAD_REACTORS
330
47
102
}
330
47
100
AcDbScale
 70
     0
300
3/32" = 1'-0"
140
0.09375
141
12.0
290
     0
  0
SCALE
  5
5E
102
{ACAD_REACTORS
330
47
102
}
330
47
100
AcDbScale
 70
     0
300
1/8" = 1'-0"
140
0.125
141
12.0
290
     0
  0
SCALE
  5
5F
102
{ACAD_REACTORS
330
47
102
}
330
47
100
AcDbScale
 70
     0
300
3/16" = 1'-0"
140
0.1875
141
12.0
290
     0
  0
SCALE
  5
60
102
{ACAD_REACTORS
330
47
102
}
330
47
100
AcDbScale
 70
     0
300
1/4" = 1'-0"
140
0.25
141
12.0
290
     0
  0
SCALE
  5
61
102
{ACAD_REACTORS
330
47
102
}
330
47
100
AcDbScale
 70
     0
300
3/8" = 1'-0"
140
0.375
141
12.0
290
     0
  0
SCALE
  5
62
102
{ACAD_REACTORS
330
47
102
}
330
47
100
AcDbScale
 70
     0
300
1/2" = 1'-0"
140
0.5
141
12.0
290
     0
  0
SCALE
  5
63
102
{ACAD_REACTORS
330
47
102
}
330
47
100
AcDbScale
 70
     0
300
3/4" = 1'-0"
140
0.75
141
12.0
290
     0
  0
SCALE
  5
64
102
{ACAD_REACTORS
330
47
102
}
330
47
100
AcDbScale
 70
     0
300
1" = 1'-0"
140
1.0
141
12.0
290
     0
  0
SCALE
  5
65
102
{ACAD_REACTORS
330
47
102
}
330
47
100
AcDbScale
 70
     0
300
1-1/2" = 1'-0"
140
1.5
141
12.0
290
     0
  0
SCALE
  5
66
102
{ACAD_REACTORS
330
47
102
}
330
47
100
AcDbScale
 70
     0
300
3" = 1'-0"
140
3.0
141
12.0
290
     0
  0
SCALE
  5
67
102
{ACAD_REACTORS
330
47
102
}
330
47
100
AcDbScale
 70
     0
300
6" = 1'-0"
140
6.0
141
12.0
290
     0
  0
SCALE
  5
68
102
{ACAD_REACTORS
330
47
102
}
330
47
100
AcDbScale
 70
     0
300
1'-0" = 1'-0"
140
12.0
141
12.0
290
     0
  0
ENDSEC
  0
EOF
