  0
SECTION
  2
HEADER
  9
$ACADVER
  1
AC1021
  9
$ACADMAINTVER
 70
    25
  9
$DWGCODEPAGE
  3
ANSI_1252
  9
$INSBASE
 10
0.0
 20
0.0
 30
0.0
  9
$EXTMIN
 10
0.0
 20
0.0
 30
0.0
  9
$EXTMAX
 10
420.0
 20
297.0
 30
0.0
  9
$LIMMIN
 10
0.0
 20
0.0
  9
$LIMMAX
 10
420.0
 20
297.0
  9
$ORTHOMODE
 70
     0
  9
$REGENMODE
 70
     1
  9
$FILLMODE
 70
     1
  9
$QTEXTMODE
 70
     0
  9
$MIRRTEXT
 70
     1
  9
$LTSCALE
 40
1.0
  9
$ATTMODE
 70
     1
  9
$TEXTSIZE
 40
3.5
  9
$TRACEWID
 40
1.0
  9
$TEXTSTYLE
  7
Standard
  9
$CLAYER
  8
0
  9
$CELTYPE
  6
ByLayer
  9
$CECOLOR
 62
   256
  9
$CELTSCALE
 40
1.0
  9
$DISPSILH
 70
     0
  9
$DIMSCALE
 40
1.0
  9
$DIMASZ
 40
3.302
  9
$DIMEXO
 40
1.0
  9
$DIMDLI
 40
3.75
  9
$DIMRND
 40
0.0
  9
$DIMDLE
 40
0.0
  9
$DIMEXE
 40
1.0
  9
$DIMTP
 40
0.0
  9
$DIMTM
 40
0.0
  9
$DIMTXT
 40
3.5
  9
$DIMCEN
 40
2.5
  9
$DIMTSZ
 40
0.0
  9
$DIMTOL
 70
     0
  9
$DIMLIM
 70
     0
  9
$DIMTIH
 70
     1
  9
$DIMTOH
 70
     1
  9
$DIMSE1
 70
     0
  9
$DIMSE2
 70
     0
  9
$DIMTAD
 70
     1
  9
$DIMZIN
 70
     0
  9
$DIMBLK
  1

  9
$DIMASO
 70
     1
  9
$DIMSHO
 70
     1
  9
$DIMPOST
  1

  9
$DIMAPOST
  1

  9
$DIMALT
 70
     0
  9
$DIMALTD
 70
     3
  9
$DIMALTF
 40
0.0393700787
  9
$DIMLFAC
 40
1.0
  9
$DIMTOFL
 70
     1
  9
$DIMTVP
 40
0.0
  9
$DIMTIX
 70
     0
  9
$DIMSOXD
 70
     0
  9
$DIMSAH
 70
     0
  9
$DIMBLK1
  1

  9
$DIMBLK2
  1

  9
$DIMSTYLE
  2
ISO-25
  9
$DIMCLRD
 70
     0
  9
$DIMCLRE
 70
     0
  9
$DIMCLRT
 70
     0
  9
$DIMTFAC
 40
1.0
  9
$DIMGAP
 40
1.524
  9
$DIMJUST
 70
     0
  9
$DIMSD1
 70
     0
  9
$DIMSD2
 70
     0
  9
$DIMTOLJ
 70
     0
  9
$DIMTZIN
 70
     0
  9
$DIMALTZ
 70
     0
  9
$DIMALTTZ
 70
     0
  9
$DIMUPT
 70
     0
  9
$DIMDEC
 70
     1
  9
$DIMTDEC
 70
     1
  9
$DIMALTU
 70
     2
  9
$DIMALTTD
 70
     3
  9
$DIMTXSTY
  7
Standard
  9
$DIMAUNIT
 70
     0
  9
$DIMADEC
 70
     1
  9
$DIMALTRND
 40
0.0
  9
$DIMAZIN
 70
     0
  9
$DIMDSEP
 70
    44
  9
$DIMATFIT
 70
     3
  9
$DIMFRAC
 70
     0
  9
$DIMLDRBLK
  1

  9
$DIMLUNIT
 70
     2
  9
$DIMLWD
 70
    -2
  9
$DIMLWE
 70
    -2
  9
$DIMTMOVE
 70
     0
  9
$DIMFXL
 40
1.0
  9
$DIMFXLON
 70
     0
  9
$DIMJOGANG
 40
0.7853981634
  9
$DIMTFILL
 70
     0
  9
$DIMTFILLCLR
 70
     0
  9
$DIMARCSYM
 70
     0
  9
$DIMLTYPE
  6

  9
$DIMLTEX1
  6

  9
$DIMLTEX2
  6

  9
$LUNITS
 70
     2
  9
$LUPREC
 70
     1
  9
$SKETCHINC
 40
1.0
  9
$FILLETRAD
 40
10.0
  9
$AUNITS
 70
     0
  9
$AUPREC
 70
     1
  9
$MENU
  1
.
  9
$ELEVATION
 40
0.0
  9
$PELEVATION
 40
0.0
  9
$THICKNESS
 40
0.0
  9
$LIMCHECK
 70
     0
  9
$CHAMFERA
 40
10.0
  9
$CHAMFERB
 40
10.0
  9
$CHAMFERC
 40
20.0
  9
$CHAMFERD
 40
0.0
  9
$SKPOLY
 70
     0
  9
$TDCREATE
 40
2455747.524230336
  9
$TDUCREATE
 40
2455747.482563669
  9
$TDUPDATE
 40
2455747.524230347
  9
$TDUUPDATE
 40
2455747.482563681
  9
$TDINDWG
 40
0.0000000116
  9
$TDUSRTIMER
 40
0.0000000116
  9
$USRTIMER
 70
     1
  9
$ANGBASE
 50
0.0
  9
$ANGDIR
 70
     0
  9
$PDMODE
 70
     0
  9
$PDSIZE
 40
-1.0
  9
$PLINEWID
 40
0.0
  9
$SPLFRAME
 70
     0
  9
$SPLINETYPE
 70
     6
  9
$SPLINESEGS
 70
     8
  9
$HANDSEED
  5
29D
  9
$SURFTAB1
 70
     6
  9
$SURFTAB2
 70
     6
  9
$SURFTYPE
 70
     6
  9
$SURFU
 70
     6
  9
$SURFV
 70
     6
  9
$UCSBASE
  2

  9
$UCSNAME
  2

  9
$UCSORG
 10
0.0
 20
0.0
 30
0.0
  9
$UCSXDIR
 10
1.0
 20
0.0
 30
0.0
  9
$UCSYDIR
 10
0.0
 20
1.0
 30
0.0
  9
$UCSORTHOREF
  2

  9
$UCSORTHOVIEW
 70
     0
  9
$UCSORGTOP
 10
0.0
 20
0.0
 30
0.0
  9
$UCSORGBOTTOM
 10
0.0
 20
0.0
 30
0.0
  9
$UCSORGLEFT
 10
0.0
 20
0.0
 30
0.0
  9
$UCSORGRIGHT
 10
0.0
 20
0.0
 30
0.0
  9
$UCSORGFRONT
 10
0.0
 20
0.0
 30
0.0
  9
$UCSORGBACK
 10
0.0
 20
0.0
 30
0.0
  9
$PUCSBASE
  2

  9
$PUCSNAME
  2

  9
$PUCSORG
 10
0.0
 20
0.0
 30
0.0
  9
$PUCSXDIR
 10
1.0
 20
0.0
 30
0.0
  9
$PUCSYDIR
 10
0.0
 20
1.0
 30
0.0
  9
$PUCSORTHOREF
  2

  9
$PUCSORTHOVIEW
 70
     0
  9
$PUCSORGTOP
 10
0.0
 20
0.0
 30
0.0
  9
$PUCSORGBOTTOM
 10
0.0
 20
0.0
 30
0.0
  9
$PUCSORGLEFT
 10
0.0
 20
0.0
 30
0.0
  9
$PUCSORGRIGHT
 10
0.0
 20
0.0
 30
0.0
  9
$PUCSORGFRONT
 10
0.0
 20
0.0
 30
0.0
  9
$PUCSORGBACK
 10
0.0
 20
0.0
 30
0.0
  9
$USERI1
 70
     0
  9
$USERI2
 70
     0
  9
$USERI3
 70
     0
  9
$USERI4
 70
     0
  9
$USERI5
 70
     0
  9
$USERR1
 40
0.0
  9
$USERR2
 40
0.0
  9
$USERR3
 40
0.0
  9
$USERR4
 40
0.0
  9
$USERR5
 40
0.0
  9
$WORLDVIEW
 70
     1
  9
$SHADEDGE
 70
     3
  9
$SHADEDIF
 70
    70
  9
$TILEMODE
 70
     1
  9
$MAXACTVP
 70
    64
  9
$PINSBASE
 10
0.0
 20
0.0
 30
0.0
  9
$PLIMCHECK
 70
     0
  9
$PEXTMIN
 10
1.0000000000E+20
 20
1.0000000000E+20
 30
1.0000000000E+20
  9
$PEXTMAX
 10
-1.0000000000E+20
 20
-1.0000000000E+20
 30
-1.0000000000E+20
  9
$PLIMMIN
 10
0.0
 20
0.0
  9
$PLIMMAX
 10
420.0
 20
297.0
  9
$UNITMODE
 70
     0
  9
$VISRETAIN
 70
     1
  9
$PLINEGEN
 70
     0
  9
$PSLTSCALE
 70
     1
  9
$TREEDEPTH
 70
  3020
  9
$CMLSTYLE
  2
Standard
  9
$CMLJUST
 70
     0
  9
$CMLSCALE
 40
20.0
  9
$PROXYGRAPHICS
 70
     1
  9
$MEASUREMENT
 70
     1
  9
$CELWEIGHT
370
    -1
  9
$ENDCAPS
280
     0
  9
$JOINSTYLE
280
     0
  9
$LWDISPLAY
290
     1
  9
$INSUNITS
 70
     4
  9
$HYPERLINKBASE
  1

  9
$STYLESHEET
  1

  9
$XEDIT
290
     1
  9
$CEPSNTYPE
380
     0
  9
$PSTYLEMODE
290
     1
  9
$FINGERPRINTGUID
  2
{13348957-BD1B-4AF8-B14D-C23B0457F035}
  9
$VERSIONGUID
  2
{FAEB1C32-E019-11D5-929B-00C0DF256EC4}
  9
$EXTNAMES
290
     1
  9
$PSVPSCALE
 40
0.0
  9
$OLESTARTUP
290
     0
  9
$SORTENTS
280
   127
  9
$INDEXCTL
280
     0
  9
$HIDETEXT
280
     1
  9
$XCLIPFRAME
290
     0
  9
$HALOGAP
280
     0
  9
$OBSCOLOR
 70
   257
  9
$OBSLTYPE
280
     0
  9
$INTERSECTIONDISPLAY
280
     0
  9
$INTERSECTIONCOLOR
 70
   257
  9
$DIMASSOC
280
     2
  9
$PROJECTNAME
  1

  9
$CAMERADISPLAY
290
     0
  9
$LENSLENGTH
 40
50.0
  9
$CAMERAHEIGHT
 40
0.0
  9
$STEPSPERSEC
 40
2.0
  9
$STEPSIZE
 40
6.0
  9
$3DDWFPREC
 40
2.0
  9
$PSOLWIDTH
 40
5.0
  9
$PSOLHEIGHT
 40
80.0
  9
$LOFTANG1
 40
1.5707963268
  9
$LOFTANG2
 40
1.5707963268
  9
$LOFTMAG1
 40
0.0
  9
$LOFTMAG2
 40
0.0
  9
$LOFTPARAM
 70
     7
  9
$LOFTNORMALS
280
     1
  9
$LATITUDE
 40
37.795
  9
$LONGITUDE
 40
-122.394
  9
$NORTHDIRECTION
 40
0.0
  9
$TIMEZONE
 70
 -8000
  9
$LIGHTGLYPHDISPLAY
280
     1
  9
$TILEMODELIGHTSYNCH
280
     1
  9
$SOLIDHIST
280
     1
  9
$SHOWHIST
280
     1
  9
$DWFFRAME
280
     2
  9
$DGNFRAME
280
     2
  9
$REALWORLDSCALE
290
     1
  9
$INTERFERECOLOR
 62
   256
  9
$CSHADOW
280
     0
  9
$SHADOWPLANELOCATION
 40
0.0
  0
ENDSEC
  0
SECTION
  2
CLASSES
  0
CLASS
  1
ACDBDICTIONARYWDFLT
  2
AcDbDictionaryWithDefault
  3
ObjectDBX Classes
 90
        0
 91
        4
280
     0
281
     0
  0
CLASS
  1
VISUALSTYLE
  2
AcDbVisualStyle
  3
ObjectDBX Classes
 90
     4095
 91
        4
280
     0
281
     0
  0
CLASS
  1
MATERIAL
  2
AcDbMaterial
  3
ObjectDBX Classes
 90
     1153
 91
        4
280
     0
281
     0
  0
ENDSEC
  0
SECTION
  2
TABLES
  0
TABLE
  2
VPORT
  5
8
330
0
100
AcDbSymbolTable
 70
     1
  0
VPORT
  5
29
330
8
100
AcDbSymbolTableRecord
100
AcDbViewportTableRecord
  2
*Active
 70
     0
 10
0.0
 20
0.0
 11
1.0
 21
1.0
 12
210.0
 22
148.5
 13
0.0
 23
0.0
 14
10.0
 24
10.0
 15
10.0
 25
10.0
 16
0.0
 26
0.0
 36
1.0
 17
0.0
 27
0.0
 37
0.0
 40
297.0
 41
1.4141414141
 42
50.0
 43
0.0
 44
0.0
 50
0.0
 51
0.0
 71
     0
 72
  2000
 73
     1
 74
     3
 75
     0
 76
     0
 77
     0
 78
     0
281
     0
 65
     1
110
0.0
120
0.0
130
0.0
111
1.0
121
0.0
131
0.0
112
0.0
122
1.0
132
0.0
 79
     0
146
0.0
 60
     3
 61
     5
292
     1
282
     1
141
0.0
142
0.0
 63
   250
  0
ENDTAB
  0
TABLE
  2
LTYPE
  5
5
330
0
100
AcDbSymbolTable
 70
     6
  0
LTYPE
  5
14
330
5
100
AcDbSymbolTableRecord
100
AcDbLinetypeTableRecord
  2
ByBlock
 70
     0
  3

 72
    65
 73
     0
 40
0.0
  0
LTYPE
  5
15
330
5
100
AcDbSymbolTableRecord
100
AcDbLinetypeTableRecord
  2
ByLayer
 70
     0
  3

 72
    65
 73
     0
 40
0.0
  0
LTYPE
  5
16
330
5
100
AcDbSymbolTableRecord
100
AcDbLinetypeTableRecord
  2
Continuous
 70
     0
  3
Solid line
 72
    65
 73
     0
 40
0.0
  0
LTYPE
  5
3F
330
5
100
AcDbSymbolTableRecord
100
AcDbLinetypeTableRecord
  2
HIDDEN
 70
     0
  3
Hidden __ __ __ __ __ __ __ __ __ __ __ __ __ __
 72
    65
 73
     2
 40
1.905
 49
1.27
 74
     0
 49
-0.635
 74
     0
  0
LTYPE
  5
40
330
5
100
AcDbSymbolTableRecord
100
AcDbLinetypeTableRecord
  2
PHANTOM
 70
     0
  3
Phantom ______  __  __  ______  __  __  ______
 72
    65
 73
     6
 40
12.7
 49
6.35
 74
     0
 49
-1.27
 74
     0
 49
1.27
 74
     0
 49
-1.27
 74
     0
 49
1.27
 74
     0
 49
-1.27
 74
     0
  0
LTYPE
  5
41
330
5
100
AcDbSymbolTableRecord
100
AcDbLinetypeTableRecord
  2
CENTER
 70
     0
  3
Center ____ _ ____ _ ____ _ ____ _ ____ _ ____
 72
    65
 73
     4
 40
10.16
 49
6.35
 74
     0
 49
-1.27
 74
     0
 49
1.27
 74
     0
 49
-1.27
 74
     0
  0
LTYPE
  5
42
330
5
100
AcDbSymbolTableRecord
100
AcDbLinetypeTableRecord
  2
CENTERX2
 70
     0
  3
Center (2x) ________  __  ________  __  _____
 72
    65
 73
     4
 40
20.32
 49
12.7
 74
     0
 49
-2.54
 74
     0
 49
2.54
 74
     0
 49
-2.54
 74
     0
  0
LTYPE
  5
43
330
5
100
AcDbSymbolTableRecord
100
AcDbLinetypeTableRecord
  2
DOT2
 70
     0
  3
Dot (.5x) ........................................
 72
    65
 73
     2
 40
0.635
 49
0.0
 74
     0
 49
-0.635
 74
     0
  0
ENDTAB
  0
TABLE
  2
LAYER
  5
2
330
0
100
AcDbSymbolTable
 70
     1
  0
LAYER
  5
10
330
2
100
AcDbSymbolTableRecord
100
AcDbLayerTableRecord
  2
0
 70
     0
 62
     7
  6
Continuous
370
    -3
390
F
347
3E
  0
ENDTAB
  0
TABLE
  2
STYLE
  5
3
330
0
100
AcDbSymbolTable
 70
     1
  0
STYLE
  5
11
330
3
100
AcDbSymbolTableRecord
100
AcDbTextStyleTableRecord
  2
Standard
 70
     0
 40
0.0
 41
1.0
 50
0.0
 71
     0
 42
2.5
  3
txt
  4

  0
ENDTAB
  0
TABLE
  2
VIEW
  5
6
330
0
100
AcDbSymbolTable
 70
     0
  0
ENDTAB
  0
TABLE
  2
UCS
  5
7
330
0
100
AcDbSymbolTable
 70
     0
  0
ENDTAB
  0
TABLE
  2
APPID
  5
9
330
0
100
AcDbSymbolTable
 70
     1
  0
APPID
  5
12
330
9
100
AcDbSymbolTableRecord
100
AcDbRegAppTableRecord
  2
ACAD
 70
     0
  0
ENDTAB
  0
TABLE
  2
DIMSTYLE
  5
A
330
0
100
AcDbSymbolTable
 70
     1
100
AcDbDimStyleTable
  0
DIMSTYLE
105
27
330
A
100
AcDbSymbolTableRecord
100
AcDbDimStyleTableRecord
  2
ISO-25
 70
     0
 41
2.5
 42
0.625
 43
3.75
 44
1.25
 73
     0
 74
     0
 77
     1
 78
     8
140
2.5
141
2.5
143
0.0393700787
147
0.625
171
     3
172
     1
271
     2
272
     2
274
     3
278
    44
283
     0
284
     8
340
11
  0
ENDTAB
  0
TABLE
  2
BLOCK_RECORD
  5
1
330
0
100
AcDbSymbolTable
 70
     1
  0
BLOCK_RECORD
  5
1F
330
1
100
AcDbSymbolTableRecord
100
AcDbBlockTableRecord
  2
*Model_Space
340
22
 70
     0
280
     1
281
     0
  0
BLOCK_RECORD
  5
1B
330
1
100
AcDbSymbolTableRecord
100
AcDbBlockTableRecord
  2
*Paper_Space
340
1E
 70
     0
280
     1
281
     0
  0
BLOCK_RECORD
  5
23
330
1
100
AcDbSymbolTableRecord
100
AcDbBlockTableRecord
  2
*Paper_Space0
340
26
 70
     0
280
     1
281
     0
  0
ENDTAB
  0
ENDSEC
  0
SECTION
  2
BLOCKS
  0
BLOCK
  5
20
330
1F
100
AcDbEntity
  8
0
100
AcDbBlockBegin
  2
*Model_Space
 70
     0
 10
0.0
 20
0.0
 30
0.0
  3
*Model_Space
  1

  0
ENDBLK
  5
21
330
1F
100
AcDbEntity
  8
0
100
AcDbBlockEnd
  0
BLOCK
  5
1C
330
1B
100
AcDbEntity
 67
     1
  8
0
100
AcDbBlockBegin
  2
*Paper_Space
 70
     0
 10
0.0
 20
0.0
 30
0.0
  3
*Paper_Space
  1

  0
ENDBLK
  5
1D
330
1B
100
AcDbEntity
 67
     1
  8
0
100
AcDbBlockEnd
  0
BLOCK
  5
24
330
23
100
AcDbEntity
  8
0
100
AcDbBlockBegin
  2
*Paper_Space0
 70
     0
 10
0.0
 20
0.0
 30
0.0
  3
*Paper_Space0
  1

  0
ENDBLK
  5
25
330
23
100
AcDbEntity
  8
0
100
AcDbBlockEnd
  0
ENDSEC
  0
SECTION
  2
ENTITIES
  0
LINE
  5
44
330
1F
100
AcDbEntity
  8
0
  6
Continuous
 62
     7
370
    15
100
AcDbLine
 10
-132.442396949
 20
7.3788283754
 30
0.0
 11
-134.4424010021
 21
5.3788392235
 31
0.0
  0
LINE
  5
45
330
1F
100
AcDbEntity
  8
0
  6
Continuous
 62
     7
370
    15
100
AcDbLine
 10
-134.4424010021
 20
-12.6211674522
 30
0.0
 11
-132.442396949
 21
-14.6211715054
 31
0.0
  0
LINE
  5
46
330
1F
100
AcDbEntity
  8
0
  6
Continuous
 62
     7
370
    15
100
AcDbLine
 10
-132.442396949
 20
-14.6211715054
 30
0.0
 11
-130.4424226982
 21
-12.6211674522
 31
0.0
  0
LINE
  5
47
330
1F
100
AcDbEntity
  8
0
  6
Continuous
 62
     7
370
    15
100
AcDbLine
 10
-130.4424226982
 20
5.3788392235
 30
0.0
 11
-132.442396949
 21
7.3788283754
 31
0.0
  0
LINE
  5
48
330
1F
100
AcDbEntity
  8
0
  6
Continuous
 62
     7
370
    15
100
AcDbLine
 10
332.357297768
 20
222.1788322915
 30
0.0
 11
332.357297768
 21
220.178832895
 31
0.0
  0
LINE
  5
49
330
1F
100
AcDbEntity
  8
0
  6
Continuous
 62
     7
370
    15
100
AcDbLine
 10
337.3572929996
 20
220.178832895
 30
0.0
 11
337.3572929996
 21
222.1788322915
 31
0.0
  0
LINE
  5
4A
330
1F
100
AcDbEntity
  8
0
  6
Continuous
 62
     7
370
    15
100
AcDbLine
 10
-136.4424050552
 20
7.3788283754
 30
0.0
 11
-138.4424091083
 21
5.3788392235
 31
0.0
  0
LINE
  5
4B
330
1F
100
AcDbEntity
  8
0
  6
Continuous
 62
     7
370
    15
100
AcDbLine
 10
-138.4424091083
 20
-12.6211674522
 30
0.0
 11
-136.4424050552
 21
-14.6211715054
 31
0.0
  0
LINE
  5
4C
330
1F
100
AcDbEntity
  8
0
  6
Continuous
 62
     7
370
    15
100
AcDbLine
 10
-136.4424050552
 20
-14.6211715054
 30
0.0
 11
-134.4424010021
 21
-12.6211674522
 31
0.0
  0
LINE
  5
4D
330
1F
100
AcDbEntity
  8
0
  6
Continuous
 62
     7
370
    15
100
AcDbLine
 10
-134.4424010021
 20
5.3788392235
 30
0.0
 11
-136.4424050552
 21
7.3788283754
 31
0.0
  0
LINE
  5
4E
330
1F
100
AcDbEntity
  8
0
  6
Continuous
 62
     7
370
    15
100
AcDbLine
 10
-140.4424131614
 20
-14.6211715054
 30
0.0
 11
-138.4424091083
 21
-12.6211674522
 31
0.0
  0
LINE
  5
4F
330
1F
100
AcDbEntity
  8
0
  6
Continuous
 62
     7
370
    15
100
AcDbLine
 10
-138.4424091083
 20
5.3788392235
 30
0.0
 11
-140.4424131614
 21
7.3788283754
 31
0.0
  0
LINE
  5
50
330
1F
100
AcDbEntity
  8
0
  6
Continuous
 62
     7
370
    15
100
AcDbLine
 10
-140.4424131614
 20
7.3788283754
 30
0.0
 11
-142.4424172145
 21
5.3788392235
 31
0.0
  0
LINE
  5
51
330
1F
100
AcDbEntity
  8
0
  6
Continuous
 62
     7
370
    15
100
AcDbLine
 10
-142.4424172145
 20
-12.6211674522
 30
0.0
 11
-140.4424131614
 21
-14.6211715054
 31
0.0
  0
LINE
  5
52
330
1F
100
AcDbEntity
  8
0
  6
Continuous
 62
     7
370
    15
100
AcDbLine
 10
-144.4424212676
 20
-14.6211715054
 30
0.0
 11
-142.4424172145
 21
-12.6211674522
 31
0.0
  0
LINE
  5
53
330
1F
100
AcDbEntity
  8
0
  6
Continuous
 62
     7
370
    15
100
AcDbLine
 10
-142.4424172145
 20
5.3788392235
 30
0.0
 11
-144.4424212676
 21
7.3788283754
 31
0.0
  0
LINE
  5
54
330
1F
100
AcDbEntity
  8
0
  6
Continuous
 62
     7
370
    15
100
AcDbLine
 10
-144.4424212676
 20
7.3788283754
 30
0.0
 11
-146.4423955184
 21
5.3788392235
 31
0.0
  0
LINE
  5
55
330
1F
100
AcDbEntity
  8
0
  6
Continuous
 62
     7
370
    15
100
AcDbLine
 10
-146.4423955184
 20
-12.6211674522
 30
0.0
 11
-144.4424212676
 21
-14.6211715054
 31
0.0
  0
LINE
  5
56
330
1F
100
AcDbEntity
  8
0
  6
Continuous
 62
     7
370
    15
100
AcDbLine
 10
-130.4424226982
 20
-14.6211715054
 30
0.0
 11
-111.8424058658
 21
-14.6211715054
 31
0.0
  0
LINE
  5
57
330
1F
100
AcDbEntity
  8
0
  6
Continuous
 62
     7
370
    15
100
AcDbLine
 10
-111.8424058658
 20
7.3788283754
 30
0.0
 11
-130.4424226982
 21
7.3788283754
 31
0.0
  0
LINE
  5
58
330
1F
100
AcDbEntity
  8
0
  6
Continuous
 62
     7
370
    15
100
AcDbLine
 10
-5.7424128753
 20
-155.1211656641
 30
0.0
 11
-5.7424128753
 21
-126.1211813997
 31
0.0
  0
LINE
  5
59
330
1F
100
AcDbEntity
  8
0
  6
Continuous
 62
     7
370
    15
100
AcDbLine
 10
-62.3424173099
 20
-126.1211813997
 30
0.0
 11
-62.3424173099
 21
-155.1211656641
 31
0.0
  0
ARC
  5
5A
330
1F
100
AcDbEntity
  8
0
  6
Continuous
 62
     7
370
    15
100
AcDbCircle
 10
-0.6424098785
 20
-64.6211673094
 30
0.0
 40
1.500000000000001
100
AcDbArc
 50
90.0
 51
180.0
  0
ARC
  5
5B
330
1F
100
AcDbEntity
  8
0
  6
Continuous
 62
     7
370
    15
100
AcDbCircle
 10
-67.4424098785
 20
-64.6211673094
 30
0.0
 40
1.5
100
AcDbArc
 50
0.0
 51
90.0
  0
LINE
  5
5C
330
1F
100
AcDbEntity
  8
0
  6
Continuous
 62
     7
370
    15
100
AcDbLine
 10
-2.1424115402
 20
-120.088595302
 30
0.0
 11
-2.1424115402
 21
-64.6211685251
 31
0.0
  0
LINE
  5
5D
330
1F
100
AcDbEntity
  8
0
  6
Continuous
 62
     7
370
    15
100
AcDbLine
 10
-65.942418645
 20
-64.6211685251
 30
0.0
 11
-65.942418645
 21
-120.088595302
 31
0.0
  0
ARC
  5
5E
330
1F
100
AcDbEntity
  8
0
  6
Continuous
 62
     7
370
    15
100
AcDbCircle
 10
-6.8424098785
 20
-120.0886013637
 30
0.0
 40
4.69999999999999
100
AcDbArc
 50
350.5402980318
 51
0.0
  0
ARC
  5
5F
330
1F
100
AcDbEntity
  8
0
  6
Continuous
 62
     7
370
    15
100
AcDbCircle
 10
-61.2424098785
 20
-120.0886013637
 30
0.0
 40
4.699999999999998
100
AcDbArc
 50
180.0
 51
189.4597019682
  0
LINE
  5
60
330
1F
100
AcDbEntity
  8
0
  6
Continuous
 62
     7
370
    15
100
AcDbLine
 10
-65.8784926635
 20
-120.8610714983
 30
0.0
 11
-65.0020659667
 21
-126.1211813997
 31
0.0
  0
LINE
  5
61
330
1F
100
AcDbEntity
  8
0
  6
Continuous
 62
     7
370
    15
100
AcDbLine
 10
-3.0827642185
 20
-126.1211813997
 30
0.0
 11
-2.2063226205
 21
-120.8610714983
 31
0.0
  0
LINE
  5
62
330
1F
100
AcDbEntity
  8
0
  6
Continuous
 62
     7
370
    15
100
AcDbLine
 10
549.1572796601
 20
243.5788331915
 30
0.0
 11
549.1572796601
 21
242.5788311649
 31
0.0
  0
LINE
  5
63
330
1F
100
AcDbEntity
  8
0
  6
Continuous
 62
     7
370
    15
100
AcDbLine
 10
555.5572985905
 20
242.5788311649
 30
0.0
 11
555.5572985905
 21
243.5788331915
 31
0.0
  0
LINE
  5
64
330
1F
100
AcDbEntity
  8
0
  6
Continuous
 62
     7
370
    15
100
AcDbLine
 10
549.8573064107
 20
242.5788311649
 30
0.0
 11
549.8573064107
 21
241.5788328637
 31
0.0
  0
LINE
  5
65
330
1F
100
AcDbEntity
  8
0
  6
Continuous
 62
     7
370
    15
100
AcDbLine
 10
554.8573016423
 20
241.5788328637
 30
0.0
 11
554.8573016423
 21
242.5788311649
 31
0.0
  0
LINE
  5
66
330
1F
100
AcDbEntity
  8
0
  6
Continuous
 62
     7
370
    15
100
AcDbLine
 10
-5.5424094898
 20
-159.1211737703
 30
0.0
 11
-5.5424094898
 21
-155.1211656641
 31
0.0
  0
LINE
  5
67
330
1F
100
AcDbEntity
  8
0
  6
Continuous
 62
     7
370
    15
100
AcDbLine
 10
-62.5424206954
 20
-155.1211656641
 30
0.0
 11
-62.5424206954
 21
-159.1211737703
 31
0.0
  0
ARC
  5
68
330
1F
100
AcDbEntity
  8
0
  6
Continuous
 62
     7
370
    15
100
AcDbCircle
 10
-7.5424098785
 20
-159.1211673094
 30
0.0
 40
2.000000000000002
100
AcDbArc
 50
270.0
 51
0.0
  0
ARC
  5
69
330
1F
100
AcDbEntity
  8
0
  6
Continuous
 62
     7
370
    15
100
AcDbCircle
 10
-60.5424098785
 20
-159.1211673094
 30
0.0
 40
2.0
100
AcDbArc
 50
180.0
 51
270.0
  0
LINE
  5
6A
330
1F
100
AcDbEntity
  8
0
  6
Continuous
 62
     7
370
    15
100
AcDbLine
 10
643.4572815198
 20
63.9911560703
 30
0.0
 11
643.4572815198
 21
64.4911645342
 31
0.0
  0
LINE
  5
6B
330
1F
100
AcDbEntity
  8
0
  6
Continuous
 62
     7
370
    15
100
AcDbLine
 10
635.4572951096
 20
64.4911645342
 30
0.0
 11
635.4572951096
 21
63.9911560703
 31
0.0
  0
LINE
  5
6C
330
1F
100
AcDbEntity
  8
0
  6
Continuous
 62
     7
370
    15
100
AcDbLine
 10
669.4039582509
 20
-26.3803036522
 30
0.0
 11
671.957600047
 21
-25.3588439535
 31
0.0
  0
LINE
  5
6D
330
1F
100
AcDbEntity
  8
0
  6
Continuous
 62
     7
370
    15
100
AcDbLine
 10
661.9575797814
 20
-29.3588371586
 30
0.0
 11
664.7567331093
 21
-28.2391788076
 31
0.0
  0
LINE
  5
6E
330
1F
100
AcDbEntity
  8
0
  6
Continuous
 62
     7
370
    15
100
AcDbLine
 10
664.2789124745
 20
34.7126243998
 30
0.0
 11
661.9575797814
 21
35.6411604572
 31
0.0
  0
LINE
  5
6F
330
1F
100
AcDbEntity
  8
0
  6
Continuous
 62
     7
370
    15
100
AcDbLine
 10
671.957600047
 20
31.641152351
 30
0.0
 11
668.9211606282
 21
32.8557310987
 31
0.0
  0
LINE
  5
70
330
1F
100
AcDbEntity
  8
0
  6
Continuous
 62
     7
370
    15
100
AcDbLine
 10
671.957600047
 20
-25.3588439535
 30
0.0
 11
691.367942025
 21
-16.6241706919
 31
0.0
  0
LINE
  5
71
330
1F
100
AcDbEntity
  8
0
  6
Continuous
 62
     7
370
    15
100
AcDbLine
 10
672.4135457772
 20
31.4359782625
 30
0.0
 11
671.957600047
 21
31.641152351
 31
0.0
  0
ARC
  5
72
330
1F
100
AcDbEntity
  8
0
  6
Continuous
 62
     7
370
    15
100
AcDbCircle
 10
690.9575901215
 20
-15.7122562266
 30
0.0
 40
1.000000000000023
100
AcDbArc
 50
294.227745318
 51
0.0
  0
LINE
  5
73
330
1F
100
AcDbEntity
  8
0
  6
Continuous
 62
     7
370
    15
100
AcDbLine
 10
659.9575757283
 20
-3.970655949
 30
0.0
 11
661.9575797814
 21
-4.0055544685
 31
0.0
  0
LINE
  5
74
330
1F
100
AcDbEntity
  8
0
  6
Continuous
 62
     7
370
    15
100
AcDbLine
 10
668.9275085229
 20
32.8639565397
 30
0.0
 11
664.2800449627
 21
34.7229360033
 31
0.0
  0
LINE
  5
75
330
1F
100
AcDbEntity
  8
0
  6
Continuous
 62
     7
370
    15
100
AcDbLine
 10
664.7549151677
 20
-28.2506825041
 30
0.0
 11
669.4043456811
 21
-26.390913279
 31
0.0
  0
LINE
  5
76
330
1F
100
AcDbEntity
  8
0
  6
Continuous
 62
     7
370
    15
100
AcDbLine
 10
568.2575880784
 20
-155.1211656641
 30
0.0
 11
568.2575880784
 21
-126.1211813997
 31
0.0
  0
LINE
  5
77
330
1F
100
AcDbEntity
  8
0
  6
Continuous
 62
     7
370
    15
100
AcDbLine
 10
511.6575836438
 20
-126.1211813997
 30
0.0
 11
511.6575836438
 21
-155.1211656641
 31
0.0
  0
ARC
  5
78
330
1F
100
AcDbEntity
  8
0
  6
Continuous
 62
     7
370
    15
100
AcDbCircle
 10
573.3575901215
 20
-64.6211673094
 30
0.0
 40
1.499999999999993
100
AcDbArc
 50
90.0
 51
180.0
  0
ARC
  5
79
330
1F
100
AcDbEntity
  8
0
  6
Continuous
 62
     7
370
    15
100
AcDbCircle
 10
506.5575901215
 20
-64.6211673094
 30
0.0
 40
1.500000000000057
100
AcDbArc
 50
0.0
 51
90.0
  0
ARC
  5
7A
330
1F
100
AcDbEntity
  8
0
  6
Continuous
 62
     7
370
    15
100
AcDbCircle
 10
567.1575901215
 20
-120.0886013637
 30
0.0
 40
4.700000000000045
100
AcDbArc
 50
350.5402980318
 51
0.0
  0
ARC
  5
7B
330
1F
100
AcDbEntity
  8
0
  6
Continuous
 62
     7
370
    15
100
AcDbCircle
 10
512.7575901215
 20
-120.0886013637
 30
0.0
 40
4.700000000000006
100
AcDbArc
 50
180.0
 51
189.4597019682
  0
LINE
  5
7C
330
1F
100
AcDbEntity
  8
0
  6
Continuous
 62
     7
370
    15
100
AcDbLine
 10
571.8575894135
 20
-120.088595302
 30
0.0
 11
571.8575894135
 21
-64.6211685251
 31
0.0
  0
LINE
  5
7D
330
1F
100
AcDbEntity
  8
0
  6
Continuous
 62
     7
370
    15
100
AcDbLine
 10
508.0575823086
 20
-64.6211685251
 30
0.0
 11
508.0575823086
 21
-120.088595302
 31
0.0
  0
LINE
  5
7E
330
1F
100
AcDbEntity
  8
0
  6
Continuous
 62
     7
370
    15
100
AcDbLine
 10
508.1215082902
 20
-120.8610714983
 30
0.0
 11
508.9979349869
 21
-126.1211813997
 31
0.0
  0
LINE
  5
7F
330
1F
100
AcDbEntity
  8
0
  6
Continuous
 62
     7
370
    15
100
AcDbLine
 10
570.9172367352
 20
-126.1211813997
 30
0.0
 11
571.793663432
 21
-120.8610714983
 31
0.0
  0
LINE
  5
80
330
1F
100
AcDbEntity
  8
0
  6
Continuous
 62
     7
370
    15
100
AcDbLine
 10
568.4575914639
 20
-159.1211737703
 30
0.0
 11
568.4575914639
 21
-155.1211656641
 31
0.0
  0
LINE
  5
81
330
1F
100
AcDbEntity
  8
0
  6
Continuous
 62
     7
370
    15
100
AcDbLine
 10
511.4575802582
 20
-155.1211656641
 30
0.0
 11
511.4575802582
 21
-159.1211737703
 31
0.0
  0
ARC
  5
82
330
1F
100
AcDbEntity
  8
0
  6
Continuous
 62
     7
370
    15
100
AcDbCircle
 10
566.4575901215
 20
-159.1211673094
 30
0.0
 40
2.0
100
AcDbArc
 50
270.0
 51
0.0
  0
ARC
  5
83
330
1F
100
AcDbEntity
  8
0
  6
Continuous
 62
     7
370
    15
100
AcDbCircle
 10
513.4575901215
 20
-159.1211673094
 30
0.0
 40
2.000000000000057
100
AcDbArc
 50
180.0
 51
270.0
  0
SPLINE
  5
84
330
1F
100
AcDbEntity
  8
0
  6
Continuous
 62
     7
370
    15
100
AcDbSpline
210
0.0
220
0.0
230
1.0
 70
     8
 71
     3
 72
    10
 73
     6
 74
     0
 42
0.00000001
 43
0.00000001
 40
0.0
 40
0.0
 40
0.0
 40
0.0
 40
0.1290620250224275
 40
0.843651479857719
 40
1.0
 40
1.0
 40
1.0
 40
1.0
 10
477.2842108505785
 20
222.1788322914577
 30
0.0
 10
477.3130905121861
 20
222.1137439706223
 30
0.0
 10
477.5018708234269
 20
221.6882752226724
 30
0.0
 10
477.603187795198
 20
221.122313241803
 30
0.0
 10
477.5581352771454
 20
220.6437418514201
 30
0.0
 10
477.5500475662767
 20
220.5578299600816
 30
0.0
  0
LINE
  5
85
330
1F
100
AcDbEntity
  8
0
  6
Continuous
 62
     7
370
    15
100
AcDbLine
 10
658.3575784463
 20
-8.9730800699
 30
0.0
 11
658.6575984257
 21
-8.2879842829
 31
0.0
  0
LINE
  5
86
330
1F
100
AcDbEntity
  8
0
  6
Continuous
 62
     7
370
    15
100
AcDbLine
 10
658.6575984257
 20
14.5703075815
 30
0.0
 11
658.3575784463
 21
15.2554033686
 31
0.0
  0
ARC
  5
87
330
1F
100
AcDbEntity
  8
0
  6
Continuous
 62
     7
370
    15
100
AcDbCircle
 10
672.6575901215
 20
-1.7588418365
 30
0.0
 40
0.5
100
AcDbArc
 50
270.0
 51
0.0
  0
ARC
  5
88
330
1F
100
AcDbEntity
  8
0
  6
Continuous
 62
     7
370
    15
100
AcDbCircle
 10
672.6575901215
 20
8.0411581635
 30
0.0
 40
0.5
100
AcDbArc
 50
0.0
 51
90.0
  0
LINE
  5
89
330
1F
100
AcDbEntity
  8
0
  6
Continuous
 62
     7
370
    15
100
AcDbLine
 10
658.6575984257
 20
-2.2588403534
 30
0.0
 11
672.6575969952
 21
-2.2588403534
 31
0.0
  0
LINE
  5
8A
330
1F
100
AcDbEntity
  8
0
  6
Continuous
 62
     7
370
    15
100
AcDbLine
 10
672.6575969952
 20
8.541163652
 30
0.0
 11
658.6575984257
 21
8.541163652
 31
0.0
  0
ARC
  5
8B
330
1F
100
AcDbEntity
  8
0
  6
Continuous
 62
     7
370
    15
100
AcDbCircle
 10
657.2673374735
 20
-27.6221201101
 30
0.0
 40
0.6323128697687953
100
AcDbArc
 50
306.8269622006
 51
327.4912823927
  0
LINE
  5
8C
330
1F
100
AcDbEntity
  8
0
  6
Continuous
 62
     7
370
    15
100
AcDbLine
 10
629.1572927731
 20
63.9911560703
 30
0.0
 11
629.1572927731
 21
64.4911645342
 31
0.0
  0
LINE
  5
8D
330
1F
100
AcDbEntity
  8
0
  6
Continuous
 62
     7
370
    15
100
AcDbLine
 10
621.157306363
 20
64.4911645342
 30
0.0
 11
621.157306363
 21
63.9911560703
 31
0.0
  0
LINE
  5
8E
330
1F
100
AcDbEntity
  8
0
  6
Continuous
 62
     7
370
    15
100
AcDbLine
 10
654.7807037133
 20
169.3959540118
 30
0.0
 11
653.3541261452
 21
168.9324273158
 31
0.0
  0
ARC
  5
8F
330
1F
100
AcDbEntity
  8
0
  6
Continuous
 62
     7
370
    15
100
AcDbCircle
 10
631.4798139426
 20
161.8250361239
 30
0.0
 40
23.00000000000002
100
AcDbArc
 50
18.0
 51
108.0
  0
LINE
  5
90
330
1F
100
AcDbEntity
  8
0
  6
Continuous
 62
     7
370
    15
100
AcDbLine
 10
624.3724107045
 20
183.6993364979
 30
0.0
 11
623.9088951844
 21
185.1259215165
 31
0.0
  0
ARC
  5
91
330
1F
100
AcDbEntity
  8
0
  6
Continuous
 62
     7
370
    15
100
AcDbCircle
 10
631.4798139426
 20
161.8250361239
 30
0.0
 40
24.50000000000002
100
AcDbArc
 50
18.0
 51
108.0
  0
LINE
  5
92
330
1F
100
AcDbEntity
  8
0
  6
Continuous
 62
     7
370
    15
100
AcDbLine
 10
619.0523683327
 20
180.6564132113
 30
0.0
 11
617.6257609623
 21
180.192888378
 31
0.0
  0
LINE
  5
93
330
1F
100
AcDbEntity
  8
0
  6
Continuous
 62
     7
370
    15
100
AcDbLine
 10
638.7521802682
 20
120.0265629579
 30
0.0
 11
619.0523683327
 21
180.6564132113
 31
0.0
  0
LINE
  5
94
330
1F
100
AcDbEntity
  8
0
  6
Continuous
 62
     7
370
    15
100
AcDbLine
 10
637.3256027001
 20
119.5630325366
 30
0.0
 11
638.7521802682
 21
120.0265629579
 31
0.0
  0
LINE
  5
95
330
1F
100
AcDbEntity
  8
0
  6
Continuous
 62
     7
370
    15
100
AcDbLine
 10
619.3913697499
 20
183.6580900837
 30
0.0
 11
619.8549150723
 21
182.2315050651
 31
0.0
  0
LINE
  5
96
330
1F
100
AcDbEntity
  8
0
  6
Continuous
 62
     7
370
    15
100
AcDbLine
 10
619.8549150723
 20
182.2315050651
 30
0.0
 11
624.3724107045
 21
183.6993364979
 31
0.0
  0
LINE
  5
97
330
1F
100
AcDbEntity
  8
0
  6
Continuous
 62
     7
370
    15
100
AcDbLine
 10
619.3913697499
 20
183.6580900837
 30
0.0
 11
623.9088951844
 21
185.1259215165
 31
0.0
  0
ARC
  5
98
330
1F
100
AcDbEntity
  8
0
  6
Continuous
 62
     7
370
    15
100
AcDbCircle
 10
620.2411758625
 20
181.0426846301
 30
0.0
 40
1.250000000000058
100
AcDbArc
 50
108.0
 51
198.0
  0
ARC
  5
99
330
1F
100
AcDbEntity
  8
0
  6
Continuous
 62
     7
370
    15
100
AcDbCircle
 10
620.2411758625
 20
181.0426846301
 30
0.0
 40
2.75000000000018
100
AcDbArc
 50
108.0
 51
198.0
  0
LINE
  5
9A
330
1F
100
AcDbEntity
  8
0
  6
Continuous
 62
     7
370
    15
100
AcDbLine
 10
640.2972816723
 20
115.2712745954
 30
0.0
 11
638.870674302
 21
114.8077516247
 31
0.0
  0
LWPOLYLINE
  5
9B
330
1F
100
AcDbEntity
  8
0
  6
Continuous
 62
     7
370
    15
100
AcDbPolyline
 90
        9
 70
   128
 43
0.0
 10
638.7521802682
 20
120.0265629579
 10
639.0536307591
 20
119.0988539148
 10
639.3434583443
 20
118.2067959
 10
639.6106063622
 20
117.3846690346
 10
639.8447334069
 20
116.664071231
 10
640.0368689793
 20
116.0726888467
 10
640.1796519059
 20
115.6332536031
 10
640.2675985592
 20
115.3626485158
 10
640.2972816723
 20
115.2712745954
  0
LINE
  5
9C
330
1F
100
AcDbEntity
  8
0
  6
Continuous
 62
     7
370
    15
100
AcDbLine
 10
655.5172383088
 20
162.2750318039
 30
0.0
 11
656.9438158768
 21
162.7385584999
 31
0.0
  0
LINE
  5
9D
330
1F
100
AcDbEntity
  8
0
  6
Continuous
 62
     7
370
    15
100
AcDbLine
 10
660.0339888829
 20
153.2279929508
 30
0.0
 11
658.6074113148
 21
152.7644662548
 31
0.0
  0
LWPOLYLINE
  5
9E
330
1F
100
AcDbEntity
  8
0
  6
Continuous
 62
     7
370
    15
100
AcDbPolyline
 90
        9
 70
   128
 43
0.0
 10
658.6074113148
 20
152.7644662548
 10
658.5480152863
 20
152.9472103704
 10
658.3721815842
 20
153.4884130944
 10
658.0866157311
 20
154.3672873069
 10
657.7023147839
 20
155.5500446249
 10
657.2340308922
 20
156.9912439574
 10
656.6997944611
 20
158.6354939629
 10
656.1201094883
 20
160.4196137179
 10
655.5172383088
 20
162.2750318039
  0
LWPOLYLINE
  5
9F
330
1F
100
AcDbEntity
  8
0
  6
Continuous
 62
     7
370
    15
100
AcDbPolyline
 90
        9
 70
   128
 43
0.0
 10
656.9438158768
 20
162.7385584999
 10
657.5466870564
 20
160.8831366886
 10
658.1263720292
 20
159.0990206588
 10
658.6606382626
 20
157.4547706533
 10
659.128892352
 20
156.0135713209
 10
659.5131932992
 20
154.8308102776
 10
659.7987591523
 20
153.9519397903
 10
659.9746226567
 20
153.4107333411
 10
660.0339888829
 20
153.2279929508
  0
LINE
  5
A0
330
1F
100
AcDbEntity
  8
0
  6
Continuous
 62
     7
370
    15
100
AcDbLine
 10
653.3541261452
 20
168.9324273158
 30
0.0
 11
655.5172383088
 21
162.2750318039
 31
0.0
  0
LINE
  5
A1
330
1F
100
AcDbEntity
  8
0
  6
Continuous
 62
     7
370
    15
100
AcDbLine
 10
654.7807037133
 20
169.3959540118
 30
0.0
 11
656.9438158768
 21
162.7385584999
 31
0.0
  0
LINE
  5
A2
330
1F
100
AcDbEntity
  8
0
  6
Continuous
 62
     7
370
    15
100
AcDbLine
 10
613.9964639443
 20
185.9788323183
 30
0.0
 11
613.9964639443
 21
186.7788328219
 31
0.0
  0
LINE
  5
A3
330
1F
100
AcDbEntity
  8
0
  6
Continuous
 62
     7
370
    15
100
AcDbLine
 10
597.7572976845
 20
185.9788323183
 30
0.0
 11
613.9964639443
 21
185.9788323183
 31
0.0
  0
LINE
  5
A4
330
1F
100
AcDbEntity
  8
0
  6
Continuous
 62
     7
370
    15
100
AcDbLine
 10
597.7572976845
 20
186.7788328219
 30
0.0
 11
597.7572976845
 21
185.9788323183
 31
0.0
  0
LINE
  5
A5
330
1F
100
AcDbEntity
  8
0
  6
Continuous
 62
     7
370
    15
100
AcDbLine
 10
597.7572976845
 20
186.7788328219
 30
0.0
 11
613.9964639443
 21
186.7788328219
 31
0.0
  0
LINE
  5
A6
330
1F
100
AcDbEntity
  8
0
  6
Continuous
 62
     7
370
    15
100
AcDbLine
 10
597.7572976845
 20
185.9788323183
 30
0.0
 11
595.7572936314
 21
185.9788323183
 31
0.0
  0
LINE
  5
A7
330
1F
100
AcDbEntity
  8
0
  6
Continuous
 62
     7
370
    15
100
AcDbLine
 10
595.7572936314
 20
185.9788323183
 30
0.0
 11
595.7572936314
 21
186.7788328219
 31
0.0
  0
LINE
  5
A8
330
1F
100
AcDbEntity
  8
0
  6
Continuous
 62
     7
370
    15
100
AcDbLine
 10
595.7572936314
 20
186.7788328219
 30
0.0
 11
597.7572976845
 21
186.7788328219
 31
0.0
  0
LINE
  5
A9
330
1F
100
AcDbEntity
  8
0
  6
Continuous
 62
     7
370
    15
100
AcDbLine
 10
597.7572976845
 20
65.2911631752
 30
0.0
 11
597.7572976845
 21
64.4911645342
 31
0.0
  0
LINE
  5
AA
330
1F
100
AcDbEntity
  8
0
  6
Continuous
 62
     7
370
    15
100
AcDbLine
 10
595.7572936314
 20
64.4911645342
 30
0.0
 11
595.7572936314
 21
65.2911631752
 31
0.0
  0
LINE
  5
AB
330
1F
100
AcDbEntity
  8
0
  6
Continuous
 62
     7
370
    15
100
AcDbLine
 10
595.7572936314
 20
65.2911631752
 30
0.0
 11
597.7572976845
 21
65.2911631752
 31
0.0
  0
LINE
  5
AC
330
1F
100
AcDbEntity
  8
0
  6
Continuous
 62
     7
370
    15
100
AcDbLine
 10
597.7572976845
 20
64.4911645342
 30
0.0
 11
595.7572936314
 21
64.4911645342
 31
0.0
  0
LINE
  5
AD
330
1F
100
AcDbEntity
  8
0
  6
Continuous
 62
     7
370
    15
100
AcDbLine
 10
656.4013540047
 20
64.4911645342
 30
0.0
 11
656.4013540047
 21
65.2911631752
 31
0.0
  0
LINE
  5
AE
330
1F
100
AcDbEntity
  8
0
  6
Continuous
 62
     7
370
    15
100
AcDbLine
 10
597.7572976845
 20
65.2911631752
 30
0.0
 11
656.4013540047
 21
65.2911631752
 31
0.0
  0
LINE
  5
AF
330
1F
100
AcDbEntity
  8
0
  6
Continuous
 62
     7
370
    15
100
AcDbLine
 10
597.7572976845
 20
64.4911645342
 30
0.0
 11
656.4013540047
 21
64.4911645342
 31
0.0
  0
ARC
  5
B0
330
1F
100
AcDbEntity
  8
0
  6
Continuous
 62
     7
370
    15
100
AcDbCircle
 10
613.9964550781
 20
184.7288326906
 30
0.0
 40
2.049999999999984
100
AcDbArc
 50
18.0
 51
90.0
  0
LINE
  5
B1
330
1F
100
AcDbEntity
  8
0
  6
Continuous
 62
     7
370
    15
100
AcDbLine
 10
615.1852785843
 20
185.1151032735
 30
0.0
 11
615.9461318749
 21
185.362317263
 31
0.0
  0
ARC
  5
B2
330
1F
100
AcDbEntity
  8
0
  6
Continuous
 62
     7
370
    15
100
AcDbCircle
 10
613.9964550781
 20
184.7288326906
 30
0.0
 40
1.250000000000014
100
AcDbArc
 50
18.0
 51
90.0
  0
LINE
  5
B3
330
1F
100
AcDbEntity
  8
0
  6
Continuous
 62
     7
370
    15
100
AcDbLine
 10
640.2702509659
 20
110.5003847171
 30
0.0
 11
615.9461318749
 21
185.362317263
 31
0.0
  0
LINE
  5
B4
330
1F
100
AcDbEntity
  8
0
  6
Continuous
 62
     7
370
    15
100
AcDbLine
 10
639.5093976754
 20
110.2531670023
 30
0.0
 11
640.2702509659
 21
110.5003847171
 31
0.0
  0
LINE
  5
B5
330
1F
100
AcDbEntity
  8
0
  6
Continuous
 62
     7
370
    15
100
AcDbLine
 10
639.5093976754
 20
110.2531670023
 30
0.0
 11
615.1852785843
 21
185.1151032735
 31
0.0
  0
ARC
  5
B6
330
1F
100
AcDbEntity
  8
0
  6
Continuous
 62
     7
370
    15
100
AcDbCircle
 10
649.780803053
 20
113.5905531686
 30
0.0
 40
10.00000000000009
100
AcDbArc
 50
198.0
 51
250.0
  0
LINE
  5
B7
330
1F
100
AcDbEntity
  8
0
  6
Continuous
 62
     7
370
    15
100
AcDbLine
 10
646.3605939644
 20
104.193624704
 30
0.0
 11
646.0869788426
 21
103.4418760229
 31
0.0
  0
ARC
  5
B8
330
1F
100
AcDbEntity
  8
0
  6
Continuous
 62
     7
370
    15
100
AcDbCircle
 10
649.780803053
 20
113.5905531686
 30
0.0
 40
10.80000000000004
100
AcDbArc
 50
198.0
 51
250.0
  0
LINE
  5
B9
330
1F
100
AcDbEntity
  8
0
  6
Continuous
 62
     7
370
    15
100
AcDbLine
 10
665.537375142
 20
96.3625057031
 30
0.0
 11
665.8109902638
 21
97.1142618347
 31
0.0
  0
LINE
  5
BA
330
1F
100
AcDbEntity
  8
0
  6
Continuous
 62
     7
370
    15
100
AcDbLine
 10
665.8109902638
 20
97.1142618347
 30
0.0
 11
646.3605939644
 21
104.193624704
 31
0.0
  0
LINE
  5
BB
330
1F
100
AcDbEntity
  8
0
  6
Continuous
 62
     7
370
    15
100
AcDbLine
 10
665.537375142
 20
96.3625057031
 30
0.0
 11
646.0869788426
 21
103.4418760229
 31
0.0
  0
LINE
  5
BC
330
1F
100
AcDbEntity
  8
0
  6
Continuous
 62
     7
370
    15
100
AcDbLine
 10
657.3589324254
 20
65.7376764704
 30
0.0
 11
657.9717575806
 21
65.2234373976
 31
0.0
  0
LINE
  5
BD
330
1F
100
AcDbEntity
  8
0
  6
Continuous
 62
     7
370
    15
100
AcDbLine
 10
657.3589324254
 20
65.7376764704
 30
0.0
 11
669.777619769
 21
80.5377034832
 31
0.0
  0
LINE
  5
BE
330
1F
100
AcDbEntity
  8
0
  6
Continuous
 62
     7
370
    15
100
AcDbLine
 10
670.3904449242
 20
80.0234793116
 30
0.0
 11
669.777619769
 21
80.5377034832
 31
0.0
  0
LINE
  5
BF
330
1F
100
AcDbEntity
  8
0
  6
Continuous
 62
     7
370
    15
100
AcDbLine
 10
657.9717575806
 20
65.2234373976
 30
0.0
 11
670.3904449242
 21
80.0234793116
 31
0.0
  0
ARC
  5
C0
330
1F
100
AcDbEntity
  8
0
  6
Continuous
 62
     7
370
    15
100
AcDbCircle
 10
656.401363563
 20
66.5411581635
 30
0.0
 40
1.25
100
AcDbArc
 50
270.0
 51
320.0
  0
ARC
  5
C1
330
1F
100
AcDbEntity
  8
0
  6
Continuous
 62
     7
370
    15
100
AcDbCircle
 10
656.401363563
 20
66.5411581635
 30
0.0
 40
2.049999999999997
100
AcDbArc
 50
270.0
 51
320.0
  0
ARC
  5
C2
330
1F
100
AcDbEntity
  8
0
  6
Continuous
 62
     7
370
    15
100
AcDbCircle
 10
662.1171768322
 20
86.9655826466
 30
0.0
 40
10.8
100
AcDbArc
 50
320.0
 51
70.0
  0
ARC
  5
C3
330
1F
100
AcDbEntity
  8
0
  6
Continuous
 62
     7
370
    15
100
AcDbCircle
 10
662.1171768322
 20
86.9655826466
 30
0.0
 40
10.00000000000007
100
AcDbArc
 50
320.0
 51
70.0
  0
LWPOLYLINE
  5
C4
330
1F
100
AcDbEntity
  8
0
  6
Continuous
 62
     7
370
    15
100
AcDbPolyline
 90
        3
 70
   128
 43
0.0
 10
614.6995603341
 20
186.7788328219
 10
614.708888461
 20
186.6936913122
 10
614.715266158
 20
186.6486786295
  0
LWPOLYLINE
  5
C5
330
1F
100
AcDbEntity
  8
0
  6
Continuous
 62
     7
370
    15
100
AcDbPolyline
 90
        3
 70
   128
 43
0.0
 10
615.4925405282
 20
187.0063158114
 10
615.5021666783
 20
186.7972487945
 10
615.5528306264
 20
186.5727832902
  0
LINE
  5
C6
330
1F
100
AcDbEntity
  8
0
  6
Continuous
 62
     7
370
    15
100
AcDbLine
 10
615.5528306264
 20
186.5727832902
 30
0.0
 11
615.9461318749
 21
185.362317263
 31
0.0
  0
LINE
  5
C7
330
1F
100
AcDbEntity
  8
0
  6
Continuous
 62
     7
370
    15
100
AcDbLine
 10
-132.442396949
 20
-14.6211715054
 30
0.0
 11
-132.442396949
 21
7.3788283754
 31
0.0
  0
LINE
  5
C8
330
1F
100
AcDbEntity
  8
0
  6
Continuous
 62
     7
370
    15
100
AcDbLine
 10
-134.4424010021
 20
-12.6211674522
 30
0.0
 11
-134.4424010021
 21
5.3788392235
 31
0.0
  0
LINE
  5
C9
330
1F
100
AcDbEntity
  8
0
  6
Continuous
 62
     7
370
    15
100
AcDbLine
 10
-136.4424050552
 20
-14.6211715054
 30
0.0
 11
-136.4424050552
 21
7.3788283754
 31
0.0
  0
LINE
  5
CA
330
1F
100
AcDbEntity
  8
0
  6
Continuous
 62
     7
370
    15
100
AcDbLine
 10
-138.4424091083
 20
-12.6211674522
 30
0.0
 11
-138.4424091083
 21
5.3788392235
 31
0.0
  0
LINE
  5
CB
330
1F
100
AcDbEntity
  8
0
  6
Continuous
 62
     7
370
    15
100
AcDbLine
 10
-111.6427005035
 20
439.3873183418
 30
0.0
 11
-111.5427137119
 21
439.3873183418
 31
0.0
  0
LINE
  5
CC
330
1F
100
AcDbEntity
  8
0
  6
Continuous
 62
     7
370
    15
100
AcDbLine
 10
-111.6427005035
 20
429.187324493
 30
0.0
 11
-111.6427005035
 21
429.0873228003
 31
0.0
  0
LINE
  5
CD
330
1F
100
AcDbEntity
  8
0
  6
Continuous
 62
     7
370
    15
100
AcDbLine
 10
-110.8427167636
 20
429.4873146702
 30
0.0
 11
-110.8427167636
 21
429.0873228003
 31
0.0
  0
LINE
  5
CE
330
1F
100
AcDbEntity
  8
0
  6
Continuous
 62
     7
370
    15
100
AcDbLine
 10
-111.6427005035
 20
203.3873197053
 30
0.0
 11
-110.8427167636
 21
203.3873197053
 31
0.0
  0
LINE
  5
CF
330
1F
100
AcDbEntity
  8
0
  6
Continuous
 62
     7
370
    15
100
AcDbLine
 10
-110.8427167636
 20
203.3873197053
 30
0.0
 11
-110.8427167636
 21
203.1747877028
 31
0.0
  0
LINE
  5
D0
330
1F
100
AcDbEntity
  8
0
  6
Continuous
 62
     7
370
    15
100
AcDbLine
 10
-111.6427005035
 20
220.178832895
 30
0.0
 11
-111.6427005035
 21
218.9081224043
 31
0.0
  0
LINE
  5
D1
330
1F
100
AcDbEntity
  8
0
  6
Continuous
 62
     7
370
    15
100
AcDbLine
 10
-110.8427167636
 20
218.9878557239
 30
0.0
 11
-110.8427167636
 21
217.7288328659
 31
0.0
  0
LINE
  5
D2
330
1F
100
AcDbEntity
  8
0
  6
Continuous
 62
     7
370
    15
100
AcDbLine
 10
-111.6427005035
 20
205.3873195674
 30
0.0
 11
-111.6427005035
 21
203.3873197053
 31
0.0
  0
LINE
  5
D3
330
1F
100
AcDbEntity
  8
0
  6
Continuous
 62
     7
370
    15
100
AcDbLine
 10
-110.8427167636
 20
205.6059815351
 30
0.0
 11
-110.8427167636
 21
205.3873195674
 31
0.0
  0
LINE
  5
D4
330
1F
100
AcDbEntity
  8
0
  6
Continuous
 62
     7
370
    15
100
AcDbLine
 10
-111.842703889
 20
198.3717620734
 30
0.0
 11
-111.842703889
 21
203.371761496
 31
0.0
  0
LINE
  5
D5
330
1F
100
AcDbEntity
  8
0
  6
Continuous
 62
     7
370
    15
100
AcDbLine
 10
-111.842703889
 20
198.3717620734
 30
0.0
 11
-111.842703889
 21
10.9421430517
 31
0.0
  0
LINE
  5
D6
330
1F
100
AcDbEntity
  8
0
  6
Continuous
 62
     7
370
    15
100
AcDbLine
 10
-111.842703889
 20
10.9421430517
 30
0.0
 11
-111.842703889
 21
8.9607356478
 31
0.0
  0
LINE
  5
D7
330
1F
100
AcDbEntity
  8
0
  6
Continuous
 62
     7
370
    15
100
AcDbLine
 10
-111.842703889
 20
-16.2030787777
 30
0.0
 11
-111.842703889
 21
-18.1844712805
 31
0.0
  0
LINE
  5
D8
330
1F
100
AcDbEntity
  8
0
  6
Continuous
 62
     7
370
    15
100
AcDbLine
 10
-111.842703889
 20
-18.1844712805
 30
0.0
 11
-111.842703889
 21
-55.6141020369
 31
0.0
  0
LINE
  5
D9
330
1F
100
AcDbEntity
  8
0
  6
Continuous
 62
     7
370
    15
100
AcDbLine
 10
-111.842703889
 20
-60.6140972685
 30
0.0
 11
-111.842703889
 21
-55.6141020369
 31
0.0
  0
LINE
  5
DA
330
1F
100
AcDbEntity
  8
0
  6
Continuous
 62
     7
370
    15
100
AcDbLine
 10
-111.842703889
 20
8.9607356478
 30
0.0
 11
-111.842703889
 21
7.3788283754
 31
0.0
  0
LINE
  5
DB
330
1F
100
AcDbEntity
  8
0
  6
Continuous
 62
     7
370
    15
100
AcDbLine
 10
-111.842703889
 20
-14.6211715054
 30
0.0
 11
-111.842703889
 21
-16.2030787777
 31
0.0
  0
SPLINE
  5
DC
330
1F
100
AcDbEntity
  8
0
  6
Continuous
 62
     7
370
    15
100
AcDbSpline
210
0.0
220
0.0
230
1.0
 70
     8
 71
     3
 72
     9
 73
     5
 74
     0
 42
0.00000001
 43
0.00000001
 40
0.0
 40
0.0
 40
0.0
 40
0.0
 40
0.0771831796696125
 40
1.0
 40
1.0
 40
1.0
 40
1.0
 10
-111.0272527438582
 20
-60.58489099254844
 30
0.0
 10
-111.0286332908332
 20
-60.58625675764539
 30
0.0
 10
-111.0465199208079
 20
-60.60395187078876
 30
0.0
 10
-111.0445437722791
 20
-60.60922819123293
 30
0.0
 10
-111.0427201491774
 20
-60.61409726848838
 30
0.0
  0
LINE
  5
DD
330
1F
100
AcDbEntity
  8
0
  6
Continuous
 62
     7
370
    15
100
AcDbLine
 10
-140.4424131614
 20
-14.6211715054
 30
0.0
 11
-140.4424131614
 21
7.3788283754
 31
0.0
  0
LINE
  5
DE
330
1F
100
AcDbEntity
  8
0
  6
Continuous
 62
     7
370
    15
100
AcDbLine
 10
-142.4424172145
 20
-12.6211674522
 30
0.0
 11
-142.4424172145
 21
5.3788392235
 31
0.0
  0
LINE
  5
DF
330
1F
100
AcDbEntity
  8
0
  6
Continuous
 62
     7
370
    15
100
AcDbLine
 10
-144.4424212676
 20
-14.6211715054
 30
0.0
 11
-144.4424212676
 21
7.3788283754
 31
0.0
  0
LINE
  5
E0
330
1F
100
AcDbEntity
  8
0
  6
Continuous
 62
     7
370
    15
100
AcDbLine
 10
-146.4423955184
 20
-12.6211674522
 30
0.0
 11
-146.4423955184
 21
5.3788392235
 31
0.0
  0
LINE
  5
E1
330
1F
100
AcDbEntity
  8
0
  6
Continuous
 62
     7
370
    15
100
AcDbLine
 10
536.1072897214
 20
217.6788324852
 30
0.0
 11
536.1072897214
 21
217.7288328659
 31
0.0
  0
LINE
  5
E2
330
1F
100
AcDbEntity
  8
0
  6
Continuous
 62
     7
370
    15
100
AcDbLine
 10
537.6073002118
 20
217.6788324852
 30
0.0
 11
536.1072897214
 21
217.6788324852
 31
0.0
  0
LINE
  5
E3
330
1F
100
AcDbEntity
  8
0
  6
Continuous
 62
     7
370
    15
100
AcDbLine
 10
537.6073002118
 20
206.6288326297
 30
0.0
 11
537.6073002118
 21
217.6788324852
 31
0.0
  0
LINE
  5
E4
330
1F
100
AcDbEntity
  8
0
  6
Continuous
 62
     7
370
    15
100
AcDbLine
 10
-109.7926915389
 20
206.6288326297
 30
0.0
 11
537.6073002118
 21
206.6288326297
 31
0.0
  0
LINE
  5
E5
330
1F
100
AcDbEntity
  8
0
  6
Continuous
 62
     7
370
    15
100
AcDbLine
 10
-109.7926915389
 20
217.7288328659
 30
0.0
 11
-109.7926915389
 21
206.6288326297
 31
0.0
  0
LINE
  5
E6
330
1F
100
AcDbEntity
  8
0
  6
Continuous
 62
     7
370
    15
100
AcDbLine
 10
536.1072897214
 20
217.7288328659
 30
0.0
 11
-109.7926915389
 21
217.7288328659
 31
0.0
  0
SPLINE
  5
E7
330
1F
100
AcDbEntity
  8
0
  6
Continuous
 62
     7
370
    15
100
AcDbSpline
210
0.0
220
0.0
230
1.0
 70
     8
 71
     3
 72
    12
 73
     8
 74
     0
 42
0.00000001
 43
0.00000001
 40
0.0
 40
0.0
 40
0.0
 40
0.0
 40
0.2372133329324135
 40
0.4744686922047655
 40
0.7117263467279002
 40
0.9489813347174025
 40
1.0
 40
1.0
 40
1.0
 40
1.0
 10
-109.792691538948
 20
206.6288326297141
 30
0.0
 10
-109.8862198808336
 20
206.3394079835875
 30
0.0
 10
-110.0732931347271
 20
205.7605074148803
 30
0.0
 10
-110.3539352481735
 20
204.9980251989836
 30
0.0
 10
-110.6343821573158
 20
204.4470201008252
 30
0.0
 10
-110.842045087085
 20
204.2170496961251
 30
0.0
 10
-110.95521829862
 20
204.1966522027933
 30
0.0
 10
-110.9752476912917
 20
204.193042254839
 30
0.0
  0
LINE
  5
E8
330
1F
100
AcDbEntity
  8
0
  6
Continuous
 62
     7
370
    15
100
AcDbLine
 10
537.6073002118
 20
204.1788326007
 30
0.0
 11
537.6073002118
 21
206.6288326297
 31
0.0
  0
SPLINE
  5
E9
330
1F
100
AcDbEntity
  8
0
  6
Continuous
 62
     7
370
    15
100
AcDbSpline
210
0.0
220
0.0
230
1.0
 70
     8
 71
     3
 72
    30
 73
    26
 74
     0
 42
0.00000001
 43
0.00000001
 40
0.0
 40
0.0
 40
0.0
 40
0.0
 40
0.0377923865679728
 40
0.0746684389760241
 40
0.1106319752661907
 40
0.1456871141038192
 40
0.1798383052763367
 40
0.2130903639299178
 40
0.245448509063146
 40
0.276918406873569
 40
0.3075062196390526
 40
0.3372186609143862
 40
0.3660630579316757
 40
0.394047422214227
 40
0.4211805295426228
 40
0.4474720105483455
 40
0.472932453346933
 40
0.4975735197502523
 40
0.5503254310874606
 40
0.6093637364517729
 40
0.6747308490298726
 40
0.7464576369897493
 40
0.8245671094012075
 40
0.9090767420569874
 40
1.0
 40
1.0
 40
1.0
 40
1.0
 10
-112.2427057377748
 20
205.3859037584071
 30
0.0
 10
-112.2417825898835
 20
205.3910578714312
 30
0.0
 10
-112.2399586772319
 20
205.4012411281335
 30
0.0
 10
-112.2255246170987
 20
205.4181920649702
 30
0.0
 10
-112.2034090779138
 20
205.4361493620508
 30
0.0
 10
-112.1735417639448
 20
205.4552373678575
 30
0.0
 10
-112.1368953913097
 20
205.4754239752258
 30
0.0
 10
-112.0941618435909
 20
205.4967174366105
 30
0.0
 10
-112.046086234773
 20
205.519115606359
 30
0.0
 10
-111.9933745780021
 20
205.5426190290646
 30
0.0
 10
-111.9367123396556
 20
205.5672275476552
 30
0.0
 10
-111.8767554542179
 20
205.5929412670033
 30
0.0
 10
-111.8141292071662
 20
205.6197599964281
 30
0.0
 10
-111.7494263444448
 20
205.6476845181437
 30
0.0
 10
-111.6832046369696
 20
205.6767122731338
 30
0.0
 10
-111.6159905983753
 20
205.7068527084202
 30
0.0
 10
-111.548263234496
 20
205.7380726899659
 30
0.0
 10
-111.4540122303141
 20
205.7831697664306
 30
0.0
 10
-111.323070055357
 20
205.8485885055642
 30
0.0
 10
-111.1428749919653
 20
205.9399296346674
 30
0.0
 10
-110.9325175643125
 20
206.0470157551254
 30
0.0
 10
-110.6908051879397
 20
206.1697578163498
 30
0.0
 10
-110.4177091183324
 20
206.3082579879485
 30
0.0
 10
-110.1144899541072
 20
206.4622530994162
 30
0.0
 10
-109.9025499049315
 20
206.5719691294583
 30
0.0
 10
-109.792705737775
 20
206.6288326905953
 30
0.0
  0
SPLINE
  5
EA
330
1F
100
AcDbEntity
  8
0
  6
Continuous
 62
     7
370
    15
100
AcDbSpline
210
0.0
220
0.0
230
1.0
 70
     8
 71
     3
 72
    24
 73
    20
 74
     0
 42
0.00000001
 43
0.00000001
 40
0.0
 40
0.0
 40
0.0
 40
0.0
 40
0.25
 40
0.25
 40
0.375
 40
0.375
 40
0.4375
 40
0.4375
 40
0.46875
 40
0.46875
 40
0.484375
 40
0.484375
 40
0.4921875
 40
0.4921875
 40
0.5
 40
0.5
 40
0.75
 40
0.75
 40
1.0
 40
1.0
 40
1.0
 40
1.0
 10
-111.0427057377748
 20
205.3859037584071
 30
0.0
 10
-111.0427057377748
 20
205.4266737064982
 30
0.0
 10
-110.9892658188807
 20
205.4789348961757
 30
0.0
 10
-110.8775118113033
 20
205.5752505242733
 30
0.0
 10
-110.8349492523146
 20
205.6103048752804
 30
0.0
 10
-110.7681065577553
 20
205.6673101142529
 30
0.0
 10
-110.7453147861075
 20
205.6870491459874
 30
0.0
 10
-110.7108775672024
 20
205.7177636217046
 30
0.0
 10
-110.6993561547067
 20
205.7281861016296
 30
0.0
 10
-110.6820684406758
 20
205.7440963035459
 30
0.0
 10
-110.6763048906161
 20
205.7494457845228
 30
0.0
 10
-110.6676649244213
 20
205.7575391264954
 30
0.0
 10
-110.6647858259937
 20
205.7602484272375
 30
0.0
 10
-110.6590305136062
 20
205.7656900688907
 30
0.0
 10
-110.6558555205487
 20
205.7687076368024
 30
0.0
 10
-110.5708656062668
 20
205.8498425586423
 30
0.0
 10
-110.4609757687919
 20
205.9606529042146
 30
0.0
 10
-110.1737966537052
 20
206.2465417108138
 30
0.0
 10
-109.9958511772518
 20
206.4212356204007
 30
0.0
 10
-109.7927057377749
 20
206.6288326905953
 30
0.0
  0
LINE
  5
EB
330
1F
100
AcDbEntity
  8
0
  6
Continuous
 62
     7
370
    15
100
AcDbLine
 10
-112.2427106601
 20
205.3859039571
 30
0.0
 11
-111.0427201492
 21
205.3859039571
 31
0.0
  0
LINE
  5
EC
330
1F
100
AcDbEntity
  8
0
  6
Continuous
 62
     7
370
    15
100
AcDbLine
 10
-112.2427106601
 20
217.7288328659
 30
0.0
 11
-112.2427106601
 21
205.3859039571
 31
0.0
  0
LINE
  5
ED
330
1F
100
AcDbEntity
  8
0
  6
Continuous
 62
     7
370
    15
100
AcDbLine
 10
-109.7926915389
 20
217.7288328659
 30
0.0
 11
-112.2427106601
 21
217.7288328659
 31
0.0
  0
LINE
  5
EE
330
1F
100
AcDbEntity
  8
0
  6
Continuous
 62
     7
370
    15
100
AcDbLine
 10
-111.0356271964
 20
205.3788328905
 30
0.0
 11
-111.0356271964
 21
204.1788326007
 31
0.0
  0
SPLINE
  5
EF
330
1F
100
AcDbEntity
  8
0
  6
Continuous
 62
     7
370
    15
100
AcDbSpline
210
0.0
220
0.0
230
1.0
 70
     8
 71
     3
 72
    11
 73
     7
 74
     0
 42
0.00000001
 43
0.00000001
 40
0.0
 40
0.0
 40
0.0
 40
0.0
 40
0.2657232755127976
 40
0.5202435267617231
 40
0.7747245449962826
 40
0.9999999999999999
 40
0.9999999999999999
 40
0.9999999999999999
 40
0.9999999999999999
 10
-109.7926915389479
 20
206.6288326297141
 30
0.0
 10
-109.9028693270524
 20
206.454639690418
 30
0.0
 10
-110.118579753411
 20
206.1135978720019
 30
0.0
 10
-110.4394902547824
 20
205.6947366465445
 30
0.0
 10
-110.7439026415811
 20
205.4266859438114
 30
0.0
 10
-110.9424138550371
 20
205.3941231460455
 30
0.0
 10
-111.0356271964492
 20
205.3788328904844
 30
0.0
  0
LINE
  5
F0
330
1F
100
AcDbEntity
  8
0
  6
Continuous
 62
     7
370
    15
100
AcDbLine
 10
536.1072897214
 20
220.178832895
 30
0.0
 11
536.1072897214
 21
217.7288328659
 31
0.0
  0
LINE
  5
F1
330
1F
100
AcDbEntity
  8
0
  6
Continuous
 62
     7
370
    15
100
AcDbLine
 10
-57.4427068931
 20
220.178832895
 30
0.0
 11
536.1072897214
 21
220.178832895
 31
0.0
  0
LINE
  5
F2
330
1F
100
AcDbEntity
  8
0
  6
Continuous
 62
     7
370
    15
100
AcDbLine
 10
-109.7926915389
 20
220.178832895
 30
0.0
 11
-109.7926915389
 21
217.7288328659
 31
0.0
  0
LINE
  5
F3
330
1F
100
AcDbEntity
  8
0
  6
Continuous
 62
     7
370
    15
100
AcDbLine
 10
631.1240970391
 20
241.5788328637
 30
0.0
 11
539.8073076504
 21
241.5788328637
 31
0.0
  0
LINE
  5
F4
330
1F
100
AcDbEntity
  8
0
  6
Continuous
 62
     7
370
    15
100
AcDbLine
 10
537.3572885293
 20
221.4288326342
 30
0.0
 11
537.6573085087
 21
221.4288326342
 31
0.0
  0
LINE
  5
F5
330
1F
100
AcDbEntity
  8
0
  6
Continuous
 62
     7
370
    15
100
AcDbLine
 10
537.3572885293
 20
239.1288323689
 30
0.0
 11
537.3572885293
 21
221.4288326342
 31
0.0
  0
ARC
  5
F6
330
1F
100
AcDbEntity
  8
0
  6
Continuous
 62
     7
370
    15
100
AcDbCircle
 10
539.8072942622
 20
239.1288326906
 30
0.0
 40
2.450000000000017
100
AcDbArc
 50
90.0
 51
180.0
  0
ARC
  5
F7
330
1F
100
AcDbEntity
  8
0
  6
Continuous
 62
     7
370
    15
100
AcDbCircle
 10
631.1241027607
 20
218.2788326906
 30
0.0
 40
23.29999999999998
100
AcDbArc
 50
293.5
 51
90.0
  0
LINE
  5
F8
330
1F
100
AcDbEntity
  8
0
  6
Continuous
 62
     7
370
    15
100
AcDbLine
 10
617.243844201
 20
186.8362507213
 30
0.0
 11
640.4149412411
 21
196.9113327924
 31
0.0
  0
LINE
  5
F9
330
1F
100
AcDbEntity
  8
0
  6
Continuous
 62
     7
370
    15
100
AcDbLine
 10
616.9082700509
 20
187.6080284257
 30
0.0
 11
617.243844201
 21
186.8362507213
 31
0.0
  0
LINE
  5
FA
330
1F
100
AcDbEntity
  8
0
  6
Continuous
 62
     7
370
    15
100
AcDbLine
 10
-111.0356271964
 20
218.9788330708
 30
0.0
 11
-109.7926915389
 21
218.9788330708
 31
0.0
  0
LINE
  5
FB
330
1F
100
AcDbEntity
  8
0
  6
Continuous
 62
     7
370
    15
100
AcDbLine
 10
-111.0356271964
 20
220.178832895
 30
0.0
 11
-111.0356271964
 21
218.9788330708
 31
0.0
  0
LINE
  5
FC
330
1F
100
AcDbEntity
  8
0
  6
Continuous
 62
     7
370
    15
100
AcDbLine
 10
-112.2427106601
 20
218.9717615385
 30
0.0
 11
-111.0427201492
 21
218.9717615385
 31
0.0
  0
LINE
  5
FD
330
1F
100
AcDbEntity
  8
0
  6
Continuous
 62
     7
370
    15
100
AcDbLine
 10
-112.2427106601
 20
217.7288328659
 30
0.0
 11
-112.2427106601
 21
218.9717615385
 31
0.0
  0
LINE
  5
FE
330
1F
100
AcDbEntity
  8
0
  6
Continuous
 62
     7
370
    15
100
AcDbLine
 10
-111.0427201492
 20
217.7288328659
 30
0.0
 11
-111.0427201492
 21
218.9717615385
 31
0.0
  0
ARC
  5
FF
330
1F
100
AcDbEntity
  8
0
  6
Continuous
 62
     7
370
    15
100
AcDbCircle
 10
536.1072942622
 20
221.4288326906
 30
0.0
 40
1.250000000000028
100
AcDbArc
 50
270.0
 51
0.0000000001
  0
ARC
  5
100
330
1F
100
AcDbEntity
  8
0
  6
Continuous
 62
     7
370
    15
100
AcDbCircle
 10
536.1072942622
 20
221.4288326906
 30
0.0
 40
2.450000000000017
100
AcDbArc
 50
270.0
 51
309.2461329497
  0
LWPOLYLINE
  5
101
330
1F
100
AcDbEntity
  8
0
  6
Continuous
 62
     7
370
    15
100
AcDbPolyline
 90
        3
 70
   128
 43
0.0
 10
-57.4427068931
 20
220.2626426134
 10
-57.2365642291
 20
220.2028507728
 10
-56.9926918251
 20
220.178832895
  0
SPLINE
  5
102
330
1F
100
AcDbEntity
  8
0
  6
Continuous
 62
     7
370
    15
100
AcDbSpline
210
0.0
220
0.0
230
1.0
 70
     8
 71
     3
 72
    11
 73
     7
 74
     0
 42
0.00000001
 43
0.00000001
 40
0.0
 40
0.0
 40
0.0
 40
0.0
 40
0.2698969645931048
 40
0.5207786228391134
 40
0.771607806857768
 40
1.0
 40
1.0
 40
1.0
 40
1.0
 10
-109.7926915389479
 20
217.7288328658975
 30
0.0
 10
-109.8988888718266
 20
217.9058090598601
 30
0.0
 10
-110.1038015163578
 20
218.2472927764559
 30
0.0
 10
-110.4070514913529
 20
218.6629949983424
 30
0.0
 10
-110.6941299271744
 20
218.9301923779685
 30
0.0
 10
-110.8823130252178
 20
218.963133605748
 30
0.0
 10
-110.9719992381514
 20
218.9788330707884
 30
0.0
  0
SPLINE
  5
103
330
1F
100
AcDbEntity
  8
0
  6
Continuous
 62
     7
370
    15
100
AcDbSpline
210
0.0
220
0.0
230
1.0
 70
     8
 71
     3
 72
    24
 73
    20
 74
     0
 42
0.00000001
 43
0.00000001
 40
0.0
 40
0.0
 40
0.0
 40
0.0
 40
0.25
 40
0.25
 40
0.375
 40
0.375
 40
0.4375
 40
0.4375
 40
0.46875
 40
0.46875
 40
0.484375
 40
0.484375
 40
0.4921875
 40
0.4921875
 40
0.5
 40
0.5
 40
0.75
 40
0.75
 40
1.0
 40
1.0
 40
1.0
 40
1.0
 10
-111.0427057377749
 20
218.9081220124767
 30
0.0
 10
-111.0427057377749
 20
218.878032551617
 30
0.0
 10
-110.9890178438991
 20
218.8348889380104
 30
0.0
 10
-110.8770886644738
 20
218.7500714241141
 30
0.0
 10
-110.8344975472059
 20
218.7184775074768
 30
0.0
 10
-110.7676960710166
 20
218.6661045145131
 30
0.0
 10
-110.7449318087431
 20
218.6478164971906
 30
0.0
 10
-110.7105594452197
 20
218.6191389417049
 30
0.0
 10
-110.6990635703601
 20
218.6093721682927
 30
0.0
 10
-110.6818203021035
 20
218.5944106257989
 30
0.0
 10
-110.6760725898254
 20
218.589371547905
 30
0.0
 10
-110.6674579406542
 20
218.5817350854704
 30
0.0
 10
-110.664587541253
 20
218.5791766237266
 30
0.0
 10
-110.6588501509104
 20
218.5740337517075
 30
0.0
 10
-110.6556821213093
 20
218.5711763979882
 30
0.0
 10
-110.5710798383276
 20
218.4944698417988
 30
0.0
 10
-110.461487976408
 20
218.3872771787277
 30
0.0
 10
-110.1744441970977
 20
218.107270756629
 30
0.0
 10
-109.9963228730557
 20
217.9348464133914
 30
0.0
 10
-109.7927057377749
 20
217.7288326905954
 30
0.0
  0
LINE
  5
104
330
1F
100
AcDbEntity
  8
0
  6
Continuous
 62
     7
370
    15
100
AcDbLine
 10
522.328334977
 20
258.3047828067
 30
0.0
 11
-47.6427198154
 21
400.0059185911
 31
0.0
  0
ARC
  5
105
330
1F
100
AcDbEntity
  8
0
  6
Continuous
 62
     7
370
    15
100
AcDbCircle
 10
519.9156587221
 20
248.6001960919
 30
0.0
 40
10.00000000000015
100
AcDbArc
 50
26.0033458445
 51
76.0386774171
  0
LINE
  5
106
330
1F
100
AcDbEntity
  8
0
  6
Continuous
 62
     7
370
    15
100
AcDbLine
 10
536.8572949666
 20
236.6788318742
 30
0.0
 11
528.9033531445
 21
252.9844312359
 31
0.0
  0
LINE
  5
107
330
1F
100
AcDbEntity
  8
0
  6
Continuous
 62
     7
370
    15
100
AcDbLine
 10
536.8572949666
 20
222.1788322915
 30
0.0
 11
536.8572949666
 21
236.6788318742
 31
0.0
  0
LINE
  5
108
330
1F
100
AcDbEntity
  8
0
  6
Continuous
 62
     7
370
    15
100
AcDbLine
 10
-47.6427198154
 20
222.1788322915
 30
0.0
 11
536.8572949666
 21
222.1788322915
 31
0.0
  0
LINE
  5
109
330
1F
100
AcDbEntity
  8
0
  6
Continuous
 62
     7
370
    15
100
AcDbLine
 10
-47.6427198154
 20
222.1788322915
 30
0.0
 11
-47.6427198154
 21
400.0059185911
 31
0.0
  0
CIRCLE
  5
10A
330
1F
100
AcDbEntity
  8
0
  6
Continuous
 62
     7
370
    15
100
AcDbCircle
 10
418.3572942622
 20
263.1788326906
 30
0.0
 40
7.0
  0
CIRCLE
  5
10B
330
1F
100
AcDbEntity
  8
0
  6
Continuous
 62
     7
370
    15
100
AcDbCircle
 10
-1.6427057378
 20
367.1788326906
 30
0.0
 40
7.000000000000007
  0
SPLINE
  5
10C
330
1F
100
AcDbEntity
  8
0
  6
Continuous
 62
     7
370
    15
100
AcDbSpline
210
0.0
220
0.0
230
1.0
 70
     8
 71
     3
 72
    14
 73
    10
 74
     0
 42
0.00000001
 43
0.00000001
 40
0.0
 40
0.0
 40
0.0
 40
0.0
 40
0.25
 40
0.25
 40
0.5
 40
0.5
 40
0.75
 40
0.75
 40
1.0
 40
1.0
 40
1.0
 40
1.0
 10
-51.1427057377718
 20
400.3788326905953
 30
0.0
 10
-51.1427057377718
 20
400.3477563818961
 30
0.0
 10
-51.05161058202096
 20
400.3166800731969
 30
0.0
 10
-50.70096033557125
 20
400.2545274557985
 30
0.0
 10
-50.44154320935207
 20
400.2234511470992
 30
0.0
 10
-49.79362576587098
 20
400.1612985297008
 30
0.0
 10
-49.40538037383396
 20
400.1302222210016
 30
0.0
 10
-48.55883478820466
 20
400.0680696036032
 30
0.0
 10
-48.10086767072563
 20
400.0369932949039
 30
0.0
 10
-47.64271992429087
 20
400.0059169862048
 30
0.0
  0
LINE
  5
10D
330
1F
100
AcDbEntity
  8
0
  6
Continuous
 62
     7
370
    15
100
AcDbLine
 10
-47.6427198154
 20
222.1788322915
 30
0.0
 11
-51.1427045566
 21
222.1788322915
 31
0.0
  0
LINE
  5
10E
330
1F
100
AcDbEntity
  8
0
  6
Continuous
 62
     7
370
    15
100
AcDbLine
 10
-51.1427045566
 20
222.1788322915
 30
0.0
 11
-51.1427045566
 21
400.3788350512
 31
0.0
  0
LINE
  5
10F
330
1F
100
AcDbEntity
  8
0
  6
Continuous
 62
     7
370
    15
100
AcDbLine
 10
-49.1427005035
 20
400.3788350512
 30
0.0
 11
-51.1427045566
 21
400.3788350512
 31
0.0
  0
SPLINE
  5
110
330
1F
100
AcDbEntity
  8
0
  6
Continuous
 62
     7
370
    15
100
AcDbSpline
210
0.0
220
0.0
230
1.0
 70
     8
 71
     3
 72
    11
 73
     7
 74
     0
 42
0.00000001
 43
0.00000001
 40
0.0
 40
0.0
 40
0.0
 40
0.0
 40
0.2500010885880584
 40
0.5000086102165701
 40
0.7499999002437381
 40
1.0
 40
1.0
 40
1.0
 40
1.0
 10
-49.14270050348652
 20
400.3788350511527
 30
0.0
 10
-49.12015701241418
 20
400.3477540441607
 30
0.0
 10
-49.07506945017936
 20
400.2855912303984
 30
0.0
 10
-48.72818359758219
 20
400.1923873604782
 30
0.0
 10
-48.2323791931939
 20
400.0991324834359
 30
0.0
 10
-47.83927525012482
 20
400.0369902535327
 30
0.0
 10
-47.64271981539142
 20
400.0059185911155
 30
0.0
  0
LINE
  5
111
330
1F
100
AcDbEntity
  8
0
  6
Continuous
 62
     7
370
    15
100
AcDbLine
 10
-53.5562754375
 20
410.6196878839
 30
0.0
 11
-55.3688824874
 21
409.7744493175
 31
0.0
  0
LINE
  5
112
330
1F
100
AcDbEntity
  8
0
  6
Continuous
 62
     7
370
    15
100
AcDbLine
 10
-51.283252309
 20
401.0127602507
 30
0.0
 11
-49.4706154567
 21
401.8579988171
 31
0.0
  0
LINE
  5
113
330
1F
100
AcDbEntity
  8
0
  6
Continuous
 62
     7
370
    15
100
AcDbLine
 10
-51.283252309
 20
401.0127602507
 30
0.0
 11
-55.3688824874
 21
409.7744493175
 31
0.0
  0
LINE
  5
114
330
1F
100
AcDbEntity
  8
0
  6
Continuous
 62
     7
370
    15
100
AcDbLine
 10
-49.4706154567
 20
401.8579988171
 30
0.0
 11
-53.5562754375
 21
410.6196878839
 31
0.0
  0
LINE
  5
115
330
1F
100
AcDbEntity
  8
0
  6
Continuous
 62
     7
370
    15
100
AcDbLine
 10
-55.6693495017
 20
415.1512353111
 30
0.0
 11
-57.481986354
 21
414.3059967447
 31
0.0
  0
LWPOLYLINE
  5
116
330
1F
100
AcDbEntity
  8
0
  6
Continuous
 62
     7
370
    15
100
AcDbPolyline
 90
        9
 70
   128
 43
0.0
 10
-55.3688824874
 20
409.7744493175
 10
-55.781138013
 20
410.6585054089
 10
-56.1775387031
 20
411.5086017538
 10
-56.5428555709
 20
412.2920452047
 10
-56.863081525
 20
412.978735416
 10
-57.1258486015
 20
413.5422824312
 10
-57.3211432201
 20
413.9610497642
 10
-57.4413657886
 20
414.2189143587
 10
-57.481986354
 20
414.3059967447
  0
LWPOLYLINE
  5
117
330
1F
100
AcDbEntity
  8
0
  6
Continuous
 62
     7
370
    15
100
AcDbPolyline
 90
        9
 70
   128
 43
0.0
 10
-53.5562754375
 20
410.6196878839
 10
-53.9685309631
 20
411.5037439753
 10
-54.3649316532
 20
412.3538403202
 10
-54.730248521
 20
413.1372837711
 10
-55.0504446727
 20
413.8239739824
 10
-55.3132415515
 20
414.3875209976
 10
-55.5085063678
 20
414.8062883306
 10
-55.6287587387
 20
415.0641529251
 10
-55.6693495017
 20
415.1512353111
  0
ARC
  5
118
330
1F
100
AcDbEntity
  8
0
  6
Continuous
 62
     7
370
    15
100
AcDbCircle
 10
-52.6427057378
 20
400.3788326906
 30
0.0
 40
1.499999999999943
100
AcDbArc
 50
0.0
 51
25.0
  0
ARC
  5
119
330
1F
100
AcDbEntity
  8
0
  6
Continuous
 62
     7
370
    15
100
AcDbCircle
 10
-52.6427057378
 20
400.3788326906
 30
0.0
 40
3.499999999999952
100
AcDbArc
 50
360.0
 51
25.0
  0
LINE
  5
11A
330
1F
100
AcDbEntity
  8
0
  6
Continuous
 62
     7
370
    15
100
AcDbLine
 10
-130.4424226982
 20
7.3788283754
 30
0.0
 11
-130.4424226982
 21
-14.6211715054
 31
0.0
  0
LINE
  5
11B
330
1F
100
AcDbEntity
  8
0
  6
Continuous
 62
     7
370
    15
100
AcDbLine
 10
10.9575866955
 20
-63.1211580347
 30
0.0
 11
10.9575866955
 21
-61.4211739611
 31
0.0
  0
LINE
  5
11C
330
1F
100
AcDbEntity
  8
0
  6
Continuous
 62
     7
370
    15
100
AcDbLine
 10
-79.0424168807
 20
-63.1211580347
 30
0.0
 11
10.9575866955
 21
-63.1211580347
 31
0.0
  0
LINE
  5
11D
330
1F
100
AcDbEntity
  8
0
  6
Continuous
 62
     7
370
    15
100
AcDbLine
 10
-79.0424168807
 20
-63.1211580347
 30
0.0
 11
-79.0424168807
 21
-61.4211739611
 31
0.0
  0
LINE
  5
11E
330
1F
100
AcDbEntity
  8
0
  6
Continuous
 62
     7
370
    15
100
AcDbLine
 10
-34.0424001914
 20
-126.1211813997
 30
0.0
 11
-65.0020659667
 21
-126.1211813997
 31
0.0
  0
LINE
  5
11F
330
1F
100
AcDbEntity
  8
0
  6
Continuous
 62
     7
370
    15
100
AcDbLine
 10
-3.0827642185
 20
-126.1211813997
 30
0.0
 11
-34.0424001914
 21
-126.1211813997
 31
0.0
  0
LINE
  5
120
330
1F
100
AcDbEntity
  8
0
  6
Continuous
 62
     7
370
    15
100
AcDbLine
 10
533.6072921055
 20
244.778831153
 30
0.0
 11
557.1927308339
 21
244.778831153
 31
0.0
  0
LINE
  5
121
330
1F
100
AcDbEntity
  8
0
  6
Continuous
 62
     7
370
    15
100
AcDbLine
 10
557.1927308339
 20
243.5788331915
 30
0.0
 11
557.1927308339
 21
244.778831153
 31
0.0
  0
LINE
  5
122
330
1F
100
AcDbEntity
  8
0
  6
Continuous
 62
     7
370
    15
100
AcDbLine
 10
533.6072921055
 20
243.5788331915
 30
0.0
 11
557.1927308339
 21
243.5788331915
 31
0.0
  0
LINE
  5
123
330
1F
100
AcDbEntity
  8
0
  6
Continuous
 62
     7
370
    15
100
AcDbLine
 10
533.6072921055
 20
243.5788331915
 30
0.0
 11
533.6072921055
 21
244.778831153
 31
0.0
  0
LINE
  5
124
330
1F
100
AcDbEntity
  8
0
  6
Continuous
 62
     7
370
    15
100
AcDbLine
 10
533.6072921055
 20
243.5788331915
 30
0.0
 11
533.4939538735
 21
243.5736848403
 31
0.0
  0
LWPOLYLINE
  5
125
330
1F
100
AcDbEntity
  8
0
  6
Continuous
 62
     7
370
    15
100
AcDbPolyline
 90
        3
 70
   128
 43
0.0
 10
533.6072921055
 20
244.778831153
 10
533.1293224591
 20
244.7317583848
 10
532.9499124783
 20
244.6889883269
  0
LINE
  5
126
330
1F
100
AcDbEntity
  8
0
  6
Continuous
 62
     7
370
    15
100
AcDbLine
 10
560.5656682747
 20
243.9614875604
 30
0.0
 11
560.2550684708
 21
242.8023746599
 31
0.0
  0
LWPOLYLINE
  5
127
330
1F
100
AcDbEntity
  8
0
  6
Continuous
 62
     7
370
    15
100
AcDbPolyline
 90
        9
 70
   128
 43
0.0
 10
565.3952836293
 20
242.6673924912
 10
565.3024791974
 20
242.6922588039
 10
565.0276421803
 20
242.7658966173
 10
564.5813524025
 20
242.8854858864
 10
563.9807163971
 20
243.0464221526
 10
563.2488607663
 20
243.2425251592
 10
562.4138592976
 20
243.466258644
 10
561.507868697
 20
243.7090209115
 10
560.5656682747
 20
243.9614875604
  0
LINE
  5
128
330
1F
100
AcDbEntity
  8
0
  6
Continuous
 62
     7
370
    15
100
AcDbLine
 10
565.3952836293
 20
242.6673924912
 30
0.0
 11
565.1036083001
 21
241.5788328637
 31
0.0
  0
LWPOLYLINE
  5
129
330
1F
100
AcDbEntity
  8
0
  6
Continuous
 62
     7
370
    15
100
AcDbPolyline
 90
        8
 70
   128
 43
0.0
 10
564.8214101094
 20
241.5788328637
 10
564.7170721787
 20
241.6067874421
 10
564.2707525986
 20
241.7263729859
 10
563.6701463955
 20
241.8873129774
 10
562.9382609623
 20
242.083415984
 10
562.103289296
 20
242.3071457435
 10
561.1972986954
 20
242.5499117363
 10
560.2550684708
 20
242.8023746599
  0
LINE
  5
12A
330
1F
100
AcDbEntity
  8
0
  6
Continuous
 62
     7
370
    15
100
AcDbLine
 10
557.5162648457
 20
243.5362382222
 30
0.0
 11
557.8268348473
 21
244.6953511227
 31
0.0
  0
LINE
  5
12B
330
1F
100
AcDbEntity
  8
0
  6
Continuous
 62
     7
370
    15
100
AcDbLine
 10
560.5656682747
 20
243.9614875604
 30
0.0
 11
557.8268348473
 21
244.6953511227
 31
0.0
  0
LINE
  5
12C
330
1F
100
AcDbEntity
  8
0
  6
Continuous
 62
     7
370
    15
100
AcDbLine
 10
560.2550684708
 20
242.8023746599
 30
0.0
 11
557.5162648457
 21
243.5362382222
 31
0.0
  0
ARC
  5
12D
330
1F
100
AcDbEntity
  8
0
  6
Continuous
 62
     7
370
    15
100
AcDbCircle
 10
557.1927286402
 20
242.3288326906
 30
0.0
 40
2.450000000000045
100
AcDbArc
 50
75.0
 51
90.0
  0
ARC
  5
12E
330
1F
100
AcDbEntity
  8
0
  6
Continuous
 62
     7
370
    15
100
AcDbCircle
 10
557.1927286402
 20
242.3288326906
 30
0.0
 40
1.250000000000031
100
AcDbArc
 50
75.0
 51
90.0
  0
LINE
  5
12F
330
1F
100
AcDbEntity
  8
0
  6
Continuous
 62
     7
370
    15
100
AcDbLine
 10
549.1572796601
 20
242.5788311649
 30
0.0
 11
555.5572985905
 21
242.5788311649
 31
0.0
  0
LINE
  5
130
330
1F
100
AcDbEntity
  8
0
  6
Continuous
 62
     7
370
    15
100
AcDbLine
 10
50.957593252
 20
-61.8211807322
 30
0.0
 11
50.957593252
 21
-61.4211739611
 31
0.0
  0
LINE
  5
131
330
1F
100
AcDbEntity
  8
0
  6
Continuous
 62
     7
370
    15
100
AcDbLine
 10
50.957593252
 20
-61.8211807322
 30
0.0
 11
55.9575884837
 21
-61.8211807322
 31
0.0
  0
LINE
  5
132
330
1F
100
AcDbEntity
  8
0
  6
Continuous
 62
     7
370
    15
100
AcDbLine
 10
55.9575884837
 20
-61.8211807322
 30
0.0
 11
475.9575902718
 21
-61.8211807322
 31
0.0
  0
LINE
  5
133
330
1F
100
AcDbEntity
  8
0
  6
Continuous
 62
     7
370
    15
100
AcDbLine
 10
480.9575855034
 20
-61.8211807322
 30
0.0
 11
480.9575855034
 21
-61.4211739611
 31
0.0
  0
LINE
  5
134
330
1F
100
AcDbEntity
  8
0
  6
Continuous
 62
     7
370
    15
100
AcDbLine
 10
475.9575902718
 20
-61.8211807322
 30
0.0
 11
480.9575855034
 21
-61.8211807322
 31
0.0
  0
LINE
  5
135
330
1F
100
AcDbEntity
  8
0
  6
Continuous
 62
     7
370
    15
100
AcDbLine
 10
10.9575866955
 20
-61.8211807322
 30
0.0
 11
50.957593252
 21
-61.8211807322
 31
0.0
  0
LINE
  5
136
330
1F
100
AcDbEntity
  8
0
  6
Continuous
 62
     7
370
    15
100
AcDbLine
 10
480.9575855034
 20
-61.8211807322
 30
0.0
 11
494.9575840729
 21
-61.8211807322
 31
0.0
  0
LINE
  5
137
330
1F
100
AcDbEntity
  8
0
  6
Continuous
 62
     7
370
    15
100
AcDbLine
 10
584.9575876492
 20
-61.8211807322
 30
0.0
 11
605.9575855034
 21
-61.8211807322
 31
0.0
  0
LINE
  5
138
330
1F
100
AcDbEntity
  8
0
  6
Continuous
 62
     7
370
    15
100
AcDbLine
 10
610.9575807351
 20
-61.8211807322
 30
0.0
 11
610.9575807351
 21
-61.308849008
 31
0.0
  0
LINE
  5
139
330
1F
100
AcDbEntity
  8
0
  6
Continuous
 62
     7
370
    15
100
AcDbLine
 10
605.9575855034
 20
-61.8211807322
 30
0.0
 11
610.9575807351
 21
-61.8211807322
 31
0.0
  0
LINE
  5
13A
330
1F
100
AcDbEntity
  8
0
  6
Continuous
 62
     7
370
    15
100
AcDbLine
 10
-34.0424001914
 20
-155.1211656641
 30
0.0
 11
-62.5424206954
 21
-155.1211656641
 31
0.0
  0
LINE
  5
13B
330
1F
100
AcDbEntity
  8
0
  6
Continuous
 62
     7
370
    15
100
AcDbLine
 10
-5.5424094898
 20
-155.1211656641
 30
0.0
 11
-34.0424001914
 21
-155.1211656641
 31
0.0
  0
LINE
  5
13C
330
1F
100
AcDbEntity
  8
0
  6
Continuous
 62
     7
370
    15
100
AcDbLine
 10
-34.0424001914
 20
-161.1211778235
 30
0.0
 11
-60.5424166423
 21
-161.1211778235
 31
0.0
  0
LINE
  5
13D
330
1F
100
AcDbEntity
  8
0
  6
Continuous
 62
     7
370
    15
100
AcDbLine
 10
-7.5424135429
 20
-161.1211778235
 30
0.0
 11
-34.0424001914
 21
-161.1211778235
 31
0.0
  0
SPLINE
  5
13E
330
1F
100
AcDbEntity
  8
0
  6
Continuous
 62
     7
370
    15
100
AcDbSpline
210
0.0
220
0.0
230
1.0
 70
     8
 71
     3
 72
    32
 73
    28
 74
     0
 42
0.00000001
 43
0.00000001
 40
0.0
 40
0.0
 40
0.0
 40
0.0
 40
0.125
 40
0.125
 40
0.25
 40
0.25
 40
0.375
 40
0.375
 40
0.4375
 40
0.4375
 40
0.46875
 40
0.46875
 40
0.484375
 40
0.484375
 40
0.4921875
 40
0.4921875
 40
0.49609375
 40
0.49609375
 40
0.498046875
 40
0.498046875
 40
0.5
 40
0.5
 40
0.625
 40
0.625
 40
0.75
 40
0.75
 40
1.0
 40
1.0
 40
1.0
 40
1.0
 10
-109.7924098785051
 20
-59.37116730939957
 30
0.0
 10
-109.9610150917123
 20
-59.47232611631198
 30
0.0
 10
-110.1167708773274
 20
-59.56472051705131
 30
0.0
 10
-110.3969420719877
 20
-59.73229591376411
 30
0.0
 10
-110.5213683865275
 20
-59.80742434180758
 30
0.0
 10
-110.7388343037418
 20
-59.94036265726849
 30
0.0
 10
-110.8319589756787
 20
-59.99817254468598
 30
0.0
 10
-110.9506685438494
 20
-60.07189847034272
 30
0.0
 10
-110.986759827331
 20
-60.09430896131673
 30
0.0
 10
-111.0360791494539
 20
-60.12467747141037
 30
0.0
 10
-111.0517163197737
 20
-60.13425910371367
 30
0.0
 10
-111.0740196030986
 20
-60.14781974557681
 30
0.0
 10
-111.0812619535144
 20
-60.15220465843263
 30
0.0
 10
-111.0918437612237
 20
-60.15857907606831
 30
0.0
 10
-111.0953240770273
 20
-60.16067005667208
 30
0.0
 10
-111.1004749150701
 20
-60.16375578966593
 30
0.0
 10
-111.1021802550973
 20
-60.16477591101188
 30
0.0
 10
-111.1047209550394
 20
-60.16629340855284
 30
0.0
 10
-111.1055649700004
 20
-60.16679712698681
 30
0.0
 10
-111.107247246324
 20
-60.16780033569547
 30
0.0
 10
-111.1075990122517
 20
-60.16801017629025
 30
0.0
 10
-111.1935217455398
 20
-60.21916685815226
 30
0.0
 10
-111.2799769030887
 20
-60.26622116346392
 30
0.0
 10
-111.4467462629554
 20
-60.35369907273635
 30
0.0
 10
-111.5270558799977
 20
-60.39412267669708
 30
0.0
 10
-111.7391282136972
 20
-60.50544743655273
 30
0.0
 10
-111.8424098785051
 20
-60.5661808340533
 30
0.0
 10
-111.8424098785051
 20
-60.6140962415877
 30
0.0
  0
LINE
  5
13F
330
1F
100
AcDbEntity
  8
0
  6
Continuous
 62
     7
370
    15
100
AcDbLine
 10
-111.8424058658
 20
203.371761496
 30
0.0
 11
-111.8424058658
 21
-60.6140972685
 31
0.0
  0
SPLINE
  5
140
330
1F
100
AcDbEntity
  8
0
  6
Continuous
 62
     7
370
    15
100
AcDbSpline
210
0.0
220
0.0
230
1.0
 70
     8
 71
     3
 72
    12
 73
     8
 74
     0
 42
0.00000001
 43
0.00000001
 40
0.0
 40
0.0
 40
0.0
 40
0.0
 40
0.1874027273772091
 40
0.3754435002264546
 40
0.5704450704479372
 40
0.7798273567914091
 40
1.0
 40
1.0
 40
1.0
 40
1.0
 10
-111.8424058658065
 20
203.3717614960111
 30
0.0
 10
-111.8220854629307
 20
203.3487949913821
 30
0.0
 10
-111.7813754728011
 20
203.302783788629
 30
0.0
 10
-111.4700828216056
 20
203.1312596499823
 30
0.0
 10
-111.0120777626758
 20
202.8761473711443
 30
0.0
 10
-110.4389968107254
 20
202.5194217275543
 30
0.0
 10
-110.0115271407561
 20
202.2611913611218
 30
0.0
 10
-109.7924233180464
 20
202.1288328234291
 30
0.0
  0
LINE
  5
141
330
1F
100
AcDbEntity
  8
0
  6
Continuous
 62
     7
370
    15
100
AcDbLine
 10
-109.792423318
 20
202.1288328234
 30
0.0
 11
-109.792423318
 21
-59.371161611
 31
0.0
  0
SPLINE
  5
142
330
1F
100
AcDbEntity
  8
0
  6
Continuous
 62
     7
370
    15
100
AcDbSpline
210
0.0
220
0.0
230
1.0
 70
     8
 71
     3
 72
    11
 73
     7
 74
     0
 42
0.00000001
 43
0.00000001
 40
0.0
 40
0.0
 40
0.0
 40
0.0
 40
0.2543031590974361
 40
0.5087790249366614
 40
0.7632554073890981
 40
1.0
 40
1.0
 40
1.0
 40
1.0
 10
-111.0353291732253
 20
-60.62116041889426
 30
0.0
 10
-110.9299587732837
 20
-60.6017022346661
 30
0.0
 10
-110.7191464124395
 20
-60.56277265143262
 30
0.0
 10
-110.4028796645062
 20
-60.26380586527564
 30
0.0
 10
-110.0937972078454
 20
-59.84785098450867
 30
0.0
 10
-109.8904343256165
 20
-59.52618766791573
 30
0.0
 10
-109.7924233180464
 20
-59.37116161098716
 30
0.0
  0
SPLINE
  5
143
330
1F
100
AcDbEntity
  8
0
  6
Continuous
 62
     7
370
    15
100
AcDbSpline
210
0.0
220
0.0
230
1.0
 70
     8
 71
     3
 72
    12
 73
     8
 74
     0
 42
0.00000001
 43
0.00000001
 40
0.0
 40
0.0
 40
0.0
 40
0.0
 40
0.2301667693302711
 40
0.4604198887750442
 40
0.6906755115666
 40
0.9209288124592006
 40
0.9999999999999999
 40
0.9999999999999999
 40
0.9999999999999999
 40
0.9999999999999999
 10
-111.0353291732253
 20
-61.42117396106961
 30
0.0
 10
-110.9399459689327
 20
-61.3950949045437
 30
0.0
 10
-110.749143776074
 20
-61.34292700758814
 30
0.0
 10
-110.4628478045697
 20
-60.93822697982115
 30
0.0
 10
-110.1767399017805
 20
-60.35018353831867
 30
0.0
 10
-109.9526228160261
 20
-59.78615899167811
 30
0.0
 10
-109.825037390067
 20
-59.45564848287432
 30
0.0
 10
-109.7924233180464
 20
-59.37116161098716
 30
0.0
  0
LINE
  5
144
330
1F
100
AcDbEntity
  8
0
  6
Continuous
 62
     7
370
    15
100
AcDbLine
 10
-111.0353291732
 20
-61.4211739611
 30
0.0
 11
-111.0353291732
 21
-60.6211604189
 31
0.0
  0
LINE
  5
145
330
1F
100
AcDbEntity
  8
0
  6
Continuous
 62
     7
370
    15
100
AcDbLine
 10
593.7075793046
 20
202.1288328234
 30
0.0
 11
-109.792423318
 21
202.1288328234
 31
0.0
  0
LINE
  5
146
330
1F
100
AcDbEntity
  8
0
  6
Continuous
 62
     7
370
    15
100
AcDbLine
 10
593.7075793046
 20
-59.371161611
 30
0.0
 11
593.7075793046
 21
202.1288328234
 31
0.0
  0
LINE
  5
147
330
1F
100
AcDbEntity
  8
0
  6
Continuous
 62
     7
370
    15
100
AcDbLine
 10
-109.792423318
 20
-59.371161611
 30
0.0
 11
593.7075793046
 21
-59.371161611
 31
0.0
  0
SPLINE
  5
148
330
1F
100
AcDbEntity
  8
0
  6
Continuous
 62
     7
370
    15
100
AcDbSpline
210
0.0
220
0.0
230
1.0
 70
     8
 71
     3
 72
    24
 73
    20
 74
     0
 42
0.00000001
 43
0.00000001
 40
0.0
 40
0.0
 40
0.0
 40
0.0
 40
0.0644512564079549
 40
0.1250748349618266
 40
0.1818723400885724
 40
0.2348457697409593
 40
0.2839976347068917
 40
0.3293311279772339
 40
0.3708503715759455
 40
0.4085607874215013
 40
0.4424696748697045
 40
0.4725871493091988
 40
0.4989277482530546
 40
0.5714944947878877
 40
0.6477865234574098
 40
0.7283531857572819
 40
0.8136604203297552
 40
0.9041000269768552
 40
1.0
 40
1.0
 40
1.0
 40
1.0
 10
-109.7924098785051
 20
-59.37116730939957
 30
0.0
 10
-109.8287420791153
 20
-59.40682717604967
 30
0.0
 10
-109.8992487573152
 20
-59.47602911538485
 30
0.0
 10
-110.0016334900562
 20
-59.57601569380711
 30
0.0
 10
-110.0967434985387
 20
-59.66916567710279
 30
0.0
 10
-110.1843288988744
 20
-59.75544153411904
 30
0.0
 10
-110.2642795051577
 20
-59.83485343938754
 30
0.0
 10
-110.3366487988521
 20
-59.90740033355662
 30
0.0
 10
-110.4016074515417
 20
-59.97308467280349
 30
0.0
 10
-110.4594178761411
 20
-60.03190816290866
 30
0.0
 10
-110.5104030930432
 20
-60.08387663793846
 30
0.0
 10
-110.5549332714425
 20
-60.12898923515097
 30
0.0
 10
-110.6176780568938
 20
-60.19148514053835
 30
0.0
 10
-110.7019341158189
 20
-60.26892092112907
 30
0.0
 10
-110.8044549315829
 20
-60.35632600874096
 30
0.0
 10
-110.8984563291823
 20
-60.43485674346383
 30
0.0
 10
-110.9757371760803
 20
-60.50429561027654
 30
0.0
 10
-111.0311704960169
 20
-60.56556694924114
 30
0.0
 10
-111.0385909365208
 20
-60.59760685240584
 30
0.0
 10
-111.0424098785052
 20
-60.61409624158776
 30
0.0
  0
LINE
  5
149
330
1F
100
AcDbEntity
  8
0
  6
Continuous
 62
     7
370
    15
100
AcDbLine
 10
-111.8424058658
 20
-60.6140972685
 30
0.0
 11
-111.042422126
 21
-60.6140972685
 31
0.0
  0
LINE
  5
14A
330
1F
100
AcDbEntity
  8
0
  6
Continuous
 62
     7
370
    15
100
AcDbLine
 10
594.9505149621
 20
-61.4211739611
 30
0.0
 11
-111.0353291732
 21
-61.4211739611
 31
0.0
  0
SPLINE
  5
14B
330
1F
100
AcDbEntity
  8
0
  6
Continuous
 62
     7
370
    15
100
AcDbSpline
210
0.0
220
0.0
230
1.0
 70
     8
 71
     3
 72
    12
 73
     8
 74
     0
 42
0.00000001
 43
0.00000001
 40
0.0
 40
0.0
 40
0.0
 40
0.0
 40
0.2353754228343152
 40
0.5035740275973709
 40
0.7398120894456004
 40
0.942527580518234
 40
0.9999999999999999
 40
0.9999999999999999
 40
0.9999999999999999
 40
0.9999999999999999
 10
593.707579304558
 20
-59.37116161098721
 30
0.0
 10
593.8492625326023
 20
-59.60486507909246
 30
0.0
 10
594.1523867625244
 20
-60.10486204258203
 30
0.0
 10
594.5631832319132
 20
-60.77441473189887
 30
0.0
 10
594.8187233290391
 20
-61.25066347036084
 30
0.0
 10
594.9202332455327
 20
-61.41007770072815
 30
0.0
 10
594.9450362687813
 20
-61.41916637979894
 30
0.0
 10
594.9505149620591
 20
-61.42117396106956
 30
0.0
  0
SPLINE
  5
14C
330
1F
100
AcDbEntity
  8
0
  6
Continuous
 62
     7
370
    15
100
AcDbSpline
210
0.0
220
0.0
230
1.0
 70
     8
 71
     3
 72
    12
 73
     8
 74
     0
 42
0.00000001
 43
0.00000001
 40
0.0
 40
0.0
 40
0.0
 40
0.0
 40
0.1739944380582658
 40
0.3321031031605179
 40
0.5068913908873165
 40
0.7762362601902402
 40
0.9999999999999999
 40
0.9999999999999999
 40
0.9999999999999999
 40
0.9999999999999999
 10
-111.0424221259535
 20
203.3717614960111
 30
0.0
 10
-111.0291546129662
 20
203.3478328428049
 30
0.0
 10
-111.0038309170855
 20
203.3021602335372
 30
0.0
 10
-110.8267311185372
 20
203.1413239893231
 30
0.0
 10
-110.5484015928374
 20
202.8882893429518
 30
0.0
 10
-110.1940828402764
 20
202.5269158478643
 30
0.0
 10
-109.9177968757788
 20
202.2530900171071
 30
0.0
 10
-109.7924233180464
 20
202.1288328234291
 30
0.0
  0
LWPOLYLINE
  5
14D
330
1F
100
AcDbEntity
  8
0
  6
Continuous
 62
     7
370
    15
100
AcDbPolyline
 90
        2
 70
   128
 43
0.0
 10
-109.792423318
 20
202.1288328234
 10
-109.792423318
 20
202.1288328234
  0
LINE
  5
14E
330
1F
100
AcDbEntity
  8
0
  6
Continuous
 62
     7
370
    15
100
AcDbLine
 10
-111.8424058658
 20
203.371761496
 30
0.0
 11
-111.042422126
 21
203.371761496
 31
0.0
  0
SPLINE
  5
14F
330
1F
100
AcDbEntity
  8
0
  6
Continuous
 62
     7
370
    15
100
AcDbSpline
210
0.0
220
0.0
230
1.0
 70
     8
 71
     3
 72
    14
 73
    10
 74
     0
 42
0.00000001
 43
0.00000001
 40
0.0
 40
0.0
 40
0.0
 40
0.0
 40
0.25
 40
0.25
 40
0.5
 40
0.5
 40
0.75
 40
0.75
 40
1.0
 40
1.0
 40
1.0
 40
1.0
 10
-109.7924098785015
 20
202.1288326906005
 30
0.0
 10
-109.8959872895172
 20
202.292457307975
 30
0.0
 10
-109.999564700533
 20
202.4560175460497
 30
0.0
 10
-110.2067195225642
 20
202.7583564160642
 30
0.0
 10
-110.3102969335799
 20
202.8970160905692
 30
0.0
 10
-110.5174517556113
 20
203.1284162435983
 30
0.0
 10
-110.6210291666269
 20
203.2210656760434
 30
0.0
 10
-110.8281839886584
 20
203.346298536436
 30
0.0
 10
-110.931761399674
 20
203.3788326906006
 30
0.0
 10
-111.0353388106897
 20
203.3788326906006
 30
0.0
  0
LINE
  5
150
330
1F
100
AcDbEntity
  8
0
  6
Continuous
 62
     7
370
    15
100
AcDbLine
 10
-111.0353291732
 20
203.3788325627
 30
0.0
 11
-111.0353291732
 21
204.1788326007
 31
0.0
  0
SPLINE
  5
151
330
1F
100
AcDbEntity
  8
0
  6
Continuous
 62
     7
370
    15
100
AcDbSpline
210
0.0
220
0.0
230
1.0
 70
     8
 71
     3
 72
    14
 73
    10
 74
     0
 42
0.00000001
 43
0.00000001
 40
0.0
 40
0.0
 40
0.0
 40
0.0
 40
0.25
 40
0.25
 40
0.5
 40
0.5
 40
0.75
 40
0.75
 40
1.0
 40
1.0
 40
1.0
 40
1.0
 10
-109.7924098785015
 20
202.1288326906004
 30
0.0
 10
-109.8960035427414
 20
202.3972191713226
 30
0.0
 10
-109.9995647005329
 20
202.665415853537
 30
0.0
 10
-110.2067195225643
 20
203.1612516003609
 30
0.0
 10
-110.3102969335799
 20
203.3886534665492
 30
0.0
 10
-110.5174517556113
 20
203.7681497175168
 30
0.0
 10
-110.6210291666269
 20
203.9200947867268
 30
0.0
 10
-110.8281839886583
 20
204.1254766777706
 30
0.0
 10
-110.9317451464498
 20
204.1788326906006
 30
0.0
 10
-111.0353388106897
 20
204.1788326906006
 30
0.0
  0
SPLINE
  5
152
330
1F
100
AcDbEntity
  8
0
  6
Continuous
 62
     7
370
    15
100
AcDbSpline
210
0.0
220
0.0
230
1.0
 70
     8
 71
     3
 72
    32
 73
    28
 74
     0
 42
0.00000001
 43
0.00000001
 40
0.0
 40
0.0
 40
0.0
 40
0.0
 40
0.25
 40
0.25
 40
0.375
 40
0.375
 40
0.4375
 40
0.4375
 40
0.46875
 40
0.46875
 40
0.484375
 40
0.484375
 40
0.4921875
 40
0.4921875
 40
0.49609375
 40
0.49609375
 40
0.498046875
 40
0.498046875
 40
0.5
 40
0.5
 40
0.625
 40
0.625
 40
0.75
 40
0.75
 40
0.875
 40
0.875
 40
1.0
 40
1.0
 40
1.0
 40
1.0
 10
594.950519053686
 20
204.1788326905904
 30
0.0
 10
594.90984455032
 20
204.1788326905904
 30
0.0
 10
594.8528822966668
 20
204.0864509255713
 30
0.0
 10
594.7423648097569
 20
203.8815855178591
 30
0.0
 10
594.7013823231038
 20
203.8022824292531
 30
0.0
 10
594.6336936066
 20
203.6748725745983
 30
0.0
 10
594.6100948700116
 20
203.6309802111784
 30
0.0
 10
594.5731430184976
 20
203.5638815384023
 30
0.0
 10
594.5605667768876
 20
203.5413042748235
 30
0.0
 10
594.5413139778151
 20
203.5072216342997
 30
0.0
 10
594.5348316386813
 20
203.495824563767
 30
0.0
 10
594.5250110208162
 20
203.4786865508902
 30
0.0
 10
594.5217212966672
 20
203.4729668079162
 30
0.0
 10
594.5167624331524
 20
203.4643780326857
 30
0.0
 10
594.5151054324322
 20
203.461513580553
 30
0.0
 10
594.5126138620292
 20
203.4572147903281
 30
0.0
 10
594.511782327008
 20
203.4557815082326
 30
0.0
 10
594.5101172338575
 20
203.452914269564
 30
0.0
 10
594.5088942232412
 20
203.4508110057156
 30
0.0
 10
594.4799616055099
 20
203.4010878374424
 30
0.0
 10
594.4419114179299
 20
203.3395822724276
 30
0.0
 10
594.3466856686822
 20
203.1865829884571
 30
0.0
 10
594.2895101070142
 20
203.0950141518187
 30
0.0
 10
594.1560336095896
 20
202.8776642159069
 30
0.0
 10
594.0797326738331
 20
202.751776155227
 30
0.0
 10
593.9080054282315
 20
202.4650546340331
 30
0.0
 10
593.8126419937965
 20
202.3041975478922
 30
0.0
 10
593.7075901214979
 20
202.1288326905901
 30
0.0
  0
LINE
  5
153
330
1F
100
AcDbEntity
  8
0
  6
Continuous
 62
     7
370
    15
100
AcDbLine
 10
594.9505149621
 20
204.1788326007
 30
0.0
 11
-111.0353291732
 21
204.1788326007
 31
0.0
  0
SPLINE
  5
154
330
1F
100
AcDbEntity
  8
0
  6
Continuous
 62
     7
370
    15
100
AcDbSpline
210
0.0
220
0.0
230
1.0
 70
     8
 71
     3
 72
    14
 73
    10
 74
     0
 42
0.00000001
 43
0.00000001
 40
0.0
 40
0.0
 40
0.0
 40
0.0
 40
0.25
 40
0.25
 40
0.5
 40
0.5
 40
0.75
 40
0.75
 40
1.0
 40
1.0
 40
1.0
 40
1.0
 10
595.7575901214948
 20
-60.61409624159786
 30
0.0
 10
595.7575901214948
 20
-60.51050257735796
 30
0.0
 10
595.7042341086649
 20
-60.40694141956654
 30
0.0
 10
595.498852217621
 20
-60.19978659753517
 30
0.0
 10
595.3469071484111
 20
-60.09620918651948
 30
0.0
 10
594.9674108974433
 20
-59.88905436448816
 30
0.0
 10
594.7400090312552
 20
-59.78547695347242
 30
0.0
 10
594.2441732844313
 20
-59.5783221314411
 30
0.0
 10
593.9759766022166
 20
-59.47476097364951
 30
0.0
 10
593.7075901214947
 20
-59.37116730940972
 30
0.0
  0
SPLINE
  5
155
330
1F
100
AcDbEntity
  8
0
  6
Continuous
 62
     7
370
    15
100
AcDbSpline
210
0.0
220
0.0
230
1.0
 70
     8
 71
     3
 72
    12
 73
     8
 74
     0
 42
0.00000001
 43
0.00000001
 40
0.0
 40
0.0
 40
0.0
 40
0.0
 40
0.2301678835585652
 40
0.4604204991841513
 40
0.690675765227908
 40
0.9209287093802621
 40
0.9999999999999999
 40
0.9999999999999999
 40
0.9999999999999999
 40
0.9999999999999999
 10
593.7075793045578
 20
202.1288328234291
 30
0.0
 10
593.9546565324887
 20
202.2242225405536
 30
0.0
 10
594.4489019452812
 20
202.4150370907699
 30
0.0
 10
595.0950393595847
 20
202.7013290788793
 30
0.0
 10
595.5589803745365
 20
202.9874412217419
 30
0.0
 10
595.7417911648984
 20
203.2115572330188
 30
0.0
 10
595.7543749205777
 20
203.339146398747
 30
0.0
 10
595.7575916546402
 20
203.3717614960111
 30
0.0
  0
LINE
  5
156
330
1F
100
AcDbEntity
  8
0
  6
Continuous
 62
     7
370
    15
100
AcDbLine
 10
595.7575916546
 20
-60.6140972685
 30
0.0
 11
595.7575916546
 21
64.4911645342
 31
0.0
  0
LINE
  5
157
330
1F
100
AcDbEntity
  8
0
  6
Continuous
 62
     7
370
    15
100
AcDbLine
 10
595.7575916546
 20
65.2911631752
 30
0.0
 11
595.7575916546
 21
66.2668316055
 31
0.0
  0
LINE
  5
158
330
1F
100
AcDbEntity
  8
0
  6
Continuous
 62
     7
370
    15
100
AcDbLine
 10
595.7575916546
 20
185.0031564374
 30
0.0
 11
595.7575916546
 21
185.9788323183
 31
0.0
  0
LINE
  5
159
330
1F
100
AcDbEntity
  8
0
  6
Continuous
 62
     7
370
    15
100
AcDbLine
 10
595.7575916546
 20
186.7788328219
 30
0.0
 11
595.7575916546
 21
203.371761496
 31
0.0
  0
LINE
  5
15A
330
1F
100
AcDbEntity
  8
0
  6
Continuous
 62
     7
370
    15
100
AcDbLine
 10
595.7575916546
 20
-60.6140972685
 30
0.0
 11
594.9575781125
 21
-60.6140972685
 31
0.0
  0
SPLINE
  5
15B
330
1F
100
AcDbEntity
  8
0
  6
Continuous
 62
     7
370
    15
100
AcDbSpline
210
0.0
220
0.0
230
1.0
 70
     8
 71
     3
 72
    14
 73
    10
 74
     0
 42
0.00000001
 43
0.00000001
 40
0.0
 40
0.0
 40
0.0
 40
0.0
 40
0.25
 40
0.25
 40
0.5
 40
0.5
 40
0.75
 40
0.75
 40
1.0
 40
1.0
 40
1.0
 40
1.0
 10
594.9575901214947
 20
-60.61409624159781
 30
0.0
 10
594.9575901214947
 20
-60.51051883058211
 30
0.0
 10
594.9250559673301
 20
-60.40694141956649
 30
0.0
 10
594.7998231069374
 20
-60.19978659753511
 30
0.0
 10
594.7071736744924
 20
-60.09620918651942
 30
0.0
 10
594.4757735214635
 20
-59.88905436448822
 30
0.0
 10
594.3371138469585
 20
-59.78547695347242
 30
0.0
 10
594.0347749769439
 20
-59.57832213144104
 30
0.0
 10
593.8712147388692
 20
-59.47474472042541
 30
0.0
 10
593.7075901214947
 20
-59.37116730940972
 30
0.0
  0
SPLINE
  5
15C
330
1F
100
AcDbEntity
  8
0
  6
Continuous
 62
     7
370
    15
100
AcDbSpline
210
0.0
220
0.0
230
1.0
 70
     8
 71
     3
 72
    12
 73
     8
 74
     0
 42
0.00000001
 43
0.00000001
 40
0.0
 40
0.0
 40
0.0
 40
0.0
 40
0.3486193945112809
 40
0.5715635797061092
 40
0.7575544478224738
 40
0.944517137645485
 40
1.0
 40
1.0
 40
1.0
 40
1.0
 10
593.7075793045578
 20
-59.37116161098716
 30
0.0
 10
593.9035076654387
 20
-59.56625184029851
 30
0.0
 10
594.2247333834398
 20
-59.88610343658512
 30
0.0
 10
594.6014568468496
 20
-60.27187474584083
 30
0.0
 10
594.8200348158024
 20
-60.51726946037561
 30
0.0
 10
594.918702101733
 20
-60.61364359492705
 30
0.0
 10
594.9445904900567
 20
-60.61976056950375
 30
0.0
 10
594.9505149620592
 20
-60.62116041889431
 30
0.0
  0
LINE
  5
15D
330
1F
100
AcDbEntity
  8
0
  6
Continuous
 62
     7
370
    15
100
AcDbLine
 10
594.9505149621
 20
-61.4211739611
 30
0.0
 11
594.9505149621
 21
-60.6211604189
 31
0.0
  0
LINE
  5
15E
330
1F
100
AcDbEntity
  8
0
  6
Continuous
 62
     7
370
    15
100
AcDbLine
 10
594.9505149621
 20
204.1788326007
 30
0.0
 11
594.9505149621
 21
203.3788325627
 31
0.0
  0
SPLINE
  5
15F
330
1F
100
AcDbEntity
  8
0
  6
Continuous
 62
     7
370
    15
100
AcDbSpline
210
0.0
220
0.0
230
1.0
 70
     8
 71
     3
 72
    24
 73
    20
 74
     0
 42
0.00000001
 43
0.00000001
 40
0.0
 40
0.0
 40
0.0
 40
0.0
 40
0.0459084819137963
 40
0.090867628569813
 40
0.1349219452764562
 40
0.1781187407982332
 40
0.2205082016902057
 40
0.2621434405670516
 40
0.3030805121973698
 40
0.3433783912463578
 40
0.383098905791017
 40
0.4223066214818258
 40
0.4610686724855737
 40
0.4994545371301014
 40
0.5585300488469676
 40
0.6380531470530042
 40
0.7381162600158495
 40
0.8587594596871042
 40
0.9999999999999999
 40
0.9999999999999999
 40
0.9999999999999999
 40
0.9999999999999999
 10
594.9505190536859
 20
203.3788326905904
 30
0.0
 10
594.9435344583469
 20
203.3779519001141
 30
0.0
 10
594.9297097011668
 20
203.3762085329081
 30
0.0
 10
594.9051501120214
 20
203.3625252367617
 30
0.0
 10
594.8780419494814
 20
203.3416934934769
 30
0.0
 10
594.8481115563433
 20
203.3137383645278
 30
0.0
 10
594.815429301905
 20
203.2796954357387
 30
0.0
 10
594.7799762162058
 20
203.2403275538931
 30
0.0
 10
594.7417560943186
 20
203.1964454953996
 30
0.0
 10
594.7007686420316
 20
203.148811827946
 30
0.0
 10
594.6570080900358
 20
203.0981621854823
 30
0.0
 10
594.6104943632802
 20
203.0451735324977
 30
0.0
 10
594.5611522620575
 20
202.9905374545031
 30
0.0
 10
594.4998017916137
 20
202.9245027820706
 30
0.0
 10
594.4122434525541
 20
202.8377542903772
 30
0.0
 10
594.2881001602451
 20
202.716738268979
 30
0.0
 10
594.1275264511816
 20
202.5572514658189
 30
0.0
 10
593.9304529392674
 20
202.3567999564787
 30
0.0
 10
593.7856733983826
 20
202.2087043861974
 30
0.0
 10
593.707590121498
 20
202.1288326905903
 30
0.0
  0
LWPOLYLINE
  5
160
330
1F
100
AcDbEntity
  8
0
  6
Continuous
 62
     7
370
    15
100
AcDbPolyline
 90
        2
 70
   128
 43
0.0
 10
593.7075793046
 20
202.1288328234
 10
593.7075793046
 20
202.1288328234
  0
SPLINE
  5
161
330
1F
100
AcDbEntity
  8
0
  6
Continuous
 62
     7
370
    15
100
AcDbSpline
210
0.0
220
0.0
230
1.0
 70
     8
 71
     3
 72
    11
 73
     7
 74
     0
 42
0.00000001
 43
0.00000001
 40
0.0
 40
0.0
 40
0.0
 40
0.0
 40
0.2543050573823075
 40
0.5087779523434814
 40
0.7632516884767293
 40
1.0
 40
1.0
 40
1.0
 40
1.0
 10
593.7075793045578
 20
202.1288328234291
 30
0.0
 10
593.8742166298505
 20
202.2342091080482
 30
0.0
 10
594.2076012586072
 20
202.4450312240767
 30
0.0
 10
594.625547889863
 20
202.7612896097188
 30
0.0
 10
594.9056957985817
 20
203.0703636892888
 30
0.0
 10
594.9407051037567
 20
203.273741815761
 30
0.0
 10
594.957578112465
 20
203.3717614960111
 30
0.0
  0
LINE
  5
162
330
1F
100
AcDbEntity
  8
0
  6
Continuous
 62
     7
370
    15
100
AcDbLine
 10
594.9575781125
 20
203.371761496
 30
0.0
 11
595.7575916546
 21
203.371761496
 31
0.0
  0
LINE
  5
163
330
1F
100
AcDbEntity
  8
0
  6
Continuous
 62
     7
370
    15
100
AcDbLine
 10
537.6073002118
 20
212.1788327478
 30
0.0
 11
537.6573085087
 21
212.1788327478
 31
0.0
  0
LINE
  5
164
330
1F
100
AcDbEntity
  8
0
  6
Continuous
 62
     7
370
    15
100
AcDbLine
 10
595.1572834748
 20
205.3788328905
 30
0.0
 11
595.1572834748
 21
204.2914043542
 31
0.0
  0
LINE
  5
165
330
1F
100
AcDbEntity
  8
0
  6
Continuous
 62
     7
370
    15
100
AcDbLine
 10
595.1572834748
 20
203.2996431355
 30
0.0
 11
595.1572834748
 21
202.9288328614
 31
0.0
  0
LINE
  5
166
330
1F
100
AcDbEntity
  8
0
  6
Continuous
 62
     7
370
    15
100
AcDbLine
 10
595.1572834748
 20
205.3788328905
 30
0.0
 11
595.0572966832
 21
205.3788328905
 31
0.0
  0
LINE
  5
167
330
1F
100
AcDbEntity
  8
0
  6
Continuous
 62
     7
370
    15
100
AcDbLine
 10
595.1572834748
 20
205.3788328905
 30
0.0
 11
595.1572834748
 21
206.6288326297
 31
0.0
  0
LINE
  5
168
330
1F
100
AcDbEntity
  8
0
  6
Continuous
 62
     7
370
    15
100
AcDbLine
 10
595.1572834748
 20
207.1288327117
 30
0.0
 11
595.1572834748
 21
206.6288326297
 31
0.0
  0
SPLINE
  5
169
330
1F
100
AcDbEntity
  8
0
  6
Continuous
 62
     7
370
    15
100
AcDbSpline
210
0.0
220
0.0
230
1.0
 70
     8
 71
     3
 72
    14
 73
    10
 74
     0
 42
0.00000001
 43
0.00000001
 40
0.0
 40
0.0
 40
0.0
 40
0.0
 40
0.25
 40
0.25
 40
0.5
 40
0.5
 40
0.75
 40
0.75
 40
1.0
 40
1.0
 40
1.0
 40
1.0
 10
596.5646611893087
 20
-60.5088418365432
 30
0.0
 10
596.6682386003245
 20
-60.5088418365432
 30
0.0
 10
596.7718160113401
 20
-60.47630768237872
 30
0.0
 10
596.9789708333715
 20
-60.35107482198604
 30
0.0
 10
597.0825482443872
 20
-60.25842538954107
 30
0.0
 10
597.2897030664185
 20
-60.02702523651188
 30
0.0
 10
597.3932804774342
 20
-59.88836556200694
 30
0.0
 10
597.6004352994656
 20
-59.58602669199242
 30
0.0
 10
597.7040127104814
 20
-59.42246645391774
 30
0.0
 10
597.807590121497
 20
-59.25884183654323
 30
0.0
  0
SPLINE
  5
16A
330
1F
100
AcDbEntity
  8
0
  6
Continuous
 62
     7
370
    15
100
AcDbSpline
210
0.0
220
0.0
230
1.0
 70
     8
 71
     3
 72
    14
 73
    10
 74
     0
 42
0.00000001
 43
0.00000001
 40
0.0
 40
0.0
 40
0.0
 40
0.0
 40
0.25
 40
0.25
 40
0.5
 40
0.5
 40
0.75
 40
0.75
 40
1.0
 40
1.0
 40
1.0
 40
1.0
 10
596.5646611893087
 20
-61.30884183654322
 30
0.0
 10
596.6682548535487
 20
-61.30884183654322
 30
0.0
 10
596.7718160113402
 20
-61.25548582371331
 30
0.0
 10
596.9789708333715
 20
-61.05010393266952
 30
0.0
 10
597.0825482443871
 20
-60.89815886345956
 30
0.0
 10
597.2897030664186
 20
-60.51866261249184
 30
0.0
 10
597.3932804774342
 20
-60.29126074630364
 30
0.0
 10
597.6004352994655
 20
-59.79542499947976
 30
0.0
 10
597.7039964572571
 20
-59.52722831726553
 30
0.0
 10
597.807590121497
 20
-59.25884183654323
 30
0.0
  0
LINE
  5
16B
330
1F
100
AcDbEntity
  8
0
  6
Continuous
 62
     7
370
    15
100
AcDbLine
 10
596.5646683472
 20
-60.5088354658
 30
0.0
 11
596.5646683472
 21
-61.308849008
 31
0.0
  0
SPLINE
  5
16C
330
1F
100
AcDbEntity
  8
0
  6
Continuous
 62
     7
370
    15
100
AcDbSpline
210
0.0
220
0.0
230
1.0
 70
     8
 71
     3
 72
    12
 73
     8
 74
     0
 42
0.00000001
 43
0.00000001
 40
0.0
 40
0.0
 40
0.0
 40
0.0
 40
0.3486654029793571
 40
0.5713380480029856
 40
0.7575601318254149
 40
0.9447321950121599
 40
0.9999999999999999
 40
0.9999999999999999
 40
0.9999999999999999
 40
0.9999999999999999
 10
597.8076040047226
 20
-59.25883665790793
 30
0.0
 10
597.6125288389399
 20
-59.45479930838133
 30
0.0
 10
597.29287032542
 20
-59.775912092289
 30
0.0
 10
596.9068926655381
 20
-60.15232273612958
 30
0.0
 10
596.6613570056192
 20
-60.37053722620772
 30
0.0
 10
596.5650470287078
 20
-60.46930734490152
 30
0.0
 10
596.558962462614
 20
-60.49574537078961
 30
0.0
 10
596.5575753944931
 20
-60.50177231540916
 30
0.0
  0
LINE
  5
16D
330
1F
100
AcDbEntity
  8
0
  6
Continuous
 62
     7
370
    15
100
AcDbLine
 10
595.7575916546
 20
-60.5017723154
 30
0.0
 11
596.5575753945
 21
-60.5017723154
 31
0.0
  0
SPLINE
  5
16E
330
1F
100
AcDbEntity
  8
0
  6
Continuous
 62
     7
370
    15
100
AcDbSpline
210
0.0
220
0.0
230
1.0
 70
     8
 71
     3
 72
    12
 73
     8
 74
     0
 42
0.00000001
 43
0.00000001
 40
0.0
 40
0.0
 40
0.0
 40
0.0
 40
0.2354080159385319
 40
0.5036209523785633
 40
0.7396709686619982
 40
0.942420221816205
 40
1.0
 40
1.0
 40
1.0
 40
1.0
 10
597.8076040047227
 20
-59.25883665790798
 30
0.0
 10
597.573888027596
 20
-59.40054148755686
 30
0.0
 10
597.0738869442965
 20
-59.70369820454408
 30
0.0
 10
596.4043640050347
 20
-60.11419359779363
 30
0.0
 10
595.9281673192271
 20
-60.36906563898764
 30
0.0
 10
595.7687072851378
 20
-60.47077772920623
 30
0.0
 10
595.7596049223424
 20
-60.49615856283297
 30
0.0
 10
595.7575916546404
 20
-60.50177231540921
 30
0.0
  0
LINE
  5
16F
330
1F
100
AcDbEntity
  8
0
  6
Continuous
 62
     7
370
    15
100
AcDbLine
 10
653.30760472
 20
61.9411586214
 30
0.0
 11
597.8076040047
 21
61.9411586214
 31
0.0
  0
LINE
  5
170
330
1F
100
AcDbEntity
  8
0
  6
Continuous
 62
     7
370
    15
100
AcDbLine
 10
653.30760472
 20
61.9411586214
 30
0.0
 11
653.30760472
 21
-59.2588366579
 31
0.0
  0
LINE
  5
171
330
1F
100
AcDbEntity
  8
0
  6
Continuous
 62
     7
370
    15
100
AcDbLine
 10
597.8076040047
 20
-59.2588366579
 30
0.0
 11
653.30760472
 21
-59.2588366579
 31
0.0
  0
LINE
  5
172
330
1F
100
AcDbEntity
  8
0
  6
Continuous
 62
     7
370
    15
100
AcDbLine
 10
597.8076040047
 20
61.9411586214
 30
0.0
 11
597.8076040047
 21
-59.2588366579
 31
0.0
  0
LINE
  5
173
330
1F
100
AcDbEntity
  8
0
  6
Continuous
 62
     7
370
    15
100
AcDbLine
 10
596.5646683472
 20
-61.308849008
 30
0.0
 11
652.8575896519
 21
-61.308849008
 31
0.0
  0
SPLINE
  5
174
330
1F
100
AcDbEntity
  8
0
  6
Continuous
 62
     7
370
    15
100
AcDbSpline
210
0.0
220
0.0
230
1.0
 70
     8
 71
     3
 72
    14
 73
    10
 74
     0
 42
0.00000001
 43
0.00000001
 40
0.0
 40
0.0
 40
0.0
 40
0.0
 40
0.25
 40
0.25
 40
0.5
 40
0.5
 40
0.75
 40
0.75
 40
1.0
 40
1.0
 40
1.0
 40
1.0
 10
653.3075901214969
 20
-59.25884183654323
 30
0.0
 10
653.2700834898576
 20
-59.52723366405327
 30
0.0
 10
653.232590121497
 20
-59.79542499947976
 30
0.0
 10
653.157590121497
 20
-60.29126074630359
 30
0.0
 10
653.1200901214969
 20
-60.51866261249184
 30
0.0
 10
653.045090121497
 20
-60.89815886345956
 30
0.0
 10
653.007590121497
 20
-61.05010393266952
 30
0.0
 10
652.932590121497
 20
-61.25548582371331
 30
0.0
 10
652.8950967531363
 20
-61.30884183654322
 30
0.0
 10
652.857590121497
 20
-61.30884183654322
 30
0.0
  0
LINE
  5
175
330
1F
100
AcDbEntity
  8
0
  6
Continuous
 62
     7
370
    15
100
AcDbLine
 10
595.7575916546
 20
63.1840942789
 30
0.0
 11
595.7575916546
 21
-60.5017723154
 31
0.0
  0
SPLINE
  5
176
330
1F
100
AcDbEntity
  8
0
  6
Continuous
 62
     7
370
    15
100
AcDbSpline
210
0.0
220
0.0
230
1.0
 70
     8
 71
     3
 72
    26
 73
    22
 74
     0
 42
0.00000001
 43
0.00000001
 40
0.0
 40
0.0
 40
0.0
 40
0.0
 40
0.25
 40
0.25
 40
0.375
 40
0.375
 40
0.4375
 40
0.4375
 40
0.46875
 40
0.46875
 40
0.484375
 40
0.484375
 40
0.4921875
 40
0.4921875
 40
0.49609375
 40
0.49609375
 40
0.5
 40
0.5
 40
0.75
 40
0.75
 40
1.0
 40
1.0
 40
1.0
 40
1.0
 10
595.7575901214968
 20
63.1840870956448
 30
0.0
 10
595.7575901214968
 20
63.13383369350384
 30
0.0
 10
595.8585035469588
 20
63.072263679051
 30
0.0
 10
596.0679876850288
 20
62.96193359175179
 30
0.0
 10
596.1475749377538
 20
62.92221661544606
 30
0.0
 10
596.2721015361794
 20
62.85823073017852
 30
0.0
 10
596.3144904186505
 20
62.83616703162115
 30
0.0
 10
596.3784182666548
 20
62.80196887858291
 30
0.0
 10
596.3997864808349
 20
62.79038572670309
 30
0.0
 10
596.4318187657304
 20
62.77273534758285
 30
0.0
 10
596.4424929478321
 20
62.76680594599268
 30
0.0
 10
596.4584866286766
 20
62.7578429307823
 30
0.0
 10
596.4638149293038
 20
62.7548437735746
 30
0.0
 10
596.4718014516583
 20
62.75032780955684
 30
0.0
 10
596.4744626380332
 20
62.74881961684986
 30
0.0
 10
596.4797827830184
 20
62.74579748870052
 30
0.0
 10
596.4830092896514
 20
62.74395964377683
 30
0.0
 10
596.6188704679519
 20
62.66642131740107
 30
0.0
 10
596.7926123954142
 20
62.56144788762835
 30
0.0
 10
597.2343404613931
 20
62.29424502663122
 30
0.0
 10
597.5028537739081
 20
62.13243778029598
 30
0.0
 10
597.8075901214969
 20
61.94115816345669
 30
0.0
  0
SPLINE
  5
177
330
1F
100
AcDbEntity
  8
0
  6
Continuous
 62
     7
370
    15
100
AcDbSpline
210
0.0
220
0.0
230
1.0
 70
     8
 71
     3
 72
    24
 73
    20
 74
     0
 42
0.00000001
 43
0.00000001
 40
0.0
 40
0.0
 40
0.0
 40
0.0
 40
0.0482715704397287
 40
0.0951910828383625
 40
0.1407892638214933
 40
0.1850996036450306
 40
0.228158612258588
 40
0.2700060894218047
 40
0.3106854053996396
 40
0.3502437869803157
 40
0.3887326013653423
 40
0.4262076278950078
 40
0.4627293046768404
 40
0.4983629341642143
 40
0.5714679046229725
 40
0.6580523495480864
 40
0.7582745289714725
 40
0.8722347873986901
 40
1.0
 40
1.0
 40
1.0
 40
1.0
 10
596.557590121497
 20
63.18408709564477
 30
0.0
 10
596.5585496925254
 20
63.17561671329075
 30
0.0
 10
596.5604419575669
 20
63.15891319896574
 30
0.0
 10
596.5752194615927
 20
63.13084653009174
 30
0.0
 10
596.5974744632001
 20
63.10099600836661
 30
0.0
 10
596.6269906477562
 20
63.06913857313801
 30
0.0
 10
596.6624901835347
 20
63.03533084224855
 30
0.0
 10
596.7030061305767
 20
62.99955745005273
 30
0.0
 10
596.7475468648585
 20
62.96182165266507
 30
0.0
 10
596.7951941723675
 20
62.92212080427465
 30
0.0
 10
596.8450896137073
 20
62.88045718059141
 30
0.0
 10
596.8964354082424
 20
62.83681899433954
 30
0.0
 10
596.9485284794309
 20
62.79124348382492
 30
0.0
 10
597.0192945678054
 20
62.72653528395666
 30
0.0
 10
597.117019374308
 20
62.63182040923473
 30
0.0
 10
597.2523072182883
 20
62.49843880092965
 30
0.0
 10
597.4142940508234
 20
62.33760480466513
 30
0.0
 10
597.6031393299419
 20
62.14963855168093
 30
0.0
 10
597.7368936195096
 20
62.01324804908792
 30
0.0
 10
597.8075901214969
 20
61.94115816345669
 30
0.0
  0
LWPOLYLINE
  5
178
330
1F
100
AcDbEntity
  8
0
  6
Continuous
 62
     7
370
    15
100
AcDbPolyline
 90
        2
 70
   128
 43
0.0
 10
597.8076040047
 20
61.9411586214
 10
597.8076040047
 20
61.9411586214
  0
LINE
  5
179
330
1F
100
AcDbEntity
  8
0
  6
Continuous
 62
     7
370
    15
100
AcDbLine
 10
595.7575916546
 20
63.1840942789
 30
0.0
 11
596.5575753945
 21
63.1840942789
 31
0.0
  0
SPLINE
  5
17A
330
1F
100
AcDbEntity
  8
0
  6
Continuous
 62
     7
370
    15
100
AcDbSpline
210
0.0
220
0.0
230
1.0
 70
     8
 71
     3
 72
    11
 73
     7
 74
     0
 42
0.00000001
 43
0.00000001
 40
0.0
 40
0.0
 40
0.0
 40
0.0
 40
0.2543032109890732
 40
0.5087820138935973
 40
0.7632568479208098
 40
1.0
 40
1.0
 40
1.0
 40
1.0
 10
597.8076040047226
 20
61.9411586214042
 30
0.0
 10
597.702220557176
 20
62.10778920571597
 30
0.0
 10
597.4913808966568
 20
62.44116542984094
 30
0.0
 10
597.1751305434755
 20
62.85912839217925
 30
0.0
 10
596.8660413200595
 20
63.13927199295066
 30
0.0
 10
596.662679056583
 20
63.17428355911869
 30
0.0
 10
596.5646683472215
 20
63.19115742931128
 30
0.0
  0
LINE
  5
17B
330
1F
100
AcDbEntity
  8
0
  6
Continuous
 62
     7
370
    15
100
AcDbLine
 10
596.5646683472
 20
63.1911574293
 30
0.0
 11
596.5646683472
 21
63.9911560703
 31
0.0
  0
SPLINE
  5
17C
330
1F
100
AcDbEntity
  8
0
  6
Continuous
 62
     7
370
    15
100
AcDbSpline
210
0.0
220
0.0
230
1.0
 70
     8
 71
     3
 72
    12
 73
     8
 74
     0
 42
0.00000001
 43
0.00000001
 40
0.0
 40
0.0
 40
0.0
 40
0.0
 40
0.2301694638993445
 40
0.4604221400477908
 40
0.6906773195382002
 40
0.9209289646915224
 40
1.0
 40
1.0
 40
1.0
 40
1.0
 10
597.8076040047226
 20
61.9411586214042
 30
0.0
 10
597.7122085667135
 20
62.18823560684539
 30
0.0
 10
597.5213832027624
 20
62.68247890248582
 30
0.0
 10
597.2350945344201
 20
63.32861728813815
 30
0.0
 10
596.9489855346874
 20
63.7925645407399
 30
0.0
 10
596.7248672291536
 20
63.97535420371997
 30
0.0
 10
596.5972823956349
 20
63.98793905135325
 30
0.0
 10
596.5646683472214
 20
63.9911560703254
 30
0.0
  0
SPLINE
  5
17D
330
1F
100
AcDbEntity
  8
0
  6
Continuous
 62
     7
370
    15
100
AcDbSpline
210
0.0
220
0.0
230
1.0
 70
     8
 71
     3
 72
    14
 73
    10
 74
     0
 42
0.00000001
 43
0.00000001
 40
0.0
 40
0.0
 40
0.0
 40
0.0
 40
0.25
 40
0.25
 40
0.5
 40
0.5
 40
0.75
 40
0.75
 40
1.0
 40
1.0
 40
1.0
 40
1.0
 10
653.015356704558
 20
63.99115816345685
 30
0.0
 10
653.0397138441773
 20
63.99115816345685
 30
0.0
 10
653.0640622740477
 20
63.93780215062689
 30
0.0
 10
653.1127678435377
 20
63.73242025958304
 30
0.0
 10
653.1371206282826
 20
63.58047519037308
 30
0.0
 10
653.1858261977724
 20
63.20097893940538
 30
0.0
 10
653.2101789825173
 20
62.97357707321716
 30
0.0
 10
653.2588845520071
 20
62.47774132639336
 30
0.0
 10
653.2832329818776
 20
62.2095505224971
 30
0.0
 10
653.3075901214969
 20
61.94115816345685
 30
0.0
  0
LINE
  5
17E
330
1F
100
AcDbEntity
  8
0
  6
Continuous
 62
     7
370
    15
100
AcDbLine
 10
596.5646683472
 20
63.9911560703
 30
0.0
 11
653.0153631466
 21
63.9911560703
 31
0.0
  0
LINE
  5
17F
330
1F
100
AcDbEntity
  8
0
  6
Continuous
 62
     7
370
    15
100
AcDbLine
 10
655.3575872677
 20
-59.2588366579
 30
0.0
 11
653.30760472
 21
-59.2588366579
 31
0.0
  0
LINE
  5
180
330
1F
100
AcDbEntity
  8
0
  6
Continuous
 62
     7
370
    15
100
AcDbLine
 10
653.30760472
 20
61.9411586214
 30
0.0
 11
655.3575872677
 21
61.9411586214
 31
0.0
  0
LINE
  5
181
330
1F
100
AcDbEntity
  8
0
  6
Continuous
 62
     7
370
    15
100
AcDbLine
 10
655.3575872677
 20
61.9411586214
 30
0.0
 11
655.3575872677
 21
-59.2588366579
 31
0.0
  0
SPLINE
  5
182
330
1F
100
AcDbEntity
  8
0
  6
Continuous
 62
     7
370
    15
100
AcDbSpline
210
0.0
220
0.0
230
1.0
 70
     8
 71
     3
 72
    12
 73
     8
 74
     0
 42
0.00000001
 43
0.00000001
 40
0.0
 40
0.0
 40
0.0
 40
0.0
 40
0.1986311057426033
 40
0.4263148894746861
 40
0.6540231922929017
 40
0.8817250051451274
 40
1.0
 40
1.0
 40
1.0
 40
1.0
 10
654.5576035278855
 20
61.9411586214042
 30
0.0
 10
654.5457250719005
 20
62.07103628309923
 30
0.0
 10
654.5202307635873
 20
62.3497880968383
 30
0.0
 10
654.3068865498267
 20
62.73427323705582
 30
0.0
 10
653.9682455744562
 20
63.03301363264418
 30
0.0
 10
653.6103647309308
 20
63.17425986232694
 30
0.0
 10
653.3847372987644
 20
63.186852524867
 30
0.0
 10
653.3076047199784
 20
63.1911574293113
 30
0.0
  0
LINE
  5
183
330
1F
100
AcDbEntity
  8
0
  6
Continuous
 62
     7
370
    15
100
AcDbLine
 10
653.30760472
 20
63.1911574293
 30
0.0
 11
653.30760472
 21
63.9911560703
 31
0.0
  0
SPLINE
  5
184
330
1F
100
AcDbEntity
  8
0
  6
Continuous
 62
     7
370
    15
100
AcDbSpline
210
0.0
220
0.0
230
1.0
 70
     8
 71
     3
 72
    20
 73
    16
 74
     0
 42
0.00000001
 43
0.00000001
 40
0.0
 40
0.0
 40
0.0
 40
0.0
 40
0.1250000000000001
 40
0.1250000000000001
 40
0.2500000000000003
 40
0.2500000000000003
 40
0.3750000000000004
 40
0.3750000000000004
 40
0.5000000000000006
 40
0.5000000000000006
 40
0.6250000000000007
 40
0.6250000000000007
 40
0.7500000000000009
 40
0.7500000000000009
 40
1.0
 40
1.0
 40
1.0
 40
1.0
 10
655.3575901214972
 20
61.94115816345677
 30
0.0
 10
655.3575901214972
 20
62.07650797513386
 30
0.0
 10
655.3443097285627
 20
62.20964669030857
 30
0.0
 10
655.2923045860294
 20
62.47146122881878
 30
0.0
 10
655.2530105035407
 20
62.60139395011832
 30
0.0
 10
655.1501298436625
 20
62.84979402512133
 30
0.0
 10
655.0871847994359
 20
62.96752612865203
 30
0.0
 10
654.9387404872778
 20
63.1900524351792
 30
0.0
 10
654.8522408304246
 20
63.29558080481101
 30
0.0
 10
654.6630618757699
 20
63.48488833008936
 30
0.0
 10
654.5599710139713
 20
63.56968010684616
 30
0.0
 10
654.3367696822278
 20
63.71917139504696
 30
0.0
 10
654.2169124974388
 20
63.78329064381566
 30
0.0
 10
653.847054166576
 20
63.93684240160452
 30
0.0
 10
653.5783038613027
 20
63.9911562776497
 30
0.0
 10
653.3076044022823
 20
63.99115816340617
 30
0.0
  0
LINE
  5
185
330
1F
100
AcDbEntity
  8
0
  6
Continuous
 62
     7
370
    15
100
AcDbLine
 10
653.30760472
 20
-60.5088354658
 30
0.0
 11
653.30760472
 21
-61.308849008
 31
0.0
  0
SPLINE
  5
186
330
1F
100
AcDbEntity
  8
0
  6
Continuous
 62
     7
370
    15
100
AcDbSpline
210
0.0
220
0.0
230
1.0
 70
     8
 71
     3
 72
    11
 73
     7
 74
     0
 42
0.00000001
 43
0.00000001
 40
0.0
 40
0.0
 40
0.0
 40
0.0
 40
0.2499904615942582
 40
0.4999972445876103
 40
0.7499953126270757
 40
1.0
 40
1.0
 40
1.0
 40
1.0
 10
653.3076047199784
 20
-60.50883546581504
 30
0.0
 10
653.4713897151983
 20
-60.49004021929905
 30
0.0
 10
653.7989703988469
 20
-60.45244849916121
 30
0.0
 10
654.212169747531
 20
-60.16340748877685
 30
0.0
 10
654.5012255778153
 20
-59.75022377991812
 30
0.0
 10
654.5388107120041
 20
-59.42263381085483
 30
0.0
 10
654.5576035278855
 20
-59.25883665790793
 30
0.0
  0
SPLINE
  5
187
330
1F
100
AcDbEntity
  8
0
  6
Continuous
 62
     7
370
    15
100
AcDbSpline
210
0.0
220
0.0
230
1.0
 70
     8
 71
     3
 72
    11
 73
     7
 74
     0
 42
0.00000001
 43
0.00000001
 40
0.0
 40
0.0
 40
0.0
 40
0.0
 40
0.2499958904711743
 40
0.499994878446845
 40
0.7499951509831106
 40
1.0
 40
1.0
 40
1.0
 40
1.0
 10
653.3076047199784
 20
-61.30884900799033
 30
0.0
 10
653.5762250907344
 20
-61.27803444076307
 30
0.0
 10
654.1134691605124
 20
-61.21640492450942
 30
0.0
 10
654.7910887557133
 20
-60.7423465809841
 30
0.0
 10
655.2651476833485
 20
-60.06472546807545
 30
0.0
 10
655.326773884923
 20
-59.52746790044622
 30
0.0
 10
655.3575872677384
 20
-59.25883665790793
 30
0.0
  0
LINE
  5
188
330
1F
100
AcDbEntity
  8
0
  6
Continuous
 62
     7
370
    15
100
AcDbLine
 10
653.30760472
 20
-61.308849008
 30
0.0
 11
652.8575896519
 21
-61.308849008
 31
0.0
  0
LINE
  5
189
330
1F
100
AcDbEntity
  8
0
  6
Continuous
 62
     7
370
    15
100
AcDbLine
 10
653.0153631466
 20
63.9911560703
 30
0.0
 11
653.30760472
 21
63.9911560703
 31
0.0
  0
LINE
  5
18A
330
1F
100
AcDbEntity
  8
0
  6
Continuous
 62
     7
370
    15
100
AcDbLine
 10
661.9575797814
 20
-29.3588371586
 30
0.0
 11
661.9575797814
 21
-2.2588403534
 31
0.0
  0
LINE
  5
18B
330
1F
100
AcDbEntity
  8
0
  6
Continuous
 62
     7
370
    15
100
AcDbLine
 10
661.9575797814
 20
8.541163652
 30
0.0
 11
661.9575797814
 21
35.6411604572
 31
0.0
  0
LINE
  5
18C
330
1F
100
AcDbEntity
  8
0
  6
Continuous
 62
     7
370
    15
100
AcDbLine
 10
671.957600047
 20
26.8409369875
 30
0.0
 11
671.957600047
 21
31.641152351
 31
0.0
  0
SPLINE
  5
18D
330
1F
100
AcDbEntity
  8
0
  6
Continuous
 62
     7
370
    15
100
AcDbSpline
210
0.0
220
0.0
230
1.0
 70
     8
 71
     3
 72
    10
 73
     6
 74
     0
 42
0.00000001
 43
0.00000001
 40
0.0
 40
0.0
 40
0.0
 40
0.0
 40
0.5
 40
0.5
 40
1.0
 40
1.0
 40
1.0
 40
1.0
 10
671.328980797851
 20
25.73622487014407
 30
0.0
 10
671.328980797851
 20
25.98215189136621
 30
0.0
 10
671.3792221666672
 20
26.20010534566791
 30
0.0
 10
671.5909601946673
 20
26.57732096393503
 30
0.0
 10
671.7483429827003
 20
26.72829545641489
 30
0.0
 10
671.957590121497
 20
26.84093647805333
 30
0.0
  0
SPLINE
  5
18E
330
1F
100
AcDbEntity
  8
0
  6
Continuous
 62
     7
370
    15
100
AcDbSpline
210
0.0
220
0.0
230
1.0
 70
     8
 71
     3
 72
    10
 73
     6
 74
     0
 42
0.00000001
 43
0.00000001
 40
0.0
 40
0.0
 40
0.0
 40
0.0
 40
0.5
 40
0.5
 40
1.0
 40
1.0
 40
1.0
 40
1.0
 10
671.957590121497
 20
-20.5586201511429
 30
0.0
 10
671.7483429827001
 20
-20.44597912950447
 30
0.0
 10
671.5909601946674
 20
-20.29500463702463
 30
0.0
 10
671.3792221666671
 20
-19.91778901875746
 30
0.0
 10
671.3289807978512
 20
-19.6998355644557
 30
0.0
 10
671.328980797851
 20
-19.45390854323359
 30
0.0
  0
LINE
  5
18F
330
1F
100
AcDbEntity
  8
0
  6
Continuous
 62
     7
370
    15
100
AcDbLine
 10
671.957600047
 20
-25.3588439535
 30
0.0
 11
671.957600047
 21
-20.5586136889
 31
0.0
  0
SPLINE
  5
190
330
1F
100
AcDbEntity
  8
0
  6
Continuous
 62
     7
370
    15
100
AcDbSpline
210
0.0
220
0.0
230
1.0
 70
     8
 71
     3
 72
    16
 73
    12
 74
     0
 42
0.00000001
 43
0.00000001
 40
0.0
 40
0.0
 40
0.0
 40
0.0
 40
0.0000527340777604
 40
0.1251132206729252
 40
0.2500822686435005
 40
0.3750501916110958
 40
0.5000157109933413
 40
0.6249794535457197
 40
0.7499400922180933
 40
0.8749029223354919
 40
1.0
 40
1.0
 40
1.0
 40
1.0
 10
664.2789124744951
 20
34.71262439975501
 30
0.0
 10
664.2788925979659
 20
34.71263433798868
 30
0.0
 10
664.2317349212445
 20
34.73621310295225
 30
0.0
 10
664.418116356009
 20
34.64406667973311
 30
0.0
 10
664.893372360311
 20
34.41764316159323
 30
0.0
 10
665.659629996558
 20
34.07048139784214
 30
0.0
 10
666.5622442697735
 20
33.69191107820743
 30
0.0
 10
667.4805681931599
 20
33.33999357884329
 30
0.0
 10
668.2612030179217
 20
33.06701335033804
 30
0.0
 10
668.8123699211751
 20
32.88936768292142
 30
0.0
 10
668.8848840824913
 20
32.86694730568313
 30
0.0
 10
668.9211606281815
 20
32.8557310987449
 30
0.0
  0
SPLINE
  5
191
330
1F
100
AcDbEntity
  8
0
  6
Continuous
 62
     7
370
    15
100
AcDbSpline
210
0.0
220
0.0
230
1.0
 70
     8
 71
     3
 72
     9
 73
     5
 74
     0
 42
0.00000001
 43
0.00000001
 40
0.0
 40
0.0
 40
0.0
 40
0.0
 40
0.4999997884237918
 40
0.9999999999999999
 40
0.9999999999999999
 40
0.9999999999999999
 40
0.9999999999999999
 10
665.378418451051
 20
-19.41206590838646
 30
0.0
 10
665.3786772089991
 20
-19.49044347824444
 30
0.0
 10
665.3791947251146
 20
-19.64719868429171
 30
0.0
 10
665.3784140398236
 20
-19.80157717323247
 30
0.0
 10
665.3780236970131
 20
-19.87876645036568
 30
0.0
  0
LINE
  5
192
330
1F
100
AcDbEntity
  8
0
  6
Continuous
 62
     7
370
    15
100
AcDbLine
 10
665.3784095543
 20
-19.412058742
 30
0.0
 11
668.6161636609
 21
-18.4661479305
 31
0.0
  0
SPLINE
  5
193
330
1F
100
AcDbEntity
  8
0
  6
Continuous
 62
     7
370
    15
100
AcDbSpline
210
0.0
220
0.0
230
1.0
 70
     8
 71
     3
 72
    16
 73
    12
 74
     0
 42
0.00000001
 43
0.00000001
 40
0.0
 40
0.0
 40
0.0
 40
0.0
 40
0.1251004365720763
 40
0.2501607816925412
 40
0.3782180428461451
 40
0.5000937578665404
 40
0.6271570971013906
 40
0.7499350319615317
 40
0.8748712563419296
 40
0.9374268061341308
 40
1.0
 40
1.0
 40
1.0
 40
1.0
 10
666.3895343747348
 20
-26.81467451513126
 30
0.0
 10
666.3392081265536
 20
-26.83292180036928
 30
0.0
 10
666.2385717584509
 20
-26.86941052306274
 30
0.0
 10
666.0906660440004
 20
-26.91706352028237
 30
0.0
 10
665.9519371762478
 20
-26.9557430378472
 30
0.0
 10
665.8284838492252
 20
-26.98139867851499
 30
0.0
 10
665.7274415516712
 20
-26.9925533677598
 30
0.0
 10
665.6537192947543
 20
-26.98718698785293
 30
0.0
 10
665.6190174220872
 20
-26.96915637146799
 30
0.0
 10
665.6047072190436
 20
-26.94831621583157
 30
0.0
 10
665.6036345492793
 20
-26.93523294616212
 30
0.0
 10
665.60309813877
 20
-26.92869038890869
 30
0.0
  0
LINE
  5
194
330
1F
100
AcDbEntity
  8
0
  6
Continuous
 62
     7
370
    15
100
AcDbLine
 10
668.3001398343
 20
-25.577518494
 30
0.0
 11
668.6132430333
 21
-25.4559697222
 31
0.0
  0
SPLINE
  5
195
330
1F
100
AcDbEntity
  8
0
  6
Continuous
 62
     7
370
    15
100
AcDbSpline
210
0.0
220
0.0
230
1.0
 70
     8
 71
     3
 72
    10
 73
     6
 74
     0
 42
0.00000001
 43
0.00000001
 40
0.0
 40
0.0
 40
0.0
 40
0.0
 40
0.333341786270596
 40
0.6666652411998949
 40
1.0
 40
1.0
 40
1.0
 40
1.0
 10
668.3001500292847
 20
-25.57752153173129
 30
0.0
 10
668.3022709546168
 20
-25.62691808632797
 30
0.0
 10
668.3065126886459
 20
-25.72570847907496
 30
0.0
 10
668.3088795105043
 20
-25.86428354853435
 30
0.0
 10
668.307793160146
 20
-25.95020600541265
 30
0.0
 10
668.3072499757566
 20
-25.99316796230327
 30
0.0
  0
SPLINE
  5
196
330
1F
100
AcDbEntity
  8
0
  6
Continuous
 62
     7
370
    15
100
AcDbSpline
210
0.0
220
0.0
230
1.0
 70
     8
 71
     3
 72
     9
 73
     5
 74
     0
 42
0.00000001
 43
0.00000001
 40
0.0
 40
0.0
 40
0.0
 40
0.0
 40
0.4988438725414024
 40
1.0
 40
1.0
 40
1.0
 40
1.0
 10
668.3072499757566
 20
-25.99316796230327
 30
0.0
 10
668.1628861405736
 20
-26.01489220755163
 30
0.0
 10
667.8734893109656
 20
-26.05844139487087
 30
0.0
 10
667.5819301720094
 20
-26.09674924533886
 30
0.0
 10
667.435813523005
 20
-26.11594745933068
 30
0.0
  0
SPLINE
  5
197
330
1F
100
AcDbEntity
  8
0
  6
Continuous
 62
     7
370
    15
100
AcDbSpline
210
0.0
220
0.0
230
1.0
 70
     8
 71
     3
 72
    14
 73
    10
 74
     0
 42
0.00000001
 43
0.00000001
 40
0.0
 40
0.0
 40
0.0
 40
0.0
 40
0.2500974778385984
 40
0.5001162364899097
 40
0.6251211881946263
 40
0.7500431373235874
 40
0.8749630375512868
 40
0.9374725204057183
 40
1.0
 40
1.0
 40
1.0
 40
1.0
 10
667.435813523005
 20
-26.11594745933068
 30
0.0
 10
667.3503054328123
 20
-26.12731966408671
 30
0.0
 10
667.1793161664423
 20
-26.15006049415133
 30
0.0
 10
666.9526014135959
 20
-26.18558794698436
 30
0.0
 10
666.7567224309739
 20
-26.22508544330951
 30
0.0
 10
666.596944452146
 20
-26.26686656789651
 30
0.0
 10
666.4569310304599
 20
-26.31063837896916
 30
0.0
 10
666.3427625056415
 20
-26.35137464952086
 30
0.0
 10
666.2855026579036
 20
-26.37299919942246
 30
0.0
 10
666.256868613291
 20
-26.38381303059864
 30
0.0
  0
SPLINE
  5
198
330
1F
100
AcDbEntity
  8
0
  6
Continuous
 62
     7
370
    15
100
AcDbSpline
210
0.0
220
0.0
230
1.0
 70
     8
 71
     3
 72
    16
 73
    12
 74
     0
 42
0.00000001
 43
0.00000001
 40
0.0
 40
0.0
 40
0.0
 40
0.0
 40
0.06265409303737
 40
0.1252834762196555
 40
0.2504003908103881
 40
0.499419254407188
 40
0.6244795471335974
 40
0.7495568271934699
 40
0.8747021681126795
 40
0.937342069187761
 40
1.0
 40
1.0
 40
1.0
 40
1.0
 10
666.256868613291
 20
-26.38381303059864
 30
0.0
 10
666.2244186876273
 20
-26.39667180842639
 30
0.0
 10
666.1595316340747
 20
-26.42238429276858
 30
0.0
 10
666.0309745756501
 20
-26.47764194990157
 30
0.0
 10
665.8142769836284
 20
-26.58209245765969
 30
0.0
 10
665.5969147545374
 20
-26.71174303676085
 30
0.0
 10
665.4351387020804
 20
-26.83334743530524
 30
0.0
 10
665.3496430320225
 20
-26.91666750852587
 30
0.0
 10
665.309824406344
 20
-26.97612778308067
 30
0.0
 10
665.2960442983785
 20
-27.016785424605
 30
0.0
 10
665.2943591278422
 20
-27.03490328175554
 30
0.0
 10
665.2935164213303
 20
-27.04396351386573
 30
0.0
  0
LINE
  5
199
330
1F
100
AcDbEntity
  8
0
  6
Continuous
 62
     7
370
    15
100
AcDbLine
 10
669.3876861828
 20
-12.2455836844
 30
0.0
 11
664.7408782738
 21
-13.2708878826
 31
0.0
  0
SPLINE
  5
19A
330
1F
100
AcDbEntity
  8
0
  6
Continuous
 62
     7
370
    15
100
AcDbSpline
210
0.0
220
0.0
230
1.0
 70
     8
 71
     3
 72
     8
 73
     4
 74
     0
 42
0.00000001
 43
0.00000001
 40
0.0
 40
0.0
 40
0.0
 40
0.0
 40
1.0
 40
1.0
 40
1.0
 40
1.0
 10
664.7408657516035
 20
-13.2708832339912
 30
0.0
 10
664.741280562421
 20
-13.83907785419758
 30
0.0
 10
664.7416953726115
 20
-14.39615142657963
 30
0.0
 10
664.7421101834277
 20
-14.9409756483723
 30
0.0
  0
LINE
  5
19B
330
1F
100
AcDbEntity
  8
0
  6
Continuous
 62
     7
370
    15
100
AcDbLine
 10
669.3951367634
 20
-22.1046240639
 30
0.0
 11
664.7482692498
 21
-23.6950100969
 31
0.0
  0
SPLINE
  5
19C
330
1F
100
AcDbEntity
  8
0
  6
Continuous
 62
     7
370
    15
100
AcDbSpline
210
0.0
220
0.0
230
1.0
 70
     8
 71
     3
 72
     8
 73
     4
 74
     0
 42
0.00000001
 43
0.00000001
 40
0.0
 40
0.0
 40
0.0
 40
0.0
 40
1.0
 40
1.0
 40
1.0
 40
1.0
 10
664.7482703741828
 20
-23.69501460894222
 30
0.0
 10
664.7484892642365
 20
-24.04059333155567
 30
0.0
 10
664.7487081539592
 20
-24.3679970505285
 30
0.0
 10
664.7489270440126
 20
-24.67656261070786
 30
0.0
  0
LINE
  5
19D
330
1F
100
AcDbEntity
  8
0
  6
Continuous
 62
     7
370
    15
100
AcDbLine
 10
669.3981169957
 20
-26.3657005142
 30
0.0
 11
664.751249482
 21
-28.225439937
 31
0.0
  0
LINE
  5
19E
330
1F
100
AcDbEntity
  8
0
  6
Continuous
 62
     7
370
    15
100
AcDbLine
 10
671.957600047
 20
25.006559341
 30
0.0
 11
671.957600047
 21
8.541163652
 31
0.0
  0
LINE
  5
19F
330
1F
100
AcDbEntity
  8
0
  6
Continuous
 62
     7
370
    15
100
AcDbLine
 10
671.957600047
 20
-2.2588403534
 30
0.0
 11
671.957600047
 21
-18.7242360424
 31
0.0
  0
ARC
  5
1A0
330
1F
100
AcDbEntity
  8
0
  6
Continuous
 62
     7
370
    15
100
AcDbCircle
 10
671.1457937007
 20
-18.6604662429
 30
0.0
 40
0.8143071479806627
100
AcDbArc
 50
283.0004844501
 51
355.5084696357
  0
ARC
  5
1A1
330
1F
100
AcDbEntity
  8
0
  6
Continuous
 62
     7
370
    15
100
AcDbCircle
 10
671.1457707668
 20
24.9427697836
 30
0.0
 40
0.8143315588820343
100
AcDbArc
 50
4.4927898858
 51
76.9982560284
  0
LINE
  5
1A2
330
1F
100
AcDbEntity
  8
0
  6
Continuous
 62
     7
370
    15
100
AcDbLine
 10
664.7458254593
 20
-14.9463297438
 30
0.0
 11
669.3927227753
 21
-13.9211149525
 31
0.0
  0
SPLINE
  5
1A3
330
1F
100
AcDbEntity
  8
0
  6
Continuous
 62
     7
370
    15
100
AcDbSpline
210
0.0
220
0.0
230
1.0
 70
     8
 71
     3
 72
     8
 73
     4
 74
     0
 42
0.00000001
 43
0.00000001
 40
0.0
 40
0.0
 40
0.0
 40
0.0
 40
1.0
 40
1.0
 40
1.0
 40
1.0
 10
664.7445796583669
 20
-13.27573822125164
 30
0.0
 10
664.7449944689749
 20
-13.84410066256059
 30
0.0
 10
664.745409279583
 20
-14.40133961652956
 30
0.0
 10
664.7458240901913
 20
-14.94632476488156
 30
0.0
  0
LINE
  5
1A4
330
1F
100
AcDbEntity
  8
0
  6
Continuous
 62
     7
370
    15
100
AcDbLine
 10
669.3914114731
 20
-12.2504116606
 30
0.0
 11
664.7445737618
 21
-13.2757456612
 31
0.0
  0
SPLINE
  5
1A5
330
1F
100
AcDbEntity
  8
0
  6
Continuous
 62
     7
370
    15
100
AcDbSpline
210
0.0
220
0.0
230
1.0
 70
     8
 71
     3
 72
     8
 73
     4
 74
     0
 42
0.00000001
 43
0.00000001
 40
0.0
 40
0.0
 40
0.0
 40
0.0
 40
1.0
 40
1.0
 40
1.0
 40
1.0
 10
669.392723815373
 20
-13.92111241385888
 30
0.0
 10
669.3922828927781
 20
-13.37685030373176
 30
0.0
 10
669.3918419701832
 20
-12.81952668613576
 30
0.0
 10
669.3914010475884
 20
-12.25041873811486
 30
0.0
  0
LINE
  5
1A6
330
1F
100
AcDbEntity
  8
0
  6
Continuous
 62
     7
370
    15
100
AcDbLine
 10
669.3876861828
 20
-12.2455836844
 30
0.0
 11
669.3914114731
 21
-12.2504116606
 31
0.0
  0
LINE
  5
1A7
330
1F
100
AcDbEntity
  8
0
  6
Continuous
 62
     7
370
    15
100
AcDbLine
 10
664.7408782738
 20
-13.2708878826
 30
0.0
 11
664.7445737618
 21
-13.2757456612
 31
0.0
  0
LINE
  5
1A8
330
1F
100
AcDbEntity
  8
0
  6
Continuous
 62
     7
370
    15
100
AcDbLine
 10
664.742100169
 20
-14.9409802269
 30
0.0
 11
664.7458254593
 21
-14.9463297438
 31
0.0
  0
LINE
  5
1A9
330
1F
100
AcDbEntity
  8
0
  6
Continuous
 62
     7
370
    15
100
AcDbLine
 10
668.6198591488
 20
-18.4728683542
 30
0.0
 11
668.6161636609
 21
-18.4661479305
 31
0.0
  0
LINE
  5
1AA
330
1F
100
AcDbEntity
  8
0
  6
Continuous
 62
     7
370
    15
100
AcDbLine
 10
665.3821348446
 20
-19.4187940668
 30
0.0
 11
668.6198591488
 21
-18.4728683542
 31
0.0
  0
LINE
  5
1AB
330
1F
100
AcDbEntity
  8
0
  6
Continuous
 62
     7
370
    15
100
AcDbLine
 10
665.3821348446
 20
-19.4187940668
 30
0.0
 11
665.3784095543
 21
-19.412058742
 31
0.0
  0
SPLINE
  5
1AC
330
1F
100
AcDbEntity
  8
0
  6
Continuous
 62
     7
370
    15
100
AcDbSpline
210
0.0
220
0.0
230
1.0
 70
     8
 71
     3
 72
     8
 73
     4
 74
     0
 42
0.00000001
 43
0.00000001
 40
0.0
 40
0.0
 40
0.0
 40
0.0
 40
1.0
 40
1.0
 40
1.0
 40
1.0
 10
665.3817376037765
 20
-19.88563192078127
 30
0.0
 10
665.3827348292996
 20
-19.73160720524006
 30
0.0
 10
665.3828664139787
 20
-19.57598662148497
 30
0.0
 10
665.3821323578145
 20
-19.41879222398429
 30
0.0
  0
SPLINE
  5
1AD
330
1F
100
AcDbEntity
  8
0
  6
Continuous
 62
     7
370
    15
100
AcDbSpline
210
0.0
220
0.0
230
1.0
 70
     8
 71
     3
 72
     8
 73
     4
 74
     0
 42
0.00000001
 43
0.00000001
 40
0.0
 40
0.0
 40
0.0
 40
0.0
 40
1.0
 40
1.0
 40
1.0
 40
1.0
 10
668.619864755743
 20
-18.47286922079683
 30
0.0
 10
668.6199760577181
 20
-18.55233636749509
 30
0.0
 10
668.620087359693
 20
-18.63131943831672
 30
0.0
 10
668.620198661668
 20
-18.70981313514169
 30
0.0
  0
LINE
  5
1AE
330
1F
100
AcDbEntity
  8
0
  6
Continuous
 62
     7
370
    15
100
AcDbLine
 10
668.6201869744
 20
-18.7098117184
 30
0.0
 11
665.6995295781
 21
-19.5634396385
 31
0.0
  0
SPLINE
  5
1AF
330
1F
100
AcDbEntity
  8
0
  6
Continuous
 62
     7
370
    15
100
AcDbSpline
210
0.0
220
0.0
230
1.0
 70
     8
 71
     3
 72
     8
 73
     4
 74
     0
 42
0.00000001
 43
0.00000001
 40
0.0
 40
0.0
 40
0.0
 40
0.0
 40
1.0
 40
1.0
 40
1.0
 40
1.0
 10
665.6995278182357
 20
-19.56343748142844
 30
0.0
 10
665.6994438462699
 20
-19.68786719993945
 30
0.0
 10
665.6988039049046
 20
-19.81127672368596
 30
0.0
 10
665.6976079941388
 20
-19.93365483931481
 30
0.0
  0
SPLINE
  5
1B0
330
1F
100
AcDbEntity
  8
0
  6
Continuous
 62
     7
370
    15
100
AcDbSpline
210
0.0
220
0.0
230
1.0
 70
     8
 71
     3
 72
     8
 73
     4
 74
     0
 42
0.00000001
 43
0.00000001
 40
0.0
 40
0.0
 40
0.0
 40
0.0
 40
1.0
 40
1.0
 40
1.0
 40
1.0
 10
665.6976079941388
 20
-19.93365483931481
 30
0.0
 10
665.592317864159
 20
-19.91801673563806
 30
0.0
 10
665.4870277340518
 20
-19.90200945422949
 30
0.0
 10
665.3817376037765
 20
-19.88563192078127
 30
0.0
  0
LINE
  5
1B1
330
1F
100
AcDbEntity
  8
0
  6
Continuous
 62
     7
370
    15
100
AcDbLine
 10
665.3817474145
 20
-19.8856325459
 30
0.0
 11
665.3780221242
 21
-19.8787631105
 31
0.0
  0
SPLINE
  5
1B2
330
1F
100
AcDbEntity
  8
0
  6
Continuous
 62
     7
370
    15
100
AcDbSpline
210
0.0
220
0.0
230
1.0
 70
     8
 71
     3
 72
    10
 73
     6
 74
     0
 42
0.00000001
 43
0.00000001
 40
0.0
 40
0.0
 40
0.0
 40
0.0
 40
0.5
 40
0.5
 40
1.0
 40
1.0
 40
1.0
 40
1.0
 10
671.957590121497
 20
-18.72424108849416
 30
0.0
 10
671.9575901214969
 20
-18.92116049781298
 30
0.0
 10
671.9929212028388
 20
-19.09384318873258
 30
0.0
 10
672.1464480484664
 20
-19.38584600772622
 30
0.0
 10
672.2616548043845
 20
-19.49788195059401
 30
0.0
 10
672.4143003933045
 20
-19.57497741838255
 30
0.0
  0
SPLINE
  5
1B3
330
1F
100
AcDbEntity
  8
0
  6
Continuous
 62
     7
370
    15
100
AcDbSpline
210
0.0
220
0.0
230
1.0
 70
     8
 71
     3
 72
    12
 73
     8
 74
     0
 42
0.00000001
 43
0.00000001
 40
0.0
 40
0.0
 40
0.0
 40
0.0
 40
0.250000000000016
 40
0.250000000000016
 40
0.500000000000032
 40
0.500000000000032
 40
1.0
 40
1.0
 40
1.0
 40
1.0
 10
671.9706483103723
 20
-20.53086263735521
 30
0.0
 10
672.0402954725387
 20
-20.47492156027256
 30
0.0
 10
672.1031286933091
 20
-20.41061035862196
 30
0.0
 10
672.2155067915166
 20
-20.26566494599005
 30
0.0
 10
672.2640888859769
 20
-20.18573469687979
 30
0.0
 10
672.3805342060703
 20
-19.93506392706498
 30
0.0
 10
672.4199187498469
 20
-19.74845196230238
 30
0.0
 10
672.4143003933044
 20
-19.57497741837883
 30
0.0
  0
SPLINE
  5
1B4
330
1F
100
AcDbEntity
  8
0
  6
Continuous
 62
     7
370
    15
100
AcDbSpline
210
0.0
220
0.0
230
1.0
 70
     8
 71
     3
 72
    14
 73
    10
 74
     0
 42
0.00000001
 43
0.00000001
 40
0.0
 40
0.0
 40
0.0
 40
0.0
 40
0.0000095361705259
 40
0.0000095361705259
 40
0.0000095361705259
 40
0.0000219642949668
 40
0.0000219642949668
 40
0.0000219642949668
 40
0.0000450544384129
 40
0.0000450544384129
 40
0.0000450544384129
 40
0.0000450544384129
 10
671.9706483103723
 20
-20.53086263735521
 30
0.0
 10
671.9682773950253
 20
-20.53276697278048
 30
0.0
 10
671.9662279432737
 20
-20.53486792421302
 30
0.0
 10
671.9646162368766
 20
-20.53694066054706
 30
0.0
 10
671.962514349862
 20
-20.5396437940665
 30
0.0
 10
671.9610512980034
 20
-20.54238102479705
 30
0.0
 10
671.9600287617426
 20
-20.54498277993052
 30
0.0
 10
671.9581333575702
 20
-20.54980547201926
 30
0.0
 10
671.9575901214964
 20
-20.55435220016524
 30
0.0
 10
671.9575901214964
 20
-20.55862015114301
 30
0.0
  0
SPLINE
  5
1B5
330
1F
100
AcDbEntity
  8
0
  6
Continuous
 62
     7
370
    15
100
AcDbSpline
210
0.0
220
0.0
230
1.0
 70
     8
 71
     3
 72
    12
 73
     8
 74
     0
 42
0.00000001
 43
0.00000001
 40
0.0
 40
0.0
 40
0.0
 40
0.0
 40
0.250000000000016
 40
0.250000000000016
 40
0.500000000000032
 40
0.500000000000032
 40
1.0
 40
1.0
 40
1.0
 40
1.0
 10
671.9706483103723
 20
26.81317896426566
 30
0.0
 10
672.0402954725387
 20
26.75723788718301
 30
0.0
 10
672.103128693309
 20
26.69292668553236
 30
0.0
 10
672.2155067915165
 20
26.54798127290037
 30
0.0
 10
672.2640888859773
 20
26.46805102379038
 30
0.0
 10
672.3805342060713
 20
26.21738025397566
 30
0.0
 10
672.4199187498364
 20
26.03076828920731
 30
0.0
 10
672.4143003933044
 20
25.85729374528908
 30
0.0
  0
SPLINE
  5
1B6
330
1F
100
AcDbEntity
  8
0
  6
Continuous
 62
     7
370
    15
100
AcDbSpline
210
0.0
220
0.0
230
1.0
 70
     8
 71
     3
 72
    10
 73
     6
 74
     0
 42
0.00000001
 43
0.00000001
 40
0.0
 40
0.0
 40
0.0
 40
0.0
 40
0.5
 40
0.5
 40
1.0
 40
1.0
 40
1.0
 40
1.0
 10
672.4143003933045
 20
25.857293745293
 30
0.0
 10
672.2616548043845
 20
25.7801982775045
 30
0.0
 10
672.1464480484665
 20
25.66816233463665
 30
0.0
 10
671.9929212028386
 20
25.37615951564304
 30
0.0
 10
671.9575901214971
 20
25.20347682472346
 30
0.0
 10
671.957590121497
 20
25.00655741540461
 30
0.0
  0
SPLINE
  5
1B7
330
1F
100
AcDbEntity
  8
0
  6
Continuous
 62
     7
370
    15
100
AcDbSpline
210
0.0
220
0.0
230
1.0
 70
     8
 71
     3
 72
    17
 73
    13
 74
     0
 42
0.00000001
 43
0.00000001
 40
0.0
 40
0.0
 40
0.0
 40
0.0
 40
0.0000166887075715
 40
0.0000166887075715
 40
0.0000166887075715
 40
0.0000336582619935
 40
0.0000336582619935
 40
0.0000336582619935
 40
0.0000426621382239
 40
0.0000426621382239
 40
0.0000426621382239
 40
0.0000451385286554
 40
0.0000451385286554
 40
0.0000451385286554
 40
0.0000451385286554
 10
671.957590121497
 20
26.84093647805336
 30
0.0
 10
671.957590121497
 20
26.83784674067616
 30
0.0
 10
671.957892185705
 20
26.83462479109539
 30
0.0
 10
671.9587538634147
 20
26.83125497088376
 30
0.0
 10
671.9596234166494
 20
26.827854351334
 30
0.0
 10
671.9610898638293
 20
26.82420644059297
 30
0.0
 10
671.9636640962289
 20
26.82054416864252
 30
0.0
 10
671.9650413498761
 20
26.81858479721916
 30
0.0
 10
671.9667812391637
 20
26.81658577114929
 30
0.0
 10
671.9688460490429
 20
26.814715543969
 30
0.0
 10
671.9694216400504
 20
26.8141941952687
 30
0.0
 10
671.9700238337709
 20
26.81368054814376
 30
0.0
 10
671.9706483103723
 20
26.81317896426566
 30
0.0
  0
SPLINE
  5
1B8
330
1F
100
AcDbEntity
  8
0
  6
Continuous
 62
     7
370
    15
100
AcDbSpline
210
0.0
220
0.0
230
1.0
 70
     8
 71
     3
 72
    14
 73
    10
 74
     0
 42
0.00000001
 43
0.00000001
 40
0.0
 40
0.0
 40
0.0
 40
0.0
 40
0.25
 40
0.25
 40
0.5
 40
0.5
 40
0.75
 40
0.75
 40
1.0
 40
1.0
 40
1.0
 40
1.0
 10
674.9052329021852
 20
25.29966888331023
 30
0.0
 10
674.6721439032314
 20
25.42732145328311
 30
0.0
 10
674.4406908800196
 20
25.53896803265315
 30
0.0
 10
673.9811197289669
 20
25.7285302328645
 30
0.0
 10
673.751034116613
 20
25.80663785985251
 30
0.0
 10
673.3180490553408
 20
25.91438320737685
 30
0.0
 10
673.1107061575518
 20
25.94568596074989
 30
0.0
 10
672.7279836373315
 20
25.94891189550214
 30
0.0
 10
672.5580897673761
 20
25.92094582777091
 30
0.0
 10
672.4143003933045
 20
25.857293745293
 30
0.0
  0
LINE
  5
1B9
330
1F
100
AcDbEntity
  8
0
  6
Continuous
 62
     7
370
    15
100
AcDbLine
 10
674.9052285451
 20
25.2996651817
 30
0.0
 11
674.9052285451
 21
-19.0173567843
 31
0.0
  0
SPLINE
  5
1BA
330
1F
100
AcDbEntity
  8
0
  6
Continuous
 62
     7
370
    15
100
AcDbSpline
210
0.0
220
0.0
230
1.0
 70
     8
 71
     3
 72
    14
 73
    10
 74
     0
 42
0.00000001
 43
0.00000001
 40
0.0
 40
0.0
 40
0.0
 40
0.0
 40
0.25
 40
0.25
 40
0.5
 40
0.5
 40
0.75
 40
0.75
 40
1.0
 40
1.0
 40
1.0
 40
1.0
 10
672.4143003933045
 20
-19.57497741838277
 30
0.0
 10
672.5569130842989
 20
-19.63810861168672
 30
0.0
 10
672.7258971596362
 20
-19.66647539053465
 30
0.0
 10
673.1101635159883
 20
-19.66351103343858
 30
0.0
 10
673.317017029599
 20
-19.63226601166651
 30
0.0
 10
673.7502440511473
 20
-19.52457557451362
 30
0.0
 10
673.9804773540774
 20
-19.44645570227615
 30
0.0
 10
674.4403662053961
 20
-19.25680874574412
 30
0.0
 10
674.671980410417
 20
-19.14509466418021
 30
0.0
 10
674.9052329021852
 20
-19.01735255639977
 30
0.0
  0
LINE
  5
1BB
330
1F
100
AcDbEntity
  8
0
  6
Continuous
 62
     7
370
    15
100
AcDbLine
 10
664.7526501912
 20
-24.6847899269
 30
0.0
 11
669.3995177048
 21
-23.0364681791
 31
0.0
  0
SPLINE
  5
1BC
330
1F
100
AcDbEntity
  8
0
  6
Continuous
 62
     7
370
    15
100
AcDbSpline
210
0.0
220
0.0
230
1.0
 70
     8
 71
     3
 72
     8
 73
     4
 74
     0
 42
0.00000001
 43
0.00000001
 40
0.0
 40
0.0
 40
0.0
 40
0.0
 40
1.0
 40
1.0
 40
1.0
 40
1.0
 10
664.7519842809463
 20
-23.70295399745973
 30
0.0
 10
664.7522031708895
 20
-24.04863480608713
 30
0.0
 10
664.7524220608327
 20
-24.37613573888031
 30
0.0
 10
664.752640950776
 20
-24.68479245567312
 30
0.0
  0
LINE
  5
1BD
330
1F
100
AcDbEntity
  8
0
  6
Continuous
 62
     7
370
    15
100
AcDbLine
 10
669.3988322514
 20
-22.1125663828
 30
0.0
 11
664.7519945401
 21
-23.7029524159
 31
0.0
  0
SPLINE
  5
1BE
330
1F
100
AcDbEntity
  8
0
  6
Continuous
 62
     7
370
    15
100
AcDbSpline
210
0.0
220
0.0
230
1.0
 70
     8
 71
     3
 72
     8
 73
     4
 74
     0
 42
0.00000001
 43
0.00000001
 40
0.0
 40
0.0
 40
0.0
 40
0.0
 40
1.0
 40
1.0
 40
1.0
 40
1.0
 10
669.3995035867026
 20
-23.0364660319391
 30
0.0
 10
669.399284671502
 20
-22.74602448166543
 30
0.0
 10
669.3990657563012
 20
-22.43785074446195
 30
0.0
 10
669.3988468411005
 20
-22.11257008089734
 30
0.0
  0
LINE
  5
1BF
330
1F
100
AcDbEntity
  8
0
  6
Continuous
 62
     7
370
    15
100
AcDbLine
 10
669.3951367634
 20
-22.1046240639
 30
0.0
 11
669.3988322514
 21
-22.1125663828
 31
0.0
  0
LINE
  5
1C0
330
1F
100
AcDbEntity
  8
0
  6
Continuous
 62
     7
370
    15
100
AcDbLine
 10
664.7482692498
 20
-23.6950100969
 30
0.0
 11
664.7519945401
 21
-23.7029524159
 31
0.0
  0
LINE
  5
1C1
330
1F
100
AcDbEntity
  8
0
  6
Continuous
 62
     7
370
    15
100
AcDbLine
 10
664.7489249009
 20
-24.6765644859
 30
0.0
 11
664.7526501912
 21
-24.6847899269
 31
0.0
  0
SPLINE
  5
1C2
330
1F
100
AcDbEntity
  8
0
  6
Continuous
 62
     7
370
    15
100
AcDbSpline
210
0.0
220
0.0
230
1.0
 70
     8
 71
     3
 72
    16
 73
    12
 74
     0
 42
0.00000001
 43
0.00000001
 40
0.0
 40
0.0
 40
0.0
 40
0.0
 40
0.249999999999999
 40
0.249999999999999
 40
0.499999999999998
 40
0.499999999999998
 40
0.6249999999999984
 40
0.6249999999999984
 40
0.749999999999999
 40
0.749999999999999
 40
1.0
 40
1.0
 40
1.0
 40
1.0
 10
675.2981451730766
 20
-20.16636378830511
 30
0.0
 10
674.9752123125031
 20
-20.30099601726673
 30
0.0
 10
674.6567351291903
 20
-20.41317954229294
 30
0.0
 10
674.0285777112811
 20
-20.5915807257398
 30
0.0
 10
673.7169281839678
 20
-20.65740147961762
 30
0.0
 10
673.283391705942
 20
-20.71117874685097
 30
0.0
 10
673.1434159669036
 20
-20.72194155255116
 30
0.0
 10
672.8727816355964
 20
-20.72809062322739
 30
0.0
 10
672.7411074377501
 20
-20.723345724285
 30
0.0
 10
672.3695207007288
 20
-20.68400369190826
 30
0.0
 10
672.1535862997138
 20
-20.62555881680633
 30
0.0
 10
671.9706483103723
 20
-20.53086263735521
 30
0.0
  0
ARC
  5
1C3
330
1F
100
AcDbEntity
  8
0
  6
Continuous
 62
     7
370
    15
100
AcDbCircle
 10
671.177279045
 20
-20.933843764
 30
0.0
 40
4.191721581719935
100
AcDbArc
 50
10.5499490188
 51
27.2070655414
  0
SPLINE
  5
1C4
330
1F
100
AcDbEntity
  8
0
  6
Continuous
 62
     7
370
    15
100
AcDbSpline
210
0.0
220
0.0
230
1.0
 70
     8
 71
     3
 72
    10
 73
     6
 74
     0
 42
0.00000001
 43
0.00000001
 40
0.0
 40
0.0
 40
0.0
 40
0.0
 40
0.5
 40
0.5
 40
1.0
 40
1.0
 40
1.0
 40
1.0
 10
691.3679444835159
 20
-13.17950452872438
 30
0.0
 10
688.7023884816556
 20
-14.39778456420218
 30
0.0
 10
686.0278052400143
 20
-15.58264162468964
 30
0.0
 10
680.6693436846866
 20
-17.90699484613564
 30
0.0
 10
677.9852934326069
 20
-19.04607903596281
 30
0.0
 10
675.2981451730766
 20
-20.16636378830511
 30
0.0
  0
SPLINE
  5
1C5
330
1F
100
AcDbEntity
  8
0
  6
Continuous
 62
     7
370
    15
100
AcDbSpline
210
0.0
220
0.0
230
1.0
 70
     8
 71
     3
 72
    16
 73
    12
 74
     0
 42
0.00000001
 43
0.00000001
 40
0.0
 40
0.0
 40
0.0
 40
0.0
 40
0.2500000000000149
 40
0.2500000000000149
 40
0.3750000000000241
 40
0.3750000000000241
 40
0.5000000000000333
 40
0.5000000000000333
 40
0.7500000000000167
 40
0.7500000000000167
 40
1.0
 40
1.0
 40
1.0
 40
1.0
 10
671.9706483103723
 20
26.81317896426566
 30
0.0
 10
672.1535862997137
 20
26.90787514371684
 30
0.0
 10
672.3695207007288
 20
26.96632001881877
 30
0.0
 10
672.7411074377501
 20
27.00566205119548
 30
0.0
 10
672.8727816355967
 20
27.01040695013787
 30
0.0
 10
673.1434159669036
 20
27.00425787946167
 30
0.0
 10
673.2833917059422
 20
26.99349507376148
 30
0.0
 10
673.7169281839679
 20
26.93971780652807
 30
0.0
 10
674.0285777112811
 20
26.87389705265025
 30
0.0
 10
674.6567351291903
 20
26.69549586920336
 30
0.0
 10
674.975212312503
 20
26.58331234417718
 30
0.0
 10
675.2981451730766
 20
26.44868011521556
 30
0.0
  0
ARC
  5
1C6
330
1F
100
AcDbEntity
  8
0
  6
Continuous
 62
     7
370
    15
100
AcDbCircle
 10
671.1771351096
 20
27.2162013813
 30
0.0
 40
4.1918720958412
100
AcDbArc
 50
332.7932356294
 51
349.4497498104
  0
SPLINE
  5
1C7
330
1F
100
AcDbEntity
  8
0
  6
Continuous
 62
     7
370
    15
100
AcDbSpline
210
0.0
220
0.0
230
1.0
 70
     8
 71
     3
 72
    10
 73
     6
 74
     0
 42
0.00000001
 43
0.00000001
 40
0.0
 40
0.0
 40
0.0
 40
0.0
 40
0.5
 40
0.5
 40
1.0
 40
1.0
 40
1.0
 40
1.0
 10
672.6263527393547
 20
31.33896863129987
 30
0.0
 10
672.5687520118369
 20
31.36492851914946
 30
0.0
 10
672.5140014874662
 20
31.38985440563372
 30
0.0
 10
672.4360333007241
 20
31.42554459436395
 30
0.0
 10
672.4135361555079
 20
31.43594311684278
 30
0.0
 10
672.4135492555612
 20
31.43597222807221
 30
0.0
  0
LINE
  5
1C8
330
1F
100
AcDbEntity
  8
0
  6
Continuous
 62
     7
370
    15
100
AcDbLine
 10
672.6263641614
 20
31.3389717031
 30
0.0
 11
690.0201021927
 21
23.4577326466
 31
0.0
  0
LINE
  5
1C9
330
1F
100
AcDbEntity
  8
0
  6
Continuous
 62
     7
370
    15
100
AcDbLine
 10
690.0201021927
 20
23.4577326466
 30
0.0
 11
691.367942025
 21
22.8494970489
 31
0.0
  0
LINE
  5
1CA
330
1F
100
AcDbEntity
  8
0
  6
Continuous
 62
     7
370
    15
100
AcDbLine
 10
691.367942025
 20
19.4618223597
 30
0.0
 11
691.367942025
 21
22.8494970489
 31
0.0
  0
SPLINE
  5
1CB
330
1F
100
AcDbEntity
  8
0
  6
Continuous
 62
     7
370
    15
100
AcDbSpline
210
0.0
220
0.0
230
1.0
 70
     8
 71
     3
 72
    10
 73
     6
 74
     0
 42
0.00000001
 43
0.00000001
 40
0.0
 40
0.0
 40
0.0
 40
0.0
 40
0.5
 40
0.5
 40
1.0
 40
1.0
 40
1.0
 40
1.0
 10
675.2981451730766
 20
26.44868011521556
 30
0.0
 10
677.9852930146528
 20
25.3283955371203
 30
0.0
 10
680.6693428496975
 20
24.1893115272788
 30
0.0
 10
686.0278035746677
 20
21.8649586819441
 30
0.0
 10
688.7023864028165
 20
20.68010181717417
 30
0.0
 10
691.3679419959419
 20
19.46182199256896
 30
0.0
  0
SPLINE
  5
1CC
330
1F
100
AcDbEntity
  8
0
  6
Continuous
 62
     7
370
    15
100
AcDbSpline
210
0.0
220
0.0
230
1.0
 70
     8
 71
     3
 72
    10
 73
     6
 74
     0
 42
0.00000001
 43
0.00000001
 40
0.0
 40
0.0
 40
0.0
 40
0.0
 40
0.5
 40
0.5
 40
1.0
 40
1.0
 40
1.0
 40
1.0
 10
674.9052329021852
 20
-19.01735255639977
 30
0.0
 10
677.5913961683979
 20
-17.91827315669547
 30
0.0
 10
680.2747955594044
 20
-16.80150554363288
 30
0.0
 10
685.6330321992252
 20
-14.5254514822675
 30
0.0
 10
688.3080177201919
 20
-13.36651548405024
 30
0.0
 10
690.9750303740325
 20
-12.17759420189127
 30
0.0
  0
ARC
  5
1CD
330
1F
100
AcDbEntity
  8
0
  6
Continuous
 62
     7
370
    15
100
AcDbCircle
 10
685.9394317887
 20
-14.7303727139
 30
0.0
 40
5.645700352755541
100
AcDbArc
 50
15.9441344552
 51
26.8826154655
  0
LINE
  5
1CE
330
1F
100
AcDbEntity
  8
0
  6
Continuous
 62
     7
370
    15
100
AcDbLine
 10
690.9750282067
 20
18.4598980833
 30
0.0
 11
674.9052285451
 21
25.2996651817
 31
0.0
  0
ARC
  5
1CF
330
1F
100
AcDbEntity
  8
0
  6
Continuous
 62
     7
370
    15
100
AcDbCircle
 10
685.9386008423
 20
21.0129839094
 30
0.0
 40
5.646578418105572
100
AcDbArc
 50
333.1184565449
 51
344.0553728023
  0
LINE
  5
1D0
330
1F
100
AcDbEntity
  8
0
  6
Continuous
 62
     7
370
    15
100
AcDbLine
 10
690.9750282067
 20
-12.1775896858
 30
0.0
 11
690.9750282067
 21
18.4598980833
 31
0.0
  0
ARC
  5
1D1
330
1F
100
AcDbEntity
  8
0
  6
Continuous
 62
     7
370
    15
100
AcDbCircle
 10
691.2017616092
 20
-13.346256069
 30
0.0
 40
1.190457538465481
100
AcDbArc
 50
50.587564446
 51
100.9795745791
  0
ARC
  5
1D2
330
1F
100
AcDbEntity
  8
0
  6
Continuous
 62
     7
370
    15
100
AcDbCircle
 10
691.1231510472
 20
-12.3804545612
 30
0.0
 40
0.8357001468676982
100
AcDbArc
 50
287.0326877156
 51
356.8405827708
  0
ARC
  5
1D3
330
1F
100
AcDbEntity
  8
0
  6
Continuous
 62
     7
370
    15
100
AcDbCircle
 10
691.2017119928
 20
19.6287603122
 30
0.0
 40
1.190640352523107
100
AcDbArc
 50
259.0245643177
 51
309.4082966572
  0
ARC
  5
1D4
330
1F
100
AcDbEntity
  8
0
  6
Continuous
 62
     7
370
    15
100
AcDbCircle
 10
691.123119115
 20
18.6627537667
 30
0.0
 40
0.8357325371045634
100
AcDbArc
 50
3.1599258008
 51
72.9657029511
  0
LINE
  5
1D5
330
1F
100
AcDbEntity
  8
0
  6
Continuous
 62
     7
370
    15
100
AcDbLine
 10
691.9575809735
 20
18.708821981
 30
0.0
 11
691.9575809735
 21
-12.4265135836
 31
0.0
  0
LINE
  5
1D6
330
1F
100
AcDbEntity
  8
0
  6
Continuous
 62
     7
370
    15
100
AcDbLine
 10
691.9575809735
 20
21.9348041702
 30
0.0
 11
691.9575809735
 21
18.708821981
 31
0.0
  0
SPLINE
  5
1D7
330
1F
100
AcDbEntity
  8
0
  6
Continuous
 62
     7
370
    15
100
AcDbSpline
210
0.0
220
0.0
230
1.0
 70
     8
 71
     3
 72
    11
 73
     7
 74
     0
 42
0.00000001
 43
0.00000001
 40
0.0
 40
0.0
 40
0.0
 40
0.0
 40
0.293322866071425
 40
0.5866077361330518
 40
0.8805037111238823
 40
1.0
 40
1.0
 40
1.0
 40
1.0
 10
691.3679420250473
 20
22.84949704894784
 30
0.0
 10
691.4660063983127
 20
22.79310589262967
 30
0.0
 10
691.6621224419306
 20
22.68033088470492
 30
0.0
 10
691.8631953674868
 20
22.39986481970302
 30
0.0
 10
691.9492006848251
 20
22.13841176857889
 30
0.0
 10
691.9557017561738
 20
21.98046165763937
 30
0.0
 10
691.9575809734879
 20
21.9348041702247
 30
0.0
  0
LINE
  5
1D8
330
1F
100
AcDbEntity
  8
0
  6
Continuous
 62
     7
370
    15
100
AcDbLine
 10
691.9575809735
 20
-12.4265135836
 30
0.0
 11
691.9575809735
 21
-15.7122494291
 31
0.0
  0
LWPOLYLINE
  5
1D9
330
1F
100
AcDbEntity
  8
0
  6
Continuous
 62
     7
370
    15
100
AcDbPolyline
 90
        3
 70
   128
 43
0.0
 10
666.2605880993
 20
-26.3927163195
 10
666.2587403554
 20
-26.3882608723
 10
666.256862809
 20
-26.3838203262
  0
SPLINE
  5
1DA
330
1F
100
AcDbEntity
  8
0
  6
Continuous
 62
     7
370
    15
100
AcDbSpline
210
0.0
220
0.0
230
1.0
 70
     8
 71
     3
 72
    56
 73
    52
 74
     0
 42
0.00000001
 43
0.00000001
 40
0.0
 40
0.0
 40
0.0
 40
0.0
 40
0.03125
 40
0.03125
 40
0.046875
 40
0.046875
 40
0.0546875
 40
0.0546875
 40
0.05859375
 40
0.05859375
 40
0.0625
 40
0.0625
 40
0.125
 40
0.125
 40
0.1875
 40
0.1875
 40
0.25
 40
0.25
 40
0.3125
 40
0.3125
 40
0.375
 40
0.375
 40
0.4375
 40
0.4375
 40
0.46875
 40
0.46875
 40
0.5
 40
0.5
 40
0.625
 40
0.625
 40
0.6875
 40
0.6875
 40
0.71875
 40
0.71875
 40
0.734375
 40
0.734375
 40
0.75
 40
0.75
 40
0.875
 40
0.875
 40
0.90625
 40
0.90625
 40
0.921875
 40
0.921875
 40
0.9296875
 40
0.9296875
 40
0.93359375
 40
0.93359375
 40
0.9375
 40
0.9375
 40
1.0
 40
1.0
 40
1.0
 40
1.0
 10
665.2972303280939
 20
-27.05295617095513
 30
0.0
 10
665.2978205420536
 20
-27.04688014281351
 30
0.0
 10
665.2984348791896
 20
-27.0415190345758
 30
0.0
 10
665.2993925701937
 20
-27.03457557142047
 30
0.0
 10
665.299717831382
 20
-27.03244403754656
 30
0.0
 10
665.3002147694449
 20
-27.02952367939718
 30
0.0
 10
665.3003819231793
 20
-27.02859637882127
 30
0.0
 10
665.300634915351
 20
-27.02727492544699
 30
0.0
 10
665.3007196230031
 20
-27.02684602359348
 30
0.0
 10
665.3008897921643
 20
-27.02601142625166
 30
0.0
 10
665.3009261984535
 20
-27.02583093682134
 30
0.0
 10
665.3032193906232
 20
-27.01530319337062
 30
0.0
 10
665.3065845262496
 20
-27.00544235572225
 30
0.0
 10
665.3166329162103
 20
-26.98390375367132
 30
0.0
 10
665.3231491750826
 20
-26.97259432901289
 30
0.0
 10
665.3391658206114
 20
-26.94890508895251
 30
0.0
 10
665.3489652886695
 20
-26.93617401477893
 30
0.0
 10
665.3703520269623
 20
-26.9110561555089
 30
0.0
 10
665.3828003444806
 20
-26.89788349466449
 30
0.0
 10
665.4112068762605
 20
-26.87032136003486
 30
0.0
 10
665.4276345332481
 20
-26.85553454238768
 30
0.0
 10
665.4621219730639
 20
-26.82634379796661
 30
0.0
 10
665.4807630035116
 20
-26.81147825596636
 30
0.0
 10
665.5108205149927
 20
-26.78878930180561
 30
0.0
 10
665.5211890131214
 20
-26.78116119566082
 30
0.0
 10
665.5426246646485
 20
-26.76577700097524
 30
0.0
 10
665.5530722091964
 20
-26.75844527495511
 30
0.0
 10
665.6132526586176
 20
-26.71722842221025
 30
0.0
 10
665.6637328429225
 20
-26.68502811639706
 30
0.0
 10
665.7429568565311
 20
-26.63800425103247
 30
0.0
 10
665.7699488172592
 20
-26.62254198410627
 30
0.0
 10
665.8113126926395
 20
-26.59967803814584
 30
0.0
 10
665.8252466401475
 20
-26.59211160641189
 30
0.0
 10
665.8463665449816
 20
-26.58084542058142
 30
0.0
 10
665.8534430105216
 20
-26.57710393401291
 30
0.0
 10
665.8676689361256
 20
-26.56964894867112
 30
0.0
 10
665.8743150870278
 20
-26.56619456012069
 30
0.0
 10
665.9435184854187
 20
-26.53056773395426
 30
0.0
 10
666.0047513290615
 20
-26.50107444161404
 30
0.0
 10
666.0827254621131
 20
-26.4661641332517
 30
0.0
 10
666.098543175854
 20
-26.45922580015933
 30
0.0
 10
666.1226040771611
 20
-26.44888416250277
 30
0.0
 10
666.1306800993793
 20
-26.44544792488598
 30
0.0
 10
666.1428777153806
 20
-26.44031004597075
 30
0.0
 10
666.1469575178268
 20
-26.43860016578875
 30
0.0
 10
666.1530981171644
 20
-26.43603946543227
 30
0.0
 10
666.1551484662217
 20
-26.43518658529148
 30
0.0
 10
666.159256129559
 20
-26.43348219832506
 30
0.0
 10
666.1620332629223
 20
-26.43233350713858
 30
0.0
 10
666.1848298856677
 20
-26.42292169808821
 30
0.0
 10
666.2172326463758
 20
-26.40990122349104
 30
0.0
 10
666.2605825200545
 20
-26.39271913538083
 30
0.0
  0
LWPOLYLINE
  5
1DB
330
1F
100
AcDbEntity
  8
0
  6
Continuous
 62
     7
370
    15
100
AcDbPolyline
 90
        3
 70
   128
 43
0.0
 10
665.2972280282
 20
-27.0529569696
 10
665.2953802842
 20
-27.048456819
 10
665.2935027379
 20
-27.0439566683
  0
SPLINE
  5
1DC
330
1F
100
AcDbEntity
  8
0
  6
Continuous
 62
     7
370
    15
100
AcDbSpline
210
0.0
220
0.0
230
1.0
 70
     8
 71
     3
 72
     8
 73
     4
 74
     0
 42
0.00000001
 43
0.00000001
 40
0.0
 40
0.0
 40
0.0
 40
0.0
 40
1.0
 40
1.0
 40
1.0
 40
1.0
 10
666.3932482814982
 20
-26.82372619319306
 30
0.0
 10
666.3921273600995
 20
-26.8490444684619
 30
0.0
 10
666.391006438702
 20
-26.87376975129926
 30
0.0
 10
666.3898855173028
 20
-26.89790051914648
 30
0.0
  0
SPLINE
  5
1DD
330
1F
100
AcDbEntity
  8
0
  6
Continuous
 62
     7
370
    15
100
AcDbSpline
210
0.0
220
0.0
230
1.0
 70
     8
 71
     3
 72
    54
 73
    50
 74
     0
 42
0.00000001
 43
0.00000001
 40
0.0
 40
0.0
 40
0.0
 40
0.0
 40
0.03125
 40
0.03125
 40
0.046875
 40
0.046875
 40
0.0546875
 40
0.0546875
 40
0.05859375
 40
0.05859375
 40
0.0625
 40
0.0625
 40
0.125
 40
0.125
 40
0.1875
 40
0.1875
 40
0.21875
 40
0.21875
 40
0.25
 40
0.25
 40
0.375
 40
0.375
 40
0.4375
 40
0.4375
 40
0.5
 40
0.5
 40
0.625
 40
0.625
 40
0.6875
 40
0.6875
 40
0.71875
 40
0.71875
 40
0.75
 40
0.75
 40
0.8125
 40
0.8125
 40
0.875
 40
0.875
 40
0.90625
 40
0.90625
 40
0.921875
 40
0.921875
 40
0.9296875
 40
0.9296875
 40
0.93359375
 40
0.93359375
 40
0.9375
 40
0.9375
 40
1.0
 40
1.0
 40
1.0
 40
1.0
 10
666.3898855173028
 20
-26.89790051914648
 30
0.0
 10
666.3660690923739
 20
-26.90686447502827
 30
0.0
 10
666.3452387735902
 20
-26.91467422163826
 30
0.0
 10
666.3184724539959
 20
-26.92465779443293
 30
0.0
 10
666.31029687393
 20
-26.92769714383636
 30
0.0
 10
666.2991532935296
 20
-26.93182343601064
 30
0.0
 10
666.2956253983458
 20
-26.93312674472637
 30
0.0
 10
666.2906135029948
 20
-26.93497352839638
 30
0.0
 10
666.2889895291152
 20
-26.93557109305117
 30
0.0
 10
666.2858348971642
 20
-26.93673016314316
 30
0.0
 10
666.2849676548716
 20
-26.93704870996155
 30
0.0
 10
666.2484615837891
 20
-26.9504181004607
 30
0.0
 10
666.2137084480248
 20
-26.96278211143155
 30
0.0
 10
666.1397062204242
 20
-26.98834271351566
 30
0.0
 10
666.1040505962383
 20
-27.0002838419687
 30
0.0
 10
666.052585394381
 20
-27.01692950343237
 30
0.0
 10
666.0357666994989
 20
-27.02226703613669
 30
0.0
 10
666.0028020545421
 20
-27.03251865609174
 30
0.0
 10
665.98759405911
 20
-27.03715380567567
 30
0.0
 10
665.9038563975397
 20
-27.06205648967483
 30
0.0
 10
665.8406445492307
 20
-27.07906082778319
 30
0.0
 10
665.751494198188
 20
-27.10008175182057
 30
0.0
 10
665.7227219847439
 20
-27.10634079018073
 30
0.0
 10
665.6670666983296
 20
-27.11734078337227
 30
0.0
 10
665.6406723758961
 20
-27.12200694279479
 30
0.0
 10
665.5613906160846
 20
-27.13413969392242
 30
0.0
 10
665.5150254407645
 20
-27.13872855153373
 30
0.0
 10
665.4552116746149
 20
-27.14027967594845
 30
0.0
 10
665.4368960853702
 20
-27.13990795240095
 30
0.0
 10
665.4118562007111
 20
-27.13800626007773
 30
0.0
 10
665.4039151556925
 20
-27.13714834058953
 30
0.0
 10
665.3888442320582
 20
-27.13498258130265
 30
0.0
 10
665.3814906088858
 20
-27.13362370726249
 30
0.0
 10
665.3619889563118
 20
-27.12917554731822
 30
0.0
 10
665.3505713017563
 20
-27.12520326123474
 30
0.0
 10
665.3309028869661
 20
-27.11521882501039
 30
0.0
 10
665.3225494091397
 20
-27.10909812175635
 30
0.0
 10
665.3127025159154
 20
-27.09869194996054
 30
0.0
 10
665.3098970501678
 20
-27.09508130821126
 30
0.0
 10
665.3064040995372
 20
-27.08945496963524
 30
0.0
 10
665.3053589906588
 20
-27.08754446005121
 30
0.0
 10
665.303970139339
 20
-27.08462640655512
 30
0.0
 10
665.3035369908986
 20
-27.08364500715687
 30
0.0
 10
665.3029319712376
 20
-27.08215987353962
 30
0.0
 10
665.302737748517
 20
-27.08166265657766
 30
0.0
 10
665.302364204076
 20
-27.08066388407807
 30
0.0
 10
665.302129664241
 20
-27.08000049479967
 30
0.0
 10
665.3001465614335
 20
-27.07418839945819
 30
0.0
 10
665.2985523366464
 20
-27.06533538219094
 30
0.0
 10
665.2972303280939
 20
-27.05295617095513
 30
0.0
  0
SPLINE
  5
1DE
330
1F
100
AcDbEntity
  8
0
  6
Continuous
 62
     7
370
    15
100
AcDbSpline
210
0.0
220
0.0
230
1.0
 70
     8
 71
     3
 72
    56
 73
    52
 74
     0
 42
0.00000001
 43
0.00000001
 40
0.0
 40
0.0
 40
0.0
 40
0.0
 40
0.03125
 40
0.03125
 40
0.046875
 40
0.046875
 40
0.0546875
 40
0.0546875
 40
0.05859375
 40
0.05859375
 40
0.0625
 40
0.0625
 40
0.125
 40
0.125
 40
0.25
 40
0.25
 40
0.3125
 40
0.3125
 40
0.34375
 40
0.34375
 40
0.359375
 40
0.359375
 40
0.375
 40
0.375
 40
0.4375
 40
0.4375
 40
0.46875
 40
0.46875
 40
0.484375
 40
0.484375
 40
0.4921875
 40
0.4921875
 40
0.49609375
 40
0.49609375
 40
0.5
 40
0.5
 40
0.625
 40
0.625
 40
0.6875
 40
0.6875
 40
0.71875
 40
0.71875
 40
0.734375
 40
0.734375
 40
0.7421875
 40
0.7421875
 40
0.74609375
 40
0.74609375
 40
0.75
 40
0.75
 40
1.0
 40
1.0
 40
1.0
 40
1.0
 10
666.2605825200545
 20
-26.39271913538083
 30
0.0
 10
666.2796156817806
 20
-26.38553731284063
 30
0.0
 10
666.296287671806
 20
-26.37926893618422
 30
0.0
 10
666.3177538993953
 20
-26.37123656590085
 30
0.0
 10
666.3243190156779
 20
-26.36878747505009
 30
0.0
 10
666.333281250731
 20
-26.36545639200058
 30
0.0
 10
666.3361210891869
 20
-26.36440312319629
 30
0.0
 10
666.3401594870281
 20
-26.36290885892342
 30
0.0
 10
666.3414687263347
 20
-26.36242504398856
 30
0.0
 10
666.3440134183337
 20
-26.36148596053933
 30
0.0
 10
666.3445484888326
 20
-26.36128838907603
 30
0.0
 10
666.376830495672
 20
-26.34941061999352
 30
0.0
 10
666.40434821188
 20
-26.33961574499816
 30
0.0
 10
666.4871885626609
 20
-26.3113468336103
 30
0.0
 10
666.5439490314742
 20
-26.29353110594038
 30
0.0
 10
666.6269497850186
 20
-26.26958711143293
 30
0.0
 10
666.6540305053851
 20
-26.26213834710564
 30
0.0
 10
666.6937722897121
 20
-26.25175791103288
 30
0.0
 10
666.706873001784
 20
-26.24842987457174
 30
0.0
 10
666.7263042458363
 20
-26.24363513018266
 30
0.0
 10
666.7327446898446
 20
-26.24206976650997
 30
0.0
 10
666.7455523031756
 20
-26.23900465878526
 30
0.0
 10
666.7527665740791
 20
-26.23730861092147
 30
0.0
 10
666.7801837260777
 20
-26.23095507367456
 30
0.0
 10
666.8034731854225
 20
-26.22585959151871
 30
0.0
 10
666.8404409810591
 20
-26.21818348901789
 30
0.0
 10
666.8531025140412
 20
-26.21561927313667
 30
0.0
 10
666.8726032151691
 20
-26.21176262348468
 30
0.0
 10
666.8791881824874
 20
-26.21047535044152
 30
0.0
 10
666.8891927338786
 20
-26.20854157982297
 30
0.0
 10
666.8925487677449
 20
-26.20789651263811
 30
0.0
 10
666.8976145936474
 20
-26.20692816062728
 30
0.0
 10
666.8993084981321
 20
-26.20660525140955
 30
0.0
 10
666.9027068988028
 20
-26.20595917648289
 30
0.0
 10
666.9049281740131
 20
-26.20553829531194
 30
0.0
 10
666.9442976034019
 20
-26.19809410389423
 30
0.0
 10
666.9862427925768
 20
-26.19078368340472
 30
0.0
 10
667.0548137355356
 20
-26.17959509899912
 30
0.0
 10
667.0786129097215
 20
-26.17582814925892
 30
0.0
 10
667.1157249607993
 20
-26.1701085868834
 30
0.0
 10
667.1283311927918
 20
-26.16819052687927
 30
0.0
 10
667.1475938632303
 20
-26.16529435659382
 30
0.0
 10
667.1540736404514
 20
-26.16432578544226
 30
0.0
 10
667.1638816368957
 20
-26.16286792662442
 30
0.0
 10
667.1671656908123
 20
-26.16238113994049
 30
0.0
 10
667.1721138543408
 20
-26.16164967991852
 30
0.0
 10
667.1737669226256
 20
-26.16140564657457
 30
0.0
 10
667.1770804200798
 20
-26.1609171482699
 30
0.0
 10
667.1793266378683
 20
-26.16058655156281
 30
0.0
 10
667.2494175023807
 20
-26.15028070339609
 30
0.0
 10
667.3357905395619
 20
-26.13862782083201
 30
0.0
 10
667.4395274297686
 20
-26.12491007768048
 30
0.0
  0
SPLINE
  5
1DF
330
1F
100
AcDbEntity
  8
0
  6
Continuous
 62
     7
370
    15
100
AcDbSpline
210
0.0
220
0.0
230
1.0
 70
     8
 71
     3
 72
     8
 73
     4
 74
     0
 42
0.00000001
 43
0.00000001
 40
0.0
 40
0.0
 40
0.0
 40
0.0
 40
1.0
 40
1.0
 40
1.0
 40
1.0
 10
667.4395274297686
 20
-26.12491007768048
 30
0.0
 10
667.732791510542
 20
-26.08730280872978
 30
0.0
 10
668.0232703233085
 20
-26.04641554071912
 30
0.0
 10
668.3109638825201
 20
-26.00219680738586
 30
0.0
  0
SPLINE
  5
1E0
330
1F
100
AcDbEntity
  8
0
  6
Continuous
 62
     7
370
    15
100
AcDbSpline
210
0.0
220
0.0
230
1.0
 70
     8
 71
     3
 72
     8
 73
     4
 74
     0
 42
0.00000001
 43
0.00000001
 40
0.0
 40
0.0
 40
0.0
 40
0.0
 40
1.0
 40
1.0
 40
1.0
 40
1.0
 10
668.3109638825201
 20
-26.00219680738586
 30
0.0
 10
668.3135930425592
 20
-25.87569414242435
 30
0.0
 10
668.3112263938137
 20
-25.73706167801124
 30
0.0
 10
668.3038639360484
 20
-25.58642072273859
 30
0.0
  0
LINE
  5
1E1
330
1F
100
AcDbEntity
  8
0
  6
Continuous
 62
     7
370
    15
100
AcDbLine
 10
668.3038651246
 20
-25.5864144873
 30
0.0
 11
668.6169683236
 21
-25.4648657154
 31
0.0
  0
SPLINE
  5
1E2
330
1F
100
AcDbEntity
  8
0
  6
Continuous
 62
     7
370
    15
100
AcDbSpline
210
0.0
220
0.0
230
1.0
 70
     8
 71
     3
 72
     8
 73
     4
 74
     0
 42
0.00000001
 43
0.00000001
 40
0.0
 40
0.0
 40
0.0
 40
0.0
 40
1.0
 40
1.0
 40
1.0
 40
1.0
 10
668.6169545804441
 20
-25.46486423446756
 30
0.0
 10
668.6279147812763
 20
-25.68658622628639
 30
0.0
 10
668.6280157175446
 20
-25.8821775492534
 30
0.0
 10
668.6172573892961
 20
-26.05127514531091
 30
0.0
  0
SPLINE
  5
1E3
330
1F
100
AcDbEntity
  8
0
  6
Continuous
 62
     7
370
    15
100
AcDbSpline
210
0.0
220
0.0
230
1.0
 70
     8
 71
     3
 72
     8
 73
     4
 74
     0
 42
0.00000001
 43
0.00000001
 40
0.0
 40
0.0
 40
0.0
 40
0.0
 40
1.0
 40
1.0
 40
1.0
 40
1.0
 10
668.6172573892961
 20
-26.05127514531091
 30
0.0
 10
668.1799111051733
 20
-26.12883466514848
 30
0.0
 10
667.7359855550467
 20
-26.1983911716713
 30
0.0
 10
667.2854806125164
 20
-26.26013019330686
 30
0.0
  0
SPLINE
  5
1E4
330
1F
100
AcDbEntity
  8
0
  6
Continuous
 62
     7
370
    15
100
AcDbSpline
210
0.0
220
0.0
230
1.0
 70
     8
 71
     3
 72
    68
 73
    64
 74
     0
 42
0.00000001
 43
0.00000001
 40
0.0
 40
0.0
 40
0.0
 40
0.0
 40
0.125
 40
0.125
 40
0.1875
 40
0.1875
 40
0.21875
 40
0.21875
 40
0.234375
 40
0.234375
 40
0.25
 40
0.25
 40
0.3125
 40
0.3125
 40
0.34375
 40
0.34375
 40
0.359375
 40
0.359375
 40
0.3671875
 40
0.3671875
 40
0.375
 40
0.375
 40
0.4375
 40
0.4375
 40
0.46875
 40
0.46875
 40
0.484375
 40
0.484375
 40
0.4921875
 40
0.4921875
 40
0.49609375
 40
0.49609375
 40
0.5
 40
0.5
 40
0.5625
 40
0.5625
 40
0.59375
 40
0.59375
 40
0.609375
 40
0.609375
 40
0.6171875
 40
0.6171875
 40
0.625
 40
0.625
 40
0.6875
 40
0.6875
 40
0.71875
 40
0.71875
 40
0.75
 40
0.75
 40
0.875
 40
0.875
 40
0.90625
 40
0.90625
 40
0.921875
 40
0.921875
 40
0.9296875
 40
0.9296875
 40
0.93359375
 40
0.93359375
 40
0.9375
 40
0.9375
 40
1.0
 40
1.0
 40
1.0
 40
1.0
 10
667.2854806125164
 20
-26.26013019330686
 30
0.0
 10
667.2393274016058
 20
-26.26645652879256
 30
0.0
 10
667.1975838952134
 20
-26.27216462651052
 30
0.0
 10
667.1415828538236
 20
-26.2799009897936
 30
0.0
 10
667.1240182285369
 20
-26.28234190482193
 30
0.0
 10
667.0993248733712
 20
-26.28580698870625
 30
0.0
 10
667.09136935211
 20
-26.28692928674425
 30
0.0
 10
667.0798494659094
 20
-26.28856481727485
 30
0.0
 10
667.0760784031245
 20
-26.28910200707935
 30
0.0
 10
667.0686740761182
 20
-26.29016059757397
 30
0.0
 10
667.0657185699855
 20
-26.29058433906423
 30
0.0
 10
667.0445079548457
 20
-26.29364060905917
 30
0.0
 10
667.026383818482
 20
-26.29632644004065
 30
0.0
 10
666.9974641475584
 20
-26.30070961883679
 30
0.0
 10
666.9875353461874
 20
-26.30222974377908
 30
0.0
 10
666.9722087775365
 20
-26.30459761981174
 30
0.0
 10
666.9670276935539
 20
-26.3054015261702
 30
0.0
 10
666.9591477259311
 20
-26.30662918974658
 30
0.0
 10
666.9565030131155
 20
-26.30704204491866
 30
0.0
 10
666.9511774736012
 20
-26.30787500332407
 30
0.0
 10
666.9489394753483
 20
-26.30822558372584
 30
0.0
 10
666.9206640665792
 20
-26.31266474408622
 30
0.0
 10
666.8982033290225
 20
-26.31624227686149
 30
0.0
 10
666.8685216613777
 20
-26.32108290071849
 30
0.0
 10
666.8592960119444
 20
-26.32260875471801
 30
0.0
 10
666.8464598974671
 20
-26.3247686932262
 30
0.0
 10
666.8423482525868
 20
-26.3254671942825
 30
0.0
 10
666.8364313751845
 20
-26.32648302191348
 30
0.0
 10
666.8345008477033
 20
-26.32681631017056
 30
0.0
 10
666.8316677039612
 20
-26.32730829519037
 30
0.0
 10
666.8307337639606
 20
-26.32747096561758
 30
0.0
 10
666.828886766452
 20
-26.32779366276949
 30
0.0
 10
666.8285971175667
 20
-26.32784407520342
 30
0.0
 10
666.8026546945514
 20
-26.33240554612121
 30
0.0
 10
666.780052325774
 20
-26.33652262456468
 30
0.0
 10
666.74886981664
 20
-26.34245289515402
 30
0.0
 10
666.7389291542672
 20
-26.34438871652225
 30
0.0
 10
666.7246984217163
 20
-26.34723299019995
 30
0.0
 10
666.7200682210339
 20
-26.3481711689128
 30
0.0
 10
666.7132929852625
 20
-26.34956378623396
 30
0.0
 10
666.7110629175473
 20
-26.35002555004196
 30
0.0
 10
666.7066594705344
 20
-26.35094422796949
 30
0.0
 10
666.7051684349436
 20
-26.35125656212173
 30
0.0
 10
666.6797220257772
 20
-26.35664833311355
 30
0.0
 10
666.6571517450597
 20
-26.36176856681902
 30
0.0
 10
666.6233694484617
 20
-26.36994926655556
 30
0.0
 10
666.6121208703424
 20
-26.37275954213661
 30
0.0
 10
666.5896480889297
 20
-26.37854815848881
 30
0.0
 10
666.5791236491663
 20
-26.38133533361184
 30
0.0
 10
666.5195647521164
 20
-26.39760599515007
 30
0.0
 10
666.470287245822
 20
-26.41254319923142
 30
0.0
 10
666.4101932689088
 20
-26.43247657785833
 30
0.0
 10
666.3979495809377
 20
-26.43664200467807
 30
0.0
 10
666.3792467100992
 20
-26.44315874007253
 30
0.0
 10
666.3729561966726
 20
-26.44537575019601
 30
0.0
 10
666.3634360918121
 20
-26.44876846360822
 30
0.0
 10
666.3602486677385
 20
-26.44991056772905
 30
0.0
 10
666.355446447948
 20
-26.4516405292381
 30
0.0
 10
666.3538421940711
 20
-26.452219983959
 30
0.0
 10
666.3506266584241
 20
-26.45338449610454
 30
0.0
 10
666.3484380200722
 20
-26.45417973763611
 30
0.0
 10
666.3308015547728
 20
-26.46060021473107
 30
0.0
 10
666.3056831282059
 20
-26.46995514641315
 30
0.0
 10
666.2720452997462
 20
-26.4826220324749
 30
0.0
  0
SPLINE
  5
1E5
330
1F
100
AcDbEntity
  8
0
  6
Continuous
 62
     7
370
    15
100
AcDbSpline
210
0.0
220
0.0
230
1.0
 70
     8
 71
     3
 72
    50
 73
    46
 74
     0
 42
0.00000001
 43
0.00000001
 40
0.0
 40
0.0
 40
0.0
 40
0.0
 40
0.03125
 40
0.03125
 40
0.046875
 40
0.046875
 40
0.0546875
 40
0.0546875
 40
0.0625
 40
0.0625
 40
0.09375
 40
0.09375
 40
0.109375
 40
0.109375
 40
0.125
 40
0.125
 40
0.1875
 40
0.1875
 40
0.25
 40
0.25
 40
0.375
 40
0.375
 40
0.4375
 40
0.4375
 40
0.46875
 40
0.46875
 40
0.5
 40
0.5
 40
0.5625
 40
0.5625
 40
0.625
 40
0.625
 40
0.75
 40
0.75
 40
0.875
 40
0.875
 40
0.90625
 40
0.90625
 40
0.921875
 40
0.921875
 40
0.9296875
 40
0.9296875
 40
0.9375
 40
0.9375
 40
1.0
 40
1.0
 40
1.0
 40
1.0
 10
666.2720452997462
 20
-26.4826220324749
 30
0.0
 10
666.2570624271584
 20
-26.48851919477818
 30
0.0
 10
666.2439554895832
 20
-26.49371834467057
 30
0.0
 10
666.2271089862597
 20
-26.50047003403441
 30
0.0
 10
666.2219624689628
 20
-26.50254609085709
 30
0.0
 10
666.214946168734
 20
-26.50539841098443
 30
0.0
 10
666.2127246479438
 20
-26.50630555681757
 30
0.0
 10
666.2085160982689
 20
-26.50803259215753
 30
0.0
 10
666.2071174402436
 20
-26.50860821313328
 30
0.0
 10
666.1948266712874
 20
-26.51371085890736
 30
0.0
 10
666.1843627771668
 20
-26.51815499828686
 30
0.0
 10
666.1677200175524
 20
-26.52536422303806
 30
0.0
 10
666.1620146112753
 20
-26.52785779943071
 30
0.0
 10
666.1502881592431
 20
-26.53302593840312
 30
0.0
 10
666.14361751797
 20
-26.53599119502081
 30
0.0
 10
666.115971168091
 20
-26.54836293840818
 30
0.0
 10
666.094256601778
 20
-26.55844471634794
 30
0.0
 10
666.0516324963321
 20
-26.57897413175675
 30
0.0
 10
666.0299954274807
 20
-26.58979882585283
 30
0.0
 10
665.97065694001
 20
-26.62055214721323
 30
0.0
 10
665.9329105759924
 20
-26.64157688769961
 30
0.0
 10
665.8790099714105
 20
-26.67385751976925
 30
0.0
 10
665.8614962601239
 20
-26.68474144985328
 30
0.0
 10
665.8359054285552
 20
-26.70124607830107
 30
0.0
 10
665.8274884405923
 20
-26.70677739739299
 30
0.0
 10
665.8108810431206
 20
-26.71789829565305
 30
0.0
 10
665.8022523705528
 20
-26.7237927071427
 30
0.0
 10
665.7793357988824
 20
-26.73973224735068
 30
0.0
 10
665.7648677551672
 20
-26.7502134804041
 30
0.0
 10
665.737551009201
 20
-26.77087825970168
 30
0.0
 10
665.7239569179576
 20
-26.78164285926238
 30
0.0
 10
665.6871280833805
 20
-26.81234040101077
 30
0.0
 10
665.6676164774372
 20
-26.83074487704143
 30
0.0
 10
665.6370081230938
 20
-26.86528688216897
 30
0.0
 10
665.6254169647284
 20
-26.88177519339641
 30
0.0
 10
665.6157191446497
 20
-26.90106063399816
 30
0.0
 10
665.6140675884766
 20
-26.9047661928197
 30
0.0
 10
665.612022265981
 20
-26.9100977415026
 30
0.0
 10
665.6114124937765
 20
-26.91183712607711
 30
0.0
 10
665.6106058384106
 20
-26.91438956794778
 30
0.0
 10
665.6103549537788
 20
-26.91523094273554
 30
0.0
 10
665.6098891854956
 20
-26.91689482434001
 30
0.0
 10
665.6096108320868
 20
-26.91797944531049
 30
0.0
 10
665.6084101114506
 20
-26.92293811991578
 30
0.0
 10
665.6075216545958
 20
-26.92934151801302
 30
0.0
 10
665.6068120455335
 20
-26.93768444091715
 30
0.0
  0
SPLINE
  5
1E6
330
1F
100
AcDbEntity
  8
0
  6
Continuous
 62
     7
370
    15
100
AcDbSpline
210
0.0
220
0.0
230
1.0
 70
     8
 71
     3
 72
    52
 73
    48
 74
     0
 42
0.00000001
 43
0.00000001
 40
0.0
 40
0.0
 40
0.0
 40
0.0
 40
0.03125
 40
0.03125
 40
0.046875
 40
0.046875
 40
0.0546875
 40
0.0546875
 40
0.0625
 40
0.0625
 40
0.09375
 40
0.09375
 40
0.125
 40
0.125
 40
0.25
 40
0.25
 40
0.375
 40
0.375
 40
0.4375
 40
0.4375
 40
0.46875
 40
0.46875
 40
0.484375
 40
0.484375
 40
0.5
 40
0.5
 40
0.625
 40
0.625
 40
0.6875
 40
0.6875
 40
0.71875
 40
0.71875
 40
0.734375
 40
0.734375
 40
0.75
 40
0.75
 40
0.8125
 40
0.8125
 40
0.84375
 40
0.84375
 40
0.859375
 40
0.859375
 40
0.8671875
 40
0.8671875
 40
0.875
 40
0.875
 40
1.0
 40
1.0
 40
1.0
 40
1.0
 10
665.6068120455335
 20
-26.93768444091715
 30
0.0
 10
665.607171213615
 20
-26.94207680857211
 30
0.0
 10
665.6076117680119
 20
-26.94584714775428
 30
0.0
 10
665.608394679476
 20
-26.95058514918014
 30
0.0
 10
665.608675996587
 20
-26.95201151821414
 30
0.0
 10
665.6091284921874
 20
-26.95392314602471
 30
0.0
 10
665.6092844107101
 20
-26.95452236475363
 30
0.0
 10
665.6096064210666
 20
-26.95564503967304
 30
0.0
 10
665.6097014465199
 20
-26.95596686429291
 30
0.0
 10
665.6109126708725
 20
-26.95940338471334
 30
0.0
 10
665.6122603105324
 20
-26.9620943150635
 30
0.0
 10
665.6157129102081
 20
-26.96735640435361
 30
0.0
 10
665.6179367560491
 20
-26.97004769132871
 30
0.0
 10
665.6297604278916
 20
-26.98199490813447
 30
0.0
 10
665.6441795836348
 20
-26.98907342703338
 30
0.0
 10
665.6818647191219
 20
-26.99806686778802
 30
0.0
 10
665.7058021932509
 20
-26.9998147494408
 30
0.0
 10
665.7493507640222
 20
-26.99836010524512
 30
0.0
 10
665.7651406808756
 20
-26.99719577493575
 30
0.0
 10
665.7907361460502
 20
-26.99443560613002
 30
0.0
 10
665.7995863994241
 20
-26.99334660183489
 30
0.0
 10
665.8133394269588
 20
-26.99146033838862
 30
0.0
 10
665.8180033773826
 20
-26.99078945758199
 30
0.0
 10
665.8274904940547
 20
-26.98936355226189
 30
0.0
 10
665.8327159673336
 20
-26.98854312481477
 30
0.0
 10
665.8732201715034
 20
-26.98195836843184
 30
0.0
 10
665.9128586915817
 20
-26.97371737687962
 30
0.0
 10
665.9777686462567
 20
-26.95782853571815
 30
0.0
 10
666.0003139935748
 20
-26.95194424927874
 30
0.0
 10
666.035495058191
 20
-26.94224159099723
 30
0.0
 10
666.0474492536697
 20
-26.93886132631934
 30
0.0
 10
666.0657213077976
 20
-26.93357251961631
 30
0.0
 10
666.0718687859919
 20
-26.93177318198703
 30
0.0
 10
666.0842773293502
 20
-26.92810180693606
 30
0.0
 10
666.0911581567317
 20
-26.92604256761577
 30
0.0
 10
666.1196486388916
 20
-26.91743689239953
 30
0.0
 10
666.1432211376443
 20
-26.91006841854465
 30
0.0
 10
666.1797500553104
 20
-26.89829297266075
 30
0.0
 10
666.1921213894552
 20
-26.89424736375407
 30
0.0
 10
666.2109709330571
 20
-26.88799861581567
 30
0.0
 10
666.2173028713216
 20
-26.8858856437966
 30
0.0
 10
666.2268739143144
 20
-26.88267114370066
 30
0.0
 10
666.2300764512447
 20
-26.88159213664015
 30
0.0
 10
666.2365059036375
 20
-26.87941911525368
 30
0.0
 10
666.2406264775549
 20
-26.8780211966248
 30
0.0
 10
666.2804990642013
 20
-26.86446182102767
 30
0.0
 10
666.330591199565
 20
-26.84662931915357
 30
0.0
 10
666.3932482814982
 20
-26.82372619319306
 30
0.0
  0
LWPOLYLINE
  5
1E7
330
1F
100
AcDbEntity
  8
0
  6
Continuous
 62
     7
370
    15
100
AcDbPolyline
 90
        3
 70
   128
 43
0.0
 10
667.4395381707
 20
-26.1249126505
 10
667.4376606244
 20
-26.120427401
 10
667.4358128804
 20
-26.1159421515
  0
LINE
  5
1E8
330
1F
100
AcDbEntity
  8
0
  6
Continuous
 62
     7
370
    15
100
AcDbLine
 10
668.6169683236
 20
-25.4648657154
 30
0.0
 11
668.6132430333
 21
-25.4559697222
 31
0.0
  0
LINE
  5
1E9
330
1F
100
AcDbEntity
  8
0
  6
Continuous
 62
     7
370
    15
100
AcDbLine
 10
668.3038651246
 20
-25.5864144873
 30
0.0
 11
668.3001398343
 21
-25.577518494
 31
0.0
  0
LINE
  5
1EA
330
1F
100
AcDbEntity
  8
0
  6
Continuous
 62
     7
370
    15
100
AcDbLine
 10
668.3109580773
 20
-26.0022015881
 30
0.0
 11
668.3072625893
 21
-25.9931714844
 31
0.0
  0
LINE
  5
1EB
330
1F
100
AcDbEntity
  8
0
  6
Continuous
 62
     7
370
    15
100
AcDbLine
 10
666.3932382363
 20
-26.823732407
 30
0.0
 11
666.3895427483
 21
-26.814672501
 31
0.0
  0
LWPOLYLINE
  5
1EC
330
1F
100
AcDbEntity
  8
0
  6
Continuous
 62
     7
370
    15
100
AcDbPolyline
 90
        3
 70
   128
 43
0.0
 10
665.6068145531
 20
-26.9376815866
 10
665.6049668091
 20
-26.933181436
 10
665.6030892628
 20
-26.9286961864
  0
LINE
  5
1ED
330
1F
100
AcDbEntity
  8
0
  6
Continuous
 62
     7
370
    15
100
AcDbLine
 10
659.9575757283
 20
-2.2588403534
 30
0.0
 11
659.9575757283
 21
-2.83074692
 31
0.0
  0
LINE
  5
1EE
330
1F
100
AcDbEntity
  8
0
  6
Continuous
 62
     7
370
    15
100
AcDbLine
 10
659.9575757283
 20
-2.83074692
 30
0.0
 11
659.9575757283
 21
-3.8849146675
 31
0.0
  0
LINE
  5
1EF
330
1F
100
AcDbEntity
  8
0
  6
Continuous
 62
     7
370
    15
100
AcDbLine
 10
659.9575757283
 20
-3.8849146675
 30
0.0
 11
659.9575757283
 21
-3.970655949
 31
0.0
  0
SPLINE
  5
1F0
330
1F
100
AcDbEntity
  8
0
  6
Continuous
 62
     7
370
    15
100
AcDbSpline
210
0.0
220
0.0
230
1.0
 70
     8
 71
     3
 72
    16
 73
    12
 74
     0
 42
0.00000001
 43
0.00000001
 40
0.0
 40
0.0
 40
0.0
 40
0.0
 40
0.0001759087294824
 40
0.1252152846824532
 40
0.2502444450212821
 40
0.3752575187906959
 40
0.5002621133793711
 40
0.6252637153810263
 40
0.7502667871066204
 40
0.8753601127413962
 40
0.9999999999999999
 40
0.9999999999999999
 40
0.9999999999999999
 40
0.9999999999999999
 10
664.2828165787278
 20
34.72181841621163
 30
0.0
 10
664.2827270604658
 20
34.72185820391891
 30
0.0
 10
664.2190062053586
 20
34.75017987453901
 30
0.0
 10
664.4297577856378
 20
34.65100726180528
 30
0.0
 10
664.8956818873428
 20
34.42720974884691
 30
0.0
 10
665.6651332189789
 20
34.07904442265325
 30
0.0
 10
666.5676552934182
 20
33.70045181109194
 30
0.0
 10
667.4864773760343
 20
33.34841853571774
 30
0.0
 10
668.2670979929558
 20
33.07555575739973
 30
0.0
 10
668.8167385121078
 20
32.89844441961201
 30
0.0
 10
668.8888804455119
 20
32.87614432462166
 30
0.0
 10
668.9248859184801
 20
32.86501452216864
 30
0.0
  0
LINE
  5
1F1
330
1F
100
AcDbEntity
  8
0
  6
Continuous
 62
     7
370
    15
100
AcDbLine
 10
669.4018124837
 20
-26.3749839376
 30
0.0
 11
664.7549747723
 21
-28.2347233604
 31
0.0
  0
LINE
  5
1F2
330
1F
100
AcDbEntity
  8
0
  6
Continuous
 62
     7
370
    15
100
AcDbLine
 10
664.751249482
 20
-28.225439937
 30
0.0
 11
664.7549747723
 21
-28.2347233604
 31
0.0
  0
LINE
  5
1F3
330
1F
100
AcDbEntity
  8
0
  6
Continuous
 62
     7
370
    15
100
AcDbLine
 10
669.3981169957
 20
-26.3657005142
 30
0.0
 11
669.4018124837
 21
-26.3749839376
 31
0.0
  0
LINE
  5
1F4
330
1F
100
AcDbEntity
  8
0
  6
Continuous
 62
     7
370
    15
100
AcDbLine
 10
669.3981169957
 20
-26.3657005142
 30
0.0
 11
669.4018124837
 21
-26.3749839376
 31
0.0
  0
LINE
  5
1F5
330
1F
100
AcDbEntity
  8
0
  6
Continuous
 62
     7
370
    15
100
AcDbLine
 10
584.9575876492
 20
-63.1211580347
 30
0.0
 11
584.9575876492
 21
-61.4211739611
 31
0.0
  0
LINE
  5
1F6
330
1F
100
AcDbEntity
  8
0
  6
Continuous
 62
     7
370
    15
100
AcDbLine
 10
494.9575840729
 20
-63.1211580347
 30
0.0
 11
494.9575840729
 21
-61.4211739611
 31
0.0
  0
LINE
  5
1F7
330
1F
100
AcDbEntity
  8
0
  6
Continuous
 62
     7
370
    15
100
AcDbLine
 10
494.9575840729
 20
-63.1211580347
 30
0.0
 11
584.9575876492
 21
-63.1211580347
 31
0.0
  0
LINE
  5
1F8
330
1F
100
AcDbEntity
  8
0
  6
Continuous
 62
     7
370
    15
100
AcDbLine
 10
570.9172367352
 20
-126.1211813997
 30
0.0
 11
508.9979349869
 21
-126.1211813997
 31
0.0
  0
LINE
  5
1F9
330
1F
100
AcDbEntity
  8
0
  6
Continuous
 62
     7
370
    15
100
AcDbLine
 10
568.4575914639
 20
-155.1211656641
 30
0.0
 11
511.4575802582
 21
-155.1211656641
 31
0.0
  0
LINE
  5
1FA
330
1F
100
AcDbEntity
  8
0
  6
Continuous
 62
     7
370
    15
100
AcDbLine
 10
566.4575874108
 20
-161.1211778235
 30
0.0
 11
513.4575843113
 21
-161.1211778235
 31
0.0
  0
ARC
  5
1FB
330
1F
100
AcDbEntity
  8
0
  6
Continuous
 62
     7
370
    15
100
AcDbCircle
 10
539.6572942622
 20
239.2788326906
 30
0.0
 40
2.0
100
AcDbArc
 50
90.0
 51
180.0
  0
LINE
  5
1FC
330
1F
100
AcDbEntity
  8
0
  6
Continuous
 62
     7
370
    15
100
AcDbLine
 10
630.6573032635
 20
241.2788333733
 30
0.0
 11
539.6572827595
 21
241.2788333733
 31
0.0
  0
ARC
  5
1FD
330
1F
100
AcDbEntity
  8
0
  6
Continuous
 62
     7
370
    15
100
AcDbCircle
 10
630.6572942622
 20
218.2788326906
 30
0.0
 40
23.0
100
AcDbArc
 50
299.5911871723
 51
90.0
  0
LINE
  5
1FE
330
1F
100
AcDbEntity
  8
0
  6
Continuous
 62
     7
370
    15
100
AcDbLine
 10
614.9572908181
 20
186.7788328219
 30
0.0
 11
642.0148789185
 21
198.2787024591
 31
0.0
  0
LINE
  5
1FF
330
1F
100
AcDbEntity
  8
0
  6
Continuous
 62
     7
370
    15
100
AcDbLine
 10
598.6572980183
 20
186.7788328219
 30
0.0
 11
614.9572908181
 21
186.7788328219
 31
0.0
  0
ARC
  5
200
330
1F
100
AcDbEntity
  8
0
  6
Continuous
 62
     7
370
    15
100
AcDbCircle
 10
598.6572942622
 20
188.7788326906
 30
0.0
 40
2.000000000000028
100
AcDbArc
 50
180.0
 51
270.0
  0
LINE
  5
201
330
1F
100
AcDbEntity
  8
0
  6
Continuous
 62
     7
370
    15
100
AcDbLine
 10
596.6572939652
 20
207.1288327117
 30
0.0
 11
596.6572939652
 21
188.7788331498
 31
0.0
  0
LINE
  5
202
330
1F
100
AcDbEntity
  8
0
  6
Continuous
 62
     7
370
    15
100
AcDbLine
 10
596.6572939652
 20
207.1288327117
 30
0.0
 11
595.0572966832
 21
207.1288327117
 31
0.0
  0
LINE
  5
203
330
1F
100
AcDbEntity
  8
0
  6
Continuous
 62
     7
370
    15
100
AcDbLine
 10
595.0572966832
 20
207.1288327117
 30
0.0
 11
595.0572966832
 21
206.6288326297
 31
0.0
  0
LINE
  5
204
330
1F
100
AcDbEntity
  8
0
  6
Continuous
 62
     7
370
    15
100
AcDbLine
 10
537.6573085087
 20
206.6288326297
 30
0.0
 11
595.0572966832
 21
206.6288326297
 31
0.0
  0
ARC
  5
205
330
1F
100
AcDbEntity
  8
0
  6
Continuous
 62
     7
370
    15
100
AcDbCircle
 10
617.6189815852
 20
202.9805195427
 30
0.0
 40
0.2503794968157745
100
AcDbArc
 50
259.1110070998
 51
83.3730607603
  0
ARC
  5
206
330
1F
100
AcDbEntity
  8
0
  6
Continuous
 62
     7
370
    15
100
AcDbCircle
 10
618.1572942622
 20
205.7788326906
 30
0.0
 40
2.600000000000035
100
AcDbArc
 50
101.3148497955
 51
258.700947069
  0
ARC
  5
207
330
1F
100
AcDbEntity
  8
0
  6
Continuous
 62
     7
370
    15
100
AcDbCircle
 10
617.6189815852
 20
208.5771157184
 30
0.0
 40
0.2504090746769442
100
AcDbArc
 50
276.4642622073
 51
100.8891073053
  0
ARC
  5
208
330
1F
100
AcDbEntity
  8
0
  6
Continuous
 62
     7
370
    15
100
AcDbCircle
 10
618.1572942622
 20
205.7788326906
 30
0.0
 40
3.100000000000044
100
AcDbArc
 50
100.8891073053
 51
259.1110070997
  0
ARC
  5
209
330
1F
100
AcDbEntity
  8
0
  6
Continuous
 62
     7
370
    15
100
AcDbCircle
 10
618.1572942622
 20
205.7788326906
 30
0.0
 40
2.599999999999997
100
AcDbArc
 50
280.4998591652
 51
79.5001408348
  0
ARC
  5
20A
330
1F
100
AcDbEntity
  8
0
  6
Continuous
 62
     7
370
    15
100
AcDbCircle
 10
618.6572942622
 20
202.9733917543
 30
0.0
 40
0.2503511010932382
100
AcDbArc
 50
96.005776495
 51
280.1054407084
  0
ARC
  5
20B
330
1F
100
AcDbEntity
  8
0
  6
Continuous
 62
     7
370
    15
100
AcDbCircle
 10
618.1572942622
 20
205.7788326906
 30
0.0
 40
3.099999999999989
100
AcDbArc
 50
280.1054407084
 51
79.8945592916
  0
ARC
  5
20C
330
1F
100
AcDbEntity
  8
0
  6
Continuous
 62
     7
370
    15
100
AcDbCircle
 10
618.6572942622
 20
208.5842736269
 30
0.0
 40
0.2503511010932581
100
AcDbArc
 50
79.8945592916
 51
263.994223505
  0
LINE
  5
20D
330
1F
100
AcDbEntity
  8
0
  6
Continuous
 62
     7
370
    15
100
AcDbLine
 10
537.6573085087
 20
239.2788330455
 30
0.0
 11
537.6573085087
 21
206.6288326297
 31
0.0
  0
LINE
  5
20E
330
1F
100
AcDbEntity
  8
0
  6
Continuous
 62
     7
370
    15
100
AcDbLine
 10
595.0572966832
 20
206.6288326297
 30
0.0
 11
595.0572966832
 21
204.1788326007
 31
0.0
  0
LINE
  5
20F
330
1F
100
AcDbEntity
  8
0
  6
Continuous
 62
     7
370
    15
100
AcDbLine
 10
594.9505149621
 20
204.1788326007
 30
0.0
 11
595.0572966832
 21
204.1788326007
 31
0.0
  0
LINE
  5
210
330
1F
100
AcDbEntity
  8
0
  6
Continuous
 62
     7
370
    15
100
AcDbLine
 10
537.6573085087
 20
204.1788326007
 30
0.0
 11
537.6573085087
 21
206.6288326297
 31
0.0
  0
LINE
  5
211
330
1F
100
AcDbEntity
  8
0
  6
Continuous
 62
     7
370
    15
100
AcDbLine
 10
595.0572966832
 20
202.9288328614
 30
0.0
 11
595.0572966832
 21
203.214822932
 31
0.0
  0
LINE
  5
212
330
1F
100
AcDbEntity
  8
0
  6
Continuous
 62
     7
370
    15
100
AcDbLine
 10
536.8572949666
 20
236.7525702704
 30
0.0
 11
536.8213235634
 21
236.7525702704
 31
0.0
  0
LINE
  5
213
330
1F
100
AcDbEntity
  8
0
  6
Continuous
 62
     7
370
    15
100
AcDbLine
 10
536.8572949666
 20
236.7525702704
 30
0.0
 11
536.8572949666
 21
236.6788318742
 31
0.0
  0
LINE
  5
214
330
1F
100
AcDbEntity
  8
0
  6
Continuous
 62
     7
370
    15
100
AcDbLine
 10
488.7760757702
 20
220.5525707815
 30
0.0
 11
477.7143477696
 21
220.5525707815
 31
0.0
  0
LINE
  5
215
330
1F
100
AcDbEntity
  8
0
  6
Continuous
 62
     7
370
    15
100
AcDbLine
 10
517.8377806443
 20
220.5525707815
 30
0.0
 11
506.7760526436
 21
220.5525707815
 31
0.0
  0
LINE
  5
216
330
1F
100
AcDbEntity
  8
0
  6
Continuous
 62
     7
370
    15
100
AcDbLine
 10
506.7760526436
 20
220.5525707815
 30
0.0
 11
488.7760757702
 21
220.5525707815
 31
0.0
  0
LINE
  5
217
330
1F
100
AcDbEntity
  8
0
  6
Continuous
 62
     7
370
    15
100
AcDbLine
 10
477.5760649937
 20
220.178832895
 30
0.0
 11
477.5760649937
 21
220.5557968829
 31
0.0
  0
SPLINE
  5
218
330
1F
100
AcDbEntity
  8
0
  6
Continuous
 62
     7
370
    15
100
AcDbSpline
210
0.0
220
0.0
230
1.0
 70
     8
 71
     3
 72
     9
 73
     5
 74
     0
 42
0.00000001
 43
0.00000001
 40
0.0
 40
0.0
 40
0.0
 40
0.0
 40
0.3587027359134817
 40
1.0
 40
1.0
 40
1.0
 40
1.0
 10
477.7143477696001
 20
220.5525707815028
 30
0.0
 10
477.6842797924279
 20
220.5529388221039
 30
0.0
 10
477.6004555720866
 20
220.5539648544263
 30
0.0
 10
477.5855950231178
 20
220.5550810620232
 30
0.0
 10
477.5760649937212
 20
220.5557968829012
 30
0.0
  0
SPLINE
  5
219
330
1F
100
AcDbEntity
  8
0
  6
Continuous
 62
     7
370
    15
100
AcDbSpline
210
0.0
220
0.0
230
1.0
 70
     8
 71
     3
 72
     9
 73
     5
 74
     0
 42
0.00000001
 43
0.00000001
 40
0.0
 40
0.0
 40
0.0
 40
0.0
 40
0.6412972640865183
 40
1.0
 40
1.0
 40
1.0
 40
1.0
 10
517.9760634201585
 20
220.5557968829012
 30
0.0
 10
517.966533390762
 20
220.5550810620232
 30
0.0
 10
517.9516728417931
 20
220.5539648544263
 30
0.0
 10
517.8678486214518
 20
220.5529388221039
 30
0.0
 10
517.8377806442796
 20
220.5525707815028
 30
0.0
  0
LINE
  5
21A
330
1F
100
AcDbEntity
  8
0
  6
Continuous
 62
     7
370
    15
100
AcDbLine
 10
517.9760634202
 20
220.5557968829
 30
0.0
 11
517.9760634202
 21
220.178832895
 31
0.0
  0
LWPOLYLINE
  5
21B
330
1F
100
AcDbEntity
  8
0
  6
Continuous
 62
     7
370
    15
100
AcDbPolyline
 90
        3
 70
   128
 43
0.0
 10
518.2468175191
 20
222.1788322915
 10
518.0677949685
 20
221.5092160169
 10
517.9760634202
 20
220.5557968829
  0
LINE
  5
21C
330
1F
100
AcDbEntity
  8
0
  6
Continuous
 62
     7
370
    15
100
AcDbLine
 10
658.6575984257
 20
3.1411616493
 30
0.0
 11
658.6575984257
 21
14.5703075815
 31
0.0
  0
LINE
  5
21D
330
1F
100
AcDbEntity
  8
0
  6
Continuous
 62
     7
370
    15
100
AcDbLine
 10
658.6575984257
 20
-8.2879842829
 30
0.0
 11
658.6575984257
 21
3.1411616493
 31
0.0
  0
LINE
  5
21E
330
1F
100
AcDbEntity
  8
0
  6
Continuous
 62
     7
370
    15
100
AcDbLine
 10
673.1575905579
 20
-1.7588467907
 30
0.0
 11
673.1575905579
 21
3.1411616493
 31
0.0
  0
LINE
  5
21F
330
1F
100
AcDbEntity
  8
0
  6
Continuous
 62
     7
370
    15
100
AcDbLine
 10
596.7572807568
 20
65.7911567379
 30
0.0
 11
656.4013540047
 21
65.7911567379
 31
0.0
  0
LINE
  5
220
330
1F
100
AcDbEntity
  8
0
  6
Continuous
 62
     7
370
    15
100
AcDbLine
 10
656.4013540047
 20
65.7911567379
 30
0.0
 11
656.4013540047
 21
65.2911631752
 31
0.0
  0
LINE
  5
221
330
1F
100
AcDbEntity
  8
0
  6
Continuous
 62
     7
370
    15
100
AcDbLine
 10
596.7572807568
 20
65.7911567379
 30
0.0
 11
596.7572807568
 21
65.2911631752
 31
0.0
  0
ARC
  5
222
330
1F
100
AcDbEntity
  8
0
  6
Continuous
 62
     7
370
    15
100
AcDbCircle
 10
596.7572942622
 20
184.9788326906
 30
0.0
 40
1.0
100
AcDbArc
 50
90.0
 51
180.0
  0
LINE
  5
223
330
1F
100
AcDbEntity
  8
0
  6
Continuous
 62
     7
370
    15
100
AcDbLine
 10
596.7572807568
 20
185.9788323183
 30
0.0
 11
596.7572807568
 21
185.4788331676
 31
0.0
  0
ARC
  5
224
330
1F
100
AcDbEntity
  8
0
  6
Continuous
 62
     7
370
    15
100
AcDbCircle
 10
596.7572942622
 20
184.9788326906
 30
0.0
 40
0.5
100
AcDbArc
 50
90.0
 51
180.0
  0
LINE
  5
225
330
1F
100
AcDbEntity
  8
0
  6
Continuous
 62
     7
370
    15
100
AcDbLine
 10
595.7572936314
 20
184.9788321544
 30
0.0
 11
596.2572871941
 21
184.9788321544
 31
0.0
  0
LINE
  5
226
330
1F
100
AcDbEntity
  8
0
  6
Continuous
 62
     7
370
    15
100
AcDbLine
 10
595.7572936314
 20
66.2911652018
 30
0.0
 11
595.7572936314
 21
184.9788321544
 31
0.0
  0
LINE
  5
227
330
1F
100
AcDbEntity
  8
0
  6
Continuous
 62
     7
370
    15
100
AcDbLine
 10
596.2572871941
 20
184.9788321544
 30
0.0
 11
596.2572871941
 21
66.2911652018
 31
0.0
  0
LINE
  5
228
330
1F
100
AcDbEntity
  8
0
  6
Continuous
 62
     7
370
    15
100
AcDbLine
 10
596.2572871941
 20
66.2911652018
 30
0.0
 11
595.7572936314
 21
66.2911652018
 31
0.0
  0
LINE
  5
229
330
1F
100
AcDbEntity
  8
0
  6
Continuous
 62
     7
370
    15
100
AcDbLine
 10
656.9758831757
 20
66.059064715
 30
0.0
 11
669.3946003216
 21
80.859106629
 31
0.0
  0
ARC
  5
22A
330
1F
100
AcDbEntity
  8
0
  6
Continuous
 62
     7
370
    15
100
AcDbCircle
 10
656.401363563
 20
66.5411581635
 30
0.0
 40
0.75
100
AcDbArc
 50
270.0
 51
320.0
  0
ARC
  5
22B
330
1F
100
AcDbEntity
  8
0
  6
Continuous
 62
     7
370
    15
100
AcDbCircle
 10
596.7572942622
 20
66.2911581635
 30
0.0
 40
0.5
100
AcDbArc
 50
180.0
 51
270.0
  0
LINE
  5
22C
330
1F
100
AcDbEntity
  8
0
  6
Continuous
 62
     7
370
    15
100
AcDbLine
 10
614.1780792969
 20
185.4788331676
 30
0.0
 11
596.7572807568
 21
185.4788331676
 31
0.0
  0
ARC
  5
22D
330
1F
100
AcDbEntity
  8
0
  6
Continuous
 62
     7
370
    15
100
AcDbCircle
 10
614.1780907101
 20
184.9788326906
 30
0.0
 40
0.5000000000001458
100
AcDbArc
 50
18.0
 51
90.0
  0
LINE
  5
22E
330
1F
100
AcDbEntity
  8
0
  6
Continuous
 62
     7
370
    15
100
AcDbLine
 10
639.0338718194
 20
110.0986643125
 30
0.0
 11
614.6536051529
 21
185.1333404321
 31
0.0
  0
ARC
  5
22F
330
1F
100
AcDbEntity
  8
0
  6
Continuous
 62
     7
370
    15
100
AcDbCircle
 10
649.780803053
 20
113.5905531686
 30
0.0
 40
11.30000000000003
100
AcDbArc
 50
198.0
 51
250.0
  0
LINE
  5
230
330
1F
100
AcDbEntity
  8
0
  6
Continuous
 62
     7
370
    15
100
AcDbLine
 10
665.3663694161
 20
95.89266464
 30
0.0
 11
645.9159731167
 21
102.9720275093
 31
0.0
  0
ARC
  5
231
330
1F
100
AcDbEntity
  8
0
  6
Continuous
 62
     7
370
    15
100
AcDbCircle
 10
662.1171768322
 20
86.9655826466
 30
0.0
 40
9.500000000000032
100
AcDbArc
 50
320.0
 51
70.0
  0
ARC
  5
232
330
1F
100
AcDbEntity
  8
0
  6
Continuous
 62
     7
370
    15
100
AcDbCircle
 10
596.7572942622
 20
66.2911581635
 30
0.0
 40
1.0
100
AcDbArc
 50
180.0
 51
270.0
  0
LWPOLYLINE
  5
233
330
1F
100
AcDbEntity
  8
0
  6
Continuous
 62
     7
370
    15
100
AcDbPolyline
 90
        9
 70
   128
 43
0.0
 10
639.5093976754
 20
110.2531670023
 10
639.5002483624
 20
110.2502016712
 10
639.4731878537
 20
110.2414099861
 10
639.4292592305
 20
110.2271272231
 10
639.3701016205
 20
110.2079121757
 10
639.298039605
 20
110.1845024515
 10
639.2158447999
 20
110.1577921201
 10
639.126646449
 20
110.128801911
 10
639.0338718194
 20
110.0986643125
  0
LWPOLYLINE
  5
234
330
1F
100
AcDbEntity
  8
0
  6
Continuous
 62
     7
370
    15
100
AcDbPolyline
 90
        9
 70
   128
 43
0.0
 10
646.0869788426
 20
103.4418760229
 10
646.0837005871
 20
103.4328459192
 10
646.0739552277
 20
103.4061057855
 10
646.0581599968
 20
103.3626912523
 10
646.036910941
 20
103.3042563487
 10
646.0109829205
 20
103.2330586005
 10
645.9814190167
 20
103.1518323709
 10
645.9493517178
 20
103.0636920024
 10
645.9159731167
 20
102.9720275093
  0
LWPOLYLINE
  5
235
330
1F
100
AcDbEntity
  8
0
  6
Continuous
 62
     7
370
    15
100
AcDbPolyline
 90
        9
 70
   128
 43
0.0
 10
665.3663694161
 20
95.89266464
 10
665.3997182149
 20
95.9843216825
 10
665.4318153161
 20
96.072462051
 10
665.4613792199
 20
96.1536957313
 10
665.487277438
 20
96.2248934794
 10
665.5085562962
 20
96.2833283831
 10
665.5243515271
 20
96.3267429162
 10
665.5340968865
 20
96.35348305
 10
665.537375142
 20
96.3625057031
  0
LWPOLYLINE
  5
236
330
1F
100
AcDbEntity
  8
0
  6
Continuous
 62
     7
370
    15
100
AcDbPolyline
 90
        9
 70
   128
 43
0.0
 10
656.9758831757
 20
66.059064715
 10
657.0506274003
 20
65.9963606287
 10
657.1224807995
 20
65.9360705305
 10
657.1887015599
 20
65.8805041004
 10
657.2467266816
 20
65.8318071056
 10
657.2943805951
 20
65.7918421913
 10
657.3297559517
 20
65.7621441771
 10
657.3515712517
 20
65.7438455511
 10
657.3589324254
 20
65.7376764704
  0
LWPOLYLINE
  5
237
330
1F
100
AcDbEntity
  8
0
  6
Continuous
 62
     7
370
    15
100
AcDbPolyline
 90
        9
 70
   128
 43
0.0
 10
669.3946003216
 20
80.859106629
 10
669.4693147439
 20
80.7964025427
 10
669.5411681431
 20
80.7361124445
 10
669.6073889035
 20
80.6805460144
 10
669.6654438275
 20
80.6318341185
 10
669.7130679387
 20
80.5918692041
 10
669.7484730977
 20
80.5621711899
 10
669.7702585953
 20
80.5438874651
 10
669.777619769
 20
80.5377034832
  0
LINE
  5
238
330
1F
100
AcDbEntity
  8
0
  6
Continuous
 62
     7
370
    15
100
AcDbLine
 10
656.9575845498
 20
29.2467741657
 30
0.0
 11
656.9575845498
 21
-26.7648579191
 31
0.0
  0
SPLINE
  5
239
330
1F
100
AcDbEntity
  8
0
  6
Continuous
 62
     7
370
    15
100
AcDbSpline
210
0.0
220
0.0
230
1.0
 70
     8
 71
     3
 72
    16
 73
    12
 74
     0
 42
0.00000001
 43
0.00000001
 40
0.0
 40
0.0
 40
0.0
 40
0.0
 40
0.125
 40
0.125
 40
0.25
 40
0.25
 40
0.5
 40
0.5
 40
0.75
 40
0.75
 40
1.0
 40
1.0
 40
1.0
 40
1.0
 10
656.9575901214969
 20
29.24678028373012
 30
0.0
 10
657.0642493676919
 20
29.23238227581196
 30
0.0
 10
657.1665331884235
 20
29.21652320458556
 30
0.0
 10
657.3610029344354
 20
29.18219034662706
 30
0.0
 10
657.4531888597157
 20
29.16371655989494
 30
0.0
 10
657.7125792255929
 20
29.10483424310595
 30
0.0
 10
657.862616256226
 20
29.06096475645656
 30
0.0
 10
658.1061342013934
 20
28.96645585446286
 30
0.0
 10
658.1994379245651
 20
28.91588627302508
 30
0.0
 10
658.325165884617
 20
28.81137700456249
 30
0.0
 10
658.3575901214969
 20
28.75743731753769
 30
0.0
 10
658.3575901214969
 20
28.70344265536673
 30
0.0
  0
LINE
  5
23A
330
1F
100
AcDbEntity
  8
0
  6
Continuous
 62
     7
370
    15
100
AcDbLine
 10
658.3575784463
 20
28.7034480263
 30
0.0
 11
658.3575784463
 21
-26.2211294483
 31
0.0
  0
SPLINE
  5
23B
330
1F
100
AcDbEntity
  8
0
  6
Continuous
 62
     7
370
    15
100
AcDbSpline
210
0.0
220
0.0
230
1.0
 70
     8
 71
     3
 72
    19
 73
    15
 74
     0
 42
0.00000001
 43
0.00000001
 40
0.0
 40
0.0
 40
0.0
 40
0.0
 40
0.057095908092662
 40
0.115651805237113
 40
0.1756735616979767
 40
0.2371666253302755
 40
0.3001360595090862
 40
0.3645865770444711
 40
0.4305225705602838
 40
0.4979481397533506
 40
0.616204390729849
 40
0.7486213188526917
 40
0.8538534972356744
 40
1.0
 40
1.0
 40
1.0
 40
1.0
 10
656.9575901214969
 20
-26.7648585066364
 30
0.0
 10
657.0062156884784
 20
-26.7580325504739
 30
0.0
 10
657.1047102179455
 20
-26.74420609286887
 30
0.0
 10
657.2464913372061
 20
-26.72084290259172
 30
0.0
 10
657.3851371663088
 20
-26.69525304231288
 30
0.0
 10
657.519094235441
 20
-26.66725341887871
 30
0.0
 10
657.6474407046691
 20
-26.63689487391257
 30
0.0
 10
657.7690120628241
 20
-26.60416317528719
 30
0.0
 10
657.8826687998143
 20
-26.56906239426598
 30
0.0
 10
658.0126539795046
 20
-26.52245109244194
 30
0.0
 10
658.1507422489199
 20
-26.46030221211804
 30
0.0
 10
658.2621982017547
 20
-26.38749130641741
 30
0.0
 10
658.3410596375909
 20
-26.30638295373441
 30
0.0
 10
658.3515128400827
 20
-26.25247014798132
 30
0.0
 10
658.3575901214969
 20
-26.22112632845344
 30
0.0
  0
SPLINE
  5
23C
330
1F
100
AcDbEntity
  8
0
  6
Continuous
 62
     7
370
    15
100
AcDbSpline
210
0.0
220
0.0
230
1.0
 70
     8
 71
     3
 72
    19
 73
    15
 74
     0
 42
0.00000001
 43
0.00000001
 40
0.0
 40
0.0
 40
0.0
 40
0.0
 40
0.0571115640935944
 40
0.1156812592866335
 40
0.1757147833893927
 40
0.2372174247608606
 40
0.3001940990521335
 40
0.3646493820584509
 40
0.430587539144704
 40
0.4980125516486656
 40
0.6162616165384446
 40
0.748663192415951
 40
0.8538790033185847
 40
1.0
 40
1.0
 40
1.0
 40
1.0
 10
656.9575901214969
 20
31.24115816345666
 30
0.0
 10
657.0062153175578
 20
31.20934522806129
 30
0.0
 10
657.1047071729754
 20
31.14490713244017
 30
0.0
 10
657.2464886382475
 20
31.03628817612145
 30
0.0
 10
657.3851343943855
 20
30.91718877841179
 30
0.0
 10
657.5190915661902
 20
30.78665526127494
 30
0.0
 10
657.6474381363284
 20
30.64485304964104
 30
0.0
 10
657.7690096423423
 20
30.49175477732965
 30
0.0
 10
657.8826665554724
 20
30.32750687446095
 30
0.0
 10
658.0126502632261
 20
30.10966478712362
 30
0.0
 10
658.1507384387637
 20
29.82015650988074
 30
0.0
 10
658.2621964317367
 20
29.47980343553841
 30
0.0
 10
658.3410592812291
 20
29.10207301392351
 30
0.0
 10
658.3515127396214
 20
28.84999472875585
 30
0.0
 10
658.3575901214969
 20
28.70344265536676
 30
0.0
  0
SPLINE
  5
23D
330
1F
100
AcDbEntity
  8
0
  6
Continuous
 62
     7
370
    15
100
AcDbSpline
210
0.0
220
0.0
230
1.0
 70
     8
 71
     3
 72
    10
 73
     6
 74
     0
 42
0.00000001
 43
0.00000001
 40
0.0
 40
0.0
 40
0.0
 40
0.0
 40
0.5
 40
0.5
 40
1.0
 40
1.0
 40
1.0
 40
1.0
 10
656.9575901214969
 20
31.24115816345666
 30
0.0
 10
656.9570485242948
 20
31.24149963416944
 30
0.0
 10
656.9575901214969
 20
31.01855698269301
 30
0.0
 10
656.9575901214969
 20
30.29556060753569
 30
0.0
 10
656.9581319127504
 20
29.79636589611673
 30
0.0
 10
656.9575901214969
 20
29.24678028373012
 30
0.0
  0
SPLINE
  5
23E
330
1F
100
AcDbEntity
  8
0
  6
Continuous
 62
     7
370
    15
100
AcDbSpline
210
0.0
220
0.0
230
1.0
 70
     8
 71
     3
 72
    19
 73
    15
 74
     0
 42
0.00000001
 43
0.00000001
 40
0.0
 40
0.0
 40
0.0
 40
0.0
 40
0.0571143122037922
 40
0.1156859695386129
 40
0.175720669903829
 40
0.2372237019665122
 40
0.3001999818643146
 40
0.3646540860234617
 40
0.4305902805559923
 40
0.4980125476392015
 40
0.6162771910106094
 40
0.748663187056423
 40
0.8538896613728932
 40
1.0
 40
1.0
 40
1.0
 40
1.0
 10
656.957590121497
 20
-28.75884183654337
 30
0.0
 10
657.0062176360592
 20
-28.72702732931681
 30
0.0
 10
657.1047134587578
 20
-28.66258652679504
 30
0.0
 10
657.2464992708047
 20
-28.55396335416288
 30
0.0
 10
657.3851471209947
 20
-28.43486086385194
 30
0.0
 10
657.5191043449853
 20
-28.30432567498528
 30
0.0
 10
657.6474492314975
 20
-28.16252355600579
 30
0.0
 10
657.7690176689963
 20
-28.00942745104856
 30
0.0
 10
657.882670544862
 20
-27.8451840427642
 30
0.0
 10
658.012659470884
 20
-27.62733253181579
 30
0.0
 10
658.1507443177104
 20
-27.33782541061927
 30
0.0
 10
658.2622029439128
 20
-26.99746160531341
 30
0.0
 10
658.3410607594318
 20
-26.61974595156802
 30
0.0
 10
658.3515135634461
 20
-26.36766769347904
 30
0.0
 10
658.3575901214969
 20
-26.22112632845344
 30
0.0
  0
SPLINE
  5
23F
330
1F
100
AcDbEntity
  8
0
  6
Continuous
 62
     7
370
    15
100
AcDbSpline
210
0.0
220
0.0
230
1.0
 70
     8
 71
     3
 72
    10
 73
     6
 74
     0
 42
0.00000001
 43
0.00000001
 40
0.0
 40
0.0
 40
0.0
 40
0.0
 40
0.5
 40
0.5
 40
1.0
 40
1.0
 40
1.0
 40
1.0
 10
656.9575901214969
 20
-26.7648585066364
 30
0.0
 10
656.95813201972
 20
-27.31444411850484
 30
0.0
 10
656.9575901214969
 20
-27.81354031097874
 30
0.0
 10
656.9575901214969
 20
-28.53633952999515
 30
0.0
 10
656.9570484173635
 20
-28.75918337467506
 30
0.0
 10
656.9575901214969
 20
-28.75884183654334
 30
0.0
  0
LINE
  5
240
330
1F
100
AcDbEntity
  8
0
  6
Continuous
 62
     7
370
    15
100
AcDbLine
 10
655.3575872677
 20
-26.7648579191
 30
0.0
 11
656.9575845498
 21
-26.7648579191
 31
0.0
  0
SPLINE
  5
241
330
1F
100
AcDbEntity
  8
0
  6
Continuous
 62
     7
370
    15
100
AcDbSpline
210
0.0
220
0.0
230
1.0
 70
    24
 71
     3
 72
    11
 73
     7
 74
     0
 42
0.00000001
 43
0.00000001
 40
0.0
 40
0.0
 40
0.0
 40
0.0
 40
0.2832708843096969
 40
0.557999468555626
 40
0.7754003519445708
 40
1.0
 40
1.0
 40
1.0
 40
1.0
 10
656.9575845497666
 20
-28.75884190311667
 30
0.0
 10
656.9575845497666
 20
-28.72055859701597
 30
0.0
 10
656.9575845497666
 20
-28.64514645393315
 30
0.0
 10
656.9575845497666
 20
-28.11221369672629
 30
0.0
 10
656.9575845497666
 20
-27.46178233097557
 30
0.0
 10
656.9575845497667
 20
-26.99967480402221
 30
0.0
 10
656.9575845497666
 20
-26.76485791912314
 30
0.0
  0
LINE
  5
242
330
1F
100
AcDbEntity
  8
0
  6
Continuous
 62
     7
370
    15
100
AcDbLine
 10
655.3575872677
 20
-28.7588419031
 30
0.0
 11
656.9575845498
 21
-28.7588419031
 31
0.0
  0
LINE
  5
243
330
1F
100
AcDbEntity
  8
0
  6
Continuous
 62
     7
370
    15
100
AcDbLine
 10
655.3575872677
 20
29.2467741657
 30
0.0
 11
656.9575845498
 21
29.2467741657
 31
0.0
  0
LINE
  5
244
330
1F
100
AcDbEntity
  8
0
  6
Continuous
 62
     7
370
    15
100
AcDbLine
 10
655.3575872677
 20
31.2411604811
 30
0.0
 11
656.9575845498
 21
31.2411604811
 31
0.0
  0
SPLINE
  5
245
330
1F
100
AcDbEntity
  8
0
  6
Continuous
 62
     7
370
    15
100
AcDbSpline
210
0.0
220
0.0
230
1.0
 70
    24
 71
     3
 72
    11
 73
     7
 74
     0
 42
0.00000001
 43
0.00000001
 40
0.0
 40
0.0
 40
0.0
 40
0.0
 40
0.2833581353491763
 40
0.5581151263193475
 40
0.7754833247915652
 40
1.0
 40
1.0
 40
1.0
 40
1.0
 10
656.9575845497666
 20
29.24677416572336
 30
0.0
 10
656.9575845497666
 20
29.54382430964555
 30
0.0
 10
656.9575845497667
 20
30.12890784145947
 30
0.0
 10
656.9575845497666
 20
30.77703070987289
 30
0.0
 10
656.9575845497668
 20
31.17092169016275
 30
0.0
 10
656.9575845497666
 20
31.21749640070909
 30
0.0
 10
656.9575845497666
 20
31.24116048106912
 30
0.0
  0
LINE
  5
246
330
1F
100
AcDbEntity
  8
0
  6
Continuous
 62
     7
370
    15
100
AcDbLine
 10
-111.5427137119
 20
429.4873146702
 30
0.0
 11
-111.5427137119
 21
439.5582942654
 31
0.0
  0
ARC
  5
247
330
1F
100
AcDbEntity
  8
0
  6
Continuous
 62
     7
370
    15
100
AcDbCircle
 10
-110.3927057378
 20
439.5582878504
 30
0.0
 40
1.150000000000001
100
AcDbArc
 50
75.0
 51
180.0
  0
LINE
  5
248
330
1F
100
AcDbEntity
  8
0
  6
Continuous
 62
     7
370
    15
100
AcDbLine
 10
-110.0950659019
 20
440.6691013266
 30
0.0
 11
-76.798123191
 21
431.7472098757
 31
0.0
  0
ARC
  5
249
330
1F
100
AcDbEntity
  8
0
  6
Continuous
 62
     7
370
    15
100
AcDbCircle
 10
-83.2427057378
 20
407.6956579911
 30
0.0
 40
24.90000000000003
100
AcDbArc
 50
0.0
 51
75.0
  0
LINE
  5
24A
330
1F
100
AcDbEntity
  8
0
  6
Continuous
 62
     7
370
    15
100
AcDbLine
 10
-58.3427072269
 20
407.6956628252
 30
0.0
 11
-59.5426977378
 21
407.6956628252
 31
0.0
  0
LINE
  5
24B
330
1F
100
AcDbEntity
  8
0
  6
Continuous
 62
     7
370
    15
100
AcDbLine
 10
-59.5426977378
 20
407.6956628252
 30
0.0
 11
-59.5426977378
 21
407.1956543613
 31
0.0
  0
LINE
  5
24C
330
1F
100
AcDbEntity
  8
0
  6
Continuous
 62
     7
370
    15
100
AcDbLine
 10
-59.5426977378
 20
407.1956543613
 30
0.0
 11
-59.4927192432
 21
407.1956543613
 31
0.0
  0
LINE
  5
24D
330
1F
100
AcDbEntity
  8
0
  6
Continuous
 62
     7
370
    15
100
AcDbLine
 10
-59.4927192432
 20
407.1956543613
 30
0.0
 11
-59.4927192432
 21
220.178832895
 31
0.0
  0
LINE
  5
24E
330
1F
100
AcDbEntity
  8
0
  6
Continuous
 62
     7
370
    15
100
AcDbLine
 10
-59.4927192432
 20
220.178832895
 30
0.0
 11
-110.3927016956
 21
220.178832895
 31
0.0
  0
LINE
  5
24F
330
1F
100
AcDbEntity
  8
0
  6
Continuous
 62
     7
370
    15
100
AcDbLine
 10
-110.3927016956
 20
429.0873228003
 30
0.0
 11
-110.3927016956
 21
220.178832895
 31
0.0
  0
LINE
  5
250
330
1F
100
AcDbEntity
  8
0
  6
Continuous
 62
     7
370
    15
100
AcDbLine
 10
-110.3927016956
 20
429.0873228003
 30
0.0
 11
-109.9926949245
 21
429.0873228003
 31
0.0
  0
LINE
  5
251
330
1F
100
AcDbEntity
  8
0
  6
Continuous
 62
     7
370
    15
100
AcDbLine
 10
-109.9926949245
 20
429.0873228003
 30
0.0
 11
-109.9926949245
 21
429.4873146702
 31
0.0
  0
LINE
  5
252
330
1F
100
AcDbEntity
  8
0
  6
Continuous
 62
     7
370
    15
100
AcDbLine
 10
-109.9926949245
 20
429.4873146702
 30
0.0
 11
-111.5427137119
 21
429.4873146702
 31
0.0
  0
ARC
  5
253
330
1F
100
AcDbEntity
  8
0
  6
Continuous
 62
     7
370
    15
100
AcDbCircle
 10
-86.5427057378
 20
418.8291245122
 30
0.0
 40
2.600000000000023
100
AcDbArc
 50
190.4998591652
 51
349.5001408348
  0
ARC
  5
254
330
1F
100
AcDbEntity
  8
0
  6
Continuous
 62
     7
370
    15
100
AcDbCircle
 10
-89.3481466741
 20
418.3291245122
 30
0.0
 40
0.250351101093238
100
AcDbArc
 50
6.005776495
 51
190.1054407084
  0
ARC
  5
255
330
1F
100
AcDbEntity
  8
0
  6
Continuous
 62
     7
370
    15
100
AcDbCircle
 10
-86.5427057378
 20
418.8291245122
 30
0.0
 40
3.100000000000002
100
AcDbArc
 50
190.1054407084
 51
349.8945592916
  0
ARC
  5
256
330
1F
100
AcDbEntity
  8
0
  6
Continuous
 62
     7
370
    15
100
AcDbCircle
 10
-83.7372648015
 20
418.3291245122
 30
0.0
 40
0.2503511010932521
100
AcDbArc
 50
349.8945592916
 51
173.994223505
  0
ARC
  5
257
330
1F
100
AcDbEntity
  8
0
  6
Continuous
 62
     7
370
    15
100
AcDbCircle
 10
-83.7443925898
 20
419.3674371892
 30
0.0
 40
0.250379496815782
100
AcDbArc
 50
186.6269392398
 51
10.8889929003
  0
ARC
  5
258
330
1F
100
AcDbEntity
  8
0
  6
Continuous
 62
     7
370
    15
100
AcDbCircle
 10
-86.5427057378
 20
418.8291245122
 30
0.0
 40
3.100000000000021
100
AcDbArc
 50
10.8889929003
 51
169.1108926947
  0
ARC
  5
259
330
1F
100
AcDbEntity
  8
0
  6
Continuous
 62
     7
370
    15
100
AcDbCircle
 10
-89.3409887655
 20
419.3674371892
 30
0.0
 40
0.250409074676934
100
AcDbArc
 50
169.1108926947
 51
353.5357377927
  0
ARC
  5
25A
330
1F
100
AcDbEntity
  8
0
  6
Continuous
 62
     7
370
    15
100
AcDbCircle
 10
-86.5427057378
 20
418.8291245122
 30
0.0
 40
2.600000000000022
100
AcDbArc
 50
11.299052931
 51
168.6851502045
  0
LINE
  5
25B
330
1F
100
AcDbEntity
  8
0
  6
Continuous
 62
     7
370
    15
100
AcDbLine
 10
-110.3927016956
 20
220.178832895
 30
0.0
 11
-112.4427140457
 21
220.178832895
 31
0.0
  0
LINE
  5
25C
330
1F
100
AcDbEntity
  8
0
  6
Continuous
 62
     7
370
    15
100
AcDbLine
 10
-112.4427140457
 20
220.178832895
 30
0.0
 11
-112.4427140457
 21
429.0873228003
 31
0.0
  0
LINE
  5
25D
330
1F
100
AcDbEntity
  8
0
  6
Continuous
 62
     7
370
    15
100
AcDbLine
 10
-112.4427140457
 20
429.0873228003
 30
0.0
 11
-110.3927016956
 21
429.0873228003
 31
0.0
  0
LINE
  5
25E
330
1F
100
AcDbEntity
  8
0
  6
Continuous
 62
     7
370
    15
100
AcDbLine
 10
-57.4427068931
 20
220.178832895
 30
0.0
 11
-59.4927192432
 21
220.178832895
 31
0.0
  0
LINE
  5
25F
330
1F
100
AcDbEntity
  8
0
  6
Continuous
 62
     7
370
    15
100
AcDbLine
 10
-59.4927192432
 20
407.1956543613
 30
0.0
 11
-57.4427068931
 21
407.1956543613
 31
0.0
  0
LINE
  5
260
330
1F
100
AcDbEntity
  8
0
  6
Continuous
 62
     7
370
    15
100
AcDbLine
 10
-57.4427068931
 20
407.1956543613
 30
0.0
 11
-57.4427068931
 21
220.178832895
 31
0.0
  0
LINE
  5
261
330
1F
100
AcDbEntity
  8
0
  6
Continuous
 62
     7
370
    15
100
AcDbLine
 10
-109.8621309501
 20
441.5384350706
 30
0.0
 11
-110.0691676837
 21
440.7656906534
 31
0.0
  0
LINE
  5
262
330
1F
100
AcDbEntity
  8
0
  6
Continuous
 62
     7
370
    15
100
AcDbLine
 10
-76.7722249729
 20
431.8437992025
 30
0.0
 11
-76.5651882392
 21
432.6165436197
 31
0.0
  0
LINE
  5
263
330
1F
100
AcDbEntity
  8
0
  6
Continuous
 62
     7
370
    15
100
AcDbLine
 10
-110.0691676837
 20
440.7656906534
 30
0.0
 11
-76.7722249729
 21
431.8437992025
 31
0.0
  0
LINE
  5
264
330
1F
100
AcDbEntity
  8
0
  6
Continuous
 62
     7
370
    15
100
AcDbLine
 10
-109.8621309501
 20
441.5384350706
 30
0.0
 11
-76.5651882392
 21
432.6165436197
 31
0.0
  0
LINE
  5
265
330
1F
100
AcDbEntity
  8
0
  6
Continuous
 62
     7
370
    15
100
AcDbLine
 10
-111.6427005035
 20
439.5582942654
 30
0.0
 11
-112.4427140457
 21
439.5582942654
 31
0.0
  0
LINE
  5
266
330
1F
100
AcDbEntity
  8
0
  6
Continuous
 62
     7
370
    15
100
AcDbLine
 10
-112.4427140457
 20
429.187324493
 30
0.0
 11
-111.6427005035
 21
429.187324493
 31
0.0
  0
LINE
  5
267
330
1F
100
AcDbEntity
  8
0
  6
Continuous
 62
     7
370
    15
100
AcDbLine
 10
-112.4427140457
 20
429.187324493
 30
0.0
 11
-112.4427140457
 21
439.5582942654
 31
0.0
  0
LINE
  5
268
330
1F
100
AcDbEntity
  8
0
  6
Continuous
 62
     7
370
    15
100
AcDbLine
 10
-111.6427005035
 20
429.187324493
 30
0.0
 11
-111.6427005035
 21
439.5582942654
 31
0.0
  0
ARC
  5
269
330
1F
100
AcDbEntity
  8
0
  6
Continuous
 62
     7
370
    15
100
AcDbCircle
 10
-110.3927057378
 20
439.5582878504
 30
0.0
 40
2.049999999999997
100
AcDbArc
 50
75.0
 51
180.0
  0
ARC
  5
26A
330
1F
100
AcDbEntity
  8
0
  6
Continuous
 62
     7
370
    15
100
AcDbCircle
 10
-110.3927057378
 20
439.5582878504
 30
0.0
 40
1.250000000000028
100
AcDbArc
 50
75.0
 51
180.0
  0
ARC
  5
26B
330
1F
100
AcDbEntity
  8
0
  6
Continuous
 62
     7
370
    15
100
AcDbCircle
 10
-83.2427057378
 20
407.6956579911
 30
0.0
 40
25.80000000000007
100
AcDbArc
 50
0.0
 51
75.0
  0
LINE
  5
26C
330
1F
100
AcDbEntity
  8
0
  6
Continuous
 62
     7
370
    15
100
AcDbLine
 10
-57.4427068931
 20
407.6956628252
 30
0.0
 11
-58.2427204353
 21
407.6956628252
 31
0.0
  0
ARC
  5
26D
330
1F
100
AcDbEntity
  8
0
  6
Continuous
 62
     7
370
    15
100
AcDbCircle
 10
-83.2427057378
 20
407.6956579911
 30
0.0
 40
25.00000000000001
100
AcDbArc
 50
0.0
 51
75.0
  0
LINE
  5
26E
330
1F
100
AcDbEntity
  8
0
  6
Continuous
 62
     7
370
    15
100
AcDbLine
 10
-58.2427204353
 20
407.6956628252
 30
0.0
 11
-58.2427204353
 21
407.5956611324
 31
0.0
  0
LINE
  5
26F
330
1F
100
AcDbEntity
  8
0
  6
Continuous
 62
     7
370
    15
100
AcDbLine
 10
-58.2427204353
 20
407.5956611324
 30
0.0
 11
-57.4427068931
 21
407.5956611324
 31
0.0
  0
LINE
  5
270
330
1F
100
AcDbEntity
  8
0
  6
Continuous
 62
     7
370
    15
100
AcDbLine
 10
-57.4427068931
 20
407.6956628252
 30
0.0
 11
-57.4427068931
 21
407.5956611324
 31
0.0
  0
LINE
  5
271
330
1F
100
AcDbEntity
  8
0
  6
Continuous
 62
     7
370
    15
100
AcDbLine
 10
-58.2427204353
 20
407.5956611324
 30
0.0
 11
-58.2427204353
 21
407.1956543613
 31
0.0
  0
LINE
  5
272
330
1F
100
AcDbEntity
  8
0
  6
Continuous
 62
     7
370
    15
100
AcDbLine
 10
-57.4427068931
 20
407.1956543613
 30
0.0
 11
-57.4427068931
 21
407.5956611324
 31
0.0
  0
LINE
  5
273
330
1F
100
AcDbEntity
  8
0
  6
Continuous
 62
     8
370
    15
100
AcDbLine
 10
615.5528306264
 20
186.5727832902
 30
0.0
 11
615.1315449971
 21
186.4359012235
 31
0.0
  0
LINE
  5
274
330
1F
100
AcDbEntity
  8
0
  6
Continuous
 62
     8
370
    15
100
AcDbLine
 10
-111.6427005035
 20
434.3873231102
 30
0.0
 11
-111.5427137119
 21
434.3873231102
 31
0.0
  0
LINE
  5
275
330
1F
100
AcDbEntity
  8
0
  6
Continuous
 62
     8
370
    15
100
AcDbLine
 10
-111.0419750911
 20
205.3873195674
 30
0.0
 11
-110.8427167636
 21
205.3873195674
 31
0.0
  0
LINE
  5
276
330
1F
100
AcDbEntity
  8
0
  6
Continuous
 62
     8
370
    15
100
AcDbLine
 10
631.1240970391
 20
241.274094804
 30
0.0
 11
631.1240970391
 21
241.5788328637
 31
0.0
  0
LINE
  5
277
330
1F
100
AcDbEntity
  8
0
  6
Continuous
 62
     8
370
    15
100
AcDbLine
 10
539.8073076504
 20
241.5788328637
 30
0.0
 11
539.8073076504
 21
241.2788333733
 31
0.0
  0
LINE
  5
278
330
1F
100
AcDbEntity
  8
0
  6
Continuous
 62
     8
370
    15
100
AcDbLine
 10
537.6573085087
 20
239.1288323689
 30
0.0
 11
537.3572885293
 21
239.1288323689
 31
0.0
  0
LINE
  5
279
330
1F
100
AcDbEntity
  8
0
  6
Continuous
 62
     8
370
    15
100
AcDbLine
 10
640.4149412411
 20
196.9113327924
 30
0.0
 11
640.1626943844
 21
197.4914955337
 31
0.0
  0
LINE
  5
27A
330
1F
100
AcDbEntity
  8
0
  6
Continuous
 62
     8
370
    15
100
AcDbLine
 10
-34.0424001914
 20
-64.6211685251
 30
0.0
 11
-65.942418645
 21
-64.6211685251
 31
0.0
  0
LINE
  5
27B
330
1F
100
AcDbEntity
  8
0
  6
Continuous
 62
     8
370
    15
100
AcDbLine
 10
-2.1424115402
 20
-64.6211685251
 30
0.0
 11
-34.0424001914
 21
-64.6211685251
 31
0.0
  0
LINE
  5
27C
330
1F
100
AcDbEntity
  8
0
  6
Continuous
 62
     8
370
    15
100
AcDbLine
 10
-34.0424001914
 20
-120.088595302
 30
0.0
 11
-65.942418645
 21
-120.088595302
 31
0.0
  0
LINE
  5
27D
330
1F
100
AcDbEntity
  8
0
  6
Continuous
 62
     8
370
    15
100
AcDbLine
 10
-2.1424115402
 20
-120.088595302
 30
0.0
 11
-34.0424001914
 21
-120.088595302
 31
0.0
  0
LINE
  5
27E
330
1F
100
AcDbEntity
  8
0
  6
Continuous
 62
     8
370
    15
100
AcDbLine
 10
-34.0424001914
 20
-120.8610714983
 30
0.0
 11
-65.8784926635
 21
-120.8610714983
 31
0.0
  0
LINE
  5
27F
330
1F
100
AcDbEntity
  8
0
  6
Continuous
 62
     8
370
    15
100
AcDbLine
 10
-2.2063226205
 20
-120.8610714983
 30
0.0
 11
-34.0424001914
 21
-120.8610714983
 31
0.0
  0
LINE
  5
280
330
1F
100
AcDbEntity
  8
0
  6
Continuous
 62
     8
370
    15
100
AcDbLine
 10
55.9575884837
 20
-61.8211807322
 30
0.0
 11
55.9575884837
 21
-61.4211739611
 31
0.0
  0
LINE
  5
281
330
1F
100
AcDbEntity
  8
0
  6
Continuous
 62
     8
370
    15
100
AcDbLine
 10
475.9575902718
 20
-61.8211807322
 30
0.0
 11
475.9575902718
 21
-61.4211739611
 31
0.0
  0
LINE
  5
282
330
1F
100
AcDbEntity
  8
0
  6
Continuous
 62
     8
370
    15
100
AcDbLine
 10
605.9575855034
 20
-61.8211807322
 30
0.0
 11
605.9575855034
 21
-61.308849008
 31
0.0
  0
LINE
  5
283
330
1F
100
AcDbEntity
  8
0
  6
Continuous
 62
     8
370
    15
100
AcDbLine
 10
-34.0424001914
 20
-159.1211737703
 30
0.0
 11
-62.5424206954
 21
-159.1211737703
 31
0.0
  0
LINE
  5
284
330
1F
100
AcDbEntity
  8
0
  6
Continuous
 62
     8
370
    15
100
AcDbLine
 10
-5.5424094898
 20
-159.1211737703
 30
0.0
 11
-34.0424001914
 21
-159.1211737703
 31
0.0
  0
LINE
  5
285
330
1F
100
AcDbEntity
  8
0
  6
Continuous
 62
     8
370
    15
100
AcDbLine
 10
537.6573085087
 20
205.4288328055
 30
0.0
 11
537.6073002118
 21
205.4288328055
 31
0.0
  0
LINE
  5
286
330
1F
100
AcDbEntity
  8
0
  6
Continuous
 62
     8
370
    15
100
AcDbLine
 10
595.1572834748
 20
206.6288326297
 30
0.0
 11
595.0572966832
 21
206.6288326297
 31
0.0
  0
LINE
  5
287
330
1F
100
AcDbEntity
  8
0
  6
Continuous
 62
     8
370
    15
100
AcDbLine
 10
671.3289796609
 20
-19.4539012026
 30
0.0
 11
671.3289796609
 21
-2.2588403534
 31
0.0
  0
LINE
  5
288
330
1F
100
AcDbEntity
  8
0
  6
Continuous
 62
     8
370
    15
100
AcDbLine
 10
671.3289796609
 20
8.541163652
 30
0.0
 11
671.3289796609
 21
25.7362245012
 31
0.0
  0
LINE
  5
289
330
1F
100
AcDbEntity
  8
0
  6
Continuous
 62
     8
370
    15
100
AcDbLine
 10
691.367942025
 20
-16.6241706919
 30
0.0
 11
691.367942025
 21
-13.179499061
 31
0.0
  0
LINE
  5
28A
330
1F
100
AcDbEntity
  8
0
  6
Continuous
 62
     8
370
    15
100
AcDbLine
 10
661.9575797814
 20
-2.8548122953
 30
0.0
 11
659.9575757283
 21
-2.83074692
 31
0.0
  0
LINE
  5
28B
330
1F
100
AcDbEntity
  8
0
  6
Continuous
 62
     8
370
    15
100
AcDbLine
 10
661.9575797814
 20
-3.9138378214
 30
0.0
 11
659.9575757283
 21
-3.8849146675
 31
0.0
  0
LINE
  5
28C
330
1F
100
AcDbEntity
  8
0
  6
Continuous
 62
     8
370
    15
100
AcDbLine
 10
571.8575894135
 20
-64.6211685251
 30
0.0
 11
508.0575823086
 21
-64.6211685251
 31
0.0
  0
LINE
  5
28D
330
1F
100
AcDbEntity
  8
0
  6
Continuous
 62
     8
370
    15
100
AcDbLine
 10
571.793663432
 20
-120.8610714983
 30
0.0
 11
508.1215082902
 21
-120.8610714983
 31
0.0
  0
LINE
  5
28E
330
1F
100
AcDbEntity
  8
0
  6
Continuous
 62
     8
370
    15
100
AcDbLine
 10
571.8575894135
 20
-120.088595302
 30
0.0
 11
508.0575823086
 21
-120.088595302
 31
0.0
  0
LINE
  5
28F
330
1F
100
AcDbEntity
  8
0
  6
Continuous
 62
     8
370
    15
100
AcDbLine
 10
568.4575914639
 20
-159.1211737703
 30
0.0
 11
511.4575802582
 21
-159.1211737703
 31
0.0
  0
LINE
  5
290
330
1F
100
AcDbEntity
  8
0
  6
Continuous
 62
     8
370
    15
100
AcDbLine
 10
594.5027648705
 20
202.9288328614
 30
0.0
 11
594.7458922165
 21
202.9288328614
 31
0.0
  0
LINE
  5
291
330
1F
100
AcDbEntity
  8
0
  6
Continuous
 62
     8
370
    15
100
AcDbLine
 10
488.7760757702
 20
222.1788322915
 30
0.0
 11
488.7760757702
 21
220.5525707815
 31
0.0
  0
LWPOLYLINE
  5
292
330
1F
100
AcDbEntity
  8
0
  6
Continuous
 62
     8
370
    15
100
AcDbPolyline
 90
        3
 70
   128
 43
0.0
 10
477.4458288449
 20
222.1788322915
 10
477.6194571751
 20
221.5280222137
 10
477.7143477696
 20
220.5525707815
  0
LWPOLYLINE
  5
293
330
1F
100
AcDbEntity
  8
0
  6
Continuous
 62
     8
370
    15
100
AcDbPolyline
 90
        3
 70
   128
 43
0.0
 10
518.106299569
 20
222.1788322915
 10
517.9326712388
 20
221.5280222137
 10
517.8377806443
 20
220.5525707815
  0
LINE
  5
294
330
1F
100
AcDbEntity
  8
0
  6
Continuous
 62
     8
370
    15
100
AcDbLine
 10
506.7760526436
 20
222.1788322915
 30
0.0
 11
506.7760526436
 21
220.5525707815
 31
0.0
  0
LINE
  5
295
330
1F
100
AcDbEntity
  8
0
  6
Continuous
 62
     8
370
    15
100
AcDbLine
 10
488.7760757702
 20
220.5525707815
 30
0.0
 11
488.7760757702
 21
220.178832895
 31
0.0
  0
LINE
  5
296
330
1F
100
AcDbEntity
  8
0
  6
Continuous
 62
     8
370
    15
100
AcDbLine
 10
506.7760526436
 20
220.178832895
 30
0.0
 11
506.7760526436
 21
220.5525707815
 31
0.0
  0
LINE
  5
297
330
1F
100
AcDbEntity
  8
0
  6
Continuous
 62
     8
370
    15
100
AcDbLine
 10
672.6575969952
 20
3.1411616493
 30
0.0
 11
672.6575969952
 21
8.541163652
 31
0.0
  0
LINE
  5
298
330
1F
100
AcDbEntity
  8
0
  6
Continuous
 62
     8
370
    15
100
AcDbLine
 10
672.6575969952
 20
-2.2588403534
 30
0.0
 11
672.6575969952
 21
3.1411616493
 31
0.0
  0
LINE
  5
299
330
1F
100
AcDbEntity
  8
0
  6
Continuous
 62
     8
370
    15
100
AcDbLine
 10
614.1780792969
 20
185.9655665595
 30
0.0
 11
614.1780792969
 21
185.4788331676
 31
0.0
  0
LWPOLYLINE
  5
29A
330
1F
100
AcDbEntity
  8
0
  6
Continuous
 62
     8
370
    15
100
AcDbPolyline
 90
        8
 70
   128
 43
0.0
 10
615.1165246266
 20
185.2837490279
 10
615.0929509896
 20
185.2760879684
 10
615.0489925641
 20
185.2618107934
 10
614.9898647564
 20
185.242595746
 10
614.9178027409
 20
185.2191822965
 10
614.8356079358
 20
185.1924682398
 10
614.7463797825
 20
185.1634836186
 10
614.6536051529
 20
185.1333404321
  0
ENDSEC
  0
SECTION
  2
OBJECTS
  0
DICTIONARY
  5
C
330
0
100
AcDbDictionary
281
     1
  3
ACAD_GROUP
350
D
  3
ACAD_LAYOUT
350
1A
  3
ACAD_MATERIAL
350
3B
  3
ACAD_MLEADERSTYLE
350
29C
  3
ACAD_MLINESTYLE
350
17
  3
ACAD_PLOTSETTINGS
350
19
  3
ACAD_PLOTSTYLENAME
350
E
  3
ACAD_TABLESTYLE
350
29B
  3
ACAD_VISUALSTYLE
350
2A
  0
DICTIONARY
  5
D
102
{ACAD_REACTORS
330
C
102
}
330
C
100
AcDbDictionary
281
     1
  0
DICTIONARY
  5
1A
102
{ACAD_REACTORS
330
C
102
}
330
C
100
AcDbDictionary
281
     1
  3
Layout1
350
1E
  3
Layout2
350
26
  3
Model
350
22
  0
DICTIONARY
  5
3B
102
{ACAD_REACTORS
330
C
102
}
330
C
100
AcDbDictionary
281
     1
  3
ByBlock
350
3D
  3
ByLayer
350
3C
  3
Global
350
3E
  0
DICTIONARY
  5
29C
102
{ACAD_REACTORS
330
C
102
}
330
C
100
AcDbDictionary
281
     1
  0
DICTIONARY
  5
17
102
{ACAD_REACTORS
330
C
102
}
330
C
100
AcDbDictionary
281
     1
  3
Standard
350
18
  0
DICTIONARY
  5
19
102
{ACAD_REACTORS
330
C
102
}
330
C
100
AcDbDictionary
281
     1
  0
ACDBDICTIONARYWDFLT
  5
E
102
{ACAD_REACTORS
330
C
102
}
330
C
100
AcDbDictionary
281
     1
  3
Normal
350
F
100
AcDbDictionaryWithDefault
340
F
  0
DICTIONARY
  5
29B
102
{ACAD_REACTORS
330
C
102
}
330
C
100
AcDbDictionary
281
     1
  0
DICTIONARY
  5
2A
102
{ACAD_REACTORS
330
C
102
}
330
C
100
AcDbDictionary
281
     1
  3
2dWireframe
350
2F
  3
3D Hidden
350
31
  3
3dWireframe
350
30
  3
Basic
350
32
  3
Brighten
350
36
  3
ColorChange
350
3A
  3
Conceptual
350
34
  3
Dim
350
35
  3
Facepattern
350
39
  3
Flat
350
2B
  3
FlatWithEdges
350
2C
  3
Gouraud
350
2D
  3
GouraudWithEdges
350
2E
  3
Linepattern
350
38
  3
Realistic
350
33
  3
Thicken
350
37
  0
LAYOUT
  5
1E
102
{ACAD_REACTORS
330
1A
102
}
330
1A
100
AcDbPlotSettings
  1

  2
none_device
  4

  6

 40
0.0
 41
0.0
 42
0.0
 43
0.0
 44
0.0
 45
0.0
 46
0.0
 47
0.0
 48
0.0
 49
0.0
140
0.0
141
0.0
142
1.0
143
1.0
 70
   688
 72
     0
 73
     0
 74
     5
  7

 75
    16
 76
     0
 77
     2
 78
   300
147
1.0
148
0.0
149
0.0
100
AcDbLayout
  1
Layout1
 70
     1
 71
     1
 10
0.0
 20
0.0
 11
420.0
 21
297.0
 12
0.0
 22
0.0
 32
0.0
 14
1.0000000000E+20
 24
1.0000000000E+20
 34
1.0000000000E+20
 15
-1.0000000000E+20
 25
-1.0000000000E+20
 35
-1.0000000000E+20
146
0.0
 13
0.0
 23
0.0
 33
0.0
 16
1.0
 26
0.0
 36
0.0
 17
0.0
 27
1.0
 37
0.0
 76
     0
330
1B
  0
LAYOUT
  5
26
102
{ACAD_REACTORS
330
1A
102
}
330
1A
100
AcDbPlotSettings
  1

  2
none_device
  4

  6

 40
0.0
 41
0.0
 42
0.0
 43
0.0
 44
0.0
 45
0.0
 46
0.0
 47
0.0
 48
0.0
 49
0.0
140
0.0
141
0.0
142
1.0
143
1.0
 70
   688
 72
     0
 73
     0
 74
     5
  7

 75
    16
 76
     0
 77
     2
 78
   300
147
1.0
148
0.0
149
0.0
100
AcDbLayout
  1
Layout2
 70
     1
 71
     2
 10
0.0
 20
0.0
 11
0.0
 21
0.0
 12
0.0
 22
0.0
 32
0.0
 14
0.0
 24
0.0
 34
0.0
 15
0.0
 25
0.0
 35
0.0
146
0.0
 13
0.0
 23
0.0
 33
0.0
 16
1.0
 26
0.0
 36
0.0
 17
0.0
 27
1.0
 37
0.0
 76
     0
330
23
  0
LAYOUT
  5
22
102
{ACAD_REACTORS
330
1A
102
}
330
1A
100
AcDbPlotSettings
  1

  2
none_device
  4

  6

 40
0.0
 41
0.0
 42
0.0
 43
0.0
 44
0.0
 45
0.0
 46
0.0
 47
0.0
 48
0.0
 49
0.0
140
0.0
141
0.0
142
1.0
143
1.0
 70
  1712
 72
     0
 73
     0
 74
     0
  7

 75
     0
 76
     0
 77
     2
 78
   300
147
1.0
148
0.0
149
0.0
100
AcDbLayout
  1
Model
 70
     1
 71
     0
 10
0.0
 20
0.0
 11
420.0
 21
297.0
 12
0.0
 22
0.0
 32
0.0
 14
0.0
 24
0.0
 34
0.0
 15
420.0
 25
297.0
 35
0.0
146
0.0
 13
0.0
 23
0.0
 33
0.0
 16
1.0
 26
0.0
 36
0.0
 17
0.0
 27
1.0
 37
0.0
 76
     0
330
1F
331
29
  0
MATERIAL
  5
3D
102
{ACAD_REACTORS
330
3B
102
}
330
3B
100
AcDbMaterial
  1
ByBlock
 72
     1
 94
      127
  0
MATERIAL
  5
3C
102
{ACAD_REACTORS
330
3B
102
}
330
3B
100
AcDbMaterial
  1
ByLayer
 72
     1
 94
      127
  0
MATERIAL
  5
3E
102
{ACAD_REACTORS
330
3B
102
}
330
3B
100
AcDbMaterial
  1
Global
 72
     1
 94
      127
  0
MLINESTYLE
  5
18
102
{ACAD_REACTORS
330
17
102
}
330
17
100
AcDbMlineStyle
  2
Standard
 70
     0
  3

 62
   256
 51
90.0
 52
90.0
 71
     2
 49
0.5
 62
   256
  6
BYLAYER
 49
-0.5
 62
   256
  6
BYLAYER
  0
ACDBPLACEHOLDER
  5
F
102
{ACAD_REACTORS
330
E
102
}
330
E
  0
VISUALSTYLE
  5
2F
102
{ACAD_REACTORS
330
2A
102
}
330
2A
100
AcDbVisualStyle
  2
2dWireframe
 70
     4
 71
     0
 72
     2
 73
     0
 90
        0
 40
-0.6
 41
-30.0
 62
     5
 63
     7
421
 16777215
 74
     1
 91
        4
 64
     7
 65
   257
 75
     1
175
     1
 42
1.0
 92
        0
 66
   257
 43
1.0
 76
     1
 77
     6
 78
     2
 67
     7
 79
     5
170
     0
171
     0
290
     0
174
     0
 93
        1
 44
0.0
173
     0
291
     0
 45
0.0
  0
VISUALSTYLE
  5
31
102
{ACAD_REACTORS
330
2A
102
}
330
2A
100
AcDbVisualStyle
  2
3D Hidden
 70
     6
 71
     1
 72
     2
 73
     2
 90
        0
 40
-0.6
 41
-30.0
 62
     5
 63
     7
421
 16777215
 74
     2
 91
        2
 64
     7
 65
   257
 75
     2
175
     1
 42
40.0
 92
        0
 66
   257
 43
1.0
 76
     1
 77
     6
 78
     2
 67
     7
 79
     3
170
     0
171
     0
290
     0
174
     0
 93
        1
 44
0.0
173
     0
291
     0
 45
0.0
  0
VISUALSTYLE
  5
30
102
{ACAD_REACTORS
330
2A
102
}
330
2A
100
AcDbVisualStyle
  2
3dWireframe
 70
     5
 71
     0
 72
     2
 73
     0
 90
        0
 40
-0.6
 41
-30.0
 62
     5
 63
     7
421
 16777215
 74
     1
 91
        4
 64
     7
 65
   257
 75
     1
175
     1
 42
1.0
 92
        0
 66
   257
 43
1.0
 76
     1
 77
     6
 78
     2
 67
     7
 79
     5
170
     0
171
     0
290
     0
174
     0
 93
        1
 44
0.0
173
     0
291
     0
 45
0.0
  0
VISUALSTYLE
  5
32
102
{ACAD_REACTORS
330
2A
102
}
330
2A
100
AcDbVisualStyle
  2
Basic
 70
     7
 71
     1
 72
     0
 73
     1
 90
        0
 40
-0.6
 41
-30.0
 62
     5
 63
     7
421
 16777215
 74
     0
 91
        4
 64
     7
 65
   257
 75
     1
175
     1
 42
1.0
 92
        8
 66
     7
 43
1.0
 76
     1
 77
     6
 78
     2
 67
     7
 79
     5
170
     0
171
     0
290
     0
174
     0
 93
        1
 44
0.0
173
     0
291
     1
 45
0.0
  0
VISUALSTYLE
  5
36
102
{ACAD_REACTORS
330
2A
102
}
330
2A
100
AcDbVisualStyle
  2
Brighten
 70
    12
 71
     2
 72
     2
 73
     0
 90
        0
 40
-0.6
 41
-30.0
 62
     5
 63
     7
421
 16777215
 74
     1
 91
        4
 64
     7
 65
   257
 75
     1
175
     1
 42
1.0
 92
        8
 66
     7
 43
1.0
 76
     1
 77
     6
 78
     2
 67
     7
 79
     5
170
     0
171
     0
290
     0
174
     0
 93
        1
 44
50.0
173
     0
291
     1
 45
0.0
  0
VISUALSTYLE
  5
3A
102
{ACAD_REACTORS
330
2A
102
}
330
2A
100
AcDbVisualStyle
  2
ColorChange
 70
    16
 71
     2
 72
     2
 73
     3
 90
        0
 40
-0.6
 41
-30.0
 62
     5
 63
     8
421
  8421504
 74
     1
 91
        4
 64
     7
 65
   257
 75
     1
175
     1
 42
1.0
 92
        8
 66
     8
424
  8421504
 43
1.0
 76
     1
 77
     6
 78
     2
 67
     7
 79
     5
170
     0
171
     0
290
     0
174
     0
 93
        1
 44
0.0
173
     0
291
     1
 45
0.0
  0
VISUALSTYLE
  5
34
102
{ACAD_REACTORS
330
2A
102
}
330
2A
100
AcDbVisualStyle
  2
Conceptual
 70
     9
 71
     3
 72
     2
 73
     0
 90
        0
 40
-0.6
 41
-30.0
 62
     5
 63
     7
421
 16777215
 74
     2
 91
        2
 64
     7
 65
   257
 75
     1
175
     1
 42
40.0
 92
        8
 66
     7
 43
1.0
 76
     1
 77
     6
 78
     2
 67
     7
 79
     3
170
     0
171
     0
290
     0
174
     0
 93
        1
 44
0.0
173
     0
291
     0
 45
0.0
  0
VISUALSTYLE
  5
35
102
{ACAD_REACTORS
330
2A
102
}
330
2A
100
AcDbVisualStyle
  2
Dim
 70
    11
 71
     2
 72
     2
 73
     0
 90
        0
 40
-0.6
 41
-30.0
 62
     5
 63
     7
421
 16777215
 74
     1
 91
        4
 64
     7
 65
   257
 75
     1
175
     1
 42
1.0
 92
        8
 66
     7
 43
1.0
 76
     1
 77
     6
 78
     2
 67
     7
 79
     5
170
     0
171
     0
290
     0
174
     0
 93
        1
 44
-50.0
173
     0
291
     1
 45
0.0
  0
VISUALSTYLE
  5
39
102
{ACAD_REACTORS
330
2A
102
}
330
2A
100
AcDbVisualStyle
  2
Facepattern
 70
    15
 71
     2
 72
     2
 73
     0
 90
        0
 40
-0.6
 41
-30.0
 62
     5
 63
     7
421
 16777215
 74
     1
 91
        4
 64
     7
 65
   257
 75
     1
175
     1
 42
1.0
 92
        8
 66
     7
 43
1.0
 76
     1
 77
     6
 78
     2
 67
     7
 79
     5
170
     0
171
     0
290
     0
174
     0
 93
        1
 44
0.0
173
     0
291
     1
 45
0.0
  0
VISUALSTYLE
  5
2B
102
{ACAD_REACTORS
330
2A
102
}
330
2A
100
AcDbVisualStyle
  2
Flat
 70
     0
 71
     2
 72
     1
 73
     1
 90
        2
 40
-0.6
 41
30.0
 62
     5
 63
     7
421
 16777215
 74
     0
 91
        4
 64
     7
 65
   257
 75
     1
175
     1
 42
1.0
 92
        8
 66
     7
 43
1.0
 76
     1
 77
     6
 78
     2
 67
     7
 79
     5
170
     0
171
     0
290
     0
174
     0
 93
       13
 44
0.0
173
     0
291
     1
 45
0.0
  0
VISUALSTYLE
  5
2C
102
{ACAD_REACTORS
330
2A
102
}
330
2A
100
AcDbVisualStyle
  2
FlatWithEdges
 70
     1
 71
     2
 72
     1
 73
     1
 90
        2
 40
-0.6
 41
30.0
 62
     5
 63
     7
421
 16777215
 74
     1
 91
        4
 64
     7
 65
   257
 75
     1
175
     1
 42
1.0
 92
        0
 66
   257
 43
1.0
 76
     1
 77
     6
 78
     2
 67
     7
 79
     5
170
     0
171
     0
290
     0
174
     0
 93
       13
 44
0.0
173
     0
291
     1
 45
0.0
  0
VISUALSTYLE
  5
2D
102
{ACAD_REACTORS
330
2A
102
}
330
2A
100
AcDbVisualStyle
  2
Gouraud
 70
     2
 71
     2
 72
     2
 73
     1
 90
        2
 40
-0.6
 41
30.0
 62
     5
 63
     7
421
 16777215
 74
     0
 91
        4
 64
     7
 65
   257
 75
     1
175
     1
 42
1.0
 92
        0
 66
     7
 43
1.0
 76
     1
 77
     6
 78
     2
 67
     7
 79
     5
170
     0
171
     0
290
     0
174
     0
 93
       13
 44
0.0
173
     0
291
     1
 45
0.0
  0
VISUALSTYLE
  5
2E
102
{ACAD_REACTORS
330
2A
102
}
330
2A
100
AcDbVisualStyle
  2
GouraudWithEdges
 70
     3
 71
     2
 72
     2
 73
     1
 90
        2
 40
-0.6
 41
30.0
 62
     5
 63
     7
421
 16777215
 74
     1
 91
        4
 64
     7
 65
   257
 75
     1
175
     1
 42
1.0
 92
        0
 66
   257
 43
1.0
 76
     1
 77
     6
 78
     2
 67
     7
 79
     5
170
     0
171
     0
290
     0
174
     0
 93
       13
 44
0.0
173
     0
291
     1
 45
0.0
  0
VISUALSTYLE
  5
38
102
{ACAD_REACTORS
330
2A
102
}
330
2A
100
AcDbVisualStyle
  2
Linepattern
 70
    14
 71
     2
 72
     2
 73
     0
 90
        0
 40
-0.6
 41
-30.0
 62
     5
 63
     7
421
 16777215
 74
     1
 91
        4
 64
     7
 65
   257
 75
     7
175
     7
 42
1.0
 92
        8
 66
     7
 43
1.0
 76
     1
 77
     6
 78
     2
 67
     7
 79
     5
170
     0
171
     0
290
     0
174
     0
 93
        1
 44
0.0
173
     0
291
     1
 45
0.0
  0
VISUALSTYLE
  5
33
102
{ACAD_REACTORS
330
2A
102
}
330
2A
100
AcDbVisualStyle
  2
Realistic
 70
     8
 71
     2
 72
     2
 73
     0
 90
        0
 40
-0.6
 41
-30.0
 62
     5
 63
     7
421
 16777215
 74
     1
 91
        0
 64
     7
 65
   257
 75
     1
175
     1
 42
1.0
 92
        8
 66
     8
424
  7895160
 43
1.0
 76
     1
 77
     6
 78
     2
 67
     7
 79
     5
170
     0
171
     0
290
     0
174
     0
 93
       13
 44
0.0
173
     0
291
     0
 45
0.0
  0
VISUALSTYLE
  5
37
102
{ACAD_REACTORS
330
2A
102
}
330
2A
100
AcDbVisualStyle
  2
Thicken
 70
    13
 71
     2
 72
     2
 73
     0
 90
        0
 40
-0.6
 41
-30.0
 62
     5
 63
     7
421
 16777215
 74
     1
 91
        4
 64
     7
 65
   257
 75
     1
175
     1
 42
1.0
 92
       12
 66
     7
 43
1.0
 76
     1
 77
     6
 78
     2
 67
     7
 79
     5
170
     0
171
     0
290
     0
174
     0
 93
        1
 44
0.0
173
     0
291
     1
 45
0.0
  0
ENDSEC
  0
EOF
