  0
SECTION
  2
HEADER
  9
$ACADVER
  1
AC1021
  9
$ACADMAINTVER
 70
    25
  9
$DWGCODEPAGE
  3
ANSI_1252
  9
$INSBASE
 10
0.0
 20
0.0
 30
0.0
  9
$EXTMIN
 10
0.0
 20
0.0
 30
0.0
  9
$EXTMAX
 10
420.0
 20
297.0
 30
0.0
  9
$LIMMIN
 10
0.0
 20
0.0
  9
$LIMMAX
 10
420.0
 20
297.0
  9
$ORTHOMODE
 70
     0
  9
$REGENMODE
 70
     1
  9
$FILLMODE
 70
     1
  9
$QTEXTMODE
 70
     0
  9
$MIRRTEXT
 70
     1
  9
$LTSCALE
 40
1.0
  9
$ATTMODE
 70
     1
  9
$TEXTSIZE
 40
3.5
  9
$TRACEWID
 40
1.0
  9
$TEXTSTYLE
  7
Standard
  9
$CLAYER
  8
0
  9
$CELTYPE
  6
ByLayer
  9
$CECOLOR
 62
   256
  9
$CELTSCALE
 40
1.0
  9
$DISPSILH
 70
     0
  9
$DIMSCALE
 40
1.0
  9
$DIMASZ
 40
3.302
  9
$DIMEXO
 40
1.0
  9
$DIMDLI
 40
3.75
  9
$DIMRND
 40
0.0
  9
$DIMDLE
 40
0.0
  9
$DIMEXE
 40
1.0
  9
$DIMTP
 40
0.0
  9
$DIMTM
 40
0.0
  9
$DIMTXT
 40
3.5
  9
$DIMCEN
 40
2.5
  9
$DIMTSZ
 40
0.0
  9
$DIMTOL
 70
     0
  9
$DIMLIM
 70
     0
  9
$DIMTIH
 70
     1
  9
$DIMTOH
 70
     1
  9
$DIMSE1
 70
     0
  9
$DIMSE2
 70
     0
  9
$DIMTAD
 70
     1
  9
$DIMZIN
 70
     0
  9
$DIMBLK
  1

  9
$DIMASO
 70
     1
  9
$DIMSHO
 70
     1
  9
$DIMPOST
  1

  9
$DIMAPOST
  1

  9
$DIMALT
 70
     0
  9
$DIMALTD
 70
     3
  9
$DIMALTF
 40
0.0393700787
  9
$DIMLFAC
 40
1.0
  9
$DIMTOFL
 70
     1
  9
$DIMTVP
 40
0.0
  9
$DIMTIX
 70
     0
  9
$DIMSOXD
 70
     0
  9
$DIMSAH
 70
     0
  9
$DIMBLK1
  1

  9
$DIMBLK2
  1

  9
$DIMSTYLE
  2
ISO-25
  9
$DIMCLRD
 70
     0
  9
$DIMCLRE
 70
     0
  9
$DIMCLRT
 70
     0
  9
$DIMTFAC
 40
1.0
  9
$DIMGAP
 40
1.524
  9
$DIMJUST
 70
     0
  9
$DIMSD1
 70
     0
  9
$DIMSD2
 70
     0
  9
$DIMTOLJ
 70
     0
  9
$DIMTZIN
 70
     0
  9
$DIMALTZ
 70
     0
  9
$DIMALTTZ
 70
     0
  9
$DIMUPT
 70
     0
  9
$DIMDEC
 70
     1
  9
$DIMTDEC
 70
     1
  9
$DIMALTU
 70
     2
  9
$DIMALTTD
 70
     3
  9
$DIMTXSTY
  7
Standard
  9
$DIMAUNIT
 70
     0
  9
$DIMADEC
 70
     1
  9
$DIMALTRND
 40
0.0
  9
$DIMAZIN
 70
     0
  9
$DIMDSEP
 70
    44
  9
$DIMATFIT
 70
     3
  9
$DIMFRAC
 70
     0
  9
$DIMLDRBLK
  1

  9
$DIMLUNIT
 70
     2
  9
$DIMLWD
 70
    -2
  9
$DIMLWE
 70
    -2
  9
$DIMTMOVE
 70
     0
  9
$DIMFXL
 40
1.0
  9
$DIMFXLON
 70
     0
  9
$DIMJOGANG
 40
0.7853981634
  9
$DIMTFILL
 70
     0
  9
$DIMTFILLCLR
 70
     0
  9
$DIMARCSYM
 70
     0
  9
$DIMLTYPE
  6

  9
$DIMLTEX1
  6

  9
$DIMLTEX2
  6

  9
$LUNITS
 70
     2
  9
$LUPREC
 70
     1
  9
$SKETCHINC
 40
1.0
  9
$FILLETRAD
 40
10.0
  9
$AUNITS
 70
     0
  9
$AUPREC
 70
     1
  9
$MENU
  1
.
  9
$ELEVATION
 40
0.0
  9
$PELEVATION
 40
0.0
  9
$THICKNESS
 40
0.0
  9
$LIMCHECK
 70
     0
  9
$CHAMFERA
 40
10.0
  9
$CHAMFERB
 40
10.0
  9
$CHAMFERC
 40
20.0
  9
$CHAMFERD
 40
0.0
  9
$SKPOLY
 70
     0
  9
$TDCREATE
 40
2455747.449157361
  9
$TDUCREATE
 40
2455747.407490694
  9
$TDUPDATE
 40
2455747.449157373
  9
$TDUUPDATE
 40
2455747.407490706
  9
$TDINDWG
 40
0.0000000116
  9
$TDUSRTIMER
 40
0.0000000116
  9
$USRTIMER
 70
     1
  9
$ANGBASE
 50
0.0
  9
$ANGDIR
 70
     0
  9
$PDMODE
 70
     0
  9
$PDSIZE
 40
-1.0
  9
$PLINEWID
 40
0.0
  9
$SPLFRAME
 70
     0
  9
$SPLINETYPE
 70
     6
  9
$SPLINESEGS
 70
     8
  9
$HANDSEED
  5
214
  9
$SURFTAB1
 70
     6
  9
$SURFTAB2
 70
     6
  9
$SURFTYPE
 70
     6
  9
$SURFU
 70
     6
  9
$SURFV
 70
     6
  9
$UCSBASE
  2

  9
$UCSNAME
  2

  9
$UCSORG
 10
0.0
 20
0.0
 30
0.0
  9
$UCSXDIR
 10
1.0
 20
0.0
 30
0.0
  9
$UCSYDIR
 10
0.0
 20
1.0
 30
0.0
  9
$UCSORTHOREF
  2

  9
$UCSORTHOVIEW
 70
     0
  9
$UCSORGTOP
 10
0.0
 20
0.0
 30
0.0
  9
$UCSORGBOTTOM
 10
0.0
 20
0.0
 30
0.0
  9
$UCSORGLEFT
 10
0.0
 20
0.0
 30
0.0
  9
$UCSORGRIGHT
 10
0.0
 20
0.0
 30
0.0
  9
$UCSORGFRONT
 10
0.0
 20
0.0
 30
0.0
  9
$UCSORGBACK
 10
0.0
 20
0.0
 30
0.0
  9
$PUCSBASE
  2

  9
$PUCSNAME
  2

  9
$PUCSORG
 10
0.0
 20
0.0
 30
0.0
  9
$PUCSXDIR
 10
1.0
 20
0.0
 30
0.0
  9
$PUCSYDIR
 10
0.0
 20
1.0
 30
0.0
  9
$PUCSORTHOREF
  2

  9
$PUCSORTHOVIEW
 70
     0
  9
$PUCSORGTOP
 10
0.0
 20
0.0
 30
0.0
  9
$PUCSORGBOTTOM
 10
0.0
 20
0.0
 30
0.0
  9
$PUCSORGLEFT
 10
0.0
 20
0.0
 30
0.0
  9
$PUCSORGRIGHT
 10
0.0
 20
0.0
 30
0.0
  9
$PUCSORGFRONT
 10
0.0
 20
0.0
 30
0.0
  9
$PUCSORGBACK
 10
0.0
 20
0.0
 30
0.0
  9
$USERI1
 70
     0
  9
$USERI2
 70
     0
  9
$USERI3
 70
     0
  9
$USERI4
 70
     0
  9
$USERI5
 70
     0
  9
$USERR1
 40
0.0
  9
$USERR2
 40
0.0
  9
$USERR3
 40
0.0
  9
$USERR4
 40
0.0
  9
$USERR5
 40
0.0
  9
$WORLDVIEW
 70
     1
  9
$SHADEDGE
 70
     3
  9
$SHADEDIF
 70
    70
  9
$TILEMODE
 70
     1
  9
$MAXACTVP
 70
    64
  9
$PINSBASE
 10
0.0
 20
0.0
 30
0.0
  9
$PLIMCHECK
 70
     0
  9
$PEXTMIN
 10
1.0000000000E+20
 20
1.0000000000E+20
 30
1.0000000000E+20
  9
$PEXTMAX
 10
-1.0000000000E+20
 20
-1.0000000000E+20
 30
-1.0000000000E+20
  9
$PLIMMIN
 10
0.0
 20
0.0
  9
$PLIMMAX
 10
420.0
 20
297.0
  9
$UNITMODE
 70
     0
  9
$VISRETAIN
 70
     1
  9
$PLINEGEN
 70
     0
  9
$PSLTSCALE
 70
     1
  9
$TREEDEPTH
 70
  3020
  9
$CMLSTYLE
  2
Standard
  9
$CMLJUST
 70
     0
  9
$CMLSCALE
 40
20.0
  9
$PROXYGRAPHICS
 70
     1
  9
$MEASUREMENT
 70
     1
  9
$CELWEIGHT
370
    -1
  9
$ENDCAPS
280
     0
  9
$JOINSTYLE
280
     0
  9
$LWDISPLAY
290
     1
  9
$INSUNITS
 70
     4
  9
$HYPERLINKBASE
  1

  9
$STYLESHEET
  1

  9
$XEDIT
290
     1
  9
$CEPSNTYPE
380
     0
  9
$PSTYLEMODE
290
     1
  9
$FINGERPRINTGUID
  2
{676ADCD1-72CD-4D8C-B53A-B5EBD9B408AD}
  9
$VERSIONGUID
  2
{FAEB1C32-E019-11D5-929B-00C0DF256EC4}
  9
$EXTNAMES
290
     1
  9
$PSVPSCALE
 40
0.0
  9
$OLESTARTUP
290
     0
  9
$SORTENTS
280
   127
  9
$INDEXCTL
280
     0
  9
$HIDETEXT
280
     1
  9
$XCLIPFRAME
290
     0
  9
$HALOGAP
280
     0
  9
$OBSCOLOR
 70
   257
  9
$OBSLTYPE
280
     0
  9
$INTERSECTIONDISPLAY
280
     0
  9
$INTERSECTIONCOLOR
 70
   257
  9
$DIMASSOC
280
     2
  9
$PROJECTNAME
  1

  9
$CAMERADISPLAY
290
     0
  9
$LENSLENGTH
 40
50.0
  9
$CAMERAHEIGHT
 40
0.0
  9
$STEPSPERSEC
 40
2.0
  9
$STEPSIZE
 40
6.0
  9
$3DDWFPREC
 40
2.0
  9
$PSOLWIDTH
 40
5.0
  9
$PSOLHEIGHT
 40
80.0
  9
$LOFTANG1
 40
1.5707963268
  9
$LOFTANG2
 40
1.5707963268
  9
$LOFTMAG1
 40
0.0
  9
$LOFTMAG2
 40
0.0
  9
$LOFTPARAM
 70
     7
  9
$LOFTNORMALS
280
     1
  9
$LATITUDE
 40
37.795
  9
$LONGITUDE
 40
-122.394
  9
$NORTHDIRECTION
 40
0.0
  9
$TIMEZONE
 70
 -8000
  9
$LIGHTGLYPHDISPLAY
280
     1
  9
$TILEMODELIGHTSYNCH
280
     1
  9
$SOLIDHIST
280
     1
  9
$SHOWHIST
280
     1
  9
$DWFFRAME
280
     2
  9
$DGNFRAME
280
     2
  9
$REALWORLDSCALE
290
     1
  9
$INTERFERECOLOR
 62
   256
  9
$CSHADOW
280
     0
  9
$SHADOWPLANELOCATION
 40
0.0
  0
ENDSEC
  0
SECTION
  2
CLASSES
  0
CLASS
  1
ACDBDICTIONARYWDFLT
  2
AcDbDictionaryWithDefault
  3
ObjectDBX Classes
 90
        0
 91
        4
280
     0
281
     0
  0
CLASS
  1
VISUALSTYLE
  2
AcDbVisualStyle
  3
ObjectDBX Classes
 90
     4095
 91
        4
280
     0
281
     0
  0
CLASS
  1
MATERIAL
  2
AcDbMaterial
  3
ObjectDBX Classes
 90
     1153
 91
        4
280
     0
281
     0
  0
ENDSEC
  0
SECTION
  2
TABLES
  0
TABLE
  2
VPORT
  5
8
330
0
100
AcDbSymbolTable
 70
     1
  0
VPORT
  5
29
330
8
100
AcDbSymbolTableRecord
100
AcDbViewportTableRecord
  2
*Active
 70
     0
 10
0.0
 20
0.0
 11
1.0
 21
1.0
 12
210.0
 22
148.5
 13
0.0
 23
0.0
 14
10.0
 24
10.0
 15
10.0
 25
10.0
 16
0.0
 26
0.0
 36
1.0
 17
0.0
 27
0.0
 37
0.0
 40
297.0
 41
1.4141414141
 42
50.0
 43
0.0
 44
0.0
 50
0.0
 51
0.0
 71
     0
 72
  2000
 73
     1
 74
     3
 75
     0
 76
     0
 77
     0
 78
     0
281
     0
 65
     1
110
0.0
120
0.0
130
0.0
111
1.0
121
0.0
131
0.0
112
0.0
122
1.0
132
0.0
 79
     0
146
0.0
 60
     3
 61
     5
292
     1
282
     1
141
0.0
142
0.0
 63
   250
  0
ENDTAB
  0
TABLE
  2
LTYPE
  5
5
330
0
100
AcDbSymbolTable
 70
     6
  0
LTYPE
  5
14
330
5
100
AcDbSymbolTableRecord
100
AcDbLinetypeTableRecord
  2
ByBlock
 70
     0
  3

 72
    65
 73
     0
 40
0.0
  0
LTYPE
  5
15
330
5
100
AcDbSymbolTableRecord
100
AcDbLinetypeTableRecord
  2
ByLayer
 70
     0
  3

 72
    65
 73
     0
 40
0.0
  0
LTYPE
  5
16
330
5
100
AcDbSymbolTableRecord
100
AcDbLinetypeTableRecord
  2
Continuous
 70
     0
  3
Solid line
 72
    65
 73
     0
 40
0.0
  0
LTYPE
  5
3F
330
5
100
AcDbSymbolTableRecord
100
AcDbLinetypeTableRecord
  2
HIDDEN
 70
     0
  3
Hidden __ __ __ __ __ __ __ __ __ __ __ __ __ __
 72
    65
 73
     2
 40
1.905
 49
1.27
 74
     0
 49
-0.635
 74
     0
  0
LTYPE
  5
40
330
5
100
AcDbSymbolTableRecord
100
AcDbLinetypeTableRecord
  2
PHANTOM
 70
     0
  3
Phantom ______  __  __  ______  __  __  ______
 72
    65
 73
     6
 40
12.7
 49
6.35
 74
     0
 49
-1.27
 74
     0
 49
1.27
 74
     0
 49
-1.27
 74
     0
 49
1.27
 74
     0
 49
-1.27
 74
     0
  0
LTYPE
  5
41
330
5
100
AcDbSymbolTableRecord
100
AcDbLinetypeTableRecord
  2
CENTER
 70
     0
  3
Center ____ _ ____ _ ____ _ ____ _ ____ _ ____
 72
    65
 73
     4
 40
10.16
 49
6.35
 74
     0
 49
-1.27
 74
     0
 49
1.27
 74
     0
 49
-1.27
 74
     0
  0
LTYPE
  5
42
330
5
100
AcDbSymbolTableRecord
100
AcDbLinetypeTableRecord
  2
CENTERX2
 70
     0
  3
Center (2x) ________  __  ________  __  _____
 72
    65
 73
     4
 40
20.32
 49
12.7
 74
     0
 49
-2.54
 74
     0
 49
2.54
 74
     0
 49
-2.54
 74
     0
  0
LTYPE
  5
43
330
5
100
AcDbSymbolTableRecord
100
AcDbLinetypeTableRecord
  2
DOT2
 70
     0
  3
Dot (.5x) ........................................
 72
    65
 73
     2
 40
0.635
 49
0.0
 74
     0
 49
-0.635
 74
     0
  0
ENDTAB
  0
TABLE
  2
LAYER
  5
2
330
0
100
AcDbSymbolTable
 70
     4
  0
LAYER
  5
10
330
2
100
AcDbSymbolTableRecord
100
AcDbLayerTableRecord
  2
0
 70
     0
 62
     7
  6
Continuous
370
    -3
390
F
347
3E
  0
LAYER
  5
44
330
2
100
AcDbSymbolTableRecord
100
AcDbLayerTableRecord
  2
FORMAT
 70
     0
 62
     7
  6
Continuous
370
    -3
390
F
347
3E
  0
LAYER
  5
45
330
2
100
AcDbSymbolTableRecord
100
AcDbLayerTableRecord
  2
SLD-0
 70
     0
 62
     1
  6
Continuous
370
    -3
390
F
347
3E
  0
LAYER
  5
46
330
2
100
AcDbSymbolTableRecord
100
AcDbLayerTableRecord
  2
WATERMARK
 70
     0
 62
    20
  6
Continuous
370
    -3
390
F
347
3E
  0
ENDTAB
  0
TABLE
  2
STYLE
  5
3
330
0
100
AcDbSymbolTable
 70
     1
  0
STYLE
  5
11
330
3
100
AcDbSymbolTableRecord
100
AcDbTextStyleTableRecord
  2
Standard
 70
     0
 40
0.0
 41
1.0
 50
0.0
 71
     0
 42
2.5
  3
txt
  4

  0
ENDTAB
  0
TABLE
  2
VIEW
  5
6
330
0
100
AcDbSymbolTable
 70
     0
  0
ENDTAB
  0
TABLE
  2
UCS
  5
7
330
0
100
AcDbSymbolTable
 70
     0
  0
ENDTAB
  0
TABLE
  2
APPID
  5
9
330
0
100
AcDbSymbolTable
 70
     1
  0
APPID
  5
12
330
9
100
AcDbSymbolTableRecord
100
AcDbRegAppTableRecord
  2
ACAD
 70
     0
  0
ENDTAB
  0
TABLE
  2
DIMSTYLE
  5
A
330
0
100
AcDbSymbolTable
 70
     1
100
AcDbDimStyleTable
  0
DIMSTYLE
105
27
330
A
100
AcDbSymbolTableRecord
100
AcDbDimStyleTableRecord
  2
ISO-25
 70
     0
 41
2.5
 42
0.625
 43
3.75
 44
1.25
 73
     0
 74
     0
 77
     1
 78
     8
140
2.5
141
2.5
143
0.0393700787
147
0.625
171
     3
172
     1
271
     2
272
     2
274
     3
278
    44
283
     0
284
     8
340
11
  0
ENDTAB
  0
TABLE
  2
BLOCK_RECORD
  5
1
330
0
100
AcDbSymbolTable
 70
     1
  0
BLOCK_RECORD
  5
1F
330
1
100
AcDbSymbolTableRecord
100
AcDbBlockTableRecord
  2
*Model_Space
340
22
 70
     0
280
     1
281
     0
  0
BLOCK_RECORD
  5
1B
330
1
100
AcDbSymbolTableRecord
100
AcDbBlockTableRecord
  2
*Paper_Space
340
1E
 70
     0
280
     1
281
     0
  0
BLOCK_RECORD
  5
23
330
1
100
AcDbSymbolTableRecord
100
AcDbBlockTableRecord
  2
*Paper_Space0
340
26
 70
     0
280
     1
281
     0
  0
ENDTAB
  0
ENDSEC
  0
SECTION
  2
BLOCKS
  0
BLOCK
  5
20
330
1F
100
AcDbEntity
  8
0
100
AcDbBlockBegin
  2
*Model_Space
 70
     0
 10
0.0
 20
0.0
 30
0.0
  3
*Model_Space
  1

  0
ENDBLK
  5
21
330
1F
100
AcDbEntity
  8
0
100
AcDbBlockEnd
  0
BLOCK
  5
1C
330
1B
100
AcDbEntity
 67
     1
  8
0
100
AcDbBlockBegin
  2
*Paper_Space
 70
     0
 10
0.0
 20
0.0
 30
0.0
  3
*Paper_Space
  1

  0
ENDBLK
  5
1D
330
1B
100
AcDbEntity
 67
     1
  8
0
100
AcDbBlockEnd
  0
BLOCK
  5
24
330
23
100
AcDbEntity
  8
0
100
AcDbBlockBegin
  2
*Paper_Space0
 70
     0
 10
0.0
 20
0.0
 30
0.0
  3
*Paper_Space0
  1

  0
ENDBLK
  5
25
330
23
100
AcDbEntity
  8
0
100
AcDbBlockEnd
  0
ENDSEC
  0
SECTION
  2
ENTITIES
  0
LINE
  5
47
330
1F
100
AcDbEntity
  8
0
  6
Continuous
 62
     7
370
    15
100
AcDbLine
 10
480.9513550678
 20
491.9576583522
 30
0.0
 11
478.9513550678
 21
493.9576583522
 31
0.0
  0
LINE
  5
48
330
1F
100
AcDbEntity
  8
0
  6
Continuous
 62
     7
370
    15
100
AcDbLine
 10
460.9513550678
 20
493.9576583522
 30
0.0
 11
458.9513550678
 21
491.9576583522
 31
0.0
  0
LINE
  5
49
330
1F
100
AcDbEntity
  8
0
  6
Continuous
 62
     7
370
    15
100
AcDbLine
 10
458.9513550678
 20
491.9576583522
 30
0.0
 11
460.9513550678
 21
489.9576583522
 31
0.0
  0
LINE
  5
4A
330
1F
100
AcDbEntity
  8
0
  6
Continuous
 62
     7
370
    15
100
AcDbLine
 10
478.9513550678
 20
489.9576583522
 30
0.0
 11
480.9513550678
 21
491.9576583522
 31
0.0
  0
LINE
  5
4B
330
1F
100
AcDbEntity
  8
0
  6
Continuous
 62
     7
370
    15
100
AcDbLine
 10
458.9513550678
 20
477.9576583522
 30
0.0
 11
458.9513550678
 21
459.9579542115
 31
0.0
  0
LINE
  5
4C
330
1F
100
AcDbEntity
  8
0
  6
Continuous
 62
     7
370
    15
100
AcDbLine
 10
458.9513550678
 20
452.5477460376
 30
0.0
 11
458.9513550678
 21
424.287478084
 31
0.0
  0
LINE
  5
4D
330
1F
100
AcDbEntity
  8
0
  6
Continuous
 62
     7
370
    15
100
AcDbLine
 10
480.9513550678
 20
424.287478084
 30
0.0
 11
480.9513550678
 21
452.5477460376
 31
0.0
  0
LINE
  5
4E
330
1F
100
AcDbEntity
  8
0
  6
Continuous
 62
     7
370
    15
100
AcDbLine
 10
480.9513550678
 20
459.9579542115
 30
0.0
 11
480.9513550678
 21
477.9576583522
 31
0.0
  0
ARC
  5
4F
330
1F
100
AcDbEntity
  8
0
  6
Continuous
 62
     7
370
    15
100
AcDbCircle
 10
320.2513550678
 20
-325.1423416478
 30
0.0
 40
0.5
100
AcDbArc
 50
211.2768225578
 51
270.0
  0
ARC
  5
50
330
1F
100
AcDbEntity
  8
0
  6
Continuous
 62
     7
370
    15
100
AcDbCircle
 10
330.0513550678
 20
-325.1423416478
 30
0.0
 40
0.5000000000000021
100
AcDbArc
 50
270.0
 51
328.7231774422
  0
LINE
  5
51
330
1F
100
AcDbEntity
  8
0
  6
Continuous
 62
     7
370
    15
100
AcDbLine
 10
368.2599453167
 20
-341.8244721166
 30
0.0
 11
368.4939354756
 21
-343.5692152597
 31
0.0
  0
SPLINE
  5
52
330
1F
100
AcDbEntity
  8
0
  6
Continuous
 62
     7
370
    15
100
AcDbSpline
210
0.0
220
0.0
230
1.0
 70
     8
 71
     3
 72
    10
 73
     6
 74
     0
 42
0.00000001
 43
0.00000001
 40
0.0
 40
0.0
 40
0.0
 40
0.0
 40
0.1237918924937536
 40
0.8061779265153077
 40
1.0
 40
1.0
 40
1.0
 40
1.0
 10
365.9958462511916
 20
-327.549379418641
 30
0.0
 10
366.1041755422083
 20
-328.1400678820106
 30
0.0
 10
366.8096553717309
 20
-331.9868464635707
 30
0.0
 10
367.5927893564241
 20
-336.7589200210834
 30
0.0
 10
368.1390986771621
 20
-340.9069131281121
 30
0.0
 10
368.2599453166789
 20
-341.8244721165728
 30
0.0
  0
SPLINE
  5
53
330
1F
100
AcDbEntity
  8
0
  6
Continuous
 62
     7
370
    15
100
AcDbSpline
210
0.0
220
0.0
230
1.0
 70
     8
 71
     3
 72
     9
 73
     5
 74
     0
 42
0.00000001
 43
0.00000001
 40
0.0
 40
0.0
 40
0.0
 40
0.0
 40
0.5175660365488001
 40
1.0
 40
1.0
 40
1.0
 40
1.0
 10
391.7785555964444
 20
-343.5755145554427
 30
0.0
 10
392.1636433809845
 20
-340.8185049907989
 30
0.0
 10
392.9076794215022
 20
-335.4916300222872
 30
0.0
 10
393.8556551818946
 20
-330.133567933312
 30
0.0
 10
394.3129908852364
 20
-327.54865680331
 30
0.0
  0
ARC
  5
54
330
1F
100
AcDbEntity
  8
0
  6
Continuous
 62
     7
370
    15
100
AcDbCircle
 10
371.4853778728
 20
-343.4423416478
 30
0.0
 40
1.0
100
AcDbArc
 50
204.227745318
 51
270.0
  0
ARC
  5
55
330
1F
100
AcDbEntity
  8
0
  6
Continuous
 62
     7
370
    15
100
AcDbCircle
 10
388.8173322628
 20
-343.4423416478
 30
0.0
 40
1.0
100
AcDbArc
 50
270.0
 51
335.772254682
  0
ARC
  5
56
330
1F
100
AcDbEntity
  8
0
  6
Continuous
 62
     7
370
    15
100
AcDbCircle
 10
390.7861583283
 20
-343.4423416478
 30
0.0
 40
1.0
100
AcDbArc
 50
270.0
 51
352.3401380017
  0
ARC
  5
57
330
1F
100
AcDbEntity
  8
0
  6
Continuous
 62
     7
370
    15
100
AcDbCircle
 10
210.2513550678
 20
-325.1423416478
 30
0.0
 40
0.500000000000016
100
AcDbArc
 50
211.2768225578
 51
270.0
  0
ARC
  5
58
330
1F
100
AcDbEntity
  8
0
  6
Continuous
 62
     7
370
    15
100
AcDbCircle
 10
220.0513550678
 20
-325.1423416478
 30
0.0
 40
0.5
100
AcDbArc
 50
270.0
 51
328.7231774422
  0
LINE
  5
59
330
1F
100
AcDbEntity
  8
0
  6
Continuous
 62
     7
370
    15
100
AcDbLine
 10
258.2599453167
 20
-341.8244721166
 30
0.0
 11
258.4939354756
 21
-343.5692152597
 31
0.0
  0
SPLINE
  5
5A
330
1F
100
AcDbEntity
  8
0
  6
Continuous
 62
     7
370
    15
100
AcDbSpline
210
0.0
220
0.0
230
1.0
 70
     8
 71
     3
 72
    10
 73
     6
 74
     0
 42
0.00000001
 43
0.00000001
 40
0.0
 40
0.0
 40
0.0
 40
0.0
 40
0.1237918924937602
 40
0.8061779265156126
 40
1.0
 40
1.0
 40
1.0
 40
1.0
 10
255.9958462511916
 20
-327.549379418641
 30
0.0
 10
256.1041755422083
 20
-328.1400678820106
 30
0.0
 10
256.8096553717312
 20
-331.9868464635719
 30
0.0
 10
257.5927893564242
 20
-336.7589200210844
 30
0.0
 10
258.1390986771622
 20
-340.9069131281124
 30
0.0
 10
258.2599453166787
 20
-341.8244721165717
 30
0.0
  0
SPLINE
  5
5B
330
1F
100
AcDbEntity
  8
0
  6
Continuous
 62
     7
370
    15
100
AcDbSpline
210
0.0
220
0.0
230
1.0
 70
     8
 71
     3
 72
     9
 73
     5
 74
     0
 42
0.00000001
 43
0.00000001
 40
0.0
 40
0.0
 40
0.0
 40
0.0
 40
0.5175660365491119
 40
1.0
 40
1.0
 40
1.0
 40
1.0
 10
281.7785555964443
 20
-343.5755145554427
 30
0.0
 10
282.1636433809848
 20
-340.8185049907974
 30
0.0
 10
282.9076794215024
 20
-335.4916300222856
 30
0.0
 10
283.8556551818949
 20
-330.1335679333103
 30
0.0
 10
284.3129908852365
 20
-327.5486568033101
 30
0.0
  0
LINE
  5
5C
330
1F
100
AcDbEntity
  8
0
  6
Continuous
 62
     7
370
    15
100
AcDbLine
 10
-93.5486449322
 20
-325.4019283585
 30
0.0
 11
506.4513550678
 21
-325.4019283585
 31
0.0
  0
LINE
  5
5D
330
1F
100
AcDbEntity
  8
0
  6
Continuous
 62
     7
370
    15
100
AcDbLine
 10
-92.3486449322
 20
-306.9088542869
 30
0.0
 11
505.2513550678
 21
-306.9088542869
 31
0.0
  0
LINE
  5
5E
330
1F
100
AcDbEntity
  8
0
  6
Continuous
 62
     7
370
    15
100
AcDbLine
 10
-93.5486449322
 20
-306.1420457885
 30
0.0
 11
-92.3486449322
 21
-306.1420457885
 31
0.0
  0
LINE
  5
5F
330
1F
100
AcDbEntity
  8
0
  6
Continuous
 62
     7
370
    15
100
AcDbLine
 10
505.2513550678
 20
-306.1420457885
 30
0.0
 11
506.4513550678
 21
-306.1420457885
 31
0.0
  0
LINE
  5
60
330
1F
100
AcDbEntity
  8
0
  6
Continuous
 62
     7
370
    15
100
AcDbLine
 10
458.9513550678
 20
479.9576583522
 30
0.0
 11
460.9513550678
 21
477.9576583522
 31
0.0
  0
LINE
  5
61
330
1F
100
AcDbEntity
  8
0
  6
Continuous
 62
     7
370
    15
100
AcDbLine
 10
478.9513550678
 20
477.9576583522
 30
0.0
 11
480.9513550678
 21
479.9576583522
 31
0.0
  0
LINE
  5
62
330
1F
100
AcDbEntity
  8
0
  6
Continuous
 62
     7
370
    15
100
AcDbLine
 10
480.9513550678
 20
479.9576583522
 30
0.0
 11
478.9513550678
 21
481.9576583522
 31
0.0
  0
LINE
  5
63
330
1F
100
AcDbEntity
  8
0
  6
Continuous
 62
     7
370
    15
100
AcDbLine
 10
460.9513550678
 20
481.9576583522
 30
0.0
 11
458.9513550678
 21
479.9576583522
 31
0.0
  0
LINE
  5
64
330
1F
100
AcDbEntity
  8
0
  6
Continuous
 62
     7
370
    15
100
AcDbLine
 10
458.9513550678
 20
483.9576583522
 30
0.0
 11
460.9513550678
 21
481.9576583522
 31
0.0
  0
LINE
  5
65
330
1F
100
AcDbEntity
  8
0
  6
Continuous
 62
     7
370
    15
100
AcDbLine
 10
478.9513550678
 20
481.9576583522
 30
0.0
 11
480.9513550678
 21
483.9576583522
 31
0.0
  0
LINE
  5
66
330
1F
100
AcDbEntity
  8
0
  6
Continuous
 62
     7
370
    15
100
AcDbLine
 10
480.9513550678
 20
483.9576583522
 30
0.0
 11
478.9513550678
 21
485.9576583522
 31
0.0
  0
LINE
  5
67
330
1F
100
AcDbEntity
  8
0
  6
Continuous
 62
     7
370
    15
100
AcDbLine
 10
460.9513550678
 20
485.9576583522
 30
0.0
 11
458.9513550678
 21
483.9576583522
 31
0.0
  0
LINE
  5
68
330
1F
100
AcDbEntity
  8
0
  6
Continuous
 62
     7
370
    15
100
AcDbLine
 10
458.9513550678
 20
487.9576583522
 30
0.0
 11
460.9513550678
 21
485.9576583522
 31
0.0
  0
LINE
  5
69
330
1F
100
AcDbEntity
  8
0
  6
Continuous
 62
     7
370
    15
100
AcDbLine
 10
478.9513550678
 20
485.9576583522
 30
0.0
 11
480.9513550678
 21
487.9576583522
 31
0.0
  0
LINE
  5
6A
330
1F
100
AcDbEntity
  8
0
  6
Continuous
 62
     7
370
    15
100
AcDbLine
 10
480.9513550678
 20
487.9576583522
 30
0.0
 11
478.9513550678
 21
489.9576583522
 31
0.0
  0
LINE
  5
6B
330
1F
100
AcDbEntity
  8
0
  6
Continuous
 62
     7
370
    15
100
AcDbLine
 10
460.9513550678
 20
489.9576583522
 30
0.0
 11
458.9513550678
 21
487.9576583522
 31
0.0
  0
LINE
  5
6C
330
1F
100
AcDbEntity
  8
0
  6
Continuous
 62
     7
370
    15
100
AcDbLine
 10
-90.5486449322
 20
-90.3420457885
 30
0.0
 11
503.4513550678
 21
-90.3420457885
 31
0.0
  0
CIRCLE
  5
6D
330
1F
100
AcDbEntity
  8
0
  6
Continuous
 62
   142
420
    32960
370
     0
100
AcDbCircle
 10
2.4513550678
 20
-157.4423416478
 30
0.0
 40
4.800000000000011
  0
LINE
  5
6E
330
1F
100
AcDbEntity
  8
0
  6
Continuous
 62
   142
420
    32960
370
     0
100
AcDbLine
 10
16.4513550678
 20
-131.2608173767
 30
0.0
 11
16.4513550678
 21
-169.2608173767
 31
0.0
  0
LINE
  5
6F
330
1F
100
AcDbEntity
  8
0
  6
Continuous
 62
     7
370
    15
100
AcDbLine
 10
469.9513550678
 20
491.9576583522
 30
0.0
 11
480.9513550678
 21
491.9576583522
 31
0.0
  0
LINE
  5
70
330
1F
100
AcDbEntity
  8
0
  6
Continuous
 62
     7
370
    15
100
AcDbLine
 10
458.9513550678
 20
491.9576583522
 30
0.0
 11
469.9513550678
 21
491.9576583522
 31
0.0
  0
LINE
  5
71
330
1F
100
AcDbEntity
  8
0
  6
Continuous
 62
     7
370
    15
100
AcDbLine
 10
469.9513550678
 20
493.9576583522
 30
0.0
 11
478.9513550678
 21
493.9576583522
 31
0.0
  0
LINE
  5
72
330
1F
100
AcDbEntity
  8
0
  6
Continuous
 62
     7
370
    15
100
AcDbLine
 10
460.9513550678
 20
493.9576583522
 30
0.0
 11
469.9513550678
 21
493.9576583522
 31
0.0
  0
LINE
  5
73
330
1F
100
AcDbEntity
  8
0
  6
Continuous
 62
     7
370
    15
100
AcDbLine
 10
469.9513550678
 20
489.9576583522
 30
0.0
 11
478.9513550678
 21
489.9576583522
 31
0.0
  0
LINE
  5
74
330
1F
100
AcDbEntity
  8
0
  6
Continuous
 62
     7
370
    15
100
AcDbLine
 10
460.9513550678
 20
489.9576583522
 30
0.0
 11
469.9513550678
 21
489.9576583522
 31
0.0
  0
LINE
  5
75
330
1F
100
AcDbEntity
  8
0
  6
Continuous
 62
     7
370
    15
100
AcDbLine
 10
480.9513550678
 20
477.9576583522
 30
0.0
 11
458.9513550678
 21
477.9576583522
 31
0.0
  0
SPLINE
  5
76
330
1F
100
AcDbEntity
  8
0
  6
Continuous
 62
     7
370
    15
100
AcDbSpline
210
0.0
220
0.0
230
1.0
 70
    24
 71
     3
 72
    10
 73
     6
 74
     0
 42
0.00000001
 43
0.00000001
 40
0.0
 40
0.0
 40
0.0
 40
0.0
 40
0.5
 40
0.5
 40
1.0
 40
1.0
 40
1.0
 40
1.0
 10
320.2513550678257
 20
-325.6423416477646
 30
0.0
 10
320.2513550678257
 20
-325.6423416477646
 30
0.0
 10
322.4469715192056
 20
-325.6423416477646
 30
0.0
 10
327.8557386164525
 20
-325.6423416477646
 30
0.0
 10
330.0513550678298
 20
-325.6423416477646
 30
0.0
 10
330.0513550678266
 20
-325.6423416477646
 30
0.0
  0
LINE
  5
77
330
1F
100
AcDbEntity
  8
0
  6
Continuous
 62
     7
370
    15
100
AcDbLine
 10
503.4513550678
 20
-90.3996051779
 30
0.0
 11
-90.5486449322
 21
-90.3996051779
 31
0.0
  0
LINE
  5
78
330
1F
100
AcDbEntity
  8
0
  6
Continuous
 62
     7
370
    15
100
AcDbLine
 10
503.4513550678
 20
-122.2608173767
 30
0.0
 11
-90.5486449322
 21
-122.2608173767
 31
0.0
  0
LINE
  5
79
330
1F
100
AcDbEntity
  8
0
  6
Continuous
 62
   142
420
    32960
370
     0
100
AcDbLine
 10
-90.5486449322
 20
-188.1420457885
 30
0.0
 11
-89.5486449322
 21
-188.1420457885
 31
0.0
  0
LINE
  5
7A
330
1F
100
AcDbEntity
  8
0
  6
Continuous
 62
   142
420
    32960
370
     0
100
AcDbLine
 10
502.4513550678
 20
-188.1420457885
 30
0.0
 11
503.4513550678
 21
-188.1420457885
 31
0.0
  0
LINE
  5
7B
330
1F
100
AcDbEntity
  8
0
  6
Continuous
 62
     7
370
    15
100
AcDbLine
 10
-90.5486449322
 20
-122.423975117
 30
0.0
 11
503.4513550678
 21
-122.423975117
 31
0.0
  0
LINE
  5
7C
330
1F
100
AcDbEntity
  8
0
  6
Continuous
 62
     7
370
    15
100
AcDbLine
 10
-9.8486449322
 20
-125.2608173767
 30
0.0
 11
-12.3863604403
 21
-125.2608173767
 31
0.0
  0
ARC
  5
7D
330
1F
100
AcDbEntity
  8
0
  6
Continuous
 62
     7
370
    15
100
AcDbCircle
 10
-9.8486449322
 20
-141.2608173767
 30
0.0
 40
16.19999999999999
100
AcDbArc
 50
99.0124514993
 51
180.0
  0
LINE
  5
7E
330
1F
100
AcDbEntity
  8
0
  6
Continuous
 62
     7
370
    15
100
AcDbLine
 10
-26.0486449322
 20
-141.2608173767
 30
0.0
 11
-26.0486449322
 21
-159.2608173767
 31
0.0
  0
ARC
  5
7F
330
1F
100
AcDbEntity
  8
0
  6
Continuous
 62
     7
370
    15
100
AcDbCircle
 10
-9.8486449322
 20
-159.2608173767
 30
0.0
 40
16.20000000000002
100
AcDbArc
 50
180.0
 51
260.9875485007
  0
LINE
  5
80
330
1F
100
AcDbEntity
  8
0
  6
Continuous
 62
     7
370
    15
100
AcDbLine
 10
-9.8486449322
 20
-175.2608173785
 30
0.0
 11
-12.3863604403
 21
-175.2608173767
 31
0.0
  0
LINE
  5
81
330
1F
100
AcDbEntity
  8
0
  6
Continuous
 62
     7
370
    15
100
AcDbLine
 10
48.1513550678
 20
-175.2608173767
 30
0.0
 11
-9.8486449322
 21
-175.2608173785
 31
0.0
  0
LINE
  5
82
330
1F
100
AcDbEntity
  8
0
  6
Continuous
 62
     7
370
    15
100
AcDbLine
 10
50.6890705759
 20
-175.2608173767
 30
0.0
 11
48.1513550678
 21
-175.2608173767
 31
0.0
  0
ARC
  5
83
330
1F
100
AcDbEntity
  8
0
  6
Continuous
 62
     7
370
    15
100
AcDbCircle
 10
48.1513550678
 20
-159.2608173767
 30
0.0
 40
16.20000000000002
100
AcDbArc
 50
279.0124514993
 51
0.0
  0
LINE
  5
84
330
1F
100
AcDbEntity
  8
0
  6
Continuous
 62
     7
370
    15
100
AcDbLine
 10
64.3513550678
 20
-159.2608173767
 30
0.0
 11
64.3513550678
 21
-141.2608173767
 31
0.0
  0
ARC
  5
85
330
1F
100
AcDbEntity
  8
0
  6
Continuous
 62
     7
370
    15
100
AcDbCircle
 10
48.1513550678
 20
-141.2608173767
 30
0.0
 40
16.19999999999999
100
AcDbArc
 50
0.0
 51
80.9875485007
  0
LINE
  5
86
330
1F
100
AcDbEntity
  8
0
  6
Continuous
 62
     7
370
    15
100
AcDbLine
 10
50.6890705759
 20
-125.2608173767
 30
0.0
 11
48.1513550678
 21
-125.2608173767
 31
0.0
  0
LINE
  5
87
330
1F
100
AcDbEntity
  8
0
  6
Continuous
 62
     7
370
    15
100
AcDbLine
 10
48.1513550678
 20
-125.2608173767
 30
0.0
 11
-9.8486449322
 21
-125.2608173767
 31
0.0
  0
LINE
  5
88
330
1F
100
AcDbEntity
  8
0
  6
Continuous
 62
     7
370
    15
100
AcDbLine
 10
48.1513550678
 20
-169.2608173767
 30
0.0
 11
-9.8486449322
 21
-169.2608173767
 31
0.0
  0
LINE
  5
89
330
1F
100
AcDbEntity
  8
0
  6
Continuous
 62
     7
370
    15
100
AcDbLine
 10
48.1513550678
 20
-169.2608173767
 30
0.0
 11
48.1513550678
 21
-175.2608173767
 31
0.0
  0
LINE
  5
8A
330
1F
100
AcDbEntity
  8
0
  6
Continuous
 62
     7
370
    15
100
AcDbLine
 10
-9.8486449322
 20
-175.2608173785
 30
0.0
 11
-9.8486449322
 21
-169.2608173767
 31
0.0
  0
SPLINE
  5
8B
330
1F
100
AcDbEntity
  8
0
  6
Continuous
 62
     7
370
    15
100
AcDbSpline
210
0.0
220
0.0
230
1.0
 70
     8
 71
     3
 72
     8
 73
     4
 74
     0
 42
0.00000001
 43
0.00000001
 40
0.0
 40
0.0
 40
0.0
 40
0.0
 40
1.0
 40
1.0
 40
1.0
 40
1.0
 10
-9.84864493217341
 20
-169.2608173767213
 30
0.0
 10
-10.37405408507297
 20
-169.2608173767213
 30
0.0
 10
-10.89621336640217
 20
-169.2196654603883
 30
0.0
 10
-11.41513598654986
 20
-169.1373605865978
 30
0.0
  0
LINE
  5
8C
330
1F
100
AcDbEntity
  8
0
  6
Continuous
 62
     7
370
    15
100
AcDbLine
 10
-12.3863604403
 20
-175.2608173767
 30
0.0
 11
-11.4151359865
 21
-169.1373605866
 31
0.0
  0
LINE
  5
8D
330
1F
100
AcDbEntity
  8
0
  6
Continuous
 62
     7
370
    15
100
AcDbLine
 10
-9.8486449322
 20
-131.2608173767
 30
0.0
 11
48.1513550678
 21
-131.2608173767
 31
0.0
  0
LINE
  5
8E
330
1F
100
AcDbEntity
  8
0
  6
Continuous
 62
     7
370
    15
100
AcDbLine
 10
-9.8486449322
 20
-125.2608173767
 30
0.0
 11
-9.8486449322
 21
-131.2608173767
 31
0.0
  0
LINE
  5
8F
330
1F
100
AcDbEntity
  8
0
  6
Continuous
 62
     7
370
    15
100
AcDbLine
 10
48.1513550678
 20
-131.2608173767
 30
0.0
 11
48.1513550678
 21
-125.2608173767
 31
0.0
  0
SPLINE
  5
90
330
1F
100
AcDbEntity
  8
0
  6
Continuous
 62
     7
370
    15
100
AcDbSpline
210
0.0
220
0.0
230
1.0
 70
     8
 71
     3
 72
     8
 73
     4
 74
     0
 42
0.00000001
 43
0.00000001
 40
0.0
 40
0.0
 40
0.0
 40
0.0
 40
1.0
 40
1.0
 40
1.0
 40
1.0
 10
-11.41513598654992
 20
-131.3842741668448
 30
0.0
 10
-10.89621336640223
 20
-131.3019692930543
 30
0.0
 10
-10.37405408507297
 20
-131.2608173767213
 30
0.0
 10
-9.84864493217341
 20
-131.2608173767213
 30
0.0
  0
LINE
  5
91
330
1F
100
AcDbEntity
  8
0
  6
Continuous
 62
     7
370
    15
100
AcDbLine
 10
-12.3863604403
 20
-125.2608173767
 30
0.0
 11
-11.4151359865
 21
-131.3842741668
 31
0.0
  0
SPLINE
  5
92
330
1F
100
AcDbEntity
  8
0
  6
Continuous
 62
     7
370
    15
100
AcDbSpline
210
0.0
220
0.0
230
1.0
 70
     8
 71
     3
 72
     8
 73
     4
 74
     0
 42
0.00000001
 43
0.00000001
 40
0.0
 40
0.0
 40
0.0
 40
0.0
 40
1.0
 40
1.0
 40
1.0
 40
1.0
 10
48.15135506782659
 20
-131.2608173767213
 30
0.0
 10
48.67676422072614
 20
-131.2608173767213
 30
0.0
 10
49.19892350205535
 20
-131.3019692930543
 30
0.0
 10
49.71784612220304
 20
-131.3842741668448
 30
0.0
  0
LINE
  5
93
330
1F
100
AcDbEntity
  8
0
  6
Continuous
 62
     7
370
    15
100
AcDbLine
 10
49.7178461222
 20
-131.3842741668
 30
0.0
 11
50.6890705759
 21
-125.2608173767
 31
0.0
  0
ARC
  5
94
330
1F
100
AcDbEntity
  8
0
  6
Continuous
 62
     7
370
    15
100
AcDbCircle
 10
48.1513550678
 20
-141.2608173767
 30
0.0
 40
10.00000000000001
100
AcDbArc
 50
0.0
 51
80.9875485007
  0
LINE
  5
95
330
1F
100
AcDbEntity
  8
0
  6
Continuous
 62
     7
370
    15
100
AcDbLine
 10
58.1513550678
 20
-141.2608173767
 30
0.0
 11
64.3513550678
 21
-141.2608173767
 31
0.0
  0
ARC
  5
96
330
1F
100
AcDbEntity
  8
0
  6
Continuous
 62
     7
370
    15
100
AcDbCircle
 10
-9.8486449322
 20
-141.2608173767
 30
0.0
 40
10.00000000000001
100
AcDbArc
 50
99.0124514993
 51
180.0
  0
LINE
  5
97
330
1F
100
AcDbEntity
  8
0
  6
Continuous
 62
     7
370
    15
100
AcDbLine
 10
-26.0486449322
 20
-141.2608173767
 30
0.0
 11
-19.8486449322
 21
-141.2608173767
 31
0.0
  0
LINE
  5
98
330
1F
100
AcDbEntity
  8
0
  6
Continuous
 62
     7
370
    15
100
AcDbLine
 10
58.1513550678
 20
-141.2608173767
 30
0.0
 11
58.1513550678
 21
-159.2608173767
 31
0.0
  0
LINE
  5
99
330
1F
100
AcDbEntity
  8
0
  6
Continuous
 62
     7
370
    15
100
AcDbLine
 10
58.1513550678
 20
-159.2608173767
 30
0.0
 11
64.3513550678
 21
-159.2608173767
 31
0.0
  0
LINE
  5
9A
330
1F
100
AcDbEntity
  8
0
  6
Continuous
 62
     7
370
    15
100
AcDbLine
 10
-19.8486449322
 20
-159.2608173767
 30
0.0
 11
-19.8486449322
 21
-141.2608173767
 31
0.0
  0
LINE
  5
9B
330
1F
100
AcDbEntity
  8
0
  6
Continuous
 62
     7
370
    15
100
AcDbLine
 10
-26.0486449322
 20
-159.2608173767
 30
0.0
 11
-19.8486449322
 21
-159.2608173767
 31
0.0
  0
ARC
  5
9C
330
1F
100
AcDbEntity
  8
0
  6
Continuous
 62
     7
370
    15
100
AcDbCircle
 10
48.1513550678
 20
-159.2608173767
 30
0.0
 40
10.00000000000001
100
AcDbArc
 50
279.0124514993
 51
0.0
  0
LINE
  5
9D
330
1F
100
AcDbEntity
  8
0
  6
Continuous
 62
     7
370
    15
100
AcDbLine
 10
49.7178461222
 20
-169.1373605866
 30
0.0
 11
50.6890705759
 21
-175.2608173767
 31
0.0
  0
ARC
  5
9E
330
1F
100
AcDbEntity
  8
0
  6
Continuous
 62
     7
370
    15
100
AcDbCircle
 10
-9.8486449322
 20
-159.2608173767
 30
0.0
 40
10.00000000000001
100
AcDbArc
 50
180.0
 51
260.9875485007
  0
SPLINE
  5
9F
330
1F
100
AcDbEntity
  8
0
  6
Continuous
 62
     7
370
    15
100
AcDbSpline
210
0.0
220
0.0
230
1.0
 70
     8
 71
     3
 72
     8
 73
     4
 74
     0
 42
0.00000001
 43
0.00000001
 40
0.0
 40
0.0
 40
0.0
 40
0.0
 40
1.0
 40
1.0
 40
1.0
 40
1.0
 10
49.71784612220304
 20
-169.1373605865978
 30
0.0
 10
49.19892350205535
 20
-169.2196654603883
 30
0.0
 10
48.67676422072614
 20
-169.2608173767213
 30
0.0
 10
48.15135506782659
 20
-169.2608173767213
 30
0.0
  0
SPLINE
  5
A0
330
1F
100
AcDbEntity
  8
0
  6
Continuous
 62
     7
370
    15
100
AcDbSpline
210
0.0
220
0.0
230
1.0
 70
     8
 71
     3
 72
    10
 73
     6
 74
     0
 42
0.00000001
 43
0.00000001
 40
0.0
 40
0.0
 40
0.0
 40
0.0
 40
0.5
 40
0.5
 40
1.0
 40
1.0
 40
1.0
 40
1.0
 10
391.3005535245718
 20
-343.8527063250958
 30
0.0
 10
391.6436627996189
 20
-341.1871486283206
 30
0.0
 10
392.022530297071
 20
-338.5125636720346
 30
0.0
 10
392.8480015460077
 20
-333.154098673436
 30
0.0
 10
393.2946519355083
 20
-330.4700466920219
 30
0.0
 10
393.7742748457543
 20
-327.7828966993469
 30
0.0
  0
LINE
  5
A1
330
1F
100
AcDbEntity
  8
0
  6
Continuous
 62
     7
370
    15
100
AcDbLine
 10
381.6513550678
 20
-343.8527063251
 30
0.0
 11
381.6513550678
 21
-342.5048394585
 31
0.0
  0
LINE
  5
A2
330
1F
100
AcDbEntity
  8
0
  6
Continuous
 62
     7
370
    15
100
AcDbLine
 10
378.6513550678
 20
-342.5048394585
 30
0.0
 11
378.6513550678
 21
-343.8527063251
 31
0.0
  0
SPLINE
  5
A3
330
1F
100
AcDbEntity
  8
0
  6
Continuous
 62
     7
370
    15
100
AcDbSpline
210
0.0
220
0.0
230
1.0
 70
     8
 71
     3
 72
    10
 73
     6
 74
     0
 42
0.00000001
 43
0.00000001
 40
0.0
 40
0.0
 40
0.0
 40
0.0
 40
0.5
 40
0.5
 40
1.0
 40
1.0
 40
1.0
 40
1.0
 10
366.5284352898993
 20
-327.7828966993467
 30
0.0
 10
367.0080582001453
 20
-330.4700466920218
 30
0.0
 10
367.454708589646
 20
-333.154098673436
 30
0.0
 10
368.2801798385826
 20
-338.5125636720345
 30
0.0
 10
368.6590473360347
 20
-341.1871486283208
 30
0.0
 10
369.0021566110819
 20
-343.8527063250958
 30
0.0
  0
SPLINE
  5
A4
330
1F
100
AcDbEntity
  8
0
  6
Continuous
 62
   142
420
    32960
370
     0
100
AcDbSpline
210
0.0
220
0.0
230
1.0
 70
     8
 71
     3
 72
     9
 73
     5
 74
     0
 42
0.00000001
 43
0.00000001
 40
0.0
 40
0.0
 40
0.0
 40
0.0
 40
0.4593338932481557
 40
1.0
 40
1.0
 40
1.0
 40
1.0
 10
365.3418325120751
 20
-325.401928358468
 30
0.0
 10
365.6111500288173
 20
-325.7365411273118
 30
0.0
 10
366.1974719194963
 20
-326.4650150626397
 30
0.0
 10
366.4122902821204
 20
-327.320412368345
 30
0.0
 10
366.5284352898993
 20
-327.7828966993467
 30
0.0
  0
LINE
  5
A5
330
1F
100
AcDbEntity
  8
0
  6
Continuous
 62
   142
420
    32960
370
     0
100
AcDbLine
 10
369.0021566111
 20
-343.8527063251
 30
0.0
 11
378.6513550678
 21
-343.8527063251
 31
0.0
  0
LINE
  5
A6
330
1F
100
AcDbEntity
  8
0
  6
Continuous
 62
   142
420
    32960
370
     0
100
AcDbLine
 10
379.8655843775
 20
-325.4019283585
 30
0.0
 11
378.6513550678
 21
-342.5048394585
 31
0.0
  0
LINE
  5
A7
330
1F
100
AcDbEntity
  8
0
  6
Continuous
 62
   142
420
    32960
370
     0
100
AcDbLine
 10
380.4371257581
 20
-325.4019283585
 30
0.0
 11
381.6513550678
 21
-342.5048394585
 31
0.0
  0
LINE
  5
A8
330
1F
100
AcDbEntity
  8
0
  6
Continuous
 62
   142
420
    32960
370
     0
100
AcDbLine
 10
381.6513550678
 20
-343.8527063251
 30
0.0
 11
391.3005535246
 21
-343.8527063251
 31
0.0
  0
SPLINE
  5
A9
330
1F
100
AcDbEntity
  8
0
  6
Continuous
 62
   142
420
    32960
370
     0
100
AcDbSpline
210
0.0
220
0.0
230
1.0
 70
     8
 71
     3
 72
     9
 73
     5
 74
     0
 42
0.00000001
 43
0.00000001
 40
0.0
 40
0.0
 40
0.0
 40
0.0
 40
0.5406661067518111
 40
1.0
 40
1.0
 40
1.0
 40
1.0
 10
393.7742748457543
 20
-327.7828966993469
 30
0.0
 10
393.8904198535332
 20
-327.3204123683453
 30
0.0
 10
394.1052382161573
 20
-326.46501506264
 30
0.0
 10
394.6915601068363
 20
-325.7365411273119
 30
0.0
 10
394.9608776235785
 20
-325.401928358468
 30
0.0
  0
SPLINE
  5
AA
330
1F
100
AcDbEntity
  8
0
  6
Continuous
 62
   142
420
    32960
370
     0
100
AcDbSpline
210
0.0
220
0.0
230
1.0
 70
     8
 71
     3
 72
    10
 73
     6
 74
     0
 42
0.00000001
 43
0.00000001
 40
0.0
 40
0.0
 40
0.0
 40
0.0
 40
0.258820593220031
 40
0.5472745464133233
 40
1.0
 40
1.0
 40
1.0
 40
1.0
 10
380.1171570469339
 20
-325.401928358468
 30
0.0
 10
380.0480839503018
 20
-326.8651599506417
 30
0.0
 10
379.9020293139283
 20
-329.9591541183462
 30
0.0
 10
379.9652064915738
 20
-335.6185417168728
 30
0.0
 10
379.7501310993288
 20
-339.8084196045984
 30
0.0
 10
379.6187592565349
 20
-342.367670913852
 30
0.0
  0
SPLINE
  5
AB
330
1F
100
AcDbEntity
  8
0
  6
Continuous
 62
   142
420
    32960
370
     0
100
AcDbSpline
210
0.0
220
0.0
230
1.0
 70
     8
 71
     3
 72
    18
 73
    14
 74
     0
 42
0.00000001
 43
0.00000001
 40
0.0
 40
0.0
 40
0.0
 40
0.0
 40
0.0625000000000054
 40
0.0625000000000054
 40
0.1250000000000109
 40
0.1250000000000109
 40
0.2500000000000218
 40
0.2500000000000218
 40
0.5000000000000144
 40
0.5000000000000144
 40
0.7500000000000072
 40
0.7500000000000072
 40
1.0
 40
1.0
 40
1.0
 40
1.0
 10
379.6187592565354
 20
-342.3676709138458
 30
0.0
 10
379.5983952266298
 20
-342.3495159433394
 30
0.0
 10
379.5720752111752
 20
-342.3402729063936
 30
0.0
 10
379.5198758109553
 20
-342.3238464462024
 30
0.0
 10
379.4933916441714
 20
-342.3179392801281
 30
0.0
 10
379.4139698171714
 20
-342.3035449618214
 30
0.0
 10
379.3606816360753
 20
-342.2984954074676
 30
0.0
 10
379.2054595620579
 20
-342.2906868832148
 30
0.0
 10
379.1089752690625
 20
-342.2954140560518
 30
0.0
 10
378.9359182272219
 20
-342.3145697112296
 30
0.0
 10
378.8625513723194
 20
-342.3290781939335
 30
0.0
 10
378.7443003156645
 20
-342.3589280095528
 30
0.0
 10
378.7023499307544
 20
-342.3746798756126
 30
0.0
 10
378.6774033142073
 20
-342.3779891313751
 30
0.0
  0
SPLINE
  5
AC
330
1F
100
AcDbEntity
  8
0
  6
Continuous
 62
   142
420
    32960
370
     0
100
AcDbSpline
210
0.0
220
0.0
230
1.0
 70
     8
 71
     3
 72
     9
 73
     5
 74
     0
 42
0.00000001
 43
0.00000001
 40
0.0
 40
0.0
 40
0.0
 40
0.0
 40
0.5763579485970799
 40
0.9999999999999999
 40
0.9999999999999999
 40
0.9999999999999999
 40
0.9999999999999999
 10
380.6839508791182
 20
-342.3676709138455
 30
0.0
 10
380.5773511079457
 20
-339.1084529630539
 30
0.0
 10
380.3923969983824
 20
-333.4536026070816
 30
0.0
 10
380.2433553289453
 20
-327.7979153220093
 30
0.0
 10
380.1802150103604
 20
-325.4019283584679
 30
0.0
  0
SPLINE
  5
AD
330
1F
100
AcDbEntity
  8
0
  6
Continuous
 62
   142
420
    32960
370
     0
100
AcDbSpline
210
0.0
220
0.0
230
1.0
 70
     8
 71
     3
 72
    20
 73
    16
 74
     0
 42
0.00000001
 43
0.00000001
 40
0.0
 40
0.0
 40
0.0
 40
0.0
 40
0.1249999999999937
 40
0.1249999999999937
 40
0.2499999999999873
 40
0.2499999999999873
 40
0.4999999999999842
 40
0.4999999999999842
 40
0.7499999999999811
 40
0.7499999999999811
 40
0.8749999999999908
 40
0.8749999999999908
 40
0.9374999999999953
 40
0.9374999999999953
 40
1.0
 40
1.0
 40
1.0
 40
1.0
 10
381.6513550678268
 20
-342.3466168177855
 30
0.0
 10
381.6513550678268
 20
-342.3705791779277
 30
0.0
 10
381.6462148156168
 20
-342.3775974127825
 30
0.0
 10
381.6229529367919
 20
-342.3792509270936
 30
0.0
 10
381.6049504336416
 20
-342.3738153037859
 30
0.0
 10
381.5325482794421
 20
-342.3525138443318
 30
0.0
 10
381.4600919775184
 20
-342.3319686587716
 30
0.0
 10
381.2782082373349
 20
-342.302282651083
 30
0.0
 10
381.1678308333067
 20
-342.2920780759352
 30
0.0
 10
380.9898267099098
 20
-342.295039831912
 30
0.0
 10
380.9280812066175
 20
-342.2988671335456
 30
0.0
 10
380.833559617598
 20
-342.3130291734732
 30
0.0
 10
380.802032409246
 20
-342.3190772232496
 30
0.0
 10
380.7399180904189
 20
-342.3365664294487
 30
0.0
 10
380.7076427602837
 20
-342.346549092363
 30
0.0
 10
380.6839508790728
 20
-342.3676709137901
 30
0.0
  0
LWPOLYLINE
  5
AE
330
1F
100
AcDbEntity
  8
0
  6
Continuous
 62
   142
420
    32960
370
     0
100
AcDbPolyline
 90
        8
 70
   128
 43
0.0
 10
369.0021566111
 20
-343.8527063251
 10
368.8765761074
 20
-343.8292242092
 10
368.7665219275
 20
-343.7963560121
 10
368.6746640739
 20
-343.7548991426
 10
368.603231092
 20
-343.7058593777
 10
368.5539560032
 20
-343.6504264612
 10
368.5280342606
 20
-343.5899452403
 10
368.5244266508
 20
-343.5655374898
  0
LWPOLYLINE
  5
AF
330
1F
100
AcDbEntity
  8
0
  6
Continuous
 62
   142
420
    32960
370
     0
100
AcDbPolyline
 90
        9
 70
   128
 43
0.0
 10
366.0564749344
 20
-327.3899844285
 10
366.0141392469
 20
-327.4624845143
 10
366.0023769855
 20
-327.5321623753
 10
366.0215571868
 20
-327.5968318955
 10
366.0710780792
 20
-327.6544640934
 10
366.1493859638
 20
-327.703250781
 10
366.2540239609
 20
-327.7416612949
 10
366.3817090936
 20
-327.7684905199
 10
366.5284352899
 20
-327.7828966993
  0
LWPOLYLINE
  5
B0
330
1F
100
AcDbEntity
  8
0
  6
Continuous
 62
   142
420
    32960
370
     0
100
AcDbPolyline
 90
        9
 70
   128
 43
0.0
 10
394.2462352013
 20
-327.3899844285
 10
394.2885708888
 20
-327.4624845143
 10
394.3003331501
 20
-327.5321623753
 10
394.2811529489
 20
-327.5968318955
 10
394.2316320565
 20
-327.6544640934
 10
394.1533241718
 20
-327.703250781
 10
394.0486861748
 20
-327.7416612949
 10
393.9210010421
 20
-327.7684905199
 10
393.7742748458
 20
-327.7828966993
  0
ARC
  5
B1
330
1F
100
AcDbEntity
  8
0
  6
Continuous
 62
   142
420
    32960
370
     0
100
AcDbCircle
 10
391.3251655935
 20
-343.3466254134
 30
0.0
 40
0.5066790336318828
100
AcDbArc
 50
267.215746596
 51
333.1623913742
  0
SPLINE
  5
B2
330
1F
100
AcDbEntity
  8
0
  6
Continuous
 62
   142
420
    32960
370
     0
100
AcDbSpline
210
0.0
220
0.0
230
1.0
 70
     8
 71
     3
 72
    10
 73
     6
 74
     0
 42
0.00000001
 43
0.00000001
 40
0.0
 40
0.0
 40
0.0
 40
0.0
 40
0.0333090343055321
 40
0.5123912145564837
 40
1.0
 40
1.0
 40
1.0
 40
1.0
 10
395.3656370338603
 20
-325.4019283584679
 30
0.0
 10
395.3466775693136
 20
-325.4208267488204
 30
0.0
 10
395.055025071157
 20
-325.7115397456934
 30
0.0
 10
394.5667947606998
 20
-326.3744867327048
 30
0.0
 10
394.3537148713459
 20
-327.0495005648928
 30
0.0
 10
394.2462352012781
 20
-327.3899844284554
 30
0.0
  0
SPLINE
  5
B3
330
1F
100
AcDbEntity
  8
0
  6
Continuous
 62
   142
420
    32960
370
     0
100
AcDbSpline
210
0.0
220
0.0
230
1.0
 70
     8
 71
     3
 72
    10
 73
     6
 74
     0
 42
0.00000001
 43
0.00000001
 40
0.0
 40
0.0
 40
0.0
 40
0.0
 40
0.4858996059133566
 40
0.9633024943217506
 40
1.0
 40
1.0
 40
1.0
 40
1.0
 10
366.0564749343756
 20
-327.3899844284553
 30
0.0
 10
365.9460891055251
 20
-327.0529817998242
 30
0.0
 10
365.7272477173551
 20
-326.3848695626409
 30
0.0
 10
365.2668911986199
 20
-325.6841438960865
 30
0.0
 10
364.948775747805
 20
-325.4207312738361
 30
0.0
 10
364.9260680360489
 20
-325.401928358468
 30
0.0
  0
SPLINE
  5
B4
330
1F
100
AcDbEntity
  8
0
  6
Continuous
 62
   142
420
    32960
370
     0
100
AcDbSpline
210
0.0
220
0.0
230
1.0
 70
    24
 71
     3
 72
    12
 73
     8
 74
     0
 42
0.00000001
 43
0.00000001
 40
0.0
 40
0.0
 40
0.0
 40
0.0
 40
0.2500000000000349
 40
0.2500000000000349
 40
0.5000000000000698
 40
0.5000000000000698
 40
1.0
 40
1.0
 40
1.0
 40
1.0
 10
381.6513550678268
 20
-344.442341647767
 30
0.0
 10
381.6513550678268
 20
-344.4423416477671
 30
0.0
 10
381.6513550678268
 20
-344.4286927557385
 30
0.0
 10
381.6513550678268
 20
-344.3746732008963
 30
0.0
 10
381.6513550678268
 20
-344.3344141507458
 30
0.0
 10
381.6513550678268
 20
-344.1794573658828
 30
0.0
 10
381.6513550678268
 20
-344.0289687820102
 30
0.0
 10
381.6513550678268
 20
-343.8527063250958
 30
0.0
  0
LINE
  5
B5
330
1F
100
AcDbEntity
  8
0
  6
Continuous
 62
   142
420
    32960
370
     0
100
AcDbLine
 10
381.6513550678
 20
-343.9134812745
 30
0.0
 11
381.6513550678
 21
-343.9423416478
 31
0.0
  0
SPLINE
  5
B6
330
1F
100
AcDbEntity
  8
0
  6
Continuous
 62
   142
420
    32960
370
     0
100
AcDbSpline
210
0.0
220
0.0
230
1.0
 70
    24
 71
     3
 72
    10
 73
     6
 74
     0
 42
0.00000001
 43
0.00000001
 40
0.0
 40
0.0
 40
0.0
 40
0.0
 40
0.5
 40
0.5
 40
1.0
 40
1.0
 40
1.0
 40
1.0
 10
378.6513550678268
 20
-343.8527063250958
 30
0.0
 10
378.6513550678268
 20
-344.0289584626927
 30
0.0
 10
378.6513550678268
 20
-344.1783005446146
 30
0.0
 10
378.6513550678268
 20
-344.3854736877693
 30
0.0
 10
378.6513550678268
 20
-344.4423416477671
 30
0.0
 10
378.6513550678268
 20
-344.442341647767
 30
0.0
  0
LINE
  5
B7
330
1F
100
AcDbEntity
  8
0
  6
Continuous
 62
     7
370
    15
100
AcDbLine
 10
378.6513550678
 20
-344.4423416478
 30
0.0
 11
381.6513550678
 21
-344.4423416478
 31
0.0
  0
LINE
  5
B8
330
1F
100
AcDbEntity
  8
0
  6
Continuous
 62
   142
420
    32960
370
     0
100
AcDbLine
 10
378.6513550678
 20
-344.4423416478
 30
0.0
 11
369.5165518074
 21
-344.4423416478
 31
0.0
  0
LINE
  5
B9
330
1F
100
AcDbEntity
  8
0
  6
Continuous
 62
   142
420
    32960
370
     0
100
AcDbLine
 10
390.7861583283
 20
-344.4423416478
 30
0.0
 11
381.6513550678
 21
-344.4423416478
 31
0.0
  0
ARC
  5
BA
330
1F
100
AcDbEntity
  8
0
  6
Continuous
 62
   142
420
    32960
370
     0
100
AcDbCircle
 10
380.6513550678
 20
-343.9423416478
 30
0.0
 40
1.0
100
AcDbArc
 50
0.0
 51
90.0
  0
ARC
  5
BB
330
1F
100
AcDbEntity
  8
0
  6
Continuous
 62
   142
420
    32960
370
     0
100
AcDbCircle
 10
369.5297008204
 20
-343.4644481267
 30
0.0
 40
0.9779819195744491
100
AcDbArc
 50
192.6394279937
 51
269.2296323348
  0
ARC
  5
BC
330
1F
100
AcDbEntity
  8
0
  6
Continuous
 62
   142
420
    32960
370
     0
100
AcDbCircle
 10
390.7765612673
 20
-343.4688251531
 30
0.0
 40
0.9735637981133493
100
AcDbArc
 50
270.564811466
 51
347.5630266212
  0
LINE
  5
BD
330
1F
100
AcDbEntity
  8
0
  6
Continuous
 62
   142
420
    32960
370
     0
100
AcDbLine
 10
381.6513550678
 20
-343.9423416478
 30
0.0
 11
378.6513550678
 21
-343.9423416478
 31
0.0
  0
SPLINE
  5
BE
330
1F
100
AcDbEntity
  8
0
  6
Continuous
 62
     7
370
    15
100
AcDbSpline
210
0.0
220
0.0
230
1.0
 70
    24
 71
     3
 72
    10
 73
     6
 74
     0
 42
0.00000001
 43
0.00000001
 40
0.0
 40
0.0
 40
0.0
 40
0.0
 40
0.4999999999999999
 40
0.4999999999999999
 40
0.9999999999999999
 40
0.9999999999999999
 40
0.9999999999999999
 40
0.9999999999999999
 10
210.2513550678256
 20
-325.6423416477646
 30
0.0
 10
210.2513550678256
 20
-325.6423416477646
 30
0.0
 10
212.4469715192056
 20
-325.6423416477646
 30
0.0
 10
217.8557386164524
 20
-325.6423416477646
 30
0.0
 10
220.0513550678298
 20
-325.6423416477646
 30
0.0
 10
220.0513550678265
 20
-325.6423416477646
 30
0.0
  0
LINE
  5
BF
330
1F
100
AcDbEntity
  8
0
  6
Continuous
 62
   142
420
    32960
370
     0
100
AcDbLine
 10
-92.3486449322
 20
-189.8420457885
 30
0.0
 11
-92.3486449322
 21
-189.3420457885
 31
0.0
  0
LINE
  5
C0
330
1F
100
AcDbEntity
  8
0
  6
Continuous
 62
     7
370
    15
100
AcDbLine
 10
506.4513550678
 20
-190.0920457885
 30
0.0
 11
506.4513550678
 21
-190.1420457885
 31
0.0
  0
ARC
  5
C1
330
1F
100
AcDbEntity
  8
0
  6
Continuous
 62
   142
420
    32960
370
     0
100
AcDbCircle
 10
41.4513550678
 20
-128.4423416478
 30
0.0
 40
6.349999999999981
100
AcDbArc
 50
206.3500697891
 51
270.0
  0
LINE
  5
C2
330
1F
100
AcDbEntity
  8
0
  6
Continuous
 62
     7
370
    15
100
AcDbLine
 10
41.4513550678
 20
-134.7923416478
 30
0.0
 11
55.7775482036
 21
-134.7923416478
 31
0.0
  0
LINE
  5
C3
330
1F
100
AcDbEntity
  8
0
  6
Continuous
 62
   142
420
    32960
370
     0
100
AcDbLine
 10
505.2513550678
 20
-189.3420457885
 30
0.0
 11
505.2513550678
 21
-189.8420457885
 31
0.0
  0
LINE
  5
C4
330
1F
100
AcDbEntity
  8
0
  6
Continuous
 62
     7
370
    15
100
AcDbLine
 10
-93.5486449322
 20
-190.1420457885
 30
0.0
 11
-93.5486449322
 21
-190.0920457885
 31
0.0
  0
LINE
  5
C5
330
1F
100
AcDbEntity
  8
0
  6
Continuous
 62
     7
370
    15
100
AcDbLine
 10
-84.0486449322
 20
403.1846125636
 30
0.0
 11
-84.0486449322
 21
404.9972281376
 31
0.0
  0
LWPOLYLINE
  5
C6
330
1F
100
AcDbEntity
  8
0
  6
Continuous
 62
     7
370
    15
100
AcDbPolyline
 90
        9
 70
   128
 43
0.0
 10
-89.0486449322
 20
401.0715212549
 10
-88.9525713342
 20
401.4837649187
 10
-88.6680425947
 20
401.8801662898
 10
-88.2059929937
 20
402.2454918856
 10
-87.5841788381
 20
402.5657024485
 10
-86.8264960973
 20
402.8284924661
 10
-85.962062094
 20
403.0237630653
 10
-85.0240965423
 20
403.1440101066
 10
-84.0486449322
 20
403.1846125636
  0
LINE
  5
C7
330
1F
100
AcDbEntity
  8
0
  6
Continuous
 62
     7
370
    15
100
AcDbLine
 10
-89.0486449322
 20
401.0715212549
 30
0.0
 11
-89.0486449322
 21
402.8841368289
 31
0.0
  0
LWPOLYLINE
  5
C8
330
1F
100
AcDbEntity
  8
0
  6
Continuous
 62
   142
420
    32960
370
     0
100
AcDbPolyline
 90
        9
 70
   128
 43
0.0
 10
-89.0486449322
 20
402.8841368289
 10
-88.9525713342
 20
403.2963804928
 10
-88.6680425947
 20
403.6927818638
 10
-88.2059929937
 20
404.0581074597
 10
-87.5841788381
 20
404.3783180226
 10
-86.8264960973
 20
404.6411080401
 10
-85.962062094
 20
404.8363786394
 10
-85.0240965423
 20
404.9566256807
 10
-84.0486449322
 20
404.9972281376
  0
LINE
  5
C9
330
1F
100
AcDbEntity
  8
0
  6
Continuous
 62
     7
370
    15
100
AcDbLine
 10
496.9513550678
 20
403.1846125636
 30
0.0
 11
496.9513550678
 21
404.9972281376
 31
0.0
  0
LINE
  5
CA
330
1F
100
AcDbEntity
  8
0
  6
Continuous
 62
     7
370
    15
100
AcDbLine
 10
-84.0486449322
 20
403.1846125636
 30
0.0
 11
496.9513550678
 21
403.1846125636
 31
0.0
  0
LINE
  5
CB
330
1F
100
AcDbEntity
  8
0
  6
Continuous
 62
   142
420
    32960
370
     0
100
AcDbLine
 10
-84.0486449322
 20
404.9972281376
 30
0.0
 11
496.9513550678
 21
404.9972281376
 31
0.0
  0
LWPOLYLINE
  5
CC
330
1F
100
AcDbEntity
  8
0
  6
Continuous
 62
     7
370
    15
100
AcDbPolyline
 90
        9
 70
   128
 43
0.0
 10
496.9513550678
 20
403.1846125636
 10
497.9268066779
 20
403.1440101066
 10
498.8647722297
 20
403.0237630653
 10
499.7292062329
 20
402.8284924661
 10
500.4868889738
 20
402.5657024485
 10
501.1087031293
 20
402.2454918856
 10
501.5707527304
 20
401.8801662898
 10
501.8552814698
 20
401.4837649187
 10
501.9513550678
 20
401.0715212549
  0
LINE
  5
CD
330
1F
100
AcDbEntity
  8
0
  6
Continuous
 62
     7
370
    15
100
AcDbLine
 10
501.9513550678
 20
401.0715212549
 30
0.0
 11
501.9513550678
 21
396.9858769569
 31
0.0
  0
LINE
  5
CE
330
1F
100
AcDbEntity
  8
0
  6
Continuous
 62
     7
370
    15
100
AcDbLine
 10
-89.0486449322
 20
396.9858769569
 30
0.0
 11
501.9513550678
 21
396.9858769569
 31
0.0
  0
LINE
  5
CF
330
1F
100
AcDbEntity
  8
0
  6
Continuous
 62
     7
370
    15
100
AcDbLine
 10
-89.0486449322
 20
396.9858769569
 30
0.0
 11
-89.0486449322
 21
401.0715212549
 31
0.0
  0
LINE
  5
D0
330
1F
100
AcDbEntity
  8
0
  6
Continuous
 62
     7
370
    15
100
AcDbLine
 10
501.9513550678
 20
401.0715212549
 30
0.0
 11
501.9513550678
 21
402.8841368289
 31
0.0
  0
LWPOLYLINE
  5
D1
330
1F
100
AcDbEntity
  8
0
  6
Continuous
 62
   142
420
    32960
370
     0
100
AcDbPolyline
 90
        9
 70
   128
 43
0.0
 10
496.9513550678
 20
404.9972281376
 10
497.9268066779
 20
404.9566256807
 10
498.8647722297
 20
404.8363786394
 10
499.7292062329
 20
404.6411080401
 10
500.4868889738
 20
404.3783180226
 10
501.1087031293
 20
404.0581074597
 10
501.5707527304
 20
403.6927818638
 10
501.8552814698
 20
403.2963804928
 10
501.9513550678
 20
402.8841368289
  0
LINE
  5
D2
330
1F
100
AcDbEntity
  8
0
  6
Continuous
 62
     7
370
    15
100
AcDbLine
 10
501.9513550678
 20
396.6579542115
 30
0.0
 11
-89.0486449322
 21
396.6579542115
 31
0.0
  0
LINE
  5
D3
330
1F
100
AcDbEntity
  8
0
  6
Continuous
 62
   142
420
    32960
370
     0
100
AcDbLine
 10
501.9513550678
 20
396.9858769569
 30
0.0
 11
501.9513550678
 21
396.6579542115
 31
0.0
  0
LINE
  5
D4
330
1F
100
AcDbEntity
  8
0
  6
Continuous
 62
   142
420
    32960
370
     0
100
AcDbLine
 10
-89.0486449322
 20
396.6579542115
 30
0.0
 11
-89.0486449322
 21
396.9858769569
 31
0.0
  0
SPLINE
  5
D5
330
1F
100
AcDbEntity
  8
0
  6
Continuous
 62
     7
370
    15
100
AcDbSpline
210
0.0
220
0.0
230
1.0
 70
     8
 71
     3
 72
    14
 73
    10
 74
     0
 42
0.00000001
 43
0.00000001
 40
0.0
 40
0.0
 40
0.0
 40
0.0
 40
0.25
 40
0.25
 40
0.5
 40
0.5
 40
0.75
 40
0.75
 40
1.0
 40
1.0
 40
1.0
 40
1.0
 10
-89.0486449321723
 20
398.6579542115193
 30
0.0
 10
-89.50679386082072
 20
398.6579542115193
 30
0.0
 10
-89.9647625274298
 20
398.5668585798585
 30
0.0
 10
-90.81131136347037
 20
398.2162065707593
 30
0.0
 10
-91.19955845208445
 20
397.9567881599131
 30
0.0
 10
-91.84747888056599
 20
397.3088677314315
 30
0.0
 10
-92.10689729141214
 20
396.9206206428175
 30
0.0
 10
-92.45754930051142
 20
396.0740718067767
 30
0.0
 10
-92.5486449321723
 20
395.6161031401679
 30
0.0
 10
-92.5486449321723
 20
395.1579542115193
 30
0.0
  0
SPLINE
  5
D6
330
1F
100
AcDbEntity
  8
0
  6
Continuous
 62
     7
370
    15
100
AcDbSpline
210
0.0
220
0.0
230
1.0
 70
     8
 71
     3
 72
    14
 73
    10
 74
     0
 42
0.00000001
 43
0.00000001
 40
0.0
 40
0.0
 40
0.0
 40
0.0
 40
0.25
 40
0.25
 40
0.5
 40
0.5
 40
0.75
 40
0.75
 40
1.0
 40
1.0
 40
1.0
 40
1.0
 10
-89.0486449321723
 20
396.6579542115193
 30
0.0
 10
-89.24499447302165
 20
396.6579542115193
 30
0.0
 10
-89.44126675871122
 20
396.6189132265218
 30
0.0
 10
-89.80407340272862
 20
396.4686337940506
 30
0.0
 10
-89.97046501213468
 20
396.3574544751166
 30
0.0
 10
-90.24814519576957
 20
396.0797742914817
 30
0.0
 10
-90.35932451470374
 20
395.9133826820757
 30
0.0
 10
-90.50960394717472
 20
395.5505760380583
 30
0.0
 10
-90.5486449321723
 20
395.3543037523688
 30
0.0
 10
-90.5486449321723
 20
395.1579542115193
 30
0.0
  0
LINE
  5
D7
330
1F
100
AcDbEntity
  8
0
  6
Continuous
 62
     7
370
    15
100
AcDbLine
 10
-90.5486449322
 20
395.1579542115
 30
0.0
 11
-92.5486449322
 21
395.1579542115
 31
0.0
  0
SPLINE
  5
D8
330
1F
100
AcDbEntity
  8
0
  6
Continuous
 62
     7
370
    15
100
AcDbSpline
210
0.0
220
0.0
230
1.0
 70
     8
 71
     3
 72
    14
 73
    10
 74
     0
 42
0.00000001
 43
0.00000001
 40
0.0
 40
0.0
 40
0.0
 40
0.0
 40
0.25
 40
0.25
 40
0.5
 40
0.5
 40
0.75
 40
0.75
 40
1.0
 40
1.0
 40
1.0
 40
1.0
 10
503.4513550678276
 20
395.1579542115194
 30
0.0
 10
503.4513550678276
 20
395.3543037523688
 30
0.0
 10
503.4123140828302
 20
395.5505760380583
 30
0.0
 10
503.2620346503591
 20
395.9133826820757
 30
0.0
 10
503.150855331425
 20
396.0797742914817
 30
0.0
 10
502.8731751477899
 20
396.3574544751166
 30
0.0
 10
502.7067835383841
 20
396.4686337940508
 30
0.0
 10
502.3439768943667
 20
396.6189132265218
 30
0.0
 10
502.1477046086771
 20
396.6579542115193
 30
0.0
 10
501.9513550678277
 20
396.6579542115193
 30
0.0
  0
SPLINE
  5
D9
330
1F
100
AcDbEntity
  8
0
  6
Continuous
 62
     7
370
    15
100
AcDbSpline
210
0.0
220
0.0
230
1.0
 70
     8
 71
     3
 72
    14
 73
    10
 74
     0
 42
0.00000001
 43
0.00000001
 40
0.0
 40
0.0
 40
0.0
 40
0.0
 40
0.25
 40
0.25
 40
0.5
 40
0.5
 40
0.75
 40
0.75
 40
1.0
 40
1.0
 40
1.0
 40
1.0
 10
505.4513550678277
 20
395.1579542115194
 30
0.0
 10
505.4513550678277
 20
395.616103140168
 30
0.0
 10
505.3602594361668
 20
396.0740718067769
 30
0.0
 10
505.0096074270676
 20
396.9206206428175
 30
0.0
 10
504.7501890162214
 20
397.3088677314316
 30
0.0
 10
504.1022685877399
 20
397.956788159913
 30
0.0
 10
503.7140214991258
 20
398.2162065707593
 30
0.0
 10
502.8674726630853
 20
398.5668585798585
 30
0.0
 10
502.4095039964762
 20
398.6579542115194
 30
0.0
 10
501.9513550678277
 20
398.6579542115193
 30
0.0
  0
LINE
  5
DA
330
1F
100
AcDbEntity
  8
0
  6
Continuous
 62
     7
370
    15
100
AcDbLine
 10
503.4513550678
 20
395.1579542115
 30
0.0
 11
505.4513550678
 21
395.1579542115
 31
0.0
  0
LINE
  5
DB
330
1F
100
AcDbEntity
  8
0
  6
Continuous
 62
     7
370
    15
100
AcDbLine
 10
505.4513550678
 20
-181.3880947048
 30
0.0
 11
505.4513550678
 21
-189.3420457885
 31
0.0
  0
LINE
  5
DC
330
1F
100
AcDbEntity
  8
0
  6
Continuous
 62
     7
370
    15
100
AcDbLine
 10
505.4513550678
 20
-174.8130786891
 30
0.0
 11
505.4513550678
 21
-181.3880947048
 31
0.0
  0
LINE
  5
DD
330
1F
100
AcDbEntity
  8
0
  6
Continuous
 62
     7
370
    15
100
AcDbLine
 10
505.4513550678
 20
395.1579542115
 30
0.0
 11
505.4513550678
 21
-174.8130786891
 31
0.0
  0
LINE
  5
DE
330
1F
100
AcDbEntity
  8
0
  6
Continuous
 62
     7
370
    15
100
AcDbLine
 10
505.4513550678
 20
-174.8130786891
 30
0.0
 11
503.4513550678
 21
-174.8130786891
 31
0.0
  0
LINE
  5
DF
330
1F
100
AcDbEntity
  8
0
  6
Continuous
 62
     7
370
    15
100
AcDbLine
 10
503.4513550678
 20
395.1579542115
 30
0.0
 11
503.4513550678
 21
-174.8130786891
 31
0.0
  0
LINE
  5
E0
330
1F
100
AcDbEntity
  8
0
  6
Continuous
 62
     7
370
    15
100
AcDbLine
 10
503.4513550678
 20
-174.8130786891
 30
0.0
 11
503.4513550678
 21
-181.3880947048
 31
0.0
  0
LINE
  5
E1
330
1F
100
AcDbEntity
  8
0
  6
Continuous
 62
     7
370
    15
100
AcDbLine
 10
503.4513550678
 20
-181.3880947048
 30
0.0
 11
503.4513550678
 21
-189.3420457885
 31
0.0
  0
LINE
  5
E2
330
1F
100
AcDbEntity
  8
0
  6
Continuous
 62
     7
370
    15
100
AcDbLine
 10
-92.5486449322
 20
-174.8130786891
 30
0.0
 11
-92.5486449322
 21
395.1579542115
 31
0.0
  0
LINE
  5
E3
330
1F
100
AcDbEntity
  8
0
  6
Continuous
 62
     7
370
    15
100
AcDbLine
 10
-92.5486449322
 20
-181.3880947048
 30
0.0
 11
-92.5486449322
 21
-174.8130786891
 31
0.0
  0
LINE
  5
E4
330
1F
100
AcDbEntity
  8
0
  6
Continuous
 62
     7
370
    15
100
AcDbLine
 10
-92.5486449322
 20
-189.3420457885
 30
0.0
 11
-92.5486449322
 21
-181.3880947048
 31
0.0
  0
LINE
  5
E5
330
1F
100
AcDbEntity
  8
0
  6
Continuous
 62
     7
370
    15
100
AcDbLine
 10
-90.5486449322
 20
-174.8130786891
 30
0.0
 11
-90.5486449322
 21
395.1579542115
 31
0.0
  0
LINE
  5
E6
330
1F
100
AcDbEntity
  8
0
  6
Continuous
 62
     7
370
    15
100
AcDbLine
 10
-92.5486449322
 20
-174.8130786891
 30
0.0
 11
-90.5486449322
 21
-174.8130786891
 31
0.0
  0
LINE
  5
E7
330
1F
100
AcDbEntity
  8
0
  6
Continuous
 62
     7
370
    15
100
AcDbLine
 10
-90.5486449322
 20
-189.3420457885
 30
0.0
 11
-90.5486449322
 21
-181.3880947048
 31
0.0
  0
LINE
  5
E8
330
1F
100
AcDbEntity
  8
0
  6
Continuous
 62
     7
370
    15
100
AcDbLine
 10
-90.5486449322
 20
-181.3880947048
 30
0.0
 11
-90.5486449322
 21
-174.8130786891
 31
0.0
  0
LINE
  5
E9
330
1F
100
AcDbEntity
  8
0
  6
Continuous
 62
     7
370
    15
100
AcDbLine
 10
-92.5486449322
 20
-181.3880947048
 30
0.0
 11
-90.5486449322
 21
-181.3880947048
 31
0.0
  0
LINE
  5
EA
330
1F
100
AcDbEntity
  8
0
  6
Continuous
 62
     7
370
    15
100
AcDbLine
 10
505.4513550678
 20
-181.3880947048
 30
0.0
 11
503.4513550678
 21
-181.3880947048
 31
0.0
  0
LINE
  5
EB
330
1F
100
AcDbEntity
  8
0
  6
Continuous
 62
   142
420
    32960
370
     0
100
AcDbLine
 10
505.4513550678
 20
-189.3420457885
 30
0.0
 11
503.4513550678
 21
-189.3420457885
 31
0.0
  0
LINE
  5
EC
330
1F
100
AcDbEntity
  8
0
  6
Continuous
 62
   142
420
    32960
370
     0
100
AcDbLine
 10
-92.5486449322
 20
-189.3420457885
 30
0.0
 11
-90.5486449322
 21
-189.3420457885
 31
0.0
  0
SPLINE
  5
ED
330
1F
100
AcDbEntity
  8
0
  6
Continuous
 62
     7
370
    15
100
AcDbSpline
210
0.0
220
0.0
230
1.0
 70
     8
 71
     3
 72
    10
 73
     6
 74
     0
 42
0.00000001
 43
0.00000001
 40
0.0
 40
0.0
 40
0.0
 40
0.0
 40
0.5
 40
0.5
 40
1.0
 40
1.0
 40
1.0
 40
1.0
 10
281.3005535245718
 20
-343.8527063250958
 30
0.0
 10
281.6436627996189
 20
-341.1871486283206
 30
0.0
 10
282.022530297071
 20
-338.5125636720346
 30
0.0
 10
282.8480015460077
 20
-333.154098673436
 30
0.0
 10
283.2946519355083
 20
-330.4700466920219
 30
0.0
 10
283.7742748457543
 20
-327.7828966993469
 30
0.0
  0
LINE
  5
EE
330
1F
100
AcDbEntity
  8
0
  6
Continuous
 62
     7
370
    15
100
AcDbLine
 10
271.6513550678
 20
-343.8527063251
 30
0.0
 11
281.3005535246
 21
-343.8527063251
 31
0.0
  0
LINE
  5
EF
330
1F
100
AcDbEntity
  8
0
  6
Continuous
 62
     7
370
    15
100
AcDbLine
 10
259.0021566111
 20
-343.8527063251
 30
0.0
 11
268.6513550678
 21
-343.8527063251
 31
0.0
  0
SPLINE
  5
F0
330
1F
100
AcDbEntity
  8
0
  6
Continuous
 62
     7
370
    15
100
AcDbSpline
210
0.0
220
0.0
230
1.0
 70
     8
 71
     3
 72
    10
 73
     6
 74
     0
 42
0.00000001
 43
0.00000001
 40
0.0
 40
0.0
 40
0.0
 40
0.0
 40
0.5
 40
0.5
 40
1.0
 40
1.0
 40
1.0
 40
1.0
 10
256.5284352898993
 20
-327.7828966993467
 30
0.0
 10
257.0080582001454
 20
-330.4700466920218
 30
0.0
 10
257.454708589646
 20
-333.154098673436
 30
0.0
 10
258.2801798385826
 20
-338.5125636720344
 30
0.0
 10
258.6590473360347
 20
-341.1871486283208
 30
0.0
 10
259.0021566110819
 20
-343.8527063250958
 30
0.0
  0
SPLINE
  5
F1
330
1F
100
AcDbEntity
  8
0
  6
Continuous
 62
   142
420
    32960
370
     0
100
AcDbSpline
210
0.0
220
0.0
230
1.0
 70
     8
 71
     3
 72
     9
 73
     5
 74
     0
 42
0.00000001
 43
0.00000001
 40
0.0
 40
0.0
 40
0.0
 40
0.0
 40
0.4593338932481557
 40
1.0
 40
1.0
 40
1.0
 40
1.0
 10
255.3418325120751
 20
-325.401928358468
 30
0.0
 10
255.6111500288173
 20
-325.7365411273118
 30
0.0
 10
256.1974719194963
 20
-326.4650150626397
 30
0.0
 10
256.4122902821204
 20
-327.320412368345
 30
0.0
 10
256.5284352898993
 20
-327.7828966993467
 30
0.0
  0
LINE
  5
F2
330
1F
100
AcDbEntity
  8
0
  6
Continuous
 62
   142
420
    32960
370
     0
100
AcDbLine
 10
268.6513550678
 20
-342.5048394585
 30
0.0
 11
268.6513550678
 21
-343.8527063251
 31
0.0
  0
LINE
  5
F3
330
1F
100
AcDbEntity
  8
0
  6
Continuous
 62
   142
420
    32960
370
     0
100
AcDbLine
 10
269.8655843775
 20
-325.4019283585
 30
0.0
 11
268.6513550678
 21
-342.5048394585
 31
0.0
  0
LINE
  5
F4
330
1F
100
AcDbEntity
  8
0
  6
Continuous
 62
   142
420
    32960
370
     0
100
AcDbLine
 10
270.4371257581
 20
-325.4019283585
 30
0.0
 11
271.6513550678
 21
-342.5048394585
 31
0.0
  0
LINE
  5
F5
330
1F
100
AcDbEntity
  8
0
  6
Continuous
 62
   142
420
    32960
370
     0
100
AcDbLine
 10
271.6513550678
 20
-343.8527063251
 30
0.0
 11
271.6513550678
 21
-342.5048394585
 31
0.0
  0
SPLINE
  5
F6
330
1F
100
AcDbEntity
  8
0
  6
Continuous
 62
   142
420
    32960
370
     0
100
AcDbSpline
210
0.0
220
0.0
230
1.0
 70
     8
 71
     3
 72
     9
 73
     5
 74
     0
 42
0.00000001
 43
0.00000001
 40
0.0
 40
0.0
 40
0.0
 40
0.0
 40
0.5406661067518017
 40
0.9999999999999999
 40
0.9999999999999999
 40
0.9999999999999999
 40
0.9999999999999999
 10
283.7742748457543
 20
-327.7828966993469
 30
0.0
 10
283.8904198535332
 20
-327.3204123683452
 30
0.0
 10
284.1052382161573
 20
-326.4650150626398
 30
0.0
 10
284.6915601068363
 20
-325.7365411273119
 30
0.0
 10
284.9608776235785
 20
-325.401928358468
 30
0.0
  0
LWPOLYLINE
  5
F7
330
1F
100
AcDbEntity
  8
0
  6
Continuous
 62
   142
420
    32960
370
     0
100
AcDbPolyline
 90
        8
 70
   128
 43
0.0
 10
259.0021566111
 20
-343.8527063251
 10
258.8765761074
 20
-343.8292242092
 10
258.7665219275
 20
-343.7963560121
 10
258.6746640739
 20
-343.7548991426
 10
258.603231092
 20
-343.7058593777
 10
258.5539560032
 20
-343.6504264612
 10
258.5280342606
 20
-343.5899452403
 10
258.5244266508
 20
-343.5655374898
  0
LWPOLYLINE
  5
F8
330
1F
100
AcDbEntity
  8
0
  6
Continuous
 62
   142
420
    32960
370
     0
100
AcDbPolyline
 90
        9
 70
   128
 43
0.0
 10
256.0564749344
 20
-327.3899844285
 10
256.0141392469
 20
-327.4624845143
 10
256.0023769855
 20
-327.5321623753
 10
256.0215571868
 20
-327.5968318955
 10
256.0710780792
 20
-327.6544640934
 10
256.1493859638
 20
-327.703250781
 10
256.2540239609
 20
-327.7416612949
 10
256.3817090936
 20
-327.7684905199
 10
256.5284352899
 20
-327.7828966993
  0
LWPOLYLINE
  5
F9
330
1F
100
AcDbEntity
  8
0
  6
Continuous
 62
   142
420
    32960
370
     0
100
AcDbPolyline
 90
        9
 70
   128
 43
0.0
 10
284.2462352013
 20
-327.3899844285
 10
284.2885708888
 20
-327.4624845143
 10
284.3003331501
 20
-327.5321623753
 10
284.2811529489
 20
-327.5968318955
 10
284.2316320565
 20
-327.6544640934
 10
284.1533241718
 20
-327.703250781
 10
284.0486861748
 20
-327.7416612949
 10
283.9210010421
 20
-327.7684905199
 10
283.7742748458
 20
-327.7828966993
  0
ARC
  5
FA
330
1F
100
AcDbEntity
  8
0
  6
Continuous
 62
   142
420
    32960
370
     0
100
AcDbCircle
 10
281.3251655935
 20
-343.3466254134
 30
0.0
 40
0.5066790336318321
100
AcDbArc
 50
267.215746596
 51
333.1623913742
  0
SPLINE
  5
FB
330
1F
100
AcDbEntity
  8
0
  6
Continuous
 62
   142
420
    32960
370
     0
100
AcDbSpline
210
0.0
220
0.0
230
1.0
 70
     8
 71
     3
 72
    10
 73
     6
 74
     0
 42
0.00000001
 43
0.00000001
 40
0.0
 40
0.0
 40
0.0
 40
0.0
 40
0.033309034305534
 40
0.5123912145564854
 40
1.0
 40
1.0
 40
1.0
 40
1.0
 10
285.3656370338603
 20
-325.4019283584679
 30
0.0
 10
285.3466775693136
 20
-325.4208267488205
 30
0.0
 10
285.0550250711572
 20
-325.7115397456936
 30
0.0
 10
284.5667947606997
 20
-326.3744867327047
 30
0.0
 10
284.3537148713458
 20
-327.0495005648928
 30
0.0
 10
284.2462352012781
 20
-327.3899844284554
 30
0.0
  0
SPLINE
  5
FC
330
1F
100
AcDbEntity
  8
0
  6
Continuous
 62
   142
420
    32960
370
     0
100
AcDbSpline
210
0.0
220
0.0
230
1.0
 70
     8
 71
     3
 72
    10
 73
     6
 74
     0
 42
0.00000001
 43
0.00000001
 40
0.0
 40
0.0
 40
0.0
 40
0.0
 40
0.4858996059133571
 40
0.9633024943217517
 40
1.0
 40
1.0
 40
1.0
 40
1.0
 10
256.0564749343755
 20
-327.3899844284553
 30
0.0
 10
255.9460891055251
 20
-327.0529817998243
 30
0.0
 10
255.7272477173551
 20
-326.384869562641
 30
0.0
 10
255.2668911986198
 20
-325.6841438960867
 30
0.0
 10
254.948775747805
 20
-325.4207312738361
 30
0.0
 10
254.9260680360489
 20
-325.401928358468
 30
0.0
  0
LINE
  5
FD
330
1F
100
AcDbEntity
  8
0
  6
Continuous
 62
     7
370
    15
100
AcDbLine
 10
280.7861583283
 20
-344.4423416478
 30
0.0
 11
271.6513550678
 21
-344.4423416478
 31
0.0
  0
SPLINE
  5
FE
330
1F
100
AcDbEntity
  8
0
  6
Continuous
 62
   142
420
    32960
370
     0
100
AcDbSpline
210
0.0
220
0.0
230
1.0
 70
    24
 71
     3
 72
    12
 73
     8
 74
     0
 42
0.00000001
 43
0.00000001
 40
0.0
 40
0.0
 40
0.0
 40
0.0
 40
0.2500000000000044
 40
0.2500000000000044
 40
0.5000000000000088
 40
0.5000000000000088
 40
1.0
 40
1.0
 40
1.0
 40
1.0
 10
271.6513550678268
 20
-344.442341647767
 30
0.0
 10
271.6513550678268
 20
-344.4423416477671
 30
0.0
 10
271.6513550678268
 20
-344.4286927557386
 30
0.0
 10
271.6513550678268
 20
-344.3746732008962
 30
0.0
 10
271.6513550678268
 20
-344.3344141507458
 30
0.0
 10
271.6513550678268
 20
-344.179457365883
 30
0.0
 10
271.6513550678268
 20
-344.0289687820103
 30
0.0
 10
271.6513550678268
 20
-343.8527063250958
 30
0.0
  0
ARC
  5
FF
330
1F
100
AcDbEntity
  8
0
  6
Continuous
 62
   142
420
    32960
370
     0
100
AcDbCircle
 10
280.641582855
 20
-343.7970189708
 30
0.0
 40
0.6613194574694182
100
AcDbArc
 50
282.6277977521
 51
355.1696066289
  0
LINE
  5
100
330
1F
100
AcDbEntity
  8
0
  6
Continuous
 62
     7
370
    15
100
AcDbLine
 10
268.6513550678
 20
-344.4423416478
 30
0.0
 11
259.5165518074
 21
-344.4423416478
 31
0.0
  0
SPLINE
  5
101
330
1F
100
AcDbEntity
  8
0
  6
Continuous
 62
   142
420
    32960
370
     0
100
AcDbSpline
210
0.0
220
0.0
230
1.0
 70
    24
 71
     3
 72
    10
 73
     6
 74
     0
 42
0.00000001
 43
0.00000001
 40
0.0
 40
0.0
 40
0.0
 40
0.0
 40
0.5
 40
0.5
 40
1.0
 40
1.0
 40
1.0
 40
1.0
 10
268.6513550678268
 20
-343.8527063250958
 30
0.0
 10
268.6513550678268
 20
-344.0289584626927
 30
0.0
 10
268.6513550678268
 20
-344.1783005446146
 30
0.0
 10
268.6513550678268
 20
-344.3854736877693
 30
0.0
 10
268.6513550678268
 20
-344.4423416477671
 30
0.0
 10
268.6513550678268
 20
-344.442341647767
 30
0.0
  0
ARC
  5
102
330
1F
100
AcDbEntity
  8
0
  6
Continuous
 62
   142
420
    32960
370
     0
100
AcDbCircle
 10
259.6611272807
 20
-343.7970189708
 30
0.0
 40
0.6613194574691719
100
AcDbArc
 50
184.8303933711
 51
257.372202248
  0
LINE
  5
103
330
1F
100
AcDbEntity
  8
0
  6
Continuous
 62
   142
420
    32960
370
     0
100
AcDbLine
 10
268.6513550678
 20
-344.4423416478
 30
0.0
 11
271.6513550678
 21
-344.4423416478
 31
0.0
  0
ARC
  5
104
330
1F
100
AcDbEntity
  8
0
  6
Continuous
 62
   142
420
    32960
370
     0
100
AcDbCircle
 10
280.7765619071
 20
-343.4688272303
 30
0.0
 40
0.9735617146919029
100
AcDbArc
 50
270.5647750196
 51
347.5589183762
  0
ARC
  5
105
330
1F
100
AcDbEntity
  8
0
  6
Continuous
 62
   142
420
    32960
370
     0
100
AcDbCircle
 10
259.5297005464
 20
-343.4644487825
 30
0.0
 40
0.977981260195992
100
AcDbArc
 50
192.6407784837
 51
269.2296478671
  0
LINE
  5
106
330
1F
100
AcDbEntity
  8
0
  6
Continuous
 62
   142
420
    32960
370
     0
100
AcDbLine
 10
504.0013550678
 20
-189.3420457885
 30
0.0
 11
504.0013550678
 21
-189.8420457885
 31
0.0
  0
LINE
  5
107
330
1F
100
AcDbEntity
  8
0
  6
Continuous
 62
     7
370
    15
100
AcDbLine
 10
506.4513550678
 20
-318.2957459064
 30
0.0
 11
506.4513550678
 21
-306.1420457885
 31
0.0
  0
LINE
  5
108
330
1F
100
AcDbEntity
  8
0
  6
Continuous
 62
     7
370
    15
100
AcDbLine
 10
-93.5486449322
 20
-318.2957459064
 30
0.0
 11
-93.5486449322
 21
-306.1420457885
 31
0.0
  0
LINE
  5
109
330
1F
100
AcDbEntity
  8
0
  6
Continuous
 62
     7
370
    15
100
AcDbLine
 10
506.4513550678
 20
-318.2957459064
 30
0.0
 11
-93.5486449322
 21
-318.2957459064
 31
0.0
  0
LINE
  5
10A
330
1F
100
AcDbEntity
  8
0
  6
Continuous
 62
     7
370
    15
100
AcDbLine
 10
506.4513550678
 20
-325.4019283585
 30
0.0
 11
506.4513550678
 21
-318.2957459064
 31
0.0
  0
LINE
  5
10B
330
1F
100
AcDbEntity
  8
0
  6
Continuous
 62
     7
370
    15
100
AcDbLine
 10
-93.5486449322
 20
-325.4019283585
 30
0.0
 11
-93.5486449322
 21
-318.2957459064
 31
0.0
  0
SPLINE
  5
10C
330
1F
100
AcDbEntity
  8
0
  6
Continuous
 62
   142
420
    32960
370
     0
100
AcDbSpline
210
0.0
220
0.0
230
1.0
 70
    24
 71
     3
 72
     9
 73
     5
 74
     0
 42
0.00000001
 43
0.00000001
 40
0.0
 40
0.0
 40
0.0
 40
0.0
 40
0.8131247984402292
 40
1.0
 40
1.0
 40
1.0
 40
1.0
 10
271.6513550678268
 20
-342.3423896693818
 30
0.0
 10
271.6513550678268
 20
-342.3392617237176
 30
0.0
 10
271.6513550678268
 20
-342.3354149025775
 30
0.0
 10
271.6513550678268
 20
-342.336818772066
 30
0.0
 10
271.6513550678268
 20
-342.3370811204597
 30
0.0
  0
SPLINE
  5
10D
330
1F
100
AcDbEntity
  8
0
  6
Continuous
 62
     7
370
    15
100
AcDbSpline
210
0.0
220
0.0
230
1.0
 70
     8
 71
     3
 72
    20
 73
    16
 74
     0
 42
0.00000001
 43
0.00000001
 40
0.0
 40
0.0
 40
0.0
 40
0.0
 40
0.1249999999999958
 40
0.1249999999999958
 40
0.2499999999999916
 40
0.2499999999999916
 40
0.4999999999999879
 40
0.4999999999999879
 40
0.7499999999999842
 40
0.7499999999999842
 40
0.8749999999999996
 40
0.8749999999999996
 40
0.9374999999999998
 40
0.9374999999999998
 40
1.0
 40
1.0
 40
1.0
 40
1.0
 10
271.6513550678268
 20
-342.3466168177855
 30
0.0
 10
271.6513550678268
 20
-342.3705791779278
 30
0.0
 10
271.6462148156169
 20
-342.3775974127826
 30
0.0
 10
271.622952936792
 20
-342.3792509270937
 30
0.0
 10
271.6049504336416
 20
-342.3738153037858
 30
0.0
 10
271.5325482794422
 20
-342.3525138443319
 30
0.0
 10
271.4600919775184
 20
-342.3319686587723
 30
0.0
 10
271.278208237335
 20
-342.3022826510834
 30
0.0
 10
271.1678308333066
 20
-342.2920780759353
 30
0.0
 10
270.9898267099097
 20
-342.2950398319121
 30
0.0
 10
270.9280812066175
 20
-342.2988671335457
 30
0.0
 10
270.8335596175981
 20
-342.3130291734732
 30
0.0
 10
270.8020324092461
 20
-342.3190772232497
 30
0.0
 10
270.739918090419
 20
-342.3365664294488
 30
0.0
 10
270.7076427602837
 20
-342.3465490923629
 30
0.0
 10
270.6839508790728
 20
-342.3676709137901
 30
0.0
  0
SPLINE
  5
10E
330
1F
100
AcDbEntity
  8
0
  6
Continuous
 62
   142
420
    32960
370
     0
100
AcDbSpline
210
0.0
220
0.0
230
1.0
 70
     8
 71
     3
 72
    10
 73
     6
 74
     0
 42
0.00000001
 43
0.00000001
 40
0.0
 40
0.0
 40
0.0
 40
0.0
 40
0.2629172887178696
 40
0.5497609139377454
 40
1.0
 40
1.0
 40
1.0
 40
1.0
 10
270.4449191494031
 20
-325.401928358468
 30
0.0
 10
270.5506401750293
 20
-326.8747744959056
 30
0.0
 10
270.7717031867246
 20
-329.9545006050403
 30
0.0
 10
271.1739037403469
 20
-335.6897866674412
 30
0.0
 10
271.4703028460917
 20
-339.8196852919937
 30
0.0
 10
271.6513550678268
 20
-342.3423896693816
 30
0.0
  0
SPLINE
  5
10F
330
1F
100
AcDbEntity
  8
0
  6
Continuous
 62
     7
370
    15
100
AcDbSpline
210
0.0
220
0.0
230
1.0
 70
     8
 71
     3
 72
     8
 73
     4
 74
     0
 42
0.00000001
 43
0.00000001
 40
0.0
 40
0.0
 40
0.0
 40
0.0
 40
1.0
 40
1.0
 40
1.0
 40
1.0
 10
270.6839508791186
 20
-342.3676709138455
 30
0.0
 10
270.6730818154137
 20
-342.3773609178334
 30
0.0
 10
270.6621788087046
 20
-342.3870733850703
 30
0.0
 10
270.6513550678268
 20
-342.3967153425852
 30
0.0
  0
SPLINE
  5
110
330
1F
100
AcDbEntity
  8
0
  6
Continuous
 62
   142
420
    32960
370
     0
100
AcDbSpline
210
0.0
220
0.0
230
1.0
 70
     8
 71
     3
 72
    10
 73
     6
 74
     0
 42
0.00000001
 43
0.00000001
 40
0.0
 40
0.0
 40
0.0
 40
0.0
 40
0.2588205932200303
 40
0.5472745464133233
 40
1.0
 40
1.0
 40
1.0
 40
1.0
 10
270.1171570469339
 20
-325.401928358468
 30
0.0
 10
270.0480839503018
 20
-326.8651599506417
 30
0.0
 10
269.9020293139283
 20
-329.9591541183462
 30
0.0
 10
269.9652064915738
 20
-335.6185417168732
 30
0.0
 10
269.7501310993288
 20
-339.8084196045987
 30
0.0
 10
269.6187592565349
 20
-342.367670913852
 30
0.0
  0
SPLINE
  5
111
330
1F
100
AcDbEntity
  8
0
  6
Continuous
 62
   142
420
    32960
370
     0
100
AcDbSpline
210
0.0
220
0.0
230
1.0
 70
     8
 71
     3
 72
     8
 73
     4
 74
     0
 42
0.00000001
 43
0.00000001
 40
0.0
 40
0.0
 40
0.0
 40
0.0
 40
1.0
 40
1.0
 40
1.0
 40
1.0
 10
269.6187592565379
 20
-342.3676709138481
 30
0.0
 10
269.6296283202419
 20
-342.3773609178351
 30
0.0
 10
269.64053132695
 20
-342.3870733850712
 30
0.0
 10
269.6513550678268
 20
-342.3967153425852
 30
0.0
  0
LINE
  5
112
330
1F
100
AcDbEntity
  8
0
  6
Continuous
 62
   142
420
    32960
370
     0
100
AcDbLine
 10
269.6513550678
 20
-342.3967153426
 30
0.0
 11
270.6513550678
 21
-342.3967153426
 31
0.0
  0
ARC
  5
113
330
1F
100
AcDbEntity
  8
0
  6
Continuous
 62
     7
370
    15
100
AcDbCircle
 10
270.6513550678
 20
-343.9423416478
 30
0.0
 40
1.0
100
AcDbArc
 50
0.0
 51
90.0
  0
LINE
  5
114
330
1F
100
AcDbEntity
  8
0
  6
Continuous
 62
   142
420
    32960
370
     0
100
AcDbLine
 10
271.6513550678
 20
-342.3886040472
 30
0.0
 11
271.6513550678
 21
-342.4524054108
 31
0.0
  0
LINE
  5
115
330
1F
100
AcDbEntity
  8
0
  6
Continuous
 62
   142
420
    32960
370
     0
100
AcDbLine
 10
270.6513550678
 20
-342.3967153426
 30
0.0
 11
270.6513550678
 21
-342.9423416478
 31
0.0
  0
ARC
  5
116
330
1F
100
AcDbEntity
  8
0
  6
Continuous
 62
   142
420
    32960
370
     0
100
AcDbCircle
 10
269.6513550678
 20
-343.9423416478
 30
0.0
 40
1.0
100
AcDbArc
 50
90.0
 51
180.0
  0
LINE
  5
117
330
1F
100
AcDbEntity
  8
0
  6
Continuous
 62
   142
420
    32960
370
     0
100
AcDbLine
 10
271.6513550678
 20
-343.9423416478
 30
0.0
 11
268.6513550678
 21
-343.9423416478
 31
0.0
  0
LINE
  5
118
330
1F
100
AcDbEntity
  8
0
  6
Continuous
 62
   142
420
    32960
370
     0
100
AcDbLine
 10
269.6513550678
 20
-342.9423416478
 30
0.0
 11
270.6513550678
 21
-342.9423416478
 31
0.0
  0
LINE
  5
119
330
1F
100
AcDbEntity
  8
0
  6
Continuous
 62
     7
370
    15
100
AcDbLine
 10
115.4013550678
 20
-306.9088542869
 30
0.0
 11
115.4013550678
 21
-307.2654501181
 31
0.0
  0
LINE
  5
11A
330
1F
100
AcDbEntity
  8
0
  6
Continuous
 62
     7
370
    15
100
AcDbLine
 10
115.4013550678
 20
-307.2654501181
 30
0.0
 11
-54.5986449322
 21
-307.2654501181
 31
0.0
  0
LINE
  5
11B
330
1F
100
AcDbEntity
  8
0
  6
Continuous
 62
     7
370
    15
100
AcDbLine
 10
-54.5986449322
 20
-306.9088542869
 30
0.0
 11
-54.5986449322
 21
-307.2654501181
 31
0.0
  0
LINE
  5
11C
330
1F
100
AcDbEntity
  8
0
  6
Continuous
 62
     7
370
    15
100
AcDbLine
 10
-54.5986449322
 20
-307.2654501181
 30
0.0
 11
-54.5986449322
 21
-309.4285690787
 31
0.0
  0
LINE
  5
11D
330
1F
100
AcDbEntity
  8
0
  6
Continuous
 62
     7
370
    15
100
AcDbLine
 10
115.4013550678
 20
-307.2654501181
 30
0.0
 11
115.4013550678
 21
-309.4285690787
 31
0.0
  0
LINE
  5
11E
330
1F
100
AcDbEntity
  8
0
  6
Continuous
 62
     7
370
    15
100
AcDbLine
 10
105.4013550678
 20
-312.5187390225
 30
0.0
 11
-44.5986449322
 21
-312.5187390225
 31
0.0
  0
LWPOLYLINE
  5
11F
330
1F
100
AcDbEntity
  8
0
  6
Continuous
 62
     7
370
    15
100
AcDbPolyline
 90
        9
 70
   128
 43
0.0
 10
-54.5986449322
 20
-309.4285690787
 10
-54.4064977362
 20
-310.0314313281
 10
-53.8374402573
 20
-310.6111259194
 10
-52.9133410552
 20
-311.1453755144
 10
-51.669712744
 20
-311.6136492009
 10
-50.1543472624
 20
-311.9979514838
 10
-48.4254792558
 20
-312.2835138417
 10
-46.5495481523
 20
-312.4593622735
 10
-44.5986449322
 20
-312.5187390225
  0
LWPOLYLINE
  5
120
330
1F
100
AcDbEntity
  8
0
  6
Continuous
 62
   142
420
    32960
370
     0
100
AcDbPolyline
 90
        9
 70
   128
 43
0.0
 10
105.4013550678
 20
-312.5187390225
 10
107.352258288
 20
-312.4593622735
 10
109.2281893915
 20
-312.2835138417
 10
110.957057398
 20
-311.9979514838
 10
112.4724228797
 20
-311.6136492009
 10
113.7160511909
 20
-311.1453755144
 10
114.6401503929
 20
-310.6111259194
 10
115.2092078719
 20
-310.0314313281
 10
115.4013550678
 20
-309.4285690787
  0
LINE
  5
121
330
1F
100
AcDbEntity
  8
0
  6
Continuous
 62
   142
420
    32960
370
     0
100
AcDbLine
 10
-91.0986449322
 20
-189.8420457885
 30
0.0
 11
-91.0986449322
 21
-189.3420457885
 31
0.0
  0
LINE
  5
122
330
1F
100
AcDbEntity
  8
0
  6
Continuous
 62
     7
370
    15
100
AcDbLine
 10
-92.7486449322
 20
459.9579542115
 30
0.0
 11
-92.7486449322
 21
457.3773751691
 31
0.0
  0
LINE
  5
123
330
1F
100
AcDbEntity
  8
0
  6
Continuous
 62
     7
370
    15
100
AcDbLine
 10
505.6513550678
 20
459.9579542115
 30
0.0
 11
505.6513550678
 21
457.3773751691
 31
0.0
  0
LINE
  5
124
330
1F
100
AcDbEntity
  8
0
  6
Continuous
 62
     7
370
    15
100
AcDbLine
 10
505.6513550678
 20
459.9579542115
 30
0.0
 11
-92.7486449322
 21
459.9579542115
 31
0.0
  0
LINE
  5
125
330
1F
100
AcDbEntity
  8
0
  6
Continuous
 62
     7
370
    15
100
AcDbLine
 10
505.6513550678
 20
457.3773751691
 30
0.0
 11
-92.7486449322
 21
457.3773751691
 31
0.0
  0
ARC
  5
126
330
1F
100
AcDbEntity
  8
0
  6
Continuous
 62
     7
370
    15
100
AcDbCircle
 10
-9.0650772977
 20
429.0577832718
 30
0.0
 40
5.000669288033399
100
AcDbArc
 50
275.5341758572
 51
331.784876003
  0
LINE
  5
127
330
1F
100
AcDbEntity
  8
0
  6
Continuous
 62
     7
370
    15
100
AcDbLine
 10
0.7997344769
 20
452.5477460376
 30
0.0
 11
-68.5486449322
 21
452.5477460376
 31
0.0
  0
LINE
  5
128
330
1F
100
AcDbEntity
  8
0
  6
Continuous
 62
     7
370
    15
100
AcDbLine
 10
-73.5486449322
 20
447.7181169062
 30
0.0
 11
-73.5486449322
 21
428.8825632935
 31
0.0
  0
LINE
  5
129
330
1F
100
AcDbEntity
  8
0
  6
Continuous
 62
     7
370
    15
100
AcDbLine
 10
-69.0813492936
 20
424.0804228479
 30
0.0
 11
-92.7486449322
 21
424.0804228479
 31
0.0
  0
LINE
  5
12A
330
1F
100
AcDbEntity
  8
0
  6
Continuous
 62
     7
370
    15
100
AcDbLine
 10
-92.7486449322
 20
457.3773751691
 30
0.0
 11
-92.7486449322
 21
424.0804228479
 31
0.0
  0
LINE
  5
12B
330
1F
100
AcDbEntity
  8
0
  6
Continuous
 62
     7
370
    15
100
AcDbLine
 10
505.6513550678
 20
457.3773751691
 30
0.0
 11
505.6513550678
 21
424.0804228479
 31
0.0
  0
LINE
  5
12C
330
1F
100
AcDbEntity
  8
0
  6
Continuous
 62
     7
370
    15
100
AcDbLine
 10
505.6513550678
 20
424.0804228479
 30
0.0
 11
481.9840594293
 21
424.0804228479
 31
0.0
  0
LINE
  5
12D
330
1F
100
AcDbEntity
  8
0
  6
Continuous
 62
     7
370
    15
100
AcDbLine
 10
486.4513550678
 20
428.8825632935
 30
0.0
 11
486.4513550678
 21
447.7181169062
 31
0.0
  0
LINE
  5
12E
330
1F
100
AcDbEntity
  8
0
  6
Continuous
 62
     7
370
    15
100
AcDbLine
 10
481.4513550678
 20
452.5477460376
 30
0.0
 11
422.0182298961
 21
452.5477460376
 31
0.0
  0
LINE
  5
12F
330
1F
100
AcDbEntity
  8
0
  6
Continuous
 62
     7
370
    15
100
AcDbLine
 10
417.5613042451
 20
449.9071302581
 30
0.0
 11
407.6460500078
 21
431.0715766455
 31
0.0
  0
LINE
  5
130
330
1F
100
AcDbEntity
  8
0
  6
Continuous
 62
     7
370
    15
100
AcDbLine
 10
411.5702712974
 20
424.0804228479
 30
0.0
 11
391.417184601
 21
424.0804228479
 31
0.0
  0
ARC
  5
131
330
1F
100
AcDbEntity
  8
0
  6
Continuous
 62
     7
370
    15
100
AcDbCircle
 10
400.9335809375
 20
447.7083172391
 30
0.0
 40
4.84127937338306
100
AcDbArc
 50
333.2478610927
 51
91.5842536627
  0
LINE
  5
132
330
1F
100
AcDbEntity
  8
0
  6
Continuous
 62
     7
370
    15
100
AcDbLine
 10
400.7997344769
 20
452.5477460376
 30
0.0
 11
322.0182298961
 21
452.5477460376
 31
0.0
  0
LINE
  5
133
330
1F
100
AcDbEntity
  8
0
  6
Continuous
 62
     7
370
    15
100
AcDbLine
 10
317.5613042451
 20
449.9071302581
 30
0.0
 11
307.6460500078
 21
431.0715766455
 31
0.0
  0
ARC
  5
134
330
1F
100
AcDbEntity
  8
0
  6
Continuous
 62
     7
370
    15
100
AcDbCircle
 10
311.9452273332
 20
428.887824245
 30
0.0
 40
4.822001682069637
100
AcDbArc
 50
153.0718636158
 51
265.5402115376
  0
LINE
  5
135
330
1F
100
AcDbEntity
  8
0
  6
Continuous
 62
     7
370
    15
100
AcDbLine
 10
311.5702712974
 20
424.0804228479
 30
0.0
 11
291.417184601
 21
424.0804228479
 31
0.0
  0
LINE
  5
136
330
1F
100
AcDbEntity
  8
0
  6
Continuous
 62
     7
370
    15
100
AcDbLine
 10
295.3414058906
 20
426.6935499416
 30
0.0
 11
305.2566601279
 21
445.5291035542
 31
0.0
  0
ARC
  5
137
330
1F
100
AcDbEntity
  8
0
  6
Continuous
 62
     7
370
    15
100
AcDbCircle
 10
300.9335809375
 20
447.7083172391
 30
0.0
 40
4.841279373383035
100
AcDbArc
 50
333.2478610927
 51
91.5842536627
  0
LINE
  5
138
330
1F
100
AcDbEntity
  8
0
  6
Continuous
 62
     7
370
    15
100
AcDbLine
 10
300.7997344769
 20
452.5477460376
 30
0.0
 11
222.0182298961
 21
452.5477460376
 31
0.0
  0
LINE
  5
139
330
1F
100
AcDbEntity
  8
0
  6
Continuous
 62
     7
370
    15
100
AcDbLine
 10
217.5613042451
 20
449.9071302581
 30
0.0
 11
207.6460500078
 21
431.0715766455
 31
0.0
  0
LINE
  5
13A
330
1F
100
AcDbEntity
  8
0
  6
Continuous
 62
     7
370
    15
100
AcDbLine
 10
211.5702712974
 20
424.0804228479
 30
0.0
 11
191.417184601
 21
424.0804228479
 31
0.0
  0
LINE
  5
13B
330
1F
100
AcDbEntity
  8
0
  6
Continuous
 62
     7
370
    15
100
AcDbLine
 10
200.7997344769
 20
452.5477460376
 30
0.0
 11
122.0182298961
 21
452.5477460376
 31
0.0
  0
LINE
  5
13C
330
1F
100
AcDbEntity
  8
0
  6
Continuous
 62
     7
370
    15
100
AcDbLine
 10
117.5613042451
 20
449.9071302581
 30
0.0
 11
107.6460500078
 21
431.0715766455
 31
0.0
  0
LINE
  5
13D
330
1F
100
AcDbEntity
  8
0
  6
Continuous
 62
     7
370
    15
100
AcDbLine
 10
111.5702712974
 20
424.0804228479
 30
0.0
 11
91.417184601
 21
424.0804228479
 31
0.0
  0
ARC
  5
13E
330
1F
100
AcDbEntity
  8
0
  6
Continuous
 62
     7
370
    15
100
AcDbCircle
 10
90.9349227023
 20
429.0577832718
 30
0.0
 40
5.000669288033372
100
AcDbArc
 50
275.5341758572
 51
331.784876003
  0
LINE
  5
13F
330
1F
100
AcDbEntity
  8
0
  6
Continuous
 62
     7
370
    15
100
AcDbLine
 10
95.3414058906
 20
426.6935499416
 30
0.0
 11
105.2566601279
 21
445.5291035542
 31
0.0
  0
ARC
  5
140
330
1F
100
AcDbEntity
  8
0
  6
Continuous
 62
     7
370
    15
100
AcDbCircle
 10
100.9335809375
 20
447.7083172391
 30
0.0
 40
4.841279373383111
100
AcDbArc
 50
333.2478610927
 51
91.5842536627
  0
LINE
  5
141
330
1F
100
AcDbEntity
  8
0
  6
Continuous
 62
     7
370
    15
100
AcDbLine
 10
100.7997344769
 20
452.5477460376
 30
0.0
 11
22.0182298961
 21
452.5477460376
 31
0.0
  0
ARC
  5
142
330
1F
100
AcDbEntity
  8
0
  6
Continuous
 62
     7
370
    15
100
AcDbCircle
 10
21.9822826453
 20
447.5268320313
 30
0.0
 40
5.021042686941771
100
AcDbArc
 50
89.5897976815
 51
151.7015410578
  0
LINE
  5
143
330
1F
100
AcDbEntity
  8
0
  6
Continuous
 62
     7
370
    15
100
AcDbLine
 10
17.5613042451
 20
449.9071302581
 30
0.0
 11
7.6460500078
 21
431.0715766455
 31
0.0
  0
LINE
  5
144
330
1F
100
AcDbEntity
  8
0
  6
Continuous
 62
     7
370
    15
100
AcDbLine
 10
11.5702712974
 20
424.0804228479
 30
0.0
 11
-8.582815399
 21
424.0804228479
 31
0.0
  0
ARC
  5
145
330
1F
100
AcDbEntity
  8
0
  6
Continuous
 62
   142
420
    32960
370
     0
100
AcDbCircle
 10
11.9452273332
 20
428.887824245
 30
0.0
 40
4.822001682069642
100
AcDbArc
 50
153.0718636158
 51
265.5402115376
  0
ARC
  5
146
330
1F
100
AcDbEntity
  8
0
  6
Continuous
 62
   142
420
    32960
370
     0
100
AcDbCircle
 10
111.9452273332
 20
428.887824245
 30
0.0
 40
4.822001682069606
100
AcDbArc
 50
153.0718636158
 51
265.5402115376
  0
ARC
  5
147
330
1F
100
AcDbEntity
  8
0
  6
Continuous
 62
   142
420
    32960
370
     0
100
AcDbCircle
 10
121.9822826453
 20
447.5268320313
 30
0.0
 40
5.021042686941609
100
AcDbArc
 50
89.5897976815
 51
151.7015410578
  0
ARC
  5
148
330
1F
100
AcDbEntity
  8
0
  6
Continuous
 62
   142
420
    32960
370
     0
100
AcDbCircle
 10
200.9335809375
 20
447.7083172391
 30
0.0
 40
4.841279373383136
100
AcDbArc
 50
333.2478610927
 51
91.5842536627
  0
LINE
  5
149
330
1F
100
AcDbEntity
  8
0
  6
Continuous
 62
   142
420
    32960
370
     0
100
AcDbLine
 10
195.3414058906
 20
426.6935499416
 30
0.0
 11
205.2566601279
 21
445.5291035542
 31
0.0
  0
ARC
  5
14A
330
1F
100
AcDbEntity
  8
0
  6
Continuous
 62
   142
420
    32960
370
     0
100
AcDbCircle
 10
190.9349227023
 20
429.0577832718
 30
0.0
 40
5.000669288033395
100
AcDbArc
 50
275.5341758572
 51
331.784876003
  0
ARC
  5
14B
330
1F
100
AcDbEntity
  8
0
  6
Continuous
 62
   142
420
    32960
370
     0
100
AcDbCircle
 10
211.9452273332
 20
428.887824245
 30
0.0
 40
4.822001682069637
100
AcDbArc
 50
153.0718636158
 51
265.5402115376
  0
ARC
  5
14C
330
1F
100
AcDbEntity
  8
0
  6
Continuous
 62
   142
420
    32960
370
     0
100
AcDbCircle
 10
221.9822826453
 20
447.5268320313
 30
0.0
 40
5.021042686941582
100
AcDbArc
 50
89.5897976815
 51
151.7015410578
  0
ARC
  5
14D
330
1F
100
AcDbEntity
  8
0
  6
Continuous
 62
   142
420
    32960
370
     0
100
AcDbCircle
 10
290.9349227023
 20
429.0577832718
 30
0.0
 40
5.000669288033121
100
AcDbArc
 50
275.5341758572
 51
331.784876003
  0
ARC
  5
14E
330
1F
100
AcDbEntity
  8
0
  6
Continuous
 62
   142
420
    32960
370
     0
100
AcDbCircle
 10
321.9822826453
 20
447.5268320313
 30
0.0
 40
5.021042686941532
100
AcDbArc
 50
89.5897976815
 51
151.7015410578
  0
LINE
  5
14F
330
1F
100
AcDbEntity
  8
0
  6
Continuous
 62
   142
420
    32960
370
     0
100
AcDbLine
 10
395.3414058906
 20
426.6935499416
 30
0.0
 11
405.2566601279
 21
445.5291035542
 31
0.0
  0
ARC
  5
150
330
1F
100
AcDbEntity
  8
0
  6
Continuous
 62
   142
420
    32960
370
     0
100
AcDbCircle
 10
390.9349227023
 20
429.0577832718
 30
0.0
 40
5.000669288033627
100
AcDbArc
 50
275.5341758572
 51
331.784876003
  0
ARC
  5
151
330
1F
100
AcDbEntity
  8
0
  6
Continuous
 62
   142
420
    32960
370
     0
100
AcDbCircle
 10
411.9452273332
 20
428.887824245
 30
0.0
 40
4.822001682069687
100
AcDbArc
 50
153.0718636158
 51
265.5402115376
  0
ARC
  5
152
330
1F
100
AcDbEntity
  8
0
  6
Continuous
 62
   142
420
    32960
370
     0
100
AcDbCircle
 10
421.9822826453
 20
447.5268320313
 30
0.0
 40
5.021042686941842
100
AcDbArc
 50
89.5897976815
 51
151.7015410578
  0
ARC
  5
153
330
1F
100
AcDbEntity
  8
0
  6
Continuous
 62
   142
420
    32960
370
     0
100
AcDbCircle
 10
481.5350891905
 20
447.6314289635
 30
0.0
 40
4.917030097157032
100
AcDbArc
 50
1.0101851092
 51
90.9757604995
  0
ARC
  5
154
330
1F
100
AcDbEntity
  8
0
  6
Continuous
 62
   142
420
    32960
370
     0
100
AcDbCircle
 10
481.556695667
 20
428.956956995
 30
0.0
 40
4.895224721422123
100
AcDbArc
 50
275.0084220175
 51
359.1292311494
  0
ARC
  5
155
330
1F
100
AcDbEntity
  8
0
  6
Continuous
 62
   142
420
    32960
370
     0
100
AcDbCircle
 10
-68.6539855313
 20
428.956956995
 30
0.0
 40
4.895224721422053
100
AcDbArc
 50
180.8707688506
 51
264.9915779825
  0
ARC
  5
156
330
1F
100
AcDbEntity
  8
0
  6
Continuous
 62
   142
420
    32960
370
     0
100
AcDbCircle
 10
-68.6323790548
 20
447.6314289635
 30
0.0
 40
4.917030097156862
100
AcDbArc
 50
89.0242395005
 51
178.9898148908
  0
ARC
  5
157
330
1F
100
AcDbEntity
  8
0
  6
Continuous
 62
   142
420
    32960
370
     0
100
AcDbCircle
 10
0.9335809375
 20
447.7083172391
 30
0.0
 40
4.841279373383079
100
AcDbArc
 50
333.2478610927
 51
91.5842536627
  0
LINE
  5
158
330
1F
100
AcDbEntity
  8
0
  6
Continuous
 62
   142
420
    32960
370
     0
100
AcDbLine
 10
-4.6585941094
 20
426.6935499416
 30
0.0
 11
5.2566601279
 21
445.5291035542
 31
0.0
  0
LWPOLYLINE
  5
159
330
1F
100
AcDbEntity
  8
0
  6
Continuous
 62
     7
370
    15
100
AcDbPolyline
 90
        3
 70
   128
 43
0.0
 10
105.2566601279
 20
445.7361587903
 10
105.684345137
 20
446.8935838457
 10
105.7985855966
 20
447.8216445247
  0
LINE
  5
15A
330
1F
100
AcDbEntity
  8
0
  6
Continuous
 62
     7
370
    15
100
AcDbLine
 10
95.3414058906
 20
426.9006051777
 30
0.0
 11
105.2566601279
 21
445.7361587903
 31
0.0
  0
ARC
  5
15B
330
1F
100
AcDbEntity
  8
0
  6
Continuous
 62
     7
370
    15
100
AcDbCircle
 10
90.9349227023
 20
429.2648385079
 30
0.0
 40
5.000669288033064
100
AcDbArc
 50
275.5341758572
 51
331.784876003
  0
LWPOLYLINE
  5
15C
330
1F
100
AcDbEntity
  8
0
  6
Continuous
 62
     7
370
    15
100
AcDbPolyline
 90
        3
 70
   128
 43
0.0
 10
305.2566601279
 20
445.7361587903
 10
305.684345137
 20
446.8935838457
 10
305.7985855966
 20
447.8216445242
  0
LINE
  5
15D
330
1F
100
AcDbEntity
  8
0
  6
Continuous
 62
     7
370
    15
100
AcDbLine
 10
295.3414058906
 20
426.9006051777
 30
0.0
 11
305.2566601279
 21
445.7361587903
 31
0.0
  0
ARC
  5
15E
330
1F
100
AcDbEntity
  8
0
  6
Continuous
 62
     7
370
    15
100
AcDbCircle
 10
312.0001658069
 20
429.1680008034
 30
0.0
 40
4.899419486470888
100
AcDbArc
 50
182.1278164212
 51
264.9661675265
  0
LWPOLYLINE
  5
15F
330
1F
100
AcDbEntity
  8
0
  6
Continuous
 62
     7
370
    15
100
AcDbPolyline
 90
        3
 70
   128
 43
0.0
 10
405.2566601279
 20
445.7361587903
 10
405.684345137
 20
446.8935838457
 10
405.7985855965
 20
447.8216445236
  0
ARC
  5
160
330
1F
100
AcDbEntity
  8
0
  6
Continuous
 62
     7
370
    15
100
AcDbCircle
 10
-9.0650772977
 20
429.2648385079
 30
0.0
 40
5.000669288033188
100
AcDbArc
 50
275.5341758572
 51
331.784876003
  0
ARC
  5
161
330
1F
100
AcDbEntity
  8
0
  6
Continuous
 62
   142
420
    32960
370
     0
100
AcDbCircle
 10
12.0001658068
 20
429.1680008033
 30
0.0
 40
4.899419486347601
100
AcDbArc
 50
182.1278163703
 51
264.966167527
  0
LINE
  5
162
330
1F
100
AcDbEntity
  8
0
  6
Continuous
 62
   142
420
    32960
370
     0
100
AcDbLine
 10
-4.6585941094
 20
426.9006051777
 30
0.0
 11
5.2566601279
 21
445.7361587903
 31
0.0
  0
LWPOLYLINE
  5
163
330
1F
100
AcDbEntity
  8
0
  6
Continuous
 62
   142
420
    32960
370
     0
100
AcDbPolyline
 90
        3
 70
   128
 43
0.0
 10
5.2566601279
 20
445.7361587903
 10
5.684345137
 20
446.8935838458
 10
5.7985855968
 20
447.8216445358
  0
ARC
  5
164
330
1F
100
AcDbEntity
  8
0
  6
Continuous
 62
   142
420
    32960
370
     0
100
AcDbCircle
 10
-68.6539855313
 20
429.1640122311
 30
0.0
 40
4.895224721422053
100
AcDbArc
 50
180.8707688506
 51
264.9915779825
  0
ARC
  5
165
330
1F
100
AcDbEntity
  8
0
  6
Continuous
 62
   142
420
    32960
370
     0
100
AcDbCircle
 10
481.556695667
 20
429.1640122311
 30
0.0
 40
4.895224721422066
100
AcDbArc
 50
275.0084220175
 51
359.1292311494
  0
ARC
  5
166
330
1F
100
AcDbEntity
  8
0
  6
Continuous
 62
   142
420
    32960
370
     0
100
AcDbCircle
 10
412.0001658069
 20
429.1680008034
 30
0.0
 40
4.89941948645911
100
AcDbArc
 50
182.1278164163
 51
264.9661675265
  0
ARC
  5
167
330
1F
100
AcDbEntity
  8
0
  6
Continuous
 62
   142
420
    32960
370
     0
100
AcDbCircle
 10
390.9349227023
 20
429.2648385079
 30
0.0
 40
5.000669288033316
100
AcDbArc
 50
275.5341758572
 51
331.784876003
  0
LINE
  5
168
330
1F
100
AcDbEntity
  8
0
  6
Continuous
 62
   142
420
    32960
370
     0
100
AcDbLine
 10
395.3414058906
 20
426.9006051777
 30
0.0
 11
405.2566601279
 21
445.7361587903
 31
0.0
  0
ARC
  5
169
330
1F
100
AcDbEntity
  8
0
  6
Continuous
 62
   142
420
    32960
370
     0
100
AcDbCircle
 10
290.9349227023
 20
429.2648385079
 30
0.0
 40
5.000669288033178
100
AcDbArc
 50
275.5341758572
 51
331.784876003
  0
ARC
  5
16A
330
1F
100
AcDbEntity
  8
0
  6
Continuous
 62
   142
420
    32960
370
     0
100
AcDbCircle
 10
212.0001658069
 20
429.1680008034
 30
0.0
 40
4.899419486468181
100
AcDbArc
 50
182.1278164201
 51
264.9661675265
  0
ARC
  5
16B
330
1F
100
AcDbEntity
  8
0
  6
Continuous
 62
   142
420
    32960
370
     0
100
AcDbCircle
 10
190.9349227023
 20
429.2648385079
 30
0.0
 40
5.000669288033072
100
AcDbArc
 50
275.5341758572
 51
331.784876003
  0
LINE
  5
16C
330
1F
100
AcDbEntity
  8
0
  6
Continuous
 62
   142
420
    32960
370
     0
100
AcDbLine
 10
195.3414058906
 20
426.9006051777
 30
0.0
 11
205.2566601279
 21
445.7361587903
 31
0.0
  0
LWPOLYLINE
  5
16D
330
1F
100
AcDbEntity
  8
0
  6
Continuous
 62
   142
420
    32960
370
     0
100
AcDbPolyline
 90
        3
 70
   128
 43
0.0
 10
205.2566601279
 20
445.7361587903
 10
205.684345137
 20
446.8935838457
 10
205.7985855966
 20
447.8216445241
  0
ARC
  5
16E
330
1F
100
AcDbEntity
  8
0
  6
Continuous
 62
   142
420
    32960
370
     0
100
AcDbCircle
 10
112.0001658069
 20
429.1680008034
 30
0.0
 40
4.899419486480248
100
AcDbArc
 50
182.1278164252
 51
264.9661675265
  0
LINE
  5
16F
330
1F
100
AcDbEntity
  8
0
  6
Continuous
 62
     7
370
    15
100
AcDbLine
 10
506.4513550678
 20
424.3133599885
 30
0.0
 11
506.4513550678
 21
405.8579542115
 31
0.0
  0
LINE
  5
170
330
1F
100
AcDbEntity
  8
0
  6
Continuous
 62
     7
370
    15
100
AcDbLine
 10
506.4513550678
 20
457.6103123097
 30
0.0
 11
506.4513550678
 21
424.3133599885
 31
0.0
  0
LINE
  5
171
330
1F
100
AcDbEntity
  8
0
  6
Continuous
 62
   142
420
    32960
370
     0
100
AcDbLine
 10
506.4513550678
 20
459.0579542115
 30
0.0
 11
506.4513550678
 21
457.6103123097
 31
0.0
  0
LINE
  5
172
330
1F
100
AcDbEntity
  8
0
  6
Continuous
 62
     7
370
    15
100
AcDbLine
 10
-93.5486449322
 20
457.6103123097
 30
0.0
 11
-93.5486449322
 21
424.3133599885
 31
0.0
  0
LINE
  5
173
330
1F
100
AcDbEntity
  8
0
  6
Continuous
 62
     7
370
    15
100
AcDbLine
 10
-93.5486449322
 20
424.3133599885
 30
0.0
 11
-93.5486449322
 21
405.8579542115
 31
0.0
  0
LINE
  5
174
330
1F
100
AcDbEntity
  8
0
  6
Continuous
 62
   142
420
    32960
370
     0
100
AcDbLine
 10
-93.5486449322
 20
459.0579542115
 30
0.0
 11
-93.5486449322
 21
457.6103123097
 31
0.0
  0
LINE
  5
175
330
1F
100
AcDbEntity
  8
0
  6
Continuous
 62
     7
370
    15
100
AcDbLine
 10
-93.5486449322
 20
424.3133599885
 30
0.0
 11
-92.7486449322
 21
424.3133599885
 31
0.0
  0
LINE
  5
176
330
1F
100
AcDbEntity
  8
0
  6
Continuous
 62
   142
420
    32960
370
     0
100
AcDbLine
 10
-93.5486449322
 20
457.6103123097
 30
0.0
 11
-92.7486449322
 21
457.6103123097
 31
0.0
  0
LINE
  5
177
330
1F
100
AcDbEntity
  8
0
  6
Continuous
 62
     7
370
    15
100
AcDbLine
 10
506.4513550678
 20
424.3133599885
 30
0.0
 11
505.6513550678
 21
424.3133599885
 31
0.0
  0
LINE
  5
178
330
1F
100
AcDbEntity
  8
0
  6
Continuous
 62
   142
420
    32960
370
     0
100
AcDbLine
 10
506.4513550678
 20
457.6103123097
 30
0.0
 11
505.6513550678
 21
457.6103123097
 31
0.0
  0
LINE
  5
179
330
1F
100
AcDbEntity
  8
0
  6
Continuous
 62
     7
370
    15
100
AcDbLine
 10
105.2566601279
 20
445.7361587903
 30
0.0
 11
105.2566601279
 21
445.5291035542
 31
0.0
  0
LINE
  5
17A
330
1F
100
AcDbEntity
  8
0
  6
Continuous
 62
   142
420
    32960
370
     0
100
AcDbLine
 10
405.2566601279
 20
445.7361587903
 30
0.0
 11
405.2566601279
 21
445.5291035542
 31
0.0
  0
LINE
  5
17B
330
1F
100
AcDbEntity
  8
0
  6
Continuous
 62
     7
370
    15
100
AcDbLine
 10
305.2566601279
 20
445.7361587903
 30
0.0
 11
305.2566601279
 21
445.5291035542
 31
0.0
  0
LINE
  5
17C
330
1F
100
AcDbEntity
  8
0
  6
Continuous
 62
     7
370
    15
100
AcDbLine
 10
95.3414058906
 20
426.9006051777
 30
0.0
 11
95.3414058906
 21
426.6935499416
 31
0.0
  0
LINE
  5
17D
330
1F
100
AcDbEntity
  8
0
  6
Continuous
 62
   142
420
    32960
370
     0
100
AcDbLine
 10
295.3414058906
 20
426.9006051777
 30
0.0
 11
295.3414058906
 21
426.6935499416
 31
0.0
  0
SPLINE
  5
17E
330
1F
100
AcDbEntity
  8
0
  6
Continuous
 62
     7
370
    15
100
AcDbSpline
210
0.0
220
0.0
230
1.0
 70
     8
 71
     3
 72
     8
 73
     4
 74
     0
 42
0.00000001
 43
0.00000001
 40
0.0
 40
0.0
 40
0.0
 40
0.0
 40
1.0
 40
1.0
 40
1.0
 40
1.0
 10
312.1029756588118
 20
424.0529382243503
 30
0.0
 10
311.9249007658463
 20
424.0529382243503
 30
0.0
 10
311.7473326456679
 20
424.062097057341
 30
0.0
 10
311.5702712973545
 20
424.0804228478776
 30
0.0
  0
LINE
  5
17F
330
1F
100
AcDbEntity
  8
0
  6
Continuous
 62
     7
370
    15
100
AcDbLine
 10
312.1029756588
 20
424.2599893982
 30
0.0
 11
312.1029756588
 21
424.0529382244
 31
0.0
  0
ARC
  5
180
330
1F
100
AcDbEntity
  8
0
  6
Continuous
 62
   142
420
    32960
370
     0
100
AcDbCircle
 10
312.102935423
 20
429.4346037698
 30
0.0
 40
5.174614371776268
100
AcDbArc
 50
264.0916247815
 51
270.0004455097
  0
SPLINE
  5
181
330
1F
100
AcDbEntity
  8
0
  6
Continuous
 62
     7
370
    15
100
AcDbSpline
210
0.0
220
0.0
230
1.0
 70
     8
 71
     3
 72
     8
 73
     4
 74
     0
 42
0.00000001
 43
0.00000001
 40
0.0
 40
0.0
 40
0.0
 40
0.0
 40
1.0
 40
1.0
 40
1.0
 40
1.0
 10
91.41718460103334
 20
424.0804228478776
 30
0.0
 10
91.24012325271997
 20
424.062097057341
 30
0.0
 10
91.06255513254152
 20
424.0529382243503
 30
0.0
 10
90.88448023957594
 20
424.0529382243503
 30
0.0
  0
LINE
  5
182
330
1F
100
AcDbEntity
  8
0
  6
Continuous
 62
     7
370
    15
100
AcDbLine
 10
90.8844802396
 20
424.2599893982
 30
0.0
 11
90.8844802396
 21
424.0529382244
 31
0.0
  0
ARC
  5
183
330
1F
100
AcDbEntity
  8
0
  6
Continuous
 62
   142
420
    32960
370
     0
100
AcDbCircle
 10
90.8845204754
 20
429.4346037698
 30
0.0
 40
5.174614371785307
100
AcDbArc
 50
269.9995544903
 51
275.9083752185
  0
SPLINE
  5
184
330
1F
100
AcDbEntity
  8
0
  6
Continuous
 62
     7
370
    15
100
AcDbSpline
210
0.0
220
0.0
230
1.0
 70
     8
 71
     3
 72
     8
 73
     4
 74
     0
 42
0.00000001
 43
0.00000001
 40
0.0
 40
0.0
 40
0.0
 40
0.0
 40
1.0
 40
1.0
 40
1.0
 40
1.0
 10
-8.582815398966604
 20
424.0804228478776
 30
0.0
 10
-8.759876747280016
 20
424.062097057341
 30
0.0
 10
-8.93744486745851
 20
424.0529382243503
 30
0.0
 10
-9.115519760424073
 20
424.0529382243503
 30
0.0
  0
LINE
  5
185
330
1F
100
AcDbEntity
  8
0
  6
Continuous
 62
     7
370
    15
100
AcDbLine
 10
-9.1155197604
 20
424.2599893982
 30
0.0
 11
-9.1155197604
 21
424.0529382244
 31
0.0
  0
LINE
  5
186
330
1F
100
AcDbEntity
  8
0
  6
Continuous
 62
   142
420
    32960
370
     0
100
AcDbLine
 10
-4.6585941094
 20
426.9006051777
 30
0.0
 11
-4.6585941094
 21
426.6935499416
 31
0.0
  0
ARC
  5
187
330
1F
100
AcDbEntity
  8
0
  6
Continuous
 62
   142
420
    32960
370
     0
100
AcDbCircle
 10
-9.1154795246
 20
429.4346037698
 30
0.0
 40
5.174614371811
100
AcDbArc
 50
269.9995544903
 51
275.9083752185
  0
LINE
  5
188
330
1F
100
AcDbEntity
  8
0
  6
Continuous
 62
     7
370
    15
100
AcDbLine
 10
190.8844802396
 20
424.0529382244
 30
0.0
 11
112.1029756588
 21
424.0529382244
 31
0.0
  0
LINE
  5
189
330
1F
100
AcDbEntity
  8
0
  6
Continuous
 62
     7
370
    15
100
AcDbLine
 10
290.8844802396
 20
424.0529382244
 30
0.0
 11
212.1029756588
 21
424.0529382244
 31
0.0
  0
LINE
  5
18A
330
1F
100
AcDbEntity
  8
0
  6
Continuous
 62
     7
370
    15
100
AcDbLine
 10
390.8844802396
 20
424.0529382244
 30
0.0
 11
312.1029756588
 21
424.0529382244
 31
0.0
  0
LINE
  5
18B
330
1F
100
AcDbEntity
  8
0
  6
Continuous
 62
     7
370
    15
100
AcDbLine
 10
481.4513550678
 20
424.0529382244
 30
0.0
 11
412.1029756588
 21
424.0529382244
 31
0.0
  0
LINE
  5
18C
330
1F
100
AcDbEntity
  8
0
  6
Continuous
 62
     7
370
    15
100
AcDbLine
 10
505.6513550678
 20
424.0804228479
 30
0.0
 11
505.6513550678
 21
404.9579542115
 31
0.0
  0
LINE
  5
18D
330
1F
100
AcDbEntity
  8
0
  6
Continuous
 62
     7
370
    15
100
AcDbLine
 10
505.6513550678
 20
404.9579542115
 30
0.0
 11
497.9108675855
 21
404.9579542115
 31
0.0
  0
LINE
  5
18E
330
1F
100
AcDbEntity
  8
0
  6
Continuous
 62
     7
370
    15
100
AcDbLine
 10
-85.0081574498
 20
404.9579542115
 30
0.0
 11
-92.7486449322
 21
404.9579542115
 31
0.0
  0
LINE
  5
18F
330
1F
100
AcDbEntity
  8
0
  6
Continuous
 62
     7
370
    15
100
AcDbLine
 10
-92.7486449322
 20
424.0804228479
 30
0.0
 11
-92.7486449322
 21
404.9579542115
 31
0.0
  0
LINE
  5
190
330
1F
100
AcDbEntity
  8
0
  6
Continuous
 62
     7
370
    15
100
AcDbLine
 10
-9.1155197604
 20
424.0529382244
 30
0.0
 11
-68.5486449322
 21
424.0529382244
 31
0.0
  0
LINE
  5
191
330
1F
100
AcDbEntity
  8
0
  6
Continuous
 62
     7
370
    15
100
AcDbLine
 10
90.8844802396
 20
424.0529382244
 30
0.0
 11
12.1029756588
 21
424.0529382244
 31
0.0
  0
SPLINE
  5
192
330
1F
100
AcDbEntity
  8
0
  6
Continuous
 62
   142
420
    32960
370
     0
100
AcDbSpline
210
0.0
220
0.0
230
1.0
 70
     8
 71
     3
 72
     8
 73
     4
 74
     0
 42
0.00000001
 43
0.00000001
 40
0.0
 40
0.0
 40
0.0
 40
0.0
 40
1.0
 40
1.0
 40
1.0
 40
1.0
 10
12.10297565881174
 20
424.0529382243503
 30
0.0
 10
11.92490076584618
 20
424.0529382243503
 30
0.0
 10
11.74733264566774
 20
424.062097057341
 30
0.0
 10
11.57027129735438
 20
424.0804228478776
 30
0.0
  0
SPLINE
  5
193
330
1F
100
AcDbEntity
  8
0
  6
Continuous
 62
   142
420
    32960
370
     0
100
AcDbSpline
210
0.0
220
0.0
230
1.0
 70
     8
 71
     3
 72
     8
 73
     4
 74
     0
 42
0.00000001
 43
0.00000001
 40
0.0
 40
0.0
 40
0.0
 40
0.0
 40
1.0
 40
1.0
 40
1.0
 40
1.0
 10
-68.54864493216212
 20
424.0529382243503
 30
0.0
 10
-68.72671982512767
 20
424.0529382243503
 30
0.0
 10
-68.90428794530607
 20
424.062097057341
 30
0.0
 10
-69.08134929361948
 20
424.0804228478776
 30
0.0
  0
SPLINE
  5
194
330
1F
100
AcDbEntity
  8
0
  6
Continuous
 62
   142
420
    32960
370
     0
100
AcDbSpline
210
0.0
220
0.0
230
1.0
 70
     8
 71
     3
 72
     8
 73
     4
 74
     0
 42
0.00000001
 43
0.00000001
 40
0.0
 40
0.0
 40
0.0
 40
0.0
 40
1.0
 40
1.0
 40
1.0
 40
1.0
 10
481.9840594292954
 20
424.0804228478776
 30
0.0
 10
481.806998080982
 20
424.0620970573409
 30
0.0
 10
481.6294299608034
 20
424.0529382243503
 30
0.0
 10
481.4513550678378
 20
424.0529382243503
 30
0.0
  0
SPLINE
  5
195
330
1F
100
AcDbEntity
  8
0
  6
Continuous
 62
   142
420
    32960
370
     0
100
AcDbSpline
210
0.0
220
0.0
230
1.0
 70
     8
 71
     3
 72
     8
 73
     4
 74
     0
 42
0.00000001
 43
0.00000001
 40
0.0
 40
0.0
 40
0.0
 40
0.0
 40
1.0
 40
1.0
 40
1.0
 40
1.0
 10
412.1029756588118
 20
424.0529382243503
 30
0.0
 10
411.9249007658464
 20
424.0529382243503
 30
0.0
 10
411.7473326456681
 20
424.062097057341
 30
0.0
 10
411.5702712973549
 20
424.0804228478776
 30
0.0
  0
SPLINE
  5
196
330
1F
100
AcDbEntity
  8
0
  6
Continuous
 62
   142
420
    32960
370
     0
100
AcDbSpline
210
0.0
220
0.0
230
1.0
 70
     8
 71
     3
 72
     8
 73
     4
 74
     0
 42
0.00000001
 43
0.00000001
 40
0.0
 40
0.0
 40
0.0
 40
0.0
 40
1.0
 40
1.0
 40
1.0
 40
1.0
 10
391.4171846010332
 20
424.0804228478776
 30
0.0
 10
391.2401232527199
 20
424.062097057341
 30
0.0
 10
391.0625551325414
 20
424.0529382243503
 30
0.0
 10
390.8844802395759
 20
424.0529382243503
 30
0.0
  0
SPLINE
  5
197
330
1F
100
AcDbEntity
  8
0
  6
Continuous
 62
   142
420
    32960
370
     0
100
AcDbSpline
210
0.0
220
0.0
230
1.0
 70
     8
 71
     3
 72
     8
 73
     4
 74
     0
 42
0.00000001
 43
0.00000001
 40
0.0
 40
0.0
 40
0.0
 40
0.0
 40
1.0
 40
1.0
 40
1.0
 40
1.0
 10
291.4171846010333
 20
424.0804228478776
 30
0.0
 10
291.2401232527199
 20
424.062097057341
 30
0.0
 10
291.0625551325415
 20
424.0529382243503
 30
0.0
 10
290.8844802395759
 20
424.0529382243503
 30
0.0
  0
SPLINE
  5
198
330
1F
100
AcDbEntity
  8
0
  6
Continuous
 62
   142
420
    32960
370
     0
100
AcDbSpline
210
0.0
220
0.0
230
1.0
 70
     8
 71
     3
 72
     8
 73
     4
 74
     0
 42
0.00000001
 43
0.00000001
 40
0.0
 40
0.0
 40
0.0
 40
0.0
 40
1.0
 40
1.0
 40
1.0
 40
1.0
 10
212.1029756588118
 20
424.0529382243503
 30
0.0
 10
211.9249007658462
 20
424.0529382243503
 30
0.0
 10
211.7473326456679
 20
424.062097057341
 30
0.0
 10
211.5702712973545
 20
424.0804228478776
 30
0.0
  0
SPLINE
  5
199
330
1F
100
AcDbEntity
  8
0
  6
Continuous
 62
   142
420
    32960
370
     0
100
AcDbSpline
210
0.0
220
0.0
230
1.0
 70
     8
 71
     3
 72
     8
 73
     4
 74
     0
 42
0.00000001
 43
0.00000001
 40
0.0
 40
0.0
 40
0.0
 40
0.0
 40
1.0
 40
1.0
 40
1.0
 40
1.0
 10
191.4171846010334
 20
424.0804228478776
 30
0.0
 10
191.24012325272
 20
424.062097057341
 30
0.0
 10
191.0625551325415
 20
424.0529382243503
 30
0.0
 10
190.8844802395759
 20
424.0529382243503
 30
0.0
  0
SPLINE
  5
19A
330
1F
100
AcDbEntity
  8
0
  6
Continuous
 62
   142
420
    32960
370
     0
100
AcDbSpline
210
0.0
220
0.0
230
1.0
 70
     8
 71
     3
 72
     8
 73
     4
 74
     0
 42
0.00000001
 43
0.00000001
 40
0.0
 40
0.0
 40
0.0
 40
0.0
 40
1.0
 40
1.0
 40
1.0
 40
1.0
 10
112.1029756588118
 20
424.0529382243503
 30
0.0
 10
111.9249007658462
 20
424.0529382243503
 30
0.0
 10
111.7473326456679
 20
424.062097057341
 30
0.0
 10
111.5702712973545
 20
424.0804228478776
 30
0.0
  0
LINE
  5
19B
330
1F
100
AcDbEntity
  8
0
  6
Continuous
 62
   142
420
    32960
370
     0
100
AcDbLine
 10
481.4513550678
 20
424.2599893982
 30
0.0
 11
481.4513550678
 21
424.0529382244
 31
0.0
  0
LINE
  5
19C
330
1F
100
AcDbEntity
  8
0
  6
Continuous
 62
   142
420
    32960
370
     0
100
AcDbLine
 10
412.1029756588
 20
424.2599893982
 30
0.0
 11
481.4513550678
 21
424.2599893982
 31
0.0
  0
LINE
  5
19D
330
1F
100
AcDbEntity
  8
0
  6
Continuous
 62
   142
420
    32960
370
     0
100
AcDbLine
 10
412.1029756588
 20
424.2599893982
 30
0.0
 11
412.1029756588
 21
424.0529382244
 31
0.0
  0
LINE
  5
19E
330
1F
100
AcDbEntity
  8
0
  6
Continuous
 62
   142
420
    32960
370
     0
100
AcDbLine
 10
290.8844802396
 20
424.2599893982
 30
0.0
 11
290.8844802396
 21
424.0529382244
 31
0.0
  0
LINE
  5
19F
330
1F
100
AcDbEntity
  8
0
  6
Continuous
 62
   142
420
    32960
370
     0
100
AcDbLine
 10
212.1029756588
 20
424.2599893982
 30
0.0
 11
290.8844802396
 21
424.2599893982
 31
0.0
  0
LINE
  5
1A0
330
1F
100
AcDbEntity
  8
0
  6
Continuous
 62
   142
420
    32960
370
     0
100
AcDbLine
 10
212.1029756588
 20
424.2599893982
 30
0.0
 11
212.1029756588
 21
424.0529382244
 31
0.0
  0
LINE
  5
1A1
330
1F
100
AcDbEntity
  8
0
  6
Continuous
 62
   142
420
    32960
370
     0
100
AcDbLine
 10
12.1029756588
 20
424.2599893982
 30
0.0
 11
90.8844802396
 21
424.2599893982
 31
0.0
  0
LINE
  5
1A2
330
1F
100
AcDbEntity
  8
0
  6
Continuous
 62
   142
420
    32960
370
     0
100
AcDbLine
 10
12.1029756588
 20
424.2599893982
 30
0.0
 11
12.1029756588
 21
424.0529382244
 31
0.0
  0
LINE
  5
1A3
330
1F
100
AcDbEntity
  8
0
  6
Continuous
 62
   142
420
    32960
370
     0
100
AcDbLine
 10
-68.5486449322
 20
424.2599893982
 30
0.0
 11
-9.1155197604
 21
424.2599893982
 31
0.0
  0
LINE
  5
1A4
330
1F
100
AcDbEntity
  8
0
  6
Continuous
 62
   142
420
    32960
370
     0
100
AcDbLine
 10
-68.5486449322
 20
424.2599893982
 30
0.0
 11
-68.5486449322
 21
424.0529382244
 31
0.0
  0
LINE
  5
1A5
330
1F
100
AcDbEntity
  8
0
  6
Continuous
 62
   142
420
    32960
370
     0
100
AcDbLine
 10
390.8844802396
 20
424.2599893982
 30
0.0
 11
390.8844802396
 21
424.0529382244
 31
0.0
  0
LINE
  5
1A6
330
1F
100
AcDbEntity
  8
0
  6
Continuous
 62
   142
420
    32960
370
     0
100
AcDbLine
 10
312.1029756588
 20
424.2599893982
 30
0.0
 11
390.8844802396
 21
424.2599893982
 31
0.0
  0
LINE
  5
1A7
330
1F
100
AcDbEntity
  8
0
  6
Continuous
 62
   142
420
    32960
370
     0
100
AcDbLine
 10
190.8844802396
 20
424.2599893982
 30
0.0
 11
190.8844802396
 21
424.0529382244
 31
0.0
  0
LINE
  5
1A8
330
1F
100
AcDbEntity
  8
0
  6
Continuous
 62
   142
420
    32960
370
     0
100
AcDbLine
 10
112.1029756588
 20
424.2599893982
 30
0.0
 11
190.8844802396
 21
424.2599893982
 31
0.0
  0
LINE
  5
1A9
330
1F
100
AcDbEntity
  8
0
  6
Continuous
 62
   142
420
    32960
370
     0
100
AcDbLine
 10
112.1029756588
 20
424.2599893982
 30
0.0
 11
112.1029756588
 21
424.0529382244
 31
0.0
  0
LINE
  5
1AA
330
1F
100
AcDbEntity
  8
0
  6
Continuous
 62
   142
420
    32960
370
     0
100
AcDbLine
 10
-8.582815399
 20
424.287478084
 30
0.0
 11
-69.0813492936
 21
424.287478084
 31
0.0
  0
LINE
  5
1AB
330
1F
100
AcDbEntity
  8
0
  6
Continuous
 62
   142
420
    32960
370
     0
100
AcDbLine
 10
91.417184601
 20
424.287478084
 30
0.0
 11
11.5702712974
 21
424.287478084
 31
0.0
  0
LINE
  5
1AC
330
1F
100
AcDbEntity
  8
0
  6
Continuous
 62
   142
420
    32960
370
     0
100
AcDbLine
 10
191.417184601
 20
424.287478084
 30
0.0
 11
111.5702712974
 21
424.287478084
 31
0.0
  0
LINE
  5
1AD
330
1F
100
AcDbEntity
  8
0
  6
Continuous
 62
   142
420
    32960
370
     0
100
AcDbLine
 10
291.417184601
 20
424.287478084
 30
0.0
 11
211.5702712974
 21
424.287478084
 31
0.0
  0
LINE
  5
1AE
330
1F
100
AcDbEntity
  8
0
  6
Continuous
 62
   142
420
    32960
370
     0
100
AcDbLine
 10
391.417184601
 20
424.287478084
 30
0.0
 11
311.5702712974
 21
424.287478084
 31
0.0
  0
LINE
  5
1AF
330
1F
100
AcDbEntity
  8
0
  6
Continuous
 62
   142
420
    32960
370
     0
100
AcDbLine
 10
481.9840594293
 20
424.287478084
 30
0.0
 11
411.5702712974
 21
424.287478084
 31
0.0
  0
LINE
  5
1B0
330
1F
100
AcDbEntity
  8
0
  6
Continuous
 62
   142
420
    32960
370
     0
100
AcDbLine
 10
-93.5486449322
 20
405.8579542115
 30
0.0
 11
-92.7486449322
 21
405.8579542115
 31
0.0
  0
LINE
  5
1B1
330
1F
100
AcDbEntity
  8
0
  6
Continuous
 62
   142
420
    32960
370
     0
100
AcDbLine
 10
506.4513550678
 20
405.8579542115
 30
0.0
 11
505.6513550678
 21
405.8579542115
 31
0.0
  0
LINE
  5
1B2
330
1F
100
AcDbEntity
  8
0
  6
Continuous
 62
   142
420
    32960
370
     0
100
AcDbLine
 10
-92.7486449322
 20
459.0579542115
 30
0.0
 11
-93.5486449322
 21
459.0579542115
 31
0.0
  0
LINE
  5
1B3
330
1F
100
AcDbEntity
  8
0
  6
Continuous
 62
   142
420
    32960
370
     0
100
AcDbLine
 10
505.6513550678
 20
459.0579542115
 30
0.0
 11
506.4513550678
 21
459.0579542115
 31
0.0
  0
LWPOLYLINE
  5
1B4
330
1F
100
AcDbEntity
  8
0
  6
Continuous
 62
   142
420
    32960
370
     0
100
AcDbPolyline
 90
        3
 70
   128
 43
0.0
 10
-92.7486449322
 20
459.5327618924
 10
-92.9482138336
 20
459.357523113
 10
-93.195701207
 20
459.0579542115
  0
LWPOLYLINE
  5
1B5
330
1F
100
AcDbEntity
  8
0
  6
Continuous
 62
   142
420
    32960
370
     0
100
AcDbPolyline
 90
        3
 70
   128
 43
0.0
 10
506.0984113427
 20
459.0579542115
 10
505.8509239693
 20
459.357523113
 10
505.6513550678
 20
459.5327618924
  0
LWPOLYLINE
  5
1B6
330
1F
100
AcDbEntity
  8
0
  6
Continuous
 62
   142
420
    32960
370
     0
100
AcDbPolyline
 90
        3
 70
   128
 43
0.0
 10
505.6513550678
 20
405.3831465306
 10
505.8509239693
 20
405.5583853101
 10
506.0984113427
 20
405.8579542115
  0
LWPOLYLINE
  5
1B7
330
1F
100
AcDbEntity
  8
0
  6
Continuous
 62
   142
420
    32960
370
     0
100
AcDbPolyline
 90
        3
 70
   128
 43
0.0
 10
-93.195701207
 20
405.8579542115
 10
-92.9482138336
 20
405.5583853101
 10
-92.7486449322
 20
405.3831465306
  0
LINE
  5
1B8
330
1F
100
AcDbEntity
  8
0
  6
Continuous
 62
   142
420
    32960
370
     0
100
AcDbLine
 10
486.1931477703
 20
427.5576583522
 30
0.0
 11
480.9513550678
 21
427.5576583522
 31
0.0
  0
LINE
  5
1B9
330
1F
100
AcDbEntity
  8
0
  6
Continuous
 62
     7
370
    15
100
AcDbLine
 10
-92.3486449322
 20
-192.2920457885
 30
0.0
 11
-92.3486449322
 21
-189.8420457885
 31
0.0
  0
LINE
  5
1BA
330
1F
100
AcDbEntity
  8
0
  6
Continuous
 62
     7
370
    15
100
AcDbLine
 10
505.2513550678
 20
-192.2920457885
 30
0.0
 11
505.2513550678
 21
-189.8420457885
 31
0.0
  0
LINE
  5
1BB
330
1F
100
AcDbEntity
  8
0
  6
Continuous
 62
   142
420
    32960
370
     0
100
AcDbLine
 10
505.2513550678
 20
-189.8420457885
 30
0.0
 11
502.4513550678
 21
-189.8420457885
 31
0.0
  0
LINE
  5
1BC
330
1F
100
AcDbEntity
  8
0
  6
Continuous
 62
   142
420
    32960
370
     0
100
AcDbLine
 10
-89.5486449322
 20
-189.8420457885
 30
0.0
 11
-92.3486449322
 21
-189.8420457885
 31
0.0
  0
LINE
  5
1BD
330
1F
100
AcDbEntity
  8
0
  6
Continuous
 62
     7
370
    15
100
AcDbLine
 10
-92.3486449322
 20
-283.6088542869
 30
0.0
 11
-92.3486449322
 21
-192.2920457885
 31
0.0
  0
LINE
  5
1BE
330
1F
100
AcDbEntity
  8
0
  6
Continuous
 62
     7
370
    15
100
AcDbLine
 10
505.2513550678
 20
-283.6088542869
 30
0.0
 11
505.2513550678
 21
-192.2920457885
 31
0.0
  0
LINE
  5
1BF
330
1F
100
AcDbEntity
  8
0
  6
Continuous
 62
     7
370
    15
100
AcDbLine
 10
505.2513550678
 20
-283.6088542869
 30
0.0
 11
-92.3486449322
 21
-283.6088542869
 31
0.0
  0
LINE
  5
1C0
330
1F
100
AcDbEntity
  8
0
  6
Continuous
 62
     7
370
    15
100
AcDbLine
 10
-92.3486449322
 20
-306.9088542869
 30
0.0
 11
-92.3486449322
 21
-283.6088542869
 31
0.0
  0
LINE
  5
1C1
330
1F
100
AcDbEntity
  8
0
  6
Continuous
 62
     7
370
    15
100
AcDbLine
 10
505.2513550678
 20
-306.9088542869
 30
0.0
 11
505.2513550678
 21
-283.6088542869
 31
0.0
  0
LINE
  5
1C2
330
1F
100
AcDbEntity
  8
0
  6
Continuous
 62
   142
420
    32960
370
     0
100
AcDbLine
 10
503.9513550678
 20
-189.8420457885
 30
0.0
 11
503.9513550678
 21
-189.3420457885
 31
0.0
  0
LINE
  5
1C3
330
1F
100
AcDbEntity
  8
0
  6
Continuous
 62
   142
420
    32960
370
     0
100
AcDbLine
 10
-91.0486449322
 20
-189.3420457885
 30
0.0
 11
-91.0486449322
 21
-189.8420457885
 31
0.0
  0
LINE
  5
1C4
330
1F
100
AcDbEntity
  8
0
  6
Continuous
 62
     7
370
    15
100
AcDbLine
 10
506.4513550678
 20
-188.5920457885
 30
0.0
 11
506.4513550678
 21
405.8579542115
 31
0.0
  0
LINE
  5
1C5
330
1F
100
AcDbEntity
  8
0
  6
Continuous
 62
   142
420
    32960
370
     0
100
AcDbLine
 10
505.4513550678
 20
-188.5920457885
 30
0.0
 11
506.4513550678
 21
-188.5920457885
 31
0.0
  0
LINE
  5
1C6
330
1F
100
AcDbEntity
  8
0
  6
Continuous
 62
   142
420
    32960
370
     0
100
AcDbLine
 10
503.4513550678
 20
-188.5920457885
 30
0.0
 11
502.4513550678
 21
-188.5920457885
 31
0.0
  0
LINE
  5
1C7
330
1F
100
AcDbEntity
  8
0
  6
Continuous
 62
   142
420
    32960
370
     0
100
AcDbLine
 10
-89.5486449322
 20
-188.5920457885
 30
0.0
 11
-90.5486449322
 21
-188.5920457885
 31
0.0
  0
LINE
  5
1C8
330
1F
100
AcDbEntity
  8
0
  6
Continuous
 62
     7
370
    15
100
AcDbLine
 10
-93.5486449322
 20
-188.5920457885
 30
0.0
 11
-93.5486449322
 21
405.8579542115
 31
0.0
  0
LINE
  5
1C9
330
1F
100
AcDbEntity
  8
0
  6
Continuous
 62
   142
420
    32960
370
     0
100
AcDbLine
 10
-92.5486449322
 20
-188.5920457885
 30
0.0
 11
-93.5486449322
 21
-188.5920457885
 31
0.0
  0
LINE
  5
1CA
330
1F
100
AcDbEntity
  8
0
  6
Continuous
 62
   142
420
    32960
370
     0
100
AcDbLine
 10
506.4513550678
 20
-188.5920457885
 30
0.0
 11
506.4513550678
 21
-190.0920457885
 31
0.0
  0
LINE
  5
1CB
330
1F
100
AcDbEntity
  8
0
  6
Continuous
 62
   142
420
    32960
370
     0
100
AcDbLine
 10
-93.5486449322
 20
-190.0920457885
 30
0.0
 11
-93.5486449322
 21
-188.5920457885
 31
0.0
  0
LINE
  5
1CC
330
1F
100
AcDbEntity
  8
0
  6
Continuous
 62
   142
420
    32960
370
     0
100
AcDbLine
 10
506.4513550678
 20
-190.0920457885
 30
0.0
 11
505.2513550678
 21
-190.0920457885
 31
0.0
  0
LINE
  5
1CD
330
1F
100
AcDbEntity
  8
0
  6
Continuous
 62
   142
420
    32960
370
     0
100
AcDbLine
 10
-92.3486449322
 20
-190.0920457885
 30
0.0
 11
-93.5486449322
 21
-190.0920457885
 31
0.0
  0
LINE
  5
1CE
330
1F
100
AcDbEntity
  8
0
  6
Continuous
 62
     7
370
    15
100
AcDbLine
 10
-93.5486449322
 20
-283.1420457885
 30
0.0
 11
-93.5486449322
 21
-192.1420457885
 31
0.0
  0
LINE
  5
1CF
330
1F
100
AcDbEntity
  8
0
  6
Continuous
 62
     7
370
    15
100
AcDbLine
 10
-93.5486449322
 20
-306.1420457885
 30
0.0
 11
-93.5486449322
 21
-283.1420457885
 31
0.0
  0
LINE
  5
1D0
330
1F
100
AcDbEntity
  8
0
  6
Continuous
 62
   142
420
    32960
370
     0
100
AcDbLine
 10
-93.5486449322
 20
-192.1420457885
 30
0.0
 11
-93.5486449322
 21
-190.1420457885
 31
0.0
  0
LINE
  5
1D1
330
1F
100
AcDbEntity
  8
0
  6
Continuous
 62
     7
370
    15
100
AcDbLine
 10
-92.3486449322
 20
-283.1420457885
 30
0.0
 11
-93.5486449322
 21
-283.1420457885
 31
0.0
  0
LINE
  5
1D2
330
1F
100
AcDbEntity
  8
0
  6
Continuous
 62
   142
420
    32960
370
     0
100
AcDbLine
 10
-92.3486449322
 20
-192.1420457885
 30
0.0
 11
-93.5486449322
 21
-192.1420457885
 31
0.0
  0
LINE
  5
1D3
330
1F
100
AcDbEntity
  8
0
  6
Continuous
 62
   142
420
    32960
370
     0
100
AcDbLine
 10
-92.3486449322
 20
-190.1420457885
 30
0.0
 11
-93.5486449322
 21
-190.1420457885
 31
0.0
  0
LINE
  5
1D4
330
1F
100
AcDbEntity
  8
0
  6
Continuous
 62
     7
370
    15
100
AcDbLine
 10
506.4513550678
 20
-306.1420457885
 30
0.0
 11
506.4513550678
 21
-283.1420457885
 31
0.0
  0
LINE
  5
1D5
330
1F
100
AcDbEntity
  8
0
  6
Continuous
 62
     7
370
    15
100
AcDbLine
 10
506.4513550678
 20
-283.1420457885
 30
0.0
 11
506.4513550678
 21
-192.1420457885
 31
0.0
  0
LINE
  5
1D6
330
1F
100
AcDbEntity
  8
0
  6
Continuous
 62
   142
420
    32960
370
     0
100
AcDbLine
 10
506.4513550678
 20
-192.1420457885
 30
0.0
 11
506.4513550678
 21
-190.1420457885
 31
0.0
  0
LINE
  5
1D7
330
1F
100
AcDbEntity
  8
0
  6
Continuous
 62
     7
370
    15
100
AcDbLine
 10
506.4513550678
 20
-283.1420457885
 30
0.0
 11
505.2513550678
 21
-283.1420457885
 31
0.0
  0
LINE
  5
1D8
330
1F
100
AcDbEntity
  8
0
  6
Continuous
 62
   142
420
    32960
370
     0
100
AcDbLine
 10
506.4513550678
 20
-192.1420457885
 30
0.0
 11
505.2513550678
 21
-192.1420457885
 31
0.0
  0
LINE
  5
1D9
330
1F
100
AcDbEntity
  8
0
  6
Continuous
 62
   142
420
    32960
370
     0
100
AcDbLine
 10
506.4513550678
 20
-190.1420457885
 30
0.0
 11
505.2513550678
 21
-190.1420457885
 31
0.0
  0
LINE
  5
1DA
330
1F
100
AcDbEntity
  8
0
  6
Continuous
 62
   142
420
    32960
370
     0
100
AcDbLine
 10
-73.5182225
 20
428.5576583522
 30
0.0
 11
-3.786302068
 21
428.5576583522
 31
0.0
  0
LINE
  5
1DB
330
1F
100
AcDbEntity
  8
0
  6
Continuous
 62
   142
420
    32960
370
     0
100
AcDbLine
 10
7.133398091
 20
428.5576583522
 30
0.0
 11
96.213697932
 21
428.5576583522
 31
0.0
  0
LINE
  5
1DC
330
1F
100
AcDbEntity
  8
0
  6
Continuous
 62
   142
420
    32960
370
     0
100
AcDbLine
 10
107.133398091
 20
428.5576583522
 30
0.0
 11
196.213697932
 21
428.5576583522
 31
0.0
  0
LINE
  5
1DD
330
1F
100
AcDbEntity
  8
0
  6
Continuous
 62
   142
420
    32960
370
     0
100
AcDbLine
 10
207.133398091
 20
428.5576583522
 30
0.0
 11
296.213697932
 21
428.5576583522
 31
0.0
  0
LINE
  5
1DE
330
1F
100
AcDbEntity
  8
0
  6
Continuous
 62
   142
420
    32960
370
     0
100
AcDbLine
 10
307.133398091
 20
428.5576583522
 30
0.0
 11
396.213697932
 21
428.5576583522
 31
0.0
  0
LINE
  5
1DF
330
1F
100
AcDbEntity
  8
0
  6
Continuous
 62
   142
420
    32960
370
     0
100
AcDbLine
 10
407.133398091
 20
428.5576583522
 30
0.0
 11
458.9513550678
 21
428.5576583522
 31
0.0
  0
LINE
  5
1E0
330
1F
100
AcDbEntity
  8
0
  6
Continuous
 62
   142
420
    32960
370
     0
100
AcDbLine
 10
480.9513550678
 20
428.5576583522
 30
0.0
 11
486.4209326357
 21
428.5576583522
 31
0.0
  0
CIRCLE
  5
1E1
330
1F
100
AcDbEntity
  8
0
  6
Continuous
 62
   142
420
    32960
370
     0
100
AcDbCircle
 10
-49.0486449322
 20
440.5576583522
 30
0.0
 40
2.249999999999943
  0
LINE
  5
1E2
330
1F
100
AcDbEntity
  8
0
  6
Continuous
 62
     7
370
    15
100
AcDbLine
 10
469.9513550678
 20
479.9576583522
 30
0.0
 11
480.9513550678
 21
479.9576583522
 31
0.0
  0
LINE
  5
1E3
330
1F
100
AcDbEntity
  8
0
  6
Continuous
 62
     7
370
    15
100
AcDbLine
 10
458.9513550678
 20
479.9576583522
 30
0.0
 11
469.9513550678
 21
479.9576583522
 31
0.0
  0
LINE
  5
1E4
330
1F
100
AcDbEntity
  8
0
  6
Continuous
 62
     7
370
    15
100
AcDbLine
 10
469.9513550678
 20
481.9576583522
 30
0.0
 11
478.9513550678
 21
481.9576583522
 31
0.0
  0
LINE
  5
1E5
330
1F
100
AcDbEntity
  8
0
  6
Continuous
 62
     7
370
    15
100
AcDbLine
 10
460.9513550678
 20
481.9576583522
 30
0.0
 11
469.9513550678
 21
481.9576583522
 31
0.0
  0
LINE
  5
1E6
330
1F
100
AcDbEntity
  8
0
  6
Continuous
 62
   142
420
    32960
370
     0
100
AcDbLine
 10
-89.5486449322
 20
-186.0920457885
 30
0.0
 11
-89.5486449322
 21
-183.6420457885
 31
0.0
  0
LINE
  5
1E7
330
1F
100
AcDbEntity
  8
0
  6
Continuous
 62
     7
370
    15
100
AcDbLine
 10
502.4513550678
 20
-183.6420457885
 30
0.0
 11
-89.5486449322
 21
-183.6420457885
 31
0.0
  0
LINE
  5
1E8
330
1F
100
AcDbEntity
  8
0
  6
Continuous
 62
   142
420
    32960
370
     0
100
AcDbLine
 10
502.4513550678
 20
-183.6420457885
 30
0.0
 11
502.4513550678
 21
-186.0920457885
 31
0.0
  0
LINE
  5
1E9
330
1F
100
AcDbEntity
  8
0
  6
Continuous
 62
     7
370
    15
100
AcDbLine
 10
502.4513550678
 20
-186.0920457885
 30
0.0
 11
-89.5486449322
 21
-186.0920457885
 31
0.0
  0
LINE
  5
1EA
330
1F
100
AcDbEntity
  8
0
  6
Continuous
 62
     7
370
    15
100
AcDbLine
 10
502.4513550678
 20
-209.6774801665
 30
0.0
 11
502.4513550678
 21
-186.0920457885
 31
0.0
  0
LINE
  5
1EB
330
1F
100
AcDbEntity
  8
0
  6
Continuous
 62
     7
370
    15
100
AcDbLine
 10
-89.5486449322
 20
-209.6774801665
 30
0.0
 11
502.4513550678
 21
-209.6774801665
 31
0.0
  0
LINE
  5
1EC
330
1F
100
AcDbEntity
  8
0
  6
Continuous
 62
     7
370
    15
100
AcDbLine
 10
-89.5486449322
 20
-186.0920457885
 30
0.0
 11
-89.5486449322
 21
-209.6774801665
 31
0.0
  0
LINE
  5
1ED
330
1F
100
AcDbEntity
  8
0
  6
Continuous
 62
     7
370
    15
100
AcDbLine
 10
-89.5486449322
 20
-210.311586827
 30
0.0
 11
-89.5486449322
 21
-209.6774801665
 31
0.0
  0
LINE
  5
1EE
330
1F
100
AcDbEntity
  8
0
  6
Continuous
 62
     7
370
    15
100
AcDbLine
 10
502.4513550678
 20
-209.6774801665
 30
0.0
 11
502.4513550678
 21
-210.311586827
 31
0.0
  0
LINE
  5
1EF
330
1F
100
AcDbEntity
  8
0
  6
Continuous
 62
     7
370
    15
100
AcDbLine
 10
502.4513550678
 20
-210.311586827
 30
0.0
 11
-89.5486449322
 21
-210.311586827
 31
0.0
  0
LINE
  5
1F0
330
1F
100
AcDbEntity
  8
0
  6
Continuous
 62
     7
370
    15
100
AcDbLine
 10
497.4513550678
 20
-217.8800352529
 30
0.0
 11
-84.5486449322
 21
-217.8800352529
 31
0.0
  0
LINE
  5
1F1
330
1F
100
AcDbEntity
  8
0
  6
Continuous
 62
   142
420
    32960
370
     0
100
AcDbLine
 10
502.4513550678
 20
-210.311586827
 30
0.0
 11
502.4513550678
 21
-213.0504061215
 31
0.0
  0
LINE
  5
1F2
330
1F
100
AcDbEntity
  8
0
  6
Continuous
 62
   142
420
    32960
370
     0
100
AcDbLine
 10
-89.5486449322
 20
-213.0504061215
 30
0.0
 11
-89.5486449322
 21
-210.311586827
 31
0.0
  0
ARC
  5
1F3
330
1F
100
AcDbEntity
  8
0
  6
Continuous
 62
   142
420
    32960
370
     0
100
AcDbCircle
 10
-84.6323790548
 20
-212.9637181788
 30
0.0
 40
4.917030097156963
100
AcDbArc
 50
181.0101851092
 51
270.9757604995
  0
ARC
  5
1F4
330
1F
100
AcDbEntity
  8
0
  6
Continuous
 62
   142
420
    32960
370
     0
100
AcDbCircle
 10
497.5350891905
 20
-212.9637181788
 30
0.0
 40
4.917030097156949
100
AcDbArc
 50
269.0242395005
 51
358.9898148908
  0
CIRCLE
  5
1F5
330
1F
100
AcDbEntity
  8
0
  6
Continuous
 62
     7
370
    15
100
AcDbCircle
 10
2.4513550678
 20
-157.4423416478
 30
0.0
 40
4.150000000000006
  0
CIRCLE
  5
1F6
330
1F
100
AcDbEntity
  8
0
  6
Continuous
 62
   142
420
    32960
370
     0
100
AcDbCircle
 10
2.4513550678
 20
-157.4423416478
 30
0.0
 40
3.025000000000006
  0
LINE
  5
1F7
330
1F
100
AcDbEntity
  8
0
  6
Continuous
 62
     7
370
    15
100
AcDbLine
 10
469.9513550678
 20
483.9576583522
 30
0.0
 11
480.9513550678
 21
483.9576583522
 31
0.0
  0
LINE
  5
1F8
330
1F
100
AcDbEntity
  8
0
  6
Continuous
 62
     7
370
    15
100
AcDbLine
 10
458.9513550678
 20
483.9576583522
 30
0.0
 11
469.9513550678
 21
483.9576583522
 31
0.0
  0
LINE
  5
1F9
330
1F
100
AcDbEntity
  8
0
  6
Continuous
 62
     7
370
    15
100
AcDbLine
 10
469.9513550678
 20
485.9576583522
 30
0.0
 11
478.9513550678
 21
485.9576583522
 31
0.0
  0
LINE
  5
1FA
330
1F
100
AcDbEntity
  8
0
  6
Continuous
 62
     7
370
    15
100
AcDbLine
 10
460.9513550678
 20
485.9576583522
 30
0.0
 11
469.9513550678
 21
485.9576583522
 31
0.0
  0
LINE
  5
1FB
330
1F
100
AcDbEntity
  8
0
  6
Continuous
 62
     7
370
    15
100
AcDbLine
 10
469.9513550678
 20
487.9576583522
 30
0.0
 11
480.9513550678
 21
487.9576583522
 31
0.0
  0
LINE
  5
1FC
330
1F
100
AcDbEntity
  8
0
  6
Continuous
 62
     7
370
    15
100
AcDbLine
 10
458.9513550678
 20
487.9576583522
 30
0.0
 11
469.9513550678
 21
487.9576583522
 31
0.0
  0
LINE
  5
1FD
330
1F
100
AcDbEntity
  8
0
  6
Continuous
 62
     8
370
    15
100
AcDbLine
 10
503.4513550678
 20
-186.8920457885
 30
0.0
 11
502.4513550678
 21
-186.8920457885
 31
0.0
  0
LINE
  5
1FE
330
1F
100
AcDbEntity
  8
0
  6
Continuous
 62
     8
370
    15
100
AcDbLine
 10
-89.5486449322
 20
-186.8920457885
 30
0.0
 11
-90.5486449322
 21
-186.8920457885
 31
0.0
  0
LINE
  5
1FF
330
1F
100
AcDbEntity
  8
0
  6
Continuous
 62
     8
370
    15
100
AcDbLine
 10
366.0821030813
 20
-327.5552683142
 30
0.0
 11
366.0564749344
 21
-327.3899844285
 31
0.0
  0
LINE
  5
200
330
1F
100
AcDbEntity
  8
0
  6
Continuous
 62
     8
370
    15
100
AcDbLine
 10
394.2462352013
 20
-327.3899844285
 30
0.0
 11
394.2207050459
 21
-327.5546363367
 31
0.0
  0
LINE
  5
201
330
1F
100
AcDbEntity
  8
0
  6
Continuous
 62
     8
370
    15
100
AcDbLine
 10
381.6513550678
 20
-343.8527063251
 30
0.0
 11
378.6513550678
 21
-343.8527063251
 31
0.0
  0
LINE
  5
202
330
1F
100
AcDbEntity
  8
0
  6
Continuous
 62
     8
370
    15
100
AcDbLine
 10
256.0821030813
 20
-327.5552683142
 30
0.0
 11
256.0564749344
 21
-327.3899844285
 31
0.0
  0
LINE
  5
203
330
1F
100
AcDbEntity
  8
0
  6
Continuous
 62
     8
370
    15
100
AcDbLine
 10
284.2462352013
 20
-327.3899844285
 30
0.0
 11
284.2207050459
 21
-327.5546363367
 31
0.0
  0
SPLINE
  5
204
330
1F
100
AcDbEntity
  8
0
  6
Continuous
 62
     8
370
    15
100
AcDbSpline
210
0.0
220
0.0
230
1.0
 70
     8
 71
     3
 72
     9
 73
     5
 74
     0
 42
0.00000001
 43
0.00000001
 40
0.0
 40
0.0
 40
0.0
 40
0.0
 40
0.5763579485970812
 40
0.9999999999999999
 40
0.9999999999999999
 40
0.9999999999999999
 40
0.9999999999999999
 10
270.6839508791182
 20
-342.3676709138455
 30
0.0
 10
270.5773511079457
 20
-339.1084529630538
 30
0.0
 10
270.3923969983824
 20
-333.4536026070816
 30
0.0
 10
270.2433553289453
 20
-327.7979153220093
 30
0.0
 10
270.1802150103604
 20
-325.4019283584679
 30
0.0
  0
LINE
  5
205
330
1F
100
AcDbEntity
  8
0
  6
Continuous
 62
     8
370
    15
100
AcDbLine
 10
111.5702712974
 20
424.287478084
 30
0.0
 11
110.5637495861
 21
424.287478084
 31
0.0
  0
LINE
  5
206
330
1F
100
AcDbEntity
  8
0
  6
Continuous
 62
     8
370
    15
100
AcDbLine
 10
211.5702712974
 20
424.287478084
 30
0.0
 11
210.5637495861
 21
424.287478084
 31
0.0
  0
LINE
  5
207
330
1F
100
AcDbEntity
  8
0
  6
Continuous
 62
     8
370
    15
100
AcDbLine
 10
192.4237063123
 20
424.287478084
 30
0.0
 11
191.417184601
 21
424.287478084
 31
0.0
  0
LINE
  5
208
330
1F
100
AcDbEntity
  8
0
  6
Continuous
 62
     8
370
    15
100
AcDbLine
 10
292.4237063123
 20
424.287478084
 30
0.0
 11
291.417184601
 21
424.287478084
 31
0.0
  0
LINE
  5
209
330
1F
100
AcDbEntity
  8
0
  6
Continuous
 62
     8
370
    15
100
AcDbLine
 10
411.5702712974
 20
424.287478084
 30
0.0
 11
410.5637495861
 21
424.287478084
 31
0.0
  0
LINE
  5
20A
330
1F
100
AcDbEntity
  8
0
  6
Continuous
 62
     8
370
    15
100
AcDbLine
 10
392.4237063123
 20
424.287478084
 30
0.0
 11
391.417184601
 21
424.287478084
 31
0.0
  0
LINE
  5
20B
330
1F
100
AcDbEntity
  8
0
  6
Continuous
 62
     8
370
    15
100
AcDbLine
 10
482.9905811406
 20
424.287478084
 30
0.0
 11
481.9840594293
 21
424.287478084
 31
0.0
  0
LINE
  5
20C
330
1F
100
AcDbEntity
  8
0
  6
Continuous
 62
     8
370
    15
100
AcDbLine
 10
-69.0813492936
 20
424.287478084
 30
0.0
 11
-70.0878710049
 21
424.287478084
 31
0.0
  0
LINE
  5
20D
330
1F
100
AcDbEntity
  8
0
  6
Continuous
 62
     8
370
    15
100
AcDbLine
 10
11.5702712974
 20
424.287478084
 30
0.0
 11
10.5637495861
 21
424.287478084
 31
0.0
  0
LINE
  5
20E
330
1F
100
AcDbEntity
  8
0
  6
Continuous
 62
     8
370
    15
100
AcDbLine
 10
505.2513550678
 20
-192.2920457885
 30
0.0
 11
502.4513550678
 21
-192.2920457885
 31
0.0
  0
LINE
  5
20F
330
1F
100
AcDbEntity
  8
0
  6
Continuous
 62
     8
370
    15
100
AcDbLine
 10
-89.5486449322
 20
-192.2920457885
 30
0.0
 11
-92.3486449322
 21
-192.2920457885
 31
0.0
  0
LINE
  5
210
330
1F
100
AcDbEntity
  8
0
  6
Continuous
 62
     8
370
    15
100
AcDbLine
 10
504.0013550678
 20
397.9167194986
 30
0.0
 11
504.0013550678
 21
404.9579542115
 31
0.0
  0
LINE
  5
211
330
1F
100
AcDbEntity
  8
0
  6
Continuous
 62
     8
370
    15
100
AcDbLine
 10
-91.0986449322
 20
404.9579542115
 30
0.0
 11
-91.0986449322
 21
397.9167194986
 31
0.0
  0
ENDSEC
  0
SECTION
  2
OBJECTS
  0
DICTIONARY
  5
C
330
0
100
AcDbDictionary
281
     1
  3
ACAD_GROUP
350
D
  3
ACAD_LAYOUT
350
1A
  3
ACAD_MATERIAL
350
3B
  3
ACAD_MLEADERSTYLE
350
213
  3
ACAD_MLINESTYLE
350
17
  3
ACAD_PLOTSETTINGS
350
19
  3
ACAD_PLOTSTYLENAME
350
E
  3
ACAD_TABLESTYLE
350
212
  3
ACAD_VISUALSTYLE
350
2A
  0
DICTIONARY
  5
D
102
{ACAD_REACTORS
330
C
102
}
330
C
100
AcDbDictionary
281
     1
  0
DICTIONARY
  5
1A
102
{ACAD_REACTORS
330
C
102
}
330
C
100
AcDbDictionary
281
     1
  3
Layout1
350
1E
  3
Layout2
350
26
  3
Model
350
22
  0
DICTIONARY
  5
3B
102
{ACAD_REACTORS
330
C
102
}
330
C
100
AcDbDictionary
281
     1
  3
ByBlock
350
3D
  3
ByLayer
350
3C
  3
Global
350
3E
  0
DICTIONARY
  5
213
102
{ACAD_REACTORS
330
C
102
}
330
C
100
AcDbDictionary
281
     1
  0
DICTIONARY
  5
17
102
{ACAD_REACTORS
330
C
102
}
330
C
100
AcDbDictionary
281
     1
  3
Standard
350
18
  0
DICTIONARY
  5
19
102
{ACAD_REACTORS
330
C
102
}
330
C
100
AcDbDictionary
281
     1
  0
ACDBDICTIONARYWDFLT
  5
E
102
{ACAD_REACTORS
330
C
102
}
330
C
100
AcDbDictionary
281
     1
  3
Normal
350
F
100
AcDbDictionaryWithDefault
340
F
  0
DICTIONARY
  5
212
102
{ACAD_REACTORS
330
C
102
}
330
C
100
AcDbDictionary
281
     1
  0
DICTIONARY
  5
2A
102
{ACAD_REACTORS
330
C
102
}
330
C
100
AcDbDictionary
281
     1
  3
2dWireframe
350
2F
  3
3D Hidden
350
31
  3
3dWireframe
350
30
  3
Basic
350
32
  3
Brighten
350
36
  3
ColorChange
350
3A
  3
Conceptual
350
34
  3
Dim
350
35
  3
Facepattern
350
39
  3
Flat
350
2B
  3
FlatWithEdges
350
2C
  3
Gouraud
350
2D
  3
GouraudWithEdges
350
2E
  3
Linepattern
350
38
  3
Realistic
350
33
  3
Thicken
350
37
  0
LAYOUT
  5
1E
102
{ACAD_REACTORS
330
1A
102
}
330
1A
100
AcDbPlotSettings
  1

  2
none_device
  4

  6

 40
0.0
 41
0.0
 42
0.0
 43
0.0
 44
0.0
 45
0.0
 46
0.0
 47
0.0
 48
0.0
 49
0.0
140
0.0
141
0.0
142
1.0
143
1.0
 70
   688
 72
     0
 73
     0
 74
     5
  7

 75
    16
 76
     0
 77
     2
 78
   300
147
1.0
148
0.0
149
0.0
100
AcDbLayout
  1
Layout1
 70
     1
 71
     1
 10
0.0
 20
0.0
 11
420.0
 21
297.0
 12
0.0
 22
0.0
 32
0.0
 14
1.0000000000E+20
 24
1.0000000000E+20
 34
1.0000000000E+20
 15
-1.0000000000E+20
 25
-1.0000000000E+20
 35
-1.0000000000E+20
146
0.0
 13
0.0
 23
0.0
 33
0.0
 16
1.0
 26
0.0
 36
0.0
 17
0.0
 27
1.0
 37
0.0
 76
     0
330
1B
  0
LAYOUT
  5
26
102
{ACAD_REACTORS
330
1A
102
}
330
1A
100
AcDbPlotSettings
  1

  2
none_device
  4

  6

 40
0.0
 41
0.0
 42
0.0
 43
0.0
 44
0.0
 45
0.0
 46
0.0
 47
0.0
 48
0.0
 49
0.0
140
0.0
141
0.0
142
1.0
143
1.0
 70
   688
 72
     0
 73
     0
 74
     5
  7

 75
    16
 76
     0
 77
     2
 78
   300
147
1.0
148
0.0
149
0.0
100
AcDbLayout
  1
Layout2
 70
     1
 71
     2
 10
0.0
 20
0.0
 11
0.0
 21
0.0
 12
0.0
 22
0.0
 32
0.0
 14
0.0
 24
0.0
 34
0.0
 15
0.0
 25
0.0
 35
0.0
146
0.0
 13
0.0
 23
0.0
 33
0.0
 16
1.0
 26
0.0
 36
0.0
 17
0.0
 27
1.0
 37
0.0
 76
     0
330
23
  0
LAYOUT
  5
22
102
{ACAD_REACTORS
330
1A
102
}
330
1A
100
AcDbPlotSettings
  1

  2
none_device
  4

  6

 40
0.0
 41
0.0
 42
0.0
 43
0.0
 44
0.0
 45
0.0
 46
0.0
 47
0.0
 48
0.0
 49
0.0
140
0.0
141
0.0
142
1.0
143
1.0
 70
  1712
 72
     0
 73
     0
 74
     0
  7

 75
     0
 76
     0
 77
     2
 78
   300
147
1.0
148
0.0
149
0.0
100
AcDbLayout
  1
Model
 70
     1
 71
     0
 10
0.0
 20
0.0
 11
420.0
 21
297.0
 12
0.0
 22
0.0
 32
0.0
 14
0.0
 24
0.0
 34
0.0
 15
420.0
 25
297.0
 35
0.0
146
0.0
 13
0.0
 23
0.0
 33
0.0
 16
1.0
 26
0.0
 36
0.0
 17
0.0
 27
1.0
 37
0.0
 76
     0
330
1F
331
29
  0
MATERIAL
  5
3D
102
{ACAD_REACTORS
330
3B
102
}
330
3B
100
AcDbMaterial
  1
ByBlock
 72
     1
 94
      127
  0
MATERIAL
  5
3C
102
{ACAD_REACTORS
330
3B
102
}
330
3B
100
AcDbMaterial
  1
ByLayer
 72
     1
 94
      127
  0
MATERIAL
  5
3E
102
{ACAD_REACTORS
330
3B
102
}
330
3B
100
AcDbMaterial
  1
Global
 72
     1
 94
      127
  0
MLINESTYLE
  5
18
102
{ACAD_REACTORS
330
17
102
}
330
17
100
AcDbMlineStyle
  2
Standard
 70
     0
  3

 62
   256
 51
90.0
 52
90.0
 71
     2
 49
0.5
 62
   256
  6
BYLAYER
 49
-0.5
 62
   256
  6
BYLAYER
  0
ACDBPLACEHOLDER
  5
F
102
{ACAD_REACTORS
330
E
102
}
330
E
  0
VISUALSTYLE
  5
2F
102
{ACAD_REACTORS
330
2A
102
}
330
2A
100
AcDbVisualStyle
  2
2dWireframe
 70
     4
 71
     0
 72
     2
 73
     0
 90
        0
 40
-0.6
 41
-30.0
 62
     5
 63
     7
421
 16777215
 74
     1
 91
        4
 64
     7
 65
   257
 75
     1
175
     1
 42
1.0
 92
        0
 66
   257
 43
1.0
 76
     1
 77
     6
 78
     2
 67
     7
 79
     5
170
     0
171
     0
290
     0
174
     0
 93
        1
 44
0.0
173
     0
291
     0
 45
0.0
  0
VISUALSTYLE
  5
31
102
{ACAD_REACTORS
330
2A
102
}
330
2A
100
AcDbVisualStyle
  2
3D Hidden
 70
     6
 71
     1
 72
     2
 73
     2
 90
        0
 40
-0.6
 41
-30.0
 62
     5
 63
     7
421
 16777215
 74
     2
 91
        2
 64
     7
 65
   257
 75
     2
175
     1
 42
40.0
 92
        0
 66
   257
 43
1.0
 76
     1
 77
     6
 78
     2
 67
     7
 79
     3
170
     0
171
     0
290
     0
174
     0
 93
        1
 44
0.0
173
     0
291
     0
 45
0.0
  0
VISUALSTYLE
  5
30
102
{ACAD_REACTORS
330
2A
102
}
330
2A
100
AcDbVisualStyle
  2
3dWireframe
 70
     5
 71
     0
 72
     2
 73
     0
 90
        0
 40
-0.6
 41
-30.0
 62
     5
 63
     7
421
 16777215
 74
     1
 91
        4
 64
     7
 65
   257
 75
     1
175
     1
 42
1.0
 92
        0
 66
   257
 43
1.0
 76
     1
 77
     6
 78
     2
 67
     7
 79
     5
170
     0
171
     0
290
     0
174
     0
 93
        1
 44
0.0
173
     0
291
     0
 45
0.0
  0
VISUALSTYLE
  5
32
102
{ACAD_REACTORS
330
2A
102
}
330
2A
100
AcDbVisualStyle
  2
Basic
 70
     7
 71
     1
 72
     0
 73
     1
 90
        0
 40
-0.6
 41
-30.0
 62
     5
 63
     7
421
 16777215
 74
     0
 91
        4
 64
     7
 65
   257
 75
     1
175
     1
 42
1.0
 92
        8
 66
     7
 43
1.0
 76
     1
 77
     6
 78
     2
 67
     7
 79
     5
170
     0
171
     0
290
     0
174
     0
 93
        1
 44
0.0
173
     0
291
     1
 45
0.0
  0
VISUALSTYLE
  5
36
102
{ACAD_REACTORS
330
2A
102
}
330
2A
100
AcDbVisualStyle
  2
Brighten
 70
    12
 71
     2
 72
     2
 73
     0
 90
        0
 40
-0.6
 41
-30.0
 62
     5
 63
     7
421
 16777215
 74
     1
 91
        4
 64
     7
 65
   257
 75
     1
175
     1
 42
1.0
 92
        8
 66
     7
 43
1.0
 76
     1
 77
     6
 78
     2
 67
     7
 79
     5
170
     0
171
     0
290
     0
174
     0
 93
        1
 44
50.0
173
     0
291
     1
 45
0.0
  0
VISUALSTYLE
  5
3A
102
{ACAD_REACTORS
330
2A
102
}
330
2A
100
AcDbVisualStyle
  2
ColorChange
 70
    16
 71
     2
 72
     2
 73
     3
 90
        0
 40
-0.6
 41
-30.0
 62
     5
 63
     8
421
  8421504
 74
     1
 91
        4
 64
     7
 65
   257
 75
     1
175
     1
 42
1.0
 92
        8
 66
     8
424
  8421504
 43
1.0
 76
     1
 77
     6
 78
     2
 67
     7
 79
     5
170
     0
171
     0
290
     0
174
     0
 93
        1
 44
0.0
173
     0
291
     1
 45
0.0
  0
VISUALSTYLE
  5
34
102
{ACAD_REACTORS
330
2A
102
}
330
2A
100
AcDbVisualStyle
  2
Conceptual
 70
     9
 71
     3
 72
     2
 73
     0
 90
        0
 40
-0.6
 41
-30.0
 62
     5
 63
     7
421
 16777215
 74
     2
 91
        2
 64
     7
 65
   257
 75
     1
175
     1
 42
40.0
 92
        8
 66
     7
 43
1.0
 76
     1
 77
     6
 78
     2
 67
     7
 79
     3
170
     0
171
     0
290
     0
174
     0
 93
        1
 44
0.0
173
     0
291
     0
 45
0.0
  0
VISUALSTYLE
  5
35
102
{ACAD_REACTORS
330
2A
102
}
330
2A
100
AcDbVisualStyle
  2
Dim
 70
    11
 71
     2
 72
     2
 73
     0
 90
        0
 40
-0.6
 41
-30.0
 62
     5
 63
     7
421
 16777215
 74
     1
 91
        4
 64
     7
 65
   257
 75
     1
175
     1
 42
1.0
 92
        8
 66
     7
 43
1.0
 76
     1
 77
     6
 78
     2
 67
     7
 79
     5
170
     0
171
     0
290
     0
174
     0
 93
        1
 44
-50.0
173
     0
291
     1
 45
0.0
  0
VISUALSTYLE
  5
39
102
{ACAD_REACTORS
330
2A
102
}
330
2A
100
AcDbVisualStyle
  2
Facepattern
 70
    15
 71
     2
 72
     2
 73
     0
 90
        0
 40
-0.6
 41
-30.0
 62
     5
 63
     7
421
 16777215
 74
     1
 91
        4
 64
     7
 65
   257
 75
     1
175
     1
 42
1.0
 92
        8
 66
     7
 43
1.0
 76
     1
 77
     6
 78
     2
 67
     7
 79
     5
170
     0
171
     0
290
     0
174
     0
 93
        1
 44
0.0
173
     0
291
     1
 45
0.0
  0
VISUALSTYLE
  5
2B
102
{ACAD_REACTORS
330
2A
102
}
330
2A
100
AcDbVisualStyle
  2
Flat
 70
     0
 71
     2
 72
     1
 73
     1
 90
        2
 40
-0.6
 41
30.0
 62
     5
 63
     7
421
 16777215
 74
     0
 91
        4
 64
     7
 65
   257
 75
     1
175
     1
 42
1.0
 92
        8
 66
     7
 43
1.0
 76
     1
 77
     6
 78
     2
 67
     7
 79
     5
170
     0
171
     0
290
     0
174
     0
 93
       13
 44
0.0
173
     0
291
     1
 45
0.0
  0
VISUALSTYLE
  5
2C
102
{ACAD_REACTORS
330
2A
102
}
330
2A
100
AcDbVisualStyle
  2
FlatWithEdges
 70
     1
 71
     2
 72
     1
 73
     1
 90
        2
 40
-0.6
 41
30.0
 62
     5
 63
     7
421
 16777215
 74
     1
 91
        4
 64
     7
 65
   257
 75
     1
175
     1
 42
1.0
 92
        0
 66
   257
 43
1.0
 76
     1
 77
     6
 78
     2
 67
     7
 79
     5
170
     0
171
     0
290
     0
174
     0
 93
       13
 44
0.0
173
     0
291
     1
 45
0.0
  0
VISUALSTYLE
  5
2D
102
{ACAD_REACTORS
330
2A
102
}
330
2A
100
AcDbVisualStyle
  2
Gouraud
 70
     2
 71
     2
 72
     2
 73
     1
 90
        2
 40
-0.6
 41
30.0
 62
     5
 63
     7
421
 16777215
 74
     0
 91
        4
 64
     7
 65
   257
 75
     1
175
     1
 42
1.0
 92
        0
 66
     7
 43
1.0
 76
     1
 77
     6
 78
     2
 67
     7
 79
     5
170
     0
171
     0
290
     0
174
     0
 93
       13
 44
0.0
173
     0
291
     1
 45
0.0
  0
VISUALSTYLE
  5
2E
102
{ACAD_REACTORS
330
2A
102
}
330
2A
100
AcDbVisualStyle
  2
GouraudWithEdges
 70
     3
 71
     2
 72
     2
 73
     1
 90
        2
 40
-0.6
 41
30.0
 62
     5
 63
     7
421
 16777215
 74
     1
 91
        4
 64
     7
 65
   257
 75
     1
175
     1
 42
1.0
 92
        0
 66
   257
 43
1.0
 76
     1
 77
     6
 78
     2
 67
     7
 79
     5
170
     0
171
     0
290
     0
174
     0
 93
       13
 44
0.0
173
     0
291
     1
 45
0.0
  0
VISUALSTYLE
  5
38
102
{ACAD_REACTORS
330
2A
102
}
330
2A
100
AcDbVisualStyle
  2
Linepattern
 70
    14
 71
     2
 72
     2
 73
     0
 90
        0
 40
-0.6
 41
-30.0
 62
     5
 63
     7
421
 16777215
 74
     1
 91
        4
 64
     7
 65
   257
 75
     7
175
     7
 42
1.0
 92
        8
 66
     7
 43
1.0
 76
     1
 77
     6
 78
     2
 67
     7
 79
     5
170
     0
171
     0
290
     0
174
     0
 93
        1
 44
0.0
173
     0
291
     1
 45
0.0
  0
VISUALSTYLE
  5
33
102
{ACAD_REACTORS
330
2A
102
}
330
2A
100
AcDbVisualStyle
  2
Realistic
 70
     8
 71
     2
 72
     2
 73
     0
 90
        0
 40
-0.6
 41
-30.0
 62
     5
 63
     7
421
 16777215
 74
     1
 91
        0
 64
     7
 65
   257
 75
     1
175
     1
 42
1.0
 92
        8
 66
     8
424
  7895160
 43
1.0
 76
     1
 77
     6
 78
     2
 67
     7
 79
     5
170
     0
171
     0
290
     0
174
     0
 93
       13
 44
0.0
173
     0
291
     0
 45
0.0
  0
VISUALSTYLE
  5
37
102
{ACAD_REACTORS
330
2A
102
}
330
2A
100
AcDbVisualStyle
  2
Thicken
 70
    13
 71
     2
 72
     2
 73
     0
 90
        0
 40
-0.6
 41
-30.0
 62
     5
 63
     7
421
 16777215
 74
     1
 91
        4
 64
     7
 65
   257
 75
     1
175
     1
 42
1.0
 92
       12
 66
     7
 43
1.0
 76
     1
 77
     6
 78
     2
 67
     7
 79
     5
170
     0
171
     0
290
     0
174
     0
 93
        1
 44
0.0
173
     0
291
     1
 45
0.0
  0
ENDSEC
  0
EOF
