  0
SECTION
  2
HEADER
  9
$ACADVER
  1
AC1021
  9
$ACADMAINTVER
 70
    25
  9
$DWGCODEPAGE
  3
ANSI_1252
  9
$INSBASE
 10
0.0
 20
0.0
 30
0.0
  9
$EXTMIN
 10
0.0
 20
0.0
 30
0.0
  9
$EXTMAX
 10
420.0
 20
297.0
 30
0.0
  9
$LIMMIN
 10
0.0
 20
0.0
  9
$LIMMAX
 10
420.0
 20
297.0
  9
$ORTHOMODE
 70
     0
  9
$REGENMODE
 70
     1
  9
$FILLMODE
 70
     1
  9
$QTEXTMODE
 70
     0
  9
$MIRRTEXT
 70
     1
  9
$LTSCALE
 40
1.0
  9
$ATTMODE
 70
     1
  9
$TEXTSIZE
 40
3.5
  9
$TRACEWID
 40
1.0
  9
$TEXTSTYLE
  7
Standard
  9
$CLAYER
  8
0
  9
$CELTYPE
  6
ByLayer
  9
$CECOLOR
 62
   256
  9
$CELTSCALE
 40
1.0
  9
$DISPSILH
 70
     0
  9
$DIMSCALE
 40
1.0
  9
$DIMASZ
 40
3.302
  9
$DIMEXO
 40
1.0
  9
$DIMDLI
 40
3.75
  9
$DIMRND
 40
0.0
  9
$DIMDLE
 40
0.0
  9
$DIMEXE
 40
1.0
  9
$DIMTP
 40
0.0
  9
$DIMTM
 40
0.0
  9
$DIMTXT
 40
3.5
  9
$DIMCEN
 40
2.5
  9
$DIMTSZ
 40
0.0
  9
$DIMTOL
 70
     0
  9
$DIMLIM
 70
     0
  9
$DIMTIH
 70
     1
  9
$DIMTOH
 70
     1
  9
$DIMSE1
 70
     0
  9
$DIMSE2
 70
     0
  9
$DIMTAD
 70
     1
  9
$DIMZIN
 70
     0
  9
$DIMBLK
  1

  9
$DIMASO
 70
     1
  9
$DIMSHO
 70
     1
  9
$DIMPOST
  1

  9
$DIMAPOST
  1

  9
$DIMALT
 70
     0
  9
$DIMALTD
 70
     3
  9
$DIMALTF
 40
0.0393700787
  9
$DIMLFAC
 40
1.0
  9
$DIMTOFL
 70
     1
  9
$DIMTVP
 40
0.0
  9
$DIMTIX
 70
     0
  9
$DIMSOXD
 70
     0
  9
$DIMSAH
 70
     0
  9
$DIMBLK1
  1

  9
$DIMBLK2
  1

  9
$DIMSTYLE
  2
ISO-25
  9
$DIMCLRD
 70
     0
  9
$DIMCLRE
 70
     0
  9
$DIMCLRT
 70
     0
  9
$DIMTFAC
 40
1.0
  9
$DIMGAP
 40
1.524
  9
$DIMJUST
 70
     0
  9
$DIMSD1
 70
     0
  9
$DIMSD2
 70
     0
  9
$DIMTOLJ
 70
     0
  9
$DIMTZIN
 70
     0
  9
$DIMALTZ
 70
     0
  9
$DIMALTTZ
 70
     0
  9
$DIMUPT
 70
     0
  9
$DIMDEC
 70
     1
  9
$DIMTDEC
 70
     1
  9
$DIMALTU
 70
     2
  9
$DIMALTTD
 70
     3
  9
$DIMTXSTY
  7
Standard
  9
$DIMAUNIT
 70
     0
  9
$DIMADEC
 70
     1
  9
$DIMALTRND
 40
0.0
  9
$DIMAZIN
 70
     0
  9
$DIMDSEP
 70
    44
  9
$DIMATFIT
 70
     3
  9
$DIMFRAC
 70
     0
  9
$DIMLDRBLK
  1

  9
$DIMLUNIT
 70
     2
  9
$DIMLWD
 70
    -2
  9
$DIMLWE
 70
    -2
  9
$DIMTMOVE
 70
     0
  9
$DIMFXL
 40
1.0
  9
$DIMFXLON
 70
     0
  9
$DIMJOGANG
 40
0.7853981634
  9
$DIMTFILL
 70
     0
  9
$DIMTFILLCLR
 70
     0
  9
$DIMARCSYM
 70
     0
  9
$DIMLTYPE
  6

  9
$DIMLTEX1
  6

  9
$DIMLTEX2
  6

  9
$LUNITS
 70
     2
  9
$LUPREC
 70
     1
  9
$SKETCHINC
 40
1.0
  9
$FILLETRAD
 40
10.0
  9
$AUNITS
 70
     0
  9
$AUPREC
 70
     1
  9
$MENU
  1
.
  9
$ELEVATION
 40
0.0
  9
$PELEVATION
 40
0.0
  9
$THICKNESS
 40
0.0
  9
$LIMCHECK
 70
     0
  9
$CHAMFERA
 40
10.0
  9
$CHAMFERB
 40
10.0
  9
$CHAMFERC
 40
20.0
  9
$CHAMFERD
 40
0.0
  9
$SKPOLY
 70
     0
  9
$TDCREATE
 40
2455747.584385579
  9
$TDUCREATE
 40
2455747.542718912
  9
$TDUPDATE
 40
2455747.58438559
  9
$TDUUPDATE
 40
2455747.542718924
  9
$TDINDWG
 40
0.0000000116
  9
$TDUSRTIMER
 40
0.0000000116
  9
$USRTIMER
 70
     1
  9
$ANGBASE
 50
0.0
  9
$ANGDIR
 70
     0
  9
$PDMODE
 70
     0
  9
$PDSIZE
 40
-1.0
  9
$PLINEWID
 40
0.0
  9
$SPLFRAME
 70
     0
  9
$SPLINETYPE
 70
     6
  9
$SPLINESEGS
 70
     8
  9
$HANDSEED
  5
220
  9
$SURFTAB1
 70
     6
  9
$SURFTAB2
 70
     6
  9
$SURFTYPE
 70
     6
  9
$SURFU
 70
     6
  9
$SURFV
 70
     6
  9
$UCSBASE
  2

  9
$UCSNAME
  2

  9
$UCSORG
 10
0.0
 20
0.0
 30
0.0
  9
$UCSXDIR
 10
1.0
 20
0.0
 30
0.0
  9
$UCSYDIR
 10
0.0
 20
1.0
 30
0.0
  9
$UCSORTHOREF
  2

  9
$UCSORTHOVIEW
 70
     0
  9
$UCSORGTOP
 10
0.0
 20
0.0
 30
0.0
  9
$UCSORGBOTTOM
 10
0.0
 20
0.0
 30
0.0
  9
$UCSORGLEFT
 10
0.0
 20
0.0
 30
0.0
  9
$UCSORGRIGHT
 10
0.0
 20
0.0
 30
0.0
  9
$UCSORGFRONT
 10
0.0
 20
0.0
 30
0.0
  9
$UCSORGBACK
 10
0.0
 20
0.0
 30
0.0
  9
$PUCSBASE
  2

  9
$PUCSNAME
  2

  9
$PUCSORG
 10
0.0
 20
0.0
 30
0.0
  9
$PUCSXDIR
 10
1.0
 20
0.0
 30
0.0
  9
$PUCSYDIR
 10
0.0
 20
1.0
 30
0.0
  9
$PUCSORTHOREF
  2

  9
$PUCSORTHOVIEW
 70
     0
  9
$PUCSORGTOP
 10
0.0
 20
0.0
 30
0.0
  9
$PUCSORGBOTTOM
 10
0.0
 20
0.0
 30
0.0
  9
$PUCSORGLEFT
 10
0.0
 20
0.0
 30
0.0
  9
$PUCSORGRIGHT
 10
0.0
 20
0.0
 30
0.0
  9
$PUCSORGFRONT
 10
0.0
 20
0.0
 30
0.0
  9
$PUCSORGBACK
 10
0.0
 20
0.0
 30
0.0
  9
$USERI1
 70
     0
  9
$USERI2
 70
     0
  9
$USERI3
 70
     0
  9
$USERI4
 70
     0
  9
$USERI5
 70
     0
  9
$USERR1
 40
0.0
  9
$USERR2
 40
0.0
  9
$USERR3
 40
0.0
  9
$USERR4
 40
0.0
  9
$USERR5
 40
0.0
  9
$WORLDVIEW
 70
     1
  9
$SHADEDGE
 70
     3
  9
$SHADEDIF
 70
    70
  9
$TILEMODE
 70
     1
  9
$MAXACTVP
 70
    64
  9
$PINSBASE
 10
0.0
 20
0.0
 30
0.0
  9
$PLIMCHECK
 70
     0
  9
$PEXTMIN
 10
1.0000000000E+20
 20
1.0000000000E+20
 30
1.0000000000E+20
  9
$PEXTMAX
 10
-1.0000000000E+20
 20
-1.0000000000E+20
 30
-1.0000000000E+20
  9
$PLIMMIN
 10
0.0
 20
0.0
  9
$PLIMMAX
 10
420.0
 20
297.0
  9
$UNITMODE
 70
     0
  9
$VISRETAIN
 70
     1
  9
$PLINEGEN
 70
     0
  9
$PSLTSCALE
 70
     1
  9
$TREEDEPTH
 70
  3020
  9
$CMLSTYLE
  2
Standard
  9
$CMLJUST
 70
     0
  9
$CMLSCALE
 40
20.0
  9
$PROXYGRAPHICS
 70
     1
  9
$MEASUREMENT
 70
     1
  9
$CELWEIGHT
370
    -1
  9
$ENDCAPS
280
     0
  9
$JOINSTYLE
280
     0
  9
$LWDISPLAY
290
     1
  9
$INSUNITS
 70
     4
  9
$HYPERLINKBASE
  1

  9
$STYLESHEET
  1

  9
$XEDIT
290
     1
  9
$CEPSNTYPE
380
     0
  9
$PSTYLEMODE
290
     1
  9
$FINGERPRINTGUID
  2
{73049D40-DBD6-4E89-B52E-0CEAAC57591B}
  9
$VERSIONGUID
  2
{FAEB1C32-E019-11D5-929B-00C0DF256EC4}
  9
$EXTNAMES
290
     1
  9
$PSVPSCALE
 40
0.0
  9
$OLESTARTUP
290
     0
  9
$SORTENTS
280
   127
  9
$INDEXCTL
280
     0
  9
$HIDETEXT
280
     1
  9
$XCLIPFRAME
290
     0
  9
$HALOGAP
280
     0
  9
$OBSCOLOR
 70
   257
  9
$OBSLTYPE
280
     0
  9
$INTERSECTIONDISPLAY
280
     0
  9
$INTERSECTIONCOLOR
 70
   257
  9
$DIMASSOC
280
     2
  9
$PROJECTNAME
  1

  9
$CAMERADISPLAY
290
     0
  9
$LENSLENGTH
 40
50.0
  9
$CAMERAHEIGHT
 40
0.0
  9
$STEPSPERSEC
 40
2.0
  9
$STEPSIZE
 40
6.0
  9
$3DDWFPREC
 40
2.0
  9
$PSOLWIDTH
 40
5.0
  9
$PSOLHEIGHT
 40
80.0
  9
$LOFTANG1
 40
1.5707963268
  9
$LOFTANG2
 40
1.5707963268
  9
$LOFTMAG1
 40
0.0
  9
$LOFTMAG2
 40
0.0
  9
$LOFTPARAM
 70
     7
  9
$LOFTNORMALS
280
     1
  9
$LATITUDE
 40
37.795
  9
$LONGITUDE
 40
-122.394
  9
$NORTHDIRECTION
 40
0.0
  9
$TIMEZONE
 70
 -8000
  9
$LIGHTGLYPHDISPLAY
280
     1
  9
$TILEMODELIGHTSYNCH
280
     1
  9
$SOLIDHIST
280
     1
  9
$SHOWHIST
280
     1
  9
$DWFFRAME
280
     2
  9
$DGNFRAME
280
     2
  9
$REALWORLDSCALE
290
     1
  9
$INTERFERECOLOR
 62
   256
  9
$CSHADOW
280
     0
  9
$SHADOWPLANELOCATION
 40
0.0
  0
ENDSEC
  0
SECTION
  2
CLASSES
  0
CLASS
  1
ACDBDICTIONARYWDFLT
  2
AcDbDictionaryWithDefault
  3
ObjectDBX Classes
 90
        0
 91
        4
280
     0
281
     0
  0
CLASS
  1
VISUALSTYLE
  2
AcDbVisualStyle
  3
ObjectDBX Classes
 90
     4095
 91
        4
280
     0
281
     0
  0
CLASS
  1
MATERIAL
  2
AcDbMaterial
  3
ObjectDBX Classes
 90
     1153
 91
        4
280
     0
281
     0
  0
ENDSEC
  0
SECTION
  2
TABLES
  0
TABLE
  2
VPORT
  5
8
330
0
100
AcDbSymbolTable
 70
     1
  0
VPORT
  5
29
330
8
100
AcDbSymbolTableRecord
100
AcDbViewportTableRecord
  2
*Active
 70
     0
 10
0.0
 20
0.0
 11
1.0
 21
1.0
 12
210.0
 22
148.5
 13
0.0
 23
0.0
 14
10.0
 24
10.0
 15
10.0
 25
10.0
 16
0.0
 26
0.0
 36
1.0
 17
0.0
 27
0.0
 37
0.0
 40
297.0
 41
1.4141414141
 42
50.0
 43
0.0
 44
0.0
 50
0.0
 51
0.0
 71
     0
 72
  2000
 73
     1
 74
     3
 75
     0
 76
     0
 77
     0
 78
     0
281
     0
 65
     1
110
0.0
120
0.0
130
0.0
111
1.0
121
0.0
131
0.0
112
0.0
122
1.0
132
0.0
 79
     0
146
0.0
 60
     3
 61
     5
292
     1
282
     1
141
0.0
142
0.0
 63
   250
  0
ENDTAB
  0
TABLE
  2
LTYPE
  5
5
330
0
100
AcDbSymbolTable
 70
     6
  0
LTYPE
  5
14
330
5
100
AcDbSymbolTableRecord
100
AcDbLinetypeTableRecord
  2
ByBlock
 70
     0
  3

 72
    65
 73
     0
 40
0.0
  0
LTYPE
  5
15
330
5
100
AcDbSymbolTableRecord
100
AcDbLinetypeTableRecord
  2
ByLayer
 70
     0
  3

 72
    65
 73
     0
 40
0.0
  0
LTYPE
  5
16
330
5
100
AcDbSymbolTableRecord
100
AcDbLinetypeTableRecord
  2
Continuous
 70
     0
  3
Solid line
 72
    65
 73
     0
 40
0.0
  0
LTYPE
  5
3F
330
5
100
AcDbSymbolTableRecord
100
AcDbLinetypeTableRecord
  2
HIDDEN
 70
     0
  3
Hidden __ __ __ __ __ __ __ __ __ __ __ __ __ __
 72
    65
 73
     2
 40
1.905
 49
1.27
 74
     0
 49
-0.635
 74
     0
  0
LTYPE
  5
40
330
5
100
AcDbSymbolTableRecord
100
AcDbLinetypeTableRecord
  2
PHANTOM
 70
     0
  3
Phantom ______  __  __  ______  __  __  ______
 72
    65
 73
     6
 40
12.7
 49
6.35
 74
     0
 49
-1.27
 74
     0
 49
1.27
 74
     0
 49
-1.27
 74
     0
 49
1.27
 74
     0
 49
-1.27
 74
     0
  0
LTYPE
  5
41
330
5
100
AcDbSymbolTableRecord
100
AcDbLinetypeTableRecord
  2
CENTER
 70
     0
  3
Center ____ _ ____ _ ____ _ ____ _ ____ _ ____
 72
    65
 73
     4
 40
10.16
 49
6.35
 74
     0
 49
-1.27
 74
     0
 49
1.27
 74
     0
 49
-1.27
 74
     0
  0
LTYPE
  5
42
330
5
100
AcDbSymbolTableRecord
100
AcDbLinetypeTableRecord
  2
CENTERX2
 70
     0
  3
Center (2x) ________  __  ________  __  _____
 72
    65
 73
     4
 40
20.32
 49
12.7
 74
     0
 49
-2.54
 74
     0
 49
2.54
 74
     0
 49
-2.54
 74
     0
  0
LTYPE
  5
43
330
5
100
AcDbSymbolTableRecord
100
AcDbLinetypeTableRecord
  2
DOT2
 70
     0
  3
Dot (.5x) ........................................
 72
    65
 73
     2
 40
0.635
 49
0.0
 74
     0
 49
-0.635
 74
     0
  0
ENDTAB
  0
TABLE
  2
LAYER
  5
2
330
0
100
AcDbSymbolTable
 70
     1
  0
LAYER
  5
10
330
2
100
AcDbSymbolTableRecord
100
AcDbLayerTableRecord
  2
0
 70
     0
 62
     7
  6
Continuous
370
    -3
390
F
347
3E
  0
ENDTAB
  0
TABLE
  2
STYLE
  5
3
330
0
100
AcDbSymbolTable
 70
     1
  0
STYLE
  5
11
330
3
100
AcDbSymbolTableRecord
100
AcDbTextStyleTableRecord
  2
Standard
 70
     0
 40
0.0
 41
1.0
 50
0.0
 71
     0
 42
2.5
  3
txt
  4

  0
ENDTAB
  0
TABLE
  2
VIEW
  5
6
330
0
100
AcDbSymbolTable
 70
     0
  0
ENDTAB
  0
TABLE
  2
UCS
  5
7
330
0
100
AcDbSymbolTable
 70
     0
  0
ENDTAB
  0
TABLE
  2
APPID
  5
9
330
0
100
AcDbSymbolTable
 70
     1
  0
APPID
  5
12
330
9
100
AcDbSymbolTableRecord
100
AcDbRegAppTableRecord
  2
ACAD
 70
     0
  0
ENDTAB
  0
TABLE
  2
DIMSTYLE
  5
A
330
0
100
AcDbSymbolTable
 70
     1
100
AcDbDimStyleTable
  0
DIMSTYLE
105
27
330
A
100
AcDbSymbolTableRecord
100
AcDbDimStyleTableRecord
  2
ISO-25
 70
     0
 41
2.5
 42
0.625
 43
3.75
 44
1.25
 73
     0
 74
     0
 77
     1
 78
     8
140
2.5
141
2.5
143
0.0393700787
147
0.625
171
     3
172
     1
271
     2
272
     2
274
     3
278
    44
283
     0
284
     8
340
11
  0
ENDTAB
  0
TABLE
  2
BLOCK_RECORD
  5
1
330
0
100
AcDbSymbolTable
 70
     1
  0
BLOCK_RECORD
  5
1F
330
1
100
AcDbSymbolTableRecord
100
AcDbBlockTableRecord
  2
*Model_Space
340
22
 70
     0
280
     1
281
     0
  0
BLOCK_RECORD
  5
1B
330
1
100
AcDbSymbolTableRecord
100
AcDbBlockTableRecord
  2
*Paper_Space
340
1E
 70
     0
280
     1
281
     0
  0
BLOCK_RECORD
  5
23
330
1
100
AcDbSymbolTableRecord
100
AcDbBlockTableRecord
  2
*Paper_Space0
340
26
 70
     0
280
     1
281
     0
  0
ENDTAB
  0
ENDSEC
  0
SECTION
  2
BLOCKS
  0
BLOCK
  5
20
330
1F
100
AcDbEntity
  8
0
100
AcDbBlockBegin
  2
*Model_Space
 70
     0
 10
0.0
 20
0.0
 30
0.0
  3
*Model_Space
  1

  0
ENDBLK
  5
21
330
1F
100
AcDbEntity
  8
0
100
AcDbBlockEnd
  0
BLOCK
  5
1C
330
1B
100
AcDbEntity
 67
     1
  8
0
100
AcDbBlockBegin
  2
*Paper_Space
 70
     0
 10
0.0
 20
0.0
 30
0.0
  3
*Paper_Space
  1

  0
ENDBLK
  5
1D
330
1B
100
AcDbEntity
 67
     1
  8
0
100
AcDbBlockEnd
  0
BLOCK
  5
24
330
23
100
AcDbEntity
  8
0
100
AcDbBlockBegin
  2
*Paper_Space0
 70
     0
 10
0.0
 20
0.0
 30
0.0
  3
*Paper_Space0
  1

  0
ENDBLK
  5
25
330
23
100
AcDbEntity
  8
0
100
AcDbBlockEnd
  0
ENDSEC
  0
SECTION
  2
ENTITIES
  0
LINE
  5
44
330
1F
100
AcDbEntity
  8
0
  6
Continuous
 62
     7
370
    15
100
AcDbLine
 10
626.2258895148
 20
85.8670801696
 30
0.0
 11
626.2258895148
 21
86.3670811829
 31
0.0
  0
LINE
  5
45
330
1F
100
AcDbEntity
  8
0
  6
Continuous
 62
     7
370
    15
100
AcDbLine
 10
618.2258733023
 20
86.3670811829
 30
0.0
 11
618.2258733023
 21
85.8670801696
 31
0.0
  0
LINE
  5
46
330
1F
100
AcDbEntity
  8
0
  6
Continuous
 62
     7
370
    15
100
AcDbLine
 10
-7.6200134646
 20
-133.1329240623
 30
0.0
 11
-7.6200134646
 21
-104.1329099956
 31
0.0
  0
LINE
  5
47
330
1F
100
AcDbEntity
  8
0
  6
Continuous
 62
     7
370
    15
100
AcDbLine
 10
-64.2200104486
 20
-104.1329099956
 30
0.0
 11
-64.2200104486
 21
-133.1329240623
 31
0.0
  0
ARC
  5
48
330
1F
100
AcDbEntity
  8
0
  6
Continuous
 62
     7
370
    15
100
AcDbCircle
 10
-2.5200104982
 20
-42.6329202444
 30
0.0
 40
1.500000000000002
100
AcDbArc
 50
90.0
 51
180.0
  0
ARC
  5
49
330
1F
100
AcDbEntity
  8
0
  6
Continuous
 62
     7
370
    15
100
AcDbCircle
 10
-69.3200104982
 20
-42.6329202444
 30
0.0
 40
1.500000000000014
100
AcDbArc
 50
0.0
 51
90.0
  0
LINE
  5
4A
330
1F
100
AcDbEntity
  8
0
  6
Continuous
 62
     7
370
    15
100
AcDbLine
 10
-4.0200121294
 20
-98.1003537002
 30
0.0
 11
-4.0200121294
 21
-42.6329269233
 31
0.0
  0
LINE
  5
4B
330
1F
100
AcDbEntity
  8
0
  6
Continuous
 62
     7
370
    15
100
AcDbLine
 10
-67.8200117837
 20
-42.6329269233
 30
0.0
 11
-67.8200117837
 21
-98.1003537002
 31
0.0
  0
ARC
  5
4C
330
1F
100
AcDbEntity
  8
0
  6
Continuous
 62
     7
370
    15
100
AcDbCircle
 10
-8.7200104982
 20
-98.1003542987
 30
0.0
 40
4.700000000000037
100
AcDbArc
 50
350.5402980318
 51
0.0
  0
ARC
  5
4D
330
1F
100
AcDbEntity
  8
0
  6
Continuous
 62
     7
370
    15
100
AcDbCircle
 10
-63.1200104982
 20
-98.1003542987
 30
0.0
 40
4.699999999999989
100
AcDbArc
 50
180.0
 51
189.4597019682
  0
LINE
  5
4E
330
1F
100
AcDbEntity
  8
0
  6
Continuous
 62
     7
370
    15
100
AcDbLine
 10
-67.7560969781
 20
-98.8728298965
 30
0.0
 11
-66.8796591054
 21
-104.1329099956
 31
0.0
  0
LINE
  5
4F
330
1F
100
AcDbEntity
  8
0
  6
Continuous
 62
     7
370
    15
100
AcDbLine
 10
-4.9603573572
 20
-104.1329099956
 30
0.0
 11
-4.0839232098
 21
-98.8728298965
 31
0.0
  0
ARC
  5
50
330
1F
100
AcDbEntity
  8
0
  6
Continuous
 62
     7
370
    15
100
AcDbCircle
 10
-9.4200104982
 20
-137.1329202444
 30
0.0
 40
2.000000000000003
100
AcDbArc
 50
270.0
 51
0.0
  0
ARC
  5
51
330
1F
100
AcDbEntity
  8
0
  6
Continuous
 62
     7
370
    15
100
AcDbCircle
 10
-62.4200104982
 20
-137.1329202444
 30
0.0
 40
2.0
100
AcDbArc
 50
180.0
 51
270.0
  0
LINE
  5
52
330
1F
100
AcDbEntity
  8
0
  6
Continuous
 62
     7
370
    15
100
AcDbLine
 10
-7.420010079
 20
-137.1329321685
 30
0.0
 11
-7.420010079
 21
-133.1329240623
 31
0.0
  0
LINE
  5
53
330
1F
100
AcDbEntity
  8
0
  6
Continuous
 62
     7
370
    15
100
AcDbLine
 10
-64.4200101088
 20
-133.1329240623
 30
0.0
 11
-64.4200101088
 21
-137.1329321685
 31
0.0
  0
LINE
  5
54
330
1F
100
AcDbEntity
  8
0
  6
Continuous
 62
     7
370
    15
100
AcDbLine
 10
566.3799651374
 20
-133.1329240623
 30
0.0
 11
566.3799651374
 21
-104.1329099956
 31
0.0
  0
LINE
  5
55
330
1F
100
AcDbEntity
  8
0
  6
Continuous
 62
     7
370
    15
100
AcDbLine
 10
509.7799905051
 20
-104.1329099956
 30
0.0
 11
509.7799905051
 21
-133.1329240623
 31
0.0
  0
LINE
  5
56
330
1F
100
AcDbEntity
  8
0
  6
Continuous
 62
     7
370
    15
100
AcDbLine
 10
655.6800015677
 20
-7.4829205099
 30
0.0
 11
665.679992031
 21
-3.4829273048
 31
0.0
  0
LINE
  5
57
330
1F
100
AcDbEntity
  8
0
  6
Continuous
 62
     7
370
    15
100
AcDbLine
 10
658.4680088271
 20
56.401859301
 30
0.0
 11
655.6800015677
 21
57.5170771059
 31
0.0
  0
LINE
  5
58
330
1F
100
AcDbEntity
  8
0
  6
Continuous
 62
     7
370
    15
100
AcDbLine
 10
665.679992031
 20
53.5170839009
 30
0.0
 11
662.1968157996
 21
54.9103573737
 31
0.0
  0
LINE
  5
59
330
1F
100
AcDbEntity
  8
0
  6
Continuous
 62
     7
370
    15
100
AcDbLine
 10
665.679992031
 20
-3.4829273048
 30
0.0
 11
685.0903638114
 21
5.2517459568
 31
0.0
  0
LINE
  5
5A
330
1F
100
AcDbEntity
  8
0
  6
Continuous
 62
     7
370
    15
100
AcDbLine
 10
677.591205429
 20
48.1570170102
 30
0.0
 11
665.679992031
 21
53.5170839009
 31
0.0
  0
ARC
  5
5B
330
1F
100
AcDbEntity
  8
0
  6
Continuous
 62
     7
370
    15
100
AcDbCircle
 10
684.6799895018
 20
6.1636653656
 30
0.0
 40
1.000000000000025
100
AcDbArc
 50
294.227745318
 51
0.0
  0
LINE
  5
5C
330
1F
100
AcDbEntity
  8
0
  6
Continuous
 62
     7
370
    15
100
AcDbLine
 10
655.5799849738
 20
18.0611417469
 30
0.0
 11
655.6800015677
 21
18.0593983111
 31
0.0
  0
LINE
  5
5D
330
1F
100
AcDbEntity
  8
0
  6
Continuous
 62
     7
370
    15
100
AcDbLine
 10
662.2004516829
 20
54.9196705994
 30
0.0
 11
658.4718235243
 21
56.4111129221
 31
0.0
  0
LINE
  5
5E
330
1F
100
AcDbEntity
  8
0
  6
Continuous
 62
     7
370
    15
100
AcDbLine
 10
655.5799849738
 20
17.6970318732
 30
0.0
 11
655.6800015677
 21
17.6952884373
 31
0.0
  0
ARC
  5
5F
330
1F
100
AcDbEntity
  8
0
  6
Continuous
 62
     7
370
    15
100
AcDbCircle
 10
571.4799895018
 20
-42.6329202444
 30
0.0
 40
1.5
100
AcDbArc
 50
90.0
 51
180.0
  0
ARC
  5
60
330
1F
100
AcDbEntity
  8
0
  6
Continuous
 62
     7
370
    15
100
AcDbCircle
 10
504.6799895018
 20
-42.6329202444
 30
0.0
 40
1.500000000000057
100
AcDbArc
 50
0.0
 51
90.0
  0
ARC
  5
61
330
1F
100
AcDbEntity
  8
0
  6
Continuous
 62
     7
370
    15
100
AcDbCircle
 10
565.2799895018
 20
-98.1003542987
 30
0.0
 40
4.699999999999932
100
AcDbArc
 50
350.5402980318
 51
0.0
  0
ARC
  5
62
330
1F
100
AcDbEntity
  8
0
  6
Continuous
 62
     7
370
    15
100
AcDbCircle
 10
510.8799895018
 20
-98.1003542987
 30
0.0
 40
4.700000000000159
100
AcDbArc
 50
180.0
 51
189.4597019682
  0
LINE
  5
63
330
1F
100
AcDbEntity
  8
0
  6
Continuous
 62
     7
370
    15
100
AcDbLine
 10
569.9799664725
 20
-98.1003537002
 30
0.0
 11
569.9799664725
 21
-42.6329269233
 31
0.0
  0
LINE
  5
64
330
1F
100
AcDbEntity
  8
0
  6
Continuous
 62
     7
370
    15
100
AcDbLine
 10
506.1799891699
 20
-42.6329269233
 30
0.0
 11
506.1799891699
 21
-98.1003537002
 31
0.0
  0
LINE
  5
65
330
1F
100
AcDbEntity
  8
0
  6
Continuous
 62
     7
370
    15
100
AcDbLine
 10
506.2438853491
 20
-98.8728298965
 30
0.0
 11
507.1203120459
 21
-104.1329099956
 31
0.0
  0
LINE
  5
66
330
1F
100
AcDbEntity
  8
0
  6
Continuous
 62
     7
370
    15
100
AcDbLine
 10
569.0396435965
 20
-104.1329099956
 30
0.0
 11
569.9160702933
 21
-98.8728298965
 31
0.0
  0
LINE
  5
67
330
1F
100
AcDbEntity
  8
0
  6
Continuous
 62
     7
370
    15
100
AcDbLine
 10
-132.3200102489
 20
29.3670848784
 30
0.0
 11
-134.3200105767
 21
27.3670808253
 31
0.0
  0
LINE
  5
68
330
1F
100
AcDbEntity
  8
0
  6
Continuous
 62
     7
370
    15
100
AcDbLine
 10
-134.3200105767
 20
9.3670741495
 30
0.0
 11
-132.3200102489
 21
7.3670849976
 31
0.0
  0
LINE
  5
69
330
1F
100
AcDbEntity
  8
0
  6
Continuous
 62
     7
370
    15
100
AcDbLine
 10
-132.3200102489
 20
7.3670849976
 30
0.0
 11
-130.3200099211
 21
9.3670741495
 31
0.0
  0
LINE
  5
6A
330
1F
100
AcDbEntity
  8
0
  6
Continuous
 62
     7
370
    15
100
AcDbLine
 10
-130.3200099211
 20
27.3670808253
 30
0.0
 11
-132.3200102489
 21
29.3670848784
 31
0.0
  0
ARC
  5
6B
330
1F
100
AcDbEntity
  8
0
  6
Continuous
 62
     7
370
    15
100
AcDbCircle
 10
564.5799895018
 20
-137.1329202444
 30
0.0
 40
2.0
100
AcDbArc
 50
270.0
 51
0.0
  0
ARC
  5
6C
330
1F
100
AcDbEntity
  8
0
  6
Continuous
 62
     7
370
    15
100
AcDbCircle
 10
511.5799895018
 20
-137.1329202444
 30
0.0
 40
2.0
100
AcDbArc
 50
180.0
 51
270.0
  0
LINE
  5
6D
330
1F
100
AcDbEntity
  8
0
  6
Continuous
 62
     7
370
    15
100
AcDbLine
 10
566.5799983252
 20
-137.1329321685
 30
0.0
 11
566.5799983252
 21
-133.1329240623
 31
0.0
  0
LINE
  5
6E
330
1F
100
AcDbEntity
  8
0
  6
Continuous
 62
     7
370
    15
100
AcDbLine
 10
509.5800169219
 20
-133.1329240623
 30
0.0
 11
509.5800169219
 21
-137.1329321685
 31
0.0
  0
LINE
  5
6F
330
1F
100
AcDbEntity
  8
0
  6
Continuous
 62
     7
370
    15
100
AcDbLine
 10
-136.3200109046
 20
29.3670848784
 30
0.0
 11
-138.3200112324
 21
27.3670808253
 31
0.0
  0
LINE
  5
70
330
1F
100
AcDbEntity
  8
0
  6
Continuous
 62
     7
370
    15
100
AcDbLine
 10
-138.3200112324
 20
9.3670741495
 30
0.0
 11
-136.3200109046
 21
7.3670849976
 31
0.0
  0
LINE
  5
71
330
1F
100
AcDbEntity
  8
0
  6
Continuous
 62
     7
370
    15
100
AcDbLine
 10
-136.3200109046
 20
7.3670849976
 30
0.0
 11
-134.3200105767
 21
9.3670741495
 31
0.0
  0
LINE
  5
72
330
1F
100
AcDbEntity
  8
0
  6
Continuous
 62
     7
370
    15
100
AcDbLine
 10
-134.3200105767
 20
27.3670808253
 30
0.0
 11
-136.3200109046
 21
29.3670848784
 31
0.0
  0
LINE
  5
73
330
1F
100
AcDbEntity
  8
0
  6
Continuous
 62
     7
370
    15
100
AcDbLine
 10
640.5258782614
 20
85.8670801696
 30
0.0
 11
640.5258782614
 21
86.3670811829
 31
0.0
  0
LINE
  5
74
330
1F
100
AcDbEntity
  8
0
  6
Continuous
 62
     7
370
    15
100
AcDbLine
 10
632.525862049
 20
86.3670811829
 30
0.0
 11
632.525862049
 21
85.8670801696
 31
0.0
  0
LINE
  5
75
330
1F
100
AcDbEntity
  8
0
  6
Continuous
 62
     7
370
    15
100
AcDbLine
 10
-140.3200096976
 20
29.3670848784
 30
0.0
 11
-142.3200100254
 21
27.3670808253
 31
0.0
  0
LINE
  5
76
330
1F
100
AcDbEntity
  8
0
  6
Continuous
 62
     7
370
    15
100
AcDbLine
 10
-142.3200100254
 20
9.3670741495
 30
0.0
 11
-140.3200096976
 21
7.3670849976
 31
0.0
  0
LINE
  5
77
330
1F
100
AcDbEntity
  8
0
  6
Continuous
 62
     7
370
    15
100
AcDbLine
 10
-140.3200096976
 20
7.3670849976
 30
0.0
 11
-138.3200112324
 21
9.3670741495
 31
0.0
  0
LINE
  5
78
330
1F
100
AcDbEntity
  8
0
  6
Continuous
 62
     7
370
    15
100
AcDbLine
 10
-138.3200112324
 20
27.3670808253
 30
0.0
 11
-140.3200096976
 21
29.3670848784
 31
0.0
  0
LINE
  5
79
330
1F
100
AcDbEntity
  8
0
  6
Continuous
 62
     7
370
    15
100
AcDbLine
 10
655.2799947966
 20
12.9028365788
 30
0.0
 11
655.5799849738
 21
13.5879323658
 31
0.0
  0
LINE
  5
7A
330
1F
100
AcDbEntity
  8
0
  6
Continuous
 62
     7
370
    15
100
AcDbLine
 10
655.5799849738
 20
36.4462242302
 30
0.0
 11
655.2799947966
 21
37.1313200173
 31
0.0
  0
ARC
  5
7B
330
1F
100
AcDbEntity
  8
0
  6
Continuous
 62
     7
370
    15
100
AcDbCircle
 10
669.5799895018
 20
20.1170797556
 30
0.0
 40
0.4999999999998863
100
AcDbArc
 50
270.0
 51
360.0
  0
ARC
  5
7C
330
1F
100
AcDbEntity
  8
0
  6
Continuous
 62
     7
370
    15
100
AcDbCircle
 10
669.5799895018
 20
29.9170797557
 30
0.0
 40
0.4999999999998863
100
AcDbArc
 50
0.0
 51
90.0
  0
LINE
  5
7D
330
1F
100
AcDbEntity
  8
0
  6
Continuous
 62
     7
370
    15
100
AcDbLine
 10
655.5799849738
 20
19.6170762953
 30
0.0
 11
669.5799835433
 21
19.6170762953
 31
0.0
  0
LINE
  5
7E
330
1F
100
AcDbEntity
  8
0
  6
Continuous
 62
     7
370
    15
100
AcDbLine
 10
669.5799835433
 20
30.4170803007
 30
0.0
 11
655.5799849738
 21
30.4170803007
 31
0.0
  0
LINE
  5
7F
330
1F
100
AcDbEntity
  8
0
  6
Continuous
 62
     7
370
    15
100
AcDbLine
 10
-144.3200103532
 20
29.3670848784
 30
0.0
 11
-146.320010681
 21
27.3670808253
 31
0.0
  0
LINE
  5
80
330
1F
100
AcDbEntity
  8
0
  6
Continuous
 62
     7
370
    15
100
AcDbLine
 10
-146.320010681
 20
9.3670741495
 30
0.0
 11
-144.3200103532
 21
7.3670849976
 31
0.0
  0
LINE
  5
81
330
1F
100
AcDbEntity
  8
0
  6
Continuous
 62
     7
370
    15
100
AcDbLine
 10
-144.3200103532
 20
7.3670849976
 30
0.0
 11
-142.3200100254
 21
9.3670741495
 31
0.0
  0
LINE
  5
82
330
1F
100
AcDbEntity
  8
0
  6
Continuous
 62
     7
370
    15
100
AcDbLine
 10
-142.3200100254
 20
27.3670808253
 30
0.0
 11
-144.3200103532
 21
29.3670848784
 31
0.0
  0
LINE
  5
83
330
1F
100
AcDbEntity
  8
0
  6
Continuous
 62
     7
370
    15
100
AcDbLine
 10
-130.3200099211
 20
7.3670849976
 30
0.0
 11
-114.9200104702
 21
7.3670849976
 31
0.0
  0
LINE
  5
84
330
1F
100
AcDbEntity
  8
0
  6
Continuous
 62
     7
370
    15
100
AcDbLine
 10
-114.9200104702
 20
29.3670848784
 30
0.0
 11
-130.3200099211
 21
29.3670848784
 31
0.0
  0
LINE
  5
85
330
1F
100
AcDbEntity
  8
0
  6
Continuous
 62
     7
370
    15
100
AcDbLine
 10
662.1800072898
 20
-7.4829205099
 30
0.0
 11
672.179997753
 21
-3.4829273048
 31
0.0
  0
LINE
  5
86
330
1F
100
AcDbEntity
  8
0
  6
Continuous
 62
     7
370
    15
100
AcDbLine
 10
664.559126686
 20
56.5654293475
 30
0.0
 11
662.1800072898
 21
57.5170771059
 31
0.0
  0
LINE
  5
87
330
1F
100
AcDbEntity
  8
0
  6
Continuous
 62
     7
370
    15
100
AcDbLine
 10
672.179997753
 20
53.5170839009
 30
0.0
 11
669.1161401976
 21
54.7426150021
 31
0.0
  0
LINE
  5
88
330
1F
100
AcDbEntity
  8
0
  6
Continuous
 62
     7
370
    15
100
AcDbLine
 10
672.179997753
 20
-3.4829273048
 30
0.0
 11
691.5903695334
 21
5.2517459568
 31
0.0
  0
LINE
  5
89
330
1F
100
AcDbEntity
  8
0
  6
Continuous
 62
     7
370
    15
100
AcDbLine
 10
673.0821140517
 20
53.1111166653
 30
0.0
 11
672.179997753
 21
53.5170839009
 31
0.0
  0
ARC
  5
8A
330
1F
100
AcDbEntity
  8
0
  6
Continuous
 62
     7
370
    15
100
AcDbCircle
 10
691.1799895018
 20
6.1636653656
 30
0.0
 40
0.999999999999952
100
AcDbArc
 50
294.227745318
 51
0.0
  0
LINE
  5
8B
330
1F
100
AcDbEntity
  8
0
  6
Continuous
 62
     7
370
    15
100
AcDbLine
 10
669.1499360312
 20
54.7398880896
 30
0.0
 11
664.5024426688
 21
56.5988675532
 31
0.0
  0
LINE
  5
8C
330
1F
100
AcDbEntity
  8
0
  6
Continuous
 62
     7
370
    15
100
AcDbLine
 10
616.083026718
 20
202.6489556608
 30
0.0
 11
614.65644915
 21
202.1854298961
 31
0.0
  0
LINE
  5
8D
330
1F
100
AcDbEntity
  8
0
  6
Continuous
 62
     7
370
    15
100
AcDbLine
 10
635.7828982581
 20
142.0191035447
 30
0.0
 11
616.083026718
 21
202.6489556608
 31
0.0
  0
LINE
  5
8E
330
1F
100
AcDbEntity
  8
0
  6
Continuous
 62
     7
370
    15
100
AcDbLine
 10
634.35632069
 20
141.5555768487
 30
0.0
 11
635.7828982581
 21
142.0191035447
 31
0.0
  0
LINE
  5
8F
330
1F
100
AcDbEntity
  8
0
  6
Continuous
 62
     7
370
    15
100
AcDbLine
 10
637.32796986
 20
137.2638189074
 30
0.0
 11
635.9013922919
 21
136.8002959368
 31
0.0
  0
LWPOLYLINE
  5
90
330
1F
100
AcDbEntity
  8
0
  6
Continuous
 62
     7
370
    15
100
AcDbPolyline
 90
        9
 70
   128
 43
0.0
 10
635.7828982581
 20
142.0191035447
 10
636.0843189467
 20
141.0913945016
 10
636.3741763343
 20
140.1993364868
 10
636.6412647475
 20
139.3772096214
 10
636.8753917922
 20
138.6566118178
 10
637.0675571669
 20
138.0652294335
 10
637.2103698958
 20
137.6257941899
 10
637.2982867469
 20
137.3551928279
 10
637.32796986
 20
137.2638189074
  0
LINE
  5
91
330
1F
100
AcDbEntity
  8
0
  6
Continuous
 62
     7
370
    15
100
AcDbLine
 10
651.8113620986
 20
191.3884948459
 30
0.0
 11
650.3847845305
 21
190.9249693578
 31
0.0
  0
LINE
  5
92
330
1F
100
AcDbEntity
  8
0
  6
Continuous
 62
     7
370
    15
100
AcDbLine
 10
621.4030988921
 20
205.691878016
 30
0.0
 11
620.9396131743
 21
207.118463966
 31
0.0
  0
ARC
  5
93
330
1F
100
AcDbEntity
  8
0
  6
Continuous
 62
     7
370
    15
100
AcDbCircle
 10
628.5105058449
 20
183.8175784828
 30
0.0
 40
23.00000000000001
100
AcDbArc
 50
18.0
 51
108.0
  0
ARC
  5
94
330
1F
100
AcDbEntity
  8
0
  6
Continuous
 62
     7
370
    15
100
AcDbCircle
 10
628.5105058449
 20
183.8175784828
 30
0.0
 40
24.50000000000002
100
AcDbArc
 50
18.0
 51
108.0
  0
LINE
  5
95
330
1F
100
AcDbEntity
  8
0
  6
Continuous
 62
     7
370
    15
100
AcDbLine
 10
652.5478966941
 20
184.2675737877
 30
0.0
 11
653.9745338668
 21
184.7310990867
 31
0.0
  0
LWPOLYLINE
  5
96
330
1F
100
AcDbEntity
  8
0
  6
Continuous
 62
     7
370
    15
100
AcDbPolyline
 90
        9
 70
   128
 43
0.0
 10
653.9745338668
 20
184.7310990867
 10
654.577375244
 20
182.8756800693
 10
655.1570900191
 20
181.0915631083
 10
655.6913264502
 20
179.4473121715
 10
656.1595805396
 20
178.0061137703
 10
656.5439112891
 20
176.8233536583
 10
656.8294771422
 20
175.9444831711
 10
657.0053108443
 20
175.4032776532
 10
657.0646770705
 20
175.2205335376
  0
LINE
  5
97
330
1F
100
AcDbEntity
  8
0
  6
Continuous
 62
     7
370
    15
100
AcDbLine
 10
657.0646770705
 20
175.2205335376
 30
0.0
 11
655.6380995024
 21
174.7570087042
 31
0.0
  0
LWPOLYLINE
  5
98
330
1F
100
AcDbEntity
  8
0
  6
Continuous
 62
     7
370
    15
100
AcDbPolyline
 90
        9
 70
   128
 43
0.0
 10
655.6380995024
 20
174.7570087042
 10
655.5787332762
 20
174.9397509572
 10
655.4028399695
 20
175.4809574065
 10
655.117333721
 20
176.3598278937
 10
654.7330029715
 20
177.542588937
 10
654.2647488822
 20
178.9837864068
 10
653.7304528464
 20
180.6280382749
 10
653.150797676
 20
182.4121543047
 10
652.5478966941
 20
184.2675737877
  0
LINE
  5
99
330
1F
100
AcDbEntity
  8
0
  6
Continuous
 62
     7
370
    15
100
AcDbLine
 10
651.8113620986
 20
191.3884948459
 30
0.0
 11
653.9745338668
 21
184.7310990867
 31
0.0
  0
LINE
  5
9A
330
1F
100
AcDbEntity
  8
0
  6
Continuous
 62
     7
370
    15
100
AcDbLine
 10
650.3847845305
 20
190.9249693578
 30
0.0
 11
652.5478966941
 21
184.2675737877
 31
0.0
  0
ARC
  5
9B
330
1F
100
AcDbEntity
  8
0
  6
Continuous
 62
     7
370
    15
100
AcDbCircle
 10
617.2718677648
 20
203.035226989
 30
0.0
 40
2.750000000000081
100
AcDbArc
 50
108.0
 51
198.0
  0
LINE
  5
9C
330
1F
100
AcDbEntity
  8
0
  6
Continuous
 62
     7
370
    15
100
AcDbLine
 10
616.4220579375
 20
205.6506325331
 30
0.0
 11
616.8856032599
 21
204.2240475145
 31
0.0
  0
ARC
  5
9D
330
1F
100
AcDbEntity
  8
0
  6
Continuous
 62
     7
370
    15
100
AcDbCircle
 10
617.2718677648
 20
203.035226989
 30
0.0
 40
1.250000000000049
100
AcDbArc
 50
108.0
 51
198.0
  0
LINE
  5
9E
330
1F
100
AcDbEntity
  8
0
  6
Continuous
 62
     7
370
    15
100
AcDbLine
 10
616.4220579375
 20
205.6506325331
 30
0.0
 11
620.9396131743
 21
207.118463966
 31
0.0
  0
LINE
  5
9F
330
1F
100
AcDbEntity
  8
0
  6
Continuous
 62
     7
370
    15
100
AcDbLine
 10
616.8856032599
 20
204.2240475145
 30
0.0
 11
621.4030988921
 21
205.691878016
 31
0.0
  0
LINE
  5
A0
330
1F
100
AcDbEntity
  8
0
  6
Continuous
 62
     7
370
    15
100
AcDbLine
 10
591.8799646605
 20
223.8668606457
 30
0.0
 11
591.8799646605
 21
225.3600091514
 31
0.0
  0
LINE
  5
A1
330
1F
100
AcDbEntity
  8
0
  6
Continuous
 62
     7
370
    15
100
AcDbLine
 10
614.2450578917
 20
209.3354065743
 30
0.0
 11
614.4863970984
 21
209.4413072643
 31
0.0
  0
ARC
  5
A2
330
1F
100
AcDbEntity
  8
0
  6
Continuous
 62
     7
370
    15
100
AcDbCircle
 10
613.4414466815
 20
211.1668623633
 30
0.0
 40
2.000000000000049
100
AcDbArc
 50
270.0
 51
293.6906453817
  0
LINE
  5
A3
330
1F
100
AcDbEntity
  8
0
  6
Continuous
 62
     7
370
    15
100
AcDbLine
 10
595.8608992804
 20
223.8668606457
 30
0.0
 11
595.8608992804
 21
209.1668632653
 31
0.0
  0
LINE
  5
A4
330
1F
100
AcDbEntity
  8
0
  6
Continuous
 62
     7
370
    15
100
AcDbLine
 10
589.3608935584
 20
226.6668633398
 30
0.0
 11
595.8608992804
 21
226.6668633398
 31
0.0
  0
LINE
  5
A5
330
1F
100
AcDbEntity
  8
0
  6
Continuous
 62
     7
370
    15
100
AcDbLine
 10
589.3608935584
 20
261.6668597636
 30
0.0
 11
589.3608935584
 21
226.6668633398
 31
0.0
  0
ARC
  5
A6
330
1F
100
AcDbEntity
  8
0
  6
Continuous
 62
     7
370
    15
100
AcDbCircle
 10
591.3609198308
 20
261.6668623633
 30
0.0
 40
2.0
100
AcDbArc
 50
90.0
 51
180.0
  0
LINE
  5
A7
330
1F
100
AcDbEntity
  8
0
  6
Continuous
 62
     7
370
    15
100
AcDbLine
 10
628.3609278907
 20
263.6668638167
 30
0.0
 11
591.3609274138
 21
263.6668638167
 31
0.0
  0
ARC
  5
A8
330
1F
100
AcDbEntity
  8
0
  6
Continuous
 62
     7
370
    15
100
AcDbCircle
 10
628.4609198308
 20
240.6670797557
 30
0.0
 40
23.00000000000001
100
AcDbArc
 50
296.1145004007
 51
90.2491128697
  0
LINE
  5
A9
330
1F
100
AcDbEntity
  8
0
  6
Continuous
 62
     7
370
    15
100
AcDbLine
 10
614.2440446128
 20
209.3353935358
 30
0.0
 11
638.584733795
 21
220.0150073346
 31
0.0
  0
ARC
  5
AA
330
1F
100
AcDbEntity
  8
0
  6
Continuous
 62
     7
370
    15
100
AcDbCircle
 10
613.4404508776
 20
211.1668623633
 30
0.0
 40
2.0
100
AcDbArc
 50
270.0
 51
293.6896982314
  0
LINE
  5
AB
330
1F
100
AcDbEntity
  8
0
  6
Continuous
 62
     7
370
    15
100
AcDbLine
 10
595.8608992804
 20
209.1668632653
 30
0.0
 11
613.4404547919
 21
209.1668632653
 31
0.0
  0
ARC
  5
AC
330
1F
100
AcDbEntity
  8
0
  6
Continuous
 62
     7
370
    15
100
AcDbCircle
 10
616.4609198308
 20
230.9725206919
 30
0.0
 40
0.2503511010932462
100
AcDbArc
 50
79.8945592916
 51
263.9942235051
  0
ARC
  5
AD
330
1F
100
AcDbEntity
  8
0
  6
Continuous
 62
     7
370
    15
100
AcDbCircle
 10
615.9609198308
 20
228.1670797557
 30
0.0
 40
2.599999999999997
100
AcDbArc
 50
280.4998591652
 51
79.5001408348
  0
ARC
  5
AE
330
1F
100
AcDbEntity
  8
0
  6
Continuous
 62
     7
370
    15
100
AcDbCircle
 10
616.4609198308
 20
225.3616388194
 30
0.0
 40
0.2503511010932655
100
AcDbArc
 50
96.0057764951
 51
280.1054407084
  0
ARC
  5
AF
330
1F
100
AcDbEntity
  8
0
  6
Continuous
 62
     7
370
    15
100
AcDbCircle
 10
615.9609198308
 20
228.1670797557
 30
0.0
 40
3.100000000000009
100
AcDbArc
 50
280.1054407084
 51
79.8945592916
  0
ARC
  5
B0
330
1F
100
AcDbEntity
  8
0
  6
Continuous
 62
     7
370
    15
100
AcDbCircle
 10
615.9609198308
 20
228.1670797557
 30
0.0
 40
3.100000000000044
100
AcDbArc
 50
100.8891073053
 51
259.1110070997
  0
ARC
  5
B1
330
1F
100
AcDbEntity
  8
0
  6
Continuous
 62
     7
370
    15
100
AcDbCircle
 10
615.4226071538
 20
225.3687666077
 30
0.0
 40
0.250379496815768
100
AcDbArc
 50
259.1110070997
 51
83.3730607602
  0
ARC
  5
B2
330
1F
100
AcDbEntity
  8
0
  6
Continuous
 62
     7
370
    15
100
AcDbCircle
 10
615.9609198308
 20
228.1670797557
 30
0.0
 40
2.600000000000008
100
AcDbArc
 50
101.3148497955
 51
258.700947069
  0
ARC
  5
B3
330
1F
100
AcDbEntity
  8
0
  6
Continuous
 62
     7
370
    15
100
AcDbCircle
 10
615.4226071538
 20
230.9653627834
 30
0.0
 40
0.2504090746769378
100
AcDbArc
 50
276.4642622073
 51
100.8891073054
  0
LINE
  5
B4
330
1F
100
AcDbEntity
  8
0
  6
Continuous
 62
     7
370
    15
100
AcDbLine
 10
595.8608992804
 20
226.6668633398
 30
0.0
 11
595.8608992804
 21
223.8668606457
 31
0.0
  0
LINE
  5
B5
330
1F
100
AcDbEntity
  8
0
  6
Continuous
 62
     7
370
    15
100
AcDbLine
 10
595.8608992804
 20
209.1668632653
 30
0.0
 11
593.4109099616
 21
209.1668632653
 31
0.0
  0
LINE
  5
B6
330
1F
100
AcDbEntity
  8
0
  6
Continuous
 62
     7
370
    15
100
AcDbLine
 10
593.4109099616
 20
223.8668606457
 30
0.0
 11
593.4109099616
 21
209.1668632653
 31
0.0
  0
LINE
  5
B7
330
1F
100
AcDbEntity
  8
0
  6
Continuous
 62
     7
370
    15
100
AcDbLine
 10
593.4109099616
 20
223.8668606457
 30
0.0
 11
595.8608992804
 21
223.8668606457
 31
0.0
  0
LINE
  5
B8
330
1F
100
AcDbEntity
  8
0
  6
Continuous
 62
     7
370
    15
100
AcDbLine
 10
592.6799782027
 20
209.1668632653
 30
0.0
 11
593.4109099616
 21
209.1668632653
 31
0.0
  0
LINE
  5
B9
330
1F
100
AcDbEntity
  8
0
  6
Continuous
 62
     7
370
    15
100
AcDbLine
 10
593.4109099616
 20
223.8668606457
 30
0.0
 11
592.6799782027
 21
223.8668606457
 31
0.0
  0
LINE
  5
BA
330
1F
100
AcDbEntity
  8
0
  6
Continuous
 62
     7
370
    15
100
AcDbLine
 10
9.0799861063
 20
-41.1329164329
 30
0.0
 11
9.0799861063
 21
-39.4329174581
 31
0.0
  0
LINE
  5
BB
330
1F
100
AcDbEntity
  8
0
  6
Continuous
 62
     7
370
    15
100
AcDbLine
 10
-80.9200100194
 20
-41.1329164329
 30
0.0
 11
9.0799861063
 21
-41.1329164329
 31
0.0
  0
LINE
  5
BC
330
1F
100
AcDbEntity
  8
0
  6
Continuous
 62
     7
370
    15
100
AcDbLine
 10
-80.9200100194
 20
-41.1329164329
 30
0.0
 11
-80.9200100194
 21
-39.4329174581
 31
0.0
  0
LINE
  5
BD
330
1F
100
AcDbEntity
  8
0
  6
Continuous
 62
     7
370
    15
100
AcDbLine
 10
-4.9603573572
 20
-104.1329099956
 30
0.0
 11
-66.8796591054
 21
-104.1329099956
 31
0.0
  0
LINE
  5
BE
330
1F
100
AcDbEntity
  8
0
  6
Continuous
 62
     7
370
    15
100
AcDbLine
 10
-9.4200141321
 20
-139.1329064193
 30
0.0
 11
-62.420009781
 21
-139.1329064193
 31
0.0
  0
LINE
  5
BF
330
1F
100
AcDbEntity
  8
0
  6
Continuous
 62
     7
370
    15
100
AcDbLine
 10
-7.420010079
 20
-133.1329240623
 30
0.0
 11
-64.4200101088
 21
-133.1329240623
 31
0.0
  0
LINE
  5
C0
330
1F
100
AcDbEntity
  8
0
  6
Continuous
 62
     7
370
    15
100
AcDbLine
 10
590.6299956549
 20
224.1170809445
 30
0.0
 11
-112.870010693
 21
224.1170809445
 31
0.0
  0
LINE
  5
C1
330
1F
100
AcDbEntity
  8
0
  6
Continuous
 62
     7
370
    15
100
AcDbLine
 10
590.6299956549
 20
-37.3829200092
 30
0.0
 11
590.6299956549
 21
224.1170809445
 31
0.0
  0
LINE
  5
C2
330
1F
100
AcDbEntity
  8
0
  6
Continuous
 62
     7
370
    15
100
AcDbLine
 10
-112.870010693
 20
-37.3829200092
 30
0.0
 11
590.6299956549
 21
-37.3829200092
 31
0.0
  0
LINE
  5
C3
330
1F
100
AcDbEntity
  8
0
  6
Continuous
 62
     7
370
    15
100
AcDbLine
 10
-112.870010693
 20
224.1170809445
 30
0.0
 11
-112.870010693
 21
-37.3829200092
 31
0.0
  0
LINE
  5
C4
330
1F
100
AcDbEntity
  8
0
  6
Continuous
 62
     7
370
    15
100
AcDbLine
 10
591.8729313124
 20
-39.4329174581
 30
0.0
 11
-114.1129393655
 21
-39.4329174581
 31
0.0
  0
SPLINE
  5
C5
330
1F
100
AcDbEntity
  8
0
  6
Continuous
 62
     7
370
    15
100
AcDbSpline
210
0.0
220
0.0
230
1.0
 70
     8
 71
     3
 72
    22
 73
    18
 74
     0
 42
0.00000001
 43
0.00000001
 40
0.0
 40
0.0
 40
0.0
 40
0.0
 40
0.125
 40
0.125
 40
0.25
 40
0.25
 40
0.375
 40
0.375
 40
0.5
 40
0.5
 40
0.625
 40
0.625
 40
0.75
 40
0.75
 40
0.875
 40
0.875
 40
1.0
 40
1.0
 40
1.0
 40
1.0
 10
-114.1129394304096
 20
-39.43292024434902
 30
0.0
 10
-114.0606886335204
 20
-39.43292024434902
 30
0.0
 10
-114.0092452401939
 20
-39.41962169566629
 30
0.0
 10
-113.9062195017277
 20
-39.36759927275854
 30
0.0
 10
-113.8542512574808
 20
-39.32846760411016
 30
0.0
 10
-113.7502180371201
 20
-39.2253333956191
 30
0.0
 10
-113.6988640816651
 20
-39.16224984621747
 30
0.0
 10
-113.59575559623
 20
-39.01396493521819
 30
0.0
 10
-113.5434603231859
 20
-38.92770463302983
 30
0.0
 10
-113.4398023874646
 20
-38.73784660126309
 30
0.0
 10
-113.3884965437165
 20
-38.63462422849886
 30
0.0
 10
-113.2852202323127
 20
-38.41228258098442
 30
0.0
 10
-113.2327909652606
 20
-38.29197770275475
 30
0.0
 10
-113.1294202719455
 20
-38.04460187187345
 30
0.0
 10
-113.0781225044247
 20
-37.91685507113191
 30
0.0
 10
-112.9745930474045
 20
-37.65384099255517
 30
0.0
 10
-112.9222612965238
 20
-37.51828960283407
 30
0.0
 10
-112.8700104982216
 20
-37.38292024434897
 30
0.0
  0
SPLINE
  5
C6
330
1F
100
AcDbEntity
  8
0
  6
Continuous
 62
     7
370
    15
100
AcDbSpline
210
0.0
220
0.0
230
1.0
 70
     8
 71
     3
 72
    12
 73
     8
 74
     0
 42
0.00000001
 43
0.00000001
 40
0.0
 40
0.0
 40
0.0
 40
0.0
 40
0.2353765491035286
 40
0.5035692612727682
 40
0.7398084535179308
 40
0.9425275127247201
 40
1.0
 40
1.0
 40
1.0
 40
1.0
 10
590.6299956549339
 20
-37.38292000919624
 30
0.0
 10
590.7716803537488
 20
-37.61662284401879
 30
0.0
 10
591.0748034107729
 20
-38.11661132773641
 30
0.0
 10
591.4855713403452
 20
-38.78616923378586
 30
0.0
 10
591.7410982068163
 20
-39.26239477310539
 30
0.0
 10
591.8426514008875
 20
-39.42185278352103
 30
0.0
 10
591.8674530031327
 20
-39.43091561244916
 30
0.0
 10
591.8729313124351
 20
-39.43291745811744
 30
0.0
  0
SPLINE
  5
C7
330
1F
100
AcDbEntity
  8
0
  6
Continuous
 62
     7
370
    15
100
AcDbSpline
210
0.0
220
0.0
230
1.0
 70
     8
 71
     3
 72
    32
 73
    28
 74
     0
 42
0.00000001
 43
0.00000001
 40
0.0
 40
0.0
 40
0.0
 40
0.0
 40
0.25
 40
0.25
 40
0.375
 40
0.375
 40
0.4375
 40
0.4375
 40
0.46875
 40
0.46875
 40
0.484375
 40
0.484375
 40
0.4921875
 40
0.4921875
 40
0.49609375
 40
0.49609375
 40
0.498046875
 40
0.498046875
 40
0.5
 40
0.5
 40
0.625
 40
0.625
 40
0.75
 40
0.75
 40
0.875
 40
0.875
 40
1.0
 40
1.0
 40
1.0
 40
1.0
 10
591.872918433966
 20
226.1670797556512
 30
0.0
 10
591.8322439305998
 20
226.1670797556512
 30
0.0
 10
591.7752816769469
 20
226.0746979906321
 30
0.0
 10
591.6647641900367
 20
225.8698325829199
 30
0.0
 10
591.6237817033835
 20
225.7905294943139
 30
0.0
 10
591.5560929868799
 20
225.6631196396591
 30
0.0
 10
591.5324942502915
 20
225.6192272762392
 30
0.0
 10
591.4955423987775
 20
225.5521286034631
 30
0.0
 10
591.4829661571674
 20
225.5295513398843
 30
0.0
 10
591.4637133580949
 20
225.4954686993605
 30
0.0
 10
591.4572310189612
 20
225.4840716288278
 30
0.0
 10
591.447410401096
 20
225.466933615951
 30
0.0
 10
591.4441206769471
 20
225.461213872977
 30
0.0
 10
591.4391618134323
 20
225.4526250977466
 30
0.0
 10
591.4375048127121
 20
225.4497606456138
 30
0.0
 10
591.435013242309
 20
225.4454618553889
 30
0.0
 10
591.4341817072878
 20
225.4440285732934
 30
0.0
 10
591.4325166141374
 20
225.4411613346248
 30
0.0
 10
591.4312936035211
 20
225.4390580707764
 30
0.0
 10
591.4023609857896
 20
225.3893349025032
 30
0.0
 10
591.3643107982099
 20
225.3278293374884
 30
0.0
 10
591.2690850489621
 20
225.1748300535179
 30
0.0
 10
591.2119094872941
 20
225.0832612168795
 30
0.0
 10
591.0784329898695
 20
224.8659112809677
 30
0.0
 10
591.002132054113
 20
224.7400232202879
 30
0.0
 10
590.8304048085116
 20
224.4533016990939
 30
0.0
 10
590.7350413740767
 20
224.2924446129531
 30
0.0
 10
590.6299895017779
 20
224.1170797556509
 30
0.0
  0
SPLINE
  5
C8
330
1F
100
AcDbEntity
  8
0
  6
Continuous
 62
     7
370
    15
100
AcDbSpline
210
0.0
220
0.0
230
1.0
 70
     8
 71
     3
 72
    14
 73
    10
 74
     0
 42
0.00000001
 43
0.00000001
 40
0.0
 40
0.0
 40
0.0
 40
0.0
 40
0.25
 40
0.25
 40
0.5
 40
0.5
 40
0.75
 40
0.75
 40
1.0
 40
1.0
 40
1.0
 40
1.0
 10
-112.8700104982216
 20
224.117079755651
 30
0.0
 10
-112.9736041624614
 20
224.3854662363732
 30
0.0
 10
-113.077165320253
 20
224.6536629185875
 30
0.0
 10
-113.2843201422843
 20
225.1494986654114
 30
0.0
 10
-113.3878975533
 20
225.3769005315997
 30
0.0
 10
-113.5950523753313
 20
225.7563967825674
 30
0.0
 10
-113.698629786347
 20
225.9083418517774
 30
0.0
 10
-113.9057846083784
 20
226.1137237428212
 30
0.0
 10
-114.0093457661698
 20
226.1670797556511
 30
0.0
 10
-114.1129394304097
 20
226.1670797556511
 30
0.0
  0
LINE
  5
C9
330
1F
100
AcDbEntity
  8
0
  6
Continuous
 62
     7
370
    15
100
AcDbLine
 10
591.8729313124
 20
226.1670783934
 30
0.0
 11
-113.720010646
 21
226.1670783934
 31
0.0
  0
LINE
  5
CA
330
1F
100
AcDbEntity
  8
0
  6
Continuous
 62
     7
370
    15
100
AcDbLine
 10
592.6799782027
 20
-38.6258556667
 30
0.0
 11
591.8799646605
 21
-38.6258556667
 31
0.0
  0
SPLINE
  5
CB
330
1F
100
AcDbEntity
  8
0
  6
Continuous
 62
     7
370
    15
100
AcDbSpline
210
0.0
220
0.0
230
1.0
 70
     8
 71
     3
 72
    14
 73
    10
 74
     0
 42
0.00000001
 43
0.00000001
 40
0.0
 40
0.0
 40
0.0
 40
0.0
 40
0.25
 40
0.25
 40
0.5
 40
0.5
 40
0.75
 40
0.75
 40
1.0
 40
1.0
 40
1.0
 40
1.0
 10
591.8799895017784
 20
-38.62584917653694
 30
0.0
 10
591.8799895017786
 20
-38.52227176552125
 30
0.0
 10
591.8474553476138
 20
-38.41869435450565
 30
0.0
 10
591.7222224872212
 20
-38.21153953247422
 30
0.0
 10
591.6295730547763
 20
-38.10796212145864
 30
0.0
 10
591.3981729017468
 20
-37.90080729942719
 30
0.0
 10
591.2595132272422
 20
-37.79722988841156
 30
0.0
 10
590.9571743572275
 20
-37.59007506638021
 30
0.0
 10
590.793614119153
 20
-37.48649765536454
 30
0.0
 10
590.6299895017784
 20
-37.38292024434886
 30
0.0
  0
SPLINE
  5
CC
330
1F
100
AcDbEntity
  8
0
  6
Continuous
 62
     7
370
    15
100
AcDbSpline
210
0.0
220
0.0
230
1.0
 70
     8
 71
     3
 72
    14
 73
    10
 74
     0
 42
0.00000001
 43
0.00000001
 40
0.0
 40
0.0
 40
0.0
 40
0.0
 40
0.25
 40
0.25
 40
0.5
 40
0.5
 40
0.75
 40
0.75
 40
1.0
 40
1.0
 40
1.0
 40
1.0
 10
592.6799895017784
 20
-38.625849176537
 30
0.0
 10
592.6799895017784
 20
-38.5222555122971
 30
0.0
 10
592.6266334889488
 20
-38.41869435450565
 30
0.0
 10
592.4212515979049
 20
-38.2115395324743
 30
0.0
 10
592.2693065286948
 20
-38.10796212145864
 30
0.0
 10
591.8898102777271
 20
-37.9008072994273
 30
0.0
 10
591.662408411539
 20
-37.79722988841158
 30
0.0
 10
591.1665726647151
 20
-37.59007506638024
 30
0.0
 10
590.8983759825004
 20
-37.48651390858865
 30
0.0
 10
590.6299895017786
 20
-37.38292024434889
 30
0.0
  0
SPLINE
  5
CD
330
1F
100
AcDbEntity
  8
0
  6
Continuous
 62
     7
370
    15
100
AcDbSpline
210
0.0
220
0.0
230
1.0
 70
     8
 71
     3
 72
    12
 73
     8
 74
     0
 42
0.00000001
 43
0.00000001
 40
0.0
 40
0.0
 40
0.0
 40
0.0
 40
0.3486126129694923
 40
0.571569772647335
 40
0.7575495581812055
 40
0.944514958924568
 40
1.0
 40
1.0
 40
1.0
 40
1.0
 10
590.6299956549339
 20
-37.38292000919624
 30
0.0
 10
590.8259086234698
 20
-37.57801057192611
 30
0.0
 10
591.1471188342274
 20
-37.89787240261355
 30
0.0
 10
591.5238706012964
 20
-38.28364473116122
 30
0.0
 10
591.7424298502087
 20
-38.52900594134484
 30
0.0
 10
591.8410593935268
 20
-38.62540386748767
 30
0.0
 10
591.866995749767
 20
-38.63151929501873
 30
0.0
 10
591.8729313124351
 20
-38.63291881710335
 30
0.0
  0
LINE
  5
CE
330
1F
100
AcDbEntity
  8
0
  6
Continuous
 62
     7
370
    15
100
AcDbLine
 10
591.8729313124
 20
-39.4329174581
 30
0.0
 11
591.8729313124
 21
-38.6329188171
 31
0.0
  0
SPLINE
  5
CF
330
1F
100
AcDbEntity
  8
0
  6
Continuous
 62
     7
370
    15
100
AcDbSpline
210
0.0
220
0.0
230
1.0
 70
     8
 71
     3
 72
    12
 73
     8
 74
     0
 42
0.00000001
 43
0.00000001
 40
0.0
 40
0.0
 40
0.0
 40
0.0
 40
0.2301612310853317
 40
0.4604221206240662
 40
0.6906739841328006
 40
0.9209281312709842
 40
1.0
 40
1.0
 40
1.0
 40
1.0
 10
590.6299956549339
 20
224.1170809444781
 30
0.0
 10
590.877060275714
 20
224.2124724428498
 30
0.0
 10
591.371296494795
 20
224.4032967435485
 30
0.0
 10
592.0174581355191
 20
224.6895639461743
 30
0.0
 10
592.4813602046621
 20
224.9756966684708
 30
0.0
 10
592.6641783701838
 20
225.1998029205123
 30
0.0
 10
592.6767615984547
 20
225.3273936131566
 30
0.0
 10
592.6799782026939
 20
225.3600091513987
 30
0.0
  0
LINE
  5
D0
330
1F
100
AcDbEntity
  8
0
  6
Continuous
 62
     7
370
    15
100
AcDbLine
 10
592.6799782027
 20
-38.6258556667
 30
0.0
 11
592.6799782027
 21
225.3600091514
 31
0.0
  0
SPLINE
  5
D1
330
1F
100
AcDbEntity
  8
0
  6
Continuous
 62
     7
370
    15
100
AcDbSpline
210
0.0
220
0.0
230
1.0
 70
     8
 71
     3
 72
    24
 73
    20
 74
     0
 42
0.00000001
 43
0.00000001
 40
0.0
 40
0.0
 40
0.0
 40
0.0
 40
0.0644512564079608
 40
0.1250748349618229
 40
0.181872340088573
 40
0.2348457697409561
 40
0.2839976347069039
 40
0.3293311279772428
 40
0.3708503715759506
 40
0.4085607874215058
 40
0.4424696748697143
 40
0.4725871493091983
 40
0.4989277482530419
 40
0.5714944947878832
 40
0.6477865234574108
 40
0.7283531857572777
 40
0.8136604203297756
 40
0.9041000269768531
 40
1.0
 40
1.0
 40
1.0
 40
1.0
 10
-112.8700104982214
 20
-37.38292024434897
 30
0.0
 10
-112.9063426988316
 20
-37.41858011099905
 30
0.0
 10
-112.9768493770313
 20
-37.48778205033413
 30
0.0
 10
-113.0792341097725
 20
-37.58776862875657
 30
0.0
 10
-113.174344118255
 20
-37.68091861205217
 30
0.0
 10
-113.2619295185905
 20
-37.76719446906846
 30
0.0
 10
-113.341880124874
 20
-37.84660637433687
 30
0.0
 10
-113.4142494185685
 20
-37.91915326850607
 30
0.0
 10
-113.479208071258
 20
-37.98483760775289
 30
0.0
 10
-113.5370184958575
 20
-38.04366109785806
 30
0.0
 10
-113.5880037127595
 20
-38.09562957288789
 30
0.0
 10
-113.6325338911587
 20
-38.1407421701003
 30
0.0
 10
-113.6952786766098
 20
-38.20323807548781
 30
0.0
 10
-113.7795347355353
 20
-38.28067385607847
 30
0.0
 10
-113.882055551299
 20
-38.36807894369024
 30
0.0
 10
-113.9760569488987
 20
-38.44660967841343
 30
0.0
 10
-114.0533377957964
 20
-38.51604854522586
 30
0.0
 10
-114.108771115733
 20
-38.57731988419049
 30
0.0
 10
-114.116191556237
 20
-38.60935978735525
 30
0.0
 10
-114.1200104982213
 20
-38.62584917653711
 30
0.0
  0
LINE
  5
D2
330
1F
100
AcDbEntity
  8
0
  6
Continuous
 62
     7
370
    15
100
AcDbLine
 10
-114.9200104702
 20
-38.6258556667
 30
0.0
 11
-114.1200104322
 21
-38.6258556667
 31
0.0
  0
SPLINE
  5
D3
330
1F
100
AcDbEntity
  8
0
  6
Continuous
 62
     7
370
    15
100
AcDbSpline
210
0.0
220
0.0
230
1.0
 70
     8
 71
     3
 72
    32
 73
    28
 74
     0
 42
0.00000001
 43
0.00000001
 40
0.0
 40
0.0
 40
0.0
 40
0.0
 40
0.125
 40
0.125
 40
0.25
 40
0.25
 40
0.375
 40
0.375
 40
0.4375
 40
0.4375
 40
0.46875
 40
0.46875
 40
0.484375
 40
0.484375
 40
0.4921875
 40
0.4921875
 40
0.49609375
 40
0.49609375
 40
0.498046875
 40
0.498046875
 40
0.5
 40
0.5
 40
0.625
 40
0.625
 40
0.75
 40
0.75
 40
1.0
 40
1.0
 40
1.0
 40
1.0
 10
-112.8700104982214
 20
-37.38292024434897
 30
0.0
 10
-113.0386157114285
 20
-37.48407905126136
 30
0.0
 10
-113.1943714970436
 20
-37.57647345200068
 30
0.0
 10
-113.4745426917039
 20
-37.74404884871349
 30
0.0
 10
-113.5989690062437
 20
-37.81917727675696
 30
0.0
 10
-113.816434923458
 20
-37.95211559221792
 30
0.0
 10
-113.9095595953949
 20
-38.00992547963536
 30
0.0
 10
-114.0282691635657
 20
-38.08365140529213
 30
0.0
 10
-114.0643604470472
 20
-38.10606189626614
 30
0.0
 10
-114.1136797691701
 20
-38.13643040635978
 30
0.0
 10
-114.1293169394899
 20
-38.14601203866311
 30
0.0
 10
-114.1516202228148
 20
-38.15957268052625
 30
0.0
 10
-114.1588625732307
 20
-38.16395759338204
 30
0.0
 10
-114.1694443809399
 20
-38.17033201101768
 30
0.0
 10
-114.1729246967435
 20
-38.17242299162152
 30
0.0
 10
-114.1780755347864
 20
-38.17550872461536
 30
0.0
 10
-114.1797808748135
 20
-38.17652884596131
 30
0.0
 10
-114.1823215747556
 20
-38.17804634350225
 30
0.0
 10
-114.1831655897167
 20
-38.17855006193624
 30
0.0
 10
-114.1848478660403
 20
-38.17955327064485
 30
0.0
 10
-114.1851996319679
 20
-38.17976311123966
 30
0.0
 10
-114.271122365256
 20
-38.23091979310167
 30
0.0
 10
-114.3575775228049
 20
-38.27797409841332
 30
0.0
 10
-114.5243468826716
 20
-38.36545200768576
 30
0.0
 10
-114.604656499714
 20
-38.40587561164651
 30
0.0
 10
-114.8167288334135
 20
-38.51720037150216
 30
0.0
 10
-114.9200104982214
 20
-38.57793376900273
 30
0.0
 10
-114.9200104982214
 20
-38.62584917653711
 30
0.0
  0
LINE
  5
D4
330
1F
100
AcDbEntity
  8
0
  6
Continuous
 62
     7
370
    15
100
AcDbLine
 10
-114.9200104702
 20
225.3600091514
 30
0.0
 11
-114.9200104702
 21
-38.6258556667
 31
0.0
  0
SPLINE
  5
D5
330
1F
100
AcDbEntity
  8
0
  6
Continuous
 62
     7
370
    15
100
AcDbSpline
210
0.0
220
0.0
230
1.0
 70
     8
 71
     3
 72
    18
 73
    14
 74
     0
 42
0.00000001
 43
0.00000001
 40
0.0
 40
0.0
 40
0.0
 40
0.0
 40
0.1249999999999865
 40
0.1249999999999865
 40
0.249999999999973
 40
0.249999999999973
 40
0.4999999999999885
 40
0.4999999999999885
 40
0.624999999999995
 40
0.624999999999995
 40
0.7500000000000017
 40
0.7500000000000017
 40
1.0
 40
1.0
 40
1.0
 40
1.0
 10
-114.9200104982213
 20
225.3600086878393
 30
0.0
 10
-114.9200104982213
 20
225.3495174165867
 30
0.0
 10
-114.9044791935418
 20
225.333550740881
 30
0.0
 10
-114.8443207135811
 20
225.2899570332705
 30
0.0
 10
-114.7988788942679
 20
225.2619205461762
 30
0.0
 10
-114.6258637239923
 20
225.1614786182309
 30
0.0
 10
-114.4577256140744
 20
225.0704212688029
 30
0.0
 10
-114.1629101995995
 20
224.9020937492089
 30
0.0
 10
-114.0560164777509
 20
224.8397093918303
 30
0.0
 10
-113.836105782642
 20
224.7063379841031
 30
0.0
 10
-113.7224594987094
 20
224.6356144505649
 30
0.0
 10
-113.3680231305301
 20
224.4184300635601
 30
0.0
 10
-113.1201215319814
 20
224.2694861961615
 30
0.0
 10
-112.8700104982213
 20
224.1170797556511
 30
0.0
  0
SPLINE
  5
D6
330
1F
100
AcDbEntity
  8
0
  6
Continuous
 62
     7
370
    15
100
AcDbSpline
210
0.0
220
0.0
230
1.0
 70
     8
 71
     3
 72
    14
 73
    10
 74
     0
 42
0.00000001
 43
0.00000001
 40
0.0
 40
0.0
 40
0.0
 40
0.0
 40
0.25
 40
0.25
 40
0.5
 40
0.5
 40
0.75
 40
0.75
 40
1.0
 40
1.0
 40
1.0
 40
1.0
 10
-114.1129394304096
 20
-38.632920244349
 30
0.0
 10
-114.0084012610804
 20
-38.63292024434897
 30
0.0
 10
-113.9067845003069
 20
-38.60096316066699
 30
0.0
 10
-113.6979139649602
 20
-38.47474785336616
 30
0.0
 10
-113.5960917708186
 20
-38.38362276598717
 30
0.0
 10
-113.3874275138094
 20
-38.1506205542608
 30
0.0
 10
-113.2853977598806
 20
-38.01398289395549
 30
0.0
 10
-113.0769312780999
 20
-37.70979722275172
 30
0.0
 10
-112.9745486652786
 20
-37.54806259940488
 30
0.0
 10
-112.8700104982216
 20
-37.38292024434897
 30
0.0
  0
LINE
  5
D7
330
1F
100
AcDbEntity
  8
0
  6
Continuous
 62
     7
370
    15
100
AcDbLine
 10
-114.1129393655
 20
-39.4329174581
 30
0.0
 11
-114.1129393655
 21
-38.6329188171
 31
0.0
  0
SPLINE
  5
D8
330
1F
100
AcDbEntity
  8
0
  6
Continuous
 62
     7
370
    15
100
AcDbSpline
210
0.0
220
0.0
230
1.0
 70
     8
 71
     3
 72
    14
 73
    10
 74
     0
 42
0.00000001
 43
0.00000001
 40
0.0
 40
0.0
 40
0.0
 40
0.0
 40
0.25
 40
0.25
 40
0.5
 40
0.5
 40
0.75
 40
0.75
 40
1.0
 40
1.0
 40
1.0
 40
1.0
 10
-112.8700104982216
 20
224.117079755651
 30
0.0
 10
-112.9735879092373
 20
224.2807043730255
 30
0.0
 10
-113.077165320253
 20
224.4442646111002
 30
0.0
 10
-113.2843201422843
 20
224.7466034811147
 30
0.0
 10
-113.3878975533
 20
224.8852631556198
 30
0.0
 10
-113.5950523753313
 20
225.1166633086488
 30
0.0
 10
-113.698629786347
 20
225.209312741094
 30
0.0
 10
-113.9057846083784
 20
225.3345456014865
 30
0.0
 10
-114.009362019394
 20
225.3670797556511
 30
0.0
 10
-114.1129394304097
 20
225.3670797556511
 30
0.0
  0
LINE
  5
D9
330
1F
100
AcDbEntity
  8
0
  6
Continuous
 62
     7
370
    15
100
AcDbLine
 10
-114.1129393655
 20
225.3670797524
 30
0.0
 11
-114.1129393655
 21
226.1670783934
 31
0.0
  0
LWPOLYLINE
  5
DA
330
1F
100
AcDbEntity
  8
0
  6
Continuous
 62
     7
370
    15
100
AcDbPolyline
 90
        2
 70
   128
 43
0.0
 10
-112.870010693
 20
224.1170809445
 10
-112.870010693
 20
224.1170809445
  0
SPLINE
  5
DB
330
1F
100
AcDbEntity
  8
0
  6
Continuous
 62
     7
370
    15
100
AcDbSpline
210
0.0
220
0.0
230
1.0
 70
     8
 71
     3
 72
    18
 73
    14
 74
     0
 42
0.00000001
 43
0.00000001
 40
0.0
 40
0.0
 40
0.0
 40
0.0
 40
0.1250000000000091
 40
0.1250000000000091
 40
0.2500000000000182
 40
0.2500000000000182
 40
0.3750000000000272
 40
0.3750000000000272
 40
0.5000000000000363
 40
0.5000000000000363
 40
0.7500000000000181
 40
0.7500000000000181
 40
1.0
 40
1.0
 40
1.0
 40
1.0
 10
-114.1200104982213
 20
225.3600086878393
 30
0.0
 10
-114.1200104982213
 20
225.3483344374908
 30
0.0
 10
-114.1083178189227
 20
225.3300094581865
 30
0.0
 10
-114.0643052909047
 20
225.2797985473544
 30
0.0
 10
-114.0314587986667
 20
225.2475198748131
 30
0.0
 10
-113.9507197379522
 20
225.1717727563484
 30
0.0
 10
-113.9019413883945
 20
225.1274182728772
 30
0.0
 10
-113.7947550711588
 20
225.0293244325421
 30
0.0
 10
-113.7364445880063
 20
224.9756589331817
 30
0.0
 10
-113.5512352719205
 20
224.800156768683
 30
0.0
 10
-113.422511157388
 20
224.6682374464998
 30
0.0
 10
-113.1511521196318
 20
224.3961137462331
 30
0.0
 10
-113.0105883351296
 20
224.2575651495252
 30
0.0
 10
-112.8700104982213
 20
224.1170797556511
 30
0.0
  0
LINE
  5
DC
330
1F
100
AcDbEntity
  8
0
  6
Continuous
 62
     7
370
    15
100
AcDbLine
 10
-114.9200104702
 20
225.3600091514
 30
0.0
 11
-114.1200104322
 21
225.3600091514
 31
0.0
  0
LINE
  5
DD
330
1F
100
AcDbEntity
  8
0
  6
Continuous
 62
     7
370
    15
100
AcDbLine
 10
591.8729313124
 20
226.1670783934
 30
0.0
 11
591.8729313124
 21
225.3670797524
 31
0.0
  0
SPLINE
  5
DE
330
1F
100
AcDbEntity
  8
0
  6
Continuous
 62
     7
370
    15
100
AcDbSpline
210
0.0
220
0.0
230
1.0
 70
     8
 71
     3
 72
    24
 73
    20
 74
     0
 42
0.00000001
 43
0.00000001
 40
0.0
 40
0.0
 40
0.0
 40
0.0
 40
0.0459084819137962
 40
0.0908676285698127
 40
0.1349219452764557
 40
0.1781187407982325
 40
0.2205082016902056
 40
0.2621434405670505
 40
0.3030805121973685
 40
0.3433783912463573
 40
0.3830989057910154
 40
0.422306621481824
 40
0.4610686724855729
 40
0.4994545371301005
 40
0.5585300488469667
 40
0.638053147053004
 40
0.7381162600158492
 40
0.8587594596871048
 40
1.0
 40
1.0
 40
1.0
 40
1.0
 10
591.872918433966
 20
225.3670797556512
 30
0.0
 10
591.8659338386269
 20
225.3661989651749
 30
0.0
 10
591.8521090814468
 20
225.3644555979689
 30
0.0
 10
591.827549492301
 20
225.3507723018225
 30
0.0
 10
591.8004413297615
 20
225.3299405585377
 30
0.0
 10
591.7705109366232
 20
225.3019854295886
 30
0.0
 10
591.7378286821846
 20
225.2679425007994
 30
0.0
 10
591.7023755964858
 20
225.228574618954
 30
0.0
 10
591.6641554745985
 20
225.1846925604604
 30
0.0
 10
591.6231680223118
 20
225.1370588930068
 30
0.0
 10
591.5794074703153
 20
225.086409250543
 30
0.0
 10
591.5328937435602
 20
225.0334205975585
 30
0.0
 10
591.4835516423371
 20
224.9787845195639
 30
0.0
 10
591.4222011718937
 20
224.9127498471314
 30
0.0
 10
591.3346428328337
 20
224.826001355438
 30
0.0
 10
591.2104995405253
 20
224.7049853340398
 30
0.0
 10
591.0499258314612
 20
224.5454985308797
 30
0.0
 10
590.8528523195473
 20
224.3450470215394
 30
0.0
 10
590.7080727786629
 20
224.1969514512582
 30
0.0
 10
590.6299895017779
 20
224.117079755651
 30
0.0
  0
LWPOLYLINE
  5
DF
330
1F
100
AcDbEntity
  8
0
  6
Continuous
 62
     7
370
    15
100
AcDbPolyline
 90
        2
 70
   128
 43
0.0
 10
590.6299956549
 20
224.1170809445
 10
590.6299956549
 20
224.1170809445
  0
SPLINE
  5
E0
330
1F
100
AcDbEntity
  8
0
  6
Continuous
 62
     7
370
    15
100
AcDbSpline
210
0.0
220
0.0
230
1.0
 70
     8
 71
     3
 72
    11
 73
     7
 74
     0
 42
0.00000001
 43
0.00000001
 40
0.0
 40
0.0
 40
0.0
 40
0.0
 40
0.2542957080878727
 40
0.5087802817723923
 40
0.7632496578416953
 40
1.0
 40
1.0
 40
1.0
 40
1.0
 10
590.6299956549339
 20
224.1170809444781
 30
0.0
 10
590.7966195750867
 20
224.2224584760145
 30
0.0
 10
591.1299911670922
 20
224.4332918030521
 30
0.0
 10
591.5479709512883
 20
224.749525475239
 30
0.0
 10
591.8280749694947
 20
225.0586157063179
 30
0.0
 10
591.8630891009689
 20
225.2619900086755
 30
0.0
 10
591.8799646605186
 20
225.3600091513987
 30
0.0
  0
LINE
  5
E1
330
1F
100
AcDbEntity
  8
0
  6
Continuous
 62
     7
370
    15
100
AcDbLine
 10
591.8799646605
 20
225.3600091514
 30
0.0
 11
592.6799782027
 21
225.3600091514
 31
0.0
  0
LINE
  5
E2
330
1F
100
AcDbEntity
  8
0
  6
Continuous
 62
     7
370
    15
100
AcDbLine
 10
592.8258903731
 20
182.3600086224
 30
0.0
 11
592.6799782027
 21
182.3600086224
 31
0.0
  0
LINE
  5
E3
330
1F
100
AcDbEntity
  8
0
  6
Continuous
 62
     7
370
    15
100
AcDbLine
 10
592.6799782027
 20
102.3600057539
 30
0.0
 11
592.8258903731
 21
102.3600057539
 31
0.0
  0
LINE
  5
E4
330
1F
100
AcDbEntity
  8
0
  6
Continuous
 62
     7
370
    15
100
AcDbLine
 10
484.5622189749
 20
-90.6329347911
 30
0.0
 11
-4.0200121294
 21
-90.6329347911
 31
0.0
  0
LINE
  5
E5
330
1F
100
AcDbEntity
  8
0
  6
Continuous
 62
     7
370
    15
100
AcDbLine
 10
485.0800045241
 20
-90.6329347911
 30
0.0
 11
485.0800045241
 21
-88.18291567
 31
0.0
  0
LINE
  5
E6
330
1F
100
AcDbEntity
  8
0
  6
Continuous
 62
     7
370
    15
100
AcDbLine
 10
485.0800045241
 20
-90.6329347911
 30
0.0
 11
484.5622189749
 21
-90.6329347911
 31
0.0
  0
LINE
  5
E7
330
1F
100
AcDbEntity
  8
0
  6
Continuous
 62
     7
370
    15
100
AcDbLine
 10
485.0800045241
 20
-88.18291567
 30
0.0
 11
485.0800045241
 21
-39.4329174581
 31
0.0
  0
SPLINE
  5
E8
330
1F
100
AcDbEntity
  8
0
  6
Continuous
 62
     7
370
    15
100
AcDbSpline
210
0.0
220
0.0
230
1.0
 70
     8
 71
     3
 72
     9
 73
     5
 74
     0
 42
0.00000001
 43
0.00000001
 40
0.0
 40
0.0
 40
0.0
 40
0.0
 40
0.614157839004157
 40
0.9999999999999999
 40
0.9999999999999999
 40
0.9999999999999999
 40
0.9999999999999999
 10
486.2946279753379
 20
-90.15049479633613
 30
0.0
 10
486.0748478009126
 20
-89.96023573087913
 30
0.0
 10
485.7169916270308
 20
-89.65044718244097
 30
0.0
 10
485.2573526285549
 20
-89.55913359863776
 30
0.0
 10
485.080004524105
 20
-89.52390096813484
 30
0.0
  0
LINE
  5
E9
330
1F
100
AcDbEntity
  8
0
  6
Continuous
 62
     7
370
    15
100
AcDbLine
 10
485.4460962523
 20
-90.9990265194
 30
0.0
 11
486.2946279753
 21
-90.1504947963
 31
0.0
  0
SPLINE
  5
EA
330
1F
100
AcDbEntity
  8
0
  6
Continuous
 62
     7
370
    15
100
AcDbSpline
210
0.0
220
0.0
230
1.0
 70
     8
 71
     3
 72
    10
 73
     6
 74
     0
 42
0.00000001
 43
0.00000001
 40
0.0
 40
0.0
 40
0.0
 40
0.0
 40
0.2774482776528377
 40
0.7623246616131624
 40
1.0
 40
1.0
 40
1.0
 40
1.0
 10
485.4460962523154
 20
-90.9990265193586
 30
0.0
 10
485.3778796973639
 20
-90.93931279865896
 30
0.0
 10
485.1904459795921
 20
-90.77524170652195
 30
0.0
 10
484.8751886075832
 20
-90.65091378107343
 30
0.0
 10
484.6396851976552
 20
-90.63738494954198
 30
0.0
 10
484.5622189749412
 20
-90.63293479114814
 30
0.0
  0
LINE
  5
EB
330
1F
100
AcDbEntity
  8
0
  6
Continuous
 62
     7
370
    15
100
AcDbLine
 10
486.2946279753
 20
-90.1504947963
 30
0.0
 11
492.9996140708
 21
-96.8554510894
 31
0.0
  0
LINE
  5
EC
330
1F
100
AcDbEntity
  8
0
  6
Continuous
 62
     7
370
    15
100
AcDbLine
 10
492.9996140708
 20
-96.8554510894
 30
0.0
 11
492.1510823477
 21
-97.7039828125
 31
0.0
  0
LINE
  5
ED
330
1F
100
AcDbEntity
  8
0
  6
Continuous
 62
     7
370
    15
100
AcDbLine
 10
485.4460962523
 20
-90.9990265194
 30
0.0
 11
492.1510823477
 21
-97.7039828125
 31
0.0
  0
LINE
  5
EE
330
1F
100
AcDbEntity
  8
0
  6
Continuous
 62
     7
370
    15
100
AcDbLine
 10
627.829969715
 20
-89.4329144779
 30
0.0
 11
611.0370763053
 21
-89.4329144779
 31
0.0
  0
LINE
  5
EF
330
1F
100
AcDbEntity
  8
0
  6
Continuous
 62
     7
370
    15
100
AcDbLine
 10
611.0370763053
 20
-89.4329144779
 30
0.0
 11
609.7871072997
 21
-89.4329144779
 31
0.0
  0
LINE
  5
F0
330
1F
100
AcDbEntity
  8
0
  6
Continuous
 62
     7
370
    15
100
AcDbLine
 10
609.7871072997
 20
-89.4329144779
 30
0.0
 11
609.7871072997
 21
-88.8325168911
 31
0.0
  0
LINE
  5
F1
330
1F
100
AcDbEntity
  8
0
  6
Continuous
 62
     7
370
    15
100
AcDbLine
 10
609.7871072997
 20
-88.8325168911
 30
0.0
 11
569.9799664725
 21
-88.8325168911
 31
0.0
  0
LINE
  5
F2
330
1F
100
AcDbEntity
  8
0
  6
Continuous
 62
     7
370
    15
100
AcDbLine
 10
506.1799891699
 20
-89.4329144779
 30
0.0
 11
485.0800045241
 21
-89.4329144779
 31
0.0
  0
SPLINE
  5
F3
330
1F
100
AcDbEntity
  8
0
  6
Continuous
 62
     7
370
    15
100
AcDbSpline
210
0.0
220
0.0
230
1.0
 70
     8
 71
     3
 72
    14
 73
    10
 74
     0
 42
0.00000001
 43
0.00000001
 40
0.0
 40
0.0
 40
0.0
 40
0.0
 40
0.25
 40
0.25
 40
0.5
 40
0.5
 40
0.75
 40
0.75
 40
1.0
 40
1.0
 40
1.0
 40
1.0
 10
629.0092788236124
 20
-87.38292024437506
 30
0.0
 10
628.9109890902799
 20
-87.65130727704928
 30
0.0
 10
628.8127306032986
 20
-87.91950340731158
 30
0.0
 10
628.616182382985
 20
-88.41533915413541
 30
0.0
 10
628.5179082728283
 20
-88.6427410203236
 30
0.0
 10
628.3213600525148
 20
-89.02223727129133
 30
0.0
 10
628.2230859423579
 20
-89.17418234050129
 30
0.0
 10
628.0265377220444
 20
-89.37956423154509
 30
0.0
 10
627.9282792350631
 20
-89.43292024437504
 30
0.0
 10
627.8299895017308
 20
-89.43292024437504
 30
0.0
  0
LINE
  5
F4
330
1F
100
AcDbEntity
  8
0
  6
Continuous
 62
     7
370
    15
100
AcDbLine
 10
629.0093072165
 20
-87.3829319301
 30
0.0
 11
629.0093072165
 21
-44.4329275909
 31
0.0
  0
LINE
  5
F5
330
1F
100
AcDbEntity
  8
0
  6
Continuous
 62
     7
370
    15
100
AcDbLine
 10
629.0093072165
 20
-44.4329275909
 30
0.0
 11
569.9799664725
 21
-44.4329275909
 31
0.0
  0
LINE
  5
F6
330
1F
100
AcDbEntity
  8
0
  6
Continuous
 62
     7
370
    15
100
AcDbLine
 10
506.1799891699
 20
-44.4329275909
 30
0.0
 11
485.0800045241
 21
-44.4329275909
 31
0.0
  0
SPLINE
  5
F7
330
1F
100
AcDbEntity
  8
0
  6
Continuous
 62
     7
370
    15
100
AcDbSpline
210
0.0
220
0.0
230
1.0
 70
     8
 71
     3
 72
    10
 73
     6
 74
     0
 42
0.00000001
 43
0.00000001
 40
0.0
 40
0.0
 40
0.0
 40
0.0
 40
0.0728765220637332
 40
0.5393600202140896
 40
0.9999999999999999
 40
0.9999999999999999
 40
0.9999999999999999
 40
0.9999999999999999
 10
628.6524542082481
 20
-88.30731056362434
 30
0.0
 10
628.6739745368146
 20
-88.29357591907211
 30
0.0
 10
628.8332467485238
 20
-88.19192564881317
 30
0.0
 10
629.0186582413891
 20
-87.86295037069775
 30
0.0
 10
629.0596377264328
 20
-87.54226433186257
 30
0.0
 10
629.0799983252219
 20
-87.3829319301252
 30
0.0
  0
LINE
  5
F8
330
1F
100
AcDbEntity
  8
0
  6
Continuous
 62
     7
370
    15
100
AcDbLine
 10
629.0799983252
 20
-87.3829319301
 30
0.0
 11
629.8800118674
 21
-87.3829319301
 31
0.0
  0
SPLINE
  5
F9
330
1F
100
AcDbEntity
  8
0
  6
Continuous
 62
     7
370
    15
100
AcDbSpline
210
0.0
220
0.0
230
1.0
 70
     8
 71
     3
 72
    12
 73
     8
 74
     0
 42
0.00000001
 43
0.00000001
 40
0.0
 40
0.0
 40
0.0
 40
0.0
 40
0.2286702510880224
 40
0.457412725255649
 40
0.6861552047528456
 40
0.914903383154852
 40
1.0
 40
1.0
 40
1.0
 40
1.0
 10
627.8299697149924
 20
-89.4329144778852
 30
0.0
 10
628.0754453396848
 20
-89.407178369169
 30
0.0
 10
628.5664741199483
 20
-89.355698023259
 30
0.0
 10
629.2096118371127
 20
-88.95607501634117
 30
0.0
 10
629.6738091153009
 20
-88.37474395441852
 30
0.0
 10
629.8625702880847
 20
-87.80922258374912
 30
0.0
 10
629.8762914730061
 20
-87.4738623056554
 30
0.0
 10
629.8800118673972
 20
-87.3829319301252
 30
0.0
  0
LINE
  5
FA
330
1F
100
AcDbEntity
  8
0
  6
Continuous
 62
     7
370
    15
100
AcDbLine
 10
631.129980873
 20
-45.2329262319
 30
0.0
 11
631.129980873
 21
-44.4329275909
 31
0.0
  0
ARC
  5
FB
330
1F
100
AcDbEntity
  8
0
  6
Continuous
 62
     7
370
    15
100
AcDbCircle
 10
631.1299895017
 20
-46.4829202444
 30
0.0
 40
1.250000000000028
100
AcDbArc
 50
90.0
 51
180.0
  0
ARC
  5
FC
330
1F
100
AcDbEntity
  8
0
  6
Continuous
 62
     7
370
    15
100
AcDbCircle
 10
631.1299895017
 20
-46.4829202444
 30
0.0
 40
2.050000000000182
100
AcDbArc
 50
90.0
 51
180.0
  0
LINE
  5
FD
330
1F
100
AcDbEntity
  8
0
  6
Continuous
 62
     7
370
    15
100
AcDbLine
 10
629.8800118674
 20
-46.4829250398
 30
0.0
 11
629.0799983252
 21
-46.4829250398
 31
0.0
  0
LINE
  5
FE
330
1F
100
AcDbEntity
  8
0
  6
Continuous
 62
     7
370
    15
100
AcDbLine
 10
631.129980873
 20
-45.2329262319
 30
0.0
 11
647.4300034751
 21
-45.2329262319
 31
0.0
  0
LINE
  5
FF
330
1F
100
AcDbEntity
  8
0
  6
Continuous
 62
     7
370
    15
100
AcDbLine
 10
631.129980873
 20
-44.4329275909
 30
0.0
 11
647.4300034751
 21
-44.4329275909
 31
0.0
  0
LINE
  5
100
330
1F
100
AcDbEntity
  8
0
  6
Continuous
 62
     7
370
    15
100
AcDbLine
 10
647.4300034751
 20
-45.2329262319
 30
0.0
 11
647.4300034751
 21
-44.4329275909
 31
0.0
  0
LINE
  5
101
330
1F
100
AcDbEntity
  8
0
  6
Continuous
 62
     7
370
    15
100
AcDbLine
 10
649.4799860228
 20
-56.2329187217
 30
0.0
 11
648.6799724806
 21
-56.2329187217
 31
0.0
  0
LINE
  5
102
330
1F
100
AcDbEntity
  8
0
  6
Continuous
 62
     7
370
    15
100
AcDbLine
 10
649.4799860228
 20
-61.2329139534
 30
0.0
 11
649.4799860228
 21
-56.2329187217
 31
0.0
  0
LINE
  5
103
330
1F
100
AcDbEntity
  8
0
  6
Continuous
 62
     7
370
    15
100
AcDbLine
 10
649.4799860228
 20
-61.2329139534
 30
0.0
 11
648.6799724806
 21
-61.2329139534
 31
0.0
  0
LINE
  5
104
330
1F
100
AcDbEntity
  8
0
  6
Continuous
 62
     7
370
    15
100
AcDbLine
 10
648.6799724806
 20
-61.2329139534
 30
0.0
 11
648.6799724806
 21
-56.2329187217
 31
0.0
  0
ARC
  5
105
330
1F
100
AcDbEntity
  8
0
  6
Continuous
 62
     7
370
    15
100
AcDbCircle
 10
647.4299895017
 20
-46.4829202444
 30
0.0
 40
2.050000000000047
100
AcDbArc
 50
0.0
 51
90.0
  0
LINE
  5
106
330
1F
100
AcDbEntity
  8
0
  6
Continuous
 62
     7
370
    15
100
AcDbLine
 10
648.6799724806
 20
-46.4829250398
 30
0.0
 11
649.4799860228
 21
-46.4829250398
 31
0.0
  0
ARC
  5
107
330
1F
100
AcDbEntity
  8
0
  6
Continuous
 62
     7
370
    15
100
AcDbCircle
 10
647.4299895017
 20
-46.4829202444
 30
0.0
 40
1.25
100
AcDbArc
 50
0.0
 51
90.0
  0
LINE
  5
108
330
1F
100
AcDbEntity
  8
0
  6
Continuous
 62
     7
370
    15
100
AcDbLine
 10
649.4799860228
 20
-56.2329187217
 30
0.0
 11
649.4799860228
 21
-46.4829250398
 31
0.0
  0
LINE
  5
109
330
1F
100
AcDbEntity
  8
0
  6
Continuous
 62
     7
370
    15
100
AcDbLine
 10
648.6799724806
 20
-56.2329187217
 30
0.0
 11
648.6799724806
 21
-46.4829250398
 31
0.0
  0
LINE
  5
10A
330
1F
100
AcDbEntity
  8
0
  6
Continuous
 62
     7
370
    15
100
AcDbLine
 10
629.8800118674
 20
-87.3829319301
 30
0.0
 11
629.8800118674
 21
-46.4829250398
 31
0.0
  0
LINE
  5
10B
330
1F
100
AcDbEntity
  8
0
  6
Continuous
 62
     7
370
    15
100
AcDbLine
 10
629.0799983252
 20
-87.3829319301
 30
0.0
 11
629.0799983252
 21
-46.4829250398
 31
0.0
  0
LWPOLYLINE
  5
10C
330
1F
100
AcDbEntity
  8
0
  6
Continuous
 62
     7
370
    15
100
AcDbPolyline
 90
        3
 70
   128
 43
0.0
 10
609.587550949
 20
-88.8325168911
 10
609.6098430861
 20
-88.8544514003
 10
609.7871072997
 20
-89.0077247444
  0
LINE
  5
10D
330
1F
100
AcDbEntity
  8
0
  6
Continuous
 62
     7
370
    15
100
AcDbLine
 10
609.7871072997
 20
-89.4329144779
 30
0.0
 11
569.9799664725
 21
-89.4329144779
 31
0.0
  0
LINE
  5
10E
330
1F
100
AcDbEntity
  8
0
  6
Continuous
 62
     7
370
    15
100
AcDbLine
 10
-79.9100111764
 20
261.5170807418
 30
0.0
 11
-79.9100111764
 21
228.6170788881
 31
0.0
  0
LINE
  5
10F
330
1F
100
AcDbEntity
  8
0
  6
Continuous
 62
     7
370
    15
100
AcDbLine
 10
-79.9100111764
 20
261.5170807418
 30
0.0
 11
589.0699632872
 21
261.5170807418
 31
0.0
  0
LINE
  5
110
330
1F
100
AcDbEntity
  8
0
  6
Continuous
 62
     7
370
    15
100
AcDbLine
 10
589.0699632872
 20
228.6170788881
 30
0.0
 11
589.0699632872
 21
261.5170807418
 31
0.0
  0
LINE
  5
111
330
1F
100
AcDbEntity
  8
0
  6
Continuous
 62
     7
370
    15
100
AcDbLine
 10
-79.9100111764
 20
228.6170788881
 30
0.0
 11
589.0699632872
 21
228.6170788881
 31
0.0
  0
LINE
  5
112
330
1F
100
AcDbEntity
  8
0
  6
Continuous
 62
     7
370
    15
100
AcDbLine
 10
589.0699632872
 20
228.6170788881
 30
0.0
 11
589.0699632872
 21
226.1670783934
 31
0.0
  0
LINE
  5
113
330
1F
100
AcDbEntity
  8
0
  6
Continuous
 62
     7
370
    15
100
AcDbLine
 10
-79.9100111764
 20
226.1670783934
 30
0.0
 11
-79.9100111764
 21
228.6170788881
 31
0.0
  0
LINE
  5
114
330
1F
100
AcDbEntity
  8
0
  6
Continuous
 62
     7
370
    15
100
AcDbLine
 10
589.0699632872
 20
263.9670775113
 30
0.0
 11
589.0699632872
 21
261.5170807418
 31
0.0
  0
LINE
  5
115
330
1F
100
AcDbEntity
  8
0
  6
Continuous
 62
     7
370
    15
100
AcDbLine
 10
-79.9100111764
 20
263.9670775113
 30
0.0
 11
589.0699632872
 21
263.9670775113
 31
0.0
  0
LWPOLYLINE
  5
116
330
1F
100
AcDbEntity
  8
0
  6
Continuous
 62
     7
370
    15
100
AcDbPolyline
 90
        3
 70
   128
 43
0.0
 10
-113.6911466311
 20
271.9841481027
 10
-113.6959923025
 20
271.9609395441
 10
-113.720010646
 20
271.7170820412
  0
LINE
  5
117
330
1F
100
AcDbEntity
  8
0
  6
Continuous
 62
     7
370
    15
100
AcDbLine
 10
-113.720010646
 20
271.7170820412
 30
0.0
 11
-114.9200104702
 21
271.7170820412
 31
0.0
  0
ARC
  5
118
330
1F
100
AcDbEntity
  8
0
  6
Continuous
 62
     7
370
    15
100
AcDbCircle
 10
-112.4700104982
 20
271.7170797557
 30
0.0
 40
2.449999999999992
100
AcDbArc
 50
113.3114456816
 51
180.0
  0
LINE
  5
119
330
1F
100
AcDbEntity
  8
0
  6
Continuous
 62
     7
370
    15
100
AcDbLine
 10
-114.9200104702
 20
226.1670783934
 30
0.0
 11
-113.720010646
 21
226.1670783934
 31
0.0
  0
LINE
  5
11A
330
1F
100
AcDbEntity
  8
0
  6
Continuous
 62
     7
370
    15
100
AcDbLine
 10
-114.9200104702
 20
271.7170820412
 30
0.0
 11
-114.9200104702
 21
226.1670783934
 31
0.0
  0
LINE
  5
11B
330
1F
100
AcDbEntity
  8
0
  6
Continuous
 62
     7
370
    15
100
AcDbLine
 10
-113.720010646
 20
271.7170820412
 30
0.0
 11
-113.720010646
 21
226.1670783934
 31
0.0
  0
ARC
  5
11C
330
1F
100
AcDbEntity
  8
0
  6
Continuous
 62
     7
370
    15
100
AcDbCircle
 10
-82.3700104982
 20
271.7170797557
 30
0.0
 40
2.449999999999992
100
AcDbArc
 50
9.5338065816
 51
66.6885543184
  0
LINE
  5
11D
330
1F
100
AcDbEntity
  8
0
  6
Continuous
 62
     7
370
    15
100
AcDbLine
 10
589.5299919356
 20
263.9670775113
 30
0.0
 11
589.5299919356
 21
262.7670795497
 31
0.0
  0
LINE
  5
11E
330
1F
100
AcDbEntity
  8
0
  6
Continuous
 62
     7
370
    15
100
AcDbLine
 10
628.4609444846
 20
263.9670775113
 30
0.0
 11
589.5299919356
 21
263.9670775113
 31
0.0
  0
LINE
  5
11F
330
1F
100
AcDbEntity
  8
0
  6
Continuous
 62
     7
370
    15
100
AcDbLine
 10
589.6907456626
 20
262.7670795497
 30
0.0
 11
589.5299919356
 21
262.7670795497
 31
0.0
  0
LINE
  5
120
330
1F
100
AcDbEntity
  8
0
  6
Continuous
 62
     7
370
    15
100
AcDbLine
 10
614.4862182845
 20
209.4416704801
 30
0.0
 11
614.5806916464
 21
209.2244972315
 31
0.0
  0
LINE
  5
121
330
1F
100
AcDbEntity
  8
0
  6
Continuous
 62
     7
370
    15
100
AcDbLine
 10
614.5806916464
 20
209.2244972315
 30
0.0
 11
637.7517588843
 21
219.299580234
 31
0.0
  0
ARC
  5
122
330
1F
100
AcDbEntity
  8
0
  6
Continuous
 62
     7
370
    15
100
AcDbCircle
 10
628.4609198308
 20
240.6670797557
 30
0.0
 40
23.29999999999998
100
AcDbArc
 50
293.5
 51
90.0
  0
LINE
  5
123
330
1F
100
AcDbEntity
  8
0
  6
Continuous
 62
     7
370
    15
100
AcDbLine
 10
589.5299919356
 20
263.9670775113
 30
0.0
 11
589.0699632872
 21
263.9235065159
 31
0.0
  0
LWPOLYLINE
  5
124
330
1F
100
AcDbEntity
  8
0
  6
Continuous
 62
     7
370
    15
100
AcDbPolyline
 90
        3
 70
   128
 43
0.0
 10
589.5299919356
 20
262.7670795497
 10
589.2861493338
 20
262.7430588779
 10
589.0699632872
 20
262.6793638644
  0
SPLINE
  5
125
330
1F
100
AcDbEntity
  8
0
  6
Continuous
 62
     7
370
    15
100
AcDbSpline
210
0.0
220
0.0
230
1.0
 70
     8
 71
     3
 72
    14
 73
    10
 74
     0
 42
0.00000001
 43
0.00000001
 40
0.0
 40
0.0
 40
0.0
 40
0.0
 40
0.25
 40
0.25
 40
0.5
 40
0.5
 40
0.75
 40
0.75
 40
1.0
 40
1.0
 40
1.0
 40
1.0
 10
593.4870605695979
 20
-38.63292024435061
 30
0.0
 10
593.5906379806136
 20
-38.63292024435061
 30
0.0
 10
593.6942153916293
 20
-38.60038609018604
 30
0.0
 10
593.9013702136604
 20
-38.47515322979342
 30
0.0
 10
594.0049476246762
 20
-38.38250379734839
 30
0.0
 10
594.2121024467075
 20
-38.15110364431931
 30
0.0
 10
594.3156798577231
 20
-38.01244396981426
 30
0.0
 10
594.5228346797546
 20
-37.71010509979972
 30
0.0
 10
594.6264120907703
 20
-37.5465448617251
 30
0.0
 10
594.7299895017859
 20
-37.38292024435061
 30
0.0
  0
SPLINE
  5
126
330
1F
100
AcDbEntity
  8
0
  6
Continuous
 62
     7
370
    15
100
AcDbSpline
210
0.0
220
0.0
230
1.0
 70
     8
 71
     3
 72
    14
 73
    10
 74
     0
 42
0.00000001
 43
0.00000001
 40
0.0
 40
0.0
 40
0.0
 40
0.0
 40
0.25
 40
0.25
 40
0.5
 40
0.5
 40
0.75
 40
0.75
 40
1.0
 40
1.0
 40
1.0
 40
1.0
 10
593.4870605695979
 20
-39.4329202443506
 30
0.0
 10
593.5906542338377
 20
-39.43292024435063
 30
0.0
 10
593.6942153916291
 20
-39.3795642315207
 30
0.0
 10
593.9013702136604
 20
-39.1741823404769
 30
0.0
 10
594.0049476246762
 20
-39.02223727126694
 30
0.0
 10
594.2121024467075
 20
-38.64274102029924
 30
0.0
 10
594.3156798577231
 20
-38.415339154111
 30
0.0
 10
594.5228346797546
 20
-37.91950340728717
 30
0.0
 10
594.6263958375459
 20
-37.65130672507289
 30
0.0
 10
594.7299895017859
 20
-37.38292024435061
 30
0.0
  0
LINE
  5
127
330
1F
100
AcDbEntity
  8
0
  6
Continuous
 62
     7
370
    15
100
AcDbLine
 10
593.4870846976
 20
-38.6329188171
 30
0.0
 11
593.4870846976
 21
-39.4329174581
 31
0.0
  0
SPLINE
  5
128
330
1F
100
AcDbEntity
  8
0
  6
Continuous
 62
     7
370
    15
100
AcDbSpline
210
0.0
220
0.0
230
1.0
 70
     8
 71
     3
 72
    12
 73
     8
 74
     0
 42
0.00000001
 43
0.00000001
 40
0.0
 40
0.0
 40
0.0
 40
0.0
 40
0.3486514778633403
 40
0.5713284320636695
 40
0.7575616921975228
 40
0.9447306689144733
 40
1.0
 40
1.0
 40
1.0
 40
1.0
 10
594.7299607504539
 20
-37.38292000919624
 30
0.0
 10
594.5349150096362
 20
-37.57888595750497
 30
0.0
 10
594.2152973273451
 20
-37.90001156601031
 30
0.0
 10
593.8292661844906
 20
-38.27640881719885
 30
0.0
 10
593.5837432187061
 20
-38.49462346783133
 30
0.0
 10
593.4874647782619
 20
-38.59336090480206
 30
0.0
 10
593.4813791112075
 20
-38.61982302420147
 30
0.0
 10
593.4799917448692
 20
-38.62585566669749
 30
0.0
  0
LINE
  5
129
330
1F
100
AcDbEntity
  8
0
  6
Continuous
 62
     7
370
    15
100
AcDbLine
 10
592.6799782027
 20
-38.6258556667
 30
0.0
 11
593.4799917449
 21
-38.6258556667
 31
0.0
  0
SPLINE
  5
12A
330
1F
100
AcDbEntity
  8
0
  6
Continuous
 62
     7
370
    15
100
AcDbSpline
210
0.0
220
0.0
230
1.0
 70
     8
 71
     3
 72
    12
 73
     8
 74
     0
 42
0.00000001
 43
0.00000001
 40
0.0
 40
0.0
 40
0.0
 40
0.0
 40
0.2354026112631285
 40
0.5036196109131191
 40
0.739662201996989
 40
0.9424189635001501
 40
1.0
 40
1.0
 40
1.0
 40
1.0
 10
594.7299607504539
 20
-37.38292000919624
 30
0.0
 10
594.4962538720729
 20
-37.52462426095063
 30
0.0
 10
593.9962621067889
 20
-37.82778589433422
 30
0.0
 10
593.3267784828082
 20
-38.2382949799927
 30
0.0
 10
592.8505093024241
 20
-38.49314022971101
 30
0.0
 10
592.6911586616608
 20
-38.59483010818501
 30
0.0
 10
592.6820031925528
 20
-38.62023635880104
 30
0.0
 10
592.6799782026939
 20
-38.62585566669746
 30
0.0
  0
SPLINE
  5
12B
330
1F
100
AcDbEntity
  8
0
  6
Continuous
 62
     7
370
    15
100
AcDbSpline
210
0.0
220
0.0
230
1.0
 70
     8
 71
     3
 72
    24
 73
    20
 74
     0
 42
0.00000001
 43
0.00000001
 40
0.0
 40
0.0
 40
0.0
 40
0.0
 40
0.0482715704397289
 40
0.0951910828383571
 40
0.1407892638214917
 40
0.1850996036450279
 40
0.2281586122585843
 40
0.2700060894218
 40
0.3106854053996316
 40
0.3502437869802974
 40
0.3887326013653231
 40
0.4262076278950147
 40
0.4627293046768151
 40
0.4983629341641882
 40
0.5714679046229779
 40
0.6580523495480898
 40
0.7582745289714615
 40
0.8722347873986723
 40
1.0
 40
1.0
 40
1.0
 40
1.0
 10
593.4799895017859
 20
85.06000868783742
 30
0.0
 10
593.4809490728142
 20
85.05153830548342
 30
0.0
 10
593.4828413378561
 20
85.03483479115827
 30
0.0
 10
593.4976188418815
 20
85.00676812228438
 30
0.0
 10
593.5198738434892
 20
84.97691760055926
 30
0.0
 10
593.5493900280453
 20
84.94506016533059
 30
0.0
 10
593.5848895638236
 20
84.91125243444114
 30
0.0
 10
593.6254055108654
 20
84.87547904224539
 30
0.0
 10
593.6699462451476
 20
84.83774324485765
 30
0.0
 10
593.7175935526564
 20
84.79804239646728
 30
0.0
 10
593.7674889939962
 20
84.75637877278403
 30
0.0
 10
593.8188347885311
 20
84.71274058653223
 30
0.0
 10
593.8709278597198
 20
84.66716507601754
 30
0.0
 10
593.9416939480943
 20
84.60245687614928
 30
0.0
 10
594.039418754597
 20
84.50774200142742
 30
0.0
 10
594.1747065985771
 20
84.37436039312229
 30
0.0
 10
594.336693431112
 20
84.21352639685772
 30
0.0
 10
594.5255387102309
 20
84.02556014387358
 30
0.0
 10
594.6592929997987
 20
83.88916964128052
 30
0.0
 10
594.7299895017859
 20
83.8170797556493
 30
0.0
  0
LWPOLYLINE
  5
12C
330
1F
100
AcDbEntity
  8
0
  6
Continuous
 62
     7
370
    15
100
AcDbPolyline
 90
        2
 70
   128
 43
0.0
 10
594.7299607505
 20
83.8170827207
 10
594.7299607505
 20
83.8170827207
  0
SPLINE
  5
12D
330
1F
100
AcDbEntity
  8
0
  6
Continuous
 62
     7
370
    15
100
AcDbSpline
210
0.0
220
0.0
230
1.0
 70
     8
 71
     3
 72
    26
 73
    22
 74
     0
 42
0.00000001
 43
0.00000001
 40
0.0
 40
0.0
 40
0.0
 40
0.0
 40
0.25
 40
0.25
 40
0.375
 40
0.375
 40
0.4375
 40
0.4375
 40
0.46875
 40
0.46875
 40
0.484375
 40
0.484375
 40
0.4921875
 40
0.4921875
 40
0.49609375
 40
0.49609375
 40
0.5
 40
0.5
 40
0.75
 40
0.75
 40
1.0
 40
1.0
 40
1.0
 40
1.0
 10
592.6799895017858
 20
85.06000868783742
 30
0.0
 10
592.6799895017858
 20
85.00975528569646
 30
0.0
 10
592.7809029272477
 20
84.9481852712436
 30
0.0
 10
592.9903870653177
 20
84.8378551839444
 30
0.0
 10
593.0699743180428
 20
84.79813820763869
 30
0.0
 10
593.1945009164685
 20
84.73415232237113
 30
0.0
 10
593.2368897989395
 20
84.71208862381378
 30
0.0
 10
593.3008176469436
 20
84.67789047077552
 30
0.0
 10
593.3221858611239
 20
84.66630731889572
 30
0.0
 10
593.3542181460194
 20
84.64865693977546
 30
0.0
 10
593.364892328121
 20
84.6427275381853
 30
0.0
 10
593.3808860089655
 20
84.6337645229749
 30
0.0
 10
593.3862143095927
 20
84.63076536576723
 30
0.0
 10
593.3942008319473
 20
84.62624940174945
 30
0.0
 10
593.396862018322
 20
84.6247412090425
 30
0.0
 10
593.4021821633073
 20
84.62171908089313
 30
0.0
 10
593.4054086699405
 20
84.61988123596946
 30
0.0
 10
593.5412698482407
 20
84.5423429095937
 30
0.0
 10
593.715011775703
 20
84.43736947982096
 30
0.0
 10
594.156739841682
 20
84.17016661882386
 30
0.0
 10
594.4252531541971
 20
84.00835937248861
 30
0.0
 10
594.7299895017859
 20
83.8170797556493
 30
0.0
  0
LINE
  5
12E
330
1F
100
AcDbEntity
  8
0
  6
Continuous
 62
     7
370
    15
100
AcDbLine
 10
592.6799782027
 20
85.0600109276
 30
0.0
 11
593.4799917449
 21
85.0600109276
 31
0.0
  0
SPLINE
  5
12F
330
1F
100
AcDbEntity
  8
0
  6
Continuous
 62
     7
370
    15
100
AcDbSpline
210
0.0
220
0.0
230
1.0
 70
     8
 71
     3
 72
    11
 73
     7
 74
     0
 42
0.00000001
 43
0.00000001
 40
0.0
 40
0.0
 40
0.0
 40
0.0
 40
0.2542958832067516
 40
0.5087809848735388
 40
0.7632527549283209
 40
1.0
 40
1.0
 40
1.0
 40
1.0
 10
594.7299607504539
 20
83.81708272069649
 30
0.0
 10
594.6246049095512
 20
83.98372030146719
 30
0.0
 10
594.4138148337519
 20
84.31711945599662
 30
0.0
 10
594.0975005139715
 20
84.73502971717028
 30
0.0
 10
593.7884639967277
 20
85.01519206366535
 30
0.0
 10
593.5850984692404
 20
85.0502061752472
 30
0.0
 10
593.4870846975974
 20
85.0670815286036
 30
0.0
  0
LINE
  5
130
330
1F
100
AcDbEntity
  8
0
  6
Continuous
 62
     7
370
    15
100
AcDbLine
 10
593.4870846976
 20
85.0670815286
 30
0.0
 11
593.4870846976
 21
85.8670801696
 31
0.0
  0
SPLINE
  5
131
330
1F
100
AcDbEntity
  8
0
  6
Continuous
 62
     7
370
    15
100
AcDbSpline
210
0.0
220
0.0
230
1.0
 70
     8
 71
     3
 72
    12
 73
     8
 74
     0
 42
0.00000001
 43
0.00000001
 40
0.0
 40
0.0
 40
0.0
 40
0.0
 40
0.2301679156007135
 40
0.4604204507999534
 40
0.6906772203044572
 40
0.9209316678984423
 40
1.0
 40
1.0
 40
1.0
 40
1.0
 10
594.7299607504539
 20
83.81708272069649
 30
0.0
 10
594.6345779745666
 20
84.06416063809404
 30
0.0
 10
594.4437773559916
 20
84.55840730932968
 30
0.0
 10
594.1574756731569
 20
85.20453567132448
 30
0.0
 10
593.8713800071258
 20
85.66847435949913
 30
0.0
 10
593.6472333002265
 20
85.85129226856725
 30
0.0
 10
593.5196876138684
 20
85.86386608215398
 30
0.0
 10
593.4870846975974
 20
85.8670801696177
 30
0.0
  0
LINE
  5
132
330
1F
100
AcDbEntity
  8
0
  6
Continuous
 62
     7
370
    15
100
AcDbLine
 10
592.6799782027
 20
85.0600109276
 30
0.0
 11
592.6799782027
 21
-38.6258556667
 31
0.0
  0
LINE
  5
133
330
1F
100
AcDbEntity
  8
0
  6
Continuous
 62
     7
370
    15
100
AcDbLine
 10
594.7299607505
 20
83.8170827207
 30
0.0
 11
594.7299607505
 21
-37.3829200092
 31
0.0
  0
SPLINE
  5
134
330
1F
100
AcDbEntity
  8
0
  6
Continuous
 62
     7
370
    15
100
AcDbSpline
210
0.0
220
0.0
230
1.0
 70
     8
 71
     3
 72
    14
 73
    10
 74
     0
 42
0.00000001
 43
0.00000001
 40
0.0
 40
0.0
 40
0.0
 40
0.0
 40
0.25
 40
0.25
 40
0.5
 40
0.5
 40
0.75
 40
0.75
 40
1.0
 40
1.0
 40
1.0
 40
1.0
 10
649.9377560848469
 20
85.86707975564948
 30
0.0
 10
649.9621132244662
 20
85.86707975564947
 30
0.0
 10
649.9864616543367
 20
85.81372374281949
 30
0.0
 10
650.0351672238266
 20
85.60834185177566
 30
0.0
 10
650.0595200085714
 20
85.45639678256569
 30
0.0
 10
650.1082255780613
 20
85.076900531598
 30
0.0
 10
650.1325783628063
 20
84.84949866540978
 30
0.0
 10
650.181283932296
 20
84.35366291858598
 30
0.0
 10
650.2056323621665
 20
84.08547211468974
 30
0.0
 10
650.2299895017858
 20
83.81707975564949
 30
0.0
  0
LINE
  5
135
330
1F
100
AcDbEntity
  8
0
  6
Continuous
 62
     7
370
    15
100
AcDbLine
 10
650.229991268
 20
83.8170827207
 30
0.0
 11
594.7299607505
 21
83.8170827207
 31
0.0
  0
LINE
  5
136
330
1F
100
AcDbEntity
  8
0
  6
Continuous
 62
     7
370
    15
100
AcDbLine
 10
593.4870846976
 20
85.8670801696
 30
0.0
 11
649.9377496947
 21
85.8670801696
 31
0.0
  0
LINE
  5
137
330
1F
100
AcDbEntity
  8
0
  6
Continuous
 62
     7
370
    15
100
AcDbLine
 10
593.4870846976
 20
-39.4329174581
 30
0.0
 11
649.7799762
 21
-39.4329174581
 31
0.0
  0
LINE
  5
138
330
1F
100
AcDbEntity
  8
0
  6
Continuous
 62
     7
370
    15
100
AcDbLine
 10
594.7299607505
 20
-37.3829200092
 30
0.0
 11
650.229991268
 21
-37.3829200092
 31
0.0
  0
SPLINE
  5
139
330
1F
100
AcDbEntity
  8
0
  6
Continuous
 62
     7
370
    15
100
AcDbSpline
210
0.0
220
0.0
230
1.0
 70
     8
 71
     3
 72
    14
 73
    10
 74
     0
 42
0.00000001
 43
0.00000001
 40
0.0
 40
0.0
 40
0.0
 40
0.0
 40
0.25
 40
0.25
 40
0.5
 40
0.5
 40
0.75
 40
0.75
 40
1.0
 40
1.0
 40
1.0
 40
1.0
 10
650.2299895017858
 20
-37.38292024435061
 30
0.0
 10
650.1924828701466
 20
-37.65131207186065
 30
0.0
 10
650.154989501786
 20
-37.91950340728715
 30
0.0
 10
650.0799895017859
 20
-38.415339154111
 30
0.0
 10
650.042489501786
 20
-38.64274102029921
 30
0.0
 10
649.967489501786
 20
-39.02223727126691
 30
0.0
 10
649.9299895017858
 20
-39.17418234047687
 30
0.0
 10
649.854989501786
 20
-39.3795642315207
 30
0.0
 10
649.8174961334253
 20
-39.43292024435063
 30
0.0
 10
649.779989501786
 20
-39.4329202443506
 30
0.0
  0
LINE
  5
13A
330
1F
100
AcDbEntity
  8
0
  6
Continuous
 62
     7
370
    15
100
AcDbLine
 10
650.229991268
 20
83.8170827207
 30
0.0
 11
650.229991268
 21
-37.3829200092
 31
0.0
  0
LINE
  5
13B
330
1F
100
AcDbEntity
  8
0
  6
Continuous
 62
     7
370
    15
100
AcDbLine
 10
652.2799738158
 20
-37.3829200092
 30
0.0
 11
650.229991268
 21
-37.3829200092
 31
0.0
  0
LINE
  5
13C
330
1F
100
AcDbEntity
  8
0
  6
Continuous
 62
     7
370
    15
100
AcDbLine
 10
652.2799738158
 20
83.8170827207
 30
0.0
 11
652.2799738158
 21
-37.3829200092
 31
0.0
  0
LINE
  5
13D
330
1F
100
AcDbEntity
  8
0
  6
Continuous
 62
     7
370
    15
100
AcDbLine
 10
650.229991268
 20
83.8170827207
 30
0.0
 11
652.2799738158
 21
83.8170827207
 31
0.0
  0
SPLINE
  5
13E
330
1F
100
AcDbEntity
  8
0
  6
Continuous
 62
     7
370
    15
100
AcDbSpline
210
0.0
220
0.0
230
1.0
 70
     8
 71
     3
 72
    12
 73
     8
 74
     0
 42
0.00000001
 43
0.00000001
 40
0.0
 40
0.0
 40
0.0
 40
0.0
 40
0.2196145648204713
 40
0.4392497027015989
 40
0.6588868028952203
 40
0.8785287746501536
 40
1.0
 40
1.0
 40
1.0
 40
1.0
 10
652.279973815792
 20
83.81708272069648
 30
0.0
 10
652.2562467980592
 20
84.05283949514758
 30
0.0
 10
652.2087905398932
 20
84.52437512928091
 30
0.0
 10
651.8393883530938
 20
85.14910547365099
 30
0.0
 10
651.2978696997602
 20
85.61347099145883
 30
0.0
 10
650.7246903231394
 20
85.83883844455399
 30
0.0
 10
650.35989555682
 20
85.85966410287838
 30
0.0
 10
650.229991268032
 20
85.8670801696177
 30
0.0
  0
SPLINE
  5
13F
330
1F
100
AcDbEntity
  8
0
  6
Continuous
 62
     7
370
    15
100
AcDbSpline
210
0.0
220
0.0
230
1.0
 70
     8
 71
     3
 72
    12
 73
     8
 74
     0
 42
0.00000001
 43
0.00000001
 40
0.0
 40
0.0
 40
0.0
 40
0.0
 40
0.1986288488521546
 40
0.4263030862190038
 40
0.6540213771557714
 40
0.8817206206837414
 40
1.0
 40
1.0
 40
1.0
 40
1.0
 10
651.4799602736167
 20
83.81708272069649
 30
0.0
 10
651.4680920228559
 20
83.94695951723496
 30
0.0
 10
651.442620033482
 20
84.22570492361756
 30
0.0
 10
651.2293046867743
 20
84.61020956303392
 30
0.0
 10
650.8906355223043
 20
84.90891262317939
 30
0.0
 10
650.5327422441975
 20
85.05020032125384
 30
0.0
 10
650.3071233742781
 20
85.06278069002214
 30
0.0
 10
650.229991268032
 20
85.0670815286036
 30
0.0
  0
LINE
  5
140
330
1F
100
AcDbEntity
  8
0
  6
Continuous
 62
     7
370
    15
100
AcDbLine
 10
650.229991268
 20
85.0670815286
 30
0.0
 11
650.229991268
 21
85.8670801696
 31
0.0
  0
LINE
  5
141
330
1F
100
AcDbEntity
  8
0
  6
Continuous
 62
     7
370
    15
100
AcDbLine
 10
650.229991268
 20
-38.6329188171
 30
0.0
 11
650.229991268
 21
-39.4329174581
 31
0.0
  0
SPLINE
  5
142
330
1F
100
AcDbEntity
  8
0
  6
Continuous
 62
     7
370
    15
100
AcDbSpline
210
0.0
220
0.0
230
1.0
 70
     8
 71
     3
 72
    11
 73
     7
 74
     0
 42
0.00000001
 43
0.00000001
 40
0.0
 40
0.0
 40
0.0
 40
0.0
 40
0.2499891005407021
 40
0.5000033117231307
 40
0.7499980882366335
 40
1.0
 40
1.0
 40
1.0
 40
1.0
 10
650.229991268032
 20
-38.63291881710335
 30
0.0
 10
650.3937780031599
 20
-38.61413015052464
 30
0.0
 10
650.7213679252927
 20
-38.57655093010312
 30
0.0
 10
651.1345435773717
 20
-38.28749389259723
 30
0.0
 10
651.4236219307836
 20
-37.87430729994828
 30
0.0
 10
651.4611806473438
 20
-37.54671733108136
 30
0.0
 10
651.4799602736167
 20
-37.38292000919624
 30
0.0
  0
SPLINE
  5
143
330
1F
100
AcDbEntity
  8
0
  6
Continuous
 62
     7
370
    15
100
AcDbSpline
210
0.0
220
0.0
230
1.0
 70
     8
 71
     3
 72
    11
 73
     7
 74
     0
 42
0.00000001
 43
0.00000001
 40
0.0
 40
0.0
 40
0.0
 40
0.0
 40
0.2500049978262
 40
0.5000054191690522
 40
0.7499994814517367
 40
1.0
 40
1.0
 40
1.0
 40
1.0
 10
650.229991268032
 20
-39.43291745811744
 30
0.0
 10
650.4986218510254
 20
-39.40210364011376
 30
0.0
 10
651.0358780995773
 20
-39.34047656817089
 30
0.0
 10
651.7135045205885
 20
-38.86642737561397
 30
0.0
 10
652.1875269616409
 20
-38.18878557974295
 30
0.0
 10
652.249157932468
 20
-37.65154417845232
 30
0.0
 10
652.279973815792
 20
-37.38292000919624
 30
0.0
  0
LINE
  5
144
330
1F
100
AcDbEntity
  8
0
  6
Continuous
 62
     7
370
    15
100
AcDbLine
 10
650.229991268
 20
-39.4329174581
 30
0.0
 11
649.7799762
 21
-39.4329174581
 31
0.0
  0
LINE
  5
145
330
1F
100
AcDbEntity
  8
0
  6
Continuous
 62
     7
370
    15
100
AcDbLine
 10
649.9377496947
 20
85.8670801696
 30
0.0
 11
650.229991268
 21
85.8670801696
 31
0.0
  0
LINE
  5
146
330
1F
100
AcDbEntity
  8
0
  6
Continuous
 62
     7
370
    15
100
AcDbLine
 10
-111.420010595
 20
273.9670828757
 30
0.0
 11
-78.9200096916
 21
273.9670828757
 31
0.0
  0
LINE
  5
147
330
1F
100
AcDbEntity
  8
0
  6
Continuous
 62
     7
370
    15
100
AcDbLine
 10
-111.420010595
 20
463.7953148064
 30
0.0
 11
-111.420010595
 21
273.9670828757
 31
0.0
  0
LINE
  5
148
330
1F
100
AcDbEntity
  8
0
  6
Continuous
 62
     7
370
    15
100
AcDbLine
 10
566.0799749602
 20
295.8880097446
 30
0.0
 11
-111.420010595
 21
463.7953148064
 31
0.0
  0
ARC
  5
149
330
1F
100
AcDbEntity
  8
0
  6
Continuous
 62
     7
370
    15
100
AcDbCircle
 10
563.6744284626
 20
286.1816576268
 30
0.0
 40
10.00000000000006
100
AcDbArc
 50
28.590234854
 51
76.0806356206
  0
LINE
  5
14A
330
1F
100
AcDbEntity
  8
0
  6
Continuous
 62
     7
370
    15
100
AcDbLine
 10
585.2624781836
 20
267.4670771536
 30
0.0
 11
572.4550493468
 21
290.9670800743
 31
0.0
  0
LINE
  5
14B
330
1F
100
AcDbEntity
  8
0
  6
Continuous
 62
     7
370
    15
100
AcDbLine
 10
-78.9200096916
 20
267.4670771536
 30
0.0
 11
585.2624781836
 21
267.4670771536
 31
0.0
  0
LINE
  5
14C
330
1F
100
AcDbEntity
  8
0
  6
Continuous
 62
     7
370
    15
100
AcDbLine
 10
-78.9200096916
 20
273.9670828757
 30
0.0
 11
-78.9200096916
 21
267.4670771536
 31
0.0
  0
SPLINE
  5
14D
330
1F
100
AcDbEntity
  8
0
  6
Continuous
 62
     7
370
    15
100
AcDbSpline
210
0.0
220
0.0
230
1.0
 70
     8
 71
     3
 72
    12
 73
     8
 74
     0
 42
0.00000001
 43
0.00000001
 40
0.0
 40
0.0
 40
0.0
 40
0.0
 40
0.1840815748485214
 40
0.4011040409936362
 40
0.6181280330765316
 40
0.8351538085025423
 40
1.0
 40
1.0
 40
1.0
 40
1.0
 10
585.2624781836204
 20
267.4670771536227
 30
0.0
 10
585.3125919820774
 20
267.1301641731559
 30
0.0
 10
585.4217873053309
 20
266.3960485614243
 30
0.0
 10
585.5903654560734
 20
265.3633472445699
 30
0.0
 10
585.7679180379521
 20
264.5254347726777
 30
0.0
 10
585.9312859965436
 20
264.0433526592798
 30
0.0
 10
586.0351706468887
 20
263.9900759565461
 30
0.0
 10
586.0800154913596
 20
263.9670775112505
 30
0.0
  0
LINE
  5
14E
330
1F
100
AcDbEntity
  8
0
  6
Continuous
 62
     7
370
    15
100
AcDbLine
 10
-78.9200096916
 20
263.9670775113
 30
0.0
 11
-78.9200096916
 21
267.4670771536
 31
0.0
  0
SPLINE
  5
14F
330
1F
100
AcDbEntity
  8
0
  6
Continuous
 62
     7
370
    15
100
AcDbSpline
210
0.0
220
0.0
230
1.0
 70
     8
 71
     3
 72
    11
 73
     7
 74
     0
 42
0.00000001
 43
0.00000001
 40
0.0
 40
0.0
 40
0.0
 40
0.0
 40
0.2500019917313938
 40
0.4999998997211129
 40
0.7499996964599115
 40
1.0
 40
1.0
 40
1.0
 40
1.0
 10
-114.9200104701885
 20
464.1670689758654
 30
0.0
 10
-114.8674014545525
 20
464.1360981278951
 30
0.0
 10
-114.7621842826403
 20
464.0741569378583
 30
0.0
 10
-113.9528020970144
 20
463.9811785891096
 30
0.0
 10
-112.7958985506428
 20
463.8882788576314
 30
0.0
 10
-111.8786402234498
 20
463.8263028444177
 30
0.0
 10
-111.4200105949857
 20
463.7953148064013
 30
0.0
  0
LINE
  5
150
330
1F
100
AcDbEntity
  8
0
  6
Continuous
 62
     7
370
    15
100
AcDbLine
 10
-112.920010608
 20
464.1670689759
 30
0.0
 11
-114.9200104702
 21
464.1670689759
 31
0.0
  0
SPLINE
  5
151
330
1F
100
AcDbEntity
  8
0
  6
Continuous
 62
     7
370
    15
100
AcDbSpline
210
0.0
220
0.0
230
1.0
 70
     8
 71
     3
 72
    11
 73
     7
 74
     0
 42
0.00000001
 43
0.00000001
 40
0.0
 40
0.0
 40
0.0
 40
0.0
 40
0.2499969369544072
 40
0.4999993914388946
 40
0.7500006881314117
 40
0.9999999999999999
 40
0.9999999999999999
 40
0.9999999999999999
 40
0.9999999999999999
 10
-112.9200106080242
 20
464.1670689758654
 30
0.0
 10
-112.897462533357
 20
464.1360977876222
 30
0.0
 10
-112.8523658863777
 20
464.0741547275898
 30
0.0
 10
-112.505495677133
 20
463.9811794788861
 30
0.0
 10
-112.0096796683438
 20
463.8882792698163
 30
0.0
 10
-111.6165664325986
 20
463.826302878865
 30
0.0
 10
-111.4200105949857
 20
463.7953148064013
 30
0.0
  0
SPLINE
  5
152
330
1F
100
AcDbEntity
  8
0
  6
Continuous
 62
     7
370
    15
100
AcDbSpline
210
0.0
220
0.0
230
1.0
 70
     8
 71
     3
 72
    12
 73
     8
 74
     0
 42
0.00000001
 43
0.00000001
 40
0.0
 40
0.0
 40
0.0
 40
0.0
 40
0.2274229994458557
 40
0.4548354559548171
 40
0.682180485334064
 40
0.9095119876042964
 40
1.0
 40
1.0
 40
1.0
 40
1.0
 10
585.2624781836204
 20
267.4670771536227
 30
0.0
 10
585.32448966924
 20
267.288446782471
 30
0.0
 10
585.4485097657335
 20
266.9311943211628
 30
0.0
 10
585.6344699323129
 20
266.4625110159631
 30
0.0
 10
585.8202999491664
 20
266.1228934949944
 30
0.0
 10
585.9691809343348
 20
265.9808771188676
 30
0.0
 10
586.0554526359008
 20
265.9701388979299
 30
0.0
 10
586.0800154913596
 20
265.9670815643664
 30
0.0
  0
LINE
  5
153
330
1F
100
AcDbEntity
  8
0
  6
Continuous
 62
     7
370
    15
100
AcDbLine
 10
586.0800154914
 20
265.9670815644
 30
0.0
 11
586.0800154914
 21
263.9670775113
 31
0.0
  0
LINE
  5
154
330
1F
100
AcDbEntity
  8
0
  6
Continuous
 62
     7
370
    15
100
AcDbLine
 10
-114.9200104702
 20
273.9670828757
 30
0.0
 11
-114.9200104702
 21
464.1670689759
 31
0.0
  0
LINE
  5
155
330
1F
100
AcDbEntity
  8
0
  6
Continuous
 62
     7
370
    15
100
AcDbLine
 10
-111.420010595
 20
273.9670828757
 30
0.0
 11
-114.9200104702
 21
273.9670828757
 31
0.0
  0
LINE
  5
156
330
1F
100
AcDbEntity
  8
0
  6
Continuous
 62
     7
370
    15
100
AcDbLine
 10
655.6800015677
 20
-7.4829205099
 30
0.0
 11
655.6800015677
 21
19.6170762953
 31
0.0
  0
LINE
  5
157
330
1F
100
AcDbEntity
  8
0
  6
Continuous
 62
     7
370
    15
100
AcDbLine
 10
655.6800015677
 20
30.4170803007
 30
0.0
 11
655.6800015677
 21
57.5170771059
 31
0.0
  0
LINE
  5
158
330
1F
100
AcDbEntity
  8
0
  6
Continuous
 62
     7
370
    15
100
AcDbLine
 10
665.679992031
 20
49.4192347702
 30
0.0
 11
665.679992031
 21
53.5170839009
 31
0.0
  0
SPLINE
  5
159
330
1F
100
AcDbEntity
  8
0
  6
Continuous
 62
     7
370
    15
100
AcDbSpline
210
0.0
220
0.0
230
1.0
 70
     8
 71
     3
 72
     9
 73
     5
 74
     0
 42
0.00000001
 43
0.00000001
 40
0.0
 40
0.0
 40
0.0
 40
0.0
 40
0.5209747296694062
 40
1.0
 40
1.0
 40
1.0
 40
1.0
 10
665.0514014471702
 20
48.40530015796379
 30
0.0
 10
665.0794884353884
 20
48.63335853544232
 30
0.0
 10
665.1334008165817
 20
49.07111177852805
 30
0.0
 10
665.5029625984891
 20
49.30648503326096
 30
0.0
 10
665.6799920309714
 20
49.41923477023796
 30
0.0
  0
SPLINE
  5
15A
330
1F
100
AcDbEntity
  8
0
  6
Continuous
 62
     7
370
    15
100
AcDbSpline
210
0.0
220
0.0
230
1.0
 70
     8
 71
     3
 72
     9
 73
     5
 74
     0
 42
0.00000001
 43
0.00000001
 40
0.0
 40
0.0
 40
0.0
 40
0.0
 40
0.4790248181350968
 40
1.0
 40
1.0
 40
1.0
 40
1.0
 10
665.6799920309714
 20
2.069751995503466
 30
0.0
 10
665.5029625986771
 20
2.211334016729322
 30
0.0
 10
665.1334004682983
 20
2.506897035315675
 30
0.0
 10
665.0794883321203
 20
3.003950404203259
 30
0.0
 10
665.0514014471702
 20
3.262902873456042
 30
0.0
  0
LINE
  5
15B
330
1F
100
AcDbEntity
  8
0
  6
Continuous
 62
     7
370
    15
100
AcDbLine
 10
665.679992031
 20
-3.4829273048
 30
0.0
 11
665.679992031
 21
2.0697519955
 31
0.0
  0
SPLINE
  5
15C
330
1F
100
AcDbEntity
  8
0
  6
Continuous
 62
     7
370
    15
100
AcDbSpline
210
0.0
220
0.0
230
1.0
 70
     8
 71
     3
 72
    13
 73
     9
 74
     0
 42
0.00000001
 43
0.00000001
 40
0.0
 40
0.0
 40
0.0
 40
0.0
 40
0.0821602792404792
 40
0.2867699515046938
 40
0.4913778431663719
 40
0.6959841512403115
 40
0.9005924113845182
 40
1.0
 40
1.0
 40
1.0
 40
1.0
 10
658.4671743620567
 20
56.39963902801232
 30
0.0
 10
658.5283834809945
 20
56.37571555138918
 30
0.0
 10
658.7420260858112
 20
56.29221371455917
 30
0.0
 10
659.3908480128425
 20
56.01831175434179
 30
0.0
 10
660.2851362501254
 20
55.65349262294422
 30
0.0
 10
661.1925194071848
 20
55.29610407641267
 30
0.0
 10
661.8825579102785
 20
55.03507554916387
 30
0.0
 10
662.118660818579
 20
54.93933740428872
 30
0.0
 10
662.1958621252708
 20
54.90803279250817
 30
0.0
  0
LINE
  5
15D
330
1F
100
AcDbEntity
  8
0
  6
Continuous
 62
     7
370
    15
100
AcDbLine
 10
665.679992031
 20
47.6500199017
 30
0.0
 11
665.679992031
 21
30.4170803007
 31
0.0
  0
LINE
  5
15E
330
1F
100
AcDbEntity
  8
0
  6
Continuous
 62
     7
370
    15
100
AcDbLine
 10
665.679992031
 20
19.6170762953
 30
0.0
 11
665.679992031
 21
3.9654181179
 31
0.0
  0
ARC
  5
15F
330
1F
100
AcDbEntity
  8
0
  6
Continuous
 62
     7
370
    15
100
AcDbCircle
 10
664.8903667104
 20
4.0394722346
 30
0.0
 40
0.7930902591205616
100
AcDbArc
 50
281.715206373
 51
354.6422513893
  0
ARC
  5
160
330
1F
100
AcDbEntity
  8
0
  6
Continuous
 62
     7
370
    15
100
AcDbCircle
 10
664.8464492106
 20
47.5955103684
 30
0.0
 40
0.8353232443564773
100
AcDbArc
 50
3.7415300504
 51
75.7970796447
  0
SPLINE
  5
161
330
1F
100
AcDbEntity
  8
0
  6
Continuous
 62
     7
370
    15
100
AcDbSpline
210
0.0
220
0.0
230
1.0
 70
     8
 71
     3
 72
     9
 73
     5
 74
     0
 42
0.00000001
 43
0.00000001
 40
0.0
 40
0.0
 40
0.0
 40
0.0
 40
0.5315562968753813
 40
0.9999999999999999
 40
0.9999999999999999
 40
0.9999999999999999
 40
0.9999999999999999
 10
665.6799920309714
 20
3.965418117939989
 30
0.0
 10
665.7006603942588
 20
3.756429568001679
 30
0.0
 10
665.7395431304968
 20
3.363266038255625
 30
0.0
 10
666.0099925102713
 20
3.151676070216103
 30
0.0
 10
666.1366828192405
 20
3.052558082043688
 30
0.0
  0
SPLINE
  5
162
330
1F
100
AcDbEntity
  8
0
  6
Continuous
 62
     7
370
    15
100
AcDbSpline
210
0.0
220
0.0
230
1.0
 70
     8
 71
     3
 72
    12
 73
     8
 74
     0
 42
0.00000001
 43
0.00000001
 40
0.0
 40
0.0
 40
0.0
 40
0.0
 40
0.0304705780563779
 40
0.0888081644170783
 40
0.3925582838364048
 40
0.6962702294316121
 40
1.0
 40
1.0
 40
1.0
 40
1.0
 10
666.1366828192405
 20
3.05255808204366
 30
0.0
 10
666.1369223783366
 20
3.042136945148377
 30
0.0
 10
666.1376205864095
 20
3.011763972338488
 30
0.0
 10
666.1338641547147
 20
2.875856993911241
 30
0.0
 10
666.0848068192464
 20
2.638363437185737
 30
0.0
 10
665.93127020418
 20
2.329522156531483
 30
0.0
 10
665.7724552536177
 20
2.175774667248858
 30
0.0
 10
665.6930454481773
 20
2.098898666798632
 30
0.0
  0
SPLINE
  5
163
330
1F
100
AcDbEntity
  8
0
  6
Continuous
 62
     7
370
    15
100
AcDbSpline
210
0.0
220
0.0
230
1.0
 70
     8
 71
     3
 72
    14
 73
    10
 74
     0
 42
0.00000001
 43
0.00000001
 40
0.0
 40
0.0
 40
0.0
 40
0.0
 40
0.000009536170526
 40
0.000009536170526
 40
0.000009536170526
 40
0.0000219642949668
 40
0.0000219642949668
 40
0.0000219642949668
 40
0.0000450544384129
 40
0.0000450544384129
 40
0.0000450544384129
 40
0.0000450544384129
 10
665.693047690648
 20
2.098902677363346
 30
0.0
 10
665.6906767753009
 20
2.096957823863765
 30
0.0
 10
665.6886273235492
 20
2.094791118293138
 30
0.0
 10
665.6870156171522
 20
2.092638233629818
 30
0.0
 10
665.6849137301375
 20
2.089830575655538
 30
0.0
 10
665.683450678279
 20
2.086962718733792
 30
0.0
 10
665.6824281420181
 20
2.084223043751832
 30
0.0
 10
665.6805327378456
 20
2.07914469925613
 30
0.0
 10
665.679989501772
 20
2.074310448239081
 30
0.0
 10
665.679989501772
 20
2.069753365392474
 30
0.0
  0
SPLINE
  5
164
330
1F
100
AcDbEntity
  8
0
  6
Continuous
 62
     7
370
    15
100
AcDbSpline
210
0.0
220
0.0
230
1.0
 70
     8
 71
     3
 72
     9
 73
     5
 74
     0
 42
0.00000001
 43
0.00000001
 40
0.0
 40
0.0
 40
0.0
 40
0.0
 40
0.4684413617544219
 40
1.0
 40
1.0
 40
1.0
 40
1.0
 10
666.1366828192405
 20
48.43683101504998
 30
0.0
 10
666.0099925124877
 20
48.35811358544387
 30
0.0
 10
665.7395417856807
 20
48.19007242590309
 30
0.0
 10
665.7006599869549
 20
47.83745613637641
 30
0.0
 10
665.6799920309714
 20
47.65001990169243
 30
0.0
  0
SPLINE
  5
165
330
1F
100
AcDbEntity
  8
0
  6
Continuous
 62
     7
370
    15
100
AcDbSpline
210
0.0
220
0.0
230
1.0
 70
     8
 71
     3
 72
    11
 73
     7
 74
     0
 42
0.00000001
 43
0.00000001
 40
0.0
 40
0.0
 40
0.0
 40
0.0
 40
0.3658216167539573
 40
0.7252518174779156
 40
0.9820684138352791
 40
0.9999999999999999
 40
0.9999999999999999
 40
0.9999999999999999
 40
0.9999999999999999
 10
668.6276205290488
 20
47.79989578098012
 30
0.0
 10
668.2865572054839
 20
47.97303663226874
 30
0.0
 10
667.6103894123243
 20
48.31629332166546
 30
0.0
 10
666.7503895177778
 20
48.52780402731877
 30
0.0
 10
666.3038171079419
 20
48.49651158681142
 30
0.0
 10
666.1469226213026
 20
48.44048745949675
 30
0.0
 10
666.1366828192405
 20
48.43683101504998
 30
0.0
  0
SPLINE
  5
166
330
1F
100
AcDbEntity
  8
0
  6
Continuous
 62
     7
370
    15
100
AcDbSpline
210
0.0
220
0.0
230
1.0
 70
     8
 71
     3
 72
    11
 73
     7
 74
     0
 42
0.00000001
 43
0.00000001
 40
0.0
 40
0.0
 40
0.0
 40
0.0
 40
0.235803603637973
 40
0.2749080464856024
 40
0.6342587584120227
 40
1.0
 40
1.0
 40
1.0
 40
1.0
 10
666.1366828192405
 20
3.052558082043688
 30
0.0
 10
666.2845198708167
 20
2.999931711456544
 30
0.0
 10
666.456873449897
 20
2.938578057362418
 30
0.0
 10
666.9399618948215
 20
2.925623301359204
 30
0.0
 10
667.6108246360244
 20
3.042018458856793
 30
0.0
 10
668.2867029680266
 20
3.366172760021047
 30
0.0
 10
668.6276205290488
 20
3.529678362309496
 30
0.0
  0
SPLINE
  5
167
330
1F
100
AcDbEntity
  8
0
  6
Continuous
 62
     7
370
    15
100
AcDbSpline
210
0.0
220
0.0
230
1.0
 70
     8
 71
     3
 72
    10
 73
     6
 74
     0
 42
0.00000001
 43
0.00000001
 40
0.0
 40
0.0
 40
0.0
 40
0.0
 40
0.5
 40
0.5
 40
1.0
 40
1.0
 40
1.0
 40
1.0
 10
685.0903541791014
 20
9.22600638842988
 30
0.0
 10
682.4247964823264
 20
8.024779514967634
 30
0.0
 10
679.7502115260401
 20
6.858583581582034
 30
0.0
 10
674.3917465274413
 20
4.574617467037384
 30
0.0
 10
671.7076945460274
 20
3.457260966662906
 30
0.0
 10
669.0205445533524
 20
2.360199265986268
 30
0.0
  0
SPLINE
  5
168
330
1F
100
AcDbEntity
  8
0
  6
Continuous
 62
     7
370
    15
100
AcDbSpline
210
0.0
220
0.0
230
1.0
 70
     8
 71
     3
 72
    16
 73
    12
 74
     0
 42
0.00000001
 43
0.00000001
 40
0.0
 40
0.0
 40
0.0
 40
0.0
 40
0.2499999999999508
 40
0.2499999999999508
 40
0.4999999999999016
 40
0.4999999999999016
 40
0.6249999999999106
 40
0.6249999999999106
 40
0.7499999999999197
 40
0.7499999999999197
 40
1.0
 40
1.0
 40
1.0
 40
1.0
 10
669.0205369975235
 20
2.360196181231289
 30
0.0
 10
668.6976048366105
 20
2.228355547580996
 30
0.0
 10
668.3791283337243
 20
2.120529042502928
 30
0.0
 10
667.7509722443025
 20
1.954002998957843
 30
0.0
 10
667.4393234773637
 20
1.895809524462833
 30
0.0
 10
667.0057880578189
 20
1.855345562305433
 30
0.0
 10
666.865812654043
 20
1.849351799950355
 30
0.0
 10
666.5951789598791
 20
1.853424625671368
 30
0.0
 10
666.4635050643861
 20
1.863671182291887
 30
0.0
 10
666.0919192411787
 20
1.920235528296704
 30
0.0
 10
665.8759853232983
 20
1.991015484054504
 30
0.0
 10
665.693047690648
 20
2.098902677363346
 30
0.0
  0
ARC
  5
169
330
1F
100
AcDbEntity
  8
0
  6
Continuous
 62
     7
370
    15
100
AcDbCircle
 10
665.0799833426
 20
1.6870194027
 30
0.0
 40
3.997639509540138
100
AcDbArc
 50
9.694565268
 51
27.4475707441
  0
SPLINE
  5
16A
330
1F
100
AcDbEntity
  8
0
  6
Continuous
 62
     7
370
    15
100
AcDbSpline
210
0.0
220
0.0
230
1.0
 70
     8
 71
     3
 72
    12
 73
     8
 74
     0
 42
0.00000001
 43
0.00000001
 40
0.0
 40
0.0
 40
0.0
 40
0.0
 40
0.0304746130755821
 40
0.0888173471210689
 40
0.3925649117445356
 40
0.6962658266575135
 40
1.0
 40
1.0
 40
1.0
 40
1.0
 10
666.1366828192405
 20
48.43683101504998
 30
0.0
 10
666.1369223785827
 20
48.44759336581084
 30
0.0
 10
666.1376205671108
 20
48.4789599147806
 30
0.0
 10
666.1338647433795
 20
48.6188575125068
 30
0.0
 10
666.0848096485532
 20
48.86074351295552
 30
0.0
 10
665.9312640477641
 20
49.1697528790784
 30
0.0
 10
665.7724545464314
 20
49.31853772474565
 30
0.0
 10
665.6930454481773
 20
49.39293422073082
 30
0.0
  0
SPLINE
  5
16B
330
1F
100
AcDbEntity
  8
0
  6
Continuous
 62
     7
370
    15
100
AcDbSpline
210
0.0
220
0.0
230
1.0
 70
     8
 71
     3
 72
    17
 73
    13
 74
     0
 42
0.00000001
 43
0.00000001
 40
0.0
 40
0.0
 40
0.0
 40
0.0
 40
0.0000166887075715
 40
0.0000166887075715
 40
0.0000166887075715
 40
0.0000336582619935
 40
0.0000336582619935
 40
0.0000336582619935
 40
0.0000426621382238
 40
0.0000426621382238
 40
0.0000426621382238
 40
0.0000451385286553
 40
0.0000451385286553
 40
0.0000451385286553
 40
0.0000451385286553
 10
665.6799895017726
 20
49.41923643493501
 30
0.0
 10
665.6799895017726
 20
49.4163625395603
 30
0.0
 10
665.6802915659807
 20
49.41335428465266
 30
0.0
 10
665.6811532436903
 20
49.41018752608078
 30
0.0
 10
665.6820227969251
 20
49.40699182410482
 30
0.0
 10
665.683489244105
 20
49.40354373613046
 30
0.0
 10
665.6860634765045
 20
49.40004100064296
 30
0.0
 10
665.6874407301518
 20
49.39816698366373
 30
0.0
 10
665.6891806194392
 20
49.39624256623743
 30
0.0
 10
665.6912454293184
 20
49.39442588630055
 30
0.0
 10
665.691821020326
 20
49.39391946454927
 30
0.0
 10
665.6924232140465
 20
49.39341921822926
 30
0.0
 10
665.693047690648
 20
49.39292936618794
 30
0.0
  0
LINE
  5
16C
330
1F
100
AcDbEntity
  8
0
  6
Continuous
 62
     7
370
    15
100
AcDbLine
 10
668.627620529
 20
3.5296783623
 30
0.0
 11
684.697449993
 21
10.2477178749
 31
0.0
  0
ARC
  5
16D
330
1F
100
AcDbEntity
  8
0
  6
Continuous
 62
     7
370
    15
100
AcDbCircle
 10
680.0841186384
 20
7.8871910198
 30
0.0
 40
5.182172635180901
100
AcDbArc
 50
14.9721741754
 51
27.0976961729
  0
LINE
  5
16E
330
1F
100
AcDbEntity
  8
0
  6
Continuous
 62
     7
370
    15
100
AcDbLine
 10
684.697449993
 20
40.8528552231
 30
0.0
 11
668.627620529
 21
47.799895781
 31
0.0
  0
LINE
  5
16F
330
1F
100
AcDbEntity
  8
0
  6
Continuous
 62
     7
370
    15
100
AcDbLine
 10
684.697449993
 20
10.2477178749
 30
0.0
 11
684.697449993
 21
40.8528552231
 31
0.0
  0
LINE
  5
170
330
1F
100
AcDbEntity
  8
0
  6
Continuous
 62
     7
370
    15
100
AcDbLine
 10
668.8193686713
 20
52.0465777096
 30
0.0
 11
680.6204922904
 21
46.6665581641
 31
0.0
  0
LINE
  5
171
330
1F
100
AcDbEntity
  8
0
  6
Continuous
 62
     7
370
    15
100
AcDbLine
 10
677.5868542899
 20
48.1472567496
 30
0.0
 11
683.7424643744
 21
45.3811243948
 31
0.0
  0
LINE
  5
172
330
1F
100
AcDbEntity
  8
0
  6
Continuous
 62
     7
370
    15
100
AcDbLine
 10
683.7424643744
 20
45.3811243948
 30
0.0
 11
685.0903638114
 21
44.7735295472
 31
0.0
  0
LINE
  5
173
330
1F
100
AcDbEntity
  8
0
  6
Continuous
 62
     7
370
    15
100
AcDbLine
 10
685.0903638114
 20
41.8328449902
 30
0.0
 11
685.0903638114
 21
44.7735295472
 31
0.0
  0
LINE
  5
174
330
1F
100
AcDbEntity
  8
0
  6
Continuous
 62
     7
370
    15
100
AcDbLine
 10
669.0205343474
 20
48.9259914336
 30
0.0
 11
685.0903638114
 21
41.8328449902
 31
0.0
  0
SPLINE
  5
175
330
1F
100
AcDbEntity
  8
0
  6
Continuous
 62
     7
370
    15
100
AcDbSpline
210
0.0
220
0.0
230
1.0
 70
     8
 71
     3
 72
    10
 73
     6
 74
     0
 42
0.00000001
 43
0.00000001
 40
0.0
 40
0.0
 40
0.0
 40
0.0
 40
0.285766953838358
 40
0.6445565434551587
 40
1.0
 40
1.0
 40
1.0
 40
1.0
 10
665.6930454481773
 20
49.39293422073082
 30
0.0
 10
665.9284329305302
 20
49.45838369552358
 30
0.0
 10
666.4593569578194
 20
49.60600708821023
 30
0.0
 10
667.649808427714
 20
49.43977206941763
 30
0.0
 10
668.5650549967459
 20
49.09671591395498
 30
0.0
 10
669.0205343474082
 20
48.92599143356038
 30
0.0
  0
ARC
  5
176
330
1F
100
AcDbEntity
  8
0
  6
Continuous
 62
     7
370
    15
100
AcDbCircle
 10
664.6870850649
 20
49.8064102135
 30
0.0
 40
4.421981446427117
100
AcDbArc
 50
333.0148774567
 51
348.5156355096
  0
ARC
  5
177
330
1F
100
AcDbEntity
  8
0
  6
Continuous
 62
     7
370
    15
100
AcDbCircle
 10
679.0658511336
 20
43.679531287
 30
0.0
 40
6.301190624298584
100
AcDbArc
 50
333.3464902962
 51
342.9581924673
  0
LWPOLYLINE
  5
178
330
1F
100
AcDbEntity
  8
0
  6
Continuous
 62
     7
370
    15
100
AcDbPolyline
 90
        9
 70
   128
 43
0.0
 10
685.6799729575
 20
9.9545673308
 10
685.6611974944
 20
10.0111321387
 10
685.6055267562
 20
10.0655809817
 10
685.51510651
 20
10.1158574995
 10
685.3932150115
 20
10.1600692448
 10
685.244620632
 20
10.1965621886
 10
685.0747473944
 20
10.2239505228
 10
684.8900326003
 20
10.2412209687
 10
684.697449993
 20
10.2477178749
  0
ARC
  5
179
330
1F
100
AcDbEntity
  8
0
  6
Continuous
 62
     7
370
    15
100
AcDbCircle
 10
684.8681815968
 20
10.0086718178
 30
0.0
 40
0.8135923480068085
100
AcDbArc
 50
285.8480970178
 51
356.1869747481
  0
LINE
  5
17A
330
1F
100
AcDbEntity
  8
0
  6
Continuous
 62
     7
370
    15
100
AcDbLine
 10
685.6799729575
 20
41.0570011315
 30
0.0
 11
685.6799729575
 21
9.9545673308
 31
0.0
  0
ARC
  5
17B
330
1F
100
AcDbEntity
  8
0
  6
Continuous
 62
     7
370
    15
100
AcDbCircle
 10
684.9294440572
 20
42.2027425189
 30
0.0
 40
1.369677683611964
100
AcDbArc
 50
260.2483095106
 51
303.2271885465
  0
LINE
  5
17C
330
1F
100
AcDbEntity
  8
0
  6
Continuous
 62
     7
370
    15
100
AcDbLine
 10
685.6799729575
 20
9.9545673308
 30
0.0
 11
685.6799729575
 21
6.1636672196
 31
0.0
  0
ARC
  5
17D
330
1F
100
AcDbEntity
  8
0
  6
Continuous
 62
     7
370
    15
100
AcDbCircle
 10
684.8236753731
 20
41.0182116662
 30
0.0
 40
0.8571756970605446
100
AcDbArc
 50
2.5936711536
 51
71.8729833598
  0
SPLINE
  5
17E
330
1F
100
AcDbEntity
  8
0
  6
Continuous
 62
     7
370
    15
100
AcDbSpline
210
0.0
220
0.0
230
1.0
 70
     8
 71
     3
 72
    11
 73
     7
 74
     0
 42
0.00000001
 43
0.00000001
 40
0.0
 40
0.0
 40
0.0
 40
0.0
 40
0.2932910740589982
 40
0.5866017308098117
 40
0.8805041482059656
 40
1.0
 40
1.0
 40
1.0
 40
1.0
 10
685.090363811367
 20
44.77352954715447
 30
0.0
 10
685.1884031576178
 20
44.71719067926011
 30
0.0
 10
685.3844883960893
 20
44.60450918179304
 30
0.0
 10
685.5855918513207
 20
44.32437990290678
 30
0.0
 10
685.6715916619687
 20
44.0631929980205
 30
0.0
 10
685.6780935409041
 20
43.90541278950757
 30
0.0
 10
685.6799729574851
 20
43.85980524390892
 30
0.0
  0
LINE
  5
17F
330
1F
100
AcDbEntity
  8
0
  6
Continuous
 62
     7
370
    15
100
AcDbLine
 10
685.6799729575
 20
43.8598052439
 30
0.0
 11
685.6799729575
 21
41.0570011315
 31
0.0
  0
SPLINE
  5
180
330
1F
100
AcDbEntity
  8
0
  6
Continuous
 62
     7
370
    15
100
AcDbSpline
210
0.0
220
0.0
230
1.0
 70
     8
 71
     3
 72
    15
 73
    11
 74
     0
 42
0.00000001
 43
0.00000001
 40
0.0
 40
0.0
 40
0.0
 40
0.0
 40
0.0362417318749438
 40
0.189825529135053
 40
0.3433947993778569
 40
0.4969496522008537
 40
0.6504970933037154
 40
0.804046788608432
 40
0.9577139904541981
 40
1.0
 40
1.0
 40
1.0
 40
1.0
 10
658.1365473974876
 20
56.53446473449425
 30
0.0
 10
658.1478922255978
 20
56.53244847483335
 30
0.0
 10
658.2073137236224
 20
56.5218877886518
 30
0.0
 10
658.6431431827438
 20
56.34151367102694
 30
0.0
 10
659.3810585625657
 20
56.03428228879087
 30
0.0
 10
660.2909774524466
 20
55.66130858022444
 30
0.0
 10
661.2117347273808
 20
55.30041291573032
 30
0.0
 10
661.9771037767991
 20
55.00692278411928
 30
0.0
 10
662.4391545516845
 20
54.82974042171276
 30
0.0
 10
662.5024083345212
 20
54.79101190012312
 30
0.0
 10
662.5160582770042
 20
54.78265442222313
 30
0.0
  0
LINE
  5
181
330
1F
100
AcDbEntity
  8
0
  6
Continuous
 62
     7
370
    15
100
AcDbLine
 10
583.0799945105
 20
-41.1329164329
 30
0.0
 11
583.0799945105
 21
-39.4329174581
 31
0.0
  0
LINE
  5
182
330
1F
100
AcDbEntity
  8
0
  6
Continuous
 62
     7
370
    15
100
AcDbLine
 10
493.0799611319
 20
-41.1329164329
 30
0.0
 11
583.0799945105
 21
-41.1329164329
 31
0.0
  0
LINE
  5
183
330
1F
100
AcDbEntity
  8
0
  6
Continuous
 62
     7
370
    15
100
AcDbLine
 10
493.0799611319
 20
-41.1329164329
 30
0.0
 11
493.0799611319
 21
-39.4329174581
 31
0.0
  0
LINE
  5
184
330
1F
100
AcDbEntity
  8
0
  6
Continuous
 62
     7
370
    15
100
AcDbLine
 10
569.0396435965
 20
-104.1329099956
 30
0.0
 11
507.1203120459
 21
-104.1329099956
 31
0.0
  0
LINE
  5
185
330
1F
100
AcDbEntity
  8
0
  6
Continuous
 62
     7
370
    15
100
AcDbLine
 10
611.2466462363
 20
207.3547535416
 30
0.0
 11
593.8258774985
 21
207.3547535416
 31
0.0
  0
LINE
  5
186
330
1F
100
AcDbEntity
  8
0
  6
Continuous
 62
     7
370
    15
100
AcDbLine
 10
593.8258774985
 20
207.8547545549
 30
0.0
 11
593.8258774985
 21
207.3547535416
 31
0.0
  0
ARC
  5
187
330
1F
100
AcDbEntity
  8
0
  6
Continuous
 62
     7
370
    15
100
AcDbCircle
 10
593.8258785486
 20
206.8547542828
 30
0.0
 40
1.000000000000114
100
AcDbArc
 50
90.0
 51
180.0
  0
ARC
  5
188
330
1F
100
AcDbEntity
  8
0
  6
Continuous
 62
     7
370
    15
100
AcDbCircle
 10
593.8258785486
 20
206.8547542828
 30
0.0
 40
0.5000000000001137
100
AcDbArc
 50
90.0
 51
180.0
  0
LINE
  5
189
330
1F
100
AcDbEntity
  8
0
  6
Continuous
 62
     7
370
    15
100
AcDbLine
 10
592.8258903731
 20
206.854754391
 30
0.0
 11
593.3258541335
 21
206.854754391
 31
0.0
  0
LINE
  5
18A
330
1F
100
AcDbEntity
  8
0
  6
Continuous
 62
     7
370
    15
100
AcDbLine
 10
592.8258903731
 20
88.1670818505
 30
0.0
 11
592.8258903731
 21
206.854754391
 31
0.0
  0
LINE
  5
18B
330
1F
100
AcDbEntity
  8
0
  6
Continuous
 62
     7
370
    15
100
AcDbLine
 10
593.3258541335
 20
206.854754391
 30
0.0
 11
593.3258541335
 21
88.1670818505
 31
0.0
  0
LINE
  5
18C
330
1F
100
AcDbEntity
  8
0
  6
Continuous
 62
     7
370
    15
100
AcDbLine
 10
593.3258541335
 20
88.1670818505
 30
0.0
 11
592.8258903731
 21
88.1670818505
 31
0.0
  0
ARC
  5
18D
330
1F
100
AcDbEntity
  8
0
  6
Continuous
 62
     7
370
    15
100
AcDbCircle
 10
593.8258785486
 20
88.1670797556
 30
0.0
 40
0.5000000000001137
100
AcDbArc
 50
180.0
 51
270.0
  0
LINE
  5
18E
330
1F
100
AcDbEntity
  8
0
  6
Continuous
 62
     7
370
    15
100
AcDbLine
 10
593.8258774985
 20
87.6670808372
 30
0.0
 11
593.8258774985
 21
87.1670798239
 31
0.0
  0
ARC
  5
18F
330
1F
100
AcDbEntity
  8
0
  6
Continuous
 62
     7
370
    15
100
AcDbCircle
 10
593.8258785486
 20
88.1670797556
 30
0.0
 40
1.000000000000114
100
AcDbArc
 50
180.0
 51
270.0
  0
LINE
  5
190
330
1F
100
AcDbEntity
  8
0
  6
Continuous
 62
     7
370
    15
100
AcDbLine
 10
654.0445097197
 20
87.9349888143
 30
0.0
 11
666.4631970633
 21
102.7350232777
 31
0.0
  0
ARC
  5
191
330
1F
100
AcDbEntity
  8
0
  6
Continuous
 62
     7
370
    15
100
AcDbCircle
 10
653.4699478494
 20
88.4170797556
 30
0.0
 40
0.7500000000000818
100
AcDbArc
 50
270.0
 51
320.0
  0
LINE
  5
192
330
1F
100
AcDbEntity
  8
0
  6
Continuous
 62
     7
370
    15
100
AcDbLine
 10
593.8258774985
 20
87.6670808372
 30
0.0
 11
653.4699209441
 21
87.6670808372
 31
0.0
  0
ARC
  5
193
330
1F
100
AcDbEntity
  8
0
  6
Continuous
 62
     7
370
    15
100
AcDbCircle
 10
611.2466749965
 20
206.8547542828
 30
0.0
 40
0.5000000000000464
100
AcDbArc
 50
18.0
 51
90.0
  0
LINE
  5
194
330
1F
100
AcDbEntity
  8
0
  6
Continuous
 62
     7
370
    15
100
AcDbLine
 10
636.1024387587
 20
131.9745809612
 30
0.0
 11
611.722231697
 21
207.0092626688
 31
0.0
  0
ARC
  5
195
330
1F
100
AcDbEntity
  8
0
  6
Continuous
 62
     7
370
    15
100
AcDbCircle
 10
646.8493873394
 20
135.4664747607
 30
0.0
 40
11.30000000000009
100
AcDbArc
 50
198.0
 51
250.0
  0
LINE
  5
196
330
1F
100
AcDbEntity
  8
0
  6
Continuous
 62
     7
370
    15
100
AcDbLine
 10
662.4349363555
 20
117.7685812888
 30
0.0
 11
642.9845698584
 21
124.8479516086
 31
0.0
  0
ARC
  5
197
330
1F
100
AcDbEntity
  8
0
  6
Continuous
 62
     7
370
    15
100
AcDbCircle
 10
659.1857611186
 20
108.8415042388
 30
0.0
 40
9.500000000000005
100
AcDbArc
 50
320.0
 51
70.0
  0
LINE
  5
198
330
1F
100
AcDbEntity
  8
0
  6
Continuous
 62
     7
370
    15
100
AcDbLine
 10
653.4699209441
 20
87.6670808372
 30
0.0
 11
653.4699209441
 21
87.1670798239
 31
0.0
  0
LWPOLYLINE
  5
199
330
1F
100
AcDbEntity
  8
0
  6
Continuous
 62
     7
370
    15
100
AcDbPolyline
 90
        9
 70
   128
 43
0.0
 10
636.5779646147
 20
132.1290911016
 10
636.5688451041
 20
132.1261220452
 10
636.5417845954
 20
132.1173303601
 10
636.4978559722
 20
132.1030513224
 10
636.4386685599
 20
132.083836275
 10
636.366666149
 20
132.0604228255
 10
636.2844117392
 20
132.0337087688
 10
636.1952431906
 20
132.0047260103
 10
636.1024387587
 20
131.9745809612
  0
LWPOLYLINE
  5
19A
330
1F
100
AcDbEntity
  8
0
  6
Continuous
 62
     7
370
    15
100
AcDbPolyline
 90
        9
 70
   128
 43
0.0
 10
643.1555755843
 20
125.3177926716
 10
643.1522973288
 20
125.3087700185
 10
643.1425817717
 20
125.2820298848
 10
643.1267269362
 20
125.238607901
 10
643.1055076827
 20
125.180180448
 10
643.0795796622
 20
125.1089826998
 10
643.0500157584
 20
125.0277490196
 10
643.0179484595
 20
124.9396086511
 10
642.9845698584
 20
124.8479516086
  0
LWPOLYLINE
  5
19B
330
1F
100
AcDbEntity
  8
0
  6
Continuous
 62
     7
370
    15
100
AcDbPolyline
 90
        9
 70
   128
 43
0.0
 10
662.4349363555
 20
117.7685812888
 10
662.4683149565
 20
117.8602457818
 10
662.5003822554
 20
117.9483861503
 10
662.5299461592
 20
118.0296198305
 10
662.5558741797
 20
118.1008175787
 10
662.5771530379
 20
118.1592450318
 10
662.5929482688
 20
118.2026670155
 10
662.6026638259
 20
118.2293996987
 10
662.6059420813
 20
118.2384298024
  0
LWPOLYLINE
  5
19C
330
1F
100
AcDbEntity
  8
0
  6
Continuous
 62
     7
370
    15
100
AcDbPolyline
 90
        9
 70
   128
 43
0.0
 10
666.4631970633
 20
102.7350232777
 10
666.5378816832
 20
102.6723191914
 10
666.6097648848
 20
102.6120290932
 10
666.6759856452
 20
102.5564626631
 10
666.7340405692
 20
102.5077656683
 10
666.7816646804
 20
102.4677933034
 10
666.8170698394
 20
102.4380952892
 10
666.8388255347
 20
102.4198041138
 10
666.8462165106
 20
102.4136275825
  0
LWPOLYLINE
  5
19D
330
1F
100
AcDbEntity
  8
0
  6
Continuous
 62
     7
370
    15
100
AcDbPolyline
 90
        9
 70
   128
 43
0.0
 10
654.0445097197
 20
87.9349888143
 10
654.1191943396
 20
87.872284728
 10
654.1910775412
 20
87.8119946298
 10
654.2572983016
 20
87.7564356503
 10
654.3152936209
 20
87.7077312049
 10
654.3629773368
 20
87.66775884
 10
654.3983228911
 20
87.6380608258
 10
654.4201381911
 20
87.6197696504
 10
654.427529167
 20
87.6135931191
  0
LINE
  5
19E
330
1F
100
AcDbEntity
  8
0
  6
Continuous
 62
     7
370
    15
100
AcDbLine
 10
-132.3200102489
 20
7.3670849976
 30
0.0
 11
-132.3200102489
 21
29.3670848784
 31
0.0
  0
LINE
  5
19F
330
1F
100
AcDbEntity
  8
0
  6
Continuous
 62
     7
370
    15
100
AcDbLine
 10
-134.3200105767
 20
9.3670741495
 30
0.0
 11
-134.3200105767
 21
27.3670808253
 31
0.0
  0
LINE
  5
1A0
330
1F
100
AcDbEntity
  8
0
  6
Continuous
 62
     7
370
    15
100
AcDbLine
 10
564.5799644698
 20
-139.1329064193
 30
0.0
 11
511.5799911727
 21
-139.1329064193
 31
0.0
  0
LINE
  5
1A1
330
1F
100
AcDbEntity
  8
0
  6
Continuous
 62
     7
370
    15
100
AcDbLine
 10
566.5799983252
 20
-133.1329240623
 30
0.0
 11
509.5800169219
 21
-133.1329240623
 31
0.0
  0
LINE
  5
1A2
330
1F
100
AcDbEntity
  8
0
  6
Continuous
 62
     7
370
    15
100
AcDbLine
 10
-113.720010646
 20
225.1670800921
 30
0.0
 11
-113.720010646
 21
224.9749258932
 31
0.0
  0
LINE
  5
1A3
330
1F
100
AcDbEntity
  8
0
  6
Continuous
 62
     7
370
    15
100
AcDbLine
 10
-113.720010646
 20
244.1670813438
 30
0.0
 11
-113.7100105699
 21
244.1670813438
 31
0.0
  0
LINE
  5
1A4
330
1F
100
AcDbEntity
  8
0
  6
Continuous
 62
     7
370
    15
100
AcDbLine
 10
-136.3200109046
 20
7.3670849976
 30
0.0
 11
-136.3200109046
 21
29.3670848784
 31
0.0
  0
LINE
  5
1A5
330
1F
100
AcDbEntity
  8
0
  6
Continuous
 62
     7
370
    15
100
AcDbLine
 10
-138.3200112324
 20
9.3670741495
 30
0.0
 11
-138.3200112324
 21
27.3670808253
 31
0.0
  0
LINE
  5
1A6
330
1F
100
AcDbEntity
  8
0
  6
Continuous
 62
     7
370
    15
100
AcDbLine
 10
-140.3200096976
 20
7.3670849976
 30
0.0
 11
-140.3200096976
 21
29.3670848784
 31
0.0
  0
LINE
  5
1A7
330
1F
100
AcDbEntity
  8
0
  6
Continuous
 62
     7
370
    15
100
AcDbLine
 10
-142.3200100254
 20
9.3670741495
 30
0.0
 11
-142.3200100254
 21
27.3670808253
 31
0.0
  0
LINE
  5
1A8
330
1F
100
AcDbEntity
  8
0
  6
Continuous
 62
     7
370
    15
100
AcDbLine
 10
655.5799849738
 20
25.017078298
 30
0.0
 11
655.5799849738
 21
36.4462242302
 31
0.0
  0
LINE
  5
1A9
330
1F
100
AcDbEntity
  8
0
  6
Continuous
 62
     7
370
    15
100
AcDbLine
 10
655.5799849738
 20
13.5879323658
 30
0.0
 11
655.5799849738
 21
25.017078298
 31
0.0
  0
SPLINE
  5
1AA
330
1F
100
AcDbEntity
  8
0
  6
Continuous
 62
     7
370
    15
100
AcDbSpline
210
0.0
220
0.0
230
1.0
 70
    24
 71
     3
 72
    13
 73
     9
 74
     0
 42
0.00000001
 43
0.00000001
 40
0.0
 40
0.0
 40
0.0
 40
0.0
 40
0.2394570257525782
 40
0.3683604153253028
 40
0.5000007541584301
 40
0.6316395846746973
 40
0.7605429742474219
 40
1.0
 40
1.0
 40
1.0
 40
1.0
 10
670.0800069082908
 20
20.11708475917534
 30
0.0
 10
670.0800069082908
 20
20.18254013606002
 30
0.0
 10
670.080006908291
 20
20.2832311462266
 30
0.0
 10
670.0800069082907
 20
20.89424210666796
 30
0.0
 10
670.0800069082908
 20
21.52664682698799
 30
0.0
 10
670.0800069082907
 20
22.31165135046056
 30
0.0
 10
670.0800069082908
 20
23.45245603793949
 30
0.0
 10
670.0800069082908
 20
24.40067645184002
 30
0.0
 10
670.0800069082908
 20
25.01707829803185
 30
0.0
  0
LINE
  5
1AB
330
1F
100
AcDbEntity
  8
0
  6
Continuous
 62
     7
370
    15
100
AcDbLine
 10
594.8258646239
 20
208.6547550586
 30
0.0
 11
594.8258646239
 21
207.8547545549
 31
0.0
  0
LINE
  5
1AC
330
1F
100
AcDbEntity
  8
0
  6
Continuous
 62
     7
370
    15
100
AcDbLine
 10
594.8258646239
 20
207.8547545549
 30
0.0
 11
592.8258903731
 21
207.8547545549
 31
0.0
  0
LINE
  5
1AD
330
1F
100
AcDbEntity
  8
0
  6
Continuous
 62
     7
370
    15
100
AcDbLine
 10
592.8258903731
 20
207.8547545549
 30
0.0
 11
592.8258903731
 21
208.6547550586
 31
0.0
  0
LINE
  5
1AE
330
1F
100
AcDbEntity
  8
0
  6
Continuous
 62
     7
370
    15
100
AcDbLine
 10
592.8258903731
 20
208.6547550586
 30
0.0
 11
594.8258646239
 21
208.6547550586
 31
0.0
  0
LINE
  5
1AF
330
1F
100
AcDbEntity
  8
0
  6
Continuous
 62
     7
370
    15
100
AcDbLine
 10
611.0650308837
 20
207.8547545549
 30
0.0
 11
611.0650308837
 21
208.6547550586
 31
0.0
  0
LINE
  5
1B0
330
1F
100
AcDbEntity
  8
0
  6
Continuous
 62
     7
370
    15
100
AcDbLine
 10
594.8258646239
 20
208.6547550586
 30
0.0
 11
611.0650308837
 21
208.6547550586
 31
0.0
  0
LINE
  5
1B1
330
1F
100
AcDbEntity
  8
0
  6
Continuous
 62
     7
370
    15
100
AcDbLine
 10
594.8258646239
 20
207.8547545549
 30
0.0
 11
611.0650308837
 21
207.8547545549
 31
0.0
  0
LINE
  5
1B2
330
1F
100
AcDbEntity
  8
0
  6
Continuous
 62
     7
370
    15
100
AcDbLine
 10
653.4699209441
 20
86.3670811829
 30
0.0
 11
653.4699209441
 21
87.1670798239
 31
0.0
  0
LINE
  5
1B3
330
1F
100
AcDbEntity
  8
0
  6
Continuous
 62
     7
370
    15
100
AcDbLine
 10
594.8258646239
 20
87.1670798239
 30
0.0
 11
594.8258646239
 21
86.3670811829
 31
0.0
  0
LINE
  5
1B4
330
1F
100
AcDbEntity
  8
0
  6
Continuous
 62
     7
370
    15
100
AcDbLine
 10
594.8258646239
 20
87.1670798239
 30
0.0
 11
653.4699209441
 21
87.1670798239
 31
0.0
  0
LINE
  5
1B5
330
1F
100
AcDbEntity
  8
0
  6
Continuous
 62
     7
370
    15
100
AcDbLine
 10
594.8258646239
 20
86.3670811829
 30
0.0
 11
653.4699209441
 21
86.3670811829
 31
0.0
  0
LINE
  5
1B6
330
1F
100
AcDbEntity
  8
0
  6
Continuous
 62
     7
370
    15
100
AcDbLine
 10
592.8258903731
 20
86.3670811829
 30
0.0
 11
592.8258903731
 21
87.1670798239
 31
0.0
  0
LINE
  5
1B7
330
1F
100
AcDbEntity
  8
0
  6
Continuous
 62
     7
370
    15
100
AcDbLine
 10
592.8258903731
 20
87.1670798239
 30
0.0
 11
594.8258646239
 21
87.1670798239
 31
0.0
  0
LINE
  5
1B8
330
1F
100
AcDbEntity
  8
0
  6
Continuous
 62
     7
370
    15
100
AcDbLine
 10
594.8258646239
 20
86.3670811829
 30
0.0
 11
592.8258903731
 21
86.3670811829
 31
0.0
  0
LINE
  5
1B9
330
1F
100
AcDbEntity
  8
0
  6
Continuous
 62
     7
370
    15
100
AcDbLine
 10
636.5779646147
 20
132.1290911016
 30
0.0
 11
637.3388179053
 21
132.3763050911
 31
0.0
  0
LINE
  5
1BA
330
1F
100
AcDbEntity
  8
0
  6
Continuous
 62
     7
370
    15
100
AcDbLine
 10
636.5779646147
 20
132.1290911016
 30
0.0
 11
612.2538455237
 21
206.9910255101
 31
0.0
  0
LINE
  5
1BB
330
1F
100
AcDbEntity
  8
0
  6
Continuous
 62
     7
370
    15
100
AcDbLine
 10
612.2538455237
 20
206.9910255101
 30
0.0
 11
613.0146988143
 21
207.2382394996
 31
0.0
  0
LINE
  5
1BC
330
1F
100
AcDbEntity
  8
0
  6
Continuous
 62
     7
370
    15
100
AcDbLine
 10
637.3388179053
 20
132.3763050911
 30
0.0
 11
613.0146988143
 21
207.2382394996
 31
0.0
  0
ARC
  5
1BD
330
1F
100
AcDbEntity
  8
0
  6
Continuous
 62
     7
370
    15
100
AcDbCircle
 10
611.0650393645
 20
206.6047542828
 30
0.0
 40
2.049999999999898
100
AcDbArc
 50
18.0
 51
90.0
  0
ARC
  5
1BE
330
1F
100
AcDbEntity
  8
0
  6
Continuous
 62
     7
370
    15
100
AcDbCircle
 10
611.0650393645
 20
206.6047542828
 30
0.0
 40
1.249999999999886
100
AcDbArc
 50
18.0
 51
90.0
  0
ARC
  5
1BF
330
1F
100
AcDbEntity
  8
0
  6
Continuous
 62
     7
370
    15
100
AcDbCircle
 10
646.8493873394
 20
135.4664747607
 30
0.0
 40
10.80000000000014
100
AcDbArc
 50
198.0
 51
250.0
  0
LINE
  5
1C0
330
1F
100
AcDbEntity
  8
0
  6
Continuous
 62
     7
370
    15
100
AcDbLine
 10
643.4291609038
 20
126.0695488033
 30
0.0
 11
643.1555755843
 21
125.3177926716
 31
0.0
  0
ARC
  5
1C1
330
1F
100
AcDbEntity
  8
0
  6
Continuous
 62
     7
370
    15
100
AcDbCircle
 10
646.8493873394
 20
135.4664747607
 30
0.0
 40
10.00000000000019
100
AcDbArc
 50
198.0
 51
250.0
  0
LINE
  5
1C2
330
1F
100
AcDbEntity
  8
0
  6
Continuous
 62
     7
370
    15
100
AcDbLine
 10
662.6059420813
 20
118.2384298024
 30
0.0
 11
662.8795870055
 21
118.990185934
 31
0.0
  0
LINE
  5
1C3
330
1F
100
AcDbEntity
  8
0
  6
Continuous
 62
     7
370
    15
100
AcDbLine
 10
662.6059420813
 20
118.2384298024
 30
0.0
 11
643.1555755843
 21
125.3177926716
 31
0.0
  0
LINE
  5
1C4
330
1F
100
AcDbEntity
  8
0
  6
Continuous
 62
     7
370
    15
100
AcDbLine
 10
662.8795870055
 20
118.990185934
 30
0.0
 11
643.4291609038
 21
126.0695488033
 31
0.0
  0
LINE
  5
1C5
330
1F
100
AcDbEntity
  8
0
  6
Continuous
 62
     7
370
    15
100
AcDbLine
 10
654.427529167
 20
87.6135931191
 30
0.0
 11
655.04032452
 21
87.0993614969
 31
0.0
  0
LINE
  5
1C6
330
1F
100
AcDbEntity
  8
0
  6
Continuous
 62
     7
370
    15
100
AcDbLine
 10
654.427529167
 20
87.6135931191
 30
0.0
 11
666.8462165106
 21
102.4136275825
 31
0.0
  0
LINE
  5
1C7
330
1F
100
AcDbEntity
  8
0
  6
Continuous
 62
     7
370
    15
100
AcDbLine
 10
667.4590118636
 20
101.8993959603
 30
0.0
 11
666.8462165106
 21
102.4136275825
 31
0.0
  0
LINE
  5
1C8
330
1F
100
AcDbEntity
  8
0
  6
Continuous
 62
     7
370
    15
100
AcDbLine
 10
655.04032452
 20
87.0993614969
 30
0.0
 11
667.4590118636
 21
101.8993959603
 31
0.0
  0
ARC
  5
1C9
330
1F
100
AcDbEntity
  8
0
  6
Continuous
 62
     7
370
    15
100
AcDbCircle
 10
653.4699478494
 20
88.4170797556
 30
0.0
 40
2.049999999999983
100
AcDbArc
 50
270.0
 51
320.0
  0
ARC
  5
1CA
330
1F
100
AcDbEntity
  8
0
  6
Continuous
 62
     7
370
    15
100
AcDbCircle
 10
653.4699478494
 20
88.4170797556
 30
0.0
 40
1.250000000000069
100
AcDbArc
 50
270.0
 51
320.0
  0
ARC
  5
1CB
330
1F
100
AcDbEntity
  8
0
  6
Continuous
 62
     7
370
    15
100
AcDbCircle
 10
659.1857611186
 20
108.8415042388
 30
0.0
 40
10.00000000000005
100
AcDbArc
 50
320.0
 51
70.0
  0
ARC
  5
1CC
330
1F
100
AcDbEntity
  8
0
  6
Continuous
 62
     7
370
    15
100
AcDbCircle
 10
659.1857611186
 20
108.8415042388
 30
0.0
 40
10.80000000000001
100
AcDbArc
 50
320.0
 51
70.0
  0
LINE
  5
1CD
330
1F
100
AcDbEntity
  8
0
  6
Continuous
 62
     7
370
    15
100
AcDbLine
 10
612.621427368
 20
208.4487036642
 30
0.0
 11
613.0146988143
 21
207.2382394996
 31
0.0
  0
ARC
  5
1CE
330
1F
100
AcDbEntity
  8
0
  6
Continuous
 62
     7
370
    15
100
AcDbCircle
 10
613.810221985
 20
208.8349752507
 30
0.0
 40
2.050000000000108
100
AcDbArc
 50
170.6830271435
 51
188.7082318348
  0
ARC
  5
1CF
330
1F
100
AcDbEntity
  8
0
  6
Continuous
 62
     7
370
    15
100
AcDbCircle
 10
613.810221985
 20
208.8349752507
 30
0.0
 40
1.250000000000058
100
AcDbArc
 50
164.6027591438
 51
198.0
  0
LINE
  5
1D0
330
1F
100
AcDbEntity
  8
0
  6
Continuous
 62
     7
370
    15
100
AcDbLine
 10
-144.3200103532
 20
7.3670849976
 30
0.0
 11
-144.3200103532
 21
29.3670848784
 31
0.0
  0
LINE
  5
1D1
330
1F
100
AcDbEntity
  8
0
  6
Continuous
 62
     7
370
    15
100
AcDbLine
 10
-146.320010681
 20
9.3670741495
 30
0.0
 11
-146.320010681
 21
27.3670808253
 31
0.0
  0
LINE
  5
1D2
330
1F
100
AcDbEntity
  8
0
  6
Continuous
 62
     7
370
    15
100
AcDbLine
 10
653.8800009001
 20
51.1227057156
 30
0.0
 11
653.8800009001
 21
-4.8889412704
 31
0.0
  0
SPLINE
  5
1D3
330
1F
100
AcDbEntity
  8
0
  6
Continuous
 62
     7
370
    15
100
AcDbSpline
210
0.0
220
0.0
230
1.0
 70
     8
 71
     3
 72
    16
 73
    12
 74
     0
 42
0.00000001
 43
0.00000001
 40
0.0
 40
0.0
 40
0.0
 40
0.0
 40
0.125
 40
0.125
 40
0.25
 40
0.25
 40
0.5
 40
0.5
 40
0.75
 40
0.75
 40
1.0
 40
1.0
 40
1.0
 40
1.0
 10
653.8799895017858
 20
51.12270187592271
 30
0.0
 10
653.9866487479809
 20
51.10830386800453
 30
0.0
 10
654.0889325687125
 20
51.09244479677813
 30
0.0
 10
654.2834023147244
 20
51.05811193881962
 30
0.0
 10
654.3755882400046
 20
51.03963815208751
 30
0.0
 10
654.6349786058818
 20
50.98075583529854
 30
0.0
 10
654.7850156365149
 20
50.93688634864913
 30
0.0
 10
655.0285335816824
 20
50.84237744665543
 30
0.0
 10
655.121837304854
 20
50.79180786521764
 30
0.0
 10
655.2475652649059
 20
50.68729859675506
 30
0.0
 10
655.2799895017857
 20
50.63335890973025
 30
0.0
 10
655.2799895017857
 20
50.57936424755932
 30
0.0
  0
LINE
  5
1D4
330
1F
100
AcDbEntity
  8
0
  6
Continuous
 62
     7
370
    15
100
AcDbLine
 10
655.2799947966
 20
50.579364675
 30
0.0
 11
655.2799947966
 21
-4.3451978984
 31
0.0
  0
SPLINE
  5
1D5
330
1F
100
AcDbEntity
  8
0
  6
Continuous
 62
     7
370
    15
100
AcDbSpline
210
0.0
220
0.0
230
1.0
 70
     8
 71
     3
 72
    19
 73
    15
 74
     0
 42
0.00000001
 43
0.00000001
 40
0.0
 40
0.0
 40
0.0
 40
0.0
 40
0.0570959080926629
 40
0.1156518052370862
 40
0.175673561697978
 40
0.2371666253302649
 40
0.3001360595090646
 40
0.3645865770444616
 40
0.4305225705602752
 40
0.4979481397533431
 40
0.6162043907298509
 40
0.7486213188526899
 40
0.8538534972356707
 40
1.0
 40
1.0
 40
1.0
 40
1.0
 10
653.879989501786
 20
-4.888936914443836
 30
0.0
 10
653.9286150687673
 20
-4.882110958281338
 30
0.0
 10
654.0271095982343
 20
-4.868284500676334
 30
0.0
 10
654.168890717495
 20
-4.844921310399153
 30
0.0
 10
654.307536546598
 20
-4.819331450120395
 30
0.0
 10
654.4414936157299
 20
-4.791331826686118
 30
0.0
 10
654.569840084958
 20
-4.760973281720037
 30
0.0
 10
654.691411443113
 20
-4.72824158309465
 30
0.0
 10
654.8050681801034
 20
-4.693140802073392
 30
0.0
 10
654.9350533597933
 20
-4.646529500249269
 30
0.0
 10
655.0731416292091
 20
-4.584380619925499
 30
0.0
 10
655.1845975820436
 20
-4.511569714224839
 30
0.0
 10
655.2634590178799
 20
-4.430461361541848
 30
0.0
 10
655.2739122203717
 20
-4.376548555788728
 30
0.0
 10
655.2799895017857
 20
-4.345204736260877
 30
0.0
  0
SPLINE
  5
1D6
330
1F
100
AcDbEntity
  8
0
  6
Continuous
 62
     7
370
    15
100
AcDbSpline
210
0.0
220
0.0
230
1.0
 70
     8
 71
     3
 72
    19
 73
    15
 74
     0
 42
0.00000001
 43
0.00000001
 40
0.0
 40
0.0
 40
0.0
 40
0.0
 40
0.0571115640935952
 40
0.1156812592866209
 40
0.1757147833893945
 40
0.2372174247608504
 40
0.3001940990521121
 40
0.3646493820584416
 40
0.4305875391446957
 40
0.4980125516486505
 40
0.6162616165384391
 40
0.7486631924159475
 40
0.8538790033185826
 40
1.0
 40
1.0
 40
1.0
 40
1.0
 10
653.879989501786
 20
53.11707975564922
 30
0.0
 10
653.9286146978467
 20
53.08526682025389
 30
0.0
 10
654.0271065532646
 20
53.02082872463271
 30
0.0
 10
654.1688880185366
 20
52.91220976831396
 30
0.0
 10
654.3075337746744
 20
52.79311037060444
 30
0.0
 10
654.4414909464793
 20
52.66257685346748
 30
0.0
 10
654.5698375166173
 20
52.5207746418336
 30
0.0
 10
654.691409022631
 20
52.36767636952225
 30
0.0
 10
654.8050659357611
 20
52.20342846665352
 30
0.0
 10
654.9350496435148
 20
51.98558637931619
 30
0.0
 10
655.0731378190526
 20
51.69607810207333
 30
0.0
 10
655.1845958120255
 20
51.355725027731
 30
0.0
 10
655.2634586615183
 20
50.97799460611602
 30
0.0
 10
655.2739121199105
 20
50.72591632094839
 30
0.0
 10
655.2799895017857
 20
50.57936424755932
 30
0.0
  0
SPLINE
  5
1D7
330
1F
100
AcDbEntity
  8
0
  6
Continuous
 62
     7
370
    15
100
AcDbSpline
210
0.0
220
0.0
230
1.0
 70
     8
 71
     3
 72
    10
 73
     6
 74
     0
 42
0.00000001
 43
0.00000001
 40
0.0
 40
0.0
 40
0.0
 40
0.0
 40
0.5
 40
0.5
 40
1.0
 40
1.0
 40
1.0
 40
1.0
 10
653.8799895017858
 20
53.11707975564922
 30
0.0
 10
653.8794479045838
 20
53.11742122636204
 30
0.0
 10
653.8799895017858
 20
52.89447857488558
 30
0.0
 10
653.8799895017858
 20
52.17148219972825
 30
0.0
 10
653.8805312930393
 20
51.67228748830932
 30
0.0
 10
653.8799895017858
 20
51.12270187592271
 30
0.0
  0
SPLINE
  5
1D8
330
1F
100
AcDbEntity
  8
0
  6
Continuous
 62
     7
370
    15
100
AcDbSpline
210
0.0
220
0.0
230
1.0
 70
     8
 71
     3
 72
    19
 73
    15
 74
     0
 42
0.00000001
 43
0.00000001
 40
0.0
 40
0.0
 40
0.0
 40
0.0
 40
0.0571143122037633
 40
0.1156859695385937
 40
0.1757206699038142
 40
0.2372237019665138
 40
0.3001999818643052
 40
0.3646540860234532
 40
0.430590280555995
 40
0.4980125476391929
 40
0.6162771910106095
 40
0.7486631870564214
 40
0.8538896613728935
 40
1.0
 40
1.0
 40
1.0
 40
1.0
 10
653.879989501786
 20
-6.882920244350776
 30
0.0
 10
653.9286170163481
 20
-6.851105737124275
 30
0.0
 10
654.0271128390467
 20
-6.786664934602449
 30
0.0
 10
654.1688986510936
 20
-6.678041761970316
 30
0.0
 10
654.3075465012836
 20
-6.558939271659348
 30
0.0
 10
654.4415037252742
 20
-6.428404082792715
 30
0.0
 10
654.5698486117866
 20
-6.286601963813227
 30
0.0
 10
654.6914170492855
 20
-6.13350585885597
 30
0.0
 10
654.8050699251509
 20
-5.969262450571749
 30
0.0
 10
654.9350588511727
 20
-5.751410939623113
 30
0.0
 10
655.0731436979995
 20
-5.461903818426761
 30
0.0
 10
655.1846023242016
 20
-5.121540013120818
 30
0.0
 10
655.2634601397207
 20
-4.743824359375509
 30
0.0
 10
655.2739129437352
 20
-4.49174610128647
 30
0.0
 10
655.2799895017857
 20
-4.345204736260877
 30
0.0
  0
SPLINE
  5
1D9
330
1F
100
AcDbEntity
  8
0
  6
Continuous
 62
     7
370
    15
100
AcDbSpline
210
0.0
220
0.0
230
1.0
 70
     8
 71
     3
 72
    10
 73
     6
 74
     0
 42
0.00000001
 43
0.00000001
 40
0.0
 40
0.0
 40
0.0
 40
0.0
 40
0.5
 40
0.5
 40
1.0
 40
1.0
 40
1.0
 40
1.0
 10
653.8799895017858
 20
-4.888936914443836
 30
0.0
 10
653.8805314000089
 20
-5.438522526312273
 30
0.0
 10
653.8799895017858
 20
-5.937618718786175
 30
0.0
 10
653.8799895017858
 20
-6.660417937802587
 30
0.0
 10
653.8794477976523
 20
-6.883261782482498
 30
0.0
 10
653.8799895017858
 20
-6.882920244350776
 30
0.0
  0
LINE
  5
1DA
330
1F
100
AcDbEntity
  8
0
  6
Continuous
 62
     7
370
    15
100
AcDbLine
 10
-130.3200099211
 20
29.3670848784
 30
0.0
 11
-130.3200099211
 21
7.3670849976
 31
0.0
  0
LINE
  5
1DB
330
1F
100
AcDbEntity
  8
0
  6
Continuous
 62
     7
370
    15
100
AcDbLine
 10
652.2799738158
 20
53.1170771298
 30
0.0
 11
653.8800009001
 21
53.1170771298
 31
0.0
  0
SPLINE
  5
1DC
330
1F
100
AcDbEntity
  8
0
  6
Continuous
 62
     7
370
    15
100
AcDbSpline
210
0.0
220
0.0
230
1.0
 70
    24
 71
     3
 72
    11
 73
     7
 74
     0
 42
0.00000001
 43
0.00000001
 40
0.0
 40
0.0
 40
0.0
 40
0.0
 40
0.2833511456529586
 40
0.5581138584615709
 40
0.7754843031807881
 40
0.9999999999999999
 40
0.9999999999999999
 40
0.9999999999999999
 40
0.9999999999999999
 10
653.8800009001426
 20
51.12270571559624
 30
0.0
 10
653.8800009001426
 20
51.41975333228218
 30
0.0
 10
653.8800009001425
 20
52.00484498989097
 30
0.0
 10
653.8800009001426
 20
52.65293459852916
 30
0.0
 10
653.8800009001428
 20
53.04686097172903
 30
0.0
 10
653.8800009001426
 20
53.09342078799789
 30
0.0
 10
653.8800009001426
 20
53.11707712978081
 30
0.0
  0
LINE
  5
1DD
330
1F
100
AcDbEntity
  8
0
  6
Continuous
 62
     7
370
    15
100
AcDbLine
 10
652.2799738158
 20
51.1227057156
 30
0.0
 11
653.8800009001
 21
51.1227057156
 31
0.0
  0
LINE
  5
1DE
330
1F
100
AcDbEntity
  8
0
  6
Continuous
 62
     7
370
    15
100
AcDbLine
 10
652.2799738158
 20
-4.8889412704
 30
0.0
 11
653.8800009001
 21
-4.8889412704
 31
0.0
  0
LINE
  5
1DF
330
1F
100
AcDbEntity
  8
0
  6
Continuous
 62
     7
370
    15
100
AcDbLine
 10
652.2799738158
 20
-6.8829252544
 30
0.0
 11
653.8800009001
 21
-6.8829252544
 31
0.0
  0
SPLINE
  5
1E0
330
1F
100
AcDbEntity
  8
0
  6
Continuous
 62
     7
370
    15
100
AcDbSpline
210
0.0
220
0.0
230
1.0
 70
    24
 71
     3
 72
    11
 73
     7
 74
     0
 42
0.00000001
 43
0.00000001
 40
0.0
 40
0.0
 40
0.0
 40
0.0
 40
0.2832816343988753
 40
0.5580030264000353
 40
0.7754000598457428
 40
1.0
 40
1.0
 40
1.0
 40
1.0
 10
653.8800009001426
 20
-6.882925254404981
 30
0.0
 10
653.8800009001426
 20
-6.844639940129821
 30
0.0
 10
653.8800009001426
 20
-6.769226222337831
 30
0.0
 10
653.8800009001426
 20
-6.236274049853191
 30
0.0
 10
653.8800009001426
 20
-5.585863468225039
 30
0.0
 10
653.8800009001425
 20
-5.123758865109796
 30
0.0
 10
653.8800009001426
 20
-4.888941270411451
 30
0.0
  0
ARC
  5
1E1
330
1F
100
AcDbEntity
  8
0
  6
Continuous
 62
     7
370
    15
100
AcDbCircle
 10
-111.8100104982
 20
271.7170797556
 30
0.0
 40
1.900000000000006
100
AcDbArc
 50
90.0
 51
180.0
  0
LINE
  5
1E2
330
1F
100
AcDbEntity
  8
0
  6
Continuous
 62
     7
370
    15
100
AcDbLine
 10
-81.8100098114
 20
273.617076951
 30
0.0
 11
-111.8100105378
 21
273.617076951
 31
0.0
  0
ARC
  5
1E3
330
1F
100
AcDbEntity
  8
0
  6
Continuous
 62
     7
370
    15
100
AcDbCircle
 10
-81.8100104982
 20
271.7170797556
 30
0.0
 40
1.90000000000002
100
AcDbArc
 50
0.0
 51
90.0
  0
LINE
  5
1E4
330
1F
100
AcDbEntity
  8
0
  6
Continuous
 62
     7
370
    15
100
AcDbLine
 10
-79.9100111764
 20
228.6170788881
 30
0.0
 11
-79.9100111764
 21
271.7170820412
 31
0.0
  0
LINE
  5
1E5
330
1F
100
AcDbEntity
  8
0
  6
Continuous
 62
     7
370
    15
100
AcDbLine
 10
-113.7100105699
 20
228.6170788881
 30
0.0
 11
-79.9100111764
 21
228.6170788881
 31
0.0
  0
LINE
  5
1E6
330
1F
100
AcDbEntity
  8
0
  6
Continuous
 62
     7
370
    15
100
AcDbLine
 10
-113.7100105699
 20
271.7170820412
 30
0.0
 11
-113.7100105699
 21
228.6170788881
 31
0.0
  0
LINE
  5
1E7
330
1F
100
AcDbEntity
  8
0
  6
Continuous
 62
     7
370
    15
100
AcDbLine
 10
-113.7100105699
 20
226.1670783934
 30
0.0
 11
-113.7100105699
 21
228.6170788881
 31
0.0
  0
LINE
  5
1E8
330
1F
100
AcDbEntity
  8
0
  6
Continuous
 62
     7
370
    15
100
AcDbLine
 10
662.1800072898
 20
-7.4829205099
 30
0.0
 11
662.1800072898
 21
-4.8829212013
 31
0.0
  0
LINE
  5
1E9
330
1F
100
AcDbEntity
  8
0
  6
Continuous
 62
     7
370
    15
100
AcDbLine
 10
662.1800072898
 20
55.0578788695
 30
0.0
 11
662.1800072898
 21
57.5170771059
 31
0.0
  0
LINE
  5
1EA
330
1F
100
AcDbEntity
  8
0
  6
Continuous
 62
     7
370
    15
100
AcDbLine
 10
672.179997753
 20
50.5920753655
 30
0.0
 11
672.179997753
 21
53.5170839009
 31
0.0
  0
LINE
  5
1EB
330
1F
100
AcDbEntity
  8
0
  6
Continuous
 62
     7
370
    15
100
AcDbLine
 10
672.179997753
 20
-3.4829273048
 30
0.0
 11
672.179997753
 21
-0.5579187694
 31
0.0
  0
SPLINE
  5
1EC
330
1F
100
AcDbEntity
  8
0
  6
Continuous
 62
     7
370
    15
100
AcDbSpline
210
0.0
220
0.0
230
1.0
 70
     8
 71
     3
 72
    15
 73
    11
 74
     0
 42
0.00000001
 43
0.00000001
 40
0.0
 40
0.0
 40
0.0
 40
0.0
 40
0.087400188578789
 40
0.2177579955970361
 40
0.3481127359885172
 40
0.4784661340840158
 40
0.6088188381547008
 40
0.7391721370660073
 40
0.869521326398949
 40
1.0
 40
1.0
 40
1.0
 40
1.0
 10
664.5579941977195
 20
56.56265773147298
 30
0.0
 10
664.5836491566357
 20
56.55229392456063
 30
0.0
 10
664.6475686117475
 20
56.52647244915335
 30
0.0
 10
665.1299298316717
 20
56.30323719543487
 30
0.0
 10
665.8783116512203
 20
55.97043327479847
 30
0.0
 10
666.7857206989946
 20
55.59146342943414
 30
0.0
 10
667.70275523011
 20
55.23822542264881
 30
0.0
 10
668.4837705319649
 20
54.95956622217424
 30
0.0
 10
669.0347520033795
 20
54.77363528549603
 30
0.0
 10
669.1072775558515
 20
54.74465497834336
 30
0.0
 10
669.1435583342246
 20
54.73015763133721
 30
0.0
  0
LINE
  5
1ED
330
1F
100
AcDbEntity
  8
0
  6
Continuous
 62
     7
370
    15
100
AcDbLine
 10
673.0819352378
 20
53.1106547293
 30
0.0
 11
690.2424700965
 21
45.347671288
 31
0.0
  0
LINE
  5
1EE
330
1F
100
AcDbEntity
  8
0
  6
Continuous
 62
     7
370
    15
100
AcDbLine
 10
690.2424700965
 20
45.347671288
 30
0.0
 11
691.5903695334
 21
44.7394654927
 31
0.0
  0
LINE
  5
1EF
330
1F
100
AcDbEntity
  8
0
  6
Continuous
 62
     7
370
    15
100
AcDbLine
 10
691.5903695334
 20
41.4487079558
 30
0.0
 11
691.5903695334
 21
44.7394654927
 31
0.0
  0
ARC
  5
1F0
330
1F
100
AcDbEntity
  8
0
  6
Continuous
 62
     7
370
    15
100
AcDbCircle
 10
686.253488788
 20
7.3053649213
 30
0.0
 40
5.544667395717646
100
AcDbArc
 50
15.7352766928
 51
26.9172105656
  0
LINE
  5
1F1
330
1F
100
AcDbEntity
  8
0
  6
Continuous
 62
     7
370
    15
100
AcDbLine
 10
691.1974557151
 20
9.8154500899
 30
0.0
 11
691.1974557151
 21
40.4514030394
 31
0.0
  0
ARC
  5
1F2
330
1F
100
AcDbEntity
  8
0
  6
Continuous
 62
     7
370
    15
100
AcDbCircle
 10
686.036835218
 20
43.0606133665
 30
0.0
 40
5.782731400081166
100
AcDbArc
 50
333.1788337876
 51
343.814704519
  0
ARC
  5
1F3
330
1F
100
AcDbEntity
  8
0
  6
Continuous
 62
     7
370
    15
100
AcDbCircle
 10
691.4228707509
 20
8.6761786467
 30
0.0
 40
1.161357550256818
100
AcDbArc
 50
49.3137602736
 51
101.191928364
  0
ARC
  5
1F4
330
1F
100
AcDbEntity
  8
0
  6
Continuous
 62
     7
370
    15
100
AcDbCircle
 10
691.3504571826
 20
9.6045435406
 30
0.0
 40
0.8308928461624615
100
AcDbArc
 50
286.7825619307
 51
356.7077037686
  0
LINE
  5
1F5
330
1F
100
AcDbEntity
  8
0
  6
Continuous
 62
     7
370
    15
100
AcDbLine
 10
692.1799786795
 20
40.6905964789
 30
0.0
 11
692.1799786795
 21
9.5568255362
 31
0.0
  0
ARC
  5
1F6
330
1F
100
AcDbEntity
  8
0
  6
Continuous
 62
     7
370
    15
100
AcDbCircle
 10
691.4253979445
 20
41.6526231238
 30
0.0
 40
1.22265585967987
100
AcDbArc
 50
259.255364932
 51
308.1094217633
  0
ARC
  5
1F7
330
1F
100
AcDbEntity
  8
0
  6
Continuous
 62
     7
370
    15
100
AcDbCircle
 10
691.340711659
 20
40.6462052066
 30
0.0
 40
0.8404401922495822
100
AcDbArc
 50
3.0277189222
 51
72.7191296483
  0
LINE
  5
1F8
330
1F
100
AcDbEntity
  8
0
  6
Continuous
 62
     7
370
    15
100
AcDbLine
 10
692.1799786795
 20
9.5568255362
 30
0.0
 11
692.1799786795
 21
6.1636672196
 31
0.0
  0
LINE
  5
1F9
330
1F
100
AcDbEntity
  8
0
  6
Continuous
 62
     7
370
    15
100
AcDbLine
 10
692.1799786795
 20
43.8248173174
 30
0.0
 11
692.1799786795
 21
40.6905964789
 31
0.0
  0
SPLINE
  5
1FA
330
1F
100
AcDbEntity
  8
0
  6
Continuous
 62
     7
370
    15
100
AcDbSpline
210
0.0
220
0.0
230
1.0
 70
     8
 71
     3
 72
    11
 73
     7
 74
     0
 42
0.00000001
 43
0.00000001
 40
0.0
 40
0.0
 40
0.0
 40
0.0
 40
0.2932923318851498
 40
0.5865894079449656
 40
0.8804944633567162
 40
1.0
 40
1.0
 40
1.0
 40
1.0
 10
691.5903695334129
 20
44.73946549266533
 30
0.0
 10
691.6884078658576
 20
44.68306744779726
 30
0.0
 10
691.8844861165743
 20
44.57027044578979
 30
0.0
 10
692.0856040734628
 20
44.2898734275533
 30
0.0
 10
692.1715981361493
 20
44.02841887917114
 30
0.0
 10
692.1780993569129
 20
43.87047462180726
 30
0.0
 10
692.179978679531
 20
43.82481731742577
 30
0.0
  0
SPLINE
  5
1FB
330
1F
100
AcDbEntity
  8
0
  6
Continuous
 62
     7
370
    15
100
AcDbSpline
210
0.0
220
0.0
230
1.0
 70
     8
 71
     3
 72
    15
 73
    11
 74
     0
 42
0.00000001
 43
0.00000001
 40
0.0
 40
0.0
 40
0.0
 40
0.0
 40
0.1250626004890233
 40
0.2501124491166124
 40
0.3751511849815727
 40
0.5001778660726494
 40
0.6251982695400163
 40
0.7502203733982459
 40
0.8753382618616433
 40
1.0
 40
1.0
 40
1.0
 40
1.0
 10
664.5049460638694
 20
56.59628965228752
 30
0.0
 10
664.5389653876035
 20
56.58286969119305
 30
0.0
 10
664.6070005663314
 20
56.55603113735472
 30
0.0
 10
665.1301827123208
 20
56.31417410344211
 30
0.0
 10
665.8843144579533
 20
55.97864862023844
 30
0.0
 10
666.79094275538
 20
55.60014237934035
 30
0.0
 10
667.708647168987
 20
55.24666200632652
 30
0.0
 10
668.489524750461
 20
54.96811689626069
 30
0.0
 10
669.0391344499646
 20
54.78270655289582
 30
0.0
 10
669.1112579356919
 20
54.7538453185705
 30
0.0
 10
669.1472538222007
 20
54.73944105476097
 30
0.0
  0
LINE
  5
1FC
330
1F
100
AcDbEntity
  8
0
  6
Continuous
 62
     8
370
    15
100
AcDbLine
 10
-4.0200121294
 20
-42.6329269233
 30
0.0
 11
-67.8200117837
 21
-42.6329269233
 31
0.0
  0
LINE
  5
1FD
330
1F
100
AcDbEntity
  8
0
  6
Continuous
 62
     8
370
    15
100
AcDbLine
 10
-4.0200121294
 20
-98.1003537002
 30
0.0
 11
-67.8200117837
 21
-98.1003537002
 31
0.0
  0
LINE
  5
1FE
330
1F
100
AcDbEntity
  8
0
  6
Continuous
 62
     8
370
    15
100
AcDbLine
 10
-4.0839232098
 20
-98.8728298965
 30
0.0
 11
-67.7560969781
 21
-98.8728298965
 31
0.0
  0
LINE
  5
1FF
330
1F
100
AcDbEntity
  8
0
  6
Continuous
 62
     8
370
    15
100
AcDbLine
 10
-7.420010079
 20
-137.1329321685
 30
0.0
 11
-64.4200101088
 21
-137.1329321685
 31
0.0
  0
LINE
  5
200
330
1F
100
AcDbEntity
  8
0
  6
Continuous
 62
     8
370
    15
100
AcDbLine
 10
485.0800045241
 20
-88.18291567
 30
0.0
 11
-4.0200121294
 21
-88.18291567
 31
0.0
  0
LINE
  5
201
330
1F
100
AcDbEntity
  8
0
  6
Continuous
 62
     8
370
    15
100
AcDbLine
 10
629.0093072165
 20
-87.3829319301
 30
0.0
 11
569.9799664725
 21
-87.3829319301
 31
0.0
  0
LINE
  5
202
330
1F
100
AcDbEntity
  8
0
  6
Continuous
 62
     8
370
    15
100
AcDbLine
 10
506.1799891699
 20
-87.3829319301
 30
0.0
 11
485.0800045241
 21
-87.3829319301
 31
0.0
  0
LINE
  5
203
330
1F
100
AcDbEntity
  8
0
  6
Continuous
 62
     8
370
    15
100
AcDbLine
 10
-112.4700104411
 20
273.9670828757
 30
0.0
 11
-112.4700104411
 21
273.4987617311
 31
0.0
  0
LINE
  5
204
330
1F
100
AcDbEntity
  8
0
  6
Continuous
 62
     8
370
    15
100
AcDbLine
 10
-82.3700103502
 20
273.617076951
 30
0.0
 11
-82.3700103502
 21
273.9670828757
 31
0.0
  0
LINE
  5
205
330
1F
100
AcDbEntity
  8
0
  6
Continuous
 62
     8
370
    15
100
AcDbLine
 10
628.4609444846
 20
263.6670798835
 30
0.0
 11
628.4609444846
 21
263.9670775113
 31
0.0
  0
LINE
  5
206
330
1F
100
AcDbEntity
  8
0
  6
Continuous
 62
     8
370
    15
100
AcDbLine
 10
637.7517588843
 20
219.299580234
 30
0.0
 11
637.6239665259
 21
219.5934683856
 31
0.0
  0
LINE
  5
207
330
1F
100
AcDbEntity
  8
0
  6
Continuous
 62
     8
370
    15
100
AcDbLine
 10
665.0514014472
 20
3.2629028735
 30
0.0
 11
665.0514014472
 21
19.6170762953
 31
0.0
  0
LINE
  5
208
330
1F
100
AcDbEntity
  8
0
  6
Continuous
 62
     8
370
    15
100
AcDbLine
 10
665.0514014472
 20
30.4170803007
 30
0.0
 11
665.0514014472
 21
48.405300158
 31
0.0
  0
LINE
  5
209
330
1F
100
AcDbEntity
  8
0
  6
Continuous
 62
     8
370
    15
100
AcDbLine
 10
668.627620529
 20
47.799895781
 30
0.0
 11
668.627620529
 21
30.4170803007
 31
0.0
  0
LINE
  5
20A
330
1F
100
AcDbEntity
  8
0
  6
Continuous
 62
     8
370
    15
100
AcDbLine
 10
668.627620529
 20
19.6170762953
 30
0.0
 11
668.627620529
 21
3.5296783623
 31
0.0
  0
LINE
  5
20B
330
1F
100
AcDbEntity
  8
0
  6
Continuous
 62
     8
370
    15
100
AcDbLine
 10
685.0903638114
 20
5.2517459568
 30
0.0
 11
685.0903638114
 21
9.2260048565
 31
0.0
  0
LINE
  5
20C
330
1F
100
AcDbEntity
  8
0
  6
Continuous
 62
     8
370
    15
100
AcDbLine
 10
655.6800015677
 20
19.2807719883
 30
0.0
 11
655.5799849738
 21
19.2819193777
 31
0.0
  0
LINE
  5
20D
330
1F
100
AcDbEntity
  8
0
  6
Continuous
 62
     8
370
    15
100
AcDbLine
 10
655.6800015677
 20
18.1653604683
 30
0.0
 11
655.5799849738
 21
18.1667462763
 31
0.0
  0
LINE
  5
20E
330
1F
100
AcDbEntity
  8
0
  6
Continuous
 62
     8
370
    15
100
AcDbLine
 10
655.6800015677
 20
17.9843113598
 30
0.0
 11
655.5799849738
 21
17.9851160225
 31
0.0
  0
LINE
  5
20F
330
1F
100
AcDbEntity
  8
0
  6
Continuous
 62
     8
370
    15
100
AcDbLine
 10
569.9799664725
 20
-42.6329269233
 30
0.0
 11
506.1799891699
 21
-42.6329269233
 31
0.0
  0
LINE
  5
210
330
1F
100
AcDbEntity
  8
0
  6
Continuous
 62
     8
370
    15
100
AcDbLine
 10
569.9160702933
 20
-98.8728298965
 30
0.0
 11
506.2438853491
 21
-98.8728298965
 31
0.0
  0
LINE
  5
211
330
1F
100
AcDbEntity
  8
0
  6
Continuous
 62
     8
370
    15
100
AcDbLine
 10
569.9799664725
 20
-98.1003537002
 30
0.0
 11
506.1799891699
 21
-98.1003537002
 31
0.0
  0
LINE
  5
212
330
1F
100
AcDbEntity
  8
0
  6
Continuous
 62
     8
370
    15
100
AcDbLine
 10
611.2466462363
 20
207.8414869335
 30
0.0
 11
611.2466462363
 21
207.3547535416
 31
0.0
  0
LWPOLYLINE
  5
213
330
1F
100
AcDbEntity
  8
0
  6
Continuous
 62
     8
370
    15
100
AcDbPolyline
 90
        8
 70
   128
 43
0.0
 10
612.1851213683
 20
207.1596712646
 10
612.161517929
 20
207.1520102051
 10
612.1175893058
 20
207.1377311674
 10
612.0584614981
 20
207.11851612
 10
611.9863994826
 20
207.0951026705
 10
611.9042046775
 20
207.0683904764
 10
611.8149765242
 20
207.0394058552
 10
611.722231697
 20
207.0092626688
  0
LINE
  5
214
330
1F
100
AcDbEntity
  8
0
  6
Continuous
 62
     8
370
    15
100
AcDbLine
 10
566.5799983252
 20
-137.1329321685
 30
0.0
 11
509.5800169219
 21
-137.1329321685
 31
0.0
  0
LINE
  5
215
330
1F
100
AcDbEntity
  8
0
  6
Continuous
 62
     8
370
    15
100
AcDbLine
 10
-113.720010646
 20
243.1670793173
 30
0.0
 11
-113.7100105699
 21
243.1670793173
 31
0.0
  0
LINE
  5
216
330
1F
100
AcDbEntity
  8
0
  6
Continuous
 62
     8
370
    15
100
AcDbLine
 10
669.5799835433
 20
25.017078298
 30
0.0
 11
669.5799835433
 21
30.4170803007
 31
0.0
  0
LINE
  5
217
330
1F
100
AcDbEntity
  8
0
  6
Continuous
 62
     8
370
    15
100
AcDbLine
 10
669.5799835433
 20
19.6170762953
 30
0.0
 11
669.5799835433
 21
25.017078298
 31
0.0
  0
LINE
  5
218
330
1F
100
AcDbEntity
  8
0
  6
Continuous
 62
     8
370
    15
100
AcDbLine
 10
612.621427368
 20
208.4487036642
 30
0.0
 11
612.2001417388
 21
208.3118234602
 31
0.0
  0
LINE
  5
219
330
1F
100
AcDbEntity
  8
0
  6
Continuous
 62
     8
370
    15
100
AcDbLine
 10
691.5903695334
 20
8.809040564
 30
0.0
 11
685.6985696067
 21
6.2566057619
 31
0.0
  0
LINE
  5
21A
330
1F
100
AcDbEntity
  8
0
  6
Continuous
 62
     8
370
    15
100
AcDbLine
 10
691.5903695334
 20
5.2517459568
 30
0.0
 11
691.5903695334
 21
8.809040564
 31
0.0
  0
LINE
  5
21B
330
1F
100
AcDbEntity
  8
0
  6
Continuous
 62
     8
370
    15
100
AcDbLine
 10
685.6237657775
 20
44.0519557175
 30
0.0
 11
691.5903695334
 21
41.4487079558
 31
0.0
  0
LINE
  5
21C
330
1F
100
AcDbEntity
  8
0
  6
Continuous
 62
     8
370
    15
100
AcDbLine
 10
685.6799729575
 20
7.4757591662
 30
0.0
 11
691.1974557151
 21
9.8154500899
 31
0.0
  0
LINE
  5
21D
330
1F
100
AcDbEntity
  8
0
  6
Continuous
 62
     8
370
    15
100
AcDbLine
 10
691.1974557151
 20
40.4514030394
 30
0.0
 11
685.6799729575
 21
42.8082451996
 31
0.0
  0
ENDSEC
  0
SECTION
  2
OBJECTS
  0
DICTIONARY
  5
C
330
0
100
AcDbDictionary
281
     1
  3
ACAD_GROUP
350
D
  3
ACAD_LAYOUT
350
1A
  3
ACAD_MATERIAL
350
3B
  3
ACAD_MLEADERSTYLE
350
21F
  3
ACAD_MLINESTYLE
350
17
  3
ACAD_PLOTSETTINGS
350
19
  3
ACAD_PLOTSTYLENAME
350
E
  3
ACAD_TABLESTYLE
350
21E
  3
ACAD_VISUALSTYLE
350
2A
  0
DICTIONARY
  5
D
102
{ACAD_REACTORS
330
C
102
}
330
C
100
AcDbDictionary
281
     1
  0
DICTIONARY
  5
1A
102
{ACAD_REACTORS
330
C
102
}
330
C
100
AcDbDictionary
281
     1
  3
Layout1
350
1E
  3
Layout2
350
26
  3
Model
350
22
  0
DICTIONARY
  5
3B
102
{ACAD_REACTORS
330
C
102
}
330
C
100
AcDbDictionary
281
     1
  3
ByBlock
350
3D
  3
ByLayer
350
3C
  3
Global
350
3E
  0
DICTIONARY
  5
21F
102
{ACAD_REACTORS
330
C
102
}
330
C
100
AcDbDictionary
281
     1
  0
DICTIONARY
  5
17
102
{ACAD_REACTORS
330
C
102
}
330
C
100
AcDbDictionary
281
     1
  3
Standard
350
18
  0
DICTIONARY
  5
19
102
{ACAD_REACTORS
330
C
102
}
330
C
100
AcDbDictionary
281
     1
  0
ACDBDICTIONARYWDFLT
  5
E
102
{ACAD_REACTORS
330
C
102
}
330
C
100
AcDbDictionary
281
     1
  3
Normal
350
F
100
AcDbDictionaryWithDefault
340
F
  0
DICTIONARY
  5
21E
102
{ACAD_REACTORS
330
C
102
}
330
C
100
AcDbDictionary
281
     1
  0
DICTIONARY
  5
2A
102
{ACAD_REACTORS
330
C
102
}
330
C
100
AcDbDictionary
281
     1
  3
2dWireframe
350
2F
  3
3D Hidden
350
31
  3
3dWireframe
350
30
  3
Basic
350
32
  3
Brighten
350
36
  3
ColorChange
350
3A
  3
Conceptual
350
34
  3
Dim
350
35
  3
Facepattern
350
39
  3
Flat
350
2B
  3
FlatWithEdges
350
2C
  3
Gouraud
350
2D
  3
GouraudWithEdges
350
2E
  3
Linepattern
350
38
  3
Realistic
350
33
  3
Thicken
350
37
  0
LAYOUT
  5
1E
102
{ACAD_REACTORS
330
1A
102
}
330
1A
100
AcDbPlotSettings
  1

  2
none_device
  4

  6

 40
0.0
 41
0.0
 42
0.0
 43
0.0
 44
0.0
 45
0.0
 46
0.0
 47
0.0
 48
0.0
 49
0.0
140
0.0
141
0.0
142
1.0
143
1.0
 70
   688
 72
     0
 73
     0
 74
     5
  7

 75
    16
 76
     0
 77
     2
 78
   300
147
1.0
148
0.0
149
0.0
100
AcDbLayout
  1
Layout1
 70
     1
 71
     1
 10
0.0
 20
0.0
 11
420.0
 21
297.0
 12
0.0
 22
0.0
 32
0.0
 14
1.0000000000E+20
 24
1.0000000000E+20
 34
1.0000000000E+20
 15
-1.0000000000E+20
 25
-1.0000000000E+20
 35
-1.0000000000E+20
146
0.0
 13
0.0
 23
0.0
 33
0.0
 16
1.0
 26
0.0
 36
0.0
 17
0.0
 27
1.0
 37
0.0
 76
     0
330
1B
  0
LAYOUT
  5
26
102
{ACAD_REACTORS
330
1A
102
}
330
1A
100
AcDbPlotSettings
  1

  2
none_device
  4

  6

 40
0.0
 41
0.0
 42
0.0
 43
0.0
 44
0.0
 45
0.0
 46
0.0
 47
0.0
 48
0.0
 49
0.0
140
0.0
141
0.0
142
1.0
143
1.0
 70
   688
 72
     0
 73
     0
 74
     5
  7

 75
    16
 76
     0
 77
     2
 78
   300
147
1.0
148
0.0
149
0.0
100
AcDbLayout
  1
Layout2
 70
     1
 71
     2
 10
0.0
 20
0.0
 11
0.0
 21
0.0
 12
0.0
 22
0.0
 32
0.0
 14
0.0
 24
0.0
 34
0.0
 15
0.0
 25
0.0
 35
0.0
146
0.0
 13
0.0
 23
0.0
 33
0.0
 16
1.0
 26
0.0
 36
0.0
 17
0.0
 27
1.0
 37
0.0
 76
     0
330
23
  0
LAYOUT
  5
22
102
{ACAD_REACTORS
330
1A
102
}
330
1A
100
AcDbPlotSettings
  1

  2
none_device
  4

  6

 40
0.0
 41
0.0
 42
0.0
 43
0.0
 44
0.0
 45
0.0
 46
0.0
 47
0.0
 48
0.0
 49
0.0
140
0.0
141
0.0
142
1.0
143
1.0
 70
  1712
 72
     0
 73
     0
 74
     0
  7

 75
     0
 76
     0
 77
     2
 78
   300
147
1.0
148
0.0
149
0.0
100
AcDbLayout
  1
Model
 70
     1
 71
     0
 10
0.0
 20
0.0
 11
420.0
 21
297.0
 12
0.0
 22
0.0
 32
0.0
 14
0.0
 24
0.0
 34
0.0
 15
420.0
 25
297.0
 35
0.0
146
0.0
 13
0.0
 23
0.0
 33
0.0
 16
1.0
 26
0.0
 36
0.0
 17
0.0
 27
1.0
 37
0.0
 76
     0
330
1F
331
29
  0
MATERIAL
  5
3D
102
{ACAD_REACTORS
330
3B
102
}
330
3B
100
AcDbMaterial
  1
ByBlock
 72
     1
 94
      127
  0
MATERIAL
  5
3C
102
{ACAD_REACTORS
330
3B
102
}
330
3B
100
AcDbMaterial
  1
ByLayer
 72
     1
 94
      127
  0
MATERIAL
  5
3E
102
{ACAD_REACTORS
330
3B
102
}
330
3B
100
AcDbMaterial
  1
Global
 72
     1
 94
      127
  0
MLINESTYLE
  5
18
102
{ACAD_REACTORS
330
17
102
}
330
17
100
AcDbMlineStyle
  2
Standard
 70
     0
  3

 62
   256
 51
90.0
 52
90.0
 71
     2
 49
0.5
 62
   256
  6
BYLAYER
 49
-0.5
 62
   256
  6
BYLAYER
  0
ACDBPLACEHOLDER
  5
F
102
{ACAD_REACTORS
330
E
102
}
330
E
  0
VISUALSTYLE
  5
2F
102
{ACAD_REACTORS
330
2A
102
}
330
2A
100
AcDbVisualStyle
  2
2dWireframe
 70
     4
 71
     0
 72
     2
 73
     0
 90
        0
 40
-0.6
 41
-30.0
 62
     5
 63
     7
421
 16777215
 74
     1
 91
        4
 64
     7
 65
   257
 75
     1
175
     1
 42
1.0
 92
        0
 66
   257
 43
1.0
 76
     1
 77
     6
 78
     2
 67
     7
 79
     5
170
     0
171
     0
290
     0
174
     0
 93
        1
 44
0.0
173
     0
291
     0
 45
0.0
  0
VISUALSTYLE
  5
31
102
{ACAD_REACTORS
330
2A
102
}
330
2A
100
AcDbVisualStyle
  2
3D Hidden
 70
     6
 71
     1
 72
     2
 73
     2
 90
        0
 40
-0.6
 41
-30.0
 62
     5
 63
     7
421
 16777215
 74
     2
 91
        2
 64
     7
 65
   257
 75
     2
175
     1
 42
40.0
 92
        0
 66
   257
 43
1.0
 76
     1
 77
     6
 78
     2
 67
     7
 79
     3
170
     0
171
     0
290
     0
174
     0
 93
        1
 44
0.0
173
     0
291
     0
 45
0.0
  0
VISUALSTYLE
  5
30
102
{ACAD_REACTORS
330
2A
102
}
330
2A
100
AcDbVisualStyle
  2
3dWireframe
 70
     5
 71
     0
 72
     2
 73
     0
 90
        0
 40
-0.6
 41
-30.0
 62
     5
 63
     7
421
 16777215
 74
     1
 91
        4
 64
     7
 65
   257
 75
     1
175
     1
 42
1.0
 92
        0
 66
   257
 43
1.0
 76
     1
 77
     6
 78
     2
 67
     7
 79
     5
170
     0
171
     0
290
     0
174
     0
 93
        1
 44
0.0
173
     0
291
     0
 45
0.0
  0
VISUALSTYLE
  5
32
102
{ACAD_REACTORS
330
2A
102
}
330
2A
100
AcDbVisualStyle
  2
Basic
 70
     7
 71
     1
 72
     0
 73
     1
 90
        0
 40
-0.6
 41
-30.0
 62
     5
 63
     7
421
 16777215
 74
     0
 91
        4
 64
     7
 65
   257
 75
     1
175
     1
 42
1.0
 92
        8
 66
     7
 43
1.0
 76
     1
 77
     6
 78
     2
 67
     7
 79
     5
170
     0
171
     0
290
     0
174
     0
 93
        1
 44
0.0
173
     0
291
     1
 45
0.0
  0
VISUALSTYLE
  5
36
102
{ACAD_REACTORS
330
2A
102
}
330
2A
100
AcDbVisualStyle
  2
Brighten
 70
    12
 71
     2
 72
     2
 73
     0
 90
        0
 40
-0.6
 41
-30.0
 62
     5
 63
     7
421
 16777215
 74
     1
 91
        4
 64
     7
 65
   257
 75
     1
175
     1
 42
1.0
 92
        8
 66
     7
 43
1.0
 76
     1
 77
     6
 78
     2
 67
     7
 79
     5
170
     0
171
     0
290
     0
174
     0
 93
        1
 44
50.0
173
     0
291
     1
 45
0.0
  0
VISUALSTYLE
  5
3A
102
{ACAD_REACTORS
330
2A
102
}
330
2A
100
AcDbVisualStyle
  2
ColorChange
 70
    16
 71
     2
 72
     2
 73
     3
 90
        0
 40
-0.6
 41
-30.0
 62
     5
 63
     8
421
  8421504
 74
     1
 91
        4
 64
     7
 65
   257
 75
     1
175
     1
 42
1.0
 92
        8
 66
     8
424
  8421504
 43
1.0
 76
     1
 77
     6
 78
     2
 67
     7
 79
     5
170
     0
171
     0
290
     0
174
     0
 93
        1
 44
0.0
173
     0
291
     1
 45
0.0
  0
VISUALSTYLE
  5
34
102
{ACAD_REACTORS
330
2A
102
}
330
2A
100
AcDbVisualStyle
  2
Conceptual
 70
     9
 71
     3
 72
     2
 73
     0
 90
        0
 40
-0.6
 41
-30.0
 62
     5
 63
     7
421
 16777215
 74
     2
 91
        2
 64
     7
 65
   257
 75
     1
175
     1
 42
40.0
 92
        8
 66
     7
 43
1.0
 76
     1
 77
     6
 78
     2
 67
     7
 79
     3
170
     0
171
     0
290
     0
174
     0
 93
        1
 44
0.0
173
     0
291
     0
 45
0.0
  0
VISUALSTYLE
  5
35
102
{ACAD_REACTORS
330
2A
102
}
330
2A
100
AcDbVisualStyle
  2
Dim
 70
    11
 71
     2
 72
     2
 73
     0
 90
        0
 40
-0.6
 41
-30.0
 62
     5
 63
     7
421
 16777215
 74
     1
 91
        4
 64
     7
 65
   257
 75
     1
175
     1
 42
1.0
 92
        8
 66
     7
 43
1.0
 76
     1
 77
     6
 78
     2
 67
     7
 79
     5
170
     0
171
     0
290
     0
174
     0
 93
        1
 44
-50.0
173
     0
291
     1
 45
0.0
  0
VISUALSTYLE
  5
39
102
{ACAD_REACTORS
330
2A
102
}
330
2A
100
AcDbVisualStyle
  2
Facepattern
 70
    15
 71
     2
 72
     2
 73
     0
 90
        0
 40
-0.6
 41
-30.0
 62
     5
 63
     7
421
 16777215
 74
     1
 91
        4
 64
     7
 65
   257
 75
     1
175
     1
 42
1.0
 92
        8
 66
     7
 43
1.0
 76
     1
 77
     6
 78
     2
 67
     7
 79
     5
170
     0
171
     0
290
     0
174
     0
 93
        1
 44
0.0
173
     0
291
     1
 45
0.0
  0
VISUALSTYLE
  5
2B
102
{ACAD_REACTORS
330
2A
102
}
330
2A
100
AcDbVisualStyle
  2
Flat
 70
     0
 71
     2
 72
     1
 73
     1
 90
        2
 40
-0.6
 41
30.0
 62
     5
 63
     7
421
 16777215
 74
     0
 91
        4
 64
     7
 65
   257
 75
     1
175
     1
 42
1.0
 92
        8
 66
     7
 43
1.0
 76
     1
 77
     6
 78
     2
 67
     7
 79
     5
170
     0
171
     0
290
     0
174
     0
 93
       13
 44
0.0
173
     0
291
     1
 45
0.0
  0
VISUALSTYLE
  5
2C
102
{ACAD_REACTORS
330
2A
102
}
330
2A
100
AcDbVisualStyle
  2
FlatWithEdges
 70
     1
 71
     2
 72
     1
 73
     1
 90
        2
 40
-0.6
 41
30.0
 62
     5
 63
     7
421
 16777215
 74
     1
 91
        4
 64
     7
 65
   257
 75
     1
175
     1
 42
1.0
 92
        0
 66
   257
 43
1.0
 76
     1
 77
     6
 78
     2
 67
     7
 79
     5
170
     0
171
     0
290
     0
174
     0
 93
       13
 44
0.0
173
     0
291
     1
 45
0.0
  0
VISUALSTYLE
  5
2D
102
{ACAD_REACTORS
330
2A
102
}
330
2A
100
AcDbVisualStyle
  2
Gouraud
 70
     2
 71
     2
 72
     2
 73
     1
 90
        2
 40
-0.6
 41
30.0
 62
     5
 63
     7
421
 16777215
 74
     0
 91
        4
 64
     7
 65
   257
 75
     1
175
     1
 42
1.0
 92
        0
 66
     7
 43
1.0
 76
     1
 77
     6
 78
     2
 67
     7
 79
     5
170
     0
171
     0
290
     0
174
     0
 93
       13
 44
0.0
173
     0
291
     1
 45
0.0
  0
VISUALSTYLE
  5
2E
102
{ACAD_REACTORS
330
2A
102
}
330
2A
100
AcDbVisualStyle
  2
GouraudWithEdges
 70
     3
 71
     2
 72
     2
 73
     1
 90
        2
 40
-0.6
 41
30.0
 62
     5
 63
     7
421
 16777215
 74
     1
 91
        4
 64
     7
 65
   257
 75
     1
175
     1
 42
1.0
 92
        0
 66
   257
 43
1.0
 76
     1
 77
     6
 78
     2
 67
     7
 79
     5
170
     0
171
     0
290
     0
174
     0
 93
       13
 44
0.0
173
     0
291
     1
 45
0.0
  0
VISUALSTYLE
  5
38
102
{ACAD_REACTORS
330
2A
102
}
330
2A
100
AcDbVisualStyle
  2
Linepattern
 70
    14
 71
     2
 72
     2
 73
     0
 90
        0
 40
-0.6
 41
-30.0
 62
     5
 63
     7
421
 16777215
 74
     1
 91
        4
 64
     7
 65
   257
 75
     7
175
     7
 42
1.0
 92
        8
 66
     7
 43
1.0
 76
     1
 77
     6
 78
     2
 67
     7
 79
     5
170
     0
171
     0
290
     0
174
     0
 93
        1
 44
0.0
173
     0
291
     1
 45
0.0
  0
VISUALSTYLE
  5
33
102
{ACAD_REACTORS
330
2A
102
}
330
2A
100
AcDbVisualStyle
  2
Realistic
 70
     8
 71
     2
 72
     2
 73
     0
 90
        0
 40
-0.6
 41
-30.0
 62
     5
 63
     7
421
 16777215
 74
     1
 91
        0
 64
     7
 65
   257
 75
     1
175
     1
 42
1.0
 92
        8
 66
     8
424
  7895160
 43
1.0
 76
     1
 77
     6
 78
     2
 67
     7
 79
     5
170
     0
171
     0
290
     0
174
     0
 93
       13
 44
0.0
173
     0
291
     0
 45
0.0
  0
VISUALSTYLE
  5
37
102
{ACAD_REACTORS
330
2A
102
}
330
2A
100
AcDbVisualStyle
  2
Thicken
 70
    13
 71
     2
 72
     2
 73
     0
 90
        0
 40
-0.6
 41
-30.0
 62
     5
 63
     7
421
 16777215
 74
     1
 91
        4
 64
     7
 65
   257
 75
     1
175
     1
 42
1.0
 92
       12
 66
     7
 43
1.0
 76
     1
 77
     6
 78
     2
 67
     7
 79
     5
170
     0
171
     0
290
     0
174
     0
 93
        1
 44
0.0
173
     0
291
     1
 45
0.0
  0
ENDSEC
  0
EOF
