  0
SECTION
  2
HEADER
  9
$ACADVER
  1
AC1015
  9
$ACADMAINTVER
 70
     6
  9
$DWGCODEPAGE
  3
ANSI_1252
  9
$INSBASE
 10
0.0
 20
0.0
 30
0.0
  9
$EXTMIN
 10
0.0
 20
0.0
 30
0.0
  9
$EXTMAX
 10
420.0
 20
297.0
 30
0.0
  9
$LIMMIN
 10
0.0
 20
0.0
  9
$LIMMAX
 10
420.0
 20
297.0
  9
$ORTHOMODE
 70
     0
  9
$REGENMODE
 70
     1
  9
$FILLMODE
 70
     1
  9
$QTEXTMODE
 70
     0
  9
$MIRRTEXT
 70
     1
  9
$LTSCALE
 40
1.0
  9
$ATTMODE
 70
     1
  9
$TEXTSIZE
 40
3.5
  9
$TRACEWID
 40
1.0
  9
$TEXTSTYLE
  7
Standard
  9
$CLAYER
  8
0
  9
$CELTYPE
  6
ByLayer
  9
$CECOLOR
 62
   256
  9
$CELTSCALE
 40
1.0
  9
$DISPSILH
 70
     0
  9
$DIMSCALE
 40
1.0
  9
$DIMASZ
 40
3.302
  9
$DIMEXO
 40
1.0
  9
$DIMDLI
 40
3.75
  9
$DIMRND
 40
0.0
  9
$DIMDLE
 40
0.0
  9
$DIMEXE
 40
1.0
  9
$DIMTP
 40
0.0
  9
$DIMTM
 40
0.0
  9
$DIMTXT
 40
3.5
  9
$DIMCEN
 40
2.5
  9
$DIMTSZ
 40
0.0
  9
$DIMTOL
 70
     0
  9
$DIMLIM
 70
     0
  9
$DIMTIH
 70
     1
  9
$DIMTOH
 70
     1
  9
$DIMSE1
 70
     0
  9
$DIMSE2
 70
     0
  9
$DIMTAD
 70
     1
  9
$DIMZIN
 70
     0
  9
$DIMBLK
  1

  9
$DIMASO
 70
     1
  9
$DIMSHO
 70
     1
  9
$DIMPOST
  1

  9
$DIMAPOST
  1

  9
$DIMALT
 70
     0
  9
$DIMALTD
 70
     3
  9
$DIMALTF
 40
0.0393700787
  9
$DIMLFAC
 40
15.0
  9
$DIMTOFL
 70
     1
  9
$DIMTVP
 40
0.0
  9
$DIMTIX
 70
     0
  9
$DIMSOXD
 70
     0
  9
$DIMSAH
 70
     0
  9
$DIMBLK1
  1

  9
$DIMBLK2
  1

  9
$DIMSTYLE
  2
ISO-25
  9
$DIMCLRD
 70
     0
  9
$DIMCLRE
 70
     0
  9
$DIMCLRT
 70
     0
  9
$DIMTFAC
 40
1.0
  9
$DIMGAP
 40
1.524
  9
$DIMJUST
 70
     0
  9
$DIMSD1
 70
     0
  9
$DIMSD2
 70
     0
  9
$DIMTOLJ
 70
     0
  9
$DIMTZIN
 70
     0
  9
$DIMALTZ
 70
     0
  9
$DIMALTTZ
 70
     0
  9
$DIMUPT
 70
     0
  9
$DIMDEC
 70
     1
  9
$DIMTDEC
 70
     1
  9
$DIMALTU
 70
     2
  9
$DIMALTTD
 70
     3
  9
$DIMTXSTY
  7
Standard
  9
$DIMAUNIT
 70
     0
  9
$DIMADEC
 70
     1
  9
$DIMALTRND
 40
0.0
  9
$DIMAZIN
 70
     0
  9
$DIMDSEP
 70
    44
  9
$DIMATFIT
 70
     3
  9
$DIMFRAC
 70
     0
  9
$DIMLDRBLK
  1

  9
$DIMLUNIT
 70
     2
  9
$DIMLWD
 70
    -2
  9
$DIMLWE
 70
    -2
  9
$DIMTMOVE
 70
     0
  9
$LUNITS
 70
     2
  9
$LUPREC
 70
     1
  9
$SKETCHINC
 40
1.0
  9
$FILLETRAD
 40
10.0
  9
$AUNITS
 70
     0
  9
$AUPREC
 70
     1
  9
$MENU
  1
.
  9
$ELEVATION
 40
0.0
  9
$PELEVATION
 40
0.0
  9
$THICKNESS
 40
0.0
  9
$LIMCHECK
 70
     0
  9
$CHAMFERA
 40
10.0
  9
$CHAMFERB
 40
10.0
  9
$CHAMFERC
 40
20.0
  9
$CHAMFERD
 40
0.0
  9
$SKPOLY
 70
     0
  9
$TDCREATE
 40
2455901.385040706
  9
$TDUCREATE
 40
2455901.385040706
  9
$TDUPDATE
 40
2455901.385040718
  9
$TDUUPDATE
 40
2455901.385040718
  9
$TDINDWG
 40
0.0000000116
  9
$TDUSRTIMER
 40
0.0000000116
  9
$USRTIMER
 70
     1
  9
$ANGBASE
 50
0.0
  9
$ANGDIR
 70
     0
  9
$PDMODE
 70
     0
  9
$PDSIZE
 40
-1.0
  9
$PLINEWID
 40
0.0
  9
$SPLFRAME
 70
     0
  9
$SPLINETYPE
 70
     6
  9
$SPLINESEGS
 70
     8
  9
$HANDSEED
  5
49E
  9
$SURFTAB1
 70
     6
  9
$SURFTAB2
 70
     6
  9
$SURFTYPE
 70
     6
  9
$SURFU
 70
     6
  9
$SURFV
 70
     6
  9
$UCSBASE
  2

  9
$UCSNAME
  2

  9
$UCSORG
 10
0.0
 20
0.0
 30
0.0
  9
$UCSXDIR
 10
1.0
 20
0.0
 30
0.0
  9
$UCSYDIR
 10
0.0
 20
1.0
 30
0.0
  9
$UCSORTHOREF
  2

  9
$UCSORTHOVIEW
 70
     0
  9
$UCSORGTOP
 10
0.0
 20
0.0
 30
0.0
  9
$UCSORGBOTTOM
 10
0.0
 20
0.0
 30
0.0
  9
$UCSORGLEFT
 10
0.0
 20
0.0
 30
0.0
  9
$UCSORGRIGHT
 10
0.0
 20
0.0
 30
0.0
  9
$UCSORGFRONT
 10
0.0
 20
0.0
 30
0.0
  9
$UCSORGBACK
 10
0.0
 20
0.0
 30
0.0
  9
$PUCSBASE
  2

  9
$PUCSNAME
  2

  9
$PUCSORG
 10
0.0
 20
0.0
 30
0.0
  9
$PUCSXDIR
 10
1.0
 20
0.0
 30
0.0
  9
$PUCSYDIR
 10
0.0
 20
1.0
 30
0.0
  9
$PUCSORTHOREF
  2

  9
$PUCSORTHOVIEW
 70
     0
  9
$PUCSORGTOP
 10
0.0
 20
0.0
 30
0.0
  9
$PUCSORGBOTTOM
 10
0.0
 20
0.0
 30
0.0
  9
$PUCSORGLEFT
 10
0.0
 20
0.0
 30
0.0
  9
$PUCSORGRIGHT
 10
0.0
 20
0.0
 30
0.0
  9
$PUCSORGFRONT
 10
0.0
 20
0.0
 30
0.0
  9
$PUCSORGBACK
 10
0.0
 20
0.0
 30
0.0
  9
$USERI1
 70
     0
  9
$USERI2
 70
     0
  9
$USERI3
 70
     0
  9
$USERI4
 70
     0
  9
$USERI5
 70
     0
  9
$USERR1
 40
0.0
  9
$USERR2
 40
0.0
  9
$USERR3
 40
0.0
  9
$USERR4
 40
0.0
  9
$USERR5
 40
0.0
  9
$WORLDVIEW
 70
     1
  9
$SHADEDGE
 70
     3
  9
$SHADEDIF
 70
    70
  9
$TILEMODE
 70
     1
  9
$MAXACTVP
 70
    64
  9
$PINSBASE
 10
0.0
 20
0.0
 30
0.0
  9
$PLIMCHECK
 70
     0
  9
$PEXTMIN
 10
1.0000000000E+20
 20
1.0000000000E+20
 30
1.0000000000E+20
  9
$PEXTMAX
 10
-1.0000000000E+20
 20
-1.0000000000E+20
 30
-1.0000000000E+20
  9
$PLIMMIN
 10
0.0
 20
0.0
  9
$PLIMMAX
 10
420.0
 20
297.0
  9
$UNITMODE
 70
     0
  9
$VISRETAIN
 70
     1
  9
$PLINEGEN
 70
     0
  9
$PSLTSCALE
 70
     1
  9
$TREEDEPTH
 70
  3020
  9
$CMLSTYLE
  2
Standard
  9
$CMLJUST
 70
     0
  9
$CMLSCALE
 40
20.0
  9
$PROXYGRAPHICS
 70
     1
  9
$MEASUREMENT
 70
     1
  9
$CELWEIGHT
370
    -1
  9
$ENDCAPS
280
     0
  9
$JOINSTYLE
280
     0
  9
$LWDISPLAY
290
     1
  9
$INSUNITS
 70
     4
  9
$HYPERLINKBASE
  1

  9
$STYLESHEET
  1

  9
$XEDIT
290
     1
  9
$CEPSNTYPE
380
     0
  9
$PSTYLEMODE
290
     1
  9
$FINGERPRINTGUID
  2
{6251C714-AF79-4D18-BB8F-CD76C98D6C6E}
  9
$VERSIONGUID
  2
{FAEB1C32-E019-11D5-929B-00C0DF256EC4}
  9
$EXTNAMES
290
     1
  9
$PSVPSCALE
 40
0.0
  9
$OLESTARTUP
290
     0
  0
ENDSEC
  0
SECTION
  2
CLASSES
  0
CLASS
  1
ACDBDICTIONARYWDFLT
  2
AcDbDictionaryWithDefault
  3
ObjectDBX Classes
 90
        0
280
     0
281
     0
  0
CLASS
  1
VISUALSTYLE
  2
AcDbVisualStyle
  3
ObjectDBX Classes
 90
     4095
280
     0
281
     0
  0
CLASS
  1
MATERIAL
  2
AcDbMaterial
  3
ObjectDBX Classes
 90
     1153
280
     0
281
     0
  0
CLASS
  1
ACDBPLACEHOLDER
  2
AcDbPlaceHolder
  3
ObjectDBX Classes
 90
        0
280
     0
281
     0
  0
CLASS
  1
LAYOUT
  2
AcDbLayout
  3
ObjectDBX Classes
 90
        0
280
     0
281
     0
  0
ENDSEC
  0
SECTION
  2
TABLES
  0
TABLE
  2
VPORT
  5
8
330
0
100
AcDbSymbolTable
 70
     1
  0
VPORT
  5
29
330
8
100
AcDbSymbolTableRecord
100
AcDbViewportTableRecord
  2
*Active
 70
     0
 10
0.0
 20
0.0
 11
1.0
 21
1.0
 12
210.0
 22
148.5
 13
0.0
 23
0.0
 14
10.0
 24
10.0
 15
10.0
 25
10.0
 16
0.0
 26
0.0
 36
1.0
 17
0.0
 27
0.0
 37
0.0
 40
297.0
 41
1.4141414141
 42
50.0
 43
0.0
 44
0.0
 50
0.0
 51
0.0
 71
     0
 72
  2000
 73
     1
 74
     3
 75
     0
 76
     0
 77
     0
 78
     0
281
     0
 65
     1
110
0.0
120
0.0
130
0.0
111
1.0
121
0.0
131
0.0
112
0.0
122
1.0
132
0.0
 79
     0
146
0.0
  0
ENDTAB
  0
TABLE
  2
LTYPE
  5
5
330
0
100
AcDbSymbolTable
 70
     6
  0
LTYPE
  5
14
330
5
100
AcDbSymbolTableRecord
100
AcDbLinetypeTableRecord
  2
ByBlock
 70
     0
  3

 72
    65
 73
     0
 40
0.0
  0
LTYPE
  5
15
330
5
100
AcDbSymbolTableRecord
100
AcDbLinetypeTableRecord
  2
ByLayer
 70
     0
  3

 72
    65
 73
     0
 40
0.0
  0
LTYPE
  5
16
330
5
100
AcDbSymbolTableRecord
100
AcDbLinetypeTableRecord
  2
Continuous
 70
     0
  3
Solid line
 72
    65
 73
     0
 40
0.0
  0
LTYPE
  5
3F
330
5
100
AcDbSymbolTableRecord
100
AcDbLinetypeTableRecord
  2
HIDDEN
 70
     0
  3
Hidden __ __ __ __ __ __ __ __ __ __ __ __ __ __
 72
    65
 73
     2
 40
1.905
 49
1.27
 74
     0
 49
-0.635
 74
     0
  0
LTYPE
  5
40
330
5
100
AcDbSymbolTableRecord
100
AcDbLinetypeTableRecord
  2
PHANTOM
 70
     0
  3
Phantom ______  __  __  ______  __  __  ______
 72
    65
 73
     6
 40
12.7
 49
6.35
 74
     0
 49
-1.27
 74
     0
 49
1.27
 74
     0
 49
-1.27
 74
     0
 49
1.27
 74
     0
 49
-1.27
 74
     0
  0
LTYPE
  5
41
330
5
100
AcDbSymbolTableRecord
100
AcDbLinetypeTableRecord
  2
CENTER
 70
     0
  3
Center ____ _ ____ _ ____ _ ____ _ ____ _ ____
 72
    65
 73
     4
 40
10.16
 49
6.35
 74
     0
 49
-1.27
 74
     0
 49
1.27
 74
     0
 49
-1.27
 74
     0
  0
LTYPE
  5
42
330
5
100
AcDbSymbolTableRecord
100
AcDbLinetypeTableRecord
  2
CENTERX2
 70
     0
  3
Center (2x) ________  __  ________  __  _____
 72
    65
 73
     4
 40
20.32
 49
12.7
 74
     0
 49
-2.54
 74
     0
 49
2.54
 74
     0
 49
-2.54
 74
     0
  0
LTYPE
  5
43
330
5
100
AcDbSymbolTableRecord
100
AcDbLinetypeTableRecord
  2
DOT2
 70
     0
  3
Dot (.5x) ........................................
 72
    65
 73
     2
 40
0.635
 49
0.0
 74
     0
 49
-0.635
 74
     0
  0
ENDTAB
  0
TABLE
  2
LAYER
  5
2
330
0
100
AcDbSymbolTable
 70
     4
  0
LAYER
  5
10
330
2
100
AcDbSymbolTableRecord
100
AcDbLayerTableRecord
  2
0
 70
     0
 62
     7
  6
Continuous
370
    -3
390
F
  0
LAYER
  5
44
330
2
100
AcDbSymbolTableRecord
100
AcDbLayerTableRecord
  2
FORMAT
 70
     0
 62
     7
  6
Continuous
370
    -3
390
F
  0
LAYER
  5
45
330
2
100
AcDbSymbolTableRecord
100
AcDbLayerTableRecord
  2
SLD-0
 70
     0
 62
     1
  6
Continuous
370
    -3
390
F
  0
LAYER
  5
46
330
2
100
AcDbSymbolTableRecord
100
AcDbLayerTableRecord
  2
WATERMARK
 70
     0
 62
    20
  6
Continuous
370
    -3
390
F
  0
ENDTAB
  0
TABLE
  2
STYLE
  5
3
330
0
100
AcDbSymbolTable
 70
     1
  0
STYLE
  5
11
330
3
100
AcDbSymbolTableRecord
100
AcDbTextStyleTableRecord
  2
Standard
 70
     0
 40
0.0
 41
1.0
 50
0.0
 71
     0
 42
2.5
  3
txt
  4

  0
ENDTAB
  0
TABLE
  2
VIEW
  5
6
330
0
100
AcDbSymbolTable
 70
     0
  0
ENDTAB
  0
TABLE
  2
UCS
  5
7
330
0
100
AcDbSymbolTable
 70
     0
  0
ENDTAB
  0
TABLE
  2
APPID
  5
9
330
0
100
AcDbSymbolTable
 70
     1
  0
APPID
  5
12
330
9
100
AcDbSymbolTableRecord
100
AcDbRegAppTableRecord
  2
ACAD
 70
     0
  0
ENDTAB
  0
TABLE
  2
DIMSTYLE
  5
A
330
0
100
AcDbSymbolTable
 70
     1
100
AcDbDimStyleTable
  0
DIMSTYLE
105
27
330
A
100
AcDbSymbolTableRecord
100
AcDbDimStyleTableRecord
  2
ISO-25
 70
     0
 41
2.5
 42
0.625
 43
3.75
 44
1.25
 73
     0
 74
     0
 77
     1
 78
     8
140
2.5
141
2.5
143
0.0393700787
147
0.625
171
     3
172
     1
178
     0
271
     2
272
     2
274
     3
278
    44
283
     0
284
     8
340
11
  0
ENDTAB
  0
TABLE
  2
BLOCK_RECORD
  5
1
330
0
100
AcDbSymbolTable
 70
     1
  0
BLOCK_RECORD
  5
1F
330
1
100
AcDbSymbolTableRecord
100
AcDbBlockTableRecord
  2
*Model_Space
340
22
  0
BLOCK_RECORD
  5
1B
330
1
100
AcDbSymbolTableRecord
100
AcDbBlockTableRecord
  2
*Paper_Space
340
1E
  0
BLOCK_RECORD
  5
23
330
1
100
AcDbSymbolTableRecord
100
AcDbBlockTableRecord
  2
*Paper_Space0
340
26
  0
ENDTAB
  0
ENDSEC
  0
SECTION
  2
BLOCKS
  0
BLOCK
  5
20
330
1F
100
AcDbEntity
  8
0
100
AcDbBlockBegin
  2
*Model_Space
 70
     0
 10
0.0
 20
0.0
 30
0.0
  3
*Model_Space
  1

  0
ENDBLK
  5
21
330
1F
100
AcDbEntity
  8
0
100
AcDbBlockEnd
  0
BLOCK
  5
1C
330
1B
100
AcDbEntity
 67
     1
  8
0
100
AcDbBlockBegin
  2
*Paper_Space
 70
     0
 10
0.0
 20
0.0
 30
0.0
  3
*Paper_Space
  1

  0
ENDBLK
  5
1D
330
1B
100
AcDbEntity
 67
     1
  8
0
100
AcDbBlockEnd
  0
BLOCK
  5
24
330
23
100
AcDbEntity
  8
0
100
AcDbBlockBegin
  2
*Paper_Space0
 70
     0
 10
0.0
 20
0.0
 30
0.0
  3
*Paper_Space0
  1

  0
ENDBLK
  5
25
330
23
100
AcDbEntity
  8
0
100
AcDbBlockEnd
  0
ENDSEC
  0
SECTION
  2
ENTITIES
  0
ARC
  5
47
330
1F
100
AcDbEntity
  8
0
  6
Continuous
 62
     7
370
    15
100
AcDbCircle
 10
232.7719975122
 20
222.3307201696
 30
0.0
 40
0.8670663963682451
100
AcDbArc
 50
115.0458189161
 51
180.0
  0
ARC
  5
48
330
1F
100
AcDbEntity
  8
0
  6
Continuous
 62
     7
370
    15
100
AcDbCircle
 10
227.6378647195
 20
222.3307201696
 30
0.0
 40
0.8670663963682331
100
AcDbArc
 50
0.0
 51
64.9541810839
  0
ARC
  5
49
330
1F
100
AcDbEntity
  8
0
  6
Continuous
 62
     7
370
    15
100
AcDbCircle
 10
232.7719975122
 20
203.9017916464
 30
0.0
 40
0.8670663963682443
100
AcDbArc
 50
180.0
 51
244.9541810839
  0
ARC
  5
4A
330
1F
100
AcDbEntity
  8
0
  6
Continuous
 62
     7
370
    15
100
AcDbCircle
 10
227.6378647195
 20
203.9017916464
 30
0.0
 40
0.8670663963682159
100
AcDbArc
 50
295.0458189161
 51
0.0
  0
LINE
  5
4B
330
1F
100
AcDbEntity
  8
0
  6
Continuous
 62
     7
370
    15
100
AcDbLine
 10
231.9049311159
 20
207.5115031601
 30
0.0
 11
231.9049311159
 21
218.7210086559
 31
0.0
  0
LINE
  5
4C
330
1F
100
AcDbEntity
  8
0
  6
Continuous
 62
     7
370
    15
100
AcDbLine
 10
228.5049311159
 20
218.7210086559
 30
0.0
 11
228.5049311159
 21
207.5115031601
 31
0.0
  0
ARC
  5
4D
330
1F
100
AcDbEntity
  8
0
  6
Continuous
 62
     7
370
    15
100
AcDbCircle
 10
231.8915977825
 20
218.7210086559
 30
0.0
 40
0.0133333333333212
100
AcDbArc
 50
0.0
 51
77.846802531
  0
ARC
  5
4E
330
1F
100
AcDbEntity
  8
0
  6
Continuous
 62
     7
370
    15
100
AcDbCircle
 10
228.5182644492
 20
218.7210086559
 30
0.0
 40
0.0133333333333496
100
AcDbArc
 50
102.1531974691
 51
180.0
  0
LINE
  5
4F
330
1F
100
AcDbEntity
  8
0
  6
Continuous
 62
     7
370
    15
100
AcDbLine
 10
231.9049311159
 20
218.8448364934
 30
0.0
 11
231.9049311159
 21
222.3307201696
 31
0.0
  0
LINE
  5
50
330
1F
100
AcDbEntity
  8
0
  6
Continuous
 62
     7
370
    15
100
AcDbLine
 10
228.5049311159
 20
222.3307201696
 30
0.0
 11
228.5049311159
 21
218.8448364934
 31
0.0
  0
ARC
  5
51
330
1F
100
AcDbEntity
  8
0
  6
Continuous
 62
     7
370
    15
100
AcDbCircle
 10
231.8915977825
 20
218.8448364934
 30
0.0
 40
0.0133333333333368
100
AcDbArc
 50
282.153197469
 51
0.0
  0
ARC
  5
52
330
1F
100
AcDbEntity
  8
0
  6
Continuous
 62
     7
370
    15
100
AcDbCircle
 10
228.5182644492
 20
218.8448364934
 30
0.0
 40
0.0133333333333496
100
AcDbArc
 50
180.0
 51
257.8468025309
  0
ARC
  5
53
330
1F
100
AcDbEntity
  8
0
  6
Continuous
 62
     7
370
    15
100
AcDbCircle
 10
231.8915977825
 20
207.5115031601
 30
0.0
 40
0.0133333333333368
100
AcDbArc
 50
282.153197469
 51
0.0
  0
ARC
  5
54
330
1F
100
AcDbEntity
  8
0
  6
Continuous
 62
     7
370
    15
100
AcDbCircle
 10
228.5182644492
 20
207.5115031601
 30
0.0
 40
0.0133333333333496
100
AcDbArc
 50
180.0
 51
257.8468025309
  0
LINE
  5
55
330
1F
100
AcDbEntity
  8
0
  6
Continuous
 62
     7
370
    15
100
AcDbLine
 10
231.9049311159
 20
203.9017916464
 30
0.0
 11
231.9049311159
 21
207.3876753226
 31
0.0
  0
LINE
  5
56
330
1F
100
AcDbEntity
  8
0
  6
Continuous
 62
     7
370
    15
100
AcDbLine
 10
228.5049311159
 20
207.3876753226
 30
0.0
 11
228.5049311159
 21
203.9017916464
 31
0.0
  0
ARC
  5
57
330
1F
100
AcDbEntity
  8
0
  6
Continuous
 62
     7
370
    15
100
AcDbCircle
 10
231.8915977825
 20
207.3876753226
 30
0.0
 40
0.0133333333333368
100
AcDbArc
 50
0.0
 51
77.846802531
  0
ARC
  5
58
330
1F
100
AcDbEntity
  8
0
  6
Continuous
 62
     7
370
    15
100
AcDbCircle
 10
228.5182644492
 20
207.3876753226
 30
0.0
 40
0.0133333333333496
100
AcDbArc
 50
102.1531974691
 51
180.0
  0
ARC
  5
59
330
1F
100
AcDbEntity
  8
0
  6
Continuous
 62
     7
370
    15
100
AcDbCircle
 10
231.9049311159
 20
207.4495892413
 30
0.0
 40
0.0500000000000114
100
AcDbArc
 50
102.153197469
 51
257.846802531
  0
ARC
  5
5A
330
1F
100
AcDbEntity
  8
0
  6
Continuous
 62
     7
370
    15
100
AcDbCircle
 10
228.5049311159
 20
207.4495892413
 30
0.0
 40
0.0500000000000114
100
AcDbArc
 50
282.153197469
 51
77.846802531
  0
ARC
  5
5B
330
1F
100
AcDbEntity
  8
0
  6
Continuous
 62
     7
370
    15
100
AcDbCircle
 10
231.9049311159
 20
218.7829225747
 30
0.0
 40
0.0500000000000114
100
AcDbArc
 50
102.153197469
 51
257.846802531
  0
ARC
  5
5C
330
1F
100
AcDbEntity
  8
0
  6
Continuous
 62
     7
370
    15
100
AcDbCircle
 10
228.5049311159
 20
218.7829225747
 30
0.0
 40
0.0500000000000114
100
AcDbArc
 50
282.153197469
 51
77.846802531
  0
LINE
  5
5D
330
1F
100
AcDbEntity
  8
0
  6
Continuous
 62
     7
370
    15
100
AcDbLine
 10
229.5715977825
 20
201.9182789004
 30
0.0
 11
229.5736207749
 21
201.916255908
 31
0.0
  0
LINE
  5
5E
330
1F
100
AcDbEntity
  8
0
  6
Continuous
 62
     7
370
    15
100
AcDbLine
 10
230.8362414569
 20
201.916255908
 30
0.0
 11
230.8382644492
 21
201.9182789004
 31
0.0
  0
LINE
  5
5F
330
1F
100
AcDbEntity
  8
0
  6
Continuous
 62
     7
370
    15
100
AcDbLine
 10
229.8049311159
 20
201.816255908
 30
0.0
 11
229.8382644492
 21
201.7829225747
 31
0.0
  0
LINE
  5
60
330
1F
100
AcDbEntity
  8
0
  6
Continuous
 62
     7
370
    15
100
AcDbLine
 10
230.5715977825
 20
201.7829225747
 30
0.0
 11
230.6049311159
 21
201.816255908
 31
0.0
  0
LINE
  5
61
330
1F
100
AcDbEntity
  8
0
  6
Continuous
 62
     7
370
    15
100
AcDbLine
 10
230.6049311159
 20
202.6829225747
 30
0.0
 11
230.6049311159
 21
202.816255908
 31
0.0
  0
LINE
  5
62
330
1F
100
AcDbEntity
  8
0
  6
Continuous
 62
     7
370
    15
100
AcDbLine
 10
230.6049311159
 20
202.916255908
 30
0.0
 11
230.6049311159
 21
203.116255908
 31
0.0
  0
LINE
  5
63
330
1F
100
AcDbEntity
  8
0
  6
Continuous
 62
     7
370
    15
100
AcDbLine
 10
229.8049311159
 20
203.116255908
 30
0.0
 11
229.8049311159
 21
202.916255908
 31
0.0
  0
LINE
  5
64
330
1F
100
AcDbEntity
  8
0
  6
Continuous
 62
     7
370
    15
100
AcDbLine
 10
229.8049311159
 20
202.816255908
 30
0.0
 11
229.8049311159
 21
202.6829225747
 31
0.0
  0
LINE
  5
65
330
1F
100
AcDbEntity
  8
0
  6
Continuous
 62
     7
370
    15
100
AcDbLine
 10
230.6049311159
 20
201.816255908
 30
0.0
 11
230.6049311159
 21
201.916255908
 31
0.0
  0
LINE
  5
66
330
1F
100
AcDbEntity
  8
0
  6
Continuous
 62
     7
370
    15
100
AcDbLine
 10
229.8049311159
 20
201.916255908
 30
0.0
 11
229.8049311159
 21
201.816255908
 31
0.0
  0
ARC
  5
67
330
1F
100
AcDbEntity
  8
0
  6
Continuous
 62
     7
370
    15
100
AcDbCircle
 10
253.4386641789
 20
222.3307201696
 30
0.0
 40
0.8670663963682451
100
AcDbArc
 50
115.0458189161
 51
180.0
  0
ARC
  5
68
330
1F
100
AcDbEntity
  8
0
  6
Continuous
 62
     7
370
    15
100
AcDbCircle
 10
248.3045313862
 20
222.3307201696
 30
0.0
 40
0.8670663963682331
100
AcDbArc
 50
0.0
 51
64.9541810839
  0
ARC
  5
69
330
1F
100
AcDbEntity
  8
0
  6
Continuous
 62
     7
370
    15
100
AcDbCircle
 10
253.4386641789
 20
203.9017916464
 30
0.0
 40
0.8670663963682443
100
AcDbArc
 50
180.0
 51
244.9541810839
  0
ARC
  5
6A
330
1F
100
AcDbEntity
  8
0
  6
Continuous
 62
     7
370
    15
100
AcDbCircle
 10
248.3045313862
 20
203.9017916464
 30
0.0
 40
0.8670663963682159
100
AcDbArc
 50
295.0458189161
 51
0.0
  0
ARC
  5
6B
330
1F
100
AcDbEntity
  8
0
  6
Continuous
 62
     7
370
    15
100
AcDbCircle
 10
252.5582644492
 20
218.7210086559
 30
0.0
 40
0.0133333333333212
100
AcDbArc
 50
0.0
 51
77.846802531
  0
ARC
  5
6C
330
1F
100
AcDbEntity
  8
0
  6
Continuous
 62
     7
370
    15
100
AcDbCircle
 10
249.1849311159
 20
218.7210086559
 30
0.0
 40
0.0133333333333496
100
AcDbArc
 50
102.153197469
 51
180.0
  0
LINE
  5
6D
330
1F
100
AcDbEntity
  8
0
  6
Continuous
 62
     7
370
    15
100
AcDbLine
 10
252.5715977825
 20
207.5115031601
 30
0.0
 11
252.5715977825
 21
218.7210086559
 31
0.0
  0
LINE
  5
6E
330
1F
100
AcDbEntity
  8
0
  6
Continuous
 62
     7
370
    15
100
AcDbLine
 10
249.1715977825
 20
218.7210086559
 30
0.0
 11
249.1715977825
 21
207.5115031601
 31
0.0
  0
ARC
  5
6F
330
1F
100
AcDbEntity
  8
0
  6
Continuous
 62
     7
370
    15
100
AcDbCircle
 10
252.5582644492
 20
207.3876753226
 30
0.0
 40
0.0133333333333368
100
AcDbArc
 50
0.0
 51
77.846802531
  0
ARC
  5
70
330
1F
100
AcDbEntity
  8
0
  6
Continuous
 62
     7
370
    15
100
AcDbCircle
 10
249.1849311159
 20
207.3876753226
 30
0.0
 40
0.0133333333333496
100
AcDbArc
 50
102.153197469
 51
180.0
  0
ARC
  5
71
330
1F
100
AcDbEntity
  8
0
  6
Continuous
 62
     7
370
    15
100
AcDbCircle
 10
252.5582644492
 20
218.8448364934
 30
0.0
 40
0.0133333333333368
100
AcDbArc
 50
282.153197469
 51
0.0
  0
ARC
  5
72
330
1F
100
AcDbEntity
  8
0
  6
Continuous
 62
     7
370
    15
100
AcDbCircle
 10
249.1849311159
 20
218.8448364934
 30
0.0
 40
0.0133333333333496
100
AcDbArc
 50
180.0
 51
257.846802531
  0
ARC
  5
73
330
1F
100
AcDbEntity
  8
0
  6
Continuous
 62
     7
370
    15
100
AcDbCircle
 10
252.5582644492
 20
207.5115031601
 30
0.0
 40
0.0133333333333368
100
AcDbArc
 50
282.153197469
 51
0.0
  0
ARC
  5
74
330
1F
100
AcDbEntity
  8
0
  6
Continuous
 62
     7
370
    15
100
AcDbCircle
 10
249.1849311159
 20
207.5115031601
 30
0.0
 40
0.0133333333333496
100
AcDbArc
 50
180.0
 51
257.846802531
  0
LINE
  5
75
330
1F
100
AcDbEntity
  8
0
  6
Continuous
 62
     7
370
    15
100
AcDbLine
 10
252.5715977825
 20
218.8448364934
 30
0.0
 11
252.5715977825
 21
222.3307201696
 31
0.0
  0
LINE
  5
76
330
1F
100
AcDbEntity
  8
0
  6
Continuous
 62
     7
370
    15
100
AcDbLine
 10
249.1715977825
 20
222.3307201696
 30
0.0
 11
249.1715977825
 21
218.8448364934
 31
0.0
  0
LINE
  5
77
330
1F
100
AcDbEntity
  8
0
  6
Continuous
 62
     7
370
    15
100
AcDbLine
 10
252.5715977825
 20
203.9017916464
 30
0.0
 11
252.5715977825
 21
207.3876753226
 31
0.0
  0
LINE
  5
78
330
1F
100
AcDbEntity
  8
0
  6
Continuous
 62
     7
370
    15
100
AcDbLine
 10
249.1715977825
 20
207.3876753226
 30
0.0
 11
249.1715977825
 21
203.9017916464
 31
0.0
  0
ARC
  5
79
330
1F
100
AcDbEntity
  8
0
  6
Continuous
 62
     7
370
    15
100
AcDbCircle
 10
252.5715977825
 20
207.4495892413
 30
0.0
 40
0.0500000000000114
100
AcDbArc
 50
102.153197469
 51
257.846802531
  0
ARC
  5
7A
330
1F
100
AcDbEntity
  8
0
  6
Continuous
 62
     7
370
    15
100
AcDbCircle
 10
249.1715977825
 20
207.4495892413
 30
0.0
 40
0.0500000000000174
100
AcDbArc
 50
282.153197469
 51
77.846802531
  0
ARC
  5
7B
330
1F
100
AcDbEntity
  8
0
  6
Continuous
 62
     7
370
    15
100
AcDbCircle
 10
252.5715977825
 20
218.7829225747
 30
0.0
 40
0.0500000000000114
100
AcDbArc
 50
102.153197469
 51
257.846802531
  0
ARC
  5
7C
330
1F
100
AcDbEntity
  8
0
  6
Continuous
 62
     7
370
    15
100
AcDbCircle
 10
249.1715977825
 20
218.7829225747
 30
0.0
 40
0.0500000000000114
100
AcDbArc
 50
282.153197469
 51
77.846802531
  0
LINE
  5
7D
330
1F
100
AcDbEntity
  8
0
  6
Continuous
 62
     7
370
    15
100
AcDbLine
 10
250.2382644492
 20
201.9182789004
 30
0.0
 11
250.2402874416
 21
201.916255908
 31
0.0
  0
LINE
  5
7E
330
1F
100
AcDbEntity
  8
0
  6
Continuous
 62
     7
370
    15
100
AcDbLine
 10
251.5029081235
 20
201.916255908
 30
0.0
 11
251.5049311159
 21
201.9182789004
 31
0.0
  0
LINE
  5
7F
330
1F
100
AcDbEntity
  8
0
  6
Continuous
 62
     7
370
    15
100
AcDbLine
 10
251.2715977825
 20
202.6829225747
 30
0.0
 11
251.2715977825
 21
202.816255908
 31
0.0
  0
LINE
  5
80
330
1F
100
AcDbEntity
  8
0
  6
Continuous
 62
     7
370
    15
100
AcDbLine
 10
251.2715977825
 20
202.916255908
 30
0.0
 11
251.2715977825
 21
203.116255908
 31
0.0
  0
LINE
  5
81
330
1F
100
AcDbEntity
  8
0
  6
Continuous
 62
     7
370
    15
100
AcDbLine
 10
250.4715977825
 20
203.116255908
 30
0.0
 11
250.4715977825
 21
202.916255908
 31
0.0
  0
LINE
  5
82
330
1F
100
AcDbEntity
  8
0
  6
Continuous
 62
     7
370
    15
100
AcDbLine
 10
250.4715977825
 20
202.816255908
 30
0.0
 11
250.4715977825
 21
202.6829225747
 31
0.0
  0
LINE
  5
83
330
1F
100
AcDbEntity
  8
0
  6
Continuous
 62
     7
370
    15
100
AcDbLine
 10
250.4715977825
 20
201.816255908
 30
0.0
 11
250.5049311159
 21
201.7829225747
 31
0.0
  0
LINE
  5
84
330
1F
100
AcDbEntity
  8
0
  6
Continuous
 62
     7
370
    15
100
AcDbLine
 10
251.2382644492
 20
201.7829225747
 30
0.0
 11
251.2715977825
 21
201.816255908
 31
0.0
  0
LINE
  5
85
330
1F
100
AcDbEntity
  8
0
  6
Continuous
 62
     7
370
    15
100
AcDbLine
 10
251.2715977825
 20
201.816255908
 30
0.0
 11
251.2715977825
 21
201.916255908
 31
0.0
  0
LINE
  5
86
330
1F
100
AcDbEntity
  8
0
  6
Continuous
 62
     7
370
    15
100
AcDbLine
 10
250.4715977825
 20
201.916255908
 30
0.0
 11
250.4715977825
 21
201.816255908
 31
0.0
  0
LINE
  5
87
330
1F
100
AcDbEntity
  8
0
  6
Continuous
 62
     7
370
    15
100
AcDbLine
 10
229.3715977825
 20
202.916255908
 30
0.0
 11
229.3715977825
 21
202.816255908
 31
0.0
  0
LINE
  5
88
330
1F
100
AcDbEntity
  8
0
  6
Continuous
 62
     7
370
    15
100
AcDbLine
 10
231.0382644492
 20
202.816255908
 30
0.0
 11
231.0382644492
 21
202.916255908
 31
0.0
  0
LINE
  5
89
330
1F
100
AcDbEntity
  8
0
  6
Continuous
 62
     7
370
    15
100
AcDbLine
 10
250.0382644492
 20
202.916255908
 30
0.0
 11
250.0382644492
 21
202.816255908
 31
0.0
  0
LINE
  5
8A
330
1F
100
AcDbEntity
  8
0
  6
Continuous
 62
     7
370
    15
100
AcDbLine
 10
251.7049311159
 20
202.816255908
 30
0.0
 11
251.7049311159
 21
202.916255908
 31
0.0
  0
LINE
  5
8B
330
1F
100
AcDbEntity
  8
0
  6
Continuous
 62
     7
370
    15
100
AcDbLine
 10
261.1047709046
 20
234.696255908
 30
0.0
 11
261.3782644492
 21
234.696255908
 31
0.0
  0
LINE
  5
8C
330
1F
100
AcDbEntity
  8
0
  6
Continuous
 62
     7
370
    15
100
AcDbLine
 10
261.5115977826
 20
235.2295892413
 30
0.0
 11
261.1047709046
 21
235.2295892413
 31
0.0
  0
LINE
  5
8D
330
1F
100
AcDbEntity
  8
0
  6
Continuous
 62
     7
370
    15
100
AcDbLine
 10
261.6663539887
 20
237.0676867589
 30
0.0
 11
261.5115977826
 21
237.1295892413
 31
0.0
  0
LINE
  5
8E
330
1F
100
AcDbEntity
  8
0
  6
Continuous
 62
     7
370
    15
100
AcDbLine
 10
262.1782644492
 20
236.8629225747
 30
0.0
 11
261.975836128
 21
236.9438939032
 31
0.0
  0
LINE
  5
8F
330
1F
100
AcDbEntity
  8
0
  6
Continuous
 62
     7
370
    15
100
AcDbLine
 10
263.196435064
 20
233.5210993513
 30
0.0
 11
263.472288761
 21
233.645233515
 31
0.0
  0
LINE
  5
90
330
1F
100
AcDbEntity
  8
0
  6
Continuous
 62
     7
370
    15
100
AcDbLine
 10
262.2086618327
 20
236.8492437521
 30
0.0
 11
262.1782644492
 21
236.8629225747
 31
0.0
  0
ARC
  5
91
330
1F
100
AcDbEntity
  8
0
  6
Continuous
 62
     7
370
    15
100
AcDbCircle
 10
263.4449311159
 20
233.706028282
 30
0.0
 40
0.0666666666667191
100
AcDbArc
 50
294.227745318
 51
360.0
  0
LINE
  5
92
330
1F
100
AcDbEntity
  8
0
  6
Continuous
 62
     7
370
    15
100
AcDbLine
 10
261.3782644492
 20
234.4888019229
 30
0.0
 11
261.5115977826
 21
234.4864745809
 31
0.0
  0
LINE
  5
93
330
1F
100
AcDbEntity
  8
0
  6
Continuous
 62
     7
370
    15
100
AcDbLine
 10
261.9762591697
 20
236.9444427085
 30
0.0
 11
261.6664289493
 21
237.0683747966
 31
0.0
  0
LINE
  5
94
330
1F
100
AcDbEntity
  8
0
  6
Continuous
 62
     7
370
    15
100
AcDbLine
 10
223.3695311159
 20
227.8052247246
 30
0.0
 11
223.3315017846
 21
227.7537951256
 31
0.0
  0
LINE
  5
95
330
1F
100
AcDbEntity
  8
0
  6
Continuous
 62
     7
370
    15
100
AcDbLine
 10
223.3315017846
 20
226.189987657
 30
0.0
 11
223.3695311159
 21
226.1385580579
 31
0.0
  0
LINE
  5
96
330
1F
100
AcDbEntity
  8
0
  6
Continuous
 62
     7
370
    15
100
AcDbLine
 10
223.3315017846
 20
227.7537951256
 30
0.0
 11
223.2807977825
 21
227.7537951256
 31
0.0
  0
LINE
  5
97
330
1F
100
AcDbEntity
  8
0
  6
Continuous
 62
     7
370
    15
100
AcDbLine
 10
223.2807977825
 20
226.189987657
 30
0.0
 11
223.3315017846
 21
226.189987657
 31
0.0
  0
LINE
  5
98
330
1F
100
AcDbEntity
  8
0
  6
Continuous
 62
     7
370
    15
100
AcDbLine
 10
223.0389311159
 20
226.2585580579
 30
0.0
 11
223.0993977825
 21
226.3518913913
 31
0.0
  0
LINE
  5
99
330
1F
100
AcDbEntity
  8
0
  6
Continuous
 62
     7
370
    15
100
AcDbLine
 10
223.0993977825
 20
227.5918913913
 30
0.0
 11
223.0389311159
 21
227.6852247246
 31
0.0
  0
LINE
  5
9A
330
1F
100
AcDbEntity
  8
0
  6
Continuous
 62
     7
370
    15
100
AcDbLine
 10
223.0389311159
 20
227.6852247246
 30
0.0
 11
222.9784644492
 21
227.5918913913
 31
0.0
  0
LINE
  5
9B
330
1F
100
AcDbEntity
  8
0
  6
Continuous
 62
     7
370
    15
100
AcDbLine
 10
222.9784644492
 20
226.3518913913
 30
0.0
 11
223.0389311159
 21
226.2585580579
 31
0.0
  0
LINE
  5
9C
330
1F
100
AcDbEntity
  8
0
  6
Continuous
 62
     7
370
    15
100
AcDbLine
 10
223.1598644492
 20
227.6852247246
 30
0.0
 11
223.0993977825
 21
227.5918913913
 31
0.0
  0
LINE
  5
9D
330
1F
100
AcDbEntity
  8
0
  6
Continuous
 62
     7
370
    15
100
AcDbLine
 10
223.0993977825
 20
226.3518913913
 30
0.0
 11
223.1598644492
 21
226.2585580579
 31
0.0
  0
LINE
  5
9E
330
1F
100
AcDbEntity
  8
0
  6
Continuous
 62
     7
370
    15
100
AcDbLine
 10
223.1598644492
 20
226.2585580579
 30
0.0
 11
223.2203311159
 21
226.3518913913
 31
0.0
  0
LINE
  5
9F
330
1F
100
AcDbEntity
  8
0
  6
Continuous
 62
     7
370
    15
100
AcDbLine
 10
223.2203311159
 20
227.5918913913
 30
0.0
 11
223.1598644492
 21
227.6852247246
 31
0.0
  0
LINE
  5
A0
330
1F
100
AcDbEntity
  8
0
  6
Continuous
 62
     7
370
    15
100
AcDbLine
 10
223.2807977825
 20
227.6852247246
 30
0.0
 11
223.2203311159
 21
227.5918913913
 31
0.0
  0
LINE
  5
A1
330
1F
100
AcDbEntity
  8
0
  6
Continuous
 62
     7
370
    15
100
AcDbLine
 10
223.2203311159
 20
226.3518913913
 30
0.0
 11
223.2807977825
 21
226.2585580579
 31
0.0
  0
LINE
  5
A2
330
1F
100
AcDbEntity
  8
0
  6
Continuous
 62
     7
370
    15
100
AcDbLine
 10
222.9179977825
 20
227.6746444289
 30
0.0
 11
222.8575311159
 21
227.5756644295
 31
0.0
  0
LINE
  5
A3
330
1F
100
AcDbEntity
  8
0
  6
Continuous
 62
     7
370
    15
100
AcDbLine
 10
222.8575311159
 20
226.368118353
 30
0.0
 11
222.9179977825
 21
226.2691383536
 31
0.0
  0
LINE
  5
A4
330
1F
100
AcDbEntity
  8
0
  6
Continuous
 62
     7
370
    15
100
AcDbLine
 10
222.9179977825
 20
226.2691383536
 30
0.0
 11
222.9784644492
 21
226.3518913913
 31
0.0
  0
LINE
  5
A5
330
1F
100
AcDbEntity
  8
0
  6
Continuous
 62
     7
370
    15
100
AcDbLine
 10
222.9784644492
 20
227.5918913913
 30
0.0
 11
222.9179977825
 21
227.6746444289
 31
0.0
  0
LINE
  5
A6
330
1F
100
AcDbEntity
  8
0
  6
Continuous
 62
     7
370
    15
100
AcDbLine
 10
222.7970644492
 20
226.2797186494
 30
0.0
 11
222.8575311159
 21
226.368118353
 31
0.0
  0
LINE
  5
A7
330
1F
100
AcDbEntity
  8
0
  6
Continuous
 62
     7
370
    15
100
AcDbLine
 10
222.8575311159
 20
227.5756644295
 30
0.0
 11
222.7970644492
 21
227.6640641332
 31
0.0
  0
LINE
  5
A8
330
1F
100
AcDbEntity
  8
0
  6
Continuous
 62
     7
370
    15
100
AcDbLine
 10
222.7970644492
 20
227.6640641332
 30
0.0
 11
222.7365977825
 21
227.5650841338
 31
0.0
  0
LINE
  5
A9
330
1F
100
AcDbEntity
  8
0
  6
Continuous
 62
     7
370
    15
100
AcDbLine
 10
222.7365977825
 20
226.3786986487
 30
0.0
 11
222.7970644492
 21
226.2797186494
 31
0.0
  0
LINE
  5
AA
330
1F
100
AcDbEntity
  8
0
  6
Continuous
 62
     7
370
    15
100
AcDbLine
 10
222.6761311159
 20
227.6550230892
 30
0.0
 11
222.6156644492
 21
227.5545038381
 31
0.0
  0
LINE
  5
AB
330
1F
100
AcDbEntity
  8
0
  6
Continuous
 62
     7
370
    15
100
AcDbLine
 10
222.6156644492
 20
226.3892789444
 30
0.0
 11
222.6761311159
 21
226.2887596933
 31
0.0
  0
LINE
  5
AC
330
1F
100
AcDbEntity
  8
0
  6
Continuous
 62
     7
370
    15
100
AcDbLine
 10
222.6761311159
 20
226.2887596933
 30
0.0
 11
222.7365977825
 21
226.3786986487
 31
0.0
  0
LINE
  5
AD
330
1F
100
AcDbEntity
  8
0
  6
Continuous
 62
     7
370
    15
100
AcDbLine
 10
222.7365977825
 20
227.5650841338
 30
0.0
 11
222.6761311159
 21
227.6550230892
 31
0.0
  0
LINE
  5
AE
330
1F
100
AcDbEntity
  8
0
  6
Continuous
 62
     7
370
    15
100
AcDbLine
 10
222.5551977825
 20
226.299339989
 30
0.0
 11
222.6156644492
 21
226.3892789444
 31
0.0
  0
LINE
  5
AF
330
1F
100
AcDbEntity
  8
0
  6
Continuous
 62
     7
370
    15
100
AcDbLine
 10
222.6156644492
 20
227.5545038381
 30
0.0
 11
222.5551977825
 21
227.6444427935
 31
0.0
  0
LINE
  5
B0
330
1F
100
AcDbEntity
  8
0
  6
Continuous
 62
     7
370
    15
100
AcDbLine
 10
222.5551977825
 20
227.6444427935
 30
0.0
 11
222.4947311159
 21
227.5439235424
 31
0.0
  0
LINE
  5
B1
330
1F
100
AcDbEntity
  8
0
  6
Continuous
 62
     7
370
    15
100
AcDbLine
 10
222.4947311159
 20
226.3998592401
 30
0.0
 11
222.5551977825
 21
226.299339989
 31
0.0
  0
LINE
  5
B2
330
1F
100
AcDbEntity
  8
0
  6
Continuous
 62
     7
370
    15
100
AcDbLine
 10
222.4342644492
 20
227.6338624978
 30
0.0
 11
222.3737977825
 21
227.5333432467
 31
0.0
  0
LINE
  5
B3
330
1F
100
AcDbEntity
  8
0
  6
Continuous
 62
     7
370
    15
100
AcDbLine
 10
222.3737977825
 20
226.4104395358
 30
0.0
 11
222.4342644492
 21
226.3099202847
 31
0.0
  0
LINE
  5
B4
330
1F
100
AcDbEntity
  8
0
  6
Continuous
 62
     7
370
    15
100
AcDbLine
 10
222.4342644492
 20
226.3099202847
 30
0.0
 11
222.4947311159
 21
226.3998592401
 31
0.0
  0
LINE
  5
B5
330
1F
100
AcDbEntity
  8
0
  6
Continuous
 62
     7
370
    15
100
AcDbLine
 10
222.4947311159
 20
227.5439235424
 30
0.0
 11
222.4342644492
 21
227.6338624978
 31
0.0
  0
LINE
  5
B6
330
1F
100
AcDbEntity
  8
0
  6
Continuous
 62
     7
370
    15
100
AcDbLine
 10
222.3133311159
 20
226.3205005804
 30
0.0
 11
222.3737977825
 21
226.4104395358
 31
0.0
  0
LINE
  5
B7
330
1F
100
AcDbEntity
  8
0
  6
Continuous
 62
     7
370
    15
100
AcDbLine
 10
222.3737977825
 20
227.5333432467
 30
0.0
 11
222.3133311159
 21
227.6232822021
 31
0.0
  0
LINE
  5
B8
330
1F
100
AcDbEntity
  8
0
  6
Continuous
 62
     7
370
    15
100
AcDbLine
 10
222.3133311159
 20
227.6232822021
 30
0.0
 11
222.2528644492
 21
227.522762951
 31
0.0
  0
LINE
  5
B9
330
1F
100
AcDbEntity
  8
0
  6
Continuous
 62
     7
370
    15
100
AcDbLine
 10
222.2528644492
 20
226.4210198315
 30
0.0
 11
222.3133311159
 21
226.3205005804
 31
0.0
  0
ARC
  5
BA
330
1F
100
AcDbEntity
  8
0
  6
Continuous
 62
     7
370
    15
100
AcDbCircle
 10
266.4530353165
 20
228.9359238347
 30
0.0
 40
0.0666666666667056
100
AcDbArc
 50
224.6115510614
 51
306.0807854514
  0
ARC
  5
BB
330
1F
100
AcDbEntity
  8
0
  6
Continuous
 62
     7
370
    15
100
AcDbCircle
 10
269.6802449348
 20
232.1196683582
 30
0.0
 40
0.0666666666666947
100
AcDbArc
 50
323.1423166713
 51
44.6115510614
  0
LINE
  5
BC
330
1F
100
AcDbEntity
  8
0
  6
Continuous
 62
     7
370
    15
100
AcDbLine
 10
266.3054376333
 20
228.9906098936
 30
0.0
 11
266.4055763515
 21
228.8891040623
 31
0.0
  0
LINE
  5
BD
330
1F
100
AcDbEntity
  8
0
  6
Continuous
 62
     7
370
    15
100
AcDbLine
 10
269.7277038997
 20
232.1664881306
 30
0.0
 11
269.6275651816
 21
232.2679939619
 31
0.0
  0
LINE
  5
BE
330
1F
100
AcDbEntity
  8
0
  6
Continuous
 62
     7
370
    15
100
AcDbLine
 10
266.4922970071
 20
228.8820446727
 30
0.0
 11
267.4427354542
 21
229.5746282037
 31
0.0
  0
LINE
  5
BF
330
1F
100
AcDbEntity
  8
0
  6
Continuous
 62
     7
370
    15
100
AcDbLine
 10
269.0281799259
 20
231.1387194004
 30
0.0
 11
269.7335867941
 21
232.0796797287
 31
0.0
  0
ARC
  5
C0
330
1F
100
AcDbEntity
  8
0
  6
Continuous
 62
     7
370
    15
100
AcDbCircle
 10
267.5212588354
 20
229.4668698797
 30
0.0
 40
0.1333333333333437
100
AcDbArc
 50
44.6115510614
 51
126.0807854514
  0
ARC
  5
C1
330
1F
100
AcDbEntity
  8
0
  6
Continuous
 62
     7
370
    15
100
AcDbCircle
 10
269.1348636445
 20
231.0587421415
 30
0.0
 40
0.133333333333344
100
AcDbArc
 50
143.1423166713
 51
224.6115510614
  0
LINE
  5
C2
330
1F
100
AcDbEntity
  8
0
  6
Continuous
 62
     7
370
    15
100
AcDbLine
 10
267.6161767653
 20
229.5605094245
 30
0.0
 11
267.7228146569
 21
229.4524156919
 31
0.0
  0
LINE
  5
C3
330
1F
100
AcDbEntity
  8
0
  6
Continuous
 62
     7
370
    15
100
AcDbLine
 10
269.1465836061
 20
230.857008864
 30
0.0
 11
269.0399457146
 21
230.9651025966
 31
0.0
  0
LINE
  5
C4
330
1F
100
AcDbEntity
  8
0
  6
Continuous
 62
     7
370
    15
100
AcDbLine
 10
267.7228146569
 20
229.4524156919
 30
0.0
 11
267.8164542017
 21
229.357497762
 31
0.0
  0
LINE
  5
C5
330
1F
100
AcDbEntity
  8
0
  6
Continuous
 62
     7
370
    15
100
AcDbLine
 10
269.2402231509
 20
230.7620909341
 30
0.0
 11
269.1465836061
 21
230.857008864
 31
0.0
  0
LINE
  5
C6
330
1F
100
AcDbEntity
  8
0
  6
Continuous
 62
     7
370
    15
100
AcDbLine
 10
267.8164542017
 20
229.357497762
 30
0.0
 11
267.8232215994
 21
229.3556324906
 31
0.0
  0
LINE
  5
C7
330
1F
100
AcDbEntity
  8
0
  6
Continuous
 62
     7
370
    15
100
AcDbLine
 10
269.2419964916
 20
230.7552988672
 30
0.0
 11
269.2402231509
 21
230.7620909341
 31
0.0
  0
ARC
  5
C8
330
1F
100
AcDbEntity
  8
0
  6
Continuous
 62
     7
370
    15
100
AcDbCircle
 10
267.9430752164
 20
228.5646614984
 30
0.0
 40
0.7999999999999994
100
AcDbArc
 50
1.202872365
 51
98.6163228235
  0
ARC
  5
C9
330
1F
100
AcDbEntity
  8
0
  6
Continuous
 62
     7
370
    15
100
AcDbCircle
 10
270.0312696753
 20
230.6247314842
 30
0.0
 40
0.8000000000000362
100
AcDbArc
 50
170.6067792992
 51
268.0202297578
  0
LINE
  5
CA
330
1F
100
AcDbEntity
  8
0
  6
Continuous
 62
     7
370
    15
100
AcDbLine
 10
268.8388639748
 20
228.3543541829
 30
0.0
 11
272.655501397
 21
224.4856112899
 31
0.0
  0
LINE
  5
CB
330
1F
100
AcDbEntity
  8
0
  6
Continuous
 62
     7
370
    15
100
AcDbLine
 10
274.0460490708
 20
225.8574306213
 30
0.0
 11
270.2294116486
 21
229.7261735144
 31
0.0
  0
ARC
  5
CC
330
1F
100
AcDbEntity
  8
0
  6
Continuous
 62
     7
370
    15
100
AcDbCircle
 10
269.0761587997
 20
228.5884530449
 30
0.0
 40
0.3333333333333972
100
AcDbArc
 50
181.202872365
 51
224.6115510614
  0
ARC
  5
CD
330
1F
100
AcDbEntity
  8
0
  6
Continuous
 62
     7
370
    15
100
AcDbCircle
 10
269.9921168237
 20
229.4920746523
 30
0.0
 40
0.3333333333333357
100
AcDbArc
 50
44.6115510614
 51
88.0202297578
  0
ARC
  5
CE
330
1F
100
AcDbEntity
  8
0
  6
Continuous
 62
     7
370
    15
100
AcDbCircle
 10
272.8927962219
 20
224.7197101519
 30
0.0
 40
0.3333333333333465
100
AcDbArc
 50
224.6115510614
 51
314.6115510614
  0
ARC
  5
CF
330
1F
100
AcDbEntity
  8
0
  6
Continuous
 62
     7
370
    15
100
AcDbCircle
 10
273.8087542459
 20
225.6233317593
 30
0.0
 40
0.3333333333333465
100
AcDbArc
 50
314.6115510614
 51
44.6115510614
  0
LINE
  5
D0
330
1F
100
AcDbEntity
  8
0
  6
Continuous
 62
     7
370
    15
100
AcDbLine
 10
265.2551538205
 20
233.5071416153
 30
0.0
 11
262.3935942232
 21
233.5265424652
 31
0.0
  0
LINE
  5
D1
330
1F
100
AcDbEntity
  8
0
  6
Continuous
 62
     7
370
    15
100
AcDbLine
 10
259.0597306133
 20
233.5491454498
 30
0.0
 11
257.3782644492
 21
233.5605454824
 31
0.0
  0
LINE
  5
D2
330
1F
100
AcDbEntity
  8
0
  6
Continuous
 62
     7
370
    15
100
AcDbLine
 10
257.3782644492
 20
233.0271998916
 30
0.0
 11
265.2515380013
 21
232.9738205391
 31
0.0
  0
LINE
  5
D3
330
1F
100
AcDbEntity
  8
0
  6
Continuous
 62
     7
370
    15
100
AcDbLine
 10
268.1563372673
 20
230.8165810173
 30
0.0
 11
265.6782167087
 21
233.3285333562
 31
0.0
  0
LINE
  5
D4
330
1F
100
AcDbEntity
  8
0
  6
Continuous
 62
     7
370
    15
100
AcDbLine
 10
265.2985449889
 20
232.953975177
 30
0.0
 11
267.7766655475
 21
230.4420228381
 31
0.0
  0
ARC
  5
D5
330
1F
100
AcDbEntity
  8
0
  6
Continuous
 62
     7
370
    15
100
AcDbCircle
 10
265.2510860239
 20
232.9071554046
 30
0.0
 40
0.0666666666667056
100
AcDbArc
 50
44.6115510614
 51
89.6115510614
  0
ARC
  5
D6
330
1F
100
AcDbEntity
  8
0
  6
Continuous
 62
     7
370
    15
100
AcDbCircle
 10
265.2510860239
 20
232.9071554046
 30
0.0
 40
0.6000000000000126
100
AcDbArc
 50
44.6115510614
 51
89.6115510614
  0
LINE
  5
D7
330
1F
100
AcDbEntity
  8
0
  6
Continuous
 62
     7
370
    15
100
AcDbLine
 10
257.595434994
 20
233.8590800007
 30
0.0
 11
257.3782644492
 21
233.8605523772
 31
0.0
  0
LINE
  5
D8
330
1F
100
AcDbEntity
  8
0
  6
Continuous
 62
     7
370
    15
100
AcDbLine
 10
260.465425609
 20
234.3396334814
 30
0.0
 11
260.4603634621
 21
233.5929839747
 31
0.0
  0
LINE
  5
D9
330
1F
100
AcDbEntity
  8
0
  6
Continuous
 62
     7
370
    15
100
AcDbLine
 10
260.9936845383
 20
233.5893681555
 30
0.0
 11
260.9987466852
 21
234.3360176622
 31
0.0
  0
SPLINE
  5
DA
330
1F
100
AcDbEntity
  8
0
  6
Continuous
 62
     7
370
    15
100
AcDbSpline
210
0.0
220
0.0
230
1.0
 70
     8
 71
     3
 72
    15
 73
    11
 74
     0
 42
0.00000001
 43
0.00000001
 40
0.0
 40
0.0
 40
0.0
 40
0.0
 40
0.000036314770078
 40
0.0001126687910979
 40
0.0003821845553176
 40
0.0029968058164846
 40
0.0080152323476436
 40
0.0506670455468856
 40
0.3555621839863451
 40
1.0
 40
1.0
 40
1.0
 40
1.0
 10
261.2663864693532
 20
228.1781929761201
 30
0.0
 10
261.266386241589
 20
228.1781932880115
 30
0.0
 10
261.2663855349368
 20
228.1781942556738
 30
0.0
 10
261.2663831371938
 20
228.1781975389783
 30
0.0
 10
261.2663645637524
 20
228.1782229707364
 30
0.0
 10
261.2663149657869
 20
228.1782908497889
 30
0.0
 10
261.2659991129253
 20
228.1787225852933
 30
0.0
 10
261.2637720962395
 20
228.1817407640104
 30
0.0
 10
261.2573026027453
 20
228.1900977901667
 30
0.0
 10
261.2503079556919
 20
228.1974349597392
 30
0.0
 10
261.2455597637644
 20
228.2024156669956
 30
0.0
  0
ARC
  5
DB
330
1F
100
AcDbEntity
  8
0
  6
Continuous
 62
     7
370
    15
100
AcDbCircle
 10
222.9882644492
 20
237.646255908
 30
0.0
 40
0.096666666666664
100
AcDbArc
 50
291.9174333885
 51
0.0
  0
SPLINE
  5
DC
330
1F
100
AcDbEntity
  8
0
  6
Continuous
 62
     7
370
    15
100
AcDbSpline
210
0.0
220
0.0
230
1.0
 70
     8
 71
     3
 72
    12
 73
     8
 74
     0
 42
0.00000001
 43
0.00000001
 40
0.0
 40
0.0
 40
0.0
 40
0.0
 40
0.1507019443586731
 40
0.4275670132259866
 40
0.6575725695158289
 40
0.8494792207953012
 40
1.0
 40
1.0
 40
1.0
 40
1.0
 10
223.0046114702167
 20
237.7683055654671
 30
0.0
 10
223.0046522559571
 20
237.7670738204387
 30
0.0
 10
223.0047679720302
 20
237.7635791505781
 30
0.0
 10
223.0022569628855
 20
237.7584586174254
 30
0.0
 10
222.9978986440609
 20
237.7541245887007
 30
0.0
 10
222.9929743367107
 20
237.7517267294738
 30
0.0
 10
222.989670333083
 20
237.7515642777286
 30
0.0
 10
222.9882179926562
 20
237.751492868837
 30
0.0
  0
ARC
  5
DD
330
1F
100
AcDbEntity
  8
0
  6
Continuous
 62
     7
370
    15
100
AcDbCircle
 10
222.6482644492
 20
237.7347267927
 30
0.0
 40
0.0166666666666799
100
AcDbArc
 50
90.0
 51
180.0
  0
LINE
  5
DE
330
1F
100
AcDbEntity
  8
0
  6
Continuous
 62
     7
370
    15
100
AcDbLine
 10
222.9882644492
 20
237.7513934594
 30
0.0
 11
222.6482644492
 21
237.7513934594
 31
0.0
  0
ARC
  5
DF
330
1F
100
AcDbEntity
  8
0
  6
Continuous
 62
     7
370
    15
100
AcDbCircle
 10
222.9882644492
 20
238.8129225747
 30
0.0
 40
0.0966666666666724
100
AcDbArc
 50
0.0
 51
67.5820446015
  0
LINE
  5
E0
330
1F
100
AcDbEntity
  8
0
  6
Continuous
 62
     7
370
    15
100
AcDbLine
 10
222.6482644492
 20
238.8294501745
 30
0.0
 11
222.9882644492
 21
238.8294501745
 31
0.0
  0
LINE
  5
E1
330
1F
100
AcDbEntity
  8
0
  6
Continuous
 62
     7
370
    15
100
AcDbLine
 10
222.6482644492
 20
238.7077850233
 30
0.0
 11
222.9249311159
 21
238.7077850233
 31
0.0
  0
ARC
  5
E2
330
1F
100
AcDbEntity
  8
0
  6
Continuous
 62
     7
370
    15
100
AcDbCircle
 10
222.6482644492
 20
238.72445169
 30
0.0
 40
0.0166666666666515
100
AcDbArc
 50
180.0
 51
270.0
  0
SPLINE
  5
E3
330
1F
100
AcDbEntity
  8
0
  6
Continuous
 62
     7
370
    15
100
AcDbSpline
210
0.0
220
0.0
230
1.0
 70
     8
 71
     3
 72
    13
 73
     9
 74
     0
 42
0.00000001
 43
0.00000001
 40
0.0
 40
0.0
 40
0.0
 40
0.0
 40
0.123931752620716
 40
0.2987841668421685
 40
0.5020680672605282
 40
0.7406521314661154
 40
0.9955241344177976
 40
1.0
 40
1.0
 40
1.0
 40
1.0
 10
223.0021649485702
 20
238.2371475529576
 30
0.0
 10
223.0021736683255
 20
238.2371577285559
 30
0.0
 10
223.0021946905799
 20
238.2371822606678
 30
0.0
 10
223.0041408443756
 20
238.2381556458702
 30
0.0
 10
223.0080711745664
 20
238.2393612500781
 30
0.0
 10
223.0140607244601
 20
238.240374916894
 30
0.0
 10
223.0190095775357
 20
238.2407682718332
 30
0.0
 10
223.0215450839345
 20
238.2406900266787
 30
0.0
 10
223.0215888420957
 20
238.2406886763118
 30
0.0
  0
ARC
  5
E4
330
1F
100
AcDbEntity
  8
0
  6
Continuous
 62
     7
370
    15
100
AcDbCircle
 10
223.3615977825
 20
238.2573608295
 30
0.0
 40
0.0166666666666515
100
AcDbArc
 50
270.0
 51
0.0
  0
LINE
  5
E5
330
1F
100
AcDbEntity
  8
0
  6
Continuous
 62
     7
370
    15
100
AcDbLine
 10
223.0215977825
 20
238.2406941628
 30
0.0
 11
223.3615977825
 21
238.2406941628
 31
0.0
  0
ARC
  5
E6
330
1F
100
AcDbEntity
  8
0
  6
Continuous
 62
     7
370
    15
100
AcDbCircle
 10
223.3615977825
 20
238.6475241486
 30
0.0
 40
0.0166666666666799
100
AcDbArc
 50
0.0
 51
90.0
  0
LINE
  5
E7
330
1F
100
AcDbEntity
  8
0
  6
Continuous
 62
     7
370
    15
100
AcDbLine
 10
223.3615977825
 20
238.6641908153
 30
0.0
 11
223.0215977825
 21
238.6641908153
 31
0.0
  0
ARC
  5
E8
330
1F
100
AcDbEntity
  8
0
  6
Continuous
 62
     7
370
    15
100
AcDbCircle
 10
222.9882644492
 20
238.7929225747
 30
0.0
 40
0.0166666666666799
100
AcDbArc
 50
0.0
 51
90.0
  0
ARC
  5
E9
330
1F
100
AcDbEntity
  8
0
  6
Continuous
 62
     7
370
    15
100
AcDbCircle
 10
222.9415977825
 20
238.7929225747
 30
0.0
 40
0.0166666666667084
100
AcDbArc
 50
90.0
 51
180.0
  0
LINE
  5
EA
330
1F
100
AcDbEntity
  8
0
  6
Continuous
 62
     7
370
    15
100
AcDbLine
 10
222.9882644492
 20
238.8095892413
 30
0.0
 11
222.9415977825
 21
238.8095892413
 31
0.0
  0
LINE
  5
EB
330
1F
100
AcDbEntity
  8
0
  6
Continuous
 62
     7
370
    15
100
AcDbLine
 10
223.0849311159
 20
237.7949876674
 30
0.0
 11
223.3615977825
 21
237.7949876674
 31
0.0
  0
ARC
  5
EC
330
1F
100
AcDbEntity
  8
0
  6
Continuous
 62
     7
370
    15
100
AcDbCircle
 10
223.3615977825
 20
237.811654334
 30
0.0
 40
0.0166666666666799
100
AcDbArc
 50
270.0
 51
0.0
  0
LINE
  5
ED
330
1F
100
AcDbEntity
  8
0
  6
Continuous
 62
     7
370
    15
100
AcDbLine
 10
223.4599175197
 20
238.5831062849
 30
0.0
 11
223.4482644492
 21
238.5629225747
 31
0.0
  0
LINE
  5
EE
330
1F
100
AcDbEntity
  8
0
  6
Continuous
 62
     7
370
    15
100
AcDbLine
 10
223.7949311159
 20
238.5629225747
 30
0.0
 11
223.7832780454
 21
238.5831062849
 31
0.0
  0
LINE
  5
EF
330
1F
100
AcDbEntity
  8
0
  6
Continuous
 62
     7
370
    15
100
AcDbLine
 10
223.4482644492
 20
237.896255908
 30
0.0
 11
223.4599175197
 21
237.8760721978
 31
0.0
  0
LINE
  5
F0
330
1F
100
AcDbEntity
  8
0
  6
Continuous
 62
     7
370
    15
100
AcDbLine
 10
223.7832780454
 20
237.8760721978
 30
0.0
 11
223.7949311159
 21
237.896255908
 31
0.0
  0
LINE
  5
F1
330
1F
100
AcDbEntity
  8
0
  6
Continuous
 62
     7
370
    15
100
AcDbLine
 10
222.5782644492
 20
237.896255908
 30
0.0
 11
222.6089920722
 21
237.8430341038
 31
0.0
  0
LINE
  5
F2
330
1F
100
AcDbEntity
  8
0
  6
Continuous
 62
     7
370
    15
100
AcDbLine
 10
222.8942034929
 20
237.8430341038
 30
0.0
 11
222.9249311159
 21
237.896255908
 31
0.0
  0
LINE
  5
F3
330
1F
100
AcDbEntity
  8
0
  6
Continuous
 62
     7
370
    15
100
AcDbLine
 10
222.6089920722
 20
238.6161443789
 30
0.0
 11
222.5782644492
 21
238.5629225747
 31
0.0
  0
LINE
  5
F4
330
1F
100
AcDbEntity
  8
0
  6
Continuous
 62
     7
370
    15
100
AcDbLine
 10
222.9249311159
 20
238.5629225747
 30
0.0
 11
222.8942034929
 21
238.6161443789
 31
0.0
  0
LINE
  5
F5
330
1F
100
AcDbEntity
  8
0
  6
Continuous
 62
     7
370
    15
100
AcDbLine
 10
223.7949311159
 20
237.8229225747
 30
0.0
 11
223.8049311159
 21
237.8229225747
 31
0.0
  0
LINE
  5
F6
330
1F
100
AcDbEntity
  8
0
  6
Continuous
 62
     7
370
    15
100
AcDbLine
 10
223.8049311159
 20
238.636255908
 30
0.0
 11
223.7949311159
 21
238.636255908
 31
0.0
  0
LINE
  5
F7
330
1F
100
AcDbEntity
  8
0
  6
Continuous
 62
     7
370
    15
100
AcDbLine
 10
223.4482644492
 20
238.4295892413
 30
0.0
 11
223.4315977825
 21
238.4295892413
 31
0.0
  0
LINE
  5
F8
330
1F
100
AcDbEntity
  8
0
  6
Continuous
 62
     7
370
    15
100
AcDbLine
 10
223.4315977825
 20
238.0295892413
 30
0.0
 11
223.4482644492
 21
238.0295892413
 31
0.0
  0
LINE
  5
F9
330
1F
100
AcDbEntity
  8
0
  6
Continuous
 62
     7
370
    15
100
AcDbLine
 10
232.4049311159
 20
203.116255908
 30
0.0
 11
228.0049311159
 21
203.116255908
 31
0.0
  0
LINE
  5
FA
330
1F
100
AcDbEntity
  8
0
  6
Continuous
 62
     7
370
    15
100
AcDbLine
 10
230.2049311159
 20
202.6829225747
 30
0.0
 11
229.5715977825
 21
202.6829225747
 31
0.0
  0
LINE
  5
FB
330
1F
100
AcDbEntity
  8
0
  6
Continuous
 62
     7
370
    15
100
AcDbLine
 10
230.2049311159
 20
202.016255908
 30
0.0
 11
230.2049311159
 21
202.6829225747
 31
0.0
  0
SPLINE
  5
FC
330
1F
100
AcDbEntity
  8
0
  6
Continuous
 62
     7
370
    15
100
AcDbSpline
210
0.0
220
0.0
230
1.0
 70
     8
 71
     3
 72
    12
 73
     8
 74
     0
 42
0.00000001
 43
0.00000001
 40
0.0
 40
0.0
 40
0.0
 40
0.0
 40
0.2161894347492188
 40
0.4397706698899839
 40
0.5934256650724128
 40
0.752215833306401
 40
1.0
 40
1.0
 40
1.0
 40
1.0
 10
229.5715977825453
 20
202.0162559080062
 30
0.0
 10
229.6149629745474
 20
201.9933093974569
 30
0.0
 10
229.7031760713566
 20
201.9466318050591
 30
0.0
 10
229.8328641419926
 20
201.915999542136
 30
0.0
 10
229.9514326077347
 20
201.9188760082567
 30
0.0
 10
230.0732068741613
 20
201.9473164437083
 30
0.0
 10
230.1550514529929
 20
201.9901507872337
 30
0.0
 10
230.2049311158787
 20
202.0162559080062
 30
0.0
  0
LINE
  5
FD
330
1F
100
AcDbEntity
  8
0
  6
Continuous
 62
     7
370
    15
100
AcDbLine
 10
229.5715977825
 20
202.016255908
 30
0.0
 11
229.5715977825
 21
202.6829225747
 31
0.0
  0
SPLINE
  5
FE
330
1F
100
AcDbEntity
  8
0
  6
Continuous
 62
     7
370
    15
100
AcDbSpline
210
0.0
220
0.0
230
1.0
 70
     8
 71
     3
 72
    12
 73
     8
 74
     0
 42
0.00000001
 43
0.00000001
 40
0.0
 40
0.0
 40
0.0
 40
0.0
 40
0.2161894347492204
 40
0.4397706698899845
 40
0.5934256650724132
 40
0.7522158333064013
 40
1.0
 40
1.0
 40
1.0
 40
1.0
 10
230.2049311158787
 20
202.0162559080062
 30
0.0
 10
230.1615659238765
 20
201.9933093974569
 30
0.0
 10
230.0733528270674
 20
201.9466318050591
 30
0.0
 10
229.9436647564313
 20
201.915999542136
 30
0.0
 10
229.8250962906892
 20
201.9188760082567
 30
0.0
 10
229.7033220242626
 20
201.9473164437083
 30
0.0
 10
229.621477445431
 20
201.9901507872337
 30
0.0
 10
229.5715977825453
 20
202.0162559080062
 30
0.0
  0
SPLINE
  5
FF
330
1F
100
AcDbEntity
  8
0
  6
Continuous
 62
     7
370
    15
100
AcDbSpline
210
0.0
220
0.0
230
1.0
 70
    24
 71
     3
 72
    11
 73
     7
 74
     0
 42
0.00000001
 43
0.00000001
 40
0.0
 40
0.0
 40
0.0
 40
0.0
 40
0.0324793583673145
 40
0.3745828425570783
 40
0.7287541447175256
 40
1.0
 40
1.0
 40
1.0
 40
1.0
 10
229.5715977825453
 20
201.9194030213126
 30
0.0
 10
229.5715977825453
 20
201.9190359559345
 30
0.0
 10
229.5715977825453
 20
201.9148026089825
 30
0.0
 10
229.5715977825453
 20
201.932273940654
 30
0.0
 10
229.5715977825453
 20
201.9671642674602
 30
0.0
 10
229.5715977825453
 20
202.0014053969021
 30
0.0
 10
229.5715977825453
 20
202.0162559080062
 30
0.0
  0
SPLINE
  5
100
330
1F
100
AcDbEntity
  8
0
  6
Continuous
 62
     7
370
    15
100
AcDbSpline
210
0.0
220
0.0
230
1.0
 70
     8
 71
     3
 72
    12
 73
     8
 74
     0
 42
0.00000001
 43
0.00000001
 40
0.0
 40
0.0
 40
0.0
 40
0.0
 40
0.2161894347492188
 40
0.4397706698899839
 40
0.5934256650724128
 40
0.752215833306401
 40
1.0
 40
1.0
 40
1.0
 40
1.0
 10
230.2049311158787
 20
202.0162559080062
 30
0.0
 10
230.2482963078807
 20
201.9933093974569
 30
0.0
 10
230.3365094046899
 20
201.9466318050591
 30
0.0
 10
230.466197475326
 20
201.915999542136
 30
0.0
 10
230.5847659410681
 20
201.9188760082567
 30
0.0
 10
230.7065402074947
 20
201.9473164437083
 30
0.0
 10
230.7883847863262
 20
201.9901507872337
 30
0.0
 10
230.8382644492119
 20
202.0162559080062
 30
0.0
  0
SPLINE
  5
101
330
1F
100
AcDbEntity
  8
0
  6
Continuous
 62
     7
370
    15
100
AcDbSpline
210
0.0
220
0.0
230
1.0
 70
    24
 71
     3
 72
    11
 73
     7
 74
     0
 42
0.00000001
 43
0.00000001
 40
0.0
 40
0.0
 40
0.0
 40
0.0
 40
0.2713591330662305
 40
0.6145080743040695
 40
0.9679102080689422
 40
1.0
 40
1.0
 40
1.0
 40
1.0
 10
230.8382644492119
 20
202.0162559080062
 30
0.0
 10
230.8382644492119
 20
202.0014081747658
 30
0.0
 10
230.8382644492119
 20
201.9677846447293
 30
0.0
 10
230.8382644492119
 20
201.9325146432948
 30
0.0
 10
230.8382644492119
 20
201.914818489664
 30
0.0
 10
230.8382644492119
 20
201.9190041488444
 30
0.0
 10
230.8382644492119
 20
201.9193525787938
 30
0.0
  0
SPLINE
  5
102
330
1F
100
AcDbEntity
  8
0
  6
Continuous
 62
     7
370
    15
100
AcDbSpline
210
0.0
220
0.0
230
1.0
 70
     8
 71
     3
 72
    12
 73
     8
 74
     0
 42
0.00000001
 43
0.00000001
 40
0.0
 40
0.0
 40
0.0
 40
0.0
 40
0.2161894347492204
 40
0.4397706698899845
 40
0.5934256650724132
 40
0.7522158333064013
 40
1.0
 40
1.0
 40
1.0
 40
1.0
 10
230.8382644492119
 20
202.0162559080062
 30
0.0
 10
230.7948992572099
 20
201.9933093974569
 30
0.0
 10
230.7066861604007
 20
201.9466318050591
 30
0.0
 10
230.5769980897646
 20
201.915999542136
 30
0.0
 10
230.4584296240225
 20
201.9188760082567
 30
0.0
 10
230.3366553575959
 20
201.9473164437083
 30
0.0
 10
230.2548107787643
 20
201.9901507872337
 30
0.0
 10
230.2049311158787
 20
202.0162559080062
 30
0.0
  0
LINE
  5
103
330
1F
100
AcDbEntity
  8
0
  6
Continuous
 62
     7
370
    15
100
AcDbLine
 10
230.8382644492
 20
202.6829225747
 30
0.0
 11
230.2049311159
 21
202.6829225747
 31
0.0
  0
LINE
  5
104
330
1F
100
AcDbEntity
  8
0
  6
Continuous
 62
     7
370
    15
100
AcDbLine
 10
230.8382644492
 20
202.016255908
 30
0.0
 11
230.8382644492
 21
202.6829225747
 31
0.0
  0
LINE
  5
105
330
1F
100
AcDbEntity
  8
0
  6
Continuous
 62
     7
370
    15
100
AcDbLine
 10
230.6049311159
 20
201.816255908
 30
0.0
 11
229.8049311159
 21
201.816255908
 31
0.0
  0
LINE
  5
106
330
1F
100
AcDbEntity
  8
0
  6
Continuous
 62
     7
370
    15
100
AcDbLine
 10
230.5715977825
 20
201.7829225747
 30
0.0
 11
229.8382644492
 21
201.7829225747
 31
0.0
  0
LINE
  5
107
330
1F
100
AcDbEntity
  8
0
  6
Continuous
 62
     7
370
    15
100
AcDbLine
 10
253.0715977825
 20
203.116255908
 30
0.0
 11
248.6715977825
 21
203.116255908
 31
0.0
  0
SPLINE
  5
108
330
1F
100
AcDbEntity
  8
0
  6
Continuous
 62
     7
370
    15
100
AcDbSpline
210
0.0
220
0.0
230
1.0
 70
     8
 71
     3
 72
    12
 73
     8
 74
     0
 42
0.00000001
 43
0.00000001
 40
0.0
 40
0.0
 40
0.0
 40
0.0
 40
0.2161894347492204
 40
0.4397706698899845
 40
0.5934256650724132
 40
0.7522158333064013
 40
1.0
 40
1.0
 40
1.0
 40
1.0
 10
250.8715977825453
 20
202.0162559080062
 30
0.0
 10
250.8282325905432
 20
201.9933093974569
 30
0.0
 10
250.740019493734
 20
201.9466318050591
 30
0.0
 10
250.610331423098
 20
201.915999542136
 30
0.0
 10
250.4917629573559
 20
201.9188760082567
 30
0.0
 10
250.3699886909292
 20
201.9473164437083
 30
0.0
 10
250.2881441120977
 20
201.9901507872337
 30
0.0
 10
250.238264449212
 20
202.0162559080062
 30
0.0
  0
SPLINE
  5
109
330
1F
100
AcDbEntity
  8
0
  6
Continuous
 62
     7
370
    15
100
AcDbSpline
210
0.0
220
0.0
230
1.0
 70
    24
 71
     3
 72
    11
 73
     7
 74
     0
 42
0.00000001
 43
0.00000001
 40
0.0
 40
0.0
 40
0.0
 40
0.0
 40
0.0324793583673145
 40
0.3745828425570783
 40
0.7287541447175256
 40
1.0
 40
1.0
 40
1.0
 40
1.0
 10
250.238264449212
 20
201.9194030213126
 30
0.0
 10
250.238264449212
 20
201.9190359559345
 30
0.0
 10
250.238264449212
 20
201.9148026089825
 30
0.0
 10
250.238264449212
 20
201.932273940654
 30
0.0
 10
250.238264449212
 20
201.9671642674602
 30
0.0
 10
250.238264449212
 20
202.0014053969021
 30
0.0
 10
250.238264449212
 20
202.0162559080062
 30
0.0
  0
SPLINE
  5
10A
330
1F
100
AcDbEntity
  8
0
  6
Continuous
 62
     7
370
    15
100
AcDbSpline
210
0.0
220
0.0
230
1.0
 70
     8
 71
     3
 72
    12
 73
     8
 74
     0
 42
0.00000001
 43
0.00000001
 40
0.0
 40
0.0
 40
0.0
 40
0.0
 40
0.2161894347492188
 40
0.4397706698899839
 40
0.5934256650724128
 40
0.752215833306401
 40
1.0
 40
1.0
 40
1.0
 40
1.0
 10
250.238264449212
 20
202.0162559080062
 30
0.0
 10
250.281629641214
 20
201.9933093974569
 30
0.0
 10
250.3698427380232
 20
201.9466318050591
 30
0.0
 10
250.4995308086593
 20
201.915999542136
 30
0.0
 10
250.6180992744014
 20
201.9188760082567
 30
0.0
 10
250.739873540828
 20
201.9473164437083
 30
0.0
 10
250.8217181196596
 20
201.9901507872337
 30
0.0
 10
250.8715977825453
 20
202.0162559080062
 30
0.0
  0
SPLINE
  5
10B
330
1F
100
AcDbEntity
  8
0
  6
Continuous
 62
     7
370
    15
100
AcDbSpline
210
0.0
220
0.0
230
1.0
 70
     8
 71
     3
 72
    12
 73
     8
 74
     0
 42
0.00000001
 43
0.00000001
 40
0.0
 40
0.0
 40
0.0
 40
0.0
 40
0.2161894347492188
 40
0.4397706698899839
 40
0.5934256650724128
 40
0.752215833306401
 40
1.0
 40
1.0
 40
1.0
 40
1.0
 10
250.8715977825453
 20
202.0162559080062
 30
0.0
 10
250.9149629745474
 20
201.9933093974569
 30
0.0
 10
251.0031760713566
 20
201.9466318050591
 30
0.0
 10
251.1328641419927
 20
201.915999542136
 30
0.0
 10
251.2514326077348
 20
201.9188760082567
 30
0.0
 10
251.3732068741613
 20
201.9473164437083
 30
0.0
 10
251.4550514529929
 20
201.9901507872337
 30
0.0
 10
251.5049311158786
 20
202.0162559080062
 30
0.0
  0
SPLINE
  5
10C
330
1F
100
AcDbEntity
  8
0
  6
Continuous
 62
     7
370
    15
100
AcDbSpline
210
0.0
220
0.0
230
1.0
 70
    24
 71
     3
 72
    11
 73
     7
 74
     0
 42
0.00000001
 43
0.00000001
 40
0.0
 40
0.0
 40
0.0
 40
0.0
 40
0.2713591330662305
 40
0.6145080743040695
 40
0.9679102080689422
 40
1.0
 40
1.0
 40
1.0
 40
1.0
 10
251.5049311158786
 20
202.0162559080062
 30
0.0
 10
251.5049311158786
 20
202.0014081747658
 30
0.0
 10
251.5049311158786
 20
201.9677846447293
 30
0.0
 10
251.5049311158786
 20
201.9325146432948
 30
0.0
 10
251.5049311158786
 20
201.914818489664
 30
0.0
 10
251.5049311158786
 20
201.9190041488444
 30
0.0
 10
251.5049311158786
 20
201.9193525787938
 30
0.0
  0
SPLINE
  5
10D
330
1F
100
AcDbEntity
  8
0
  6
Continuous
 62
     7
370
    15
100
AcDbSpline
210
0.0
220
0.0
230
1.0
 70
     8
 71
     3
 72
    12
 73
     8
 74
     0
 42
0.00000001
 43
0.00000001
 40
0.0
 40
0.0
 40
0.0
 40
0.0
 40
0.2161894347492204
 40
0.4397706698899845
 40
0.5934256650724132
 40
0.7522158333064013
 40
1.0
 40
1.0
 40
1.0
 40
1.0
 10
251.5049311158786
 20
202.0162559080062
 30
0.0
 10
251.4615659238766
 20
201.9933093974569
 30
0.0
 10
251.3733528270674
 20
201.9466318050591
 30
0.0
 10
251.2436647564313
 20
201.915999542136
 30
0.0
 10
251.1250962906892
 20
201.9188760082567
 30
0.0
 10
251.0033220242626
 20
201.9473164437083
 30
0.0
 10
250.921477445431
 20
201.9901507872337
 30
0.0
 10
250.8715977825453
 20
202.0162559080062
 30
0.0
  0
LINE
  5
10E
330
1F
100
AcDbEntity
  8
0
  6
Continuous
 62
     7
370
    15
100
AcDbLine
 10
251.5049311159
 20
202.6829225747
 30
0.0
 11
250.8715977825
 21
202.6829225747
 31
0.0
  0
LINE
  5
10F
330
1F
100
AcDbEntity
  8
0
  6
Continuous
 62
     7
370
    15
100
AcDbLine
 10
251.5049311159
 20
202.016255908
 30
0.0
 11
251.5049311159
 21
202.6829225747
 31
0.0
  0
LINE
  5
110
330
1F
100
AcDbEntity
  8
0
  6
Continuous
 62
     7
370
    15
100
AcDbLine
 10
250.8715977825
 20
202.016255908
 30
0.0
 11
250.8715977825
 21
202.6829225747
 31
0.0
  0
LINE
  5
111
330
1F
100
AcDbEntity
  8
0
  6
Continuous
 62
     7
370
    15
100
AcDbLine
 10
250.8715977825
 20
202.6829225747
 30
0.0
 11
250.2382644492
 21
202.6829225747
 31
0.0
  0
LINE
  5
112
330
1F
100
AcDbEntity
  8
0
  6
Continuous
 62
     7
370
    15
100
AcDbLine
 10
250.2382644492
 20
202.016255908
 30
0.0
 11
250.2382644492
 21
202.6829225747
 31
0.0
  0
LINE
  5
113
330
1F
100
AcDbEntity
  8
0
  6
Continuous
 62
     7
370
    15
100
AcDbLine
 10
251.2715977825
 20
201.816255908
 30
0.0
 11
250.4715977825
 21
201.816255908
 31
0.0
  0
LINE
  5
114
330
1F
100
AcDbEntity
  8
0
  6
Continuous
 62
     7
370
    15
100
AcDbLine
 10
251.2382644492
 20
201.7829225747
 30
0.0
 11
250.5049311159
 21
201.7829225747
 31
0.0
  0
LINE
  5
115
330
1F
100
AcDbEntity
  8
0
  6
Continuous
 62
     7
370
    15
100
AcDbLine
 10
231.0382644492
 20
202.816255908
 30
0.0
 11
229.3715977825
 21
202.816255908
 31
0.0
  0
LINE
  5
116
330
1F
100
AcDbEntity
  8
0
  6
Continuous
 62
     7
370
    15
100
AcDbLine
 10
231.0382644492
 20
202.916255908
 30
0.0
 11
229.3715977825
 21
202.916255908
 31
0.0
  0
LINE
  5
117
330
1F
100
AcDbEntity
  8
0
  6
Continuous
 62
     7
370
    15
100
AcDbLine
 10
251.7049311159
 20
202.816255908
 30
0.0
 11
250.0382644492
 21
202.816255908
 31
0.0
  0
LINE
  5
118
330
1F
100
AcDbEntity
  8
0
  6
Continuous
 62
     7
370
    15
100
AcDbLine
 10
251.7049311159
 20
202.916255908
 30
0.0
 11
250.0382644492
 21
202.916255908
 31
0.0
  0
LINE
  5
119
330
1F
100
AcDbEntity
  8
0
  6
Continuous
 62
     7
370
    15
100
AcDbLine
 10
262.1782644492
 20
236.5429077956
 30
0.0
 11
262.1782644492
 21
236.8629225747
 31
0.0
  0
SPLINE
  5
11A
330
1F
100
AcDbEntity
  8
0
  6
Continuous
 62
     7
370
    15
100
AcDbSpline
210
0.0
220
0.0
230
1.0
 70
     8
 71
     3
 72
     9
 73
     5
 74
     0
 42
0.00000001
 43
0.00000001
 40
0.0
 40
0.0
 40
0.0
 40
0.0
 40
0.5209744652334811
 40
1.0
 40
1.0
 40
1.0
 40
1.0
 10
262.1363571609817
 20
236.4692603551186
 30
0.0
 10
262.1382299630113
 20
236.485511202033
 30
0.0
 10
262.1418247688119
 20
236.516704375593
 30
0.0
 10
262.1664623964636
 20
236.5344210542013
 30
0.0
 10
262.1782644492247
 20
236.5429077956459
 30
0.0
  0
SPLINE
  5
11B
330
1F
100
AcDbEntity
  8
0
  6
Continuous
 62
     7
370
    15
100
AcDbSpline
210
0.0
220
0.0
230
1.0
 70
     8
 71
     3
 72
    16
 73
    12
 74
     0
 42
0.00000001
 43
0.00000001
 40
0.0
 40
0.0
 40
0.0
 40
0.0
 40
0.0000597702847712
 40
0.1251210323923209
 40
0.2500906799919196
 40
0.3750581956784665
 40
0.5000239897295009
 40
0.6249879290177741
 40
0.7499516896828756
 40
0.8749147384303041
 40
0.9999999999999999
 40
0.9999999999999999
 40
0.9999999999999999
 40
0.9999999999999999
 10
261.6663538289299
 20
237.0676863595731
 30
0.0
 10
261.6663520042039
 20
237.0676872438655
 30
0.0
 10
261.6625321863079
 20
237.0695383906487
 30
0.0
 10
261.675947099029
 20
237.0629859856199
 30
0.0
 10
261.7072359268936
 20
237.0480549170786
 30
0.0
 10
261.7584267629386
 20
237.0248670478564
 30
0.0
 10
261.8185730083631
 20
236.999640015848
 30
0.0
 10
261.8798019371731
 20
236.9761749568092
 30
0.0
 10
261.9318432045091
 20
236.957978547037
 30
0.0
 10
261.9685844826404
 20
236.9461357417562
 30
0.0
 10
261.9734181253887
 20
236.9446414261459
 30
0.0
 10
261.9758361280008
 20
236.9438939031623
 30
0.0
  0
LINE
  5
11C
330
1F
100
AcDbEntity
  8
0
  6
Continuous
 62
     7
370
    15
100
AcDbLine
 10
261.5115977826
 20
233.5858567986
 30
0.0
 11
261.5115977826
 21
237.1295892413
 31
0.0
  0
LINE
  5
11D
330
1F
100
AcDbEntity
  8
0
  6
Continuous
 62
     7
370
    15
100
AcDbLine
 10
262.1782644492
 20
236.4206158581
 30
0.0
 11
262.1782644492
 21
233.5813369207
 31
0.0
  0
ARC
  5
11E
330
1F
100
AcDbEntity
  8
0
  6
Continuous
 62
     7
370
    15
100
AcDbCircle
 10
262.1241432914
 20
236.4163642567
 30
0.0
 40
0.0542878976918659
100
AcDbArc
 50
4.4917657769
 51
76.9981047431
  0
SPLINE
  5
11F
330
1F
100
AcDbEntity
  8
0
  6
Continuous
 62
     7
370
    15
100
AcDbSpline
210
0.0
220
0.0
230
1.0
 70
     8
 71
     3
 72
    12
 73
     8
 74
     0
 42
0.00000001
 43
0.00000001
 40
0.0
 40
0.0
 40
0.0
 40
0.0
 40
0.0304717459519019
 40
0.0888135668590946
 40
0.392555617548861
 40
0.6962774394173943
 40
1.0
 40
1.0
 40
1.0
 40
1.0
 10
262.2087118006786
 20
236.4773316134618
 30
0.0
 10
262.2087281096557
 20
236.4780384666395
 30
0.0
 10
262.2087756441301
 20
236.4800986752032
 30
0.0
 10
262.2085174818126
 20
236.4893014514023
 30
0.0
 10
262.2052572683698
 20
236.5052989033393
 30
0.0
 10
262.1950147300695
 20
236.5259138811068
 30
0.0
 10
262.1844282444144
 20
236.5360094860943
 30
0.0
 10
262.1791349951498
 20
236.5410572947266
 30
0.0
  0
SPLINE
  5
120
330
1F
100
AcDbEntity
  8
0
  6
Continuous
 62
     7
370
    15
100
AcDbSpline
210
0.0
220
0.0
230
1.0
 70
     8
 71
     3
 72
     9
 73
     5
 74
     0
 42
0.00000001
 43
0.00000001
 40
0.0
 40
0.0
 40
0.0
 40
0.0
 40
0.4684410573255462
 40
1.0
 40
1.0
 40
1.0
 40
1.0
 10
262.2087118006786
 20
236.4773316134618
 30
0.0
 10
262.2002660379336
 20
236.4713973628816
 30
0.0
 10
262.1822365278962
 20
236.4587292790589
 30
0.0
 10
262.1796430405933
 20
236.4338439025572
 30
0.0
 10
262.1782644492247
 20
236.420615858136
 30
0.0
  0
SPLINE
  5
121
330
1F
100
AcDbEntity
  8
0
  6
Continuous
 62
     7
370
    15
100
AcDbSpline
210
0.0
220
0.0
230
1.0
 70
     8
 71
     3
 72
    11
 73
     7
 74
     0
 42
0.00000001
 43
0.00000001
 40
0.0
 40
0.0
 40
0.0
 40
0.0
 40
0.3704320937829367
 40
0.744249846930188
 40
0.9442480537636226
 40
1.0
 40
1.0
 40
1.0
 40
1.0
 10
262.1782644492247
 20
236.5429077956459
 30
0.0
 10
262.1782759253217
 20
236.5426974319615
 30
0.0
 10
262.1782989824043
 20
236.5422747819197
 30
0.0
 10
262.1785492464282
 20
236.5416651006122
 30
0.0
 10
262.1789075813859
 20
236.5412468116315
 30
0.0
 10
262.179094293145
 20
236.5410912140367
 30
0.0
 10
262.1791349951498
 20
236.5410572947266
 30
0.0
  0
SPLINE
  5
122
330
1F
100
AcDbEntity
  8
0
  6
Continuous
 62
     7
370
    15
100
AcDbSpline
210
0.0
220
0.0
230
1.0
 70
     8
 71
     3
 72
    11
 73
     7
 74
     0
 42
0.00000001
 43
0.00000001
 40
0.0
 40
0.0
 40
0.0
 40
0.0
 40
0.3658281109895135
 40
0.7252591430831493
 40
0.9820690181776693
 40
1.0
 40
1.0
 40
1.0
 40
1.0
 10
262.3747739679373
 20
236.440156622663
 30
0.0
 10
262.35203610551
 20
236.4513817158674
 30
0.0
 10
262.3069579878798
 20
236.4736356138974
 30
0.0
 10
262.2496224050166
 20
236.4857962120923
 30
0.0
 10
262.219855623859
 20
236.4820975559956
 30
0.0
 10
262.209394543821
 20
236.4776236061226
 30
0.0
 10
262.2087118006786
 20
236.4773316134618
 30
0.0
  0
SPLINE
  5
123
330
1F
100
AcDbEntity
  8
0
  6
Continuous
 62
     7
370
    15
100
AcDbSpline
210
0.0
220
0.0
230
1.0
 70
     8
 71
     3
 72
    12
 73
     8
 74
     0
 42
0.00000001
 43
0.00000001
 40
0.0
 40
0.0
 40
0.0
 40
0.0
 40
0.2238925571846068
 40
0.4477848984195805
 40
0.6716824862030643
 40
0.8955821585467924
 40
0.9999999999999999
 40
0.9999999999999999
 40
0.9999999999999999
 40
0.9999999999999999
 10
262.2228486237486
 20
236.8427766058623
 30
0.0
 10
262.2211553867681
 20
236.8435414968068
 30
0.0
 10
262.2177689144405
 20
236.8450712779579
 30
0.0
 10
262.2134039644322
 20
236.8470623014471
 30
0.0
 10
262.2102291236235
 20
236.848518576018
 30
0.0
 10
262.2088165362919
 20
236.8491703479424
 30
0.0
 10
262.2086990804058
 20
236.8492258579539
 30
0.0
 10
262.208661724829
 20
236.8492435123138
 30
0.0
  0
LINE
  5
124
330
1F
100
AcDbEntity
  8
0
  6
Continuous
 62
     7
370
    15
100
AcDbLine
 10
262.2228486237
 20
236.8427766059
 30
0.0
 11
263.3824309699
 21
236.3173610908
 31
0.0
  0
LINE
  5
125
330
1F
100
AcDbEntity
  8
0
  6
Continuous
 62
     7
370
    15
100
AcDbLine
 10
263.3824309699
 20
236.3173610908
 30
0.0
 11
263.472288761
 21
236.2768116332
 31
0.0
  0
LINE
  5
126
330
1F
100
AcDbEntity
  8
0
  6
Continuous
 62
     7
370
    15
100
AcDbLine
 10
263.472288761
 20
236.0509664398
 30
0.0
 11
263.472288761
 21
236.2768116332
 31
0.0
  0
LINE
  5
127
330
1F
100
AcDbEntity
  8
0
  6
Continuous
 62
     7
370
    15
100
AcDbLine
 10
262.4009681193
 20
236.5167573715
 30
0.0
 11
263.472288761
 21
236.0509664398
 31
0.0
  0
SPLINE
  5
128
330
1F
100
AcDbEntity
  8
0
  6
Continuous
 62
     7
370
    15
100
AcDbSpline
210
0.0
220
0.0
230
1.0
 70
     8
 71
     3
 72
    10
 73
     6
 74
     0
 42
0.00000001
 43
0.00000001
 40
0.0
 40
0.0
 40
0.0
 40
0.0
 40
0.2857669779336455
 40
0.6445560549562982
 40
1.0
 40
1.0
 40
1.0
 40
1.0
 10
262.1791349951498
 20
236.5410572947266
 30
0.0
 10
262.1948273922209
 20
236.5463939872142
 30
0.0
 10
262.2302220680582
 20
236.5584310584013
 30
0.0
 10
262.3095860001386
 20
236.5499063694148
 30
0.0
 10
262.3706026707408
 20
236.527772482533
 30
0.0
 10
262.4009681193301
 20
236.5167573714567
 30
0.0
  0
ARC
  5
129
330
1F
100
AcDbEntity
  8
0
  6
Continuous
 62
     7
370
    15
100
AcDbCircle
 10
262.1262075078
 20
236.5679346377
 30
0.0
 40
0.2794861467134654
100
AcDbArc
 50
332.7941276519
 51
349.4489224797
  0
LINE
  5
12A
330
1F
100
AcDbEntity
  8
0
  6
Continuous
 62
     7
370
    15
100
AcDbLine
 10
263.4460946097
 20
235.9841723712
 30
0.0
 11
262.3747739679
 21
236.4401566227
 31
0.0
  0
ARC
  5
12B
330
1F
100
AcDbEntity
  8
0
  6
Continuous
 62
     7
370
    15
100
AcDbCircle
 10
263.1100274928
 20
236.1544986254
 30
0.0
 40
0.3767653645097999
100
AcDbArc
 50
333.1230991874
 51
344.0503686317
  0
ARC
  5
12C
330
1F
100
AcDbEntity
  8
0
  6
Continuous
 62
     7
370
    15
100
AcDbCircle
 10
263.1100274928
 20
233.7713465239
 30
0.0
 40
0.3767653645095586
100
AcDbArc
 50
15.9496313683
 51
26.8769008126
  0
LINE
  5
12D
330
1F
100
AcDbEntity
  8
0
  6
Continuous
 62
     7
370
    15
100
AcDbLine
 10
263.4460946097
 20
233.9416727782
 30
0.0
 11
263.4460946097
 21
235.9841723712
 31
0.0
  0
ARC
  5
12E
330
1F
100
AcDbEntity
  8
0
  6
Continuous
 62
     7
370
    15
100
AcDbCircle
 10
263.461207537
 20
233.8637509027
 30
0.0
 40
0.0793739205274493
100
AcDbArc
 50
50.5914088266
 51
100.9762263585
  0
ARC
  5
12F
330
1F
100
AcDbEntity
  8
0
  6
Continuous
 62
     7
370
    15
100
AcDbCircle
 10
263.4559656532
 20
233.928150949
 30
0.0
 40
0.0557169215895047
100
AcDbArc
 50
287.0355498026
 51
356.8386162462
  0
ARC
  5
130
330
1F
100
AcDbEntity
  8
0
  6
Continuous
 62
     7
370
    15
100
AcDbCircle
 10
263.461207537
 20
236.0620942467
 30
0.0
 40
0.0793739205272261
100
AcDbArc
 50
259.0237736415
 51
309.4085911735
  0
ARC
  5
131
330
1F
100
AcDbEntity
  8
0
  6
Continuous
 62
     7
370
    15
100
AcDbCircle
 10
263.4559656532
 20
235.9976942003
 30
0.0
 40
0.0557169215891727
100
AcDbArc
 50
3.1613837536
 51
72.9644501977
  0
LINE
  5
132
330
1F
100
AcDbEntity
  8
0
  6
Continuous
 62
     7
370
    15
100
AcDbLine
 10
263.5115977826
 20
236.0007669085
 30
0.0
 11
263.5115977826
 21
233.9250782409
 31
0.0
  0
LINE
  5
133
330
1F
100
AcDbEntity
  8
0
  6
Continuous
 62
     7
370
    15
100
AcDbLine
 10
263.5115977826
 20
233.9250782409
 30
0.0
 11
263.5115977826
 21
233.706028282
 31
0.0
  0
LINE
  5
134
330
1F
100
AcDbEntity
  8
0
  6
Continuous
 62
     7
370
    15
100
AcDbLine
 10
263.5115977826
 20
236.2158324928
 30
0.0
 11
263.5115977826
 21
236.0007669085
 31
0.0
  0
SPLINE
  5
135
330
1F
100
AcDbEntity
  8
0
  6
Continuous
 62
     7
370
    15
100
AcDbSpline
210
0.0
220
0.0
230
1.0
 70
     8
 71
     3
 72
    11
 73
     7
 74
     0
 42
0.00000001
 43
0.00000001
 40
0.0
 40
0.0
 40
0.0
 40
0.0
 40
0.2933118760924417
 40
0.5865991201415265
 40
0.8805021461501322
 40
1.0
 40
1.0
 40
1.0
 40
1.0
 10
263.4722887610467
 20
236.2768116331555
 30
0.0
 10
263.4788257461774
 20
236.2730520447472
 30
0.0
 10
263.4918991674693
 20
236.2655331836573
 30
0.0
 10
263.5053037729119
 20
236.2468360889007
 30
0.0
 10
263.5110380741739
 20
236.2294062645106
 30
0.0
 10
263.5114722728759
 20
236.2188762917164
 30
0.0
 10
263.5115977825581
 20
236.2158324928003
 30
0.0
  0
LINE
  5
136
330
1F
100
AcDbEntity
  8
0
  6
Continuous
 62
     7
370
    15
100
AcDbLine
 10
261.3782644492
 20
235.046255908
 30
0.0
 11
261.3782644492
 21
235.0199897125
 31
0.0
  0
SPLINE
  5
137
330
1F
100
AcDbEntity
  8
0
  6
Continuous
 62
     7
370
    15
100
AcDbSpline
210
0.0
220
0.0
230
1.0
 70
    24
 71
     3
 72
    15
 73
    11
 74
     0
 42
0.00000001
 43
0.00000001
 40
0.0
 40
0.0
 40
0.0
 40
0.0
 40
0.0013085590450104
 40
0.0031123972377981
 40
0.0059032470887395
 40
0.0102791707597003
 40
0.018484604487412
 40
0.0492181494333227
 40
0.1106093070873631
 40
1.0
 40
1.0
 40
1.0
 40
1.0
 10
261.3782644492247
 20
235.046255908006
 30
0.0
 10
261.3782698958265
 20
235.046255908006
 30
0.0
 10
261.3782828505253
 20
235.0462559080059
 30
0.0
 10
261.3784112665415
 20
235.0462559080061
 30
0.0
 10
261.3786920648784
 20
235.0462559080059
 30
0.0
 10
261.3792716746278
 20
235.046255908006
 30
0.0
 10
261.3810530864549
 20
235.0462559080059
 30
0.0
 10
261.3854392485299
 20
235.046255908006
 30
0.0
 10
261.4288604453805
 20
235.0462559080059
 30
0.0
 10
261.4716092402321
 20
235.0462559080059
 30
0.0
 10
261.5115977825581
 20
235.046255908006
 30
0.0
  0
LINE
  5
138
330
1F
100
AcDbEntity
  8
0
  6
Continuous
 62
     7
370
    15
100
AcDbLine
 10
261.3782644492
 20
235.0199897125
 30
0.0
 11
261.3782644492
 21
234.9129225747
 31
0.0
  0
LINE
  5
139
330
1F
100
AcDbEntity
  8
0
  6
Continuous
 62
     7
370
    15
100
AcDbLine
 10
261.3782644492
 20
234.9129225747
 30
0.0
 11
261.3782644492
 21
234.8795892413
 31
0.0
  0
LINE
  5
13A
330
1F
100
AcDbEntity
  8
0
  6
Continuous
 62
     7
370
    15
100
AcDbLine
 10
261.5115977826
 20
234.8772618993
 30
0.0
 11
261.3782644492
 21
234.8795892413
 31
0.0
  0
LINE
  5
13B
330
1F
100
AcDbEntity
  8
0
  6
Continuous
 62
     7
370
    15
100
AcDbLine
 10
261.5115977826
 20
234.6788530482
 30
0.0
 11
261.3782644492
 21
234.679099384
 31
0.0
  0
LINE
  5
13C
330
1F
100
AcDbEntity
  8
0
  6
Continuous
 62
     7
370
    15
100
AcDbLine
 10
261.3782644492
 20
234.8795892413
 30
0.0
 11
261.3782644492
 21
234.679099384
 31
0.0
  0
LINE
  5
13D
330
1F
100
AcDbEntity
  8
0
  6
Continuous
 62
     7
370
    15
100
AcDbLine
 10
261.3782644492
 20
234.6044412197
 30
0.0
 11
261.3782644492
 21
234.5647958942
 31
0.0
  0
LINE
  5
13E
330
1F
100
AcDbEntity
  8
0
  6
Continuous
 62
     7
370
    15
100
AcDbLine
 10
261.3782644492
 20
234.679099384
 30
0.0
 11
261.3782644492
 21
234.6044412197
 31
0.0
  0
LINE
  5
13F
330
1F
100
AcDbEntity
  8
0
  6
Continuous
 62
     7
370
    15
100
AcDbLine
 10
261.3782644492
 20
234.5647958942
 30
0.0
 11
261.3782644492
 21
234.4945177779
 31
0.0
  0
LINE
  5
140
330
1F
100
AcDbEntity
  8
0
  6
Continuous
 62
     7
370
    15
100
AcDbLine
 10
261.3782644492
 20
234.4945177779
 30
0.0
 11
261.3782644492
 21
234.4888019229
 31
0.0
  0
SPLINE
  5
141
330
1F
100
AcDbEntity
  8
0
  6
Continuous
 62
     7
370
    15
100
AcDbSpline
210
0.0
220
0.0
230
1.0
 70
     8
 71
     3
 72
    16
 73
    12
 74
     0
 42
0.00000001
 43
0.00000001
 40
0.0
 40
0.0
 40
0.0
 40
0.0
 40
0.0001752464039547
 40
0.1252144210065692
 40
0.250243585570844
 40
0.3752580360337695
 40
0.5002621062641125
 40
0.6252646105096257
 40
0.7502654112533422
 40
0.8753601771999061
 40
1.0
 40
1.0
 40
1.0
 40
1.0
 10
261.6666119413238
 20
237.06830024332
 30
0.0
 10
261.6666066004165
 20
237.0683028318108
 30
0.0
 10
261.662790495745
 20
237.0701523213107
 30
0.0
 10
261.6762092241437
 20
237.063597625632
 30
0.0
 10
261.7075235269811
 20
237.0486540528516
 30
0.0
 10
261.7587533645971
 20
237.0254493795442
 30
0.0
 10
261.8189397063215
 20
237.0002086271349
 30
0.0
 10
261.8801897943765
 20
236.9767405506655
 30
0.0
 10
261.9322310590651
 20
236.9585493670577
 30
0.0
 10
261.9688749839
 20
236.94674145425
 30
0.0
 10
261.9736837291977
 20
236.9452548404406
 30
0.0
 10
261.976083721785
 20
236.9445128876229
 30
0.0
  0
LINE
  5
142
330
1F
100
AcDbEntity
  8
0
  6
Continuous
 62
     7
370
    15
100
AcDbLine
 10
223.8049311159
 20
226.9718913913
 30
0.0
 11
223.4439614471
 21
226.9718913913
 31
0.0
  0
SPLINE
  5
143
330
1F
100
AcDbEntity
  8
0
  6
Continuous
 62
     7
370
    15
100
AcDbSpline
210
0.0
220
0.0
230
1.0
 70
     8
 71
     3
 72
     9
 73
     5
 74
     0
 42
0.00000001
 43
0.00000001
 40
0.0
 40
0.0
 40
0.0
 40
0.0
 40
0.4954579634770057
 40
0.9999999999999999
 40
0.9999999999999999
 40
0.9999999999999999
 40
0.9999999999999999
 10
223.4439614471095
 20
226.9718913912663
 30
0.0
 10
223.4231583172676
 20
227.0395598897006
 30
0.0
 10
223.3811706384423
 20
227.176137568177
 30
0.0
 10
223.3734343823051
 20
227.3173237129303
 30
0.0
 10
223.3695311158786
 20
227.388558057933
 30
0.0
  0
SPLINE
  5
144
330
1F
100
AcDbEntity
  8
0
  6
Continuous
 62
     7
370
    15
100
AcDbSpline
210
0.0
220
0.0
230
1.0
 70
     8
 71
     3
 72
    10
 73
     6
 74
     0
 42
0.00000001
 43
0.00000001
 40
0.0
 40
0.0
 40
0.0
 40
0.0
 40
0.0700995828662817
 40
0.5307893632080776
 40
1.0
 40
1.0
 40
1.0
 40
1.0
 10
223.3695311158786
 20
227.388558057933
 30
0.0
 10
223.3696200106507
 20
227.3984357473317
 30
0.0
 10
223.3702931159322
 20
227.4732289522487
 30
0.0
 10
223.386549423748
 20
227.6142464151152
 30
0.0
 10
223.4247075558867
 20
227.7411775898456
 30
0.0
 10
223.4439614471095
 20
227.8052247245997
 30
0.0
  0
LINE
  5
145
330
1F
100
AcDbEntity
  8
0
  6
Continuous
 62
     7
370
    15
100
AcDbLine
 10
223.8049311159
 20
227.8052247246
 30
0.0
 11
223.4439614471
 21
227.8052247246
 31
0.0
  0
LINE
  5
146
330
1F
100
AcDbEntity
  8
0
  6
Continuous
 62
     7
370
    15
100
AcDbLine
 10
223.8049311159
 20
226.1385580579
 30
0.0
 11
223.4439614471
 21
226.1385580579
 31
0.0
  0
SPLINE
  5
147
330
1F
100
AcDbEntity
  8
0
  6
Continuous
 62
     7
370
    15
100
AcDbSpline
210
0.0
220
0.0
230
1.0
 70
     8
 71
     3
 72
     9
 73
     5
 74
     0
 42
0.00000001
 43
0.00000001
 40
0.0
 40
0.0
 40
0.0
 40
0.0
 40
0.4954579634770079
 40
1.0
 40
1.0
 40
1.0
 40
1.0
 10
223.4439614471095
 20
226.138558057933
 30
0.0
 10
223.4231583172676
 20
226.2062265563673
 30
0.0
 10
223.3811706384423
 20
226.3428042348436
 30
0.0
 10
223.3734343823051
 20
226.483990379597
 30
0.0
 10
223.3695311158786
 20
226.5552247245997
 30
0.0
  0
SPLINE
  5
148
330
1F
100
AcDbEntity
  8
0
  6
Continuous
 62
     7
370
    15
100
AcDbSpline
210
0.0
220
0.0
230
1.0
 70
     8
 71
     3
 72
    10
 73
     6
 74
     0
 42
0.00000001
 43
0.00000001
 40
0.0
 40
0.0
 40
0.0
 40
0.0
 40
0.0700995828662873
 40
0.5307893632080798
 40
0.9999999999999999
 40
0.9999999999999999
 40
0.9999999999999999
 40
0.9999999999999999
 10
223.3695311158786
 20
226.5552247245997
 30
0.0
 10
223.3696200106507
 20
226.5651024139984
 30
0.0
 10
223.3702931159322
 20
226.6398956189154
 30
0.0
 10
223.386549423748
 20
226.7809130817818
 30
0.0
 10
223.4247075558867
 20
226.9078442565123
 30
0.0
 10
223.4439614471095
 20
226.9718913912663
 30
0.0
  0
LINE
  5
149
330
1F
100
AcDbEntity
  8
0
  6
Continuous
 62
     7
370
    15
100
AcDbLine
 10
223.3695311159
 20
227.3885580579
 30
0.0
 11
223.3695311159
 21
226.5552247246
 31
0.0
  0
LINE
  5
14A
330
1F
100
AcDbEntity
  8
0
  6
Continuous
 62
     7
370
    15
100
AcDbLine
 10
223.3695311159
 20
227.8052247246
 30
0.0
 11
223.3695311159
 21
227.3885580579
 31
0.0
  0
LINE
  5
14B
330
1F
100
AcDbEntity
  8
0
  6
Continuous
 62
     7
370
    15
100
AcDbLine
 10
223.3695311159
 20
226.5552247246
 30
0.0
 11
223.3695311159
 21
226.1385580579
 31
0.0
  0
LINE
  5
14C
330
1F
100
AcDbEntity
  8
0
  6
Continuous
 62
     7
370
    15
100
AcDbLine
 10
223.3315017846
 20
227.7537951256
 30
0.0
 11
223.3315017846
 21
226.189987657
 31
0.0
  0
LINE
  5
14D
330
1F
100
AcDbEntity
  8
0
  6
Continuous
 62
     7
370
    15
100
AcDbLine
 10
223.2807977825
 20
226.9718913913
 30
0.0
 11
223.2807977825
 21
227.7537951256
 31
0.0
  0
LINE
  5
14E
330
1F
100
AcDbEntity
  8
0
  6
Continuous
 62
     7
370
    15
100
AcDbLine
 10
223.2807977825
 20
226.189987657
 30
0.0
 11
223.2807977825
 21
226.9718913913
 31
0.0
  0
SPLINE
  5
14F
330
1F
100
AcDbEntity
  8
0
  6
Continuous
 62
     7
370
    15
100
AcDbSpline
210
0.0
220
0.0
230
1.0
 70
    24
 71
     3
 72
    10
 73
     6
 74
     0
 42
0.00000001
 43
0.00000001
 40
0.0
 40
0.0
 40
0.0
 40
0.0
 40
0.2493796958011974
 40
0.6223881312080708
 40
1.0
 40
1.0
 40
1.0
 40
1.0
 10
223.4439614471095
 20
227.8052247245997
 30
0.0
 10
223.4333120899485
 20
227.8052247245997
 30
0.0
 10
223.4067340099623
 20
227.8052247245997
 30
0.0
 10
223.3765359367661
 20
227.8052247245997
 30
0.0
 10
223.3718755832402
 20
227.8052247245997
 30
0.0
 10
223.3695311158786
 20
227.8052247245997
 30
0.0
  0
SPLINE
  5
150
330
1F
100
AcDbEntity
  8
0
  6
Continuous
 62
     7
370
    15
100
AcDbSpline
210
0.0
220
0.0
230
1.0
 70
    24
 71
     3
 72
    10
 73
     6
 74
     0
 42
0.00000001
 43
0.00000001
 40
0.0
 40
0.0
 40
0.0
 40
0.0
 40
0.3727277859602129
 40
0.7506207681064128
 40
1.0
 40
1.0
 40
1.0
 40
1.0
 10
223.3695311158786
 20
226.138558057933
 30
0.0
 10
223.371818403239
 20
226.138558057933
 30
0.0
 10
223.3764246747862
 20
226.138558057933
 30
0.0
 10
223.4065255086163
 20
226.138558057933
 30
0.0
 10
223.4333121227629
 20
226.138558057933
 30
0.0
 10
223.4439614471095
 20
226.138558057933
 30
0.0
  0
LINE
  5
151
330
1F
100
AcDbEntity
  8
0
  6
Continuous
 62
     7
370
    15
100
AcDbLine
 10
223.0993977825
 20
227.5918913913
 30
0.0
 11
223.0993977825
 21
226.3518913913
 31
0.0
  0
LINE
  5
152
330
1F
100
AcDbEntity
  8
0
  6
Continuous
 62
     7
370
    15
100
AcDbLine
 10
223.0389311159
 20
227.6852247246
 30
0.0
 11
223.0389311159
 21
226.2585580579
 31
0.0
  0
LINE
  5
153
330
1F
100
AcDbEntity
  8
0
  6
Continuous
 62
     7
370
    15
100
AcDbLine
 10
222.9784644492
 20
227.5918913913
 30
0.0
 11
222.9784644492
 21
226.3518913913
 31
0.0
  0
LINE
  5
154
330
1F
100
AcDbEntity
  8
0
  6
Continuous
 62
     7
370
    15
100
AcDbLine
 10
223.1598644492
 20
227.6852247246
 30
0.0
 11
223.1598644492
 21
226.2585580579
 31
0.0
  0
LINE
  5
155
330
1F
100
AcDbEntity
  8
0
  6
Continuous
 62
     7
370
    15
100
AcDbLine
 10
223.2203311159
 20
227.5918913913
 30
0.0
 11
223.2203311159
 21
226.3518913913
 31
0.0
  0
LINE
  5
156
330
1F
100
AcDbEntity
  8
0
  6
Continuous
 62
     7
370
    15
100
AcDbLine
 10
222.9179977825
 20
227.6746444289
 30
0.0
 11
222.9179977825
 21
226.2691383536
 31
0.0
  0
LINE
  5
157
330
1F
100
AcDbEntity
  8
0
  6
Continuous
 62
     7
370
    15
100
AcDbLine
 10
222.8575311159
 20
227.5756644295
 30
0.0
 11
222.8575311159
 21
226.368118353
 31
0.0
  0
LINE
  5
158
330
1F
100
AcDbEntity
  8
0
  6
Continuous
 62
     7
370
    15
100
AcDbLine
 10
222.7970644492
 20
227.6640641332
 30
0.0
 11
222.7970644492
 21
226.2797186494
 31
0.0
  0
LINE
  5
159
330
1F
100
AcDbEntity
  8
0
  6
Continuous
 62
     7
370
    15
100
AcDbLine
 10
222.7365977825
 20
227.5650841338
 30
0.0
 11
222.7365977825
 21
226.3786986487
 31
0.0
  0
LINE
  5
15A
330
1F
100
AcDbEntity
  8
0
  6
Continuous
 62
     7
370
    15
100
AcDbLine
 10
222.6761311159
 20
227.6550230892
 30
0.0
 11
222.6761311159
 21
226.2887596933
 31
0.0
  0
LINE
  5
15B
330
1F
100
AcDbEntity
  8
0
  6
Continuous
 62
     7
370
    15
100
AcDbLine
 10
222.6156644492
 20
227.5545038381
 30
0.0
 11
222.6156644492
 21
226.3892789444
 31
0.0
  0
LINE
  5
15C
330
1F
100
AcDbEntity
  8
0
  6
Continuous
 62
     7
370
    15
100
AcDbLine
 10
222.5551977825
 20
227.6444427935
 30
0.0
 11
222.5551977825
 21
226.299339989
 31
0.0
  0
LINE
  5
15D
330
1F
100
AcDbEntity
  8
0
  6
Continuous
 62
     7
370
    15
100
AcDbLine
 10
222.4947311159
 20
227.5439235424
 30
0.0
 11
222.4947311159
 21
226.3998592401
 31
0.0
  0
LINE
  5
15E
330
1F
100
AcDbEntity
  8
0
  6
Continuous
 62
     7
370
    15
100
AcDbLine
 10
222.4342644492
 20
227.6338624978
 30
0.0
 11
222.4342644492
 21
226.3099202847
 31
0.0
  0
LINE
  5
15F
330
1F
100
AcDbEntity
  8
0
  6
Continuous
 62
     7
370
    15
100
AcDbLine
 10
222.3737977825
 20
227.5333432467
 30
0.0
 11
222.3737977825
 21
226.4104395358
 31
0.0
  0
LINE
  5
160
330
1F
100
AcDbEntity
  8
0
  6
Continuous
 62
     7
370
    15
100
AcDbLine
 10
222.3133311159
 20
227.6232822021
 30
0.0
 11
222.3133311159
 21
226.3205005804
 31
0.0
  0
LINE
  5
161
330
1F
100
AcDbEntity
  8
0
  6
Continuous
 62
     7
370
    15
100
AcDbLine
 10
222.2528644492
 20
227.522762951
 30
0.0
 11
222.2528644492
 21
226.4210198315
 31
0.0
  0
LINE
  5
162
330
1F
100
AcDbEntity
  8
0
  6
Continuous
 62
     7
370
    15
100
AcDbLine
 10
262.3939558051
 20
233.5798745728
 30
0.0
 11
262.3931874435
 21
233.4665438441
 31
0.0
  0
LINE
  5
163
330
1F
100
AcDbEntity
  8
0
  6
Continuous
 62
     7
370
    15
100
AcDbLine
 10
259.0593238337
 20
233.4891468287
 30
0.0
 11
262.3931874435
 21
233.4665438441
 31
0.0
  0
LINE
  5
164
330
1F
100
AcDbEntity
  8
0
  6
Continuous
 62
     7
370
    15
100
AcDbLine
 10
259.0600921952
 20
233.6024775574
 30
0.0
 11
262.3939558051
 21
233.5798745728
 31
0.0
  0
LINE
  5
165
330
1F
100
AcDbEntity
  8
0
  6
Continuous
 62
     7
370
    15
100
AcDbLine
 10
259.0593238337
 20
233.4891468287
 30
0.0
 11
259.0600921952
 21
233.6024775574
 31
0.0
  0
LINE
  5
166
330
1F
100
AcDbEntity
  8
0
  6
Continuous
 62
     7
370
    15
100
AcDbLine
 10
262.3896753723
 20
232.9485252483
 30
0.0
 11
262.389978404
 21
232.993221389
 31
0.0
  0
LINE
  5
167
330
1F
100
AcDbEntity
  8
0
  6
Continuous
 62
     7
370
    15
100
AcDbLine
 10
263.6746643515
 20
232.9398132584
 30
0.0
 11
262.3896753723
 21
232.9485252483
 31
0.0
  0
LINE
  5
168
330
1F
100
AcDbEntity
  8
0
  6
Continuous
 62
     7
370
    15
100
AcDbLine
 10
262.4916512228
 20
230.9224844917
 30
0.0
 11
263.6746643515
 21
232.9398132584
 31
0.0
  0
LINE
  5
169
330
1F
100
AcDbEntity
  8
0
  6
Continuous
 62
     7
370
    15
100
AcDbLine
 10
262.3926107893
 20
230.9231559677
 30
0.0
 11
262.4916512228
 21
230.9224844917
 31
0.0
  0
LINE
  5
16A
330
1F
100
AcDbEntity
  8
0
  6
Continuous
 62
     7
370
    15
100
AcDbLine
 10
262.3925655916
 20
230.9164894543
 30
0.0
 11
262.3926107893
 21
230.9231559677
 31
0.0
  0
LINE
  5
16B
330
1F
100
AcDbEntity
  8
0
  6
Continuous
 62
     7
370
    15
100
AcDbLine
 10
262.3925655916
 20
230.9164894543
 30
0.0
 11
259.0253694144
 21
230.9393184276
 31
0.0
  0
LINE
  5
16C
330
1F
100
AcDbEntity
  8
0
  6
Continuous
 62
     7
370
    15
100
AcDbLine
 10
259.0254146122
 20
230.9459849411
 30
0.0
 11
259.0253694144
 21
230.9393184276
 31
0.0
  0
LINE
  5
16D
330
1F
100
AcDbEntity
  8
0
  6
Continuous
 62
     7
370
    15
100
AcDbLine
 10
258.9263741787
 20
230.9466564171
 30
0.0
 11
259.0254146122
 21
230.9459849411
 31
0.0
  0
LINE
  5
16E
330
1F
100
AcDbEntity
  8
0
  6
Continuous
 62
     7
370
    15
100
AcDbLine
 10
257.7708227833
 20
232.9798402228
 30
0.0
 11
258.9263741787
 21
230.9466564171
 31
0.0
  0
LINE
  5
16F
330
1F
100
AcDbEntity
  8
0
  6
Continuous
 62
     7
370
    15
100
AcDbLine
 10
259.0558117625
 20
232.9711282329
 30
0.0
 11
257.7708227833
 21
232.9798402228
 31
0.0
  0
LINE
  5
170
330
1F
100
AcDbEntity
  8
0
  6
Continuous
 62
     7
370
    15
100
AcDbLine
 10
259.0561147941
 20
233.0158243736
 30
0.0
 11
259.0558117625
 21
232.9711282329
 31
0.0
  0
LINE
  5
171
330
1F
100
AcDbEntity
  8
0
  6
Continuous
 62
     7
370
    15
100
AcDbLine
 10
259.0244428608
 20
230.8026549018
 30
0.0
 11
259.0253694144
 21
230.9393184276
 31
0.0
  0
LINE
  5
172
330
1F
100
AcDbEntity
  8
0
  6
Continuous
 62
     7
370
    15
100
AcDbLine
 10
262.3925655916
 20
230.9164894543
 30
0.0
 11
262.3916390379
 21
230.7798259285
 31
0.0
  0
LINE
  5
173
330
1F
100
AcDbEntity
  8
0
  6
Continuous
 62
     7
370
    15
100
AcDbLine
 10
262.3916390379
 20
230.7798259285
 30
0.0
 11
259.0244428608
 21
230.8026549018
 31
0.0
  0
LINE
  5
174
330
1F
100
AcDbEntity
  8
0
  6
Continuous
 62
     7
370
    15
100
AcDbLine
 10
257.6990755137
 20
232.9003248175
 30
0.0
 11
257.6994370956
 21
232.9536569251
 31
0.0
  0
LINE
  5
175
330
1F
100
AcDbEntity
  8
0
  6
Continuous
 62
     7
370
    15
100
AcDbLine
 10
257.6990755137
 20
232.9003248175
 30
0.0
 11
257.3782644492
 21
232.9024998578
 31
0.0
  0
LINE
  5
176
330
1F
100
AcDbEntity
  8
0
  6
Continuous
 62
     7
370
    15
100
AcDbLine
 10
257.6994370956
 20
232.9536569251
 30
0.0
 11
257.3782644492
 21
232.9558344169
 31
0.0
  0
LINE
  5
177
330
1F
100
AcDbEntity
  8
0
  6
Continuous
 62
     7
370
    15
100
AcDbLine
 10
257.7709601529
 20
232.8581698286
 30
0.0
 11
257.8173279039
 21
232.8845227432
 31
0.0
  0
ARC
  5
178
330
1F
100
AcDbEntity
  8
0
  6
Continuous
 62
     7
370
    15
100
AcDbCircle
 10
257.698510542
 20
232.8169933994
 30
0.0
 40
0.0833333333333391
100
AcDbArc
 50
29.6115510614
 51
89.6115510614
  0
ARC
  5
179
330
1F
100
AcDbEntity
  8
0
  6
Continuous
 62
     7
370
    15
100
AcDbCircle
 10
257.698510542
 20
232.8169933994
 30
0.0
 40
0.1366666666666701
100
AcDbArc
 50
29.6115510614
 51
89.6115510614
  0
LINE
  5
17A
330
1F
100
AcDbEntity
  8
0
  6
Continuous
 62
     7
370
    15
100
AcDbLine
 10
258.9462532901
 20
230.8981871962
 30
0.0
 11
257.8173279039
 21
232.8845227432
 31
0.0
  0
LINE
  5
17B
330
1F
100
AcDbEntity
  8
0
  6
Continuous
 62
     7
370
    15
100
AcDbLine
 10
258.9462532901
 20
230.8981871962
 30
0.0
 11
258.8998855391
 21
230.8718342815
 31
0.0
  0
LINE
  5
17C
330
1F
100
AcDbEntity
  8
0
  6
Continuous
 62
     7
370
    15
100
AcDbLine
 10
258.8998855391
 20
230.8718342815
 30
0.0
 11
257.7709601529
 21
232.8581698286
 31
0.0
  0
LINE
  5
17D
330
1F
100
AcDbEntity
  8
0
  6
Continuous
 62
     7
370
    15
100
AcDbLine
 10
262.4711167442
 20
230.8742892676
 30
0.0
 11
262.5171229133
 21
230.8473100746
 31
0.0
  0
LINE
  5
17E
330
1F
100
AcDbEntity
  8
0
  6
Continuous
 62
     7
370
    15
100
AcDbLine
 10
263.6536967857
 20
232.8908795139
 30
0.0
 11
262.4711167442
 21
230.8742892676
 31
0.0
  0
LINE
  5
17F
330
1F
100
AcDbEntity
  8
0
  6
Continuous
 62
     7
370
    15
100
AcDbLine
 10
263.6997029548
 20
232.8639003209
 30
0.0
 11
263.6536967857
 21
232.8908795139
 31
0.0
  0
LINE
  5
180
330
1F
100
AcDbEntity
  8
0
  6
Continuous
 62
     7
370
    15
100
AcDbLine
 10
263.6997029548
 20
232.8639003209
 30
0.0
 11
262.5171229133
 21
230.8473100746
 31
0.0
  0
LINE
  5
181
330
1F
100
AcDbEntity
  8
0
  6
Continuous
 62
     7
370
    15
100
AcDbLine
 10
263.4428853757
 20
232.3073531701
 30
0.0
 11
263.751459895
 21
232.8335487289
 31
0.0
  0
LINE
  5
182
330
1F
100
AcDbEntity
  8
0
  6
Continuous
 62
     7
370
    15
100
AcDbLine
 10
263.3968792067
 20
232.334332363
 30
0.0
 11
263.7054537259
 21
232.8605279218
 31
0.0
  0
LINE
  5
183
330
1F
100
AcDbEntity
  8
0
  6
Continuous
 62
     7
370
    15
100
AcDbLine
 10
263.7054537259
 20
232.8605279218
 30
0.0
 11
263.751459895
 21
232.8335487289
 31
0.0
  0
LINE
  5
184
330
1F
100
AcDbEntity
  8
0
  6
Continuous
 62
     7
370
    15
100
AcDbLine
 10
263.3968792067
 20
232.334332363
 30
0.0
 11
263.4428853757
 21
232.3073531701
 31
0.0
  0
ARC
  5
185
330
1F
100
AcDbEntity
  8
0
  6
Continuous
 62
     7
370
    15
100
AcDbCircle
 10
263.7025783403
 20
232.8622141214
 30
0.0
 40
0.003333333333391
100
AcDbArc
 50
329.611551061
 51
149.6115510612
  0
ARC
  5
186
330
1F
100
AcDbEntity
  8
0
  6
Continuous
 62
     7
370
    15
100
AcDbCircle
 10
263.7025783403
 20
232.8622141214
 30
0.0
 40
0.0566666666666785
100
AcDbArc
 50
329.6115510614
 51
149.6115510614
  0
ARC
  5
187
330
1F
100
AcDbEntity
  8
0
  6
Continuous
 62
     7
370
    15
100
AcDbCircle
 10
259.018702901
 20
230.9393636253
 30
0.0
 40
0.0833333333333103
100
AcDbArc
 50
209.6115510614
 51
269.6115510614
  0
LINE
  5
188
330
1F
100
AcDbEntity
  8
0
  6
Continuous
 62
     7
370
    15
100
AcDbLine
 10
259.0177763473
 20
230.8027000996
 30
0.0
 11
259.0181379292
 21
230.8560322072
 31
0.0
  0
ARC
  5
189
330
1F
100
AcDbEntity
  8
0
  6
Continuous
 62
     7
370
    15
100
AcDbCircle
 10
259.018702901
 20
230.9393636253
 30
0.0
 40
0.1366666666666604
100
AcDbArc
 50
209.6115510614
 51
269.6115510614
  0
LINE
  5
18A
330
1F
100
AcDbEntity
  8
0
  6
Continuous
 62
     7
370
    15
100
AcDbLine
 10
259.0248044427
 20
230.8559870094
 30
0.0
 11
259.0181379292
 21
230.8560322072
 31
0.0
  0
LINE
  5
18B
330
1F
100
AcDbEntity
  8
0
  6
Continuous
 62
     7
370
    15
100
AcDbLine
 10
259.0244428608
 20
230.8026549018
 30
0.0
 11
259.0177763473
 21
230.8027000996
 31
0.0
  0
LINE
  5
18C
330
1F
100
AcDbEntity
  8
0
  6
Continuous
 62
     7
370
    15
100
AcDbLine
 10
262.3986671333
 20
230.8331128384
 30
0.0
 11
262.3983055514
 21
230.7797807308
 31
0.0
  0
LINE
  5
18D
330
1F
100
AcDbEntity
  8
0
  6
Continuous
 62
     7
370
    15
100
AcDbLine
 10
262.3920006198
 20
230.8331580361
 30
0.0
 11
262.3986671333
 21
230.8331128384
 31
0.0
  0
LINE
  5
18E
330
1F
100
AcDbEntity
  8
0
  6
Continuous
 62
     7
370
    15
100
AcDbLine
 10
262.3916390379
 20
230.7798259285
 30
0.0
 11
262.3983055514
 21
230.7797807308
 31
0.0
  0
ARC
  5
18F
330
1F
100
AcDbEntity
  8
0
  6
Continuous
 62
     7
370
    15
100
AcDbCircle
 10
262.399232105
 20
230.9164442565
 30
0.0
 40
0.0833333333333885
100
AcDbArc
 50
269.6115510614
 51
329.6115510614
  0
ARC
  5
190
330
1F
100
AcDbEntity
  8
0
  6
Continuous
 62
     7
370
    15
100
AcDbCircle
 10
262.399232105
 20
230.9164442565
 30
0.0
 40
0.136666666666676
100
AcDbArc
 50
269.6115510614
 51
329.6115510614
  0
LINE
  5
191
330
1F
100
AcDbEntity
  8
0
  6
Continuous
 62
     7
370
    15
100
AcDbLine
 10
258.0620166415
 20
224.7776630196
 30
0.0
 11
258.0648536658
 21
224.7776531164
 31
0.0
  0
LINE
  5
192
330
1F
100
AcDbEntity
  8
0
  6
Continuous
 62
     7
370
    15
100
AcDbLine
 10
257.5009311086
 20
226.6692075862
 30
0.0
 11
258.0620166415
 21
224.7776630196
 31
0.0
  0
ARC
  5
193
330
1F
100
AcDbEntity
  8
0
  6
Continuous
 62
     7
370
    15
100
AcDbCircle
 10
257.3406705128
 20
226.6216697679
 30
0.0
 40
0.1671625039556868
100
AcDbArc
 50
16.5218437462
 51
77.0033224917
  0
LINE
  5
194
330
1F
100
AcDbEntity
  8
0
  6
Continuous
 62
     7
370
    15
100
AcDbLine
 10
261.8561920851
 20
226.7290860145
 30
0.0
 11
257.3782644492
 21
227.5920161877
 31
0.0
  0
LINE
  5
195
330
1F
100
AcDbEntity
  8
0
  6
Continuous
 62
     7
370
    15
100
AcDbLine
 10
261.2378550617
 20
224.7714973031
 30
0.0
 11
261.8561920851
 21
226.7290860145
 31
0.0
  0
LINE
  5
196
330
1F
100
AcDbEntity
  8
0
  6
Continuous
 62
     7
370
    15
100
AcDbLine
 10
261.2356619996
 20
224.7715049584
 30
0.0
 11
261.2378550617
 21
224.7714973031
 31
0.0
  0
LINE
  5
197
330
1F
100
AcDbEntity
  8
0
  6
Continuous
 62
     7
370
    15
100
AcDbLine
 10
261.1490947136
 20
224.7718071365
 30
0.0
 11
261.2356619996
 21
224.7715049584
 31
0.0
  0
LINE
  5
198
330
1F
100
AcDbEntity
  8
0
  6
Continuous
 62
     7
370
    15
100
AcDbLine
 10
261.2314370696
 20
224.7581862917
 30
0.0
 11
261.2356619996
 21
224.7715049584
 31
0.0
  0
LINE
  5
199
330
1F
100
AcDbEntity
  8
0
  6
Continuous
 62
     7
370
    15
100
AcDbLine
 10
258.0674608401
 20
224.7692306971
 30
0.0
 11
261.2314370696
 21
224.7581862917
 31
0.0
  0
LINE
  5
19A
330
1F
100
AcDbEntity
  8
0
  6
Continuous
 62
     7
370
    15
100
AcDbLine
 10
258.0674608401
 20
224.7692306971
 30
0.0
 11
258.0648536658
 21
224.7776531164
 31
0.0
  0
LINE
  5
19B
330
1F
100
AcDbEntity
  8
0
  6
Continuous
 62
     7
370
    15
100
AcDbLine
 10
258.0648536658
 20
224.7776531164
 30
0.0
 11
258.149879106
 21
224.7773563205
 31
0.0
  0
LINE
  5
19C
330
1F
100
AcDbEntity
  8
0
  6
Continuous
 62
     7
370
    15
100
AcDbLine
 10
261.1485711159
 20
224.6218080503
 30
0.0
 11
258.1493726825
 21
224.6322772704
 31
0.0
  0
SPLINE
  5
19D
330
1F
100
AcDbEntity
  8
0
  6
Continuous
 62
     7
370
    15
100
AcDbSpline
210
0.0
220
0.0
230
1.0
 70
     8
 71
     3
 72
    12
 73
     8
 74
     0
 42
0.00000001
 43
0.00000001
 40
0.0
 40
0.0
 40
0.0
 40
0.0
 40
0.2159937691249682
 40
0.4359952219493553
 40
0.6815272218216614
 40
0.9520736462386745
 40
1.0
 40
1.0
 40
1.0
 40
1.0
 10
258.0752912152582
 20
224.7368654011606
 30
0.0
 10
258.0779494803172
 20
224.7235531428808
 30
0.0
 10
258.0833153335503
 20
224.6966816223419
 30
0.0
 10
258.0987679268834
 20
224.6640879216825
 30
0.0
 10
258.1189504387344
 20
224.6403158399802
 30
0.0
 10
258.13699314895
 20
224.6327074697867
 30
0.0
 10
258.1477533939727
 20
224.6323335420215
 30
0.0
 10
258.1493726824797
 20
224.6322772703538
 30
0.0
  0
LINE
  5
19E
330
1F
100
AcDbEntity
  8
0
  6
Continuous
 62
     7
370
    15
100
AcDbLine
 10
258.0674608401
 20
224.7692306971
 30
0.0
 11
258.0752912153
 21
224.7368654012
 31
0.0
  0
LINE
  5
19F
330
1F
100
AcDbEntity
  8
0
  6
Continuous
 62
     7
370
    15
100
AcDbLine
 10
261.2233809347
 20
224.7258764504
 30
0.0
 11
261.2314370696
 21
224.7581862917
 31
0.0
  0
SPLINE
  5
1A0
330
1F
100
AcDbEntity
  8
0
  6
Continuous
 62
     7
370
    15
100
AcDbSpline
210
0.0
220
0.0
230
1.0
 70
     8
 71
     3
 72
    11
 73
     7
 74
     0
 42
0.00000001
 43
0.00000001
 40
0.0
 40
0.0
 40
0.0
 40
0.0
 40
0.2798678389797362
 40
0.5726134300670898
 40
0.8467842521523385
 40
0.9999999999999999
 40
0.9999999999999999
 40
0.9999999999999999
 40
0.9999999999999999
 10
261.148571115852
 20
224.6218080503157
 30
0.0
 10
261.1572435779693
 20
224.6234348469016
 30
0.0
 10
261.1749875541911
 20
224.626763294988
 30
0.0
 10
261.1974562814514
 20
224.6547180007862
 30
0.0
 10
261.213634600001
 20
224.6906812479941
 30
0.0
 10
261.2208089643461
 20
224.7165887519157
 30
0.0
 10
261.2233809347256
 20
224.7258764503776
 30
0.0
  0
LINE
  5
1A1
330
1F
100
AcDbEntity
  8
0
  6
Continuous
 62
     7
370
    15
100
AcDbLine
 10
257.4182334013
 20
226.6702460594
 30
0.0
 11
257.4691815806
 21
226.6860171554
 31
0.0
  0
ARC
  5
1A2
330
1F
100
AcDbEntity
  8
0
  6
Continuous
 62
     7
370
    15
100
AcDbCircle
 10
257.3386268711
 20
226.6456037219
 30
0.0
 40
0.1366666666666682
100
AcDbArc
 50
17.2
 51
73.1401844847
  0
ARC
  5
1A3
330
1F
100
AcDbEntity
  8
0
  6
Continuous
 62
     7
370
    15
100
AcDbCircle
 10
257.3386268711
 20
226.6456037219
 30
0.0
 40
0.0833333333333396
100
AcDbArc
 50
17.2
 51
61.5982590335
  0
LINE
  5
1A4
330
1F
100
AcDbEntity
  8
0
  6
Continuous
 62
     7
370
    15
100
AcDbLine
 10
258.070243208
 20
224.7443007669
 30
0.0
 11
257.4691815806
 21
226.6860171554
 31
0.0
  0
LINE
  5
1A5
330
1F
100
AcDbEntity
  8
0
  6
Continuous
 62
     7
370
    15
100
AcDbLine
 10
258.070243208
 20
224.7443007669
 30
0.0
 11
258.0192950287
 21
224.7285296709
 31
0.0
  0
LINE
  5
1A6
330
1F
100
AcDbEntity
  8
0
  6
Continuous
 62
     7
370
    15
100
AcDbLine
 10
258.0192950287
 20
224.7285296709
 30
0.0
 11
257.4182334013
 21
226.6702460594
 31
0.0
  0
SPLINE
  5
1A7
330
1F
100
AcDbEntity
  8
0
  6
Continuous
 62
     7
370
    15
100
AcDbSpline
210
0.0
220
0.0
230
1.0
 70
     8
 71
     3
 72
    11
 73
     7
 74
     0
 42
0.00000001
 43
0.00000001
 40
0.0
 40
0.0
 40
0.0
 40
0.0
 40
0.2500000000000094
 40
0.5000000000000056
 40
0.750000000000004
 40
1.0
 40
1.0
 40
1.0
 40
1.0
 10
258.1493726824797
 20
224.6322772703538
 30
0.0
 10
258.1349341627508
 20
224.6336543683412
 30
0.0
 10
258.1060571232928
 20
224.6364085643159
 30
0.0
 10
258.0673441429955
 20
224.6574431918213
 30
0.0
 10
258.0359100486278
 20
224.6883146690951
 30
0.0
 10
258.0248333686646
 20
224.7151246702946
 30
0.0
 10
258.0192950286831
 20
224.7285296708943
 30
0.0
  0
LINE
  5
1A8
330
1F
100
AcDbEntity
  8
0
  6
Continuous
 62
     7
370
    15
100
AcDbLine
 10
261.2284807272
 20
224.7332763935
 30
0.0
 11
261.8613232762
 21
226.7282488769
 31
0.0
  0
LINE
  5
1A9
330
1F
100
AcDbEntity
  8
0
  6
Continuous
 62
     7
370
    15
100
AcDbLine
 10
261.9121601118
 20
226.7121224828
 30
0.0
 11
261.8613232762
 21
226.7282488769
 31
0.0
  0
LINE
  5
1AA
330
1F
100
AcDbEntity
  8
0
  6
Continuous
 62
     7
370
    15
100
AcDbLine
 10
261.2793175628
 20
224.7171499993
 30
0.0
 11
261.9121601118
 21
226.7121224828
 31
0.0
  0
LINE
  5
1AB
330
1F
100
AcDbEntity
  8
0
  6
Continuous
 62
     7
370
    15
100
AcDbLine
 10
261.2284807272
 20
224.7332763935
 30
0.0
 11
261.2793175628
 21
224.7171499993
 31
0.0
  0
SPLINE
  5
1AC
330
1F
100
AcDbEntity
  8
0
  6
Continuous
 62
     7
370
    15
100
AcDbSpline
210
0.0
220
0.0
230
1.0
 70
     8
 71
     3
 72
    11
 73
     7
 74
     0
 42
0.00000001
 43
0.00000001
 40
0.0
 40
0.0
 40
0.0
 40
0.0
 40
0.2499999999999962
 40
0.5000000000000113
 40
0.7500000000000033
 40
1.0
 40
1.0
 40
1.0
 40
1.0
 10
261.2793175628104
 20
224.717149999293
 30
0.0
 10
261.2736857739957
 20
224.7037839899567
 30
0.0
 10
261.2624221963665
 20
224.6770519712841
 30
0.0
 10
261.2307733462069
 20
224.6464006959214
 30
0.0
 10
261.1919144611077
 20
224.6256368464074
 30
0.0
 10
261.1630188976039
 20
224.6230843156796
 30
0.0
 10
261.148571115852
 20
224.6218080503157
 30
0.0
  0
ARC
  5
1AD
330
1F
100
AcDbEntity
  8
0
  6
Continuous
 62
     7
370
    15
100
AcDbCircle
 10
257.338533787
 20
226.6189372177
 30
0.0
 40
0.170000000000022
100
AcDbArc
 50
17.2
 51
76.4844192254
  0
LINE
  5
1AE
330
1F
100
AcDbEntity
  8
0
  6
Continuous
 62
     7
370
    15
100
AcDbLine
 10
260.9298796958
 20
226.9075933455
 30
0.0
 11
261.8578402765
 21
226.7289915964
 31
0.0
  0
LINE
  5
1AF
330
1F
100
AcDbEntity
  8
0
  6
Continuous
 62
     7
370
    15
100
AcDbLine
 10
261.8578402765
 20
226.7289915964
 30
0.0
 11
261.237069534
 21
224.7665799492
 31
0.0
  0
LINE
  5
1B0
330
1F
100
AcDbEntity
  8
0
  6
Continuous
 62
     7
370
    15
100
AcDbLine
 10
261.237069534
 20
224.7665799492
 30
0.0
 11
261.2341029795
 21
224.7665903044
 31
0.0
  0
ARC
  5
1B1
330
1F
100
AcDbEntity
  8
0
  6
Continuous
 62
     7
370
    15
100
AcDbCircle
 10
257.4799297472
 20
234.0218363263
 30
0.0
 40
0.1333333334035007
100
AcDbArc
 50
269.6115510614
 51
359.6115465966
  0
LINE
  5
1B2
330
1F
100
AcDbEntity
  8
0
  6
Continuous
 62
     7
370
    15
100
AcDbLine
 10
257.4790257924
 20
233.8885060573
 30
0.0
 11
257.3782644492
 21
233.8891892007
 31
0.0
  0
ARC
  5
1B3
330
1F
100
AcDbEntity
  8
0
  6
Continuous
 62
     7
370
    15
100
AcDbCircle
 10
257.4925851144
 20
235.8884600929
 30
0.0
 40
0.1333333334034438
100
AcDbArc
 50
359.6115465966
 51
89.6115510614
  0
LINE
  5
1B4
330
1F
100
AcDbEntity
  8
0
  6
Continuous
 62
     7
370
    15
100
AcDbLine
 10
257.3782644492
 20
236.0225715638
 30
0.0
 11
257.4934890692
 21
236.021790362
 31
0.0
  0
LINE
  5
1B5
330
1F
100
AcDbEntity
  8
0
  6
Continuous
 62
     7
370
    15
100
AcDbLine
 10
257.6132600162
 20
234.0209323715
 30
0.0
 11
257.6259153835
 21
235.8875561381
 31
0.0
  0
LWPOLYLINE
  5
1B6
330
1F
100
AcDbEntity
  8
0
  6
Continuous
 62
     7
370
    15
100
AcDbPolyline
 90
        9
 70
   128
 43
0.0
 10
257.654340902
 20
235.8873634183
 10
257.6530478027
 20
235.913384826
 10
257.6488654921
 20
235.9384261709
 10
257.6419546942
 20
235.9615251281
 10
257.6325809869
 20
235.9817940175
 10
257.6211045966
 20
235.9984539173
 10
257.6079665546
 20
236.0108645967
 10
257.5936717485
 20
236.0185491203
 10
257.5787695196
 20
236.0212121761
  0
LINE
  5
1B7
330
1F
100
AcDbEntity
  8
0
  6
Continuous
 62
     7
370
    15
100
AcDbLine
 10
257.654340902
 20
235.8873634183
 30
0.0
 11
257.6259134361
 21
235.8875561513
 31
0.0
  0
LINE
  5
1B8
330
1F
100
AcDbEntity
  8
0
  6
Continuous
 62
     7
370
    15
100
AcDbLine
 10
257.4934871219
 20
236.0217903752
 30
0.0
 11
257.5787695196
 21
236.0212121761
 31
0.0
  0
LINE
  5
1B9
330
1F
100
AcDbEntity
  8
0
  6
Continuous
 62
     7
370
    15
100
AcDbLine
 10
257.6132580689
 20
234.0209323847
 30
0.0
 11
257.6416855348
 21
234.0207396517
 31
0.0
  0
LWPOLYLINE
  5
1BA
330
1F
100
AcDbEntity
  8
0
  6
Continuous
 62
     7
370
    15
100
AcDbPolyline
 90
        9
 70
   128
 43
0.0
 10
257.6416855348
 20
234.0207396517
 10
257.6400397298
 20
233.9947381692
 10
257.6355182678
 20
233.9697558343
 10
257.6282949062
 20
233.9467527042
 10
257.6186472345
 20
233.9266127762
 10
257.6069460075
 20
233.9101100164
 10
257.5936408967
 20
233.8978786168
 10
257.5792432101
 20
233.890388623
 10
257.5643062427
 20
233.8879278714
  0
LINE
  5
1BB
330
1F
100
AcDbEntity
  8
0
  6
Continuous
 62
     7
370
    15
100
AcDbLine
 10
257.5643062427
 20
233.8879278714
 30
0.0
 11
257.479023845
 21
233.8885060705
 31
0.0
  0
LINE
  5
1BC
330
1F
100
AcDbEntity
  8
0
  6
Continuous
 62
     7
370
    15
100
AcDbLine
 10
257.6416855348
 20
234.0207396517
 30
0.0
 11
257.654340902
 21
235.8873634183
 31
0.0
  0
LWPOLYLINE
  5
1BD
330
1F
100
AcDbEntity
  8
0
  6
Continuous
 62
     7
370
    15
100
AcDbPolyline
 90
        9
 70
   128
 43
0.0
 10
258.4538081272
 20
235.881943177
 10
258.4525150279
 20
235.9079645847
 10
258.4483327173
 20
235.9330059296
 10
258.4414219194
 20
235.9561048867
 10
258.4320482121
 20
235.9763737762
 10
258.4205718219
 20
235.9930336759
 10
258.4074337799
 20
236.0054443553
 10
258.3931389737
 20
236.0131288789
 10
258.3782367448
 20
236.0157919348
  0
LINE
  5
1BE
330
1F
100
AcDbEntity
  8
0
  6
Continuous
 62
     7
370
    15
100
AcDbLine
 10
258.4538081272
 20
235.881943177
 30
0.0
 11
257.654340902
 21
235.8873634183
 31
0.0
  0
LINE
  5
1BF
330
1F
100
AcDbEntity
  8
0
  6
Continuous
 62
     7
370
    15
100
AcDbLine
 10
257.5787695196
 20
236.0212121761
 30
0.0
 11
258.3782367448
 21
236.0157919348
 31
0.0
  0
LINE
  5
1C0
330
1F
100
AcDbEntity
  8
0
  6
Continuous
 62
     7
370
    15
100
AcDbLine
 10
257.6416855348
 20
234.0207396517
 30
0.0
 11
258.44115276
 21
234.0153194103
 31
0.0
  0
LWPOLYLINE
  5
1C1
330
1F
100
AcDbEntity
  8
0
  6
Continuous
 62
     7
370
    15
100
AcDbPolyline
 90
        9
 70
   128
 43
0.0
 10
258.363773468
 20
233.8825076301
 10
258.3787104354
 20
233.8849683817
 10
258.393108122
 20
233.8924583754
 10
258.4064132327
 20
233.9046897751
 10
258.4181144598
 20
233.9211925348
 10
258.4277621314
 20
233.9413324628
 10
258.4349854931
 20
233.9643355929
 10
258.439506955
 20
233.9893179278
 10
258.44115276
 20
234.0153194103
  0
LINE
  5
1C2
330
1F
100
AcDbEntity
  8
0
  6
Continuous
 62
     7
370
    15
100
AcDbLine
 10
258.363773468
 20
233.8825076301
 30
0.0
 11
257.5643062427
 21
233.8879278714
 31
0.0
  0
LINE
  5
1C3
330
1F
100
AcDbEntity
  8
0
  6
Continuous
 62
     7
370
    15
100
AcDbLine
 10
259.2614414168
 20
235.0632826795
 30
0.0
 11
258.4538081272
 21
235.881943177
 31
0.0
  0
LINE
  5
1C4
330
1F
100
AcDbEntity
  8
0
  6
Continuous
 62
     7
370
    15
100
AcDbLine
 10
259.259812032
 20
234.8229539422
 30
0.0
 11
259.2614414168
 21
235.0632826795
 31
0.0
  0
LINE
  5
1C5
330
1F
100
AcDbEntity
  8
0
  6
Continuous
 62
     7
370
    15
100
AcDbLine
 10
258.44115276
 20
234.0153194103
 30
0.0
 11
259.259812032
 21
234.8229539422
 31
0.0
  0
ARC
  5
1C6
330
1F
100
AcDbEntity
  8
0
  6
Continuous
 62
     7
370
    15
100
AcDbCircle
 10
258.37733279
 20
235.8824616657
 30
0.0
 40
0.1333333333683901
100
AcDbArc
 50
44.6115510768
 51
89.6115510614
  0
LWPOLYLINE
  5
1C7
330
1F
100
AcDbEntity
  8
0
  6
Continuous
 62
     7
370
    15
100
AcDbPolyline
 90
        9
 70
   128
 43
0.0
 10
258.4538081272
 20
235.881943177
 10
258.4630573631
 20
235.8966975441
 10
258.4705284429
 20
235.9111566211
 10
258.4760663963
 20
235.9250204883
 10
258.4795563516
 20
235.9380015721
 10
258.4809259176
 20
235.9498306101
 10
258.4801466861
 20
235.9602622366
 10
258.4772348202
 20
235.9690800719
 10
258.4722507199
 20
235.9761012105
  0
ARC
  5
1C8
330
1F
100
AcDbEntity
  8
0
  6
Continuous
 62
     7
370
    15
100
AcDbCircle
 10
258.3646774228
 20
234.0158378991
 30
0.0
 40
0.1333333333683923
100
AcDbArc
 50
269.6115510614
 51
314.6115510464
  0
LWPOLYLINE
  5
1C9
330
1F
100
AcDbEntity
  8
0
  6
Continuous
 62
     7
370
    15
100
AcDbPolyline
 90
        9
 70
   128
 43
0.0
 10
258.44115276
 20
234.0153194103
 10
258.450201091
 20
234.0004409891
 10
258.4574754332
 20
233.9858819408
 10
258.4628248972
 20
233.9719442589
 10
258.466138521
 20
233.9589170481
 10
258.4673475711
 20
233.9470705275
 10
258.4664269686
 20
233.9366504256
 10
258.4633958094
 20
233.9278728829
 10
258.4583169676
 20
233.9209199692
  0
LINE
  5
1CA
330
1F
100
AcDbEntity
  8
0
  6
Continuous
 62
     7
370
    15
100
AcDbLine
 10
258.4722507199
 20
235.9761012105
 30
0.0
 11
259.2488257215
 21
235.1889230626
 31
0.0
  0
ELLIPSE
  5
1CB
330
1F
100
AcDbEntity
  8
0
  6
Continuous
 62
     7
370
    15
100
AcDbEllipse
 10
259.1539077916
 20
235.0952835178
 30
0.0
 11
0.09491811283970721
 21
0.09363935942073455
 31
0.0
210
0.0
220
0.0
230
1.0
 40
0.7496718139
 41
5.497789749101574
 42
6.283187912498756
  0
ELLIPSE
  5
1CC
330
1F
100
AcDbEntity
  8
0
  6
Continuous
 62
     7
370
    15
100
AcDbEllipse
 10
259.2267421531
 20
235.0214546954
 30
0.0
 11
0.04164726585190692
 21
0.1469340202484375
 31
0.0
210
0.0
220
0.0
230
0.9999999999999998
 40
0.152192158
 41
5.043888123797089
 42
5.411673246161698
  0
ELLIPSE
  5
1CD
330
1F
100
AcDbEntity
  8
0
  6
Continuous
 62
     7
370
    15
100
AcDbEllipse
 10
259.2256831042
 20
234.8652485687
 30
0.0
 11
-0.03965115740805914
 21
0.1474852086668932
 31
0.0
210
0.0
220
0.0
230
0.9999999999999996
 40
0.152192158
 41
4.013104714607241
 42
4.380889836972575
  0
ELLIPSE
  5
1CE
330
1F
100
AcDbEntity
  8
0
  6
Continuous
 62
     7
370
    15
100
AcDbEllipse
 10
259.1518543924
 20
234.7924140952
 30
0.0
 11
-0.09363973019549121
 21
0.09491774705870172
 31
0.0
210
0.0
220
0.0
230
1.0
 40
0.7496718139
 41
3.141590048270432
 42
3.92698821166763
  0
LINE
  5
1CF
330
1F
100
AcDbEntity
  8
0
  6
Continuous
 62
     7
370
    15
100
AcDbLine
 10
259.2454939372
 20
234.6974961652
 30
0.0
 11
258.4583169676
 21
233.9209199692
 31
0.0
  0
LINE
  5
1D0
330
1F
100
AcDbEntity
  8
0
  6
Continuous
 62
     7
370
    15
100
AcDbLine
 10
259.2614414168
 20
235.0632826795
 30
0.0
 11
259.2870261361
 21
235.0631092197
 31
0.0
  0
LINE
  5
1D1
330
1F
100
AcDbEntity
  8
0
  6
Continuous
 62
     7
370
    15
100
AcDbLine
 10
259.2870261361
 20
235.0631092197
 30
0.0
 11
259.2853967513
 21
234.8227804824
 31
0.0
  0
LINE
  5
1D2
330
1F
100
AcDbEntity
  8
0
  6
Continuous
 62
     7
370
    15
100
AcDbLine
 10
259.259812032
 20
234.8229539422
 30
0.0
 11
259.2853967513
 21
234.8227804824
 31
0.0
  0
ARC
  5
1D3
330
1F
100
AcDbEntity
  8
0
  6
Continuous
 62
     7
370
    15
100
AcDbCircle
 10
259.265503683
 20
235.0895144851
 30
0.0
 40
0.0222722962453892
100
AcDbArc
 50
12.6172042979
 51
76.6056149455
  0
LINE
  5
1D4
330
1F
100
AcDbEntity
  8
0
  6
Continuous
 62
     7
370
    15
100
AcDbLine
 10
259.2872381304
 20
235.0943795625
 30
0.0
 11
259.2870261361
 21
235.0631092197
 31
0.0
  0
LINE
  5
1D5
330
1F
100
AcDbEntity
  8
0
  6
Continuous
 62
     7
370
    15
100
AcDbLine
 10
259.2853967513
 20
234.8227804824
 30
0.0
 11
259.2851847312
 21
234.7915101399
 31
0.0
  0
ARC
  5
1D6
330
1F
100
AcDbEntity
  8
0
  6
Continuous
 62
     7
370
    15
100
AcDbCircle
 10
259.2635182474
 20
234.7966694676
 30
0.0
 40
0.0222722962454302
100
AcDbArc
 50
282.6174871773
 51
346.6058978252
  0
ARC
  5
1D7
330
1F
100
AcDbEntity
  8
0
  6
Continuous
 62
     7
370
    15
100
AcDbCircle
 10
259.1539077916
 20
235.0952835178
 30
0.0
 40
0.1333334030867658
100
AcDbArc
 50
359.6115510614
 51
44.6115510615
  0
ARC
  5
1D8
330
1F
100
AcDbEntity
  8
0
  6
Continuous
 62
     7
370
    15
100
AcDbCircle
 10
259.1518543924
 20
234.7924140952
 30
0.0
 40
0.1333334030867658
100
AcDbArc
 50
314.6115510613
 51
359.6115510614
  0
LINE
  5
1D9
330
1F
100
AcDbEntity
  8
0
  6
Continuous
 62
     7
370
    15
100
AcDbLine
 10
266.3054376333
 20
228.9906098936
 30
0.0
 11
269.6275651816
 21
232.2679939619
 31
0.0
  0
LINE
  5
1DA
330
1F
100
AcDbEntity
  8
0
  6
Continuous
 62
     7
370
    15
100
AcDbLine
 10
267.7228146569
 20
229.4524156919
 30
0.0
 11
269.1465836061
 21
230.857008864
 31
0.0
  0
LINE
  5
1DB
330
1F
100
AcDbEntity
  8
0
  6
Continuous
 62
     7
370
    15
100
AcDbLine
 10
269.2376641413
 20
230.7595663901
 30
0.0
 11
269.2402231509
 21
230.7620909341
 31
0.0
  0
LINE
  5
1DC
330
1F
100
AcDbEntity
  8
0
  6
Continuous
 62
     7
370
    15
100
AcDbLine
 10
267.8164542017
 20
229.357497762
 30
0.0
 11
269.2376641413
 21
230.7595663901
 31
0.0
  0
LINE
  5
1DD
330
1F
100
AcDbEntity
  8
0
  6
Continuous
 62
     7
370
    15
100
AcDbLine
 10
269.1440245965
 20
230.85448432
 30
0.0
 11
269.1465836061
 21
230.857008864
 31
0.0
  0
LINE
  5
1DE
330
1F
100
AcDbEntity
  8
0
  6
Continuous
 62
     7
370
    15
100
AcDbLine
 10
267.7228146569
 20
229.4524156919
 30
0.0
 11
269.1440245965
 21
230.85448432
 31
0.0
  0
LINE
  5
1DF
330
1F
100
AcDbEntity
  8
0
  6
Continuous
 62
     7
370
    15
100
AcDbLine
 10
269.2394464581
 20
230.7527831783
 30
0.0
 11
269.2419964916
 21
230.7552988672
 31
0.0
  0
LINE
  5
1E0
330
1F
100
AcDbEntity
  8
0
  6
Continuous
 62
     7
370
    15
100
AcDbLine
 10
267.8232215994
 20
229.3556324906
 30
0.0
 11
269.2394464581
 21
230.7527831783
 31
0.0
  0
LINE
  5
1E1
330
1F
100
AcDbEntity
  8
0
  6
Continuous
 62
     7
370
    15
100
AcDbLine
 10
274.0412068118
 20
225.3844128111
 30
0.0
 11
274.0428531079
 21
225.3860369344
 31
0.0
  0
LINE
  5
1E2
330
1F
100
AcDbEntity
  8
0
  6
Continuous
 62
     7
370
    15
100
AcDbLine
 10
273.1268950839
 20
224.482415327
 30
0.0
 11
274.0412068118
 21
225.3844128111
 31
0.0
  0
LINE
  5
1E3
330
1F
100
AcDbEntity
  8
0
  6
Continuous
 62
     7
370
    15
100
AcDbLine
 10
257.595434994
 20
233.8590800007
 30
0.0
 11
257.5934010957
 21
233.5590868953
 31
0.0
  0
LINE
  5
1E4
330
1F
100
AcDbEntity
  8
0
  6
Continuous
 62
     7
370
    15
100
AcDbLine
 10
260.9987466852
 20
234.3360176622
 30
0.0
 11
260.465425609
 21
234.3396334814
 31
0.0
  0
SPLINE
  5
1E5
330
1F
100
AcDbEntity
  8
0
  6
Continuous
 62
     7
370
    15
100
AcDbSpline
210
0.0
220
0.0
230
1.0
 70
     8
 71
     3
 72
    11
 73
     7
 74
     0
 42
0.00000001
 43
0.00000001
 40
0.0
 40
0.0
 40
0.0
 40
0.0
 40
0.2499999999999927
 40
0.4999999999999848
 40
0.7499999999999994
 40
1.0
 40
1.0
 40
1.0
 40
1.0
 10
257.42524230909
 20
242.626830271401
 30
0.0
 10
257.4321474698244
 20
242.6280829024666
 30
0.0
 10
257.4459577912931
 20
242.6305881645978
 30
0.0
 10
257.4666732734963
 20
242.649858932358
 30
0.0
 10
257.4873887556994
 20
242.6774043437828
 30
0.0
 10
257.5011990771682
 20
242.6992438510838
 30
0.0
 10
257.5081042379026
 20
242.7101636047343
 30
0.0
  0
SPLINE
  5
1E6
330
1F
100
AcDbEntity
  8
0
  6
Continuous
 62
     7
370
    15
100
AcDbSpline
210
0.0
220
0.0
230
1.0
 70
     8
 71
     3
 72
    11
 73
     7
 74
     0
 42
0.00000001
 43
0.00000001
 40
0.0
 40
0.0
 40
0.0
 40
0.0
 40
0.2500000000000022
 40
0.5000000000000118
 40
0.749999999999992
 40
1.0
 40
1.0
 40
1.0
 40
1.0
 10
257.42524230909
 20
242.5734969380676
 30
0.0
 10
257.4321474698244
 20
242.5755512530152
 30
0.0
 10
257.4459577912931
 20
242.5796598829105
 30
0.0
 10
257.4666732734963
 20
242.6112639420372
 30
0.0
 10
257.4873887556994
 20
242.6564384167738
 30
0.0
 10
257.5011990771682
 20
242.6922552087475
 30
0.0
 10
257.5081042379026
 20
242.7101636047343
 30
0.0
  0
LINE
  5
1E7
330
1F
100
AcDbEntity
  8
0
  6
Continuous
 62
     7
370
    15
100
AcDbLine
 10
257.4252423091
 20
242.6268302714
 30
0.0
 11
257.4252423091
 21
242.5734969381
 31
0.0
  0
SPLINE
  5
1E8
330
1F
100
AcDbEntity
  8
0
  6
Continuous
 62
     7
370
    15
100
AcDbSpline
210
0.0
220
0.0
230
1.0
 70
     8
 71
     3
 72
    12
 73
     8
 74
     0
 42
0.00000001
 43
0.00000001
 40
0.0
 40
0.0
 40
0.0
 40
0.0
 40
0.3486243089905816
 40
0.5715639950100869
 40
0.7575575392541674
 40
0.9445154454284581
 40
1.0
 40
1.0
 40
1.0
 40
1.0
 10
257.5081042379026
 20
242.7101636047343
 30
0.0
 10
257.4950984599891
 20
242.6971015160143
 30
0.0
 10
257.4737756945057
 20
242.6756864298615
 30
0.0
 10
257.4480549306131
 20
242.6505728945588
 30
0.0
 10
257.4316988949055
 20
242.6360009795544
 30
0.0
 10
257.4252713560396
 20
242.6294241809181
 30
0.0
 10
257.4248641063451
 20
242.6276969614724
 30
0.0
 10
257.4247709045692
 20
242.6273016759218
 30
0.0
  0
LINE
  5
1E9
330
1F
100
AcDbEntity
  8
0
  6
Continuous
 62
     7
370
    15
100
AcDbLine
 10
257.3714375712
 20
242.6273016759
 30
0.0
 11
257.4247709046
 21
242.6273016759
 31
0.0
  0
SPLINE
  5
1EA
330
1F
100
AcDbEntity
  8
0
  6
Continuous
 62
     7
370
    15
100
AcDbSpline
210
0.0
220
0.0
230
1.0
 70
     8
 71
     3
 72
    11
 73
     7
 74
     0
 42
0.00000001
 43
0.00000001
 40
0.0
 40
0.0
 40
0.0
 40
0.0
 40
0.271314429240726
 40
0.5804659662367508
 40
0.8527785743570533
 40
1.0
 40
1.0
 40
1.0
 40
1.0
 10
257.5081042379026
 20
242.7101636047343
 30
0.0
 10
257.4924815508706
 20
242.7007012840108
 30
0.0
 10
257.4590574600524
 20
242.680457041355
 30
0.0
 10
257.415144119637
 20
242.6533636784263
 30
0.0
 10
257.3846278638979
 20
242.63727055557
 30
0.0
 10
257.378682690129
 20
242.6329950712635
 30
0.0
 10
257.3765964304039
 20
242.6314947331639
 30
0.0
  0
LINE
  5
1EB
330
1F
100
AcDbEntity
  8
0
  6
Continuous
 62
     7
370
    15
100
AcDbLine
 10
257.3714375712
 20
255.1468302714
 30
0.0
 11
257.3714375712
 21
255.0848403578
 31
0.0
  0
SPLINE
  5
1EC
330
1F
100
AcDbEntity
  8
0
  6
Continuous
 62
     7
370
    15
100
AcDbSpline
210
0.0
220
0.0
230
1.0
 70
     8
 71
     3
 72
    11
 73
     7
 74
     0
 42
0.00000001
 43
0.00000001
 40
0.0
 40
0.0
 40
0.0
 40
0.0
 40
0.2499999999999974
 40
0.500000000000002
 40
0.7500000000000026
 40
0.9999999999999999
 40
0.9999999999999999
 40
0.9999999999999999
 40
0.9999999999999999
 10
257.3714375712358
 20
255.146830271401
 30
0.0
 10
257.3734918861834
 20
255.1537747158454
 30
0.0
 10
257.3776005160786
 20
255.1676636047343
 30
0.0
 10
257.4092045752054
 20
255.1884969380677
 30
0.0
 10
257.454379049942
 20
255.209330271401
 30
0.0
 10
257.4901958419157
 20
255.2232191602899
 30
0.0
 10
257.5081042379026
 20
255.2301636047343
 30
0.0
  0
LINE
  5
1ED
330
1F
100
AcDbEntity
  8
0
  6
Continuous
 62
     7
370
    15
100
AcDbLine
 10
257.5081042379
 20
255.2301636047
 30
0.0
 11
257.5081042379
 21
242.7101636047
 31
0.0
  0
LINE
  5
1EE
330
1F
100
AcDbEntity
  8
0
  6
Continuous
 62
     7
370
    15
100
AcDbLine
 10
260.9681042379
 20
242.5734969381
 30
0.0
 11
257.4252423091
 21
242.5734969381
 31
0.0
  0
LINE
  5
1EF
330
1F
100
AcDbEntity
  8
0
  6
Continuous
 62
     7
370
    15
100
AcDbLine
 10
260.9681042379
 20
242.7101636047
 30
0.0
 11
257.5081042379
 21
242.7101636047
 31
0.0
  0
LINE
  5
1F0
330
1F
100
AcDbEntity
  8
0
  6
Continuous
 62
     7
370
    15
100
AcDbLine
 10
260.9681042379
 20
242.7101636047
 30
0.0
 11
260.9681042379
 21
242.5734969381
 31
0.0
  0
ARC
  5
1F1
330
1F
100
AcDbEntity
  8
0
  6
Continuous
 62
     7
370
    15
100
AcDbCircle
 10
259.3814675715
 20
253.5634969381
 30
0.0
 40
1.666666666666646
100
AcDbArc
 50
0.3437767398
 51
90.0
  0
LINE
  5
1F2
330
1F
100
AcDbEntity
  8
0
  6
Continuous
 62
     7
370
    15
100
AcDbLine
 10
261.0481042379
 20
253.5734969381
 30
0.0
 11
260.9647709046
 21
253.5734969381
 31
0.0
  0
LINE
  5
1F3
330
1F
100
AcDbEntity
  8
0
  6
Continuous
 62
     7
370
    15
100
AcDbLine
 10
260.9647709046
 20
253.5734969381
 30
0.0
 11
260.9647709046
 21
253.5201636047
 31
0.0
  0
LINE
  5
1F4
330
1F
100
AcDbEntity
  8
0
  6
Continuous
 62
     7
370
    15
100
AcDbLine
 10
260.9647709046
 20
253.5201636047
 30
0.0
 11
260.9681042379
 21
253.5201636047
 31
0.0
  0
LINE
  5
1F5
330
1F
100
AcDbEntity
  8
0
  6
Continuous
 62
     7
370
    15
100
AcDbLine
 10
260.9681042379
 20
253.5201636047
 30
0.0
 11
260.9681042379
 21
242.7101636047
 31
0.0
  0
LINE
  5
1F6
330
1F
100
AcDbEntity
  8
0
  6
Continuous
 62
     7
370
    15
100
AcDbLine
 10
257.5081042379
 20
255.2301636047
 30
0.0
 11
259.3814675715
 21
255.2301636047
 31
0.0
  0
LINE
  5
1F7
330
1F
100
AcDbEntity
  8
0
  6
Continuous
 62
     7
370
    15
100
AcDbLine
 10
261.1047709046
 20
242.7101636047
 30
0.0
 11
260.9681042379
 21
242.7101636047
 31
0.0
  0
LINE
  5
1F8
330
1F
100
AcDbEntity
  8
0
  6
Continuous
 62
     7
370
    15
100
AcDbLine
 10
260.9681042379
 20
253.5201636047
 30
0.0
 11
261.1047709046
 21
253.5201636047
 31
0.0
  0
LINE
  5
1F9
330
1F
100
AcDbEntity
  8
0
  6
Continuous
 62
     7
370
    15
100
AcDbLine
 10
261.1047709046
 20
253.5201636047
 30
0.0
 11
261.1047709046
 21
242.7101636047
 31
0.0
  0
SPLINE
  5
1FA
330
1F
100
AcDbEntity
  8
0
  6
Continuous
 62
     7
370
    15
100
AcDbSpline
210
0.0
220
0.0
230
1.0
 70
     8
 71
     3
 72
    12
 73
     8
 74
     0
 42
0.00000001
 43
0.00000001
 40
0.0
 40
0.0
 40
0.0
 40
0.0
 40
0.230340272669857
 40
0.460765053184086
 40
0.6911902299722757
 40
0.9216152586331061
 40
0.9999999999999999
 40
0.9999999999999999
 40
0.9999999999999999
 40
0.9999999999999999
 10
257.5081042379025
 20
255.2934969380677
 30
0.0
 10
257.4916201195867
 20
255.2917558496284
 30
0.0
 10
257.4586458352184
 20
255.2882730339748
 30
0.0
 10
257.4155483008055
 20
255.2612535214074
 30
0.0
 10
257.3846204618445
 20
255.2220009812802
 30
0.0
 10
257.3724784038999
 20
255.1844108109892
 30
0.0
 10
257.3716482803156
 20
255.1624137530846
 30
0.0
 10
257.3714375712358
 20
255.156830271401
 30
0.0
  0
LINE
  5
1FB
330
1F
100
AcDbEntity
  8
0
  6
Continuous
 62
     7
370
    15
100
AcDbLine
 10
257.5081042379
 20
255.2401636047
 30
0.0
 11
257.5081042379
 21
255.2934969381
 31
0.0
  0
SPLINE
  5
1FC
330
1F
100
AcDbEntity
  8
0
  6
Continuous
 62
     7
370
    15
100
AcDbSpline
210
0.0
220
0.0
230
1.0
 70
     8
 71
     3
 72
    10
 73
     6
 74
     0
 42
0.00000001
 43
0.00000001
 40
0.0
 40
0.0
 40
0.0
 40
0.0
 40
0.4056484728317125
 40
0.8115783783042032
 40
1.0
 40
1.0
 40
1.0
 40
1.0
 10
257.5081042379025
 20
255.2401636047343
 30
0.0
 10
257.4971094238048
 20
255.2387885882736
 30
0.0
 10
257.4751121675772
 20
255.236037601387
 30
0.0
 10
257.4505720129657
 20
255.2205213565172
 30
0.0
 10
257.4425342880243
 20
255.2063806508273
 30
0.0
 10
257.4399861643988
 20
255.2018977571588
 30
0.0
  0
LINE
  5
1FD
330
1F
100
AcDbEntity
  8
0
  6
Continuous
 62
     7
370
    15
100
AcDbLine
 10
257.3782644492
 20
255.1568302714
 30
0.0
 11
257.3714375712
 21
255.1568302714
 31
0.0
  0
ARC
  5
1FE
330
1F
100
AcDbEntity
  8
0
  6
Continuous
 62
     7
370
    15
100
AcDbCircle
 10
259.3847709046
 20
253.5734969381
 30
0.0
 40
1.720000000000027
100
AcDbArc
 50
0.0
 51
90.0
  0
LINE
  5
1FF
330
1F
100
AcDbEntity
  8
0
  6
Continuous
 62
     7
370
    15
100
AcDbLine
 10
261.0514375712
 20
253.5734969381
 30
0.0
 11
261.1047709046
 21
253.5734969381
 31
0.0
  0
LINE
  5
200
330
1F
100
AcDbEntity
  8
0
  6
Continuous
 62
     7
370
    15
100
AcDbLine
 10
259.3847709046
 20
255.2401636047
 30
0.0
 11
259.3847709046
 21
255.2934969381
 31
0.0
  0
ARC
  5
201
330
1F
100
AcDbEntity
  8
0
  6
Continuous
 62
     7
370
    15
100
AcDbCircle
 10
259.3847709046
 20
253.5734969381
 30
0.0
 40
1.666666666666714
100
AcDbArc
 50
0.0
 51
90.0
  0
LINE
  5
202
330
1F
100
AcDbEntity
  8
0
  6
Continuous
 62
     7
370
    15
100
AcDbLine
 10
259.3847709046
 20
255.2934969381
 30
0.0
 11
257.5081042379
 21
255.2934969381
 31
0.0
  0
LINE
  5
203
330
1F
100
AcDbEntity
  8
0
  6
Continuous
 62
     7
370
    15
100
AcDbLine
 10
259.3847709046
 20
255.2401636047
 30
0.0
 11
257.5081042379
 21
255.2401636047
 31
0.0
  0
LINE
  5
204
330
1F
100
AcDbEntity
  8
0
  6
Continuous
 62
     7
370
    15
100
AcDbLine
 10
261.1047709046
 20
253.5734969381
 30
0.0
 11
261.1047709046
 21
253.5721636047
 31
0.0
  0
LINE
  5
205
330
1F
100
AcDbEntity
  8
0
  6
Continuous
 62
     7
370
    15
100
AcDbLine
 10
261.0514375712
 20
253.5721636047
 30
0.0
 11
261.1047709046
 21
253.5721636047
 31
0.0
  0
LINE
  5
206
330
1F
100
AcDbEntity
  8
0
  6
Continuous
 62
     7
370
    15
100
AcDbLine
 10
261.0514375712
 20
253.5734969381
 30
0.0
 11
261.0514375712
 21
253.5721636047
 31
0.0
  0
LINE
  5
207
330
1F
100
AcDbEntity
  8
0
  6
Continuous
 62
     7
370
    15
100
AcDbLine
 10
261.1047709046
 20
253.5721636047
 30
0.0
 11
261.1047709046
 21
253.5201636047
 31
0.0
  0
LINE
  5
208
330
1F
100
AcDbEntity
  8
0
  6
Continuous
 62
     7
370
    15
100
AcDbLine
 10
261.0514375712
 20
253.5721636047
 30
0.0
 11
261.0514375712
 21
253.5201636047
 31
0.0
  0
SPLINE
  5
209
330
1F
100
AcDbEntity
  8
0
  6
Continuous
 62
     7
370
    15
100
AcDbSpline
210
0.0
220
0.0
230
1.0
 70
     8
 71
     3
 72
    11
 73
     7
 74
     0
 42
0.00000001
 43
0.00000001
 40
0.0
 40
0.0
 40
0.0
 40
0.0
 40
0.249999999999992
 40
0.4999999999999987
 40
0.7499999999999865
 40
1.0
 40
1.0
 40
1.0
 40
1.0
 10
260.9681042379025
 20
242.5734969380676
 30
0.0
 10
260.9860126338894
 20
242.5755512530152
 30
0.0
 10
261.0218294258631
 20
242.5796598829104
 30
0.0
 10
261.0670039005996
 20
242.6112639420372
 30
0.0
 10
261.0986079597264
 20
242.6564384167738
 30
0.0
 10
261.1027165896216
 20
242.6922552087475
 30
0.0
 10
261.1047709045692
 20
242.7101636047343
 30
0.0
  0
SPLINE
  5
20A
330
1F
100
AcDbEntity
  8
0
  6
Continuous
 62
     7
370
    15
100
AcDbSpline
210
0.0
220
0.0
230
1.0
 70
     8
 71
     3
 72
    11
 73
     7
 74
     0
 42
0.00000001
 43
0.00000001
 40
0.0
 40
0.0
 40
0.0
 40
0.0
 40
0.2499999999999893
 40
0.4999999999999838
 40
0.7500000000000034
 40
1.0
 40
1.0
 40
1.0
 40
1.0
 10
260.9681042379025
 20
242.626830271401
 30
0.0
 10
260.979023991553
 20
242.6280829024666
 30
0.0
 10
261.0008634988541
 20
242.6305881645978
 30
0.0
 10
261.0284089102788
 20
242.649858932358
 30
0.0
 10
261.047679678039
 20
242.6774043437828
 30
0.0
 10
261.0501849401703
 20
242.6992438510838
 30
0.0
 10
261.0514375712359
 20
242.7101636047343
 30
0.0
  0
LINE
  5
20B
330
1F
100
AcDbEntity
  8
0
  6
Continuous
 62
     7
370
    15
100
AcDbLine
 10
257.4252423091
 20
242.5734969381
 30
0.0
 11
257.4247709046
 21
242.5734969381
 31
0.0
  0
ARC
  5
20C
330
1F
100
AcDbEntity
  8
0
  6
Continuous
 62
     7
370
    15
100
AcDbCircle
 10
258.3547709046
 20
242.4901636047
 30
0.0
 40
0.0833333333333345
100
AcDbArc
 50
45.488327225
 51
90.0
  0
LWPOLYLINE
  5
20D
330
1F
100
AcDbEntity
  8
0
  6
Continuous
 62
     7
370
    15
100
AcDbPolyline
 90
        3
 70
   128
 43
0.0
 10
258.4630914166
 20
242.5734969381
 10
258.4684050849
 20
242.5660915366
 10
258.4778415001
 20
242.5495892413
  0
ARC
  5
20E
330
1F
100
AcDbEntity
  8
0
  6
Continuous
 62
     7
370
    15
100
AcDbCircle
 10
259.3814672209
 20
253.563555545
 30
0.0
 40
1.66666666666669
100
AcDbArc
 50
0.3417619453
 51
89.5195047779
  0
LINE
  5
20F
330
1F
100
AcDbEntity
  8
0
  6
Continuous
 62
     7
370
    15
100
AcDbLine
 10
257.3782644492
 20
223.6995892413
 30
0.0
 11
257.5081042379
 21
223.6995892413
 31
0.0
  0
LINE
  5
210
330
1F
100
AcDbEntity
  8
0
  6
Continuous
 62
     7
370
    15
100
AcDbLine
 10
257.5081042379
 20
242.4129225747
 30
0.0
 11
257.3782644492
 21
242.4129225747
 31
0.0
  0
SPLINE
  5
211
330
1F
100
AcDbEntity
  8
0
  6
Continuous
 62
     7
370
    15
100
AcDbSpline
210
0.0
220
0.0
230
1.0
 70
     8
 71
     3
 72
    11
 73
     7
 74
     0
 42
0.00000001
 43
0.00000001
 40
0.0
 40
0.0
 40
0.0
 40
0.0
 40
0.2499999999999978
 40
0.5000000000000026
 40
0.7500000000000016
 40
1.0
 40
1.0
 40
1.0
 40
1.0
 10
257.5081042379026
 20
223.6995892413394
 30
0.0
 10
257.5011597934581
 20
223.6816808453526
 30
0.0
 10
257.4872709045692
 20
223.6458640533789
 30
0.0
 10
257.4664375712359
 20
223.6006895786423
 30
0.0
 10
257.4456042379026
 20
223.5690855195155
 30
0.0
 10
257.4317153490137
 20
223.5649768896203
 30
0.0
 10
257.4247709045692
 20
223.5629225746727
 30
0.0
  0
LINE
  5
212
330
1F
100
AcDbEntity
  8
0
  6
Continuous
 62
     7
370
    15
100
AcDbLine
 10
257.4247709046
 20
223.616255908
 30
0.0
 11
257.4247709046
 21
223.5629225747
 31
0.0
  0
SPLINE
  5
213
330
1F
100
AcDbEntity
  8
0
  6
Continuous
 62
     7
370
    15
100
AcDbSpline
210
0.0
220
0.0
230
1.0
 70
     8
 71
     3
 72
    11
 73
     7
 74
     0
 42
0.00000001
 43
0.00000001
 40
0.0
 40
0.0
 40
0.0
 40
0.0
 40
0.2499999999999986
 40
0.5000000000000114
 40
0.7500000000000073
 40
1.0
 40
1.0
 40
1.0
 40
1.0
 10
257.5081042379026
 20
223.6995892413394
 30
0.0
 10
257.5011597934581
 20
223.6886694876889
 30
0.0
 10
257.4872709045692
 20
223.6668299803878
 30
0.0
 10
257.4664375712359
 20
223.6392845689631
 30
0.0
 10
257.4456042379026
 20
223.6200138012029
 30
0.0
 10
257.4317153490137
 20
223.6175085390717
 30
0.0
 10
257.4247709045692
 20
223.6162559080061
 30
0.0
  0
LINE
  5
214
330
1F
100
AcDbEntity
  8
0
  6
Continuous
 62
     7
370
    15
100
AcDbLine
 10
260.9681042379
 20
223.5629225747
 30
0.0
 11
260.9681042379
 21
223.6995892413
 31
0.0
  0
LINE
  5
215
330
1F
100
AcDbEntity
  8
0
  6
Continuous
 62
     7
370
    15
100
AcDbLine
 10
260.9681042379
 20
223.5629225747
 30
0.0
 11
257.4252423091
 21
223.5629225747
 31
0.0
  0
LINE
  5
216
330
1F
100
AcDbEntity
  8
0
  6
Continuous
 62
     7
370
    15
100
AcDbLine
 10
257.4247709046
 20
223.5629225747
 30
0.0
 11
257.4252423091
 21
223.5629225747
 31
0.0
  0
LINE
  5
217
330
1F
100
AcDbEntity
  8
0
  6
Continuous
 62
     7
370
    15
100
AcDbLine
 10
257.5081042379
 20
223.6995892413
 30
0.0
 11
260.9681042379
 21
223.6995892413
 31
0.0
  0
LINE
  5
218
330
1F
100
AcDbEntity
  8
0
  6
Continuous
 62
     7
370
    15
100
AcDbLine
 10
260.9681042379
 20
242.4129225747
 30
0.0
 11
257.5081042379
 21
242.4129225747
 31
0.0
  0
SPLINE
  5
219
330
1F
100
AcDbEntity
  8
0
  6
Continuous
 62
     7
370
    15
100
AcDbSpline
210
0.0
220
0.0
230
1.0
 70
     8
 71
     3
 72
    12
 73
     8
 74
     0
 42
0.00000001
 43
0.00000001
 40
0.0
 40
0.0
 40
0.0
 40
0.0
 40
0.2303402726698912
 40
0.4607650531841082
 40
0.6911902299723077
 40
0.9216152586331373
 40
1.0
 40
1.0
 40
1.0
 40
1.0
 10
257.4247709045693
 20
242.5495892413394
 30
0.0
 10
257.4311711213414
 20
242.5478481529001
 30
0.0
 10
257.4439739030142
 20
242.5443653372465
 30
0.0
 10
257.4631828870627
 20
242.5173458246792
 30
0.0
 10
257.4823799763228
 20
242.4780932845518
 30
0.0
 10
257.497396550297
 20
242.4405031142609
 30
0.0
 10
257.5059365436329
 20
242.4185060563564
 30
0.0
 10
257.5081042379026
 20
242.4129225746727
 30
0.0
  0
LINE
  5
21A
330
1F
100
AcDbEntity
  8
0
  6
Continuous
 62
     7
370
    15
100
AcDbLine
 10
257.4252423091
 20
242.5495892413
 30
0.0
 11
257.4247709046
 21
242.5495892413
 31
0.0
  0
LINE
  5
21B
330
1F
100
AcDbEntity
  8
0
  6
Continuous
 62
     7
370
    15
100
AcDbLine
 10
257.4252423091
 20
242.5495892413
 30
0.0
 11
260.9681042379
 21
242.5495892413
 31
0.0
  0
LINE
  5
21C
330
1F
100
AcDbEntity
  8
0
  6
Continuous
 62
     7
370
    15
100
AcDbLine
 10
260.9681042379
 20
242.4129225747
 30
0.0
 11
260.9681042379
 21
242.5495892413
 31
0.0
  0
SPLINE
  5
21D
330
1F
100
AcDbEntity
  8
0
  6
Continuous
 62
     7
370
    15
100
AcDbSpline
210
0.0
220
0.0
230
1.0
 70
     8
 71
     3
 72
    11
 73
     7
 74
     0
 42
0.00000001
 43
0.00000001
 40
0.0
 40
0.0
 40
0.0
 40
0.0
 40
0.2547151868506179
 40
0.5096070911609745
 40
0.7645000784892692
 40
1.0
 40
1.0
 40
1.0
 40
1.0
 10
257.4247709045692
 20
242.496255908006
 30
0.0
 10
257.4318475391219
 20
242.4949543555256
 30
0.0
 10
257.4460057178867
 20
242.4923503475679
 30
0.0
 10
257.4672440372918
 20
242.472356234269
 30
0.0
 10
257.4879549807057
 20
242.4446083539671
 30
0.0
 10
257.5015672557339
 20
242.423202327034
 30
0.0
 10
257.5081042379026
 20
242.4129225746727
 30
0.0
  0
LINE
  5
21E
330
1F
100
AcDbEntity
  8
0
  6
Continuous
 62
     7
370
    15
100
AcDbLine
 10
257.4247709046
 20
242.496255908
 30
0.0
 11
257.4247709046
 21
242.5495892413
 31
0.0
  0
LINE
  5
21F
330
1F
100
AcDbEntity
  8
0
  6
Continuous
 62
     7
370
    15
100
AcDbLine
 10
261.1047709046
 20
242.4129225747
 30
0.0
 11
261.1047709046
 21
233.5886150103
 31
0.0
  0
LINE
  5
220
330
1F
100
AcDbEntity
  8
0
  6
Continuous
 62
     7
370
    15
100
AcDbLine
 10
261.1047709046
 20
230.7885506587
 30
0.0
 11
261.1047709046
 21
226.8739325667
 31
0.0
  0
LINE
  5
221
330
1F
100
AcDbEntity
  8
0
  6
Continuous
 62
     7
370
    15
100
AcDbLine
 10
261.1047709046
 20
224.6219609425
 30
0.0
 11
261.1047709046
 21
223.6995892413
 31
0.0
  0
LINE
  5
222
330
1F
100
AcDbEntity
  8
0
  6
Continuous
 62
     7
370
    15
100
AcDbLine
 10
261.1047709046
 20
242.4129225747
 30
0.0
 11
260.9681042379
 21
242.4129225747
 31
0.0
  0
LINE
  5
223
330
1F
100
AcDbEntity
  8
0
  6
Continuous
 62
     7
370
    15
100
AcDbLine
 10
260.9681042379
 20
223.6995892413
 30
0.0
 11
261.1047709046
 21
223.6995892413
 31
0.0
  0
LINE
  5
224
330
1F
100
AcDbEntity
  8
0
  6
Continuous
 62
     7
370
    15
100
AcDbLine
 10
257.3782644492
 20
242.4957845035
 30
0.0
 11
257.4247709046
 21
242.4957845035
 31
0.0
  0
LINE
  5
225
330
1F
100
AcDbEntity
  8
0
  6
Continuous
 62
     7
370
    15
100
AcDbLine
 10
257.4247709046
 20
242.4129225747
 30
0.0
 11
257.4247709046
 21
242.4957845035
 31
0.0
  0
LINE
  5
226
330
1F
100
AcDbEntity
  8
0
  6
Continuous
 62
     7
370
    15
100
AcDbLine
 10
257.3782644492
 20
223.6167273125
 30
0.0
 11
257.4247709046
 21
223.6167273125
 31
0.0
  0
LINE
  5
227
330
1F
100
AcDbEntity
  8
0
  6
Continuous
 62
     7
370
    15
100
AcDbLine
 10
257.4247709046
 20
223.6995892413
 30
0.0
 11
257.4247709046
 21
223.6167273125
 31
0.0
  0
SPLINE
  5
228
330
1F
100
AcDbEntity
  8
0
  6
Continuous
 62
     7
370
    15
100
AcDbSpline
210
0.0
220
0.0
230
1.0
 70
     8
 71
     3
 72
    12
 73
     8
 74
     0
 42
0.00000001
 43
0.00000001
 40
0.0
 40
0.0
 40
0.0
 40
0.0
 40
0.2303402726698903
 40
0.4607650531841398
 40
0.6911902299723135
 40
0.9216152586331443
 40
1.0
 40
1.0
 40
1.0
 40
1.0
 10
260.9681042379025
 20
223.5629225746727
 30
0.0
 10
260.9845883562184
 20
223.564663663112
 30
0.0
 10
261.0175626405867
 20
223.5681464787656
 30
0.0
 10
261.0606601749995
 20
223.5951659913329
 30
0.0
 10
261.0915880139606
 20
223.6344185314603
 30
0.0
 10
261.1037300719052
 20
223.6720087017512
 30
0.0
 10
261.1045601954895
 20
223.6940057596558
 30
0.0
 10
261.1047709045692
 20
223.6995892413394
 30
0.0
  0
SPLINE
  5
229
330
1F
100
AcDbEntity
  8
0
  6
Continuous
 62
     7
370
    15
100
AcDbSpline
210
0.0
220
0.0
230
1.0
 70
     8
 71
     3
 72
    11
 73
     7
 74
     0
 42
0.00000001
 43
0.00000001
 40
0.0
 40
0.0
 40
0.0
 40
0.0
 40
0.2547151868506328
 40
0.5096070911609994
 40
0.7645000784893047
 40
1.0
 40
1.0
 40
1.0
 40
1.0
 10
260.9681042379025
 20
223.6162559080061
 30
0.0
 10
260.9792312886962
 20
223.6175574604864
 30
0.0
 10
261.0014931100592
 20
223.6201614684443
 30
0.0
 10
261.029385697146
 20
223.6401555817432
 30
0.0
 10
261.0480055438227
 20
223.6679034620451
 30
0.0
 10
261.0503241256243
 20
223.6893094889781
 30
0.0
 10
261.051437571236
 20
223.6995892413394
 30
0.0
  0
SPLINE
  5
22A
330
1F
100
AcDbEntity
  8
0
  6
Continuous
 62
     7
370
    15
100
AcDbSpline
210
0.0
220
0.0
230
1.0
 70
     8
 71
     3
 72
    12
 73
     8
 74
     0
 42
0.00000001
 43
0.00000001
 40
0.0
 40
0.0
 40
0.0
 40
0.0
 40
0.230340272669909
 40
0.4607650531841703
 40
0.6911902299723518
 40
0.9216152586331992
 40
1.0
 40
1.0
 40
1.0
 40
1.0
 10
261.1047709045692
 20
242.4129225746728
 30
0.0
 10
261.10302981613
 20
242.4294066929886
 30
0.0
 10
261.0995470004764
 20
242.4623809773569
 30
0.0
 10
261.072527487909
 20
242.5054785117697
 30
0.0
 10
261.0332749477817
 20
242.5364063507307
 30
0.0
 10
260.9956847774908
 20
242.5485484086753
 30
0.0
 10
260.9736877195862
 20
242.5493785322597
 30
0.0
 10
260.9681042379025
 20
242.5495892413394
 30
0.0
  0
SPLINE
  5
22B
330
1F
100
AcDbEntity
  8
0
  6
Continuous
 62
     7
370
    15
100
AcDbSpline
210
0.0
220
0.0
230
1.0
 70
     8
 71
     3
 72
    11
 73
     7
 74
     0
 42
0.00000001
 43
0.00000001
 40
0.0
 40
0.0
 40
0.0
 40
0.0
 40
0.2547151868506541
 40
0.5096070911610077
 40
0.7645000784893443
 40
1.0
 40
1.0
 40
1.0
 40
1.0
 10
261.0514375712359
 20
242.4129225746728
 30
0.0
 10
261.0501360187555
 20
242.4240496254664
 30
0.0
 10
261.0475320107977
 20
242.4463114468294
 30
0.0
 10
261.0275378974988
 20
242.4742040339162
 30
0.0
 10
260.9997900171969
 20
242.4928238805929
 30
0.0
 10
260.9783839902639
 20
242.4951424623945
 30
0.0
 10
260.9681042379025
 20
242.496255908006
 30
0.0
  0
LINE
  5
22C
330
1F
100
AcDbEntity
  8
0
  6
Continuous
 62
     7
370
    15
100
AcDbLine
 10
228.6782644492
 20
256.1634227294
 30
0.0
 11
228.6782644492
 21
255.296255908
 31
0.0
  0
LINE
  5
22D
330
1F
100
AcDbEntity
  8
0
  6
Continuous
 62
     7
370
    15
100
AcDbLine
 10
228.7549311159
 20
256.1634227294
 30
0.0
 11
228.6782644492
 21
256.1634227294
 31
0.0
  0
LINE
  5
22E
330
1F
100
AcDbEntity
  8
0
  6
Continuous
 62
     7
370
    15
100
AcDbLine
 10
228.7549311159
 20
256.1634227294
 30
0.0
 11
234.7477482299
 21
257.112591714
 31
0.0
  0
LINE
  5
22F
330
1F
100
AcDbEntity
  8
0
  6
Continuous
 62
     7
370
    15
100
AcDbLine
 10
234.8197913308
 20
257.1388132583
 30
0.0
 11
234.7477482299
 21
257.112591714
 31
0.0
  0
LINE
  5
230
330
1F
100
AcDbEntity
  8
0
  6
Continuous
 62
     7
370
    15
100
AcDbLine
 10
235.4904273613
 20
255.296255908
 30
0.0
 11
234.8197913308
 21
257.1388132583
 31
0.0
  0
LINE
  5
231
330
1F
100
AcDbEntity
  8
0
  6
Continuous
 62
     7
370
    15
100
AcDbLine
 10
234.7221972673
 20
257.2739141429
 30
0.0
 11
234.7477482299
 21
257.112591714
 31
0.0
  0
LINE
  5
232
330
1F
100
AcDbEntity
  8
0
  6
Continuous
 62
     7
370
    15
100
AcDbLine
 10
228.7293801533
 20
256.3247451583
 30
0.0
 11
234.7221972673
 21
257.2739141429
 31
0.0
  0
LINE
  5
233
330
1F
100
AcDbEntity
  8
0
  6
Continuous
 62
     7
370
    15
100
AcDbLine
 10
228.7549311159
 20
256.1634227294
 30
0.0
 11
228.7293801533
 21
256.3247451583
 31
0.0
  0
LINE
  5
234
330
1F
100
AcDbEntity
  8
0
  6
Continuous
 62
     7
370
    15
100
AcDbLine
 10
228.5915977825
 20
255.3795892413
 30
0.0
 11
228.5915977825
 21
256.1634227294
 31
0.0
  0
LINE
  5
235
330
1F
100
AcDbEntity
  8
0
  6
Continuous
 62
     7
370
    15
100
AcDbLine
 10
228.6715977825
 20
255.3795892413
 30
0.0
 11
228.6715977825
 21
256.1634227294
 31
0.0
  0
LINE
  5
236
330
1F
100
AcDbEntity
  8
0
  6
Continuous
 62
     7
370
    15
100
AcDbLine
 10
228.5915977825
 20
255.3795892413
 30
0.0
 11
228.6715977825
 21
255.3795892413
 31
0.0
  0
LINE
  5
237
330
1F
100
AcDbEntity
  8
0
  6
Continuous
 62
     7
370
    15
100
AcDbLine
 10
228.6715977825
 20
256.1634227294
 30
0.0
 11
228.5915977825
 21
256.1634227294
 31
0.0
  0
LINE
  5
238
330
1F
100
AcDbEntity
  8
0
  6
Continuous
 62
     7
370
    15
100
AcDbLine
 10
235.5637031943
 20
255.3483285928
 30
0.0
 11
235.4885277846
 21
255.3209669813
 31
0.0
  0
LINE
  5
239
330
1F
100
AcDbEntity
  8
0
  6
Continuous
 62
     7
370
    15
100
AcDbLine
 10
234.8260559483
 20
257.1410933926
 30
0.0
 11
234.901231358
 21
257.168455004
 31
0.0
  0
LINE
  5
23A
330
1F
100
AcDbEntity
  8
0
  6
Continuous
 62
     7
370
    15
100
AcDbLine
 10
235.4885277846
 20
255.3209669813
 30
0.0
 11
234.8260559483
 21
257.1410933926
 31
0.0
  0
LINE
  5
23B
330
1F
100
AcDbEntity
  8
0
  6
Continuous
 62
     7
370
    15
100
AcDbLine
 10
235.5637031943
 20
255.3483285928
 30
0.0
 11
234.901231358
 21
257.168455004
 31
0.0
  0
SPLINE
  5
23C
330
1F
100
AcDbEntity
  8
0
  6
Continuous
 62
     7
370
    15
100
AcDbSpline
210
0.0
220
0.0
230
1.0
 70
     8
 71
     3
 72
     9
 73
     5
 74
     0
 42
0.00000001
 43
0.00000001
 40
0.0
 40
0.0
 40
0.0
 40
0.0
 40
0.4698167470901057
 40
1.0
 40
1.0
 40
1.0
 40
1.0
 10
257.3193396063229
 20
255.1595892413378
 30
0.0
 10
257.3180983196474
 20
255.1710100176641
 30
0.0
 10
257.3154562540269
 20
255.1953190198379
 30
0.0
 10
257.2998750527941
 20
255.2142684565558
 30
0.0
 10
257.2916141608403
 20
255.2243151305557
 30
0.0
  0
ARC
  5
23D
330
1F
100
AcDbEntity
  8
0
  6
Continuous
 62
     7
370
    15
100
AcDbCircle
 10
228.7549311159
 20
256.1634227294
 30
0.0
 40
0.1633333333333649
100
AcDbArc
 50
99.0
 51
180.0
  0
ARC
  5
23E
330
1F
100
AcDbEntity
  8
0
  6
Continuous
 62
     7
370
    15
100
AcDbCircle
 10
228.7549311159
 20
256.1634227294
 30
0.0
 40
0.0833333333333588
100
AcDbArc
 50
99.0
 51
180.0
  0
ARC
  5
23F
330
1F
100
AcDbEntity
  8
0
  6
Continuous
 62
     7
370
    15
100
AcDbCircle
 10
228.5082644492
 20
255.3795892413
 30
0.0
 40
0.0833333333333712
100
AcDbArc
 50
270.0
 51
0.0
  0
ARC
  5
240
330
1F
100
AcDbEntity
  8
0
  6
Continuous
 62
     7
370
    15
100
AcDbCircle
 10
228.5082644492
 20
255.3795892413
 30
0.0
 40
0.1633333333333289
100
AcDbArc
 50
329.3225755261
 51
0.0
  0
ARC
  5
241
330
1F
100
AcDbEntity
  8
0
  6
Continuous
 62
     7
370
    15
100
AcDbCircle
 10
234.7477482299
 20
257.112591714
 30
0.0
 40
0.1633333333333605
100
AcDbArc
 50
20.0
 51
99.0
  0
ARC
  5
242
330
1F
100
AcDbEntity
  8
0
  6
Continuous
 62
     7
370
    15
100
AcDbCircle
 10
234.7477482299
 20
257.112591714
 30
0.0
 40
0.0833333333333479
100
AcDbArc
 50
20.0
 51
99.0
  0
ARC
  5
243
330
1F
100
AcDbEntity
  8
0
  6
Continuous
 62
     7
370
    15
100
AcDbCircle
 10
235.6420109127
 20
255.3768302714
 30
0.0
 40
0.0833333333333772
100
AcDbArc
 50
200.0
 51
255.215478178
  0
LWPOLYLINE
  5
244
330
1F
100
AcDbEntity
  8
0
  6
Continuous
 62
     7
370
    15
100
AcDbPolyline
 90
        3
 70
   128
 43
0.0
 10
235.4885277846
 20
255.3209669813
 10
235.4988122092
 20
255.2982687725
 10
235.4999350536
 20
255.296255908
  0
LINE
  5
245
330
1F
100
AcDbEntity
  8
0
  6
Continuous
 62
     7
370
    15
100
AcDbLine
 10
237.5767204363
 20
253.776255908
 30
0.0
 11
237.8049311159
 21
253.7482351599
 31
0.0
  0
LINE
  5
246
330
1F
100
AcDbEntity
  8
0
  6
Continuous
 62
     7
370
    15
100
AcDbLine
 10
238.4715977825
 20
253.666378786
 30
0.0
 11
238.8049311159
 21
253.625450599
 31
0.0
  0
LINE
  5
247
330
1F
100
AcDbEntity
  8
0
  6
Continuous
 62
     7
370
    15
100
AcDbLine
 10
239.4715977825
 20
253.5435942251
 30
0.0
 11
239.8049311159
 21
253.5026660381
 31
0.0
  0
LINE
  5
248
330
1F
100
AcDbEntity
  8
0
  6
Continuous
 62
     7
370
    15
100
AcDbLine
 10
240.4715977825
 20
253.4208096642
 30
0.0
 11
240.8049311159
 21
253.3798814772
 31
0.0
  0
LINE
  5
249
330
1F
100
AcDbEntity
  8
0
  6
Continuous
 62
     7
370
    15
100
AcDbLine
 10
241.4715977825
 20
253.2980251033
 30
0.0
 11
241.8049311159
 21
253.2570969163
 31
0.0
  0
LINE
  5
24A
330
1F
100
AcDbEntity
  8
0
  6
Continuous
 62
     7
370
    15
100
AcDbLine
 10
242.4715977825
 20
253.1752405424
 30
0.0
 11
242.8049311159
 21
253.1343123554
 31
0.0
  0
LINE
  5
24B
330
1F
100
AcDbEntity
  8
0
  6
Continuous
 62
     7
370
    15
100
AcDbLine
 10
243.4715977825
 20
253.0524559815
 30
0.0
 11
243.8049311159
 21
253.0115277945
 31
0.0
  0
LINE
  5
24C
330
1F
100
AcDbEntity
  8
0
  6
Continuous
 62
     7
370
    15
100
AcDbLine
 10
244.4715977825
 20
252.9296714206
 30
0.0
 11
244.8049311159
 21
252.8887432336
 31
0.0
  0
LINE
  5
24D
330
1F
100
AcDbEntity
  8
0
  6
Continuous
 62
     7
370
    15
100
AcDbLine
 10
245.4715977825
 20
252.8068868597
 30
0.0
 11
245.8049311159
 21
252.7659586727
 31
0.0
  0
LINE
  5
24E
330
1F
100
AcDbEntity
  8
0
  6
Continuous
 62
     7
370
    15
100
AcDbLine
 10
246.4715977825
 20
252.6841022988
 30
0.0
 11
246.8049311159
 21
252.6431741118
 31
0.0
  0
LINE
  5
24F
330
1F
100
AcDbEntity
  8
0
  6
Continuous
 62
     7
370
    15
100
AcDbLine
 10
247.4715977825
 20
252.5613177379
 30
0.0
 11
247.8049311159
 21
252.5203895509
 31
0.0
  0
LINE
  5
250
330
1F
100
AcDbEntity
  8
0
  6
Continuous
 62
     7
370
    15
100
AcDbLine
 10
248.4715977825
 20
252.438533177
 30
0.0
 11
248.8049311159
 21
252.39760499
 31
0.0
  0
LINE
  5
251
330
1F
100
AcDbEntity
  8
0
  6
Continuous
 62
     7
370
    15
100
AcDbLine
 10
249.4715977825
 20
252.315748616
 30
0.0
 11
249.8049311159
 21
252.2748204291
 31
0.0
  0
LINE
  5
252
330
1F
100
AcDbEntity
  8
0
  6
Continuous
 62
     7
370
    15
100
AcDbLine
 10
250.4715977825
 20
252.1929640551
 30
0.0
 11
250.8049311159
 21
252.1520358682
 31
0.0
  0
LINE
  5
253
330
1F
100
AcDbEntity
  8
0
  6
Continuous
 62
     7
370
    15
100
AcDbLine
 10
251.4715977825
 20
252.0701794942
 30
0.0
 11
251.8049311159
 21
252.0292513073
 31
0.0
  0
LINE
  5
254
330
1F
100
AcDbEntity
  8
0
  6
Continuous
 62
     7
370
    15
100
AcDbLine
 10
252.4715977825
 20
251.9473949333
 30
0.0
 11
252.8049311159
 21
251.9064667464
 31
0.0
  0
LINE
  5
255
330
1F
100
AcDbEntity
  8
0
  6
Continuous
 62
     7
370
    15
100
AcDbLine
 10
253.4715977825
 20
251.8246103724
 30
0.0
 11
253.8049311159
 21
251.7836821855
 31
0.0
  0
LINE
  5
256
330
1F
100
AcDbEntity
  8
0
  6
Continuous
 62
     7
370
    15
100
AcDbLine
 10
254.4715977825
 20
251.7018258115
 30
0.0
 11
254.8049311159
 21
251.6608976246
 31
0.0
  0
LINE
  5
257
330
1F
100
AcDbEntity
  8
0
  6
Continuous
 62
     7
370
    15
100
AcDbLine
 10
255.4715977825
 20
251.5790412506
 30
0.0
 11
255.6247709046
 21
251.5602339561
 31
0.0
  0
LINE
  5
258
330
1F
100
AcDbEntity
  8
0
  6
Continuous
 62
     7
370
    15
100
AcDbLine
 10
228.7249311159
 20
253.776255908
 30
0.0
 11
228.7249311159
 21
251.2629225747
 31
0.0
  0
LINE
  5
259
330
1F
100
AcDbEntity
  8
0
  6
Continuous
 62
     7
370
    15
100
AcDbLine
 10
255.6714375712
 20
253.2291178368
 30
0.0
 11
255.6714375712
 21
253.176255908
 31
0.0
  0
LINE
  5
25A
330
1F
100
AcDbEntity
  8
0
  6
Continuous
 62
     7
370
    15
100
AcDbLine
 10
255.8049311159
 20
253.2291178368
 30
0.0
 11
255.6714375712
 21
253.2291178368
 31
0.0
  0
LINE
  5
25B
330
1F
100
AcDbEntity
  8
0
  6
Continuous
 62
     7
370
    15
100
AcDbLine
 10
255.6714375712
 20
253.3295892413
 30
0.0
 11
255.6714375712
 21
253.2295892413
 31
0.0
  0
LINE
  5
25C
330
1F
100
AcDbEntity
  8
0
  6
Continuous
 62
     7
370
    15
100
AcDbLine
 10
255.8049311159
 20
253.2295892413
 30
0.0
 11
255.6714375712
 21
253.2295892413
 31
0.0
  0
LINE
  5
25D
330
1F
100
AcDbEntity
  8
0
  6
Continuous
 62
     7
370
    15
100
AcDbLine
 10
255.8049311159
 20
253.3295892413
 30
0.0
 11
255.6714375712
 21
253.3295892413
 31
0.0
  0
LINE
  5
25E
330
1F
100
AcDbEntity
  8
0
  6
Continuous
 62
     7
370
    15
100
AcDbLine
 10
255.6247709046
 20
251.2629225747
 30
0.0
 11
255.6247709046
 21
253.176255908
 31
0.0
  0
LINE
  5
25F
330
1F
100
AcDbEntity
  8
0
  6
Continuous
 62
     7
370
    15
100
AcDbLine
 10
255.6247709046
 20
253.176255908
 30
0.0
 11
255.8049311159
 21
253.176255908
 31
0.0
  0
LINE
  5
260
330
1F
100
AcDbEntity
  8
0
  6
Continuous
 62
     7
370
    15
100
AcDbLine
 10
223.8582644492
 20
255.2429225747
 30
0.0
 11
223.8582644492
 21
255.1595892413
 31
0.0
  0
ARC
  5
261
330
1F
100
AcDbEntity
  8
0
  6
Continuous
 62
     7
370
    15
100
AcDbCircle
 10
257.2349311159
 20
255.1595892413
 30
0.0
 40
0.0833333333333712
100
AcDbArc
 50
0.0
 51
77.1725940539
  0
LINE
  5
262
330
1F
100
AcDbEntity
  8
0
  6
Continuous
 62
     7
370
    15
100
AcDbLine
 10
257.2449311159
 20
223.616255908
 30
0.0
 11
257.2449311159
 21
223.6167273125
 31
0.0
  0
LINE
  5
263
330
1F
100
AcDbEntity
  8
0
  6
Continuous
 62
     7
370
    15
100
AcDbLine
 10
225.9582644492
 20
223.6995892413
 30
0.0
 11
225.9915977825
 21
223.6995892413
 31
0.0
  0
LINE
  5
264
330
1F
100
AcDbEntity
  8
0
  6
Continuous
 62
     7
370
    15
100
AcDbLine
 10
225.9582644492
 20
223.616255908
 30
0.0
 11
225.9582644492
 21
223.6995892413
 31
0.0
  0
LINE
  5
265
330
1F
100
AcDbEntity
  8
0
  6
Continuous
 62
     7
370
    15
100
AcDbLine
 10
223.9415977825
 20
223.616255908
 30
0.0
 11
225.9582644492
 21
223.616255908
 31
0.0
  0
LINE
  5
266
330
1F
100
AcDbEntity
  8
0
  6
Continuous
 62
     7
370
    15
100
AcDbLine
 10
223.9415977825
 20
255.1595892413
 30
0.0
 11
223.9415977825
 21
223.616255908
 31
0.0
  0
LINE
  5
267
330
1F
100
AcDbEntity
  8
0
  6
Continuous
 62
     7
370
    15
100
AcDbLine
 10
223.9449311159
 20
255.1595892413
 30
0.0
 11
223.9415977825
 21
255.1595892413
 31
0.0
  0
LINE
  5
268
330
1F
100
AcDbEntity
  8
0
  6
Continuous
 62
     7
370
    15
100
AcDbLine
 10
257.2415977825
 20
255.1595892413
 30
0.0
 11
223.9449311159
 21
255.1595892413
 31
0.0
  0
LINE
  5
269
330
1F
100
AcDbEntity
  8
0
  6
Continuous
 62
     7
370
    15
100
AcDbLine
 10
257.2415977825
 20
223.6995892413
 30
0.0
 11
257.2415977825
 21
255.1595892413
 31
0.0
  0
LINE
  5
26A
330
1F
100
AcDbEntity
  8
0
  6
Continuous
 62
     7
370
    15
100
AcDbLine
 10
225.9915977825
 20
223.6995892413
 30
0.0
 11
257.2415977825
 21
223.6995892413
 31
0.0
  0
LINE
  5
26B
330
1F
100
AcDbEntity
  8
0
  6
Continuous
 62
     7
370
    15
100
AcDbLine
 10
255.8049311159
 20
254.996255908
 30
0.0
 11
255.4715977825
 21
254.996255908
 31
0.0
  0
LINE
  5
26C
330
1F
100
AcDbEntity
  8
0
  6
Continuous
 62
     7
370
    15
100
AcDbLine
 10
255.4715977825
 20
254.996255908
 30
0.0
 11
255.4715977825
 21
251.2629225747
 31
0.0
  0
LINE
  5
26D
330
1F
100
AcDbEntity
  8
0
  6
Continuous
 62
     7
370
    15
100
AcDbLine
 10
255.4715977825
 20
251.2629225747
 30
0.0
 11
255.8049311159
 21
251.2629225747
 31
0.0
  0
LINE
  5
26E
330
1F
100
AcDbEntity
  8
0
  6
Continuous
 62
     7
370
    15
100
AcDbLine
 10
255.8049311159
 20
251.2629225747
 30
0.0
 11
255.8049311159
 21
254.996255908
 31
0.0
  0
LINE
  5
26F
330
1F
100
AcDbEntity
  8
0
  6
Continuous
 62
     7
370
    15
100
AcDbLine
 10
253.8049311159
 20
254.996255908
 30
0.0
 11
253.4715977825
 21
254.996255908
 31
0.0
  0
LINE
  5
270
330
1F
100
AcDbEntity
  8
0
  6
Continuous
 62
     7
370
    15
100
AcDbLine
 10
253.4715977825
 20
254.996255908
 30
0.0
 11
253.4715977825
 21
251.2629225747
 31
0.0
  0
LINE
  5
271
330
1F
100
AcDbEntity
  8
0
  6
Continuous
 62
     7
370
    15
100
AcDbLine
 10
253.4715977825
 20
251.2629225747
 30
0.0
 11
253.8049311159
 21
251.2629225747
 31
0.0
  0
LINE
  5
272
330
1F
100
AcDbEntity
  8
0
  6
Continuous
 62
     7
370
    15
100
AcDbLine
 10
253.8049311159
 20
251.2629225747
 30
0.0
 11
253.8049311159
 21
254.996255908
 31
0.0
  0
LINE
  5
273
330
1F
100
AcDbEntity
  8
0
  6
Continuous
 62
     7
370
    15
100
AcDbLine
 10
251.8049311159
 20
254.996255908
 30
0.0
 11
251.4715977825
 21
254.996255908
 31
0.0
  0
LINE
  5
274
330
1F
100
AcDbEntity
  8
0
  6
Continuous
 62
     7
370
    15
100
AcDbLine
 10
251.4715977825
 20
254.996255908
 30
0.0
 11
251.4715977825
 21
251.2629225747
 31
0.0
  0
LINE
  5
275
330
1F
100
AcDbEntity
  8
0
  6
Continuous
 62
     7
370
    15
100
AcDbLine
 10
251.4715977825
 20
251.2629225747
 30
0.0
 11
251.8049311159
 21
251.2629225747
 31
0.0
  0
LINE
  5
276
330
1F
100
AcDbEntity
  8
0
  6
Continuous
 62
     7
370
    15
100
AcDbLine
 10
251.8049311159
 20
251.2629225747
 30
0.0
 11
251.8049311159
 21
254.996255908
 31
0.0
  0
LINE
  5
277
330
1F
100
AcDbEntity
  8
0
  6
Continuous
 62
     7
370
    15
100
AcDbLine
 10
249.8049311159
 20
254.996255908
 30
0.0
 11
249.4715977825
 21
254.996255908
 31
0.0
  0
LINE
  5
278
330
1F
100
AcDbEntity
  8
0
  6
Continuous
 62
     7
370
    15
100
AcDbLine
 10
249.4715977825
 20
254.996255908
 30
0.0
 11
249.4715977825
 21
251.2629225747
 31
0.0
  0
LINE
  5
279
330
1F
100
AcDbEntity
  8
0
  6
Continuous
 62
     7
370
    15
100
AcDbLine
 10
249.4715977825
 20
251.2629225747
 30
0.0
 11
249.8049311159
 21
251.2629225747
 31
0.0
  0
LINE
  5
27A
330
1F
100
AcDbEntity
  8
0
  6
Continuous
 62
     7
370
    15
100
AcDbLine
 10
249.8049311159
 20
251.2629225747
 30
0.0
 11
249.8049311159
 21
254.996255908
 31
0.0
  0
LINE
  5
27B
330
1F
100
AcDbEntity
  8
0
  6
Continuous
 62
     7
370
    15
100
AcDbLine
 10
247.8049311159
 20
254.996255908
 30
0.0
 11
247.4715977825
 21
254.996255908
 31
0.0
  0
LINE
  5
27C
330
1F
100
AcDbEntity
  8
0
  6
Continuous
 62
     7
370
    15
100
AcDbLine
 10
247.4715977825
 20
254.996255908
 30
0.0
 11
247.4715977825
 21
251.2629225747
 31
0.0
  0
LINE
  5
27D
330
1F
100
AcDbEntity
  8
0
  6
Continuous
 62
     7
370
    15
100
AcDbLine
 10
247.4715977825
 20
251.2629225747
 30
0.0
 11
247.8049311159
 21
251.2629225747
 31
0.0
  0
LINE
  5
27E
330
1F
100
AcDbEntity
  8
0
  6
Continuous
 62
     7
370
    15
100
AcDbLine
 10
247.8049311159
 20
251.2629225747
 30
0.0
 11
247.8049311159
 21
254.996255908
 31
0.0
  0
LINE
  5
27F
330
1F
100
AcDbEntity
  8
0
  6
Continuous
 62
     7
370
    15
100
AcDbLine
 10
245.8049311159
 20
254.996255908
 30
0.0
 11
245.4715977825
 21
254.996255908
 31
0.0
  0
LINE
  5
280
330
1F
100
AcDbEntity
  8
0
  6
Continuous
 62
     7
370
    15
100
AcDbLine
 10
245.4715977825
 20
254.996255908
 30
0.0
 11
245.4715977825
 21
251.2629225747
 31
0.0
  0
LINE
  5
281
330
1F
100
AcDbEntity
  8
0
  6
Continuous
 62
     7
370
    15
100
AcDbLine
 10
245.4715977825
 20
251.2629225747
 30
0.0
 11
245.8049311159
 21
251.2629225747
 31
0.0
  0
LINE
  5
282
330
1F
100
AcDbEntity
  8
0
  6
Continuous
 62
     7
370
    15
100
AcDbLine
 10
245.8049311159
 20
251.2629225747
 30
0.0
 11
245.8049311159
 21
254.996255908
 31
0.0
  0
LINE
  5
283
330
1F
100
AcDbEntity
  8
0
  6
Continuous
 62
     7
370
    15
100
AcDbLine
 10
243.8049311159
 20
254.996255908
 30
0.0
 11
243.4715977825
 21
254.996255908
 31
0.0
  0
LINE
  5
284
330
1F
100
AcDbEntity
  8
0
  6
Continuous
 62
     7
370
    15
100
AcDbLine
 10
243.4715977825
 20
254.996255908
 30
0.0
 11
243.4715977825
 21
251.2629225747
 31
0.0
  0
LINE
  5
285
330
1F
100
AcDbEntity
  8
0
  6
Continuous
 62
     7
370
    15
100
AcDbLine
 10
243.4715977825
 20
251.2629225747
 30
0.0
 11
243.8049311159
 21
251.2629225747
 31
0.0
  0
LINE
  5
286
330
1F
100
AcDbEntity
  8
0
  6
Continuous
 62
     7
370
    15
100
AcDbLine
 10
243.8049311159
 20
251.2629225747
 30
0.0
 11
243.8049311159
 21
254.996255908
 31
0.0
  0
LINE
  5
287
330
1F
100
AcDbEntity
  8
0
  6
Continuous
 62
     7
370
    15
100
AcDbLine
 10
241.8049311159
 20
254.996255908
 30
0.0
 11
241.4715977825
 21
254.996255908
 31
0.0
  0
LINE
  5
288
330
1F
100
AcDbEntity
  8
0
  6
Continuous
 62
     7
370
    15
100
AcDbLine
 10
241.4715977825
 20
254.996255908
 30
0.0
 11
241.4715977825
 21
251.2629225747
 31
0.0
  0
LINE
  5
289
330
1F
100
AcDbEntity
  8
0
  6
Continuous
 62
     7
370
    15
100
AcDbLine
 10
241.4715977825
 20
251.2629225747
 30
0.0
 11
241.8049311159
 21
251.2629225747
 31
0.0
  0
LINE
  5
28A
330
1F
100
AcDbEntity
  8
0
  6
Continuous
 62
     7
370
    15
100
AcDbLine
 10
241.8049311159
 20
251.2629225747
 30
0.0
 11
241.8049311159
 21
254.996255908
 31
0.0
  0
ARC
  5
28B
330
1F
100
AcDbEntity
  8
0
  6
Continuous
 62
     7
370
    15
100
AcDbCircle
 10
239.6382644492
 20
254.596255908
 30
0.0
 40
0.3765388528472751
100
AcDbArc
 50
296.2716831085
 51
243.7283168915
  0
LINE
  5
28C
330
1F
100
AcDbEntity
  8
0
  6
Continuous
 62
     7
370
    15
100
AcDbLine
 10
239.4715977825
 20
254.2586115242
 30
0.0
 11
239.4715977825
 21
251.2629225747
 31
0.0
  0
LINE
  5
28D
330
1F
100
AcDbEntity
  8
0
  6
Continuous
 62
     7
370
    15
100
AcDbLine
 10
239.4715977825
 20
251.2629225747
 30
0.0
 11
239.8049311159
 21
251.2629225747
 31
0.0
  0
LINE
  5
28E
330
1F
100
AcDbEntity
  8
0
  6
Continuous
 62
     7
370
    15
100
AcDbLine
 10
239.8049311159
 20
251.2629225747
 30
0.0
 11
239.8049311159
 21
254.2586115242
 31
0.0
  0
LINE
  5
28F
330
1F
100
AcDbEntity
  8
0
  6
Continuous
 62
     7
370
    15
100
AcDbLine
 10
237.8049311159
 20
254.996255908
 30
0.0
 11
237.4715977825
 21
254.996255908
 31
0.0
  0
LINE
  5
290
330
1F
100
AcDbEntity
  8
0
  6
Continuous
 62
     7
370
    15
100
AcDbLine
 10
237.4715977825
 20
254.996255908
 30
0.0
 11
237.4715977825
 21
251.2629225747
 31
0.0
  0
LINE
  5
291
330
1F
100
AcDbEntity
  8
0
  6
Continuous
 62
     7
370
    15
100
AcDbLine
 10
237.4715977825
 20
251.2629225747
 30
0.0
 11
237.8049311159
 21
251.2629225747
 31
0.0
  0
LINE
  5
292
330
1F
100
AcDbEntity
  8
0
  6
Continuous
 62
     7
370
    15
100
AcDbLine
 10
237.8049311159
 20
251.2629225747
 30
0.0
 11
237.8049311159
 21
254.996255908
 31
0.0
  0
LINE
  5
293
330
1F
100
AcDbEntity
  8
0
  6
Continuous
 62
     7
370
    15
100
AcDbLine
 10
235.8049311159
 20
254.996255908
 30
0.0
 11
235.4715977825
 21
254.996255908
 31
0.0
  0
LINE
  5
294
330
1F
100
AcDbEntity
  8
0
  6
Continuous
 62
     7
370
    15
100
AcDbLine
 10
235.4715977825
 20
254.996255908
 30
0.0
 11
235.4715977825
 21
251.2629225747
 31
0.0
  0
LINE
  5
295
330
1F
100
AcDbEntity
  8
0
  6
Continuous
 62
     7
370
    15
100
AcDbLine
 10
235.4715977825
 20
251.2629225747
 30
0.0
 11
235.8049311159
 21
251.2629225747
 31
0.0
  0
LINE
  5
296
330
1F
100
AcDbEntity
  8
0
  6
Continuous
 62
     7
370
    15
100
AcDbLine
 10
235.8049311159
 20
251.2629225747
 30
0.0
 11
235.8049311159
 21
254.996255908
 31
0.0
  0
LINE
  5
297
330
1F
100
AcDbEntity
  8
0
  6
Continuous
 62
     7
370
    15
100
AcDbLine
 10
233.8049311159
 20
254.996255908
 30
0.0
 11
233.4715977825
 21
254.996255908
 31
0.0
  0
LINE
  5
298
330
1F
100
AcDbEntity
  8
0
  6
Continuous
 62
     7
370
    15
100
AcDbLine
 10
233.4715977825
 20
254.996255908
 30
0.0
 11
233.4715977825
 21
251.2629225747
 31
0.0
  0
LINE
  5
299
330
1F
100
AcDbEntity
  8
0
  6
Continuous
 62
     7
370
    15
100
AcDbLine
 10
233.4715977825
 20
251.2629225747
 30
0.0
 11
233.8049311159
 21
251.2629225747
 31
0.0
  0
LINE
  5
29A
330
1F
100
AcDbEntity
  8
0
  6
Continuous
 62
     7
370
    15
100
AcDbLine
 10
233.8049311159
 20
251.2629225747
 30
0.0
 11
233.8049311159
 21
254.996255908
 31
0.0
  0
LINE
  5
29B
330
1F
100
AcDbEntity
  8
0
  6
Continuous
 62
     7
370
    15
100
AcDbLine
 10
231.8049311159
 20
254.996255908
 30
0.0
 11
231.4715977825
 21
254.996255908
 31
0.0
  0
LINE
  5
29C
330
1F
100
AcDbEntity
  8
0
  6
Continuous
 62
     7
370
    15
100
AcDbLine
 10
231.4715977825
 20
254.996255908
 30
0.0
 11
231.4715977825
 21
251.2629225747
 31
0.0
  0
LINE
  5
29D
330
1F
100
AcDbEntity
  8
0
  6
Continuous
 62
     7
370
    15
100
AcDbLine
 10
231.4715977825
 20
251.2629225747
 30
0.0
 11
231.8049311159
 21
251.2629225747
 31
0.0
  0
LINE
  5
29E
330
1F
100
AcDbEntity
  8
0
  6
Continuous
 62
     7
370
    15
100
AcDbLine
 10
231.8049311159
 20
251.2629225747
 30
0.0
 11
231.8049311159
 21
254.996255908
 31
0.0
  0
LINE
  5
29F
330
1F
100
AcDbEntity
  8
0
  6
Continuous
 62
     7
370
    15
100
AcDbLine
 10
229.8049311159
 20
254.996255908
 30
0.0
 11
229.4715977825
 21
254.996255908
 31
0.0
  0
LINE
  5
2A0
330
1F
100
AcDbEntity
  8
0
  6
Continuous
 62
     7
370
    15
100
AcDbLine
 10
229.4715977825
 20
254.996255908
 30
0.0
 11
229.4715977825
 21
251.2629225747
 31
0.0
  0
LINE
  5
2A1
330
1F
100
AcDbEntity
  8
0
  6
Continuous
 62
     7
370
    15
100
AcDbLine
 10
229.4715977825
 20
251.2629225747
 30
0.0
 11
229.8049311159
 21
251.2629225747
 31
0.0
  0
LINE
  5
2A2
330
1F
100
AcDbEntity
  8
0
  6
Continuous
 62
     7
370
    15
100
AcDbLine
 10
229.8049311159
 20
251.2629225747
 30
0.0
 11
229.8049311159
 21
254.996255908
 31
0.0
  0
LINE
  5
2A3
330
1F
100
AcDbEntity
  8
0
  6
Continuous
 62
     7
370
    15
100
AcDbLine
 10
227.8049311159
 20
254.996255908
 30
0.0
 11
227.4715977825
 21
254.996255908
 31
0.0
  0
LINE
  5
2A4
330
1F
100
AcDbEntity
  8
0
  6
Continuous
 62
     7
370
    15
100
AcDbLine
 10
227.4715977825
 20
254.996255908
 30
0.0
 11
227.4715977825
 21
251.2629225747
 31
0.0
  0
LINE
  5
2A5
330
1F
100
AcDbEntity
  8
0
  6
Continuous
 62
     7
370
    15
100
AcDbLine
 10
227.4715977825
 20
251.2629225747
 30
0.0
 11
227.8049311159
 21
251.2629225747
 31
0.0
  0
LINE
  5
2A6
330
1F
100
AcDbEntity
  8
0
  6
Continuous
 62
     7
370
    15
100
AcDbLine
 10
227.8049311159
 20
251.2629225747
 30
0.0
 11
227.8049311159
 21
254.996255908
 31
0.0
  0
LINE
  5
2A7
330
1F
100
AcDbEntity
  8
0
  6
Continuous
 62
     7
370
    15
100
AcDbLine
 10
225.4715977825
 20
254.996255908
 30
0.0
 11
225.4715977825
 21
251.2629225747
 31
0.0
  0
LINE
  5
2A8
330
1F
100
AcDbEntity
  8
0
  6
Continuous
 62
     7
370
    15
100
AcDbLine
 10
225.4715977825
 20
251.2629225747
 30
0.0
 11
225.8049311159
 21
251.2629225747
 31
0.0
  0
LINE
  5
2A9
330
1F
100
AcDbEntity
  8
0
  6
Continuous
 62
     7
370
    15
100
AcDbLine
 10
225.8049311159
 20
251.2629225747
 30
0.0
 11
225.8049311159
 21
254.996255908
 31
0.0
  0
LINE
  5
2AA
330
1F
100
AcDbEntity
  8
0
  6
Continuous
 62
     7
370
    15
100
AcDbLine
 10
225.8049311159
 20
254.996255908
 30
0.0
 11
225.4715977825
 21
254.996255908
 31
0.0
  0
ARC
  5
2AB
330
1F
100
AcDbEntity
  8
0
  6
Continuous
 62
     7
370
    15
100
AcDbCircle
 10
226.6382644492
 20
254.596255908
 30
0.0
 40
0.3765388528472751
100
AcDbArc
 50
296.2716831084
 51
243.7283168915
  0
LINE
  5
2AC
330
1F
100
AcDbEntity
  8
0
  6
Continuous
 62
     7
370
    15
100
AcDbLine
 10
226.4715977825
 20
254.2586115242
 30
0.0
 11
226.4715977825
 21
251.2629225747
 31
0.0
  0
LINE
  5
2AD
330
1F
100
AcDbEntity
  8
0
  6
Continuous
 62
     7
370
    15
100
AcDbLine
 10
226.4715977825
 20
251.2629225747
 30
0.0
 11
226.8049311159
 21
251.2629225747
 31
0.0
  0
LINE
  5
2AE
330
1F
100
AcDbEntity
  8
0
  6
Continuous
 62
     7
370
    15
100
AcDbLine
 10
226.8049311159
 20
251.2629225747
 30
0.0
 11
226.8049311159
 21
254.2586115242
 31
0.0
  0
LINE
  5
2AF
330
1F
100
AcDbEntity
  8
0
  6
Continuous
 62
     7
370
    15
100
AcDbLine
 10
228.8049311159
 20
254.996255908
 30
0.0
 11
228.4715977825
 21
254.996255908
 31
0.0
  0
LINE
  5
2B0
330
1F
100
AcDbEntity
  8
0
  6
Continuous
 62
     7
370
    15
100
AcDbLine
 10
228.4715977825
 20
254.996255908
 30
0.0
 11
228.4715977825
 21
251.2629225747
 31
0.0
  0
LINE
  5
2B1
330
1F
100
AcDbEntity
  8
0
  6
Continuous
 62
     7
370
    15
100
AcDbLine
 10
228.4715977825
 20
251.2629225747
 30
0.0
 11
228.8049311159
 21
251.2629225747
 31
0.0
  0
LINE
  5
2B2
330
1F
100
AcDbEntity
  8
0
  6
Continuous
 62
     7
370
    15
100
AcDbLine
 10
228.8049311159
 20
251.2629225747
 30
0.0
 11
228.8049311159
 21
254.996255908
 31
0.0
  0
LINE
  5
2B3
330
1F
100
AcDbEntity
  8
0
  6
Continuous
 62
     7
370
    15
100
AcDbLine
 10
230.8049311159
 20
254.996255908
 30
0.0
 11
230.4715977825
 21
254.996255908
 31
0.0
  0
LINE
  5
2B4
330
1F
100
AcDbEntity
  8
0
  6
Continuous
 62
     7
370
    15
100
AcDbLine
 10
230.4715977825
 20
254.996255908
 30
0.0
 11
230.4715977825
 21
251.2629225747
 31
0.0
  0
LINE
  5
2B5
330
1F
100
AcDbEntity
  8
0
  6
Continuous
 62
     7
370
    15
100
AcDbLine
 10
230.4715977825
 20
251.2629225747
 30
0.0
 11
230.8049311159
 21
251.2629225747
 31
0.0
  0
LINE
  5
2B6
330
1F
100
AcDbEntity
  8
0
  6
Continuous
 62
     7
370
    15
100
AcDbLine
 10
230.8049311159
 20
251.2629225747
 30
0.0
 11
230.8049311159
 21
254.996255908
 31
0.0
  0
LINE
  5
2B7
330
1F
100
AcDbEntity
  8
0
  6
Continuous
 62
     7
370
    15
100
AcDbLine
 10
232.8049311159
 20
254.996255908
 30
0.0
 11
232.4715977825
 21
254.996255908
 31
0.0
  0
LINE
  5
2B8
330
1F
100
AcDbEntity
  8
0
  6
Continuous
 62
     7
370
    15
100
AcDbLine
 10
232.4715977825
 20
254.996255908
 30
0.0
 11
232.4715977825
 21
251.2629225747
 31
0.0
  0
LINE
  5
2B9
330
1F
100
AcDbEntity
  8
0
  6
Continuous
 62
     7
370
    15
100
AcDbLine
 10
232.4715977825
 20
251.2629225747
 30
0.0
 11
232.8049311159
 21
251.2629225747
 31
0.0
  0
LINE
  5
2BA
330
1F
100
AcDbEntity
  8
0
  6
Continuous
 62
     7
370
    15
100
AcDbLine
 10
232.8049311159
 20
251.2629225747
 30
0.0
 11
232.8049311159
 21
254.996255908
 31
0.0
  0
LINE
  5
2BB
330
1F
100
AcDbEntity
  8
0
  6
Continuous
 62
     7
370
    15
100
AcDbLine
 10
234.8049311159
 20
254.996255908
 30
0.0
 11
234.4715977825
 21
254.996255908
 31
0.0
  0
LINE
  5
2BC
330
1F
100
AcDbEntity
  8
0
  6
Continuous
 62
     7
370
    15
100
AcDbLine
 10
234.4715977825
 20
254.996255908
 30
0.0
 11
234.4715977825
 21
251.2629225747
 31
0.0
  0
LINE
  5
2BD
330
1F
100
AcDbEntity
  8
0
  6
Continuous
 62
     7
370
    15
100
AcDbLine
 10
234.4715977825
 20
251.2629225747
 30
0.0
 11
234.8049311159
 21
251.2629225747
 31
0.0
  0
LINE
  5
2BE
330
1F
100
AcDbEntity
  8
0
  6
Continuous
 62
     7
370
    15
100
AcDbLine
 10
234.8049311159
 20
251.2629225747
 30
0.0
 11
234.8049311159
 21
254.996255908
 31
0.0
  0
LINE
  5
2BF
330
1F
100
AcDbEntity
  8
0
  6
Continuous
 62
     7
370
    15
100
AcDbLine
 10
236.8049311159
 20
254.996255908
 30
0.0
 11
236.4715977825
 21
254.996255908
 31
0.0
  0
LINE
  5
2C0
330
1F
100
AcDbEntity
  8
0
  6
Continuous
 62
     7
370
    15
100
AcDbLine
 10
236.4715977825
 20
254.996255908
 30
0.0
 11
236.4715977825
 21
251.2629225747
 31
0.0
  0
LINE
  5
2C1
330
1F
100
AcDbEntity
  8
0
  6
Continuous
 62
     7
370
    15
100
AcDbLine
 10
236.4715977825
 20
251.2629225747
 30
0.0
 11
236.8049311159
 21
251.2629225747
 31
0.0
  0
LINE
  5
2C2
330
1F
100
AcDbEntity
  8
0
  6
Continuous
 62
     7
370
    15
100
AcDbLine
 10
236.8049311159
 20
251.2629225747
 30
0.0
 11
236.8049311159
 21
254.996255908
 31
0.0
  0
LINE
  5
2C3
330
1F
100
AcDbEntity
  8
0
  6
Continuous
 62
     7
370
    15
100
AcDbLine
 10
238.8049311159
 20
254.996255908
 30
0.0
 11
238.4715977825
 21
254.996255908
 31
0.0
  0
LINE
  5
2C4
330
1F
100
AcDbEntity
  8
0
  6
Continuous
 62
     7
370
    15
100
AcDbLine
 10
238.4715977825
 20
254.996255908
 30
0.0
 11
238.4715977825
 21
251.2629225747
 31
0.0
  0
LINE
  5
2C5
330
1F
100
AcDbEntity
  8
0
  6
Continuous
 62
     7
370
    15
100
AcDbLine
 10
238.4715977825
 20
251.2629225747
 30
0.0
 11
238.8049311159
 21
251.2629225747
 31
0.0
  0
LINE
  5
2C6
330
1F
100
AcDbEntity
  8
0
  6
Continuous
 62
     7
370
    15
100
AcDbLine
 10
238.8049311159
 20
251.2629225747
 30
0.0
 11
238.8049311159
 21
254.996255908
 31
0.0
  0
LINE
  5
2C7
330
1F
100
AcDbEntity
  8
0
  6
Continuous
 62
     7
370
    15
100
AcDbLine
 10
240.8049311159
 20
254.996255908
 30
0.0
 11
240.4715977825
 21
254.996255908
 31
0.0
  0
LINE
  5
2C8
330
1F
100
AcDbEntity
  8
0
  6
Continuous
 62
     7
370
    15
100
AcDbLine
 10
240.4715977825
 20
254.996255908
 30
0.0
 11
240.4715977825
 21
251.2629225747
 31
0.0
  0
LINE
  5
2C9
330
1F
100
AcDbEntity
  8
0
  6
Continuous
 62
     7
370
    15
100
AcDbLine
 10
240.4715977825
 20
251.2629225747
 30
0.0
 11
240.8049311159
 21
251.2629225747
 31
0.0
  0
LINE
  5
2CA
330
1F
100
AcDbEntity
  8
0
  6
Continuous
 62
     7
370
    15
100
AcDbLine
 10
240.8049311159
 20
251.2629225747
 30
0.0
 11
240.8049311159
 21
254.996255908
 31
0.0
  0
LINE
  5
2CB
330
1F
100
AcDbEntity
  8
0
  6
Continuous
 62
     7
370
    15
100
AcDbLine
 10
242.8049311159
 20
254.996255908
 30
0.0
 11
242.4715977825
 21
254.996255908
 31
0.0
  0
LINE
  5
2CC
330
1F
100
AcDbEntity
  8
0
  6
Continuous
 62
     7
370
    15
100
AcDbLine
 10
242.4715977825
 20
254.996255908
 30
0.0
 11
242.4715977825
 21
251.2629225747
 31
0.0
  0
LINE
  5
2CD
330
1F
100
AcDbEntity
  8
0
  6
Continuous
 62
     7
370
    15
100
AcDbLine
 10
242.4715977825
 20
251.2629225747
 30
0.0
 11
242.8049311159
 21
251.2629225747
 31
0.0
  0
LINE
  5
2CE
330
1F
100
AcDbEntity
  8
0
  6
Continuous
 62
     7
370
    15
100
AcDbLine
 10
242.8049311159
 20
251.2629225747
 30
0.0
 11
242.8049311159
 21
254.996255908
 31
0.0
  0
LINE
  5
2CF
330
1F
100
AcDbEntity
  8
0
  6
Continuous
 62
     7
370
    15
100
AcDbLine
 10
244.8049311159
 20
254.996255908
 30
0.0
 11
244.4715977825
 21
254.996255908
 31
0.0
  0
LINE
  5
2D0
330
1F
100
AcDbEntity
  8
0
  6
Continuous
 62
     7
370
    15
100
AcDbLine
 10
244.4715977825
 20
254.996255908
 30
0.0
 11
244.4715977825
 21
251.2629225747
 31
0.0
  0
LINE
  5
2D1
330
1F
100
AcDbEntity
  8
0
  6
Continuous
 62
     7
370
    15
100
AcDbLine
 10
244.4715977825
 20
251.2629225747
 30
0.0
 11
244.8049311159
 21
251.2629225747
 31
0.0
  0
LINE
  5
2D2
330
1F
100
AcDbEntity
  8
0
  6
Continuous
 62
     7
370
    15
100
AcDbLine
 10
244.8049311159
 20
251.2629225747
 30
0.0
 11
244.8049311159
 21
254.996255908
 31
0.0
  0
LINE
  5
2D3
330
1F
100
AcDbEntity
  8
0
  6
Continuous
 62
     7
370
    15
100
AcDbLine
 10
246.8049311159
 20
254.996255908
 30
0.0
 11
246.4715977825
 21
254.996255908
 31
0.0
  0
LINE
  5
2D4
330
1F
100
AcDbEntity
  8
0
  6
Continuous
 62
     7
370
    15
100
AcDbLine
 10
246.4715977825
 20
254.996255908
 30
0.0
 11
246.4715977825
 21
251.2629225747
 31
0.0
  0
LINE
  5
2D5
330
1F
100
AcDbEntity
  8
0
  6
Continuous
 62
     7
370
    15
100
AcDbLine
 10
246.4715977825
 20
251.2629225747
 30
0.0
 11
246.8049311159
 21
251.2629225747
 31
0.0
  0
LINE
  5
2D6
330
1F
100
AcDbEntity
  8
0
  6
Continuous
 62
     7
370
    15
100
AcDbLine
 10
246.8049311159
 20
251.2629225747
 30
0.0
 11
246.8049311159
 21
254.996255908
 31
0.0
  0
LINE
  5
2D7
330
1F
100
AcDbEntity
  8
0
  6
Continuous
 62
     7
370
    15
100
AcDbLine
 10
248.8049311159
 20
254.996255908
 30
0.0
 11
248.4715977825
 21
254.996255908
 31
0.0
  0
LINE
  5
2D8
330
1F
100
AcDbEntity
  8
0
  6
Continuous
 62
     7
370
    15
100
AcDbLine
 10
248.4715977825
 20
254.996255908
 30
0.0
 11
248.4715977825
 21
251.2629225747
 31
0.0
  0
LINE
  5
2D9
330
1F
100
AcDbEntity
  8
0
  6
Continuous
 62
     7
370
    15
100
AcDbLine
 10
248.4715977825
 20
251.2629225747
 30
0.0
 11
248.8049311159
 21
251.2629225747
 31
0.0
  0
LINE
  5
2DA
330
1F
100
AcDbEntity
  8
0
  6
Continuous
 62
     7
370
    15
100
AcDbLine
 10
248.8049311159
 20
251.2629225747
 30
0.0
 11
248.8049311159
 21
254.996255908
 31
0.0
  0
LINE
  5
2DB
330
1F
100
AcDbEntity
  8
0
  6
Continuous
 62
     7
370
    15
100
AcDbLine
 10
250.8049311159
 20
254.996255908
 30
0.0
 11
250.4715977825
 21
254.996255908
 31
0.0
  0
LINE
  5
2DC
330
1F
100
AcDbEntity
  8
0
  6
Continuous
 62
     7
370
    15
100
AcDbLine
 10
250.4715977825
 20
254.996255908
 30
0.0
 11
250.4715977825
 21
251.2629225747
 31
0.0
  0
LINE
  5
2DD
330
1F
100
AcDbEntity
  8
0
  6
Continuous
 62
     7
370
    15
100
AcDbLine
 10
250.4715977825
 20
251.2629225747
 30
0.0
 11
250.8049311159
 21
251.2629225747
 31
0.0
  0
LINE
  5
2DE
330
1F
100
AcDbEntity
  8
0
  6
Continuous
 62
     7
370
    15
100
AcDbLine
 10
250.8049311159
 20
251.2629225747
 30
0.0
 11
250.8049311159
 21
254.996255908
 31
0.0
  0
ARC
  5
2DF
330
1F
100
AcDbEntity
  8
0
  6
Continuous
 62
     7
370
    15
100
AcDbCircle
 10
252.6382644492
 20
254.596255908
 30
0.0
 40
0.3765388528472625
100
AcDbArc
 50
296.2716831084
 51
243.7283168915
  0
LINE
  5
2E0
330
1F
100
AcDbEntity
  8
0
  6
Continuous
 62
     7
370
    15
100
AcDbLine
 10
252.4715977825
 20
254.2586115242
 30
0.0
 11
252.4715977825
 21
251.2629225747
 31
0.0
  0
LINE
  5
2E1
330
1F
100
AcDbEntity
  8
0
  6
Continuous
 62
     7
370
    15
100
AcDbLine
 10
252.4715977825
 20
251.2629225747
 30
0.0
 11
252.8049311159
 21
251.2629225747
 31
0.0
  0
LINE
  5
2E2
330
1F
100
AcDbEntity
  8
0
  6
Continuous
 62
     7
370
    15
100
AcDbLine
 10
252.8049311159
 20
251.2629225747
 30
0.0
 11
252.8049311159
 21
254.2586115242
 31
0.0
  0
LINE
  5
2E3
330
1F
100
AcDbEntity
  8
0
  6
Continuous
 62
     7
370
    15
100
AcDbLine
 10
254.8049311159
 20
254.996255908
 30
0.0
 11
254.4715977825
 21
254.996255908
 31
0.0
  0
LINE
  5
2E4
330
1F
100
AcDbEntity
  8
0
  6
Continuous
 62
     7
370
    15
100
AcDbLine
 10
254.4715977825
 20
254.996255908
 30
0.0
 11
254.4715977825
 21
251.2629225747
 31
0.0
  0
LINE
  5
2E5
330
1F
100
AcDbEntity
  8
0
  6
Continuous
 62
     7
370
    15
100
AcDbLine
 10
254.4715977825
 20
251.2629225747
 30
0.0
 11
254.8049311159
 21
251.2629225747
 31
0.0
  0
LINE
  5
2E6
330
1F
100
AcDbEntity
  8
0
  6
Continuous
 62
     7
370
    15
100
AcDbLine
 10
254.8049311159
 20
251.2629225747
 30
0.0
 11
254.8049311159
 21
254.996255908
 31
0.0
  0
LINE
  5
2E7
330
1F
100
AcDbEntity
  8
0
  6
Continuous
 62
     7
370
    15
100
AcDbLine
 10
223.9449311159
 20
255.296255908
 30
0.0
 11
223.9449311159
 21
255.1595892413
 31
0.0
  0
LINE
  5
2E8
330
1F
100
AcDbEntity
  8
0
  6
Continuous
 62
     7
370
    15
100
AcDbLine
 10
257.2415977825
 20
255.296255908
 30
0.0
 11
223.9449311159
 21
255.296255908
 31
0.0
  0
LINE
  5
2E9
330
1F
100
AcDbEntity
  8
0
  6
Continuous
 62
     7
370
    15
100
AcDbLine
 10
257.2415977825
 20
255.1595892413
 30
0.0
 11
257.2415977825
 21
255.296255908
 31
0.0
  0
LINE
  5
2EA
330
1F
100
AcDbEntity
  8
0
  6
Continuous
 62
     7
370
    15
100
AcDbLine
 10
257.3782644492
 20
242.6273016759
 30
0.0
 11
257.3782644492
 21
223.6995892413
 31
0.0
  0
LINE
  5
2EB
330
1F
100
AcDbEntity
  8
0
  6
Continuous
 62
     7
370
    15
100
AcDbLine
 10
257.3782644492
 20
223.6995892413
 30
0.0
 11
257.2415977825
 21
223.6995892413
 31
0.0
  0
SPLINE
  5
2EC
330
1F
100
AcDbEntity
  8
0
  6
Continuous
 62
     7
370
    15
100
AcDbSpline
210
0.0
220
0.0
230
1.0
 70
     8
 71
     3
 72
    11
 73
     7
 74
     0
 42
0.00000001
 43
0.00000001
 40
0.0
 40
0.0
 40
0.0
 40
0.0
 40
0.2762751385306234
 40
0.5526694930983546
 40
0.829064447366905
 40
1.0
 40
1.0
 40
1.0
 40
1.0
 10
257.2415977825449
 20
255.1595892413378
 30
0.0
 10
257.2582949777455
 20
255.1526235513499
 30
0.0
 10
257.2916965731868
 20
255.1386891655955
 30
0.0
 10
257.3344948138429
 20
255.1177859709163
 30
0.0
 10
257.3634941226678
 20
255.0995387221998
 30
0.0
 10
257.3696799314702
 20
255.0882601729426
 30
0.0
 10
257.3720436751223
 20
255.0839503728721
 30
0.0
  0
LINE
  5
2ED
330
1F
100
AcDbEntity
  8
0
  6
Continuous
 62
     7
370
    15
100
AcDbLine
 10
223.9415977825
 20
223.616255908
 30
0.0
 11
223.8049311159
 21
223.616255908
 31
0.0
  0
LINE
  5
2EE
330
1F
100
AcDbEntity
  8
0
  6
Continuous
 62
     7
370
    15
100
AcDbLine
 10
223.8049311159
 20
223.616255908
 30
0.0
 11
223.8049311159
 21
255.2424511702
 31
0.0
  0
LINE
  5
2EF
330
1F
100
AcDbEntity
  8
0
  6
Continuous
 62
     7
370
    15
100
AcDbLine
 10
223.8049311159
 20
255.2424511702
 30
0.0
 11
223.8049311159
 21
255.2429225747
 31
0.0
  0
SPLINE
  5
2F0
330
1F
100
AcDbEntity
  8
0
  6
Continuous
 62
     7
370
    15
100
AcDbSpline
210
0.0
220
0.0
230
1.0
 70
     8
 71
     3
 72
    12
 73
     8
 74
     0
 42
0.00000001
 43
0.00000001
 40
0.0
 40
0.0
 40
0.0
 40
0.0
 40
0.2303402726698786
 40
0.4607650531840979
 40
0.6911902299723156
 40
0.9216152586331456
 40
1.0
 40
1.0
 40
1.0
 40
1.0
 10
223.8049311158783
 20
255.242922574671
 30
0.0
 10
223.8066722043175
 20
255.2365223578988
 30
0.0
 10
223.8101550199711
 20
255.2237195762261
 30
0.0
 10
223.8371745325385
 20
255.2045105921775
 30
0.0
 10
223.8764270726658
 20
255.1853135029174
 30
0.0
 10
223.9140172429567
 20
255.1702969289432
 30
0.0
 10
223.9360143008613
 20
255.1617569356073
 30
0.0
 10
223.9415977825449
 20
255.1595892413376
 30
0.0
  0
LINE
  5
2F1
330
1F
100
AcDbEntity
  8
0
  6
Continuous
 62
     7
370
    15
100
AcDbLine
 10
223.8582644492
 20
255.2429225747
 30
0.0
 11
223.8049311159
 21
255.2429225747
 31
0.0
  0
SPLINE
  5
2F2
330
1F
100
AcDbEntity
  8
0
  6
Continuous
 62
     7
370
    15
100
AcDbSpline
210
0.0
220
0.0
230
1.0
 70
     8
 71
     3
 72
    11
 73
     7
 74
     0
 42
0.00000001
 43
0.00000001
 40
0.0
 40
0.0
 40
0.0
 40
0.0
 40
0.2547151868506353
 40
0.5096070911609952
 40
0.7645000784893943
 40
1.0
 40
1.0
 40
1.0
 40
1.0
 10
223.8582644492116
 20
255.242922574671
 30
0.0
 10
223.859566001692
 20
255.2358459401184
 30
0.0
 10
223.8621700096498
 20
255.2216877613535
 30
0.0
 10
223.8821641229487
 20
255.2004494419484
 30
0.0
 10
223.9099120032506
 20
255.1797384985345
 30
0.0
 10
223.9313180301837
 20
255.1661262235063
 30
0.0
 10
223.9415977825449
 20
255.1595892413376
 30
0.0
  0
LINE
  5
2F3
330
1F
100
AcDbEntity
  8
0
  6
Continuous
 62
     7
370
    15
100
AcDbLine
 10
225.9915977825
 20
223.5629225747
 30
0.0
 11
225.9915977825
 21
223.6995892413
 31
0.0
  0
LINE
  5
2F4
330
1F
100
AcDbEntity
  8
0
  6
Continuous
 62
     7
370
    15
100
AcDbLine
 10
257.2415977825
 20
223.5629225747
 30
0.0
 11
257.2415977825
 21
223.6995892413
 31
0.0
  0
LINE
  5
2F5
330
1F
100
AcDbEntity
  8
0
  6
Continuous
 62
     7
370
    15
100
AcDbLine
 10
225.9915977825
 20
223.5629225747
 30
0.0
 11
257.2415977825
 21
223.5629225747
 31
0.0
  0
ARC
  5
2F6
330
1F
100
AcDbEntity
  8
0
  6
Continuous
 62
     7
370
    15
100
AcDbCircle
 10
257.2415977825
 20
255.1595892413
 30
0.0
 40
0.1366666666667129
100
AcDbArc
 50
0.0
 51
90.0
  0
ARC
  5
2F7
330
1F
100
AcDbEntity
  8
0
  6
Continuous
 62
     7
370
    15
100
AcDbCircle
 10
257.2415977825
 20
255.1595892413
 30
0.0
 40
0.0833333333333712
100
AcDbArc
 50
0.0
 51
90.0
  0
LINE
  5
2F8
330
1F
100
AcDbEntity
  8
0
  6
Continuous
 62
     7
370
    15
100
AcDbLine
 10
257.3249311159
 20
255.1595892413
 30
0.0
 11
257.3249311159
 21
255.1217119026
 31
0.0
  0
LINE
  5
2F9
330
1F
100
AcDbEntity
  8
0
  6
Continuous
 62
     7
370
    15
100
AcDbLine
 10
223.8587358537
 20
255.296255908
 30
0.0
 11
223.8587358537
 21
255.2429225747
 31
0.0
  0
LINE
  5
2FA
330
1F
100
AcDbEntity
  8
0
  6
Continuous
 62
     7
370
    15
100
AcDbLine
 10
223.9449311159
 20
255.2429225747
 30
0.0
 11
223.8587358537
 21
255.2429225747
 31
0.0
  0
LINE
  5
2FB
330
1F
100
AcDbEntity
  8
0
  6
Continuous
 62
     7
370
    15
100
AcDbLine
 10
223.9449311159
 20
255.296255908
 30
0.0
 11
223.8587358537
 21
255.296255908
 31
0.0
  0
LINE
  5
2FC
330
1F
100
AcDbEntity
  8
0
  6
Continuous
 62
     7
370
    15
100
AcDbLine
 10
257.2415977825
 20
223.5629225747
 30
0.0
 11
257.3244597114
 21
223.5629225747
 31
0.0
  0
LINE
  5
2FD
330
1F
100
AcDbEntity
  8
0
  6
Continuous
 62
     7
370
    15
100
AcDbLine
 10
257.3244597114
 20
223.616255908
 30
0.0
 11
257.2415977825
 21
223.616255908
 31
0.0
  0
LINE
  5
2FE
330
1F
100
AcDbEntity
  8
0
  6
Continuous
 62
     7
370
    15
100
AcDbLine
 10
257.3244597114
 20
223.616255908
 30
0.0
 11
257.3244597114
 21
223.5629225747
 31
0.0
  0
LINE
  5
2FF
330
1F
100
AcDbEntity
  8
0
  6
Continuous
 62
     7
370
    15
100
AcDbLine
 10
257.3244597114
 20
223.616255908
 30
0.0
 11
257.3248250729
 21
223.616255908
 31
0.0
  0
LINE
  5
300
330
1F
100
AcDbEntity
  8
0
  6
Continuous
 62
     7
370
    15
100
AcDbLine
 10
257.3248250729
 20
223.616255908
 30
0.0
 11
257.3248250729
 21
223.5629225747
 31
0.0
  0
LINE
  5
301
330
1F
100
AcDbEntity
  8
0
  6
Continuous
 62
     7
370
    15
100
AcDbLine
 10
257.3244597114
 20
223.5629225747
 30
0.0
 11
257.3248250729
 21
223.5629225747
 31
0.0
  0
LINE
  5
302
330
1F
100
AcDbEntity
  8
0
  6
Continuous
 62
     7
370
    15
100
AcDbLine
 10
257.3782644492
 20
223.6167273125
 30
0.0
 11
257.3249311159
 21
223.6167273125
 31
0.0
  0
LINE
  5
303
330
1F
100
AcDbEntity
  8
0
  6
Continuous
 62
     7
370
    15
100
AcDbLine
 10
257.3249311159
 20
223.6995892413
 30
0.0
 11
257.3249311159
 21
223.6167273125
 31
0.0
  0
LINE
  5
304
330
1F
100
AcDbEntity
  8
0
  6
Continuous
 62
     7
370
    15
100
AcDbLine
 10
257.3782644492
 20
223.6995892413
 30
0.0
 11
257.3782644492
 21
223.6167273125
 31
0.0
  0
LINE
  5
305
330
1F
100
AcDbEntity
  8
0
  6
Continuous
 62
     7
370
    15
100
AcDbLine
 10
257.2415977825
 20
255.1595892413
 30
0.0
 11
257.3244597114
 21
255.1595892413
 31
0.0
  0
LINE
  5
306
330
1F
100
AcDbEntity
  8
0
  6
Continuous
 62
     7
370
    15
100
AcDbLine
 10
257.3244597114
 20
255.1595892413
 30
0.0
 11
257.3244597114
 21
255.1219441945
 31
0.0
  0
LWPOLYLINE
  5
307
330
1F
100
AcDbEntity
  8
0
  6
Continuous
 62
     7
370
    15
100
AcDbPolyline
 90
        3
 70
   128
 43
0.0
 10
226.4349311159
 20
254.8095892413
 10
226.3619668186
 20
254.7967236671
 10
226.2998673007
 20
254.7613888149
  0
LWPOLYLINE
  5
308
330
1F
100
AcDbEntity
  8
0
  6
Continuous
 62
     7
370
    15
100
AcDbPolyline
 90
        3
 70
   128
 43
0.0
 10
226.2998673007
 20
254.4311230011
 10
226.3619668186
 20
254.3957881489
 10
226.4349311159
 20
254.3829225747
  0
LINE
  5
309
330
1F
100
AcDbEntity
  8
0
  6
Continuous
 62
     7
370
    15
100
AcDbLine
 10
226.4349311159
 20
254.3829225747
 30
0.0
 11
226.8549311159
 21
254.3829225747
 31
0.0
  0
LWPOLYLINE
  5
30A
330
1F
100
AcDbEntity
  8
0
  6
Continuous
 62
     7
370
    15
100
AcDbPolyline
 90
        3
 70
   128
 43
0.0
 10
226.8549311159
 20
254.3829225747
 10
226.9278954131
 20
254.3957881489
 10
226.9687602341
 20
254.4158285183
  0
LWPOLYLINE
  5
30B
330
1F
100
AcDbEntity
  8
0
  6
Continuous
 62
     7
370
    15
100
AcDbPolyline
 90
        3
 70
   128
 43
0.0
 10
226.9687602341
 20
254.7766832977
 10
226.9278954131
 20
254.7967236671
 10
226.8549311159
 20
254.8095892413
  0
LINE
  5
30C
330
1F
100
AcDbEntity
  8
0
  6
Continuous
 62
     7
370
    15
100
AcDbLine
 10
226.8549311159
 20
254.8095892413
 30
0.0
 11
226.4349311159
 21
254.8095892413
 31
0.0
  0
LWPOLYLINE
  5
30D
330
1F
100
AcDbEntity
  8
0
  6
Continuous
 62
     7
370
    15
100
AcDbPolyline
 90
        3
 70
   128
 43
0.0
 10
239.4349311159
 20
254.8095892413
 10
239.3619668186
 20
254.7967236671
 10
239.2998672991
 20
254.7613888136
  0
LWPOLYLINE
  5
30E
330
1F
100
AcDbEntity
  8
0
  6
Continuous
 62
     7
370
    15
100
AcDbPolyline
 90
        3
 70
   128
 43
0.0
 10
239.2998672991
 20
254.4311230024
 10
239.3619668186
 20
254.3957881489
 10
239.4349311159
 20
254.3829225747
  0
LINE
  5
30F
330
1F
100
AcDbEntity
  8
0
  6
Continuous
 62
     7
370
    15
100
AcDbLine
 10
239.4349311159
 20
254.3829225747
 30
0.0
 11
239.8549311159
 21
254.3829225747
 31
0.0
  0
LWPOLYLINE
  5
310
330
1F
100
AcDbEntity
  8
0
  6
Continuous
 62
     7
370
    15
100
AcDbPolyline
 90
        3
 70
   128
 43
0.0
 10
239.8549311159
 20
254.3829225747
 10
239.9278954131
 20
254.3957881489
 10
239.9687602362
 20
254.4158285196
  0
LWPOLYLINE
  5
311
330
1F
100
AcDbEntity
  8
0
  6
Continuous
 62
     7
370
    15
100
AcDbPolyline
 90
        3
 70
   128
 43
0.0
 10
239.9687602362
 20
254.7766832964
 10
239.9278954131
 20
254.7967236671
 10
239.8549311159
 20
254.8095892413
  0
LINE
  5
312
330
1F
100
AcDbEntity
  8
0
  6
Continuous
 62
     7
370
    15
100
AcDbLine
 10
239.8549311159
 20
254.8095892413
 30
0.0
 11
239.4349311159
 21
254.8095892413
 31
0.0
  0
LWPOLYLINE
  5
313
330
1F
100
AcDbEntity
  8
0
  6
Continuous
 62
     7
370
    15
100
AcDbPolyline
 90
        3
 70
   128
 43
0.0
 10
252.4349311159
 20
254.8095892413
 10
252.3619668186
 20
254.7967236671
 10
252.2998672986
 20
254.7613888132
  0
LWPOLYLINE
  5
314
330
1F
100
AcDbEntity
  8
0
  6
Continuous
 62
     7
370
    15
100
AcDbPolyline
 90
        3
 70
   128
 43
0.0
 10
252.2998672986
 20
254.4311230028
 10
252.3619668186
 20
254.3957881489
 10
252.4349311159
 20
254.3829225747
  0
LINE
  5
315
330
1F
100
AcDbEntity
  8
0
  6
Continuous
 62
     7
370
    15
100
AcDbLine
 10
252.4349311159
 20
254.3829225747
 30
0.0
 11
252.8549311159
 21
254.3829225747
 31
0.0
  0
LWPOLYLINE
  5
316
330
1F
100
AcDbEntity
  8
0
  6
Continuous
 62
     7
370
    15
100
AcDbPolyline
 90
        3
 70
   128
 43
0.0
 10
252.8549311159
 20
254.3829225747
 10
252.9278954131
 20
254.3957881489
 10
252.9687602352
 20
254.415828519
  0
LWPOLYLINE
  5
317
330
1F
100
AcDbEntity
  8
0
  6
Continuous
 62
     7
370
    15
100
AcDbPolyline
 90
        3
 70
   128
 43
0.0
 10
252.9687602352
 20
254.776683297
 10
252.9278954131
 20
254.7967236671
 10
252.8549311159
 20
254.8095892413
  0
LINE
  5
318
330
1F
100
AcDbEntity
  8
0
  6
Continuous
 62
     7
370
    15
100
AcDbLine
 10
252.8549311159
 20
254.8095892413
 30
0.0
 11
252.4349311159
 21
254.8095892413
 31
0.0
  0
LINE
  5
319
330
1F
100
AcDbEntity
  8
0
  6
Continuous
 62
     7
370
    15
100
AcDbLine
 10
225.4715977825
 20
253.776255908
 30
0.0
 11
225.8049311159
 21
253.776255908
 31
0.0
  0
LINE
  5
31A
330
1F
100
AcDbEntity
  8
0
  6
Continuous
 62
     7
370
    15
100
AcDbLine
 10
226.4715977825
 20
253.776255908
 30
0.0
 11
226.8049311159
 21
253.776255908
 31
0.0
  0
LINE
  5
31B
330
1F
100
AcDbEntity
  8
0
  6
Continuous
 62
     7
370
    15
100
AcDbLine
 10
227.4715977825
 20
253.776255908
 30
0.0
 11
227.8049311159
 21
253.776255908
 31
0.0
  0
LINE
  5
31C
330
1F
100
AcDbEntity
  8
0
  6
Continuous
 62
     7
370
    15
100
AcDbLine
 10
228.4715977825
 20
253.776255908
 30
0.0
 11
228.8049311159
 21
253.776255908
 31
0.0
  0
LINE
  5
31D
330
1F
100
AcDbEntity
  8
0
  6
Continuous
 62
     7
370
    15
100
AcDbLine
 10
229.4715977825
 20
253.776255908
 30
0.0
 11
229.8049311159
 21
253.776255908
 31
0.0
  0
LINE
  5
31E
330
1F
100
AcDbEntity
  8
0
  6
Continuous
 62
     7
370
    15
100
AcDbLine
 10
230.4715977825
 20
253.776255908
 30
0.0
 11
230.8049311159
 21
253.776255908
 31
0.0
  0
LINE
  5
31F
330
1F
100
AcDbEntity
  8
0
  6
Continuous
 62
     7
370
    15
100
AcDbLine
 10
231.4715977825
 20
253.776255908
 30
0.0
 11
231.8049311159
 21
253.776255908
 31
0.0
  0
LINE
  5
320
330
1F
100
AcDbEntity
  8
0
  6
Continuous
 62
     7
370
    15
100
AcDbLine
 10
232.4715977825
 20
253.776255908
 30
0.0
 11
232.8049311159
 21
253.776255908
 31
0.0
  0
LINE
  5
321
330
1F
100
AcDbEntity
  8
0
  6
Continuous
 62
     7
370
    15
100
AcDbLine
 10
233.4715977825
 20
253.776255908
 30
0.0
 11
233.8049311159
 21
253.776255908
 31
0.0
  0
LINE
  5
322
330
1F
100
AcDbEntity
  8
0
  6
Continuous
 62
     7
370
    15
100
AcDbLine
 10
234.4715977825
 20
253.776255908
 30
0.0
 11
234.8049311159
 21
253.776255908
 31
0.0
  0
LINE
  5
323
330
1F
100
AcDbEntity
  8
0
  6
Continuous
 62
     7
370
    15
100
AcDbLine
 10
235.4715977825
 20
253.776255908
 30
0.0
 11
235.8049311159
 21
253.776255908
 31
0.0
  0
LINE
  5
324
330
1F
100
AcDbEntity
  8
0
  6
Continuous
 62
     7
370
    15
100
AcDbLine
 10
236.4715977825
 20
253.776255908
 30
0.0
 11
236.8049311159
 21
253.776255908
 31
0.0
  0
LINE
  5
325
330
1F
100
AcDbEntity
  8
0
  6
Continuous
 62
     7
370
    15
100
AcDbLine
 10
237.4715977825
 20
253.776255908
 30
0.0
 11
237.8049311159
 21
253.776255908
 31
0.0
  0
LINE
  5
326
330
1F
100
AcDbEntity
  8
0
  6
Continuous
 62
     7
370
    15
100
AcDbLine
 10
238.4715977825
 20
253.776255908
 30
0.0
 11
238.8049311159
 21
253.776255908
 31
0.0
  0
LINE
  5
327
330
1F
100
AcDbEntity
  8
0
  6
Continuous
 62
     7
370
    15
100
AcDbLine
 10
239.4715977825
 20
253.776255908
 30
0.0
 11
239.8049311159
 21
253.776255908
 31
0.0
  0
LINE
  5
328
330
1F
100
AcDbEntity
  8
0
  6
Continuous
 62
     7
370
    15
100
AcDbLine
 10
240.4715977825
 20
253.776255908
 30
0.0
 11
240.8049311159
 21
253.776255908
 31
0.0
  0
LINE
  5
329
330
1F
100
AcDbEntity
  8
0
  6
Continuous
 62
     7
370
    15
100
AcDbLine
 10
241.4715977825
 20
253.776255908
 30
0.0
 11
241.8049311159
 21
253.776255908
 31
0.0
  0
LINE
  5
32A
330
1F
100
AcDbEntity
  8
0
  6
Continuous
 62
     7
370
    15
100
AcDbLine
 10
242.4715977825
 20
253.776255908
 30
0.0
 11
242.8049311159
 21
253.776255908
 31
0.0
  0
LINE
  5
32B
330
1F
100
AcDbEntity
  8
0
  6
Continuous
 62
     7
370
    15
100
AcDbLine
 10
243.4715977825
 20
253.776255908
 30
0.0
 11
243.8049311159
 21
253.776255908
 31
0.0
  0
LINE
  5
32C
330
1F
100
AcDbEntity
  8
0
  6
Continuous
 62
     7
370
    15
100
AcDbLine
 10
244.4715977825
 20
253.776255908
 30
0.0
 11
244.8049311159
 21
253.776255908
 31
0.0
  0
LINE
  5
32D
330
1F
100
AcDbEntity
  8
0
  6
Continuous
 62
     7
370
    15
100
AcDbLine
 10
245.4715977825
 20
253.776255908
 30
0.0
 11
245.8049311159
 21
253.776255908
 31
0.0
  0
LINE
  5
32E
330
1F
100
AcDbEntity
  8
0
  6
Continuous
 62
     7
370
    15
100
AcDbLine
 10
246.4715977825
 20
253.776255908
 30
0.0
 11
246.8049311159
 21
253.776255908
 31
0.0
  0
LINE
  5
32F
330
1F
100
AcDbEntity
  8
0
  6
Continuous
 62
     7
370
    15
100
AcDbLine
 10
247.4715977825
 20
253.776255908
 30
0.0
 11
247.8049311159
 21
253.776255908
 31
0.0
  0
LINE
  5
330
330
1F
100
AcDbEntity
  8
0
  6
Continuous
 62
     7
370
    15
100
AcDbLine
 10
248.4715977825
 20
253.776255908
 30
0.0
 11
248.8049311159
 21
253.776255908
 31
0.0
  0
LINE
  5
331
330
1F
100
AcDbEntity
  8
0
  6
Continuous
 62
     7
370
    15
100
AcDbLine
 10
249.4715977825
 20
253.776255908
 30
0.0
 11
249.8049311159
 21
253.776255908
 31
0.0
  0
LINE
  5
332
330
1F
100
AcDbEntity
  8
0
  6
Continuous
 62
     7
370
    15
100
AcDbLine
 10
250.4715977825
 20
253.776255908
 30
0.0
 11
250.8049311159
 21
253.776255908
 31
0.0
  0
LINE
  5
333
330
1F
100
AcDbEntity
  8
0
  6
Continuous
 62
     7
370
    15
100
AcDbLine
 10
251.4715977825
 20
253.776255908
 30
0.0
 11
251.8049311159
 21
253.776255908
 31
0.0
  0
LINE
  5
334
330
1F
100
AcDbEntity
  8
0
  6
Continuous
 62
     7
370
    15
100
AcDbLine
 10
252.4715977825
 20
253.776255908
 30
0.0
 11
252.8049311159
 21
253.776255908
 31
0.0
  0
LINE
  5
335
330
1F
100
AcDbEntity
  8
0
  6
Continuous
 62
     7
370
    15
100
AcDbLine
 10
253.4715977825
 20
253.776255908
 30
0.0
 11
253.8049311159
 21
253.776255908
 31
0.0
  0
LINE
  5
336
330
1F
100
AcDbEntity
  8
0
  6
Continuous
 62
     7
370
    15
100
AcDbLine
 10
254.4715977825
 20
253.776255908
 30
0.0
 11
254.8049311159
 21
253.776255908
 31
0.0
  0
LINE
  5
337
330
1F
100
AcDbEntity
  8
0
  6
Continuous
 62
     7
370
    15
100
AcDbLine
 10
255.4715977825
 20
253.776255908
 30
0.0
 11
255.8049311159
 21
253.776255908
 31
0.0
  0
LINE
  5
338
330
1F
100
AcDbEntity
  8
0
  6
Continuous
 62
     7
370
    15
100
AcDbLine
 10
257.3227952879
 20
223.6167273125
 30
0.0
 11
257.3249311159
 21
223.6167273125
 31
0.0
  0
LINE
  5
339
330
1F
100
AcDbEntity
  8
0
  6
Continuous
 62
     7
370
    15
100
AcDbLine
 10
257.2415977825
 20
223.6167273125
 30
0.0
 11
257.3227952879
 21
223.6167273125
 31
0.0
  0
LINE
  5
33A
330
1F
100
AcDbEntity
  8
0
  6
Continuous
 62
     7
370
    15
100
AcDbLine
 10
225.5249311159
 20
223.5629225747
 30
0.0
 11
225.5249311159
 21
223.616255908
 31
0.0
  0
LINE
  5
33B
330
1F
100
AcDbEntity
  8
0
  6
Continuous
 62
     7
370
    15
100
AcDbLine
 10
223.9949311159
 20
223.616255908
 30
0.0
 11
223.9949311159
 21
223.5629225747
 31
0.0
  0
LINE
  5
33C
330
1F
100
AcDbEntity
  8
0
  6
Continuous
 62
     7
370
    15
100
AcDbLine
 10
223.9949311159
 20
223.5629225747
 30
0.0
 11
225.5249311159
 21
223.5629225747
 31
0.0
  0
LINE
  5
33D
330
1F
100
AcDbEntity
  8
0
  6
Continuous
 62
     7
370
    15
100
AcDbLine
 10
225.8582644492
 20
223.5629225747
 30
0.0
 11
225.8582644492
 21
223.616255908
 31
0.0
  0
LINE
  5
33E
330
1F
100
AcDbEntity
  8
0
  6
Continuous
 62
     7
370
    15
100
AcDbLine
 10
225.5249311159
 20
223.5629225747
 30
0.0
 11
225.8582644492
 21
223.5629225747
 31
0.0
  0
ARC
  5
33F
330
1F
100
AcDbEntity
  8
0
  6
Continuous
 62
     7
370
    15
100
AcDbCircle
 10
223.9949311159
 20
223.6995892413
 30
0.0
 40
0.136666666666667
100
AcDbArc
 50
217.5718693214
 51
270.0
  0
LWPOLYLINE
  5
340
330
1F
100
AcDbEntity
  8
0
  6
Continuous
 62
     7
370
    15
100
AcDbPolyline
 90
        3
 70
   128
 43
0.0
 10
223.8866106038
 20
255.2429225747
 10
223.8812969355
 20
255.2355171732
 10
223.87007907
 20
255.2151747109
  0
ARC
  5
341
330
1F
100
AcDbEntity
  8
0
  6
Continuous
 62
     7
370
    15
100
AcDbCircle
 10
223.9949311159
 20
255.1595892413
 30
0.0
 40
0.0833333333333201
100
AcDbArc
 50
126.869897646
 51
167.7442452244
  0
LINE
  5
342
330
1F
100
AcDbEntity
  8
0
  6
Continuous
 62
     7
370
    15
100
AcDbLine
 10
225.9582644492
 20
223.6495892413
 30
0.0
 11
225.9915977825
 21
223.6495892413
 31
0.0
  0
SPLINE
  5
343
330
1F
100
AcDbEntity
  8
0
  6
Continuous
 62
     7
370
    15
100
AcDbSpline
210
0.0
220
0.0
230
1.0
 70
     8
 71
     3
 72
    11
 73
     7
 74
     0
 42
0.00000001
 43
0.00000001
 40
0.0
 40
0.0
 40
0.0
 40
0.0
 40
0.2500000000000125
 40
0.5000000000000042
 40
0.7500000000000049
 40
1.0
 40
1.0
 40
1.0
 40
1.0
 10
226.0082644492119
 20
223.1162559080063
 30
0.0
 10
226.0017128418681
 20
223.1183102229539
 30
0.0
 10
225.9886096271806
 20
223.1224188528491
 30
0.0
 10
225.9689548051492
 20
223.1540229119758
 30
0.0
 10
225.9492999831179
 20
223.1991973867124
 30
0.0
 10
225.9361967684303
 20
223.2350141786861
 30
0.0
 10
225.9296451610865
 20
223.252922574673
 30
0.0
  0
LINE
  5
344
330
1F
100
AcDbEntity
  8
0
  6
Continuous
 62
     7
370
    15
100
AcDbLine
 10
255.2802170707
 20
223.2529225747
 30
0.0
 11
225.9296451611
 21
223.2529225747
 31
0.0
  0
SPLINE
  5
345
330
1F
100
AcDbEntity
  8
0
  6
Continuous
 62
     7
370
    15
100
AcDbSpline
210
0.0
220
0.0
230
1.0
 70
     8
 71
     3
 72
    12
 73
     8
 74
     0
 42
0.00000001
 43
0.00000001
 40
0.0
 40
0.0
 40
0.0
 40
0.0
 40
0.2286702771456055
 40
0.4574139526360461
 40
0.6861579520287662
 40
0.9149017666625828
 40
1.0
 40
1.0
 40
1.0
 40
1.0
 10
255.2802170706707
 20
223.2529225746728
 30
0.0
 10
255.2742225572489
 20
223.2365577467014
 30
0.0
 10
255.2622316062926
 20
223.2038228379934
 30
0.0
 10
255.2442409950661
 20
223.1609451245708
 30
0.0
 10
255.2262611220299
 20
223.1300006136323
 30
0.0
 10
255.2120072484878
 20
223.1174152887052
 30
0.0
 10
255.2038182330818
 20
223.1165032163223
 30
0.0
 10
255.2015977825453
 20
223.1162559080061
 30
0.0
  0
LINE
  5
346
330
1F
100
AcDbEntity
  8
0
  6
Continuous
 62
     7
370
    15
100
AcDbLine
 10
255.2015977825
 20
223.116255908
 30
0.0
 11
226.0082644492
 21
223.116255908
 31
0.0
  0
LINE
  5
347
330
1F
100
AcDbEntity
  8
0
  6
Continuous
 62
     7
370
    15
100
AcDbLine
 10
255.2802170707
 20
223.2529225747
 30
0.0
 11
255.2802170707
 21
223.5629225747
 31
0.0
  0
LINE
  5
348
330
1F
100
AcDbEntity
  8
0
  6
Continuous
 62
     7
370
    15
100
AcDbLine
 10
225.9296451611
 20
223.2529225747
 30
0.0
 11
225.9296451611
 21
223.616255908
 31
0.0
  0
SPLINE
  5
349
330
1F
100
AcDbEntity
  8
0
  6
Continuous
 62
     7
370
    15
100
AcDbSpline
210
0.0
220
0.0
230
1.0
 70
     8
 71
     3
 72
    10
 73
     6
 74
     0
 42
0.00000001
 43
0.00000001
 40
0.0
 40
0.0
 40
0.0
 40
0.0
 40
0.4656056222542095
 40
0.9314860019359599
 40
1.0
 40
1.0
 40
1.0
 40
1.0
 10
225.9249311158786
 20
223.2529225746729
 30
0.0
 10
225.9263221986281
 20
223.2421761809689
 30
0.0
 10
225.9291051850156
 20
223.2206770520319
 30
0.0
 10
225.9415628516199
 20
223.1987449474287
 30
0.0
 10
225.9521210377015
 20
223.1920619184603
 30
0.0
 10
225.953474688808
 20
223.1912050961342
 30
0.0
  0
LINE
  5
34A
330
1F
100
AcDbEntity
  8
0
  6
Continuous
 62
     7
370
    15
100
AcDbLine
 10
225.8715977825
 20
223.2529225747
 30
0.0
 11
225.9249311159
 21
223.2529225747
 31
0.0
  0
SPLINE
  5
34B
330
1F
100
AcDbEntity
  8
0
  6
Continuous
 62
     7
370
    15
100
AcDbSpline
210
0.0
220
0.0
230
1.0
 70
     8
 71
     3
 72
    12
 73
     8
 74
     0
 42
0.00000001
 43
0.00000001
 40
0.0
 40
0.0
 40
0.0
 40
0.0
 40
0.2286702771456213
 40
0.4574139526360829
 40
0.6861579520288285
 40
0.9149017666626701
 40
1.0
 40
1.0
 40
1.0
 40
1.0
 10
225.8715977825453
 20
223.2529225746729
 30
0.0
 10
225.8733135335262
 20
223.2365577467015
 30
0.0
 10
225.876745586208
 20
223.2038228379936
 30
0.0
 10
225.9033864562075
 20
223.160945124571
 30
0.0
 10
225.9421442371019
 20
223.1300006136325
 30
0.0
 10
225.9798444067956
 20
223.1174152887054
 30
0.0
 10
226.0022021498797
 20
223.1165032163225
 30
0.0
 10
226.0082644492119
 20
223.1162559080063
 30
0.0
  0
LINE
  5
34C
330
1F
100
AcDbEntity
  8
0
  6
Continuous
 62
     7
370
    15
100
AcDbLine
 10
225.8715977825
 20
223.2529225747
 30
0.0
 11
225.8715977825
 21
223.616255908
 31
0.0
  0
LINE
  5
34D
330
1F
100
AcDbEntity
  8
0
  6
Continuous
 62
     7
370
    15
100
AcDbLine
 10
225.9249311159
 20
223.2529225747
 30
0.0
 11
225.9249311159
 21
223.616255908
 31
0.0
  0
SPLINE
  5
34E
330
1F
100
AcDbEntity
  8
0
  6
Continuous
 62
     7
370
    15
100
AcDbSpline
210
0.0
220
0.0
230
1.0
 70
     8
 71
     3
 72
    10
 73
     6
 74
     0
 42
0.00000001
 43
0.00000001
 40
0.0
 40
0.0
 40
0.0
 40
0.0
 40
0.0711257069705307
 40
0.535562853485281
 40
1.0
 40
1.0
 40
1.0
 40
1.0
 10
255.2563830600911
 20
223.1912305578761
 30
0.0
 10
255.2577861214569
 20
223.1921232170482
 30
0.0
 10
255.268350902894
 20
223.1988447684224
 30
0.0
 10
255.2807835902267
 20
223.2207616358603
 30
0.0
 10
255.283548607328
 20
223.2422022617353
 30
0.0
 10
255.2849311158786
 20
223.2529225746727
 30
0.0
  0
LINE
  5
34F
330
1F
100
AcDbEntity
  8
0
  6
Continuous
 62
     7
370
    15
100
AcDbLine
 10
255.3382644492
 20
223.2529225747
 30
0.0
 11
255.2849311159
 21
223.2529225747
 31
0.0
  0
SPLINE
  5
350
330
1F
100
AcDbEntity
  8
0
  6
Continuous
 62
     7
370
    15
100
AcDbSpline
210
0.0
220
0.0
230
1.0
 70
     8
 71
     3
 72
    11
 73
     7
 74
     0
 42
0.00000001
 43
0.00000001
 40
0.0
 40
0.0
 40
0.0
 40
0.0
 40
0.2499999999999982
 40
0.5000000000000013
 40
0.7500000000000024
 40
1.0
 40
1.0
 40
1.0
 40
1.0
 10
255.2015977825453
 20
223.1162559080061
 30
0.0
 10
255.2195061785321
 20
223.1183102229537
 30
0.0
 10
255.2553229705059
 20
223.1224188528489
 30
0.0
 10
255.3004974452424
 20
223.1540229119756
 30
0.0
 10
255.3321015043691
 20
223.1991973867122
 30
0.0
 10
255.3362101342643
 20
223.2350141786859
 30
0.0
 10
255.3382644492119
 20
223.2529225746727
 30
0.0
  0
LINE
  5
351
330
1F
100
AcDbEntity
  8
0
  6
Continuous
 62
     7
370
    15
100
AcDbLine
 10
255.2849311159
 20
223.2529225747
 30
0.0
 11
255.2849311159
 21
223.5629225747
 31
0.0
  0
LINE
  5
352
330
1F
100
AcDbEntity
  8
0
  6
Continuous
 62
     7
370
    15
100
AcDbLine
 10
255.3382644492
 20
223.2529225747
 30
0.0
 11
255.3382644492
 21
223.5629225747
 31
0.0
  0
LINE
  5
353
330
1F
100
AcDbEntity
  8
0
  6
Continuous
 62
     7
370
    15
100
AcDbLine
 10
257.4733155943
 20
223.6495892413
 30
0.0
 11
257.4247709046
 21
223.6495892413
 31
0.0
  0
LINE
  5
354
330
1F
100
AcDbEntity
  8
0
  6
Continuous
 62
     7
370
    15
100
AcDbLine
 10
261.1047709046
 20
228.2295892413
 30
0.0
 11
261.2114375712
 21
228.2295892413
 31
0.0
  0
SPLINE
  5
355
330
1F
100
AcDbEntity
  8
0
  6
Continuous
 62
     7
370
    15
100
AcDbSpline
210
0.0
220
0.0
230
1.0
 70
    24
 71
     3
 72
    11
 73
     7
 74
     0
 42
0.00000001
 43
0.00000001
 40
0.0
 40
0.0
 40
0.0
 40
0.0
 40
0.2833534124411238
 40
0.5581116990962655
 40
0.7754835424211791
 40
1.0
 40
1.0
 40
1.0
 40
1.0
 10
261.2114375712355
 20
228.0966307160244
 30
0.0
 10
261.2114375712355
 20
228.1164339543448
 30
0.0
 10
261.2114375712355
 20
228.1554397277054
 30
0.0
 10
261.2114375712355
 20
228.1986470457325
 30
0.0
 10
261.2114375712355
 20
228.2249074058734
 30
0.0
 10
261.2114375712355
 20
228.22801189799
 30
0.0
 10
261.2114375712355
 20
228.2295892413394
 30
0.0
  0
LINE
  5
356
330
1F
100
AcDbEntity
  8
0
  6
Continuous
 62
     7
370
    15
100
AcDbLine
 10
261.1047709046
 20
228.096630716
 30
0.0
 11
261.2114375712
 21
228.096630716
 31
0.0
  0
LINE
  5
357
330
1F
100
AcDbEntity
  8
0
  6
Continuous
 62
     7
370
    15
100
AcDbLine
 10
261.1047709046
 20
224.3625214633
 30
0.0
 11
261.2114375712
 21
224.3625214633
 31
0.0
  0
LINE
  5
358
330
1F
100
AcDbEntity
  8
0
  6
Continuous
 62
     7
370
    15
100
AcDbLine
 10
261.2114375712
 20
224.3625214633
 30
0.0
 11
261.2114375712
 21
224.6387988446
 31
0.0
  0
LINE
  5
359
330
1F
100
AcDbEntity
  8
0
  6
Continuous
 62
     7
370
    15
100
AcDbLine
 10
261.2114375712
 20
226.853402758
 30
0.0
 11
261.2114375712
 21
228.096630716
 31
0.0
  0
LINE
  5
35A
330
1F
100
AcDbEntity
  8
0
  6
Continuous
 62
     7
370
    15
100
AcDbLine
 10
261.1047709046
 20
224.2295892413
 30
0.0
 11
261.2114375712
 21
224.2295892413
 31
0.0
  0
SPLINE
  5
35B
330
1F
100
AcDbEntity
  8
0
  6
Continuous
 62
     7
370
    15
100
AcDbSpline
210
0.0
220
0.0
230
1.0
 70
    24
 71
     3
 72
    11
 73
     7
 74
     0
 42
0.00000001
 43
0.00000001
 40
0.0
 40
0.0
 40
0.0
 40
0.0
 40
0.2832771686238254
 40
0.5580022489005104
 40
0.7754022428539222
 40
1.0
 40
1.0
 40
1.0
 40
1.0
 10
261.2114375712355
 20
224.2295892413395
 30
0.0
 10
261.2114375712355
 20
224.2321414968179
 30
0.0
 10
261.2114375712355
 20
224.2371689556268
 30
0.0
 10
261.2114375712355
 20
224.2726982000348
 30
0.0
 10
261.2114375712355
 20
224.3160598286946
 30
0.0
 10
261.2114375712355
 20
224.3468670240157
 30
0.0
 10
261.2114375712355
 20
224.3625214633333
 30
0.0
  0
SPLINE
  5
35C
330
1F
100
AcDbEntity
  8
0
  6
Continuous
 62
     7
370
    15
100
AcDbSpline
210
0.0
220
0.0
230
1.0
 70
     8
 71
     3
 72
    11
 73
     7
 74
     0
 42
0.00000001
 43
0.00000001
 40
0.0
 40
0.0
 40
0.0
 40
0.0
 40
0.2371516183832001
 40
0.4978002014464022
 40
0.7485397230460176
 40
1.0
 40
1.0
 40
1.0
 40
1.0
 10
261.2114375712355
 20
228.0966307160244
 30
0.0
 10
261.224436827456
 20
228.0945832144009
 30
0.0
 10
261.2517233052346
 20
228.0902853448458
 30
0.0
 10
261.2812959032747
 20
228.0814171465189
 30
0.0
 10
261.3011123704364
 20
228.0711906038011
 30
0.0
 10
261.3035502269237
 20
228.0640057767909
 30
0.0
 10
261.3047709045689
 20
228.0604082074668
 30
0.0
  0
LINE
  5
35D
330
1F
100
AcDbEntity
  8
0
  6
Continuous
 62
     7
370
    15
100
AcDbLine
 10
261.3047709046
 20
228.0604082075
 30
0.0
 11
261.3047709046
 21
226.8354391753
 31
0.0
  0
LINE
  5
35E
330
1F
100
AcDbEntity
  8
0
  6
Continuous
 62
     7
370
    15
100
AcDbLine
 10
261.3047709046
 20
224.9806009218
 30
0.0
 11
261.3047709046
 21
224.9737735043
 31
0.0
  0
LINE
  5
35F
330
1F
100
AcDbEntity
  8
0
  6
Continuous
 62
     7
370
    15
100
AcDbLine
 10
261.3047709046
 20
224.7973890991
 30
0.0
 11
261.3047709046
 21
224.3987702752
 31
0.0
  0
SPLINE
  5
360
330
1F
100
AcDbEntity
  8
0
  6
Continuous
 62
     7
370
    15
100
AcDbSpline
210
0.0
220
0.0
230
1.0
 70
     8
 71
     3
 72
    11
 73
     7
 74
     0
 42
0.00000001
 43
0.00000001
 40
0.0
 40
0.0
 40
0.0
 40
0.0
 40
0.2371429336589575
 40
0.497797104328328
 40
0.7485377110304097
 40
1.0
 40
1.0
 40
1.0
 40
1.0
 10
261.2114375712355
 20
224.3625214633333
 30
0.0
 10
261.2244365100113
 20
224.3645704229215
 30
0.0
 10
261.2517231509503
 20
224.3688714836119
 30
0.0
 10
261.2812958290074
 20
224.3777460100579
 30
0.0
 10
261.3011123850874
 20
224.3879800740628
 30
0.0
 10
261.3035502303201
 20
224.3951700973948
 30
0.0
 10
261.3047709045689
 20
224.3987702752121
 30
0.0
  0
SPLINE
  5
361
330
1F
100
AcDbEntity
  8
0
  6
Continuous
 62
     7
370
    15
100
AcDbSpline
210
0.0
220
0.0
230
1.0
 70
     8
 71
     3
 72
    11
 73
     7
 74
     0
 42
0.00000001
 43
0.00000001
 40
0.0
 40
0.0
 40
0.0
 40
0.0
 40
0.2371941589275936
 40
0.4978619749471087
 40
0.7485798819786941
 40
1.0
 40
1.0
 40
1.0
 40
1.0
 10
261.2114375712355
 20
228.2295892413394
 30
0.0
 10
261.2244361873059
 20
228.2200613410903
 30
0.0
 10
261.2517198130814
 20
228.2000626225022
 30
0.0
 10
261.2812941472844
 20
228.1585045461472
 30
0.0
 10
261.3011120379335
 20
228.1107901146864
 30
0.0
 10
261.3035501458394
 20
228.0772178261747
 30
0.0
 10
261.3047709045689
 20
228.0604082074668
 30
0.0
  0
SPLINE
  5
362
330
1F
100
AcDbEntity
  8
0
  6
Continuous
 62
     7
370
    15
100
AcDbSpline
210
0.0
220
0.0
230
1.0
 70
    24
 71
     3
 72
    13
 73
     9
 74
     0
 42
0.00000001
 43
0.00000001
 40
0.0
 40
0.0
 40
0.0
 40
0.0
 40
0.1275360740474341
 40
0.2545887198592393
 40
0.4999418984797867
 40
0.745329982864976
 40
0.8725055605771198
 40
1.0
 40
1.0
 40
1.0
 40
1.0
 10
261.2114375712355
 20
228.2295892413394
 30
0.0
 10
261.2114375712355
 20
228.2291047584147
 30
0.0
 10
261.2114375712355
 20
228.2281376290082
 30
0.0
 10
261.2114375712355
 20
228.2174382206764
 30
0.0
 10
261.2114375712355
 20
228.193052926985
 30
0.0
 10
261.2114375712355
 20
228.1565479276357
 30
0.0
 10
261.2114375712355
 20
228.1232247953733
 30
0.0
 10
261.2114375712355
 20
228.1055028054622
 30
0.0
 10
261.2114375712355
 20
228.0966307160244
 30
0.0
  0
SPLINE
  5
363
330
1F
100
AcDbEntity
  8
0
  6
Continuous
 62
     7
370
    15
100
AcDbSpline
210
0.0
220
0.0
230
1.0
 70
     8
 71
     3
 72
    11
 73
     7
 74
     0
 42
0.00000001
 43
0.00000001
 40
0.0
 40
0.0
 40
0.0
 40
0.0
 40
0.2514201137491388
 40
0.5021380165204822
 40
0.7627995894819178
 40
0.9999999999999999
 40
0.9999999999999999
 40
0.9999999999999999
 40
0.9999999999999999
 10
261.3047709045689
 20
224.3987702752121
 30
0.0
 10
261.3035501464587
 20
224.3819606567303
 30
0.0
 10
261.3011120397896
 20
224.34838836867
 30
0.0
 10
261.281294301843
 20
224.3006743240194
 30
0.0
 10
261.251720126364
 20
224.2591161955645
 30
0.0
 10
261.2244365202924
 20
224.2391174197917
 30
0.0
 10
261.2114375712355
 20
224.2295892413395
 30
0.0
  0
SPLINE
  5
364
330
1F
100
AcDbEntity
  8
0
  6
Continuous
 62
     7
370
    15
100
AcDbSpline
210
0.0
220
0.0
230
1.0
 70
    24
 71
     3
 72
    13
 73
     9
 74
     0
 42
0.00000001
 43
0.00000001
 40
0.0
 40
0.0
 40
0.0
 40
0.0
 40
0.1275872441294498
 40
0.2546759233236671
 40
0.5000487292309094
 40
0.7453982611490075
 40
0.872539756542471
 40
1.0
 40
1.0
 40
1.0
 40
1.0
 10
261.2114375712355
 20
224.3625214633333
 30
0.0
 10
261.2114375712355
 20
224.3536433632365
 30
0.0
 10
261.2114375712355
 20
224.3359218554561
 30
0.0
 10
261.2114375712355
 20
224.3026055999135
 30
0.0
 10
261.2114375712355
 20
224.2661120415654
 30
0.0
 10
261.2114375712355
 20
224.2417285231535
 30
0.0
 10
261.2114375712355
 20
224.2310445006081
 30
0.0
 10
261.2114375712355
 20
224.230074732462
 30
0.0
 10
261.2114375712355
 20
224.2295892413395
 30
0.0
  0
SPLINE
  5
365
330
1F
100
AcDbEntity
  8
0
  6
Continuous
 62
     7
370
    15
100
AcDbSpline
210
0.0
220
0.0
230
1.0
 70
     8
 71
     3
 72
    13
 73
     9
 74
     0
 42
0.00000001
 43
0.00000001
 40
0.0
 40
0.0
 40
0.0
 40
0.0
 40
0.1695411050601938
 40
0.3386458383077211
 40
0.5184804584267423
 40
0.7277236211485286
 40
0.9924537768855446
 40
1.0
 40
1.0
 40
1.0
 40
1.0
 10
223.0682644492119
 20
238.8080110110527
 30
0.0
 10
223.0699051923643
 20
238.8078754917096
 30
0.0
 10
223.0731824556576
 20
238.8076048018287
 30
0.0
 10
223.0775915085496
 20
238.8055460673389
 30
0.0
 10
223.0813029487565
 20
238.8024289489387
 30
0.0
 10
223.0841508673747
 20
238.7979256389479
 30
0.0
 10
223.0849232446822
 20
238.7942373890496
 30
0.0
 10
223.084930903609
 20
238.792162400677
 30
0.0
 10
223.0849311158785
 20
238.7921048917396
 30
0.0
  0
LINE
  5
366
330
1F
100
AcDbEntity
  8
0
  6
Continuous
 62
     7
370
    15
100
AcDbLine
 10
223.0849311159
 20
238.7921048917
 30
0.0
 11
223.0849311159
 21
238.6641908153
 31
0.0
  0
LINE
  5
367
330
1F
100
AcDbEntity
  8
0
  6
Continuous
 62
     7
370
    15
100
AcDbLine
 10
223.0849311159
 20
238.2406941628
 30
0.0
 11
223.0849311159
 21
237.7887387422
 31
0.0
  0
SPLINE
  5
368
330
1F
100
AcDbEntity
  8
0
  6
Continuous
 62
     7
370
    15
100
AcDbSpline
210
0.0
220
0.0
230
1.0
 70
     8
 71
     3
 72
    13
 73
     9
 74
     0
 42
0.00000001
 43
0.00000001
 40
0.0
 40
0.0
 40
0.0
 40
0.0
 40
0.1695411050602266
 40
0.3386458383078104
 40
0.5184804584266861
 40
0.7277236211485668
 40
0.992453776885472
 40
0.9999999999999999
 40
0.9999999999999999
 40
0.9999999999999999
 40
0.9999999999999999
 10
223.0682644492119
 20
237.7829713854586
 30
0.0
 10
223.0699051923643
 20
237.7830198697073
 30
0.0
 10
223.0731824556576
 20
237.7831167134141
 30
0.0
 10
223.0775915085496
 20
237.7838548765811
 30
0.0
 10
223.0813029487565
 20
237.7849772998675
 30
0.0
 10
223.0841508673747
 20
237.7866084206792
 30
0.0
 10
223.0849232446822
 20
237.7879556671222
 30
0.0
 10
223.084930903609
 20
237.7887176242933
 30
0.0
 10
223.0849311158785
 20
237.7887387421693
 30
0.0
  0
LINE
  5
369
330
1F
100
AcDbEntity
  8
0
  6
Continuous
 62
     7
370
    15
100
AcDbLine
 10
223.0049311159
 20
237.7887387422
 30
0.0
 11
223.0049311159
 21
238.2389905763
 31
0.0
  0
LINE
  5
36A
330
1F
100
AcDbEntity
  8
0
  6
Continuous
 62
     7
370
    15
100
AcDbLine
 10
223.0049311159
 20
238.6087275573
 30
0.0
 11
223.0049311159
 21
238.7921048917
 31
0.0
  0
SPLINE
  5
36B
330
1F
100
AcDbEntity
  8
0
  6
Continuous
 62
     7
370
    15
100
AcDbSpline
210
0.0
220
0.0
230
1.0
 70
     8
 71
     3
 72
    13
 73
     9
 74
     0
 42
0.00000001
 43
0.00000001
 40
0.0
 40
0.0
 40
0.0
 40
0.0
 40
0.0075462231143764
 40
0.272276378851146
 40
0.4815195415732139
 40
0.6613541616922838
 40
0.8304588949398358
 40
1.0
 40
1.0
 40
1.0
 40
1.0
 10
223.0049311158785
 20
238.7921048917396
 30
0.0
 10
223.004931328148
 20
238.792162400677
 30
0.0
 10
223.004938987075
 20
238.7942373890495
 30
0.0
 10
223.0057113643824
 20
238.7979256389479
 30
0.0
 10
223.0085592830006
 20
238.8024289489387
 30
0.0
 10
223.0122707232075
 20
238.8055460673389
 30
0.0
 10
223.0166797760996
 20
238.8076048018287
 30
0.0
 10
223.0199570393928
 20
238.8078754917096
 30
0.0
 10
223.0215977825452
 20
238.8080110110527
 30
0.0
  0
SPLINE
  5
36C
330
1F
100
AcDbEntity
  8
0
  6
Continuous
 62
     7
370
    15
100
AcDbSpline
210
0.0
220
0.0
230
1.0
 70
     8
 71
     3
 72
    13
 73
     9
 74
     0
 42
0.00000001
 43
0.00000001
 40
0.0
 40
0.0
 40
0.0
 40
0.0
 40
0.0075462231146541
 40
0.2722763788513307
 40
0.4815195415732912
 40
0.6613541616923325
 40
0.8304588949397772
 40
1.0
 40
1.0
 40
1.0
 40
1.0
 10
223.0049311158785
 20
237.7887387421693
 30
0.0
 10
223.004931328148
 20
237.7887176242933
 30
0.0
 10
223.0049389870749
 20
237.7879556671223
 30
0.0
 10
223.0057113643824
 20
237.7866084206792
 30
0.0
 10
223.0085592830006
 20
237.7849772998675
 30
0.0
 10
223.0122707232075
 20
237.7838548765811
 30
0.0
 10
223.0166797760996
 20
237.7831167134141
 30
0.0
 10
223.0199570393928
 20
237.7830198697073
 30
0.0
 10
223.0215977825452
 20
237.7829713854586
 30
0.0
  0
LINE
  5
36D
330
1F
100
AcDbEntity
  8
0
  6
Continuous
 62
     7
370
    15
100
AcDbLine
 10
223.0215977825
 20
238.8080110111
 30
0.0
 11
223.0682644492
 21
238.8080110111
 31
0.0
  0
LINE
  5
36E
330
1F
100
AcDbEntity
  8
0
  6
Continuous
 62
     7
370
    15
100
AcDbLine
 10
223.0215977825
 20
237.7829713855
 30
0.0
 11
223.0682644492
 21
237.7829713855
 31
0.0
  0
SPLINE
  5
36F
330
1F
100
AcDbEntity
  8
0
  6
Continuous
 62
     7
370
    15
100
AcDbSpline
210
0.0
220
0.0
230
1.0
 70
     8
 71
     3
 72
    12
 73
     8
 74
     0
 42
0.00000001
 43
0.00000001
 40
0.0
 40
0.0
 40
0.0
 40
0.0
 40
0.2289440738516796
 40
0.4594214300241999
 40
0.6825355698158111
 40
0.8947175231628404
 40
1.0
 40
1.0
 40
1.0
 40
1.0
 10
223.0849311158785
 20
237.7684088264719
 30
0.0
 10
223.0837754835734
 20
237.7573615447418
 30
0.0
 10
223.0814564794721
 20
237.7351929955195
 30
0.0
 10
223.0631984897512
 20
237.7059242052507
 30
0.0
 10
223.0367293874524
 20
237.6848504866457
 30
0.0
 10
223.0100043214955
 20
237.6753859155975
 30
0.0
 10
222.9936786286231
 20
237.67458091277
 30
0.0
 10
222.9882644492119
 20
237.6743139452503
 30
0.0
  0
SPLINE
  5
370
330
1F
100
AcDbEntity
  8
0
  6
Continuous
 62
     7
370
    15
100
AcDbSpline
210
0.0
220
0.0
230
1.0
 70
     8
 71
     3
 72
     9
 73
     5
 74
     0
 42
0.00000001
 43
0.00000001
 40
0.0
 40
0.0
 40
0.0
 40
0.0
 40
0.8454234797242028
 40
1.0
 40
1.0
 40
1.0
 40
1.0
 10
222.9882644492119
 20
237.5495918806755
 30
0.0
 10
222.9990261575955
 20
237.5499455722564
 30
0.0
 10
223.011755527718
 20
237.5503639325093
 30
0.0
 10
223.0224766143083
 20
237.5563665035437
 30
0.0
 10
223.024133842567
 20
237.5572943600868
 30
0.0
  0
LINE
  5
371
330
1F
100
AcDbEntity
  8
0
  6
Continuous
 62
     7
370
    15
100
AcDbLine
 10
222.9882644492
 20
237.5495918807
 30
0.0
 11
222.9882644492
 21
237.6743139453
 31
0.0
  0
LINE
  5
372
330
1F
100
AcDbEntity
  8
0
  6
Continuous
 62
     7
370
    15
100
AcDbLine
 10
223.0849311159
 20
237.7684088265
 30
0.0
 11
223.0849311159
 21
237.646255908
 31
0.0
  0
LINE
  5
373
330
1F
100
AcDbEntity
  8
0
  6
Continuous
 62
     7
370
    15
100
AcDbLine
 10
222.9882644492
 20
237.6743139453
 30
0.0
 11
222.9882644492
 21
237.6929930152
 31
0.0
  0
SPLINE
  5
374
330
1F
100
AcDbEntity
  8
0
  6
Continuous
 62
     7
370
    15
100
AcDbSpline
210
0.0
220
0.0
230
1.0
 70
     8
 71
     3
 72
    12
 73
     8
 74
     0
 42
0.00000001
 43
0.00000001
 40
0.0
 40
0.0
 40
0.0
 40
0.0
 40
0.104420382643958
 40
0.3151731030980042
 40
0.5377472974586652
 40
0.7690283494735353
 40
1.0
 40
1.0
 40
1.0
 40
1.0
 10
222.9882644492119
 20
237.6929930151811
 30
0.0
 10
222.9927457537876
 20
237.6932203242571
 30
0.0
 10
223.0062717209725
 20
237.6939064135533
 30
0.0
 10
223.0284288786502
 20
237.7019909316146
 30
0.0
 10
223.0503385312004
 20
237.7199956654991
 30
0.0
 10
223.0654093120588
 20
237.7450230075814
 30
0.0
 10
223.067313161598
 20
237.7639973744393
 30
0.0
 10
223.0682644492119
 20
237.7734782077731
 30
0.0
  0
LWPOLYLINE
  5
375
330
1F
100
AcDbEntity
  8
0
  6
Continuous
 62
     7
370
    15
100
AcDbPolyline
 90
        9
 70
   128
 43
0.0
 10
223.0849311159
 20
237.7684088265
 10
223.0846108706
 20
237.7693978137
 10
223.0836624414
 20
237.7703487947
 10
223.0821222761
 20
237.7712252238
 10
223.0800495622
 20
237.7719934204
 10
223.0775239531
 20
237.772623863
 10
223.0746425064
 20
237.7730923241
 10
223.0715159546
 20
237.773380801
 10
223.0682644492
 20
237.7734782078
  0
LINE
  5
376
330
1F
100
AcDbEntity
  8
0
  6
Continuous
 62
     7
370
    15
100
AcDbLine
 10
222.9882644492
 20
237.6743139453
 30
0.0
 11
222.6482644492
 21
237.6743139453
 31
0.0
  0
LINE
  5
377
330
1F
100
AcDbEntity
  8
0
  6
Continuous
 62
     7
370
    15
100
AcDbLine
 10
222.6482644492
 20
237.6743139453
 30
0.0
 11
222.6482644492
 21
237.6929930152
 31
0.0
  0
LINE
  5
378
330
1F
100
AcDbEntity
  8
0
  6
Continuous
 62
     7
370
    15
100
AcDbLine
 10
222.6482644492
 20
237.6929930152
 30
0.0
 11
222.9882644492
 21
237.6929930152
 31
0.0
  0
LWPOLYLINE
  5
379
330
1F
100
AcDbEntity
  8
0
  6
Continuous
 62
     7
370
    15
100
AcDbPolyline
 90
        9
 70
   128
 43
0.0
 10
222.6315977825
 20
237.6879236339
 10
222.6319180279
 20
237.6889126211
 10
222.632866457
 20
237.6898636021
 10
222.6344066223
 20
237.6907400312
 10
222.6364793362
 20
237.6915082278
 10
222.6390049453
 20
237.6921386704
 10
222.641886392
 20
237.6926071315
 10
222.6450129438
 20
237.6928956084
 10
222.6482644492
 20
237.6929930152
  0
ARC
  5
37A
330
1F
100
AcDbEntity
  8
0
  6
Continuous
 62
     7
370
    15
100
AcDbCircle
 10
222.6468761369
 20
237.6896237858
 30
0.0
 40
0.0153726584813309
100
AcDbArc
 50
186.349663683
 51
275.181469515
  0
LINE
  5
37B
330
1F
100
AcDbEntity
  8
0
  6
Continuous
 62
     7
370
    15
100
AcDbLine
 10
222.6482644492
 20
237.5495918807
 30
0.0
 11
222.9882644492
 21
237.5495918807
 31
0.0
  0
LINE
  5
37C
330
1F
100
AcDbEntity
  8
0
  6
Continuous
 62
     7
370
    15
100
AcDbLine
 10
222.6482644492
 20
237.6743139453
 30
0.0
 11
222.6482644492
 21
237.5495918807
 31
0.0
  0
ARC
  5
37D
330
1F
100
AcDbEntity
  8
0
  6
Continuous
 62
     7
370
    15
100
AcDbCircle
 10
222.6482644169
 20
237.566258515
 30
0.0
 40
0.0166666343219533
100
AcDbArc
 50
180.0001111935
 51
270.0001111932
  0
LINE
  5
37E
330
1F
100
AcDbEntity
  8
0
  6
Continuous
 62
     7
370
    15
100
AcDbLine
 10
222.6315977825
 20
237.5662584827
 30
0.0
 11
222.6315977825
 21
237.6879236339
 31
0.0
  0
LINE
  5
37F
330
1F
100
AcDbEntity
  8
0
  6
Continuous
 62
     7
370
    15
100
AcDbLine
 10
223.0682644492
 20
237.7734782078
 30
0.0
 11
223.0682644492
 21
237.7829713855
 31
0.0
  0
LINE
  5
380
330
1F
100
AcDbEntity
  8
0
  6
Continuous
 62
     7
370
    15
100
AcDbLine
 10
222.6482644492
 20
237.739796174
 30
0.0
 11
222.6482644492
 21
237.6929930152
 31
0.0
  0
LINE
  5
381
330
1F
100
AcDbEntity
  8
0
  6
Continuous
 62
     7
370
    15
100
AcDbLine
 10
222.9882644492
 20
237.739796174
 30
0.0
 11
222.6482644492
 21
237.739796174
 31
0.0
  0
SPLINE
  5
382
330
1F
100
AcDbEntity
  8
0
  6
Continuous
 62
     7
370
    15
100
AcDbSpline
210
0.0
220
0.0
230
1.0
 70
     8
 71
     3
 72
    12
 73
     8
 74
     0
 42
0.00000001
 43
0.00000001
 40
0.0
 40
0.0
 40
0.0
 40
0.0
 40
0.1009214352040247
 40
0.3119724040343218
 40
0.5359629038280048
 40
0.768118809935899
 40
1.0
 40
1.0
 40
1.0
 40
1.0
 10
222.9882644492119
 20
237.7397961740051
 30
0.0
 10
222.9900725131234
 20
237.7398858514558
 30
0.0
 10
222.9956616730869
 20
237.7401630660022
 30
0.0
 10
223.0048930865792
 20
237.7435067711362
 30
0.0
 10
223.0140745224438
 20
237.7510575470201
 30
0.0
 10
223.0203946189312
 20
237.7615532105468
 30
0.0
 10
223.0211968863248
 20
237.7695047778417
 30
0.0
 10
223.0215977825452
 20
237.7734782077731
 30
0.0
  0
LINE
  5
383
330
1F
100
AcDbEntity
  8
0
  6
Continuous
 62
     7
370
    15
100
AcDbLine
 10
223.0215977825
 20
237.7829713855
 30
0.0
 11
223.0215977825
 21
237.7734782078
 31
0.0
  0
LINE
  5
384
330
1F
100
AcDbEntity
  8
0
  6
Continuous
 62
     7
370
    15
100
AcDbLine
 10
222.6315977825
 20
237.6879236339
 30
0.0
 11
222.6315977825
 21
237.7347267927
 31
0.0
  0
LWPOLYLINE
  5
385
330
1F
100
AcDbEntity
  8
0
  6
Continuous
 62
     7
370
    15
100
AcDbPolyline
 90
        9
 70
   128
 43
0.0
 10
222.6315977825
 20
237.7347267927
 10
222.6319180279
 20
237.7357157799
 10
222.632866457
 20
237.7366667609
 10
222.6344066223
 20
237.7375431901
 10
222.6364793362
 20
237.7383113866
 10
222.6390049453
 20
237.7389418292
 10
222.641886392
 20
237.7394102903
 10
222.6450129438
 20
237.7396987673
 10
222.6482644492
 20
237.739796174
  0
LWPOLYLINE
  5
386
330
1F
100
AcDbEntity
  8
0
  6
Continuous
 62
     7
370
    15
100
AcDbPolyline
 90
        9
 70
   128
 43
0.0
 10
223.0215977825
 20
237.7734782078
 10
223.0183462772
 20
237.773380801
 10
223.0152197253
 20
237.7730923241
 10
223.0123382787
 20
237.772623863
 10
223.0098126695
 20
237.7719934204
 10
223.0077399557
 20
237.7712252238
 10
223.0061997903
 20
237.7703487947
 10
223.0052513612
 20
237.7693978137
 10
223.0049311159
 20
237.7684088265
  0
LINE
  5
387
330
1F
100
AcDbEntity
  8
0
  6
Continuous
 62
     7
370
    15
100
AcDbLine
 10
223.0049311159
 20
237.7684088265
 30
0.0
 11
223.0049311159
 21
237.7887387422
 31
0.0
  0
LINE
  5
388
330
1F
100
AcDbEntity
  8
0
  6
Continuous
 62
     7
370
    15
100
AcDbLine
 10
223.0849311159
 20
237.7887387422
 30
0.0
 11
223.0849311159
 21
237.7684088265
 31
0.0
  0
LWPOLYLINE
  5
389
330
1F
100
AcDbEntity
  8
0
  6
Continuous
 62
     7
370
    15
100
AcDbPolyline
 90
        9
 70
   128
 43
0.0
 10
223.0049311159
 20
238.8124348074
 10
223.0052513612
 20
238.8134237947
 10
223.0061997903
 20
238.8143747757
 10
223.0077399557
 20
238.8152512048
 10
223.0098126695
 20
238.8160194013
 10
223.0123382787
 20
238.8166498439
 10
223.0152197253
 20
238.8171183051
 10
223.0183462772
 20
238.817406782
 10
223.0215977825
 20
238.8175041887
  0
LINE
  5
38A
330
1F
100
AcDbEntity
  8
0
  6
Continuous
 62
     7
370
    15
100
AcDbLine
 10
223.0215977825
 20
238.8175041887
 30
0.0
 11
223.0215977825
 21
238.8080110111
 31
0.0
  0
LINE
  5
38B
330
1F
100
AcDbEntity
  8
0
  6
Continuous
 62
     7
370
    15
100
AcDbLine
 10
223.0049311159
 20
238.7921048917
 30
0.0
 11
223.0049311159
 21
238.8124348074
 31
0.0
  0
LINE
  5
38C
330
1F
100
AcDbEntity
  8
0
  6
Continuous
 62
     7
370
    15
100
AcDbLine
 10
223.0682644492
 20
238.8080110111
 30
0.0
 11
223.0682644492
 21
238.8175041887
 31
0.0
  0
LWPOLYLINE
  5
38D
330
1F
100
AcDbEntity
  8
0
  6
Continuous
 62
     7
370
    15
100
AcDbPolyline
 90
        9
 70
   128
 43
0.0
 10
223.0682644492
 20
238.8175041887
 10
223.0715159546
 20
238.817406782
 10
223.0746425064
 20
238.8171183051
 10
223.0775239531
 20
238.8166498439
 10
223.0800495622
 20
238.8160194013
 10
223.0821222761
 20
238.8152512048
 10
223.0836624414
 20
238.8143747757
 10
223.0846108706
 20
238.8134237947
 10
223.0849311159
 20
238.8124348074
  0
LINE
  5
38E
330
1F
100
AcDbEntity
  8
0
  6
Continuous
 62
     7
370
    15
100
AcDbLine
 10
223.0849311159
 20
238.8124348074
 30
0.0
 11
223.0849311159
 21
238.7921048917
 31
0.0
  0
LINE
  5
38F
330
1F
100
AcDbEntity
  8
0
  6
Continuous
 62
     7
370
    15
100
AcDbLine
 10
222.6482644492
 20
238.8511862225
 30
0.0
 11
222.9882644492
 21
238.8511862225
 31
0.0
  0
LINE
  5
390
330
1F
100
AcDbEntity
  8
0
  6
Continuous
 62
     7
370
    15
100
AcDbLine
 10
222.6482644492
 20
238.8979893813
 30
0.0
 11
222.6482644492
 21
238.8511862225
 31
0.0
  0
LINE
  5
391
330
1F
100
AcDbEntity
  8
0
  6
Continuous
 62
     7
370
    15
100
AcDbLine
 10
222.9882644492
 20
238.8979893813
 30
0.0
 11
222.6482644492
 21
238.8979893813
 31
0.0
  0
SPLINE
  5
392
330
1F
100
AcDbEntity
  8
0
  6
Continuous
 62
     7
370
    15
100
AcDbSpline
210
0.0
220
0.0
230
1.0
 70
     8
 71
     3
 72
    12
 73
     8
 74
     0
 42
0.00000001
 43
0.00000001
 40
0.0
 40
0.0
 40
0.0
 40
0.0
 40
0.1789601577904852
 40
0.3929009169381878
 40
0.5976976172813264
 40
0.7987833678438697
 40
1.0
 40
1.0
 40
1.0
 40
1.0
 10
223.0682644492119
 20
238.8175041887382
 30
0.0
 10
223.0676903178883
 20
238.824836696577
 30
0.0
 10
223.0664298321675
 20
238.8409349672139
 30
0.0
 10
223.0555274304907
 20
238.8637406935451
 30
0.0
 10
223.037489276373
 20
238.8827278325823
 30
0.0
 10
223.0142806017357
 20
238.8955167785545
 30
0.0
 10
222.9969383807094
 20
238.8971650016654
 30
0.0
 10
222.9882644492119
 20
238.8979893813301
 30
0.0
  0
SPLINE
  5
393
330
1F
100
AcDbEntity
  8
0
  6
Continuous
 62
     7
370
    15
100
AcDbSpline
210
0.0
220
0.0
230
1.0
 70
     8
 71
     3
 72
    12
 73
     8
 74
     0
 42
0.00000001
 43
0.00000001
 40
0.0
 40
0.0
 40
0.0
 40
0.0
 40
0.1818603118646028
 40
0.3964966430179411
 40
0.600583687110885
 40
0.8002123703306341
 40
1.0
 40
1.0
 40
1.0
 40
1.0
 10
223.0215977825452
 20
238.8175041887382
 30
0.0
 10
223.0213499324389
 20
238.8206153080026
 30
0.0
 10
223.0208095631077
 20
238.8273982521851
 30
0.0
 10
223.0161992498406
 20
238.836949699605
 30
0.0
 10
223.0086766227103
 20
238.8448453119062
 30
0.0
 10
222.9990485493273
 20
238.8501576420952
 30
0.0
 10
222.9918601027902
 20
238.8508432714212
 30
0.0
 10
222.9882644492119
 20
238.8511862225061
 30
0.0
  0
LINE
  5
394
330
1F
100
AcDbEntity
  8
0
  6
Continuous
 62
     7
370
    15
100
AcDbLine
 10
222.9882644492
 20
238.8979893813
 30
0.0
 11
222.9882644492
 21
238.909586602
 31
0.0
  0
SPLINE
  5
395
330
1F
100
AcDbEntity
  8
0
  6
Continuous
 62
     7
370
    15
100
AcDbSpline
210
0.0
220
0.0
230
1.0
 70
     8
 71
     3
 72
    12
 73
     8
 74
     0
 42
0.00000001
 43
0.00000001
 40
0.0
 40
0.0
 40
0.0
 40
0.0
 40
0.2028202020467238
 40
0.4049472449426511
 40
0.6098312030741004
 40
0.8226939241827115
 40
1.0
 40
1.0
 40
1.0
 40
1.0
 10
222.9882644492119
 20
238.9095866020061
 30
0.0
 10
222.9987405052476
 20
238.9085925222592
 30
0.0
 10
223.019656814307
 20
238.9066077601365
 30
0.0
 10
223.047683231005
 20
238.8911915024495
 30
0.0
 10
223.069488466701
 20
238.8682852372281
 30
0.0
 10
223.0827024177854
 20
238.840749431731
 30
0.0
 10
223.0842347648469
 20
238.82128163954
 30
0.0
 10
223.0849311158785
 20
238.8124348074371
 30
0.0
  0
SPLINE
  5
396
330
1F
100
AcDbEntity
  8
0
  6
Continuous
 62
     7
370
    15
100
AcDbSpline
210
0.0
220
0.0
230
1.0
 70
     8
 71
     3
 72
    12
 73
     8
 74
     0
 42
0.00000001
 43
0.00000001
 40
0.0
 40
0.0
 40
0.0
 40
0.0
 40
0.1947219538553976
 40
0.4187768971762805
 40
0.6230742393891185
 40
0.8142730248046879
 40
1.0
 40
1.0
 40
1.0
 40
1.0
 10
223.0049311158785
 20
238.8124348074371
 30
0.0
 10
223.0048095745944
 20
238.8140055379581
 30
0.0
 10
223.0045481830008
 20
238.8173836144454
 30
0.0
 10
223.0022980065687
 20
238.8221797650746
 30
0.0
 10
222.9985684325545
 20
238.826182906988
 30
0.0
 10
222.9937391137508
 20
238.8289174370672
 30
0.0
 10
222.9900715903139
 20
238.8292768402347
 30
0.0
 10
222.9882644492119
 20
238.8294539331006
 30
0.0
  0
LINE
  5
397
330
1F
100
AcDbEntity
  8
0
  6
Continuous
 62
     7
370
    15
100
AcDbLine
 10
223.0849311159
 20
238.8129225747
 30
0.0
 11
223.0849311159
 21
238.8124348074
 31
0.0
  0
ARC
  5
398
330
1F
100
AcDbEntity
  8
0
  6
Continuous
 62
     7
370
    15
100
AcDbCircle
 10
222.6482625701
 20
238.8461187207
 30
0.0
 40
0.0166647877034642
100
AcDbArc
 50
180.0064619495
 51
270.0064604923
  0
LWPOLYLINE
  5
399
330
1F
100
AcDbEntity
  8
0
  6
Continuous
 62
     7
370
    15
100
AcDbPolyline
 90
        9
 70
   128
 43
0.0
 10
222.6482644492
 20
238.8511862225
 10
222.6450129438
 20
238.8510888158
 10
222.641886392
 20
238.8508003388
 10
222.6390049453
 20
238.8503318777
 10
222.6364793362
 20
238.8497014351
 10
222.6344066223
 20
238.8489332386
 10
222.632866457
 20
238.8480568094
 10
222.6319180279
 20
238.8471058284
 10
222.6315977825
 20
238.8461168412
  0
LINE
  5
39A
330
1F
100
AcDbEntity
  8
0
  6
Continuous
 62
     7
370
    15
100
AcDbLine
 10
222.6482644492
 20
238.8294501745
 30
0.0
 11
222.6482644492
 21
238.8294539331
 31
0.0
  0
LINE
  5
39B
330
1F
100
AcDbEntity
  8
0
  6
Continuous
 62
     7
370
    15
100
AcDbLine
 10
222.6315977825
 20
238.8461168412
 30
0.0
 11
222.6315977825
 21
238.89292
 31
0.0
  0
LWPOLYLINE
  5
39C
330
1F
100
AcDbEntity
  8
0
  6
Continuous
 62
     7
370
    15
100
AcDbPolyline
 90
        9
 70
   128
 43
0.0
 10
222.6482644492
 20
238.8979893813
 10
222.6450129438
 20
238.8978919746
 10
222.641886392
 20
238.8976034977
 10
222.6390049453
 20
238.8971350365
 10
222.6364793362
 20
238.8965045939
 10
222.6344066223
 20
238.8957363974
 10
222.632866457
 20
238.8948599683
 10
222.6319180279
 20
238.8939089873
 10
222.6315977825
 20
238.89292
  0
ARC
  5
39D
330
1F
100
AcDbEntity
  8
0
  6
Continuous
 62
     7
370
    15
100
AcDbCircle
 10
222.6467810058
 20
238.7263002645
 30
0.0
 40
0.0152953423067982
100
AcDbArc
 50
186.9416605483
 51
275.5656723023
  0
LINE
  5
39E
330
1F
100
AcDbEntity
  8
0
  6
Continuous
 62
     7
370
    15
100
AcDbLine
 10
222.6315977825
 20
238.72445169
 30
0.0
 11
222.6315977825
 21
238.8461168412
 31
0.0
  0
LINE
  5
39F
330
1F
100
AcDbEntity
  8
0
  6
Continuous
 62
     7
370
    15
100
AcDbLine
 10
222.6482644492
 20
238.8979893813
 30
0.0
 11
222.6482644492
 21
238.909586602
 31
0.0
  0
LINE
  5
3A0
330
1F
100
AcDbEntity
  8
0
  6
Continuous
 62
     7
370
    15
100
AcDbLine
 10
222.6482644492
 20
238.909586602
 30
0.0
 11
222.9882644492
 21
238.909586602
 31
0.0
  0
ARC
  5
3A1
330
1F
100
AcDbEntity
  8
0
  6
Continuous
 62
     7
370
    15
100
AcDbCircle
 10
222.6482644169
 20
238.8929199677
 30
0.0
 40
0.0166666343219818
100
AcDbArc
 50
89.9998888068
 51
179.9998888063
  0
SPLINE
  5
3A2
330
1F
100
AcDbEntity
  8
0
  6
Continuous
 62
     7
370
    15
100
AcDbSpline
210
0.0
220
0.0
230
1.0
 70
     8
 71
     3
 72
    13
 73
     9
 74
     0
 42
0.00000001
 43
0.00000001
 40
0.0
 40
0.0
 40
0.0
 40
0.0
 40
0.1695411050602339
 40
0.3386458383078049
 40
0.5184804584267539
 40
0.7277236211485888
 40
0.9924537768854881
 40
1.0
 40
1.0
 40
1.0
 40
1.0
 10
222.9415977825452
 20
238.2252394125093
 30
0.0
 10
222.9399570393928
 20
238.2253371199889
 30
0.0
 10
222.9366797760995
 20
238.2255322834647
 30
0.0
 10
222.9322707232075
 20
238.2270138162307
 30
0.0
 10
222.9285592830005
 20
238.2292487757701
 30
0.0
 10
222.9257113643824
 20
238.2324611803229
 30
0.0
 10
222.9249389870749
 20
238.2350726344602
 30
0.0
 10
222.9249313281481
 20
238.2365349294831
 30
0.0
 10
222.9249311158785
 20
238.2365754574369
 30
0.0
  0
LINE
  5
3A3
330
1F
100
AcDbEntity
  8
0
  6
Continuous
 62
     7
370
    15
100
AcDbLine
 10
222.9249311159
 20
237.7513934594
 30
0.0
 11
222.9249311159
 21
238.2365754574
 31
0.0
  0
SPLINE
  5
3A4
330
1F
100
AcDbEntity
  8
0
  6
Continuous
 62
     7
370
    15
100
AcDbSpline
210
0.0
220
0.0
230
1.0
 70
     8
 71
     3
 72
    13
 73
     9
 74
     0
 42
0.00000001
 43
0.00000001
 40
0.0
 40
0.0
 40
0.0
 40
0.0
 40
0.0075462231146172
 40
0.2722763788513431
 40
0.4815195415732851
 40
0.6613541616923441
 40
0.8304588949397739
 40
0.9999999999999999
 40
0.9999999999999999
 40
0.9999999999999999
 40
0.9999999999999999
 10
223.0049311158785
 20
238.2365754574369
 30
0.0
 10
223.0049309036091
 20
238.2365349294831
 30
0.0
 10
223.0049232446821
 20
238.2350726344602
 30
0.0
 10
223.0041508673747
 20
238.2324611803229
 30
0.0
 10
223.0013029487565
 20
238.2292487757701
 30
0.0
 10
222.9975915085496
 20
238.2270138162307
 30
0.0
 10
222.9931824556575
 20
238.2255322834647
 30
0.0
 10
222.9899051923643
 20
238.2253371199889
 30
0.0
 10
222.9882644492119
 20
238.2252394125092
 30
0.0
  0
LINE
  5
3A5
330
1F
100
AcDbEntity
  8
0
  6
Continuous
 62
     7
370
    15
100
AcDbLine
 10
223.0049311159
 20
238.2365754574
 30
0.0
 11
223.0049311159
 21
237.7887387422
 31
0.0
  0
LINE
  5
3A6
330
1F
100
AcDbEntity
  8
0
  6
Continuous
 62
     7
370
    15
100
AcDbLine
 10
223.0049311159
 20
237.7684088265
 30
0.0
 11
223.0049311159
 21
237.7570447422
 31
0.0
  0
LINE
  5
3A7
330
1F
100
AcDbEntity
  8
0
  6
Continuous
 62
     7
370
    15
100
AcDbLine
 10
222.9882644492
 20
238.2252394125
 30
0.0
 11
222.9415977825
 21
238.2252394125
 31
0.0
  0
SPLINE
  5
3A8
330
1F
100
AcDbEntity
  8
0
  6
Continuous
 62
     7
370
    15
100
AcDbSpline
210
0.0
220
0.0
230
1.0
 70
     8
 71
     3
 72
    12
 73
     8
 74
     0
 42
0.00000001
 43
0.00000001
 40
0.0
 40
0.0
 40
0.0
 40
0.0
 40
0.2289440738516838
 40
0.4594214300242035
 40
0.6825355698158151
 40
0.8947175231628419
 40
1.0
 40
1.0
 40
1.0
 40
1.0
 10
222.9249311158785
 20
238.2443990014023
 30
0.0
 10
222.9260867481837
 20
238.2481212095381
 30
0.0
 10
222.928405752285
 20
238.2555905541508
 30
0.0
 10
222.9466637420058
 20
238.2656080802391
 30
0.0
 10
222.9731328443047
 20
238.2728717728089
 30
0.0
 10
222.9998579102615
 20
238.2761509194889
 30
0.0
 10
223.016183603134
 20
238.2764298630294
 30
0.0
 10
223.0215977825452
 20
238.2765223706115
 30
0.0
  0
SPLINE
  5
3A9
330
1F
100
AcDbEntity
  8
0
  6
Continuous
 62
     7
370
    15
100
AcDbSpline
210
0.0
220
0.0
230
1.0
 70
     8
 71
     3
 72
    12
 73
     8
 74
     0
 42
0.00000001
 43
0.00000001
 40
0.0
 40
0.0
 40
0.0
 40
0.0
 40
0.2028202020467401
 40
0.4049472449426604
 40
0.6098312030740722
 40
0.8226939241827096
 40
1.0
 40
1.0
 40
1.0
 40
1.0
 10
223.0215977825452
 20
238.6580250257044
 30
0.0
 10
223.0111217265095
 20
238.6576056847194
 30
0.0
 10
222.99020541745
 20
238.6567684358909
 30
0.0
 10
222.9621790007521
 20
238.6502523516214
 30
0.0
 10
222.9403737650561
 20
238.6405250196236
 30
0.0
 10
222.9271598139717
 20
238.6287650291873
 30
0.0
 10
222.9256274669102
 20
238.6203673118463
 30
0.0
 10
222.9249311158785
 20
238.6165511012233
 30
0.0
  0
LINE
  5
3AA
330
1F
100
AcDbEntity
  8
0
  6
Continuous
 62
     7
370
    15
100
AcDbLine
 10
223.0215977825
 20
238.6580250257
 30
0.0
 11
223.0215977825
 21
238.2765223706
 31
0.0
  0
LINE
  5
3AB
330
1F
100
AcDbEntity
  8
0
  6
Continuous
 62
     7
370
    15
100
AcDbLine
 10
222.9249311159
 20
238.2443990014
 30
0.0
 11
222.9249311159
 21
238.6165511012
 31
0.0
  0
LINE
  5
3AC
330
1F
100
AcDbEntity
  8
0
  6
Continuous
 62
     7
370
    15
100
AcDbLine
 10
223.0215977825
 20
238.2765223706
 30
0.0
 11
223.3615977825
 21
238.2765223706
 31
0.0
  0
LINE
  5
3AD
330
1F
100
AcDbEntity
  8
0
  6
Continuous
 62
     7
370
    15
100
AcDbLine
 10
223.3615977825
 20
238.6580250257
 30
0.0
 11
223.0215977825
 21
238.6580250257
 31
0.0
  0
LINE
  5
3AE
330
1F
100
AcDbEntity
  8
0
  6
Continuous
 62
     7
370
    15
100
AcDbLine
 10
223.3615977825
 20
238.2765223706
 30
0.0
 11
223.3615977825
 21
238.6580250257
 31
0.0
  0
LWPOLYLINE
  5
3AF
330
1F
100
AcDbEntity
  8
0
  6
Continuous
 62
     7
370
    15
100
AcDbPolyline
 90
        9
 70
   128
 43
0.0
 10
223.3615977825
 20
238.6580250257
 10
223.3648492879
 20
238.6578232543
 10
223.3679758398
 20
238.657225694
 10
223.3708572864
 20
238.6562553088
 10
223.3733828956
 20
238.65494939
 10
223.3754556094
 20
238.6533581234
 10
223.3769957748
 20
238.6515426603
 10
223.3779442039
 20
238.6495727681
 10
223.3782644492
 20
238.6475241486
  0
LINE
  5
3B0
330
1F
100
AcDbEntity
  8
0
  6
Continuous
 62
     7
370
    15
100
AcDbLine
 10
223.3782644492
 20
238.6475241486
 30
0.0
 11
223.3782644492
 21
238.2753720488
 31
0.0
  0
ARC
  5
3B1
330
1F
100
AcDbEntity
  8
0
  6
Continuous
 62
     7
370
    15
100
AcDbCircle
 10
223.3657446006
 20
238.2152900486
 30
0.0
 40
0.0613725782312255
100
AcDbArc
 50
78.2291837911
 51
93.8743090136
  0
LINE
  5
3B2
330
1F
100
AcDbEntity
  8
0
  6
Continuous
 62
     7
370
    15
100
AcDbLine
 10
223.0215977825
 20
238.2765223706
 30
0.0
 11
223.0215977825
 21
238.2598657113
 31
0.0
  0
SPLINE
  5
3B3
330
1F
100
AcDbEntity
  8
0
  6
Continuous
 62
     7
370
    15
100
AcDbSpline
210
0.0
220
0.0
230
1.0
 70
     8
 71
     3
 72
    12
 73
     8
 74
     0
 42
0.00000001
 43
0.00000001
 40
0.0
 40
0.0
 40
0.0
 40
0.0
 40
0.1044203826439575
 40
0.3151731030980011
 40
0.5377472974586651
 40
0.7690283494735357
 40
1.0
 40
1.0
 40
1.0
 40
1.0
 10
223.0215977825452
 20
238.2598657113231
 30
0.0
 10
223.0171164779694
 20
238.259778236167
 30
0.0
 10
223.0035905107846
 20
238.2595142090134
 30
0.0
 10
222.9814333531069
 20
238.256403050884
 30
0.0
 10
222.9595237005567
 20
238.249474304635
 30
0.0
 10
222.9444529196983
 20
238.2398430541158
 30
0.0
 10
222.9425490701591
 20
238.232541164844
 30
0.0
 10
222.9415977825452
 20
238.2288926639098
 30
0.0
  0
ARC
  5
3B4
330
1F
100
AcDbEntity
  8
0
  6
Continuous
 62
     7
370
    15
100
AcDbCircle
 10
222.9410378134
 20
238.2450008727
 30
0.0
 40
0.0161179389049158
100
AcDbArc
 50
182.1400194107
 51
271.9909695493
  0
ARC
  5
3B5
330
1F
100
AcDbEntity
  8
0
  6
Continuous
 62
     7
370
    15
100
AcDbCircle
 10
223.3621577517
 20
238.2759739201
 30
0.0
 40
0.0161179389049179
100
AcDbArc
 50
268.0090304508
 51
357.8599805891
  0
LINE
  5
3B6
330
1F
100
AcDbEntity
  8
0
  6
Continuous
 62
     7
370
    15
100
AcDbLine
 10
223.3615977825
 20
238.2765223706
 30
0.0
 11
223.3615977825
 21
238.2598657113
 31
0.0
  0
LINE
  5
3B7
330
1F
100
AcDbEntity
  8
0
  6
Continuous
 62
     7
370
    15
100
AcDbLine
 10
223.3615977825
 20
238.2598657113
 30
0.0
 11
223.0215977825
 21
238.2598657113
 31
0.0
  0
LINE
  5
3B8
330
1F
100
AcDbEntity
  8
0
  6
Continuous
 62
     7
370
    15
100
AcDbLine
 10
222.9415977825
 20
238.2288926639
 30
0.0
 11
222.9415977825
 21
238.2252394125
 31
0.0
  0
LINE
  5
3B9
330
1F
100
AcDbEntity
  8
0
  6
Continuous
 62
     7
370
    15
100
AcDbLine
 10
223.3615977825
 20
238.241854492
 30
0.0
 11
223.3615977825
 21
238.2598657113
 31
0.0
  0
LINE
  5
3BA
330
1F
100
AcDbEntity
  8
0
  6
Continuous
 62
     7
370
    15
100
AcDbLine
 10
223.0215977825
 20
238.241854492
 30
0.0
 11
223.3615977825
 21
238.241854492
 31
0.0
  0
SPLINE
  5
3BB
330
1F
100
AcDbEntity
  8
0
  6
Continuous
 62
     7
370
    15
100
AcDbSpline
210
0.0
220
0.0
230
1.0
 70
     8
 71
     3
 72
    12
 73
     8
 74
     0
 42
0.00000001
 43
0.00000001
 40
0.0
 40
0.0
 40
0.0
 40
0.0
 40
0.1009214352040253
 40
0.3119724040343351
 40
0.5359629038279959
 40
0.7681188099359082
 40
0.9999999999999999
 40
0.9999999999999999
 40
0.9999999999999999
 40
0.9999999999999999
 10
223.0215977825452
 20
238.2418544919836
 30
0.0
 10
223.0197897186337
 20
238.2418199814875
 30
0.0
 10
223.0142005586701
 20
238.2417133012521
 30
0.0
 10
223.0049691451779
 20
238.2404265460824
 30
0.0
 10
222.9957877093132
 20
238.2375207874959
 30
0.0
 10
222.9894676128258
 20
238.2334817503317
 30
0.0
 10
222.9886653454323
 20
238.2304217555314
 30
0.0
 10
222.9882644492119
 20
238.2288926639097
 30
0.0
  0
LINE
  5
3BC
330
1F
100
AcDbEntity
  8
0
  6
Continuous
 62
     7
370
    15
100
AcDbLine
 10
222.9882644492
 20
238.2252394125
 30
0.0
 11
222.9882644492
 21
238.2288926639
 31
0.0
  0
ARC
  5
3BD
330
1F
100
AcDbEntity
  8
0
  6
Continuous
 62
     7
370
    15
100
AcDbCircle
 10
223.3621577517
 20
238.2579627007
 30
0.0
 40
0.0161179389049463
100
AcDbArc
 50
268.0090304509
 51
357.8599805891
  0
LINE
  5
3BE
330
1F
100
AcDbEntity
  8
0
  6
Continuous
 62
     7
370
    15
100
AcDbLine
 10
223.3782644492
 20
238.2753720488
 30
0.0
 11
223.3782644492
 21
238.2573608295
 31
0.0
  0
LINE
  5
3BF
330
1F
100
AcDbEntity
  8
0
  6
Continuous
 62
     7
370
    15
100
AcDbLine
 10
222.9249311159
 20
238.2365754574
 30
0.0
 11
222.9249311159
 21
238.2443990014
 31
0.0
  0
LINE
  5
3C0
330
1F
100
AcDbEntity
  8
0
  6
Continuous
 62
     7
370
    15
100
AcDbLine
 10
223.0215977825
 20
238.6641908153
 30
0.0
 11
223.0215977825
 21
238.6580250257
 31
0.0
  0
LINE
  5
3C1
330
1F
100
AcDbEntity
  8
0
  6
Continuous
 62
     7
370
    15
100
AcDbLine
 10
223.0049311159
 20
238.7921048917
 30
0.0
 11
223.0049311159
 21
238.6648728592
 31
0.0
  0
LINE
  5
3C2
330
1F
100
AcDbEntity
  8
0
  6
Continuous
 62
     7
370
    15
100
AcDbLine
 10
222.9249311159
 20
238.6087275573
 30
0.0
 11
222.9249311159
 21
238.7929225747
 31
0.0
  0
LINE
  5
3C3
330
1F
100
AcDbEntity
  8
0
  6
Continuous
 62
     7
370
    15
100
AcDbLine
 10
223.3615977825
 20
237.7961479966
 30
0.0
 11
223.3615977825
 21
237.8141592159
 31
0.0
  0
LINE
  5
3C4
330
1F
100
AcDbEntity
  8
0
  6
Continuous
 62
     7
370
    15
100
AcDbLine
 10
223.3615977825
 20
237.8141592159
 30
0.0
 11
223.3615977825
 21
237.8404743017
 31
0.0
  0
LWPOLYLINE
  5
3C5
330
1F
100
AcDbEntity
  8
0
  6
Continuous
 62
     7
370
    15
100
AcDbPolyline
 90
        9
 70
   128
 43
0.0
 10
223.3615977825
 20
237.8404743017
 10
223.3648492879
 20
237.8402666146
 10
223.3679758398
 20
237.8396515347
 10
223.3708572864
 20
237.8386526992
 10
223.3733828956
 20
237.8373084926
 10
223.3754556094
 20
237.8356705722
 10
223.3769957748
 20
237.8338018823
 10
223.3779442039
 20
237.8317742356
 10
223.3782644492
 20
237.8296655534
  0
ARC
  5
3C6
330
1F
100
AcDbEntity
  8
0
  6
Continuous
 62
     7
370
    15
100
AcDbCircle
 10
223.3621577517
 20
237.8302674246
 30
0.0
 40
0.0161179389049179
100
AcDbArc
 50
268.0090304508
 51
357.8599805891
  0
LINE
  5
3C7
330
1F
100
AcDbEntity
  8
0
  6
Continuous
 62
     7
370
    15
100
AcDbLine
 10
223.3782644492
 20
237.8674761017
 30
0.0
 11
223.3782644492
 21
237.8296655534
 31
0.0
  0
LINE
  5
3C8
330
1F
100
AcDbEntity
  8
0
  6
Continuous
 62
     7
370
    15
100
AcDbLine
 10
223.3782644492
 20
237.8296655534
 30
0.0
 11
223.3782644492
 21
237.811654334
 31
0.0
  0
ARC
  5
3C9
330
1F
100
AcDbEntity
  8
0
  6
Continuous
 62
     7
370
    15
100
AcDbCircle
 10
223.3621577517
 20
237.8122562053
 30
0.0
 40
0.016117938904919
100
AcDbArc
 50
268.0090304508
 51
357.859980589
  0
LINE
  5
3CA
330
1F
100
AcDbEntity
  8
0
  6
Continuous
 62
     7
370
    15
100
AcDbLine
 10
223.7651589834
 20
238.6063877432
 30
0.0
 11
223.7949311159
 21
238.4781723939
 31
0.0
  0
SPLINE
  5
3CB
330
1F
100
AcDbEntity
  8
0
  6
Continuous
 62
     7
370
    15
100
AcDbSpline
210
0.0
220
0.0
230
1.0
 70
     8
 71
     3
 72
     9
 73
     5
 74
     0
 42
0.00000001
 43
0.00000001
 40
0.0
 40
0.0
 40
0.0
 40
0.0
 40
0.070200576703411
 40
1.0
 40
1.0
 40
1.0
 40
1.0
 10
223.7949311158785
 20
238.4781723938843
 30
0.0
 10
223.794901374794
 20
238.4751329314638
 30
0.0
 10
223.794477716102
 20
238.4318361016764
 30
0.0
 10
223.7792850839756
 20
238.3894073103232
 30
0.0
 10
223.7651589833862
 20
238.3499570445918
 30
0.0
  0
LINE
  5
3CC
330
1F
100
AcDbEntity
  8
0
  6
Continuous
 62
     7
370
    15
100
AcDbLine
 10
223.7651589834
 20
238.3499570446
 30
0.0
 11
223.4780365817
 21
238.3499570446
 31
0.0
  0
SPLINE
  5
3CD
330
1F
100
AcDbEntity
  8
0
  6
Continuous
 62
     7
370
    15
100
AcDbSpline
210
0.0
220
0.0
230
1.0
 70
     8
 71
     3
 72
     9
 73
     5
 74
     0
 42
0.00000001
 43
0.00000001
 40
0.0
 40
0.0
 40
0.0
 40
0.0
 40
0.0702005767033993
 40
1.0
 40
1.0
 40
1.0
 40
1.0
 10
223.4482644492119
 20
238.4781723938843
 30
0.0
 10
223.4482941902964
 20
238.4751329314638
 30
0.0
 10
223.4487178489884
 20
238.4318361016765
 30
0.0
 10
223.4639104811147
 20
238.3894073103232
 30
0.0
 10
223.4780365817042
 20
238.3499570445918
 30
0.0
  0
LINE
  5
3CE
330
1F
100
AcDbEntity
  8
0
  6
Continuous
 62
     7
370
    15
100
AcDbLine
 10
223.4780365817
 20
238.6063877432
 30
0.0
 11
223.4482644492
 21
238.4781723939
 31
0.0
  0
LINE
  5
3CF
330
1F
100
AcDbEntity
  8
0
  6
Continuous
 62
     7
370
    15
100
AcDbLine
 10
223.7651589834
 20
238.6063877432
 30
0.0
 11
223.4780365817
 21
238.6063877432
 31
0.0
  0
SPLINE
  5
3D0
330
1F
100
AcDbEntity
  8
0
  6
Continuous
 62
     7
370
    15
100
AcDbSpline
210
0.0
220
0.0
230
1.0
 70
     8
 71
     3
 72
     9
 73
     5
 74
     0
 42
0.00000001
 43
0.00000001
 40
0.0
 40
0.0
 40
0.0
 40
0.0
 40
0.2575513451038023
 40
0.9999999999999999
 40
0.9999999999999999
 40
0.9999999999999999
 40
0.9999999999999999
 10
223.4780365817042
 20
238.3499570445918
 30
0.0
 10
223.4735422335192
 20
238.3341406001472
 30
0.0
 10
223.4560919337229
 20
238.2727297601525
 30
0.0
 10
223.4515997012035
 20
238.2089276124299
 30
0.0
 10
223.4482644492119
 20
238.1615577936737
 30
0.0
  0
LINE
  5
3D1
330
1F
100
AcDbEntity
  8
0
  6
Continuous
 62
     7
370
    15
100
AcDbLine
 10
223.4482644492
 20
238.1615577937
 30
0.0
 11
223.4482644492
 21
238.4781723939
 31
0.0
  0
SPLINE
  5
3D2
330
1F
100
AcDbEntity
  8
0
  6
Continuous
 62
     7
370
    15
100
AcDbSpline
210
0.0
220
0.0
230
1.0
 70
     8
 71
     3
 72
     9
 73
     5
 74
     0
 42
0.00000001
 43
0.00000001
 40
0.0
 40
0.0
 40
0.0
 40
0.0
 40
0.2575513451038178
 40
1.0
 40
1.0
 40
1.0
 40
1.0
 10
223.7651589833862
 20
238.3499570445918
 30
0.0
 10
223.7696533315712
 20
238.3341406001472
 30
0.0
 10
223.7871036313674
 20
238.2727297601525
 30
0.0
 10
223.791595863887
 20
238.2089276124299
 30
0.0
 10
223.7949311158785
 20
238.1615577936737
 30
0.0
  0
SPLINE
  5
3D3
330
1F
100
AcDbEntity
  8
0
  6
Continuous
 62
     7
370
    15
100
AcDbSpline
210
0.0
220
0.0
230
1.0
 70
     8
 71
     3
 72
     9
 73
     5
 74
     0
 42
0.00000001
 43
0.00000001
 40
0.0
 40
0.0
 40
0.0
 40
0.0
 40
0.2686336050555604
 40
1.0
 40
1.0
 40
1.0
 40
1.0
 10
223.7949311158785
 20
238.1615577936737
 30
0.0
 10
223.7944891857062
 20
238.1444270300077
 30
0.0
 10
223.7928440818771
 20
238.0806570349525
 30
0.0
 10
223.7768537643038
 20
238.0185682174089
 30
0.0
 10
223.7651589833862
 20
237.9731585427557
 30
0.0
  0
LINE
  5
3D4
330
1F
100
AcDbEntity
  8
0
  6
Continuous
 62
     7
370
    15
100
AcDbLine
 10
223.7651589834
 20
237.9731585428
 30
0.0
 11
223.4780365817
 21
237.9731585428
 31
0.0
  0
SPLINE
  5
3D5
330
1F
100
AcDbEntity
  8
0
  6
Continuous
 62
     7
370
    15
100
AcDbSpline
210
0.0
220
0.0
230
1.0
 70
     8
 71
     3
 72
     9
 73
     5
 74
     0
 42
0.00000001
 43
0.00000001
 40
0.0
 40
0.0
 40
0.0
 40
0.0
 40
0.2686336050555428
 40
0.9999999999999999
 40
0.9999999999999999
 40
0.9999999999999999
 40
0.9999999999999999
 10
223.4482644492119
 20
238.1615577936737
 30
0.0
 10
223.4487063793842
 20
238.1444270300077
 30
0.0
 10
223.4503514832132
 20
238.0806570349525
 30
0.0
 10
223.4663418007866
 20
238.0185682174089
 30
0.0
 10
223.4780365817042
 20
237.9731585427557
 30
0.0
  0
LINE
  5
3D6
330
1F
100
AcDbEntity
  8
0
  6
Continuous
 62
     7
370
    15
100
AcDbLine
 10
223.4780365817
 20
237.9731585428
 30
0.0
 11
223.4482644492
 21
237.9129746411
 31
0.0
  0
LINE
  5
3D7
330
1F
100
AcDbEntity
  8
0
  6
Continuous
 62
     7
370
    15
100
AcDbLine
 10
223.4482644492
 20
237.9129746411
 30
0.0
 11
223.4482644492
 21
238.1615577937
 31
0.0
  0
LINE
  5
3D8
330
1F
100
AcDbEntity
  8
0
  6
Continuous
 62
     7
370
    15
100
AcDbLine
 10
223.7651589834
 20
237.9731585428
 30
0.0
 11
223.7949311159
 21
237.9129746411
 31
0.0
  0
LINE
  5
3D9
330
1F
100
AcDbEntity
  8
0
  6
Continuous
 62
     7
370
    15
100
AcDbLine
 10
223.7788453345
 20
237.8786314246
 30
0.0
 11
223.7651589834
 21
237.8527907395
 31
0.0
  0
LINE
  5
3DA
330
1F
100
AcDbEntity
  8
0
  6
Continuous
 62
     7
370
    15
100
AcDbLine
 10
223.7651589834
 20
237.8527907395
 30
0.0
 11
223.4780365817
 21
237.8527907395
 31
0.0
  0
SPLINE
  5
3DB
330
1F
100
AcDbEntity
  8
0
  6
Continuous
 62
     7
370
    15
100
AcDbSpline
210
0.0
220
0.0
230
1.0
 70
     8
 71
     3
 72
     9
 73
     5
 74
     0
 42
0.00000001
 43
0.00000001
 40
0.0
 40
0.0
 40
0.0
 40
0.0
 40
0.0702005767034386
 40
1.0
 40
1.0
 40
1.0
 40
1.0
 10
223.4482644492119
 20
237.9129746411302
 30
0.0
 10
223.4482941902964
 20
237.9115479265573
 30
0.0
 10
223.4487178489884
 20
237.891224524102
 30
0.0
 10
223.4639104811148
 20
237.8713085762924
 30
0.0
 10
223.4780365817042
 20
237.8527907395047
 30
0.0
  0
LINE
  5
3DC
330
1F
100
AcDbEntity
  8
0
  6
Continuous
 62
     7
370
    15
100
AcDbLine
 10
223.4643502306
 20
238.5805470581
 30
0.0
 11
223.4780365817
 21
238.6063877432
 31
0.0
  0
LINE
  5
3DD
330
1F
100
AcDbEntity
  8
0
  6
Continuous
 62
     7
370
    15
100
AcDbLine
 10
223.4482644492
 20
238.4781723939
 30
0.0
 11
223.4482644492
 21
238.5629225747
 31
0.0
  0
LINE
  5
3DE
330
1F
100
AcDbEntity
  8
0
  6
Continuous
 62
     7
370
    15
100
AcDbLine
 10
223.7788453345
 20
238.5805470581
 30
0.0
 11
223.7651589834
 21
238.6063877432
 31
0.0
  0
LINE
  5
3DF
330
1F
100
AcDbEntity
  8
0
  6
Continuous
 62
     7
370
    15
100
AcDbLine
 10
223.4482644492
 20
237.896255908
 30
0.0
 11
223.4482644492
 21
237.9129746411
 31
0.0
  0
LINE
  5
3E0
330
1F
100
AcDbEntity
  8
0
  6
Continuous
 62
     7
370
    15
100
AcDbLine
 10
223.4018256501
 20
238.5236354864
 30
0.0
 11
223.4315977825
 21
238.3425789165
 31
0.0
  0
SPLINE
  5
3E1
330
1F
100
AcDbEntity
  8
0
  6
Continuous
 62
     7
370
    15
100
AcDbSpline
210
0.0
220
0.0
230
1.0
 70
     8
 71
     3
 72
     9
 73
     5
 74
     0
 42
0.00000001
 43
0.00000001
 40
0.0
 40
0.0
 40
0.0
 40
0.0
 40
0.0702005767034068
 40
1.0
 40
1.0
 40
1.0
 40
1.0
 10
223.4315977825452
 20
238.3425789165459
 30
0.0
 10
223.4315680414607
 20
238.338286804541
 30
0.0
 10
223.4311443827687
 20
238.2771461101704
 30
0.0
 10
223.4159517506423
 20
238.2172311977534
 30
0.0
 10
223.4018256500528
 20
238.1615223467413
 30
0.0
  0
LINE
  5
3E2
330
1F
100
AcDbEntity
  8
0
  6
Continuous
 62
     7
370
    15
100
AcDbLine
 10
223.4018256501
 20
238.1615223467
 30
0.0
 11
223.1147032484
 21
238.1615223467
 31
0.0
  0
LINE
  5
3E3
330
1F
100
AcDbEntity
  8
0
  6
Continuous
 62
     7
370
    15
100
AcDbLine
 10
223.1007646113
 20
238.2406941628
 30
0.0
 11
223.1147032484
 21
238.1615223467
 31
0.0
  0
LINE
  5
3E4
330
1F
100
AcDbEntity
  8
0
  6
Continuous
 62
     7
370
    15
100
AcDbLine
 10
223.4018256501
 20
238.5236354864
 30
0.0
 11
223.3782644492
 21
238.5236354864
 31
0.0
  0
SPLINE
  5
3E5
330
1F
100
AcDbEntity
  8
0
  6
Continuous
 62
     7
370
    15
100
AcDbSpline
210
0.0
220
0.0
230
1.0
 70
     8
 71
     3
 72
     9
 73
     5
 74
     0
 42
0.00000001
 43
0.00000001
 40
0.0
 40
0.0
 40
0.0
 40
0.0
 40
0.2575513451038152
 40
1.0
 40
1.0
 40
1.0
 40
1.0
 10
223.4018256500528
 20
238.1615223467413
 30
0.0
 10
223.4063199982378
 20
238.149179500165
 30
0.0
 10
223.4237702980341
 20
238.1012556713405
 30
0.0
 10
223.4282625305536
 20
238.0514657123307
 30
0.0
 10
223.4315977825452
 20
238.0144992242365
 30
0.0
  0
LINE
  5
3E6
330
1F
100
AcDbEntity
  8
0
  6
Continuous
 62
     7
370
    15
100
AcDbLine
 10
223.4315977825
 20
238.3425789165
 30
0.0
 11
223.4315977825
 21
238.0144992242
 31
0.0
  0
SPLINE
  5
3E7
330
1F
100
AcDbEntity
  8
0
  6
Continuous
 62
     7
370
    15
100
AcDbSpline
210
0.0
220
0.0
230
1.0
 70
     8
 71
     3
 72
     9
 73
     5
 74
     0
 42
0.00000001
 43
0.00000001
 40
0.0
 40
0.0
 40
0.0
 40
0.0
 40
0.2575513451037929
 40
1.0
 40
1.0
 40
1.0
 40
1.0
 10
223.1147032483709
 20
238.1615223467413
 30
0.0
 10
223.1102089001859
 20
238.149179500165
 30
0.0
 10
223.0927586003896
 20
238.1012556713405
 30
0.0
 10
223.0882663678701
 20
238.0514657123307
 30
0.0
 10
223.0849311158785
 20
238.0144992242365
 30
0.0
  0
SPLINE
  5
3E8
330
1F
100
AcDbEntity
  8
0
  6
Continuous
 62
     7
370
    15
100
AcDbSpline
210
0.0
220
0.0
230
1.0
 70
     8
 71
     3
 72
     9
 73
     5
 74
     0
 42
0.00000001
 43
0.00000001
 40
0.0
 40
0.0
 40
0.0
 40
0.0
 40
0.2686336050555736
 40
1.0
 40
1.0
 40
1.0
 40
1.0
 10
223.4315977825452
 20
238.0144992242365
 30
0.0
 10
223.4311558523729
 20
238.0011307084234
 30
0.0
 10
223.4295107485438
 20
237.9513658407318
 30
0.0
 10
223.4135204309705
 20
237.9029129313736
 30
0.0
 10
223.4018256500528
 20
237.8674761017317
 30
0.0
  0
LINE
  5
3E9
330
1F
100
AcDbEntity
  8
0
  6
Continuous
 62
     7
370
    15
100
AcDbLine
 10
223.4018256501
 20
237.8674761017
 30
0.0
 11
223.1147032484
 21
237.8674761017
 31
0.0
  0
SPLINE
  5
3EA
330
1F
100
AcDbEntity
  8
0
  6
Continuous
 62
     7
370
    15
100
AcDbSpline
210
0.0
220
0.0
230
1.0
 70
     8
 71
     3
 72
     9
 73
     5
 74
     0
 42
0.00000001
 43
0.00000001
 40
0.0
 40
0.0
 40
0.0
 40
0.0
 40
0.2686336050555468
 40
1.0
 40
1.0
 40
1.0
 40
1.0
 10
223.0849311158785
 20
238.0144992242365
 30
0.0
 10
223.0853730460508
 20
238.0011307084234
 30
0.0
 10
223.0870181498799
 20
237.9513658407318
 30
0.0
 10
223.1030084674533
 20
237.9029129313736
 30
0.0
 10
223.1147032483709
 20
237.8674761017317
 30
0.0
  0
SPLINE
  5
3EB
330
1F
100
AcDbEntity
  8
0
  6
Continuous
 62
     7
370
    15
100
AcDbSpline
210
0.0
220
0.0
230
1.0
 70
     8
 71
     3
 72
     9
 73
     5
 74
     0
 42
0.00000001
 43
0.00000001
 40
0.0
 40
0.0
 40
0.0
 40
0.0
 40
0.0702005767034351
 40
1.0
 40
1.0
 40
1.0
 40
1.0
 10
223.4315977825452
 20
238.5576689336501
 30
0.0
 10
223.4315680414607
 20
238.5568621395754
 30
0.0
 10
223.4311443827687
 20
238.5453694409013
 30
0.0
 10
223.4159517506423
 20
238.5341071541121
 30
0.0
 10
223.4018256500528
 20
238.5236354863504
 30
0.0
  0
LINE
  5
3EC
330
1F
100
AcDbEntity
  8
0
  6
Continuous
 62
     7
370
    15
100
AcDbLine
 10
223.4315977825
 20
238.5576689337
 30
0.0
 11
223.4315977825
 21
238.3425789165
 31
0.0
  0
LINE
  5
3ED
330
1F
100
AcDbEntity
  8
0
  6
Continuous
 62
     7
370
    15
100
AcDbLine
 10
223.1147032484
 20
237.8674761017
 30
0.0
 11
223.0849311159
 21
237.901509549
 31
0.0
  0
LINE
  5
3EE
330
1F
100
AcDbEntity
  8
0
  6
Continuous
 62
     7
370
    15
100
AcDbLine
 10
223.4018256501
 20
237.8674761017
 30
0.0
 11
223.4315977825
 21
237.901509549
 31
0.0
  0
LINE
  5
3EF
330
1F
100
AcDbEntity
  8
0
  6
Continuous
 62
     7
370
    15
100
AcDbLine
 10
223.4315977825
 20
238.0144992242
 30
0.0
 11
223.4315977825
 21
237.8966221027
 31
0.0
  0
LINE
  5
3F0
330
1F
100
AcDbEntity
  8
0
  6
Continuous
 62
     7
370
    15
100
AcDbLine
 10
223.4018256501
 20
238.5917023809
 30
0.0
 11
223.4315977825
 21
238.5576689337
 31
0.0
  0
LINE
  5
3F1
330
1F
100
AcDbEntity
  8
0
  6
Continuous
 62
     7
370
    15
100
AcDbLine
 10
223.4018256501
 20
238.5917023809
 30
0.0
 11
223.3782644492
 21
238.5917023809
 31
0.0
  0
LINE
  5
3F2
330
1F
100
AcDbEntity
  8
0
  6
Continuous
 62
     7
370
    15
100
AcDbLine
 10
222.8951589834
 20
238.4244902423
 30
0.0
 11
222.9249311159
 21
238.232045377
 31
0.0
  0
SPLINE
  5
3F3
330
1F
100
AcDbEntity
  8
0
  6
Continuous
 62
     7
370
    15
100
AcDbSpline
210
0.0
220
0.0
230
1.0
 70
     8
 71
     3
 72
     9
 73
     5
 74
     0
 42
0.00000001
 43
0.00000001
 40
0.0
 40
0.0
 40
0.0
 40
0.0
 40
0.0702005767034107
 40
1.0
 40
1.0
 40
1.0
 40
1.0
 10
222.9249311158785
 20
238.2320453770185
 30
0.0
 10
222.924901374794
 20
238.2274832950272
 30
0.0
 10
222.924477716102
 20
238.1624969059474
 30
0.0
 10
222.9092850839756
 20
238.098813399404
 30
0.0
 10
222.8951589833862
 20
238.0396005117465
 30
0.0
  0
LINE
  5
3F4
330
1F
100
AcDbEntity
  8
0
  6
Continuous
 62
     7
370
    15
100
AcDbLine
 10
222.8951589834
 20
238.0396005117
 30
0.0
 11
222.6080365817
 21
238.0396005117
 31
0.0
  0
SPLINE
  5
3F5
330
1F
100
AcDbEntity
  8
0
  6
Continuous
 62
     7
370
    15
100
AcDbSpline
210
0.0
220
0.0
230
1.0
 70
     8
 71
     3
 72
     9
 73
     5
 74
     0
 42
0.00000001
 43
0.00000001
 40
0.0
 40
0.0
 40
0.0
 40
0.0
 40
0.0702005767034029
 40
1.0
 40
1.0
 40
1.0
 40
1.0
 10
222.5782644492119
 20
238.2320453770185
 30
0.0
 10
222.5782941902964
 20
238.2274832950272
 30
0.0
 10
222.5787178489884
 20
238.1624969059474
 30
0.0
 10
222.5939104811148
 20
238.098813399404
 30
0.0
 10
222.6080365817042
 20
238.0396005117465
 30
0.0
  0
LINE
  5
3F6
330
1F
100
AcDbEntity
  8
0
  6
Continuous
 62
     7
370
    15
100
AcDbLine
 10
222.6080365817
 20
238.4244902423
 30
0.0
 11
222.5782644492
 21
238.232045377
 31
0.0
  0
LINE
  5
3F7
330
1F
100
AcDbEntity
  8
0
  6
Continuous
 62
     7
370
    15
100
AcDbLine
 10
222.8951589834
 20
238.4244902423
 30
0.0
 11
222.6080365817
 21
238.4244902423
 31
0.0
  0
SPLINE
  5
3F8
330
1F
100
AcDbEntity
  8
0
  6
Continuous
 62
     7
370
    15
100
AcDbSpline
210
0.0
220
0.0
230
1.0
 70
     8
 71
     3
 72
     9
 73
     5
 74
     0
 42
0.00000001
 43
0.00000001
 40
0.0
 40
0.0
 40
0.0
 40
0.0
 40
0.2575513451037964
 40
1.0
 40
1.0
 40
1.0
 40
1.0
 10
222.6080365817042
 20
238.0396005117465
 30
0.0
 10
222.6035422335192
 20
238.0314193729185
 30
0.0
 10
222.5860919337229
 20
237.999654293902
 30
0.0
 10
222.5815997012035
 20
237.9666522984235
 30
0.0
 10
222.5782644492119
 20
237.9421500112717
 30
0.0
  0
LINE
  5
3F9
330
1F
100
AcDbEntity
  8
0
  6
Continuous
 62
     7
370
    15
100
AcDbLine
 10
222.5782644492
 20
237.9421500113
 30
0.0
 11
222.5782644492
 21
238.232045377
 31
0.0
  0
SPLINE
  5
3FA
330
1F
100
AcDbEntity
  8
0
  6
Continuous
 62
     7
370
    15
100
AcDbSpline
210
0.0
220
0.0
230
1.0
 70
     8
 71
     3
 72
     9
 73
     5
 74
     0
 42
0.00000001
 43
0.00000001
 40
0.0
 40
0.0
 40
0.0
 40
0.0
 40
0.2575513451038129
 40
1.0
 40
1.0
 40
1.0
 40
1.0
 10
222.8951589833862
 20
238.0396005117465
 30
0.0
 10
222.8996533315712
 20
238.0314193729185
 30
0.0
 10
222.9171036313674
 20
237.999654293902
 30
0.0
 10
222.9215958638869
 20
237.9666522984235
 30
0.0
 10
222.9249311158785
 20
237.9421500112717
 30
0.0
  0
SPLINE
  5
3FB
330
1F
100
AcDbEntity
  8
0
  6
Continuous
 62
     7
370
    15
100
AcDbSpline
210
0.0
220
0.0
230
1.0
 70
     8
 71
     3
 72
     9
 73
     5
 74
     0
 42
0.00000001
 43
0.00000001
 40
0.0
 40
0.0
 40
0.0
 40
0.0
 40
0.0702005767034481
 40
1.0
 40
1.0
 40
1.0
 40
1.0
 10
222.5782644492119
 20
238.5194846070876
 30
0.0
 10
222.5782941902963
 20
238.5172326785661
 30
0.0
 10
222.5787178489884
 20
238.4851541882288
 30
0.0
 10
222.5939104811148
 20
238.4537188249439
 30
0.0
 10
222.6080365817042
 20
238.4244902422905
 30
0.0
  0
LINE
  5
3FC
330
1F
100
AcDbEntity
  8
0
  6
Continuous
 62
     7
370
    15
100
AcDbLine
 10
222.5782644492
 20
238.232045377
 30
0.0
 11
222.5782644492
 21
238.5194846071
 31
0.0
  0
SPLINE
  5
3FD
330
1F
100
AcDbEntity
  8
0
  6
Continuous
 62
     7
370
    15
100
AcDbSpline
210
0.0
220
0.0
230
1.0
 70
     8
 71
     3
 72
     9
 73
     5
 74
     0
 42
0.00000001
 43
0.00000001
 40
0.0
 40
0.0
 40
0.0
 40
0.0
 40
0.0702005767034276
 40
1.0
 40
1.0
 40
1.0
 40
1.0
 10
222.9249311158785
 20
238.5194846070876
 30
0.0
 10
222.924901374794
 20
238.5172326785661
 30
0.0
 10
222.924477716102
 20
238.4851541882288
 30
0.0
 10
222.9092850839756
 20
238.4537188249439
 30
0.0
 10
222.8951589833862
 20
238.4244902422905
 30
0.0
  0
SPLINE
  5
3FE
330
1F
100
AcDbEntity
  8
0
  6
Continuous
 62
     7
370
    15
100
AcDbSpline
210
0.0
220
0.0
230
1.0
 70
     8
 71
     3
 72
     9
 73
     5
 74
     0
 42
0.00000001
 43
0.00000001
 40
0.0
 40
0.0
 40
0.0
 40
0.0
 40
0.2686336050555699
 40
0.9999999999999999
 40
0.9999999999999999
 40
0.9999999999999999
 40
0.9999999999999999
 10
222.9249311158785
 20
237.9421500112717
 30
0.0
 10
222.9244891857062
 20
237.9332890339342
 30
0.0
 10
222.9228440818771
 20
237.9003036695916
 30
0.0
 10
222.9068537643038
 20
237.8681879031327
 30
0.0
 10
222.8951589833862
 20
237.8446995107968
 30
0.0
  0
LINE
  5
3FF
330
1F
100
AcDbEntity
  8
0
  6
Continuous
 62
     7
370
    15
100
AcDbLine
 10
222.8951589834
 20
237.8446995108
 30
0.0
 11
222.6080365817
 21
237.8446995108
 31
0.0
  0
SPLINE
  5
400
330
1F
100
AcDbEntity
  8
0
  6
Continuous
 62
     7
370
    15
100
AcDbSpline
210
0.0
220
0.0
230
1.0
 70
     8
 71
     3
 72
     9
 73
     5
 74
     0
 42
0.00000001
 43
0.00000001
 40
0.0
 40
0.0
 40
0.0
 40
0.0
 40
0.2686336050555461
 40
1.0
 40
1.0
 40
1.0
 40
1.0
 10
222.5782644492119
 20
237.9421500112717
 30
0.0
 10
222.5787063793842
 20
237.9332890339342
 30
0.0
 10
222.5803514832133
 20
237.9003036695916
 30
0.0
 10
222.5963418007866
 20
237.8681879031327
 30
0.0
 10
222.6080365817042
 20
237.8446995107968
 30
0.0
  0
LINE
  5
401
330
1F
100
AcDbEntity
  8
0
  6
Continuous
 62
     7
370
    15
100
AcDbLine
 10
222.8951589834
 20
238.6144789719
 30
0.0
 11
222.9249311159
 21
238.5194846071
 31
0.0
  0
LINE
  5
402
330
1F
100
AcDbEntity
  8
0
  6
Continuous
 62
     7
370
    15
100
AcDbLine
 10
222.6080365817
 20
238.6144789719
 30
0.0
 11
222.5782644492
 21
238.5194846071
 31
0.0
  0
LINE
  5
403
330
1F
100
AcDbEntity
  8
0
  6
Continuous
 62
     7
370
    15
100
AcDbLine
 10
222.8951589834
 20
238.6144789719
 30
0.0
 11
222.6080365817
 21
238.6144789719
 31
0.0
  0
LINE
  5
404
330
1F
100
AcDbEntity
  8
0
  6
Continuous
 62
     7
370
    15
100
AcDbLine
 10
222.5782644492
 20
237.896255908
 30
0.0
 11
222.5782644492
 21
237.9421500113
 31
0.0
  0
LINE
  5
405
330
1F
100
AcDbEntity
  8
0
  6
Continuous
 62
     7
370
    15
100
AcDbLine
 10
222.5782644492
 20
238.5194846071
 30
0.0
 11
222.5782644492
 21
238.5629225747
 31
0.0
  0
LINE
  5
406
330
1F
100
AcDbEntity
  8
0
  6
Continuous
 62
     7
370
    15
100
AcDbLine
 10
223.7949311159
 20
238.0738159781
 30
0.0
 11
223.7949311159
 21
237.8229225747
 31
0.0
  0
LINE
  5
407
330
1F
100
AcDbEntity
  8
0
  6
Continuous
 62
     7
370
    15
100
AcDbLine
 10
223.7949311159
 20
238.636255908
 30
0.0
 11
223.7949311159
 21
238.0738159781
 31
0.0
  0
ARC
  5
408
330
1F
100
AcDbEntity
  8
0
  6
Continuous
 62
     7
370
    15
100
AcDbCircle
 10
252.591859396
 20
254.5934969381
 30
0.0
 40
0.2666666666666799
100
AcDbArc
 50
180.0
 51
231.2461015317
  0
ARC
  5
409
330
1F
100
AcDbEntity
  8
0
  6
Continuous
 62
     7
370
    15
100
AcDbCircle
 10
252.591859396
 20
254.5934969381
 30
0.0
 40
0.2666666666666471
100
AcDbArc
 50
307.8468238116
 51
54.129763759
  0
ARC
  5
40A
330
1F
100
AcDbEntity
  8
0
  6
Continuous
 62
     7
370
    15
100
AcDbCircle
 10
252.591859396
 20
254.5934969381
 30
0.0
 40
0.2666666666666799
100
AcDbArc
 50
125.870236241
 51
180.0
  0
CIRCLE
  5
40B
330
1F
100
AcDbEntity
  8
0
  6
Continuous
 62
     7
370
    15
100
AcDbCircle
 10
252.591859396
 20
254.5934969381
 30
0.0
 40
0.1966666666666868
  0
CIRCLE
  5
40C
330
1F
100
AcDbEntity
  8
0
  6
Continuous
 62
     7
370
    15
100
AcDbCircle
 10
252.591859396
 20
254.5934969381
 30
0.0
 40
0.1833333333333655
  0
CIRCLE
  5
40D
330
1F
100
AcDbEntity
  8
0
  6
Continuous
 62
     7
370
    15
100
AcDbCircle
 10
252.591859396
 20
254.5934969381
 30
0.0
 40
0.1400000000000148
  0
CIRCLE
  5
40E
330
1F
100
AcDbEntity
  8
0
  6
Continuous
 62
     7
370
    15
100
AcDbCircle
 10
239.591859396
 20
254.5934969381
 30
0.0
 40
0.1966666666666583
  0
ARC
  5
40F
330
1F
100
AcDbEntity
  8
0
  6
Continuous
 62
     7
370
    15
100
AcDbCircle
 10
239.591859396
 20
254.5934969381
 30
0.0
 40
0.2666666666666799
100
AcDbArc
 50
180.0
 51
231.2461015561
  0
ARC
  5
410
330
1F
100
AcDbEntity
  8
0
  6
Continuous
 62
     7
370
    15
100
AcDbCircle
 10
239.591859396
 20
254.5934969381
 30
0.0
 40
0.2666666666666803
100
AcDbArc
 50
307.8468238116
 51
54.129763759
  0
ARC
  5
411
330
1F
100
AcDbEntity
  8
0
  6
Continuous
 62
     7
370
    15
100
AcDbCircle
 10
239.591859396
 20
254.5934969381
 30
0.0
 40
0.2666666666666803
100
AcDbArc
 50
125.870236241
 51
180.0
  0
CIRCLE
  5
412
330
1F
100
AcDbEntity
  8
0
  6
Continuous
 62
     7
370
    15
100
AcDbCircle
 10
239.591859396
 20
254.5934969381
 30
0.0
 40
0.1833333333333087
  0
CIRCLE
  5
413
330
1F
100
AcDbEntity
  8
0
  6
Continuous
 62
     7
370
    15
100
AcDbCircle
 10
239.591859396
 20
254.5934969381
 30
0.0
 40
0.1400000000000148
  0
ARC
  5
414
330
1F
100
AcDbEntity
  8
0
  6
Continuous
 62
     7
370
    15
100
AcDbCircle
 10
226.5915977825
 20
254.596255908
 30
0.0
 40
0.2666666666666686
100
AcDbArc
 50
180.0
 51
233.120575643
  0
ARC
  5
415
330
1F
100
AcDbEntity
  8
0
  6
Continuous
 62
     7
370
    15
100
AcDbCircle
 10
226.5915977825
 20
254.596255908
 30
0.0
 40
0.2666666666666799
100
AcDbArc
 50
306.8698976447
 51
53.130102353
  0
ARC
  5
416
330
1F
100
AcDbEntity
  8
0
  6
Continuous
 62
     7
370
    15
100
AcDbCircle
 10
226.5915977825
 20
254.596255908
 30
0.0
 40
0.266666666666673
100
AcDbArc
 50
126.8794244214
 51
180.0
  0
CIRCLE
  5
417
330
1F
100
AcDbEntity
  8
0
  6
Continuous
 62
     7
370
    15
100
AcDbCircle
 10
226.5915977825
 20
254.596255908
 30
0.0
 40
0.1966666666666583
  0
CIRCLE
  5
418
330
1F
100
AcDbEntity
  8
0
  6
Continuous
 62
     7
370
    15
100
AcDbCircle
 10
226.5915977825
 20
254.596255908
 30
0.0
 40
0.1833333333333087
  0
CIRCLE
  5
419
330
1F
100
AcDbEntity
  8
0
  6
Continuous
 62
     7
370
    15
100
AcDbCircle
 10
226.5915977825
 20
254.596255908
 30
0.0
 40
0.1399999999999864
  0
LINE
  5
41A
330
1F
100
AcDbEntity
  8
0
  6
Continuous
 62
     8
370
    15
100
AcDbLine
 10
231.9049311159
 20
222.3307201696
 30
0.0
 11
228.5049311159
 21
222.3307201696
 31
0.0
  0
LINE
  5
41B
330
1F
100
AcDbEntity
  8
0
  6
Continuous
 62
     8
370
    15
100
AcDbLine
 10
231.9049311159
 20
203.9017916464
 30
0.0
 11
228.5049311159
 21
203.9017916464
 31
0.0
  0
LINE
  5
41C
330
1F
100
AcDbEntity
  8
0
  6
Continuous
 62
     8
370
    15
100
AcDbLine
 10
231.9049311159
 20
207.5115031601
 30
0.0
 11
228.5049311159
 21
207.5115031601
 31
0.0
  0
LINE
  5
41D
330
1F
100
AcDbEntity
  8
0
  6
Continuous
 62
     8
370
    15
100
AcDbLine
 10
231.9049311159
 20
218.7210086559
 30
0.0
 11
228.5049311159
 21
218.7210086559
 31
0.0
  0
LINE
  5
41E
330
1F
100
AcDbEntity
  8
0
  6
Continuous
 62
     8
370
    15
100
AcDbLine
 10
231.8944048001
 20
218.7340431651
 30
0.0
 11
228.5154574317
 21
218.7340431651
 31
0.0
  0
LINE
  5
41F
330
1F
100
AcDbEntity
  8
0
  6
Continuous
 62
     8
370
    15
100
AcDbLine
 10
231.9049311159
 20
218.8448364934
 30
0.0
 11
228.5049311159
 21
218.8448364934
 31
0.0
  0
LINE
  5
420
330
1F
100
AcDbEntity
  8
0
  6
Continuous
 62
     8
370
    15
100
AcDbLine
 10
231.8944048001
 20
218.8318019842
 30
0.0
 11
228.5154574317
 21
218.8318019842
 31
0.0
  0
LINE
  5
421
330
1F
100
AcDbEntity
  8
0
  6
Continuous
 62
     8
370
    15
100
AcDbLine
 10
231.8944048001
 20
207.4984686509
 30
0.0
 11
228.5154574317
 21
207.4984686509
 31
0.0
  0
LINE
  5
422
330
1F
100
AcDbEntity
  8
0
  6
Continuous
 62
     8
370
    15
100
AcDbLine
 10
231.9049311159
 20
207.3876753226
 30
0.0
 11
228.5049311159
 21
207.3876753226
 31
0.0
  0
LINE
  5
423
330
1F
100
AcDbEntity
  8
0
  6
Continuous
 62
     8
370
    15
100
AcDbLine
 10
231.8944048001
 20
207.4007098318
 30
0.0
 11
228.5154574317
 21
207.4007098318
 31
0.0
  0
LINE
  5
424
330
1F
100
AcDbEntity
  8
0
  6
Continuous
 62
     8
370
    15
100
AcDbLine
 10
252.5715977825
 20
222.3307201696
 30
0.0
 11
249.1715977825
 21
222.3307201696
 31
0.0
  0
LINE
  5
425
330
1F
100
AcDbEntity
  8
0
  6
Continuous
 62
     8
370
    15
100
AcDbLine
 10
252.5715977825
 20
203.9017916464
 30
0.0
 11
249.1715977825
 21
203.9017916464
 31
0.0
  0
LINE
  5
426
330
1F
100
AcDbEntity
  8
0
  6
Continuous
 62
     8
370
    15
100
AcDbLine
 10
252.5610714668
 20
218.7340431651
 30
0.0
 11
249.1821240983
 21
218.7340431651
 31
0.0
  0
LINE
  5
427
330
1F
100
AcDbEntity
  8
0
  6
Continuous
 62
     8
370
    15
100
AcDbLine
 10
252.5715977825
 20
218.7210086559
 30
0.0
 11
249.1715977825
 21
218.7210086559
 31
0.0
  0
LINE
  5
428
330
1F
100
AcDbEntity
  8
0
  6
Continuous
 62
     8
370
    15
100
AcDbLine
 10
252.5715977825
 20
207.5115031601
 30
0.0
 11
249.1715977825
 21
207.5115031601
 31
0.0
  0
LINE
  5
429
330
1F
100
AcDbEntity
  8
0
  6
Continuous
 62
     8
370
    15
100
AcDbLine
 10
252.5610714668
 20
207.4007098318
 30
0.0
 11
249.1821240983
 21
207.4007098318
 31
0.0
  0
LINE
  5
42A
330
1F
100
AcDbEntity
  8
0
  6
Continuous
 62
     8
370
    15
100
AcDbLine
 10
252.5715977825
 20
207.3876753226
 30
0.0
 11
249.1715977825
 21
207.3876753226
 31
0.0
  0
LINE
  5
42B
330
1F
100
AcDbEntity
  8
0
  6
Continuous
 62
     8
370
    15
100
AcDbLine
 10
252.5610714668
 20
218.8318019842
 30
0.0
 11
249.1821240983
 21
218.8318019842
 31
0.0
  0
LINE
  5
42C
330
1F
100
AcDbEntity
  8
0
  6
Continuous
 62
     8
370
    15
100
AcDbLine
 10
252.5715977825
 20
218.8448364934
 30
0.0
 11
249.1715977825
 21
218.8448364934
 31
0.0
  0
LINE
  5
42D
330
1F
100
AcDbEntity
  8
0
  6
Continuous
 62
     8
370
    15
100
AcDbLine
 10
252.5610714668
 20
207.4984686509
 30
0.0
 11
249.1821240983
 21
207.4984686509
 31
0.0
  0
LINE
  5
42E
330
1F
100
AcDbEntity
  8
0
  6
Continuous
 62
     8
370
    15
100
AcDbLine
 10
262.136357161
 20
233.5816210444
 30
0.0
 11
262.136357161
 21
236.4692603551
 31
0.0
  0
LINE
  5
42F
330
1F
100
AcDbEntity
  8
0
  6
Continuous
 62
     8
370
    15
100
AcDbLine
 10
262.3747739679
 20
236.4401566227
 30
0.0
 11
262.3747739679
 21
233.5800046221
 31
0.0
  0
LINE
  5
430
330
1F
100
AcDbEntity
  8
0
  6
Continuous
 62
     8
370
    15
100
AcDbLine
 10
263.472288761
 20
233.8748787095
 30
0.0
 11
262.666853187
 21
233.5246898195
 31
0.0
  0
LINE
  5
431
330
1F
100
AcDbEntity
  8
0
  6
Continuous
 62
     8
370
    15
100
AcDbLine
 10
263.472288761
 20
233.645233515
 30
0.0
 11
263.472288761
 21
233.8748787095
 31
0.0
  0
LINE
  5
432
330
1F
100
AcDbEntity
  8
0
  6
Continuous
 62
     8
370
    15
100
AcDbLine
 10
262.469549127
 20
233.5260275048
 30
0.0
 11
263.4460946097
 21
233.9416727782
 31
0.0
  0
LINE
  5
433
330
1F
100
AcDbEntity
  8
0
  6
Continuous
 62
     8
370
    15
100
AcDbLine
 10
261.5115977826
 20
235.0204831419
 30
0.0
 11
261.3782644492
 21
235.0199897125
 31
0.0
  0
LINE
  5
434
330
1F
100
AcDbEntity
  8
0
  6
Continuous
 62
     8
370
    15
100
AcDbLine
 10
261.5115977826
 20
234.9129225747
 30
0.0
 11
261.3782644492
 21
234.9129225747
 31
0.0
  0
LINE
  5
435
330
1F
100
AcDbEntity
  8
0
  6
Continuous
 62
     8
370
    15
100
AcDbLine
 10
261.5115977826
 20
234.5631915183
 30
0.0
 11
261.3782644492
 21
234.5647958942
 31
0.0
  0
LINE
  5
436
330
1F
100
AcDbEntity
  8
0
  6
Continuous
 62
     8
370
    15
100
AcDbLine
 10
261.5115977826
 20
234.6056048907
 30
0.0
 11
261.3782644492
 21
234.6044412197
 31
0.0
  0
LINE
  5
437
330
1F
100
AcDbEntity
  8
0
  6
Continuous
 62
     8
370
    15
100
AcDbLine
 10
261.5115977826
 20
234.4925895184
 30
0.0
 11
261.3782644492
 21
234.4945177779
 31
0.0
  0
LINE
  5
438
330
1F
100
AcDbEntity
  8
0
  6
Continuous
 62
     8
370
    15
100
AcDbLine
 10
257.3782644492
 20
234.0225255984
 30
0.0
 11
257.6132600162
 21
234.0209323715
 31
0.0
  0
LINE
  5
439
330
1F
100
AcDbEntity
  8
0
  6
Continuous
 62
     8
370
    15
100
AcDbLine
 10
257.6259153835
 20
235.8875561381
 30
0.0
 11
257.3782644492
 21
235.8892351661
 31
0.0
  0
LINE
  5
43A
330
1F
100
AcDbEntity
  8
0
  6
Continuous
 62
     8
370
    15
100
AcDbLine
 10
266.4922970071
 20
228.8820446727
 30
0.0
 11
269.7335867941
 21
232.0796797287
 31
0.0
  0
LINE
  5
43B
330
1F
100
AcDbEntity
  8
0
  6
Continuous
 62
     8
370
    15
100
AcDbLine
 10
266.4055763515
 20
228.8891040623
 30
0.0
 11
269.7277038997
 21
232.1664881306
 31
0.0
  0
LINE
  5
43C
330
1F
100
AcDbEntity
  8
0
  6
Continuous
 62
     8
370
    15
100
AcDbLine
 10
267.4427354542
 20
229.5746282037
 30
0.0
 11
269.0281799259
 21
231.1387194004
 31
0.0
  0
LINE
  5
43D
330
1F
100
AcDbEntity
  8
0
  6
Continuous
 62
     8
370
    15
100
AcDbLine
 10
267.6161767653
 20
229.5605094245
 30
0.0
 11
269.0399457146
 21
230.9651025966
 31
0.0
  0
LINE
  5
43E
330
1F
100
AcDbEntity
  8
0
  6
Continuous
 62
     8
370
    15
100
AcDbLine
 10
270.0013663904
 20
229.8229735557
 30
0.0
 11
270.0036323683
 21
229.8252090146
 31
0.0
  0
LINE
  5
43F
330
1F
100
AcDbEntity
  8
0
  6
Continuous
 62
     8
370
    15
100
AcDbLine
 10
268.7428989223
 20
228.5814555312
 30
0.0
 11
270.0013663904
 21
229.8229735557
 31
0.0
  0
LINE
  5
440
330
1F
100
AcDbEntity
  8
0
  6
Continuous
 62
     8
370
    15
100
AcDbLine
 10
274.0435497714
 20
225.8549649833
 30
0.0
 11
274.0460490708
 21
225.8574306213
 31
0.0
  0
LINE
  5
441
330
1F
100
AcDbEntity
  8
0
  6
Continuous
 62
     8
370
    15
100
AcDbLine
 10
272.655501397
 20
224.4856112899
 30
0.0
 11
274.0435497714
 21
225.8549649833
 31
0.0
  0
LINE
  5
442
330
1F
100
AcDbEntity
  8
0
  6
Continuous
 62
     8
370
    15
100
AcDbLine
 10
270.2269123492
 20
229.7237078764
 30
0.0
 11
270.2294116486
 21
229.7261735144
 31
0.0
  0
LINE
  5
443
330
1F
100
AcDbEntity
  8
0
  6
Continuous
 62
     8
370
    15
100
AcDbLine
 10
268.8388639748
 20
228.3543541829
 30
0.0
 11
270.2269123492
 21
229.7237078764
 31
0.0
  0
LINE
  5
444
330
1F
100
AcDbEntity
  8
0
  6
Continuous
 62
     8
370
    15
100
AcDbLine
 10
265.2551538205
 20
233.5071416153
 30
0.0
 11
265.2515380013
 21
232.9738205391
 31
0.0
  0
LINE
  5
445
330
1F
100
AcDbEntity
  8
0
  6
Continuous
 62
     8
370
    15
100
AcDbLine
 10
265.6782167087
 20
233.3285333562
 30
0.0
 11
265.2985449889
 21
232.953975177
 31
0.0
  0
LINE
  5
446
330
1F
100
AcDbEntity
  8
0
  6
Continuous
 62
     8
370
    15
100
AcDbLine
 10
257.5081042379
 20
242.4129225747
 30
0.0
 11
257.5081042379
 21
236.0216912738
 31
0.0
  0
LINE
  5
447
330
1F
100
AcDbEntity
  8
0
  6
Continuous
 62
     8
370
    15
100
AcDbLine
 10
257.5081042379
 20
233.8883089107
 30
0.0
 11
257.5081042379
 21
233.8596720872
 31
0.0
  0
LINE
  5
448
330
1F
100
AcDbEntity
  8
0
  6
Continuous
 62
     8
370
    15
100
AcDbLine
 10
257.5081042379
 20
233.0263196016
 30
0.0
 11
257.5081042379
 21
232.9549541269
 31
0.0
  0
LINE
  5
449
330
1F
100
AcDbEntity
  8
0
  6
Continuous
 62
     8
370
    15
100
AcDbLine
 10
257.5081042379
 20
232.9016195678
 30
0.0
 11
257.5081042379
 21
227.5669950886
 31
0.0
  0
LINE
  5
44A
330
1F
100
AcDbEntity
  8
0
  6
Continuous
 62
     8
370
    15
100
AcDbLine
 10
257.5081042379
 20
226.6450253663
 30
0.0
 11
257.5081042379
 21
226.5602783656
 31
0.0
  0
LINE
  5
44B
330
1F
100
AcDbEntity
  8
0
  6
Continuous
 62
     8
370
    15
100
AcDbLine
 10
257.5081042379
 20
226.3799202951
 30
0.0
 11
257.5081042379
 21
223.6995892413
 31
0.0
  0
LINE
  5
44C
330
1F
100
AcDbEntity
  8
0
  6
Continuous
 62
     8
370
    15
100
AcDbLine
 10
260.9681042379
 20
223.6995892413
 30
0.0
 11
260.9681042379
 21
224.6224380011
 31
0.0
  0
LINE
  5
44D
330
1F
100
AcDbEntity
  8
0
  6
Continuous
 62
     8
370
    15
100
AcDbLine
 10
260.9681042379
 20
226.9002363842
 30
0.0
 11
260.9681042379
 21
230.7894772337
 31
0.0
  0
LINE
  5
44E
330
1F
100
AcDbEntity
  8
0
  6
Continuous
 62
     8
370
    15
100
AcDbLine
 10
260.9681042379
 20
234.3362254123
 30
0.0
 11
260.9681042379
 21
242.4129225747
 31
0.0
  0
LINE
  5
44F
330
1F
100
AcDbEntity
  8
0
  6
Continuous
 62
     8
370
    15
100
AcDbLine
 10
255.6247709046
 20
251.4225409466
 30
0.0
 11
255.4715977825
 21
251.4413482412
 31
0.0
  0
LINE
  5
450
330
1F
100
AcDbEntity
  8
0
  6
Continuous
 62
     8
370
    15
100
AcDbLine
 10
254.8049311159
 20
251.5232046151
 30
0.0
 11
254.4715977825
 21
251.5641328021
 31
0.0
  0
LINE
  5
451
330
1F
100
AcDbEntity
  8
0
  6
Continuous
 62
     8
370
    15
100
AcDbLine
 10
253.8049311159
 20
251.645989176
 30
0.0
 11
253.4715977825
 21
251.686917363
 31
0.0
  0
LINE
  5
452
330
1F
100
AcDbEntity
  8
0
  6
Continuous
 62
     8
370
    15
100
AcDbLine
 10
252.8049311159
 20
251.7687737369
 30
0.0
 11
252.4715977825
 21
251.8097019239
 31
0.0
  0
LINE
  5
453
330
1F
100
AcDbEntity
  8
0
  6
Continuous
 62
     8
370
    15
100
AcDbLine
 10
251.8049311159
 20
251.8915582978
 30
0.0
 11
251.4715977825
 21
251.9324864848
 31
0.0
  0
LINE
  5
454
330
1F
100
AcDbEntity
  8
0
  6
Continuous
 62
     8
370
    15
100
AcDbLine
 10
250.8049311159
 20
252.0143428587
 30
0.0
 11
250.4715977825
 21
252.0552710457
 31
0.0
  0
LINE
  5
455
330
1F
100
AcDbEntity
  8
0
  6
Continuous
 62
     8
370
    15
100
AcDbLine
 10
249.8049311159
 20
252.1371274196
 30
0.0
 11
249.4715977825
 21
252.1780556066
 31
0.0
  0
LINE
  5
456
330
1F
100
AcDbEntity
  8
0
  6
Continuous
 62
     8
370
    15
100
AcDbLine
 10
248.8049311159
 20
252.2599119805
 30
0.0
 11
248.4715977825
 21
252.3008401675
 31
0.0
  0
LINE
  5
457
330
1F
100
AcDbEntity
  8
0
  6
Continuous
 62
     8
370
    15
100
AcDbLine
 10
247.8049311159
 20
252.3826965414
 30
0.0
 11
247.4715977825
 21
252.4236247284
 31
0.0
  0
LINE
  5
458
330
1F
100
AcDbEntity
  8
0
  6
Continuous
 62
     8
370
    15
100
AcDbLine
 10
246.8049311159
 20
252.5054811023
 30
0.0
 11
246.4715977825
 21
252.5464092893
 31
0.0
  0
LINE
  5
459
330
1F
100
AcDbEntity
  8
0
  6
Continuous
 62
     8
370
    15
100
AcDbLine
 10
245.8049311159
 20
252.6282656632
 30
0.0
 11
245.4715977825
 21
252.6691938502
 31
0.0
  0
LINE
  5
45A
330
1F
100
AcDbEntity
  8
0
  6
Continuous
 62
     8
370
    15
100
AcDbLine
 10
244.8049311159
 20
252.7510502241
 30
0.0
 11
244.4715977825
 21
252.7919784111
 31
0.0
  0
LINE
  5
45B
330
1F
100
AcDbEntity
  8
0
  6
Continuous
 62
     8
370
    15
100
AcDbLine
 10
243.8049311159
 20
252.873834785
 30
0.0
 11
243.4715977825
 21
252.914762972
 31
0.0
  0
LINE
  5
45C
330
1F
100
AcDbEntity
  8
0
  6
Continuous
 62
     8
370
    15
100
AcDbLine
 10
242.8049311159
 20
252.9966193459
 30
0.0
 11
242.4715977825
 21
253.0375475329
 31
0.0
  0
LINE
  5
45D
330
1F
100
AcDbEntity
  8
0
  6
Continuous
 62
     8
370
    15
100
AcDbLine
 10
241.8049311159
 20
253.1194039068
 30
0.0
 11
241.4715977825
 21
253.1603320938
 31
0.0
  0
LINE
  5
45E
330
1F
100
AcDbEntity
  8
0
  6
Continuous
 62
     8
370
    15
100
AcDbLine
 10
240.8049311159
 20
253.2421884677
 30
0.0
 11
240.4715977825
 21
253.2831166547
 31
0.0
  0
LINE
  5
45F
330
1F
100
AcDbEntity
  8
0
  6
Continuous
 62
     8
370
    15
100
AcDbLine
 10
239.8049311159
 20
253.3649730286
 30
0.0
 11
239.4715977825
 21
253.4059012156
 31
0.0
  0
LINE
  5
460
330
1F
100
AcDbEntity
  8
0
  6
Continuous
 62
     8
370
    15
100
AcDbLine
 10
238.8049311159
 20
253.4877575895
 30
0.0
 11
238.4715977825
 21
253.5286857765
 31
0.0
  0
LINE
  5
461
330
1F
100
AcDbEntity
  8
0
  6
Continuous
 62
     8
370
    15
100
AcDbLine
 10
237.8049311159
 20
253.6105421504
 30
0.0
 11
237.4715977825
 21
253.6514703374
 31
0.0
  0
LINE
  5
462
330
1F
100
AcDbEntity
  8
0
  6
Continuous
 62
     8
370
    15
100
AcDbLine
 10
236.8049311159
 20
253.7333267113
 30
0.0
 11
236.4715977825
 21
253.7742548983
 31
0.0
  0
LINE
  5
463
330
1F
100
AcDbEntity
  8
0
  6
Continuous
 62
     8
370
    15
100
AcDbLine
 10
223.9415977825
 20
255.1595892413
 30
0.0
 11
223.9415977825
 21
255.2236204837
 31
0.0
  0
LINE
  5
464
330
1F
100
AcDbEntity
  8
0
  6
Continuous
 62
     8
370
    15
100
AcDbLine
 10
257.3249311159
 20
255.1595892413
 30
0.0
 11
257.3714375712
 21
255.1595892413
 31
0.0
  0
LINE
  5
465
330
1F
100
AcDbEntity
  8
0
  6
Continuous
 62
     8
370
    15
100
AcDbLine
 10
225.4715977825
 20
253.9129225747
 30
0.0
 11
225.8049311159
 21
253.9129225747
 31
0.0
  0
LINE
  5
466
330
1F
100
AcDbEntity
  8
0
  6
Continuous
 62
     8
370
    15
100
AcDbLine
 10
226.4715977825
 20
253.9129225747
 30
0.0
 11
226.8049311159
 21
253.9129225747
 31
0.0
  0
LINE
  5
467
330
1F
100
AcDbEntity
  8
0
  6
Continuous
 62
     8
370
    15
100
AcDbLine
 10
227.4715977825
 20
253.9129225747
 30
0.0
 11
227.8049311159
 21
253.9129225747
 31
0.0
  0
LINE
  5
468
330
1F
100
AcDbEntity
  8
0
  6
Continuous
 62
     8
370
    15
100
AcDbLine
 10
228.4715977825
 20
253.9129225747
 30
0.0
 11
228.8049311159
 21
253.9129225747
 31
0.0
  0
LINE
  5
469
330
1F
100
AcDbEntity
  8
0
  6
Continuous
 62
     8
370
    15
100
AcDbLine
 10
229.4715977825
 20
253.9129225747
 30
0.0
 11
229.8049311159
 21
253.9129225747
 31
0.0
  0
LINE
  5
46A
330
1F
100
AcDbEntity
  8
0
  6
Continuous
 62
     8
370
    15
100
AcDbLine
 10
230.4715977825
 20
253.9129225747
 30
0.0
 11
230.8049311159
 21
253.9129225747
 31
0.0
  0
LINE
  5
46B
330
1F
100
AcDbEntity
  8
0
  6
Continuous
 62
     8
370
    15
100
AcDbLine
 10
231.4715977825
 20
253.9129225747
 30
0.0
 11
231.8049311159
 21
253.9129225747
 31
0.0
  0
LINE
  5
46C
330
1F
100
AcDbEntity
  8
0
  6
Continuous
 62
     8
370
    15
100
AcDbLine
 10
232.4715977825
 20
253.9129225747
 30
0.0
 11
232.8049311159
 21
253.9129225747
 31
0.0
  0
LINE
  5
46D
330
1F
100
AcDbEntity
  8
0
  6
Continuous
 62
     8
370
    15
100
AcDbLine
 10
233.4715977825
 20
253.9129225747
 30
0.0
 11
233.8049311159
 21
253.9129225747
 31
0.0
  0
LINE
  5
46E
330
1F
100
AcDbEntity
  8
0
  6
Continuous
 62
     8
370
    15
100
AcDbLine
 10
234.4715977825
 20
253.9129225747
 30
0.0
 11
234.8049311159
 21
253.9129225747
 31
0.0
  0
LINE
  5
46F
330
1F
100
AcDbEntity
  8
0
  6
Continuous
 62
     8
370
    15
100
AcDbLine
 10
235.4715977825
 20
253.9129225747
 30
0.0
 11
235.8049311159
 21
253.9129225747
 31
0.0
  0
LINE
  5
470
330
1F
100
AcDbEntity
  8
0
  6
Continuous
 62
     8
370
    15
100
AcDbLine
 10
236.4715977825
 20
253.9129225747
 30
0.0
 11
236.8049311159
 21
253.9129225747
 31
0.0
  0
LINE
  5
471
330
1F
100
AcDbEntity
  8
0
  6
Continuous
 62
     8
370
    15
100
AcDbLine
 10
237.4715977825
 20
253.9129225747
 30
0.0
 11
237.8049311159
 21
253.9129225747
 31
0.0
  0
LINE
  5
472
330
1F
100
AcDbEntity
  8
0
  6
Continuous
 62
     8
370
    15
100
AcDbLine
 10
238.4715977825
 20
253.9129225747
 30
0.0
 11
238.8049311159
 21
253.9129225747
 31
0.0
  0
LINE
  5
473
330
1F
100
AcDbEntity
  8
0
  6
Continuous
 62
     8
370
    15
100
AcDbLine
 10
239.4715977825
 20
253.9129225747
 30
0.0
 11
239.8049311159
 21
253.9129225747
 31
0.0
  0
LINE
  5
474
330
1F
100
AcDbEntity
  8
0
  6
Continuous
 62
     8
370
    15
100
AcDbLine
 10
240.4715977825
 20
253.9129225747
 30
0.0
 11
240.8049311159
 21
253.9129225747
 31
0.0
  0
LINE
  5
475
330
1F
100
AcDbEntity
  8
0
  6
Continuous
 62
     8
370
    15
100
AcDbLine
 10
241.4715977825
 20
253.9129225747
 30
0.0
 11
241.8049311159
 21
253.9129225747
 31
0.0
  0
LINE
  5
476
330
1F
100
AcDbEntity
  8
0
  6
Continuous
 62
     8
370
    15
100
AcDbLine
 10
242.4715977825
 20
253.9129225747
 30
0.0
 11
242.8049311159
 21
253.9129225747
 31
0.0
  0
LINE
  5
477
330
1F
100
AcDbEntity
  8
0
  6
Continuous
 62
     8
370
    15
100
AcDbLine
 10
243.4715977825
 20
253.9129225747
 30
0.0
 11
243.8049311159
 21
253.9129225747
 31
0.0
  0
LINE
  5
478
330
1F
100
AcDbEntity
  8
0
  6
Continuous
 62
     8
370
    15
100
AcDbLine
 10
244.4715977825
 20
253.9129225747
 30
0.0
 11
244.8049311159
 21
253.9129225747
 31
0.0
  0
LINE
  5
479
330
1F
100
AcDbEntity
  8
0
  6
Continuous
 62
     8
370
    15
100
AcDbLine
 10
245.4715977825
 20
253.9129225747
 30
0.0
 11
245.8049311159
 21
253.9129225747
 31
0.0
  0
LINE
  5
47A
330
1F
100
AcDbEntity
  8
0
  6
Continuous
 62
     8
370
    15
100
AcDbLine
 10
246.4715977825
 20
253.9129225747
 30
0.0
 11
246.8049311159
 21
253.9129225747
 31
0.0
  0
LINE
  5
47B
330
1F
100
AcDbEntity
  8
0
  6
Continuous
 62
     8
370
    15
100
AcDbLine
 10
247.4715977825
 20
253.9129225747
 30
0.0
 11
247.8049311159
 21
253.9129225747
 31
0.0
  0
LINE
  5
47C
330
1F
100
AcDbEntity
  8
0
  6
Continuous
 62
     8
370
    15
100
AcDbLine
 10
248.4715977825
 20
253.9129225747
 30
0.0
 11
248.8049311159
 21
253.9129225747
 31
0.0
  0
LINE
  5
47D
330
1F
100
AcDbEntity
  8
0
  6
Continuous
 62
     8
370
    15
100
AcDbLine
 10
249.4715977825
 20
253.9129225747
 30
0.0
 11
249.8049311159
 21
253.9129225747
 31
0.0
  0
LINE
  5
47E
330
1F
100
AcDbEntity
  8
0
  6
Continuous
 62
     8
370
    15
100
AcDbLine
 10
250.4715977825
 20
253.9129225747
 30
0.0
 11
250.8049311159
 21
253.9129225747
 31
0.0
  0
LINE
  5
47F
330
1F
100
AcDbEntity
  8
0
  6
Continuous
 62
     8
370
    15
100
AcDbLine
 10
251.4715977825
 20
253.9129225747
 30
0.0
 11
251.8049311159
 21
253.9129225747
 31
0.0
  0
LINE
  5
480
330
1F
100
AcDbEntity
  8
0
  6
Continuous
 62
     8
370
    15
100
AcDbLine
 10
252.4715977825
 20
253.9129225747
 30
0.0
 11
252.8049311159
 21
253.9129225747
 31
0.0
  0
LINE
  5
481
330
1F
100
AcDbEntity
  8
0
  6
Continuous
 62
     8
370
    15
100
AcDbLine
 10
253.4715977825
 20
253.9129225747
 30
0.0
 11
253.8049311159
 21
253.9129225747
 31
0.0
  0
LINE
  5
482
330
1F
100
AcDbEntity
  8
0
  6
Continuous
 62
     8
370
    15
100
AcDbLine
 10
254.4715977825
 20
253.9129225747
 30
0.0
 11
254.8049311159
 21
253.9129225747
 31
0.0
  0
LINE
  5
483
330
1F
100
AcDbEntity
  8
0
  6
Continuous
 62
     8
370
    15
100
AcDbLine
 10
255.4715977825
 20
253.9129225747
 30
0.0
 11
255.8049311159
 21
253.9129225747
 31
0.0
  0
LINE
  5
484
330
1F
100
AcDbEntity
  8
0
  6
Continuous
 62
     8
370
    15
100
AcDbLine
 10
257.3227952879
 20
223.6995892413
 30
0.0
 11
257.3227952879
 21
223.6167273125
 31
0.0
  0
LINE
  5
485
330
1F
100
AcDbEntity
  8
0
  6
Continuous
 62
     8
370
    15
100
AcDbLine
 10
223.0682644492
 20
237.7829713855
 30
0.0
 11
223.0682644492
 21
238.2406941628
 31
0.0
  0
LINE
  5
486
330
1F
100
AcDbEntity
  8
0
  6
Continuous
 62
     8
370
    15
100
AcDbLine
 10
223.0682644492
 20
238.6641908153
 30
0.0
 11
223.0682644492
 21
238.8080110111
 31
0.0
  0
LINE
  5
487
330
1F
100
AcDbEntity
  8
0
  6
Continuous
 62
     8
370
    15
100
AcDbLine
 10
223.0215977825
 20
238.8080110111
 30
0.0
 11
223.0215977825
 21
238.6641908153
 31
0.0
  0
LINE
  5
488
330
1F
100
AcDbEntity
  8
0
  6
Continuous
 62
     8
370
    15
100
AcDbLine
 10
223.0215977825
 20
238.2406941628
 30
0.0
 11
223.0215977825
 21
237.7829713855
 31
0.0
  0
LINE
  5
489
330
1F
100
AcDbEntity
  8
0
  6
Continuous
 62
     8
370
    15
100
AcDbLine
 10
222.9882644492
 20
237.7513933671
 30
0.0
 11
222.9882644492
 21
237.739796174
 31
0.0
  0
LINE
  5
48A
330
1F
100
AcDbEntity
  8
0
  6
Continuous
 62
     8
370
    15
100
AcDbLine
 10
222.6482644492
 20
237.7513934594
 30
0.0
 11
222.6482644492
 21
237.739796174
 31
0.0
  0
LINE
  5
48B
330
1F
100
AcDbEntity
  8
0
  6
Continuous
 62
     8
370
    15
100
AcDbLine
 10
222.9882644492
 20
238.8511862225
 30
0.0
 11
222.9882644492
 21
238.8294501745
 31
0.0
  0
LINE
  5
48C
330
1F
100
AcDbEntity
  8
0
  6
Continuous
 62
     8
370
    15
100
AcDbLine
 10
222.6482644492
 20
238.8511862225
 30
0.0
 11
222.6482644492
 21
238.8294501745
 31
0.0
  0
LINE
  5
48D
330
1F
100
AcDbEntity
  8
0
  6
Continuous
 62
     8
370
    15
100
AcDbLine
 10
222.9882644492
 20
238.8095892413
 30
0.0
 11
222.9882644492
 21
238.8294501745
 31
0.0
  0
LINE
  5
48E
330
1F
100
AcDbEntity
  8
0
  6
Continuous
 62
     8
370
    15
100
AcDbLine
 10
222.6482644492
 20
238.8294501745
 30
0.0
 11
222.6482644492
 21
238.7110770292
 31
0.0
  0
LINE
  5
48F
330
1F
100
AcDbEntity
  8
0
  6
Continuous
 62
     8
370
    15
100
AcDbLine
 10
222.6482644492
 20
238.7110770292
 30
0.0
 11
222.9249311159
 21
238.7110770292
 31
0.0
  0
LINE
  5
490
330
1F
100
AcDbEntity
  8
0
  6
Continuous
 62
     8
370
    15
100
AcDbLine
 10
222.6482644492
 20
238.7110770292
 30
0.0
 11
222.6482644492
 21
238.7077850233
 31
0.0
  0
LINE
  5
491
330
1F
100
AcDbEntity
  8
0
  6
Continuous
 62
     8
370
    15
100
AcDbLine
 10
222.9415977825
 20
238.2252394125
 30
0.0
 11
222.9415977825
 21
237.7513934594
 31
0.0
  0
LINE
  5
492
330
1F
100
AcDbEntity
  8
0
  6
Continuous
 62
     8
370
    15
100
AcDbLine
 10
222.9882644492
 20
237.7513934594
 30
0.0
 11
222.9882644492
 21
238.2252394125
 31
0.0
  0
LINE
  5
493
330
1F
100
AcDbEntity
  8
0
  6
Continuous
 62
     8
370
    15
100
AcDbLine
 10
223.0215977825
 20
238.2406941644
 30
0.0
 11
223.0215977825
 21
238.241854492
 31
0.0
  0
ARC
  5
494
330
1F
100
AcDbEntity
  8
0
  6
Continuous
 62
     8
370
    15
100
AcDbCircle
 10
222.9885316222
 20
238.2456792526
 30
0.0
 40
0.0167887146740894
100
AcDbArc
 50
269.0881655195
 51
330.4280671509
  0
LINE
  5
495
330
1F
100
AcDbEntity
  8
0
  6
Continuous
 62
     8
370
    15
100
AcDbLine
 10
223.3615977825
 20
238.2406941628
 30
0.0
 11
223.3615977825
 21
238.241854492
 31
0.0
  0
LINE
  5
496
330
1F
100
AcDbEntity
  8
0
  6
Continuous
 62
     8
370
    15
100
AcDbLine
 10
223.3615977825
 20
238.6641908153
 30
0.0
 11
223.3615977825
 21
238.6580250257
 31
0.0
  0
LINE
  5
497
330
1F
100
AcDbEntity
  8
0
  6
Continuous
 62
     8
370
    15
100
AcDbLine
 10
222.9882644492
 20
238.6613018385
 30
0.0
 11
222.9882644492
 21
238.8095892413
 31
0.0
  0
LINE
  5
498
330
1F
100
AcDbEntity
  8
0
  6
Continuous
 62
     8
370
    15
100
AcDbLine
 10
222.9415977825
 20
238.8095892413
 30
0.0
 11
222.9415977825
 21
238.6284041873
 31
0.0
  0
LINE
  5
499
330
1F
100
AcDbEntity
  8
0
  6
Continuous
 62
     8
370
    15
100
AcDbLine
 10
223.3615977825
 20
237.8141592159
 30
0.0
 11
223.0849311159
 21
237.8141592159
 31
0.0
  0
LINE
  5
49A
330
1F
100
AcDbEntity
  8
0
  6
Continuous
 62
     8
370
    15
100
AcDbLine
 10
223.0849311159
 20
237.7961479966
 30
0.0
 11
223.3615977825
 21
237.7961479966
 31
0.0
  0
LINE
  5
49B
330
1F
100
AcDbEntity
  8
0
  6
Continuous
 62
     8
370
    15
100
AcDbLine
 10
223.0849311159
 20
237.8404743017
 30
0.0
 11
223.3615977825
 21
237.8404743017
 31
0.0
  0
LINE
  5
49C
330
1F
100
AcDbEntity
  8
0
  6
Continuous
 62
     8
370
    15
100
AcDbLine
 10
223.3615977825
 20
237.8404743017
 30
0.0
 11
223.3615977825
 21
237.8674761017
 31
0.0
  0
LINE
  5
49D
330
1F
100
AcDbEntity
  8
0
  6
Continuous
 62
     8
370
    15
100
AcDbLine
 10
223.3615977825
 20
237.7961479966
 30
0.0
 11
223.3615977825
 21
237.7949876674
 31
0.0
  0
ENDSEC
  0
SECTION
  2
OBJECTS
  0
DICTIONARY
  5
C
330
0
100
AcDbDictionary
281
     1
  3
ACAD_GROUP
350
D
  3
ACAD_LAYOUT
350
1A
  3
ACAD_MLINESTYLE
350
17
  3
ACAD_PLOTSETTINGS
350
19
  3
ACAD_PLOTSTYLENAME
350
E
  0
DICTIONARY
  5
D
102
{ACAD_REACTORS
330
C
102
}
330
C
100
AcDbDictionary
281
     1
  0
DICTIONARY
  5
1A
102
{ACAD_REACTORS
330
C
102
}
330
C
100
AcDbDictionary
281
     1
  3
Layout1
350
1E
  3
Layout2
350
26
  3
Model
350
22
  0
DICTIONARY
  5
17
102
{ACAD_REACTORS
330
C
102
}
330
C
100
AcDbDictionary
281
     1
  3
Standard
350
18
  0
DICTIONARY
  5
19
102
{ACAD_REACTORS
330
C
102
}
330
C
100
AcDbDictionary
281
     1
  0
ACDBDICTIONARYWDFLT
  5
E
102
{ACAD_REACTORS
330
C
102
}
330
C
100
AcDbDictionary
281
     1
  3
Normal
350
F
100
AcDbDictionaryWithDefault
340
F
  0
LAYOUT
  5
1E
102
{ACAD_REACTORS
330
1A
102
}
330
1A
100
AcDbPlotSettings
  1

  2
none_device
  4

  6

 40
0.0
 41
0.0
 42
0.0
 43
0.0
 44
0.0
 45
0.0
 46
0.0
 47
0.0
 48
0.0
 49
0.0
140
0.0
141
0.0
142
1.0
143
1.0
 70
   688
 72
     0
 73
     0
 74
     5
  7

 75
    16
147
1.0
148
0.0
149
0.0
100
AcDbLayout
  1
Layout1
 70
     1
 71
     1
 10
0.0
 20
0.0
 11
420.0
 21
297.0
 12
0.0
 22
0.0
 32
0.0
 14
1.0000000000E+20
 24
1.0000000000E+20
 34
1.0000000000E+20
 15
-1.0000000000E+20
 25
-1.0000000000E+20
 35
-1.0000000000E+20
146
0.0
 13
0.0
 23
0.0
 33
0.0
 16
1.0
 26
0.0
 36
0.0
 17
0.0
 27
1.0
 37
0.0
 76
     0
330
1B
  0
LAYOUT
  5
26
102
{ACAD_REACTORS
330
1A
102
}
330
1A
100
AcDbPlotSettings
  1

  2
none_device
  4

  6

 40
0.0
 41
0.0
 42
0.0
 43
0.0
 44
0.0
 45
0.0
 46
0.0
 47
0.0
 48
0.0
 49
0.0
140
0.0
141
0.0
142
1.0
143
1.0
 70
   688
 72
     0
 73
     0
 74
     5
  7

 75
    16
147
1.0
148
0.0
149
0.0
100
AcDbLayout
  1
Layout2
 70
     1
 71
     2
 10
0.0
 20
0.0
 11
0.0
 21
0.0
 12
0.0
 22
0.0
 32
0.0
 14
0.0
 24
0.0
 34
0.0
 15
0.0
 25
0.0
 35
0.0
146
0.0
 13
0.0
 23
0.0
 33
0.0
 16
1.0
 26
0.0
 36
0.0
 17
0.0
 27
1.0
 37
0.0
 76
     0
330
23
  0
LAYOUT
  5
22
102
{ACAD_REACTORS
330
1A
102
}
330
1A
100
AcDbPlotSettings
  1

  2
none_device
  4

  6

 40
0.0
 41
0.0
 42
0.0
 43
0.0
 44
0.0
 45
0.0
 46
0.0
 47
0.0
 48
0.0
 49
0.0
140
0.0
141
0.0
142
1.0
143
1.0
 70
  1712
 72
     0
 73
     0
 74
     0
  7

 75
     0
147
1.0
148
0.0
149
0.0
100
AcDbLayout
  1
Model
 70
     1
 71
     0
 10
0.0
 20
0.0
 11
420.0
 21
297.0
 12
0.0
 22
0.0
 32
0.0
 14
0.0
 24
0.0
 34
0.0
 15
420.0
 25
297.0
 35
0.0
146
0.0
 13
0.0
 23
0.0
 33
0.0
 16
1.0
 26
0.0
 36
0.0
 17
0.0
 27
1.0
 37
0.0
 76
     0
330
1F
331
29
  0
MLINESTYLE
  5
18
102
{ACAD_REACTORS
330
17
102
}
330
17
100
AcDbMlineStyle
  2
Standard
 70
     0
  3

 62
   256
 51
90.0
 52
90.0
 71
     2
 49
0.5
 62
   256
  6
BYLAYER
 49
-0.5
 62
   256
  6
BYLAYER
  0
ACDBPLACEHOLDER
  5
F
102
{ACAD_REACTORS
330
E
102
}
330
E
  0
ENDSEC
  0
EOF
