  0
SECTION
  2
HEADER
  9
$ACADVER
  1
AC1021
  9
$ACADMAINTVER
 70
    25
  9
$DWGCODEPAGE
  3
ANSI_1252
  9
$INSBASE
 10
0.0
 20
0.0
 30
0.0
  9
$EXTMIN
 10
0.0
 20
0.0
 30
0.0
  9
$EXTMAX
 10
841.0
 20
594.0
 30
0.0
  9
$LIMMIN
 10
0.0
 20
0.0
  9
$LIMMAX
 10
841.0
 20
594.0
  9
$ORTHOMODE
 70
     0
  9
$REGENMODE
 70
     1
  9
$FILLMODE
 70
     1
  9
$QTEXTMODE
 70
     0
  9
$MIRRTEXT
 70
     1
  9
$LTSCALE
 40
1.0
  9
$ATTMODE
 70
     1
  9
$TEXTSIZE
 40
3.5
  9
$TRACEWID
 40
1.0
  9
$TEXTSTYLE
  7
Standard
  9
$CLAYER
  8
0
  9
$CELTYPE
  6
ByLayer
  9
$CECOLOR
 62
   256
  9
$CELTSCALE
 40
1.0
  9
$DISPSILH
 70
     0
  9
$DIMSCALE
 40
1.0
  9
$DIMASZ
 40
3.302
  9
$DIMEXO
 40
1.0
  9
$DIMDLI
 40
3.75
  9
$DIMRND
 40
0.0
  9
$DIMDLE
 40
0.0
  9
$DIMEXE
 40
1.0
  9
$DIMTP
 40
0.0
  9
$DIMTM
 40
0.0
  9
$DIMTXT
 40
3.5
  9
$DIMCEN
 40
2.5
  9
$DIMTSZ
 40
0.0
  9
$DIMTOL
 70
     0
  9
$DIMLIM
 70
     0
  9
$DIMTIH
 70
     1
  9
$DIMTOH
 70
     1
  9
$DIMSE1
 70
     0
  9
$DIMSE2
 70
     0
  9
$DIMTAD
 70
     1
  9
$DIMZIN
 70
     0
  9
$DIMBLK
  1

  9
$DIMASO
 70
     1
  9
$DIMSHO
 70
     1
  9
$DIMPOST
  1

  9
$DIMAPOST
  1

  9
$DIMALT
 70
     0
  9
$DIMALTD
 70
     3
  9
$DIMALTF
 40
0.0393700787
  9
$DIMLFAC
 40
1.0
  9
$DIMTOFL
 70
     1
  9
$DIMTVP
 40
0.0
  9
$DIMTIX
 70
     0
  9
$DIMSOXD
 70
     0
  9
$DIMSAH
 70
     0
  9
$DIMBLK1
  1

  9
$DIMBLK2
  1

  9
$DIMSTYLE
  2
ISO-25
  9
$DIMCLRD
 70
     0
  9
$DIMCLRE
 70
     0
  9
$DIMCLRT
 70
     0
  9
$DIMTFAC
 40
1.0
  9
$DIMGAP
 40
1.524
  9
$DIMJUST
 70
     0
  9
$DIMSD1
 70
     0
  9
$DIMSD2
 70
     0
  9
$DIMTOLJ
 70
     0
  9
$DIMTZIN
 70
     0
  9
$DIMALTZ
 70
     0
  9
$DIMALTTZ
 70
     0
  9
$DIMUPT
 70
     0
  9
$DIMDEC
 70
     1
  9
$DIMTDEC
 70
     1
  9
$DIMALTU
 70
     2
  9
$DIMALTTD
 70
     3
  9
$DIMTXSTY
  7
Standard
  9
$DIMAUNIT
 70
     0
  9
$DIMADEC
 70
     1
  9
$DIMALTRND
 40
0.0
  9
$DIMAZIN
 70
     0
  9
$DIMDSEP
 70
    44
  9
$DIMATFIT
 70
     3
  9
$DIMFRAC
 70
     0
  9
$DIMLDRBLK
  1

  9
$DIMLUNIT
 70
     2
  9
$DIMLWD
 70
    -2
  9
$DIMLWE
 70
    -2
  9
$DIMTMOVE
 70
     0
  9
$DIMFXL
 40
1.0
  9
$DIMFXLON
 70
     0
  9
$DIMJOGANG
 40
0.7853981634
  9
$DIMTFILL
 70
     0
  9
$DIMTFILLCLR
 70
     0
  9
$DIMARCSYM
 70
     0
  9
$DIMLTYPE
  6

  9
$DIMLTEX1
  6

  9
$DIMLTEX2
  6

  9
$LUNITS
 70
     2
  9
$LUPREC
 70
     1
  9
$SKETCHINC
 40
1.0
  9
$FILLETRAD
 40
10.0
  9
$AUNITS
 70
     0
  9
$AUPREC
 70
     1
  9
$MENU
  1
.
  9
$ELEVATION
 40
0.0
  9
$PELEVATION
 40
0.0
  9
$THICKNESS
 40
0.0
  9
$LIMCHECK
 70
     0
  9
$CHAMFERA
 40
10.0
  9
$CHAMFERB
 40
10.0
  9
$CHAMFERC
 40
20.0
  9
$CHAMFERD
 40
0.0
  9
$SKPOLY
 70
     0
  9
$TDCREATE
 40
2455870.466769838
  9
$TDUCREATE
 40
2455870.466769838
  9
$TDUPDATE
 40
2455870.466769849
  9
$TDUUPDATE
 40
2455870.466769849
  9
$TDINDWG
 40
0.0000000116
  9
$TDUSRTIMER
 40
0.0000000116
  9
$USRTIMER
 70
     1
  9
$ANGBASE
 50
0.0
  9
$ANGDIR
 70
     0
  9
$PDMODE
 70
     0
  9
$PDSIZE
 40
-1.0
  9
$PLINEWID
 40
0.0
  9
$SPLFRAME
 70
     0
  9
$SPLINETYPE
 70
     6
  9
$SPLINESEGS
 70
     8
  9
$HANDSEED
  5
2B0
  9
$SURFTAB1
 70
     6
  9
$SURFTAB2
 70
     6
  9
$SURFTYPE
 70
     6
  9
$SURFU
 70
     6
  9
$SURFV
 70
     6
  9
$UCSBASE
  2

  9
$UCSNAME
  2

  9
$UCSORG
 10
0.0
 20
0.0
 30
0.0
  9
$UCSXDIR
 10
1.0
 20
0.0
 30
0.0
  9
$UCSYDIR
 10
0.0
 20
1.0
 30
0.0
  9
$UCSORTHOREF
  2

  9
$UCSORTHOVIEW
 70
     0
  9
$UCSORGTOP
 10
0.0
 20
0.0
 30
0.0
  9
$UCSORGBOTTOM
 10
0.0
 20
0.0
 30
0.0
  9
$UCSORGLEFT
 10
0.0
 20
0.0
 30
0.0
  9
$UCSORGRIGHT
 10
0.0
 20
0.0
 30
0.0
  9
$UCSORGFRONT
 10
0.0
 20
0.0
 30
0.0
  9
$UCSORGBACK
 10
0.0
 20
0.0
 30
0.0
  9
$PUCSBASE
  2

  9
$PUCSNAME
  2

  9
$PUCSORG
 10
0.0
 20
0.0
 30
0.0
  9
$PUCSXDIR
 10
1.0
 20
0.0
 30
0.0
  9
$PUCSYDIR
 10
0.0
 20
1.0
 30
0.0
  9
$PUCSORTHOREF
  2

  9
$PUCSORTHOVIEW
 70
     0
  9
$PUCSORGTOP
 10
0.0
 20
0.0
 30
0.0
  9
$PUCSORGBOTTOM
 10
0.0
 20
0.0
 30
0.0
  9
$PUCSORGLEFT
 10
0.0
 20
0.0
 30
0.0
  9
$PUCSORGRIGHT
 10
0.0
 20
0.0
 30
0.0
  9
$PUCSORGFRONT
 10
0.0
 20
0.0
 30
0.0
  9
$PUCSORGBACK
 10
0.0
 20
0.0
 30
0.0
  9
$USERI1
 70
     0
  9
$USERI2
 70
     0
  9
$USERI3
 70
     0
  9
$USERI4
 70
     0
  9
$USERI5
 70
     0
  9
$USERR1
 40
0.0
  9
$USERR2
 40
0.0
  9
$USERR3
 40
0.0
  9
$USERR4
 40
0.0
  9
$USERR5
 40
0.0
  9
$WORLDVIEW
 70
     1
  9
$SHADEDGE
 70
     3
  9
$SHADEDIF
 70
    70
  9
$TILEMODE
 70
     1
  9
$MAXACTVP
 70
    64
  9
$PINSBASE
 10
0.0
 20
0.0
 30
0.0
  9
$PLIMCHECK
 70
     0
  9
$PEXTMIN
 10
1.0000000000E+20
 20
1.0000000000E+20
 30
1.0000000000E+20
  9
$PEXTMAX
 10
-1.0000000000E+20
 20
-1.0000000000E+20
 30
-1.0000000000E+20
  9
$PLIMMIN
 10
0.0
 20
0.0
  9
$PLIMMAX
 10
420.0
 20
297.0
  9
$UNITMODE
 70
     0
  9
$VISRETAIN
 70
     1
  9
$PLINEGEN
 70
     0
  9
$PSLTSCALE
 70
     1
  9
$TREEDEPTH
 70
  3020
  9
$CMLSTYLE
  2
Standard
  9
$CMLJUST
 70
     0
  9
$CMLSCALE
 40
20.0
  9
$PROXYGRAPHICS
 70
     1
  9
$MEASUREMENT
 70
     1
  9
$CELWEIGHT
370
    -1
  9
$ENDCAPS
280
     0
  9
$JOINSTYLE
280
     0
  9
$LWDISPLAY
290
     1
  9
$INSUNITS
 70
     4
  9
$HYPERLINKBASE
  1

  9
$STYLESHEET
  1

  9
$XEDIT
290
     1
  9
$CEPSNTYPE
380
     0
  9
$PSTYLEMODE
290
     1
  9
$FINGERPRINTGUID
  2
{5649A90A-A940-4FD2-B8D9-2403626B4B14}
  9
$VERSIONGUID
  2
{FAEB1C32-E019-11D5-929B-00C0DF256EC4}
  9
$EXTNAMES
290
     1
  9
$PSVPSCALE
 40
0.0
  9
$OLESTARTUP
290
     0
  9
$SORTENTS
280
   127
  9
$INDEXCTL
280
     0
  9
$HIDETEXT
280
     1
  9
$XCLIPFRAME
290
     0
  9
$HALOGAP
280
     0
  9
$OBSCOLOR
 70
   257
  9
$OBSLTYPE
280
     0
  9
$INTERSECTIONDISPLAY
280
     0
  9
$INTERSECTIONCOLOR
 70
   257
  9
$DIMASSOC
280
     2
  9
$PROJECTNAME
  1

  9
$CAMERADISPLAY
290
     0
  9
$LENSLENGTH
 40
50.0
  9
$CAMERAHEIGHT
 40
0.0
  9
$STEPSPERSEC
 40
2.0
  9
$STEPSIZE
 40
6.0
  9
$3DDWFPREC
 40
2.0
  9
$PSOLWIDTH
 40
5.0
  9
$PSOLHEIGHT
 40
80.0
  9
$LOFTANG1
 40
1.5707963268
  9
$LOFTANG2
 40
1.5707963268
  9
$LOFTMAG1
 40
0.0
  9
$LOFTMAG2
 40
0.0
  9
$LOFTPARAM
 70
     7
  9
$LOFTNORMALS
280
     1
  9
$LATITUDE
 40
37.795
  9
$LONGITUDE
 40
-122.394
  9
$NORTHDIRECTION
 40
0.0
  9
$TIMEZONE
 70
 -8000
  9
$LIGHTGLYPHDISPLAY
280
     1
  9
$TILEMODELIGHTSYNCH
280
     1
  9
$SOLIDHIST
280
     1
  9
$SHOWHIST
280
     1
  9
$DWFFRAME
280
     2
  9
$DGNFRAME
280
     2
  9
$REALWORLDSCALE
290
     1
  9
$INTERFERECOLOR
 62
   256
  9
$CSHADOW
280
     0
  9
$SHADOWPLANELOCATION
 40
0.0
  0
ENDSEC
  0
SECTION
  2
CLASSES
  0
CLASS
  1
ACDBDICTIONARYWDFLT
  2
AcDbDictionaryWithDefault
  3
ObjectDBX Classes
 90
        0
 91
        4
280
     0
281
     0
  0
CLASS
  1
VISUALSTYLE
  2
AcDbVisualStyle
  3
ObjectDBX Classes
 90
     4095
 91
        4
280
     0
281
     0
  0
CLASS
  1
MATERIAL
  2
AcDbMaterial
  3
ObjectDBX Classes
 90
     1153
 91
        4
280
     0
281
     0
  0
ENDSEC
  0
SECTION
  2
TABLES
  0
TABLE
  2
VPORT
  5
8
330
0
100
AcDbSymbolTable
 70
     1
  0
VPORT
  5
29
330
8
100
AcDbSymbolTableRecord
100
AcDbViewportTableRecord
  2
*Active
 70
     0
 10
0.0
 20
0.0
 11
1.0
 21
1.0
 12
420.5
 22
297.0
 13
0.0
 23
0.0
 14
10.0
 24
10.0
 15
10.0
 25
10.0
 16
0.0
 26
0.0
 36
1.0
 17
0.0
 27
0.0
 37
0.0
 40
594.0
 41
1.4158249158
 42
50.0
 43
0.0
 44
0.0
 50
0.0
 51
0.0
 71
     0
 72
  2000
 73
     1
 74
     3
 75
     0
 76
     0
 77
     0
 78
     0
281
     0
 65
     1
110
0.0
120
0.0
130
0.0
111
1.0
121
0.0
131
0.0
112
0.0
122
1.0
132
0.0
 79
     0
146
0.0
 60
     3
 61
     5
292
     1
282
     1
141
0.0
142
0.0
 63
   250
  0
ENDTAB
  0
TABLE
  2
LTYPE
  5
5
330
0
100
AcDbSymbolTable
 70
     6
  0
LTYPE
  5
14
330
5
100
AcDbSymbolTableRecord
100
AcDbLinetypeTableRecord
  2
ByBlock
 70
     0
  3

 72
    65
 73
     0
 40
0.0
  0
LTYPE
  5
15
330
5
100
AcDbSymbolTableRecord
100
AcDbLinetypeTableRecord
  2
ByLayer
 70
     0
  3

 72
    65
 73
     0
 40
0.0
  0
LTYPE
  5
16
330
5
100
AcDbSymbolTableRecord
100
AcDbLinetypeTableRecord
  2
Continuous
 70
     0
  3
Solid line
 72
    65
 73
     0
 40
0.0
  0
LTYPE
  5
3F
330
5
100
AcDbSymbolTableRecord
100
AcDbLinetypeTableRecord
  2
HIDDEN
 70
     0
  3
Hidden __ __ __ __ __ __ __ __ __ __ __ __ __ __
 72
    65
 73
     2
 40
1.905
 49
1.27
 74
     0
 49
-0.635
 74
     0
  0
LTYPE
  5
40
330
5
100
AcDbSymbolTableRecord
100
AcDbLinetypeTableRecord
  2
PHANTOM
 70
     0
  3
Phantom ______  __  __  ______  __  __  ______
 72
    65
 73
     6
 40
12.7
 49
6.35
 74
     0
 49
-1.27
 74
     0
 49
1.27
 74
     0
 49
-1.27
 74
     0
 49
1.27
 74
     0
 49
-1.27
 74
     0
  0
LTYPE
  5
41
330
5
100
AcDbSymbolTableRecord
100
AcDbLinetypeTableRecord
  2
CENTER
 70
     0
  3
Center ____ _ ____ _ ____ _ ____ _ ____ _ ____
 72
    65
 73
     4
 40
10.16
 49
6.35
 74
     0
 49
-1.27
 74
     0
 49
1.27
 74
     0
 49
-1.27
 74
     0
  0
LTYPE
  5
42
330
5
100
AcDbSymbolTableRecord
100
AcDbLinetypeTableRecord
  2
CENTERX2
 70
     0
  3
Center (2x) ________  __  ________  __  _____
 72
    65
 73
     4
 40
20.32
 49
12.7
 74
     0
 49
-2.54
 74
     0
 49
2.54
 74
     0
 49
-2.54
 74
     0
  0
LTYPE
  5
43
330
5
100
AcDbSymbolTableRecord
100
AcDbLinetypeTableRecord
  2
DOT2
 70
     0
  3
Dot (.5x) ........................................
 72
    65
 73
     2
 40
0.635
 49
0.0
 74
     0
 49
-0.635
 74
     0
  0
ENDTAB
  0
TABLE
  2
LAYER
  5
2
330
0
100
AcDbSymbolTable
 70
     4
  0
LAYER
  5
10
330
2
100
AcDbSymbolTableRecord
100
AcDbLayerTableRecord
  2
0
 70
     0
 62
     7
  6
Continuous
370
    -3
390
F
347
3E
  0
LAYER
  5
44
330
2
100
AcDbSymbolTableRecord
100
AcDbLayerTableRecord
  2
FORMAT
 70
     0
 62
     7
  6
Continuous
370
    -3
390
F
347
3E
  0
LAYER
  5
45
330
2
100
AcDbSymbolTableRecord
100
AcDbLayerTableRecord
  2
SLD-0
 70
     0
 62
     1
  6
Continuous
370
    -3
390
F
347
3E
  0
LAYER
  5
46
330
2
100
AcDbSymbolTableRecord
100
AcDbLayerTableRecord
  2
WATERMARK
 70
     0
 62
     1
  6
Continuous
370
    -3
390
F
347
3E
  0
ENDTAB
  0
TABLE
  2
STYLE
  5
3
330
0
100
AcDbSymbolTable
 70
     1
  0
STYLE
  5
11
330
3
100
AcDbSymbolTableRecord
100
AcDbTextStyleTableRecord
  2
Standard
 70
     0
 40
0.0
 41
1.0
 50
0.0
 71
     0
 42
2.5
  3
txt
  4

  0
ENDTAB
  0
TABLE
  2
VIEW
  5
6
330
0
100
AcDbSymbolTable
 70
     0
  0
ENDTAB
  0
TABLE
  2
UCS
  5
7
330
0
100
AcDbSymbolTable
 70
     0
  0
ENDTAB
  0
TABLE
  2
APPID
  5
9
330
0
100
AcDbSymbolTable
 70
     1
  0
APPID
  5
12
330
9
100
AcDbSymbolTableRecord
100
AcDbRegAppTableRecord
  2
ACAD
 70
     0
  0
ENDTAB
  0
TABLE
  2
DIMSTYLE
  5
A
330
0
100
AcDbSymbolTable
 70
     1
100
AcDbDimStyleTable
  0
DIMSTYLE
105
27
330
A
100
AcDbSymbolTableRecord
100
AcDbDimStyleTableRecord
  2
ISO-25
 70
     0
 41
2.5
 42
0.625
 43
3.75
 44
1.25
 73
     0
 74
     0
 77
     1
 78
     8
140
2.5
141
2.5
143
0.0393700787
147
0.625
171
     3
172
     1
178
     0
271
     2
272
     2
274
     3
278
    44
283
     0
284
     8
340
11
  0
ENDTAB
  0
TABLE
  2
BLOCK_RECORD
  5
1
330
0
100
AcDbSymbolTable
 70
     1
  0
BLOCK_RECORD
  5
1F
330
1
100
AcDbSymbolTableRecord
100
AcDbBlockTableRecord
  2
*Model_Space
340
22
 70
     0
280
     1
281
     0
  0
BLOCK_RECORD
  5
1B
330
1
100
AcDbSymbolTableRecord
100
AcDbBlockTableRecord
  2
*Paper_Space
340
1E
 70
     0
280
     1
281
     0
  0
BLOCK_RECORD
  5
23
330
1
100
AcDbSymbolTableRecord
100
AcDbBlockTableRecord
  2
*Paper_Space0
340
26
 70
     0
280
     1
281
     0
  0
ENDTAB
  0
ENDSEC
  0
SECTION
  2
BLOCKS
  0
BLOCK
  5
20
330
1F
100
AcDbEntity
  8
0
100
AcDbBlockBegin
  2
*Model_Space
 70
     0
 10
0.0
 20
0.0
 30
0.0
  3
*Model_Space
  1

  0
ENDBLK
  5
21
330
1F
100
AcDbEntity
  8
0
100
AcDbBlockEnd
  0
BLOCK
  5
1C
330
1B
100
AcDbEntity
 67
     1
  8
0
100
AcDbBlockBegin
  2
*Paper_Space
 70
     0
 10
0.0
 20
0.0
 30
0.0
  3
*Paper_Space
  1

  0
ENDBLK
  5
1D
330
1B
100
AcDbEntity
 67
     1
  8
0
100
AcDbBlockEnd
  0
BLOCK
  5
24
330
23
100
AcDbEntity
  8
0
100
AcDbBlockBegin
  2
*Paper_Space0
 70
     0
 10
0.0
 20
0.0
 30
0.0
  3
*Paper_Space0
  1

  0
ENDBLK
  5
25
330
23
100
AcDbEntity
  8
0
100
AcDbBlockEnd
  0
ENDSEC
  0
SECTION
  2
ENTITIES
  0
LINE
  5
47
330
1F
100
AcDbEntity
  8
0
  6
Continuous
 62
     7
370
    15
100
AcDbLine
 10
10.4701544892
 20
50.8512348164
 30
0.0
 11
10.120156015
 21
51.5512317647
 31
0.0
  0
LINE
  5
48
330
1F
100
AcDbEntity
  8
0
  6
Continuous
 62
     7
370
    15
100
AcDbLine
 10
-9.9798415054
 20
51.5512317647
 30
0.0
 11
-10.3298399795
 21
50.8512348164
 31
0.0
  0
LINE
  5
49
330
1F
100
AcDbEntity
  8
0
  6
Continuous
 62
     7
370
    15
100
AcDbLine
 10
-10.3298399795
 20
50.8512348164
 30
0.0
 11
-9.8298762192
 21
49.851247691
 31
0.0
  0
LINE
  5
4A
330
1F
100
AcDbEntity
  8
0
  6
Continuous
 62
     7
370
    15
100
AcDbLine
 10
9.9700715195
 20
49.851247691
 30
0.0
 11
10.4701544892
 21
50.8512348164
 31
0.0
  0
LINE
  5
4B
330
1F
100
AcDbEntity
  8
0
  6
Continuous
 62
     7
370
    15
100
AcDbLine
 10
13.5700728546
 20
44.8512226571
 30
0.0
 11
13.5700728546
 21
49.851247691
 31
0.0
  0
LINE
  5
4C
330
1F
100
AcDbEntity
  8
0
  6
Continuous
 62
     7
370
    15
100
AcDbLine
 10
-13.4298775543
 20
49.851247691
 30
0.0
 11
-13.4298775543
 21
44.8512226571
 31
0.0
  0
ARC
  5
4D
330
1F
100
AcDbEntity
  8
0
  6
Continuous
 62
     7
370
    15
100
AcDbCircle
 10
-10.929896711
 20
36.0442337623
 30
0.0
 40
0.9999999999999439
100
AcDbArc
 50
180.0
 51
249.4439547804
  0
ARC
  5
4E
330
1F
100
AcDbEntity
  8
0
  6
Continuous
 62
     7
370
    15
100
AcDbCircle
 10
11.070103289
 20
36.0442337623
 30
0.0
 40
0.999999999999866
100
AcDbArc
 50
290.5560452196
 51
0.0
  0
LINE
  5
4F
330
1F
100
AcDbEntity
  8
0
  6
Continuous
 62
     7
370
    15
100
AcDbLine
 10
-11.9298670639
 20
37.8512382735
 30
0.0
 11
-11.9298670639
 21
36.0442340602
 31
0.0
  0
LINE
  5
50
330
1F
100
AcDbEntity
  8
0
  6
Continuous
 62
     7
370
    15
100
AcDbLine
 10
12.0700623642
 20
36.0442340602
 30
0.0
 11
12.0700623642
 21
37.8512382735
 31
0.0
  0
LINE
  5
51
330
1F
100
AcDbEntity
  8
0
  6
Continuous
 62
     7
370
    15
100
AcDbLine
 10
-11.2810109009
 20
35.1079046954
 30
0.0
 11
-8.5787747253
 21
34.0945661296
 31
0.0
  0
LINE
  5
52
330
1F
100
AcDbEntity
  8
0
  6
Continuous
 62
     7
370
    15
100
AcDbLine
 10
8.7189700257
 20
34.0945661296
 30
0.0
 11
11.4212062012
 21
35.1079046954
 31
0.0
  0
ARC
  5
53
330
1F
100
AcDbEntity
  8
0
  6
Continuous
 62
     7
370
    15
100
AcDbCircle
 10
-8.929896711
 20
33.1582328259
 30
0.0
 40
1.000000000000112
100
AcDbArc
 50
0.0
 51
69.4439547804
  0
ARC
  5
54
330
1F
100
AcDbEntity
  8
0
  6
Continuous
 62
     7
370
    15
100
AcDbCircle
 10
9.070103289
 20
33.1582328259
 30
0.0
 40
1.000000000000334
100
AcDbArc
 50
110.5560452196
 51
180.0
  0
LINE
  5
55
330
1F
100
AcDbEntity
  8
0
  6
Continuous
 62
     7
370
    15
100
AcDbLine
 10
-7.9299185623
 20
33.1582367648
 30
0.0
 11
-7.9299185623
 21
25.851228856
 31
0.0
  0
LINE
  5
56
330
1F
100
AcDbEntity
  8
0
  6
Continuous
 62
     7
370
    15
100
AcDbLine
 10
8.0701138626
 20
25.851228856
 30
0.0
 11
8.0701138626
 21
33.1582367648
 31
0.0
  0
LINE
  5
57
330
1F
100
AcDbEntity
  8
0
  6
Continuous
 62
     7
370
    15
100
AcDbLine
 10
151.6747500549
 20
299.7737914552
 30
0.0
 11
151.6413714539
 21
299.7907787789
 31
0.0
  0
LINE
  5
58
330
1F
100
AcDbEntity
  8
0
  6
Continuous
 62
     7
370
    15
100
AcDbLine
 10
168.6881210457
 20
291.1150843133
 30
0.0
 11
168.6547424446
 21
291.132071637
 31
0.0
  0
LINE
  5
59
330
1F
100
AcDbEntity
  8
0
  6
Continuous
 62
     7
370
    15
100
AcDbLine
 10
158.2339431893
 20
279.5331865777
 30
0.0
 11
158.250930513
 21
279.5665651788
 31
0.0
  0
LINE
  5
5A
330
1F
100
AcDbEntity
  8
0
  6
Continuous
 62
     7
370
    15
100
AcDbLine
 10
-28.9299462189
 20
532.6512247552
 30
0.0
 11
-28.9299462189
 21
527.0512491692
 31
0.0
  0
LINE
  5
5B
330
1F
100
AcDbEntity
  8
0
  6
Continuous
 62
     7
370
    15
100
AcDbLine
 10
-6.9298718323
 20
527.0512491692
 30
0.0
 11
-6.9298718323
 21
532.6512247552
 31
0.0
  0
SPLINE
  5
5C
330
1F
100
AcDbEntity
  8
0
  6
Continuous
 62
     7
370
    15
100
AcDbSpline
210
0.0
220
0.0
230
1.0
 70
     8
 71
     3
 72
    11
 73
     7
 74
     0
 42
0.00000001
 43
0.00000001
 40
0.0
 40
0.0
 40
0.0
 40
0.0
 40
0.2500007855024277
 40
0.5000004907548763
 40
0.7499993545871626
 40
1.0
 40
1.0
 40
1.0
 40
1.0
 10
835.1524200092482
 20
-2.308359719382536
 30
0.0
 10
835.7124330394348
 20
-2.263690642020311
 30
0.0
 10
836.8324566799992
 20
-2.174352680310465
 30
0.0
 10
838.3281763921754
 20
-1.347363389835043
 30
0.0
 10
839.5179889477888
 20
-0.1204069279067688
 30
0.0
 10
839.8975273094501
 20
0.9371269644835034
 30
0.0
 10
840.0872971664595
 20
1.465895794762362
 30
0.0
  0
LINE
  5
5D
330
1F
100
AcDbEntity
  8
0
  6
Continuous
 62
     7
370
    15
100
AcDbLine
 10
816.5648605477
 20
-1.9839167367
 30
0.0
 11
835.1524200092
 21
-2.3083597194
 31
0.0
  0
SPLINE
  5
5E
330
1F
100
AcDbEntity
  8
0
  6
Continuous
 62
     7
370
    15
100
AcDbSpline
210
0.0
220
0.0
230
1.0
 70
     8
 71
     3
 72
    10
 73
     6
 74
     0
 42
0.00000001
 43
0.00000001
 40
0.0
 40
0.0
 40
0.0
 40
0.0
 40
0.2143122767821675
 40
0.4495327831599167
 40
1.0
 40
1.0
 40
1.0
 40
1.0
 10
832.7818240772414
 20
36.0691040982139
 30
0.0
 10
832.7210683778655
 20
35.80058748032722
 30
0.0
 10
832.5936296746643
 20
35.2373578586942
 30
0.0
 10
832.0531235665032
 20
34.0055152074788
 30
0.0
 10
831.3882850404827
 20
33.1802218616109
 30
0.0
 10
830.9224869857954
 20
32.60200621975778
 30
0.0
  0
SPLINE
  5
5F
330
1F
100
AcDbEntity
  8
0
  6
Continuous
 62
     7
370
    15
100
AcDbSpline
210
0.0
220
0.0
230
1.0
 70
     8
 71
     3
 72
    13
 73
     9
 74
     0
 42
0.00000001
 43
0.00000001
 40
0.0
 40
0.0
 40
0.0
 40
0.0
 40
0.1773278395010874
 40
0.3552967616131013
 40
0.5270918802901087
 40
0.6917287517581594
 40
0.8492970772833892
 40
1.0
 40
1.0
 40
1.0
 40
1.0
 10
837.242516482942
 20
147.8838712204826
 30
0.0
 10
837.6719589919363
 20
141.2699468934098
 30
0.0
 10
838.5323965474494
 20
128.0181873187455
 30
0.0
 10
838.764864261398
 20
108.3087065785115
 30
0.0
 10
838.2822487163097
 20
89.0802821090253
 30
0.0
 10
837.0692268942115
 20
70.64656209977954
 30
0.0
 10
835.2943225554639
 20
53.04773187392598
 30
0.0
 10
833.6067961300225
 20
41.64399042389544
 30
0.0
 10
832.7818240772414
 20
36.0691040982139
 30
0.0
  0
LINE
  5
60
330
1F
100
AcDbEntity
  8
0
  6
Continuous
 62
     7
370
    15
100
AcDbLine
 10
832.4753965985
 20
35.7041001548
 30
0.0
 11
816.5648605477
 21
35.4263723124
 31
0.0
  0
ARC
  5
61
330
1F
100
AcDbEntity
  8
0
  6
Continuous
 62
     7
370
    15
100
AcDbCircle
 10
816.5701032864
 20
-1.6839575269
 30
0.0
 40
0.3000000000000373
100
AcDbArc
 50
228.1896851042
 51
269.0
  0
ARC
  5
62
330
1F
100
AcDbEntity
  8
0
  6
Continuous
 62
     7
370
    15
100
AcDbCircle
 10
816.5701032864
 20
35.1264241152
 30
0.0
 40
0.3000000000000386
100
AcDbArc
 50
91.0
 51
131.8103148958
  0
SPLINE
  5
63
330
1F
100
AcDbEntity
  8
0
  6
Continuous
 62
     7
370
    15
100
AcDbSpline
210
0.0
220
0.0
230
1.0
 70
     8
 71
     3
 72
     9
 73
     5
 74
     0
 42
0.00000001
 43
0.00000001
 40
0.0
 40
0.0
 40
0.0
 40
0.0
 40
0.510808698811305
 40
1.0
 40
1.0
 40
1.0
 40
1.0
 10
837.226214612596
 20
148.239353321923
 30
0.0
 10
837.2268099456087
 20
148.1739491627834
 30
0.0
 10
837.2279754171719
 20
148.0459087451247
 30
0.0
 10
837.2364590264484
 20
147.9181879350806
 30
0.0
 10
837.2406091343092
 20
147.8557080258262
 30
0.0
  0
SPLINE
  5
64
330
1F
100
AcDbEntity
  8
0
  6
Continuous
 62
     7
370
    15
100
AcDbSpline
210
0.0
220
0.0
230
1.0
 70
     8
 71
     3
 72
     9
 73
     5
 74
     0
 42
0.00000001
 43
0.00000001
 40
0.0
 40
0.0
 40
0.0
 40
0.0
 40
0.4765815662858343
 40
1.0
 40
1.0
 40
1.0
 40
1.0
 10
836.9514372001814
 20
160.0417882431877
 30
0.0
 10
837.0373740155479
 20
158.1618398097936
 30
0.0
 10
837.217693233591
 20
154.2171877997605
 30
0.0
 10
837.234300677711
 20
150.2702796693798
 30
0.0
 10
837.2429933201003
 20
148.2043951977622
 30
0.0
  0
ARC
  5
65
330
1F
100
AcDbEntity
  8
0
  6
Continuous
 62
     7
370
    15
100
AcDbCircle
 10
432.887370957
 20
104.3649881768
 30
0.0
 40
419.9999999999999
100
AcDbArc
 50
345.8183908852
 51
7.8372574153
  0
SPLINE
  5
66
330
1F
100
AcDbEntity
  8
0
  6
Continuous
 62
     7
370
    15
100
AcDbSpline
210
0.0
220
0.0
230
1.0
 70
     8
 71
     3
 72
    14
 73
    10
 74
     0
 42
0.00000001
 43
0.00000001
 40
0.0
 40
0.0
 40
0.0
 40
0.0
 40
0.200612604489521
 40
0.368187657388328
 40
0.5960114387772952
 40
0.7856228623426845
 40
0.9173781711878332
 40
0.9912392779133368
 40
1.0
 40
1.0
 40
1.0
 40
1.0
 10
842.598619664781
 20
165.8677250374687
 30
0.0
 10
841.9602677761593
 20
165.7934434517833
 30
0.0
 10
840.7886899131476
 20
165.6571132192429
 30
0.0
 10
839.1095367455735
 20
164.7408264518074
 30
0.0
 10
837.8143091013349
 20
163.3874194959279
 30
0.0
 10
837.1032824528455
 20
161.7439080855796
 30
0.0
 10
836.9312739942145
 20
160.5805159404913
 30
0.0
 10
836.918795684497
 20
159.9860684134686
 30
0.0
 10
836.9573345486807
 20
159.8061457151524
 30
0.0
 10
836.9614209781813
 20
159.78706779374
 30
0.0
  0
SPLINE
  5
67
330
1F
100
AcDbEntity
  8
0
  6
Continuous
 62
     7
370
    15
100
AcDbSpline
210
0.0
220
0.0
230
1.0
 70
     8
 71
     3
 72
    11
 73
     7
 74
     0
 42
0.00000001
 43
0.00000001
 40
0.0
 40
0.0
 40
0.0
 40
0.0
 40
0.2500009580487727
 40
0.5000015399136654
 40
0.7500008335354372
 40
1.0
 40
1.0
 40
1.0
 40
1.0
 10
848.964336122148
 20
161.6364807118308
 30
0.0
 10
848.8184152355469
 20
162.2274809148747
 30
0.0
 10
848.5265736819161
 20
163.4094804316669
 30
0.0
 10
847.3281184560836
 20
164.8273479028065
 30
0.0
 10
845.7429696686643
 20
165.7937421556338
 30
0.0
 10
844.5301764065774
 20
165.9005428316891
 30
0.0
 10
843.9237799297499
 20
165.9539431561363
 30
0.0
  0
SPLINE
  5
68
330
1F
100
AcDbEntity
  8
0
  6
Continuous
 62
     7
370
    15
100
AcDbSpline
210
0.0
220
0.0
230
1.0
 70
     8
 71
     3
 72
     9
 73
     5
 74
     0
 42
0.00000001
 43
0.00000001
 40
0.0
 40
0.0
 40
0.0
 40
0.0
 40
0.1567021847276432
 40
1.0
 40
1.0
 40
1.0
 40
1.0
 10
794.8240961681532
 20
16.1089092720878
 30
0.0
 10
794.823757853202
 20
16.12748622137711
 30
0.0
 10
794.8215988855285
 20
16.24603561698051
 30
0.0
 10
794.8219350961554
 20
16.36820545175705
 30
0.0
 10
794.8222186218428
 20
16.47123100651621
 30
0.0
  0
SPLINE
  5
69
330
1F
100
AcDbEntity
  8
0
  6
Continuous
 62
     7
370
    15
100
AcDbSpline
210
0.0
220
0.0
230
1.0
 70
     8
 71
     3
 72
    13
 73
     9
 74
     0
 42
0.00000001
 43
0.00000001
 40
0.0
 40
0.0
 40
0.0
 40
0.0
 40
0.0738228191361317
 40
0.2019554223555648
 40
0.3741430003359412
 40
0.5741795859191022
 40
0.7893458292544934
 40
1.0
 40
1.0
 40
1.0
 40
1.0
 10
795.0395371566939
 20
12.47874798668741
 30
0.0
 10
795.0378077182644
 20
12.48551855413438
 30
0.0
 10
795.0330765325342
 20
12.50404064289151
 30
0.0
 10
794.9908797888684
 20
12.74658862563366
 30
0.0
 10
794.9368898914289
 20
13.23463769342853
 30
0.0
 10
794.8808581081506
 20
14.01439252833597
 30
0.0
 10
794.8379867374815
 20
15.00105655974537
 30
0.0
 10
794.8286935337555
 20
15.74224295109045
 30
0.0
 10
794.8240961681532
 20
16.1089092720878
 30
0.0
  0
SPLINE
  5
6A
330
1F
100
AcDbEntity
  8
0
  6
Continuous
 62
     7
370
    15
100
AcDbSpline
210
0.0
220
0.0
230
1.0
 70
     8
 71
     3
 72
    14
 73
    10
 74
     0
 42
0.00000001
 43
0.00000001
 40
0.0
 40
0.0
 40
0.0
 40
0.0
 40
0.1093616795708688
 40
0.318540333527902
 40
0.5266163636189092
 40
0.7302805872641275
 40
0.8885929972770031
 40
0.9988838998528489
 40
1.0
 40
1.0
 40
1.0
 40
1.0
 10
794.8222186218428
 20
16.47123100651621
 30
0.0
 10
794.8229391209697
 20
16.67577850094043
 30
0.0
 10
794.8250377357048
 20
17.27156879377317
 30
0.0
 10
794.8487686798819
 20
18.23274479891018
 30
0.0
 10
794.8980059253716
 20
19.23455506420574
 30
0.0
 10
794.9645782510197
 20
19.97793061060677
 30
0.0
 10
795.012544283164
 20
20.35492411613021
 30
0.0
 10
795.0497657166886
 20
20.49748925289285
 30
0.0
 10
795.0407598675455
 20
20.46943401380969
 30
0.0
 10
795.0406696449446
 20
20.46915295018076
 30
0.0
  0
LWPOLYLINE
  5
6B
330
1F
100
AcDbEntity
  8
0
  6
Continuous
 62
     7
370
    15
100
AcDbPolyline
 90
        3
 70
   128
 43
0.0
 10
816.3701023709
 20
35.4170739879
 10
806.2013413559
 20
35.7277780999
 10
797.8701021324
 20
35.9823495377
  0
LWPOLYLINE
  5
6C
330
1F
100
AcDbEntity
  8
0
  6
Continuous
 62
     7
370
    15
100
AcDbPolyline
 90
        3
 70
   128
 43
0.0
 10
797.8701021324
 20
-3.0398726235
 10
805.0050165306
 20
-2.8218686353
 10
816.3701023709
 20
-2.4745970737
  0
ARC
  5
6D
330
1F
100
AcDbEntity
  8
0
  6
Continuous
 62
     7
370
    15
100
AcDbCircle
 10
-3.929896711
 20
549.4012332941
 30
0.0
 40
0.2499999999998614
100
AcDbArc
 50
359.9999999998
 51
89.9999999999
  0
ARC
  5
6E
330
1F
100
AcDbEntity
  8
0
  6
Continuous
 62
     7
370
    15
100
AcDbCircle
 10
-31.929896711
 20
549.4012332941
 30
0.0
 40
0.25
100
AcDbArc
 50
90.0000000001
 51
180.0000000001
  0
LINE
  5
6F
330
1F
100
AcDbEntity
  8
0
  6
Continuous
 62
     7
370
    15
100
AcDbLine
 10
-3.6798689712
 20
549.3012458314
 30
0.0
 11
-3.6798689712
 21
549.4012624253
 31
0.0
  0
LINE
  5
70
330
1F
100
AcDbEntity
  8
0
  6
Continuous
 62
     7
370
    15
100
AcDbLine
 10
-32.1799490799
 20
549.4012624253
 30
0.0
 11
-32.1799490799
 21
549.3012458314
 31
0.0
  0
LINE
  5
71
330
1F
100
AcDbEntity
  8
0
  6
Continuous
 62
     7
370
    15
100
AcDbLine
 10
-3.6798689712
 20
548.4012156953
 30
0.0
 11
-4.1799519409
 21
548.8512307633
 31
0.0
  0
LINE
  5
72
330
1F
100
AcDbEntity
  8
0
  6
Continuous
 62
     7
370
    15
100
AcDbLine
 10
-31.6798661102
 20
548.8512307633
 30
0.0
 11
-32.1799490799
 21
548.4012156953
 31
0.0
  0
LINE
  5
73
330
1F
100
AcDbEntity
  8
0
  6
Continuous
 62
     7
370
    15
100
AcDbLine
 10
-32.1799490799
 20
548.4012156953
 30
0.0
 11
-31.6798661102
 21
547.9512602319
 31
0.0
  0
LINE
  5
74
330
1F
100
AcDbEntity
  8
0
  6
Continuous
 62
     7
370
    15
100
AcDbLine
 10
-4.1799519409
 20
547.9512602319
 30
0.0
 11
-3.6798689712
 21
548.4012156953
 31
0.0
  0
LINE
  5
75
330
1F
100
AcDbEntity
  8
0
  6
Continuous
 62
     7
370
    15
100
AcDbLine
 10
-32.1799490799
 20
549.3012458314
 30
0.0
 11
-31.6798661102
 21
548.8512307633
 31
0.0
  0
LINE
  5
76
330
1F
100
AcDbEntity
  8
0
  6
Continuous
 62
     7
370
    15
100
AcDbLine
 10
-4.1799519409
 20
548.8512307633
 30
0.0
 11
-3.6798689712
 21
549.3012458314
 31
0.0
  0
LINE
  5
77
330
1F
100
AcDbEntity
  8
0
  6
Continuous
 62
     7
370
    15
100
AcDbLine
 10
-3.846523558
 20
547.6512104501
 30
0.0
 11
-4.1799519409
 21
547.9512602319
 31
0.0
  0
LINE
  5
78
330
1F
100
AcDbEntity
  8
0
  6
Continuous
 62
     7
370
    15
100
AcDbLine
 10
-31.6798661102
 20
547.9512602319
 30
0.0
 11
-32.0131752838
 21
547.6512104501
 31
0.0
  0
ARC
  5
79
330
1F
100
AcDbEntity
  8
0
  6
Continuous
 62
     7
370
    15
100
AcDbCircle
 10
-4.479896711
 20
550.1512332941
 30
0.0
 40
0.5000000000002274
100
AcDbArc
 50
180.0
 51
270.0
  0
ARC
  5
7A
330
1F
100
AcDbEntity
  8
0
  6
Continuous
 62
     7
370
    15
100
AcDbCircle
 10
-31.379896711
 20
550.1512332941
 30
0.0
 40
0.500000000000167
100
AcDbArc
 50
269.9999999999
 51
0.0
  0
ARC
  5
7B
330
1F
100
AcDbEntity
  8
0
  6
Continuous
 62
     7
370
    15
100
AcDbCircle
 10
-5.479896711
 20
557.2512332941
 30
0.0
 40
0.500000000000167
100
AcDbArc
 50
0.0000000001
 51
90.0
  0
ARC
  5
7C
330
1F
100
AcDbEntity
  8
0
  6
Continuous
 62
     7
370
    15
100
AcDbCircle
 10
-30.379896711
 20
557.2512332941
 30
0.0
 40
0.500000000000167
100
AcDbArc
 50
90.0000000001
 51
179.9999999999
  0
LINE
  5
7D
330
1F
100
AcDbEntity
  8
0
  6
Continuous
 62
     7
370
    15
100
AcDbLine
 10
-4.9798462738
 20
550.1512080659
 30
0.0
 11
-4.9798462738
 21
557.2512537469
 31
0.0
  0
LINE
  5
7E
330
1F
100
AcDbEntity
  8
0
  6
Continuous
 62
     7
370
    15
100
AcDbLine
 10
-30.879852568
 20
557.2512537469
 30
0.0
 11
-30.879852568
 21
550.1512080659
 31
0.0
  0
LINE
  5
7F
330
1F
100
AcDbEntity
  8
0
  6
Continuous
 62
     7
370
    15
100
AcDbLine
 10
-6.3798401703
 20
558.2512408723
 30
0.0
 11
-6.3798401703
 21
567.2512442101
 31
0.0
  0
LINE
  5
80
330
1F
100
AcDbEntity
  8
0
  6
Continuous
 62
     7
370
    15
100
AcDbLine
 10
-29.4798586716
 20
567.2512442101
 30
0.0
 11
-29.4798586716
 21
557.6762348641
 31
0.0
  0
ARC
  5
81
330
1F
100
AcDbEntity
  8
0
  6
Continuous
 62
     7
370
    15
100
AcDbCircle
 10
-5.879896711
 20
558.2512332941
 30
0.0
 40
0.5000000000000194
100
AcDbArc
 50
179.9763392634
 51
270.0
  0
LINE
  5
82
330
1F
100
AcDbEntity
  8
0
  6
Continuous
 62
     7
370
    15
100
AcDbLine
 10
5.595090593
 20
9.2412322987
 30
0.0
 11
5.595090593
 21
14.041239046
 31
0.0
  0
LINE
  5
83
330
1F
100
AcDbEntity
  8
0
  6
Continuous
 62
     7
370
    15
100
AcDbLine
 10
-5.4548952926
 20
14.041239046
 30
0.0
 11
-5.4548952926
 21
9.2412322987
 31
0.0
  0
LINE
  5
84
330
1F
100
AcDbEntity
  8
0
  6
Continuous
 62
     7
370
    15
100
AcDbLine
 10
60.3700902115
 20
457.251229905
 30
0.0
 11
60.8700539719
 21
457.251229905
 31
0.0
  0
LINE
  5
85
330
1F
100
AcDbEntity
  8
0
  6
Continuous
 62
     7
370
    15
100
AcDbLine
 10
60.8700539719
 20
465.2512461175
 30
0.0
 11
60.3700902115
 21
465.2512461175
 31
0.0
  0
LINE
  5
86
330
1F
100
AcDbEntity
  8
0
  6
Continuous
 62
     7
370
    15
100
AcDbLine
 10
60.3700902115
 20
117.2512263287
 30
0.0
 11
60.8700539719
 21
117.2512263287
 31
0.0
  0
LINE
  5
87
330
1F
100
AcDbEntity
  8
0
  6
Continuous
 62
     7
370
    15
100
AcDbLine
 10
60.8700539719
 20
125.2512425412
 30
0.0
 11
60.3700902115
 21
125.2512425412
 31
0.0
  0
LINE
  5
88
330
1F
100
AcDbEntity
  8
0
  6
Continuous
 62
     7
370
    15
100
AcDbLine
 10
9.7984101425
 20
51.5512317647
 30
0.0
 11
9.7984101425
 21
55.451223277
 31
0.0
  0
LINE
  5
89
330
1F
100
AcDbEntity
  8
0
  6
Continuous
 62
     7
370
    15
100
AcDbLine
 10
9.7984101425
 20
51.5512317647
 30
0.0
 11
-9.6582148422
 21
51.5512317647
 31
0.0
  0
LINE
  5
8A
330
1F
100
AcDbEntity
  8
0
  6
Continuous
 62
     7
370
    15
100
AcDbLine
 10
-9.6582148422
 20
51.5512317647
 30
0.0
 11
-9.6582148422
 21
55.451223277
 31
0.0
  0
LINE
  5
8B
330
1F
100
AcDbEntity
  8
0
  6
Continuous
 62
     7
370
    15
100
AcDbLine
 10
19.5268418442
 20
51.5512317647
 30
0.0
 11
19.5268418442
 21
55.451223277
 31
0.0
  0
LINE
  5
8C
330
1F
100
AcDbEntity
  8
0
  6
Continuous
 62
     7
370
    15
100
AcDbLine
 10
19.5268418442
 20
51.5512317647
 30
0.0
 11
9.7984101425
 21
51.5512317647
 31
0.0
  0
LINE
  5
8D
330
1F
100
AcDbEntity
  8
0
  6
Continuous
 62
     7
370
    15
100
AcDbLine
 10
-9.6582148422
 20
51.5512317647
 30
0.0
 11
-19.3866465439
 21
51.5512317647
 31
0.0
  0
LINE
  5
8E
330
1F
100
AcDbEntity
  8
0
  6
Continuous
 62
     7
370
    15
100
AcDbLine
 10
-19.3866465439
 20
51.5512317647
 30
0.0
 11
-19.3866465439
 21
55.451223277
 31
0.0
  0
LINE
  5
8F
330
1F
100
AcDbEntity
  8
0
  6
Continuous
 62
     7
370
    15
100
AcDbLine
 10
0.0700976502
 20
37.8512382735
 30
0.0
 11
0.5390669953
 21
37.8512382735
 31
0.0
  0
LINE
  5
90
330
1F
100
AcDbEntity
  8
0
  6
Continuous
 62
     7
370
    15
100
AcDbLine
 10
-0.3988716949
 20
37.8512382735
 30
0.0
 11
0.0700976502
 21
37.8512382735
 31
0.0
  0
LINE
  5
91
330
1F
100
AcDbEntity
  8
0
  6
Continuous
 62
     7
370
    15
100
AcDbLine
 10
0.0700976502
 20
50.8512348164
 30
0.0
 11
10.4701544892
 21
50.8512348164
 31
0.0
  0
LINE
  5
92
330
1F
100
AcDbEntity
  8
0
  6
Continuous
 62
     7
370
    15
100
AcDbLine
 10
-10.3298399795
 20
50.8512348164
 30
0.0
 11
0.0700976502
 21
50.8512348164
 31
0.0
  0
LINE
  5
93
330
1F
100
AcDbEntity
  8
0
  6
Continuous
 62
     7
370
    15
100
AcDbLine
 10
12.0700623642
 20
44.8512226571
 30
0.0
 11
13.5700728546
 21
44.8512226571
 31
0.0
  0
LINE
  5
94
330
1F
100
AcDbEntity
  8
0
  6
Continuous
 62
     7
370
    15
100
AcDbLine
 10
12.0700623642
 20
37.8512382735
 30
0.0
 11
12.0700623642
 21
44.8512226571
 31
0.0
  0
LINE
  5
95
330
1F
100
AcDbEntity
  8
0
  6
Continuous
 62
     7
370
    15
100
AcDbLine
 10
12.0700623642
 20
37.8512382735
 30
0.0
 11
11.4262129913
 21
37.8512382735
 31
0.0
  0
LINE
  5
96
330
1F
100
AcDbEntity
  8
0
  6
Continuous
 62
     7
370
    15
100
AcDbLine
 10
11.4262129913
 20
44.8512226571
 30
0.0
 11
11.4262129913
 21
37.8512382735
 31
0.0
  0
LINE
  5
97
330
1F
100
AcDbEntity
  8
0
  6
Continuous
 62
     7
370
    15
100
AcDbLine
 10
0.7140662323
 20
44.8512226571
 30
0.0
 11
11.4262129913
 21
44.8512226571
 31
0.0
  0
LINE
  5
98
330
1F
100
AcDbEntity
  8
0
  6
Continuous
 62
     7
370
    15
100
AcDbLine
 10
0.7140662323
 20
37.8512382735
 30
0.0
 11
0.7140662323
 21
44.8512226571
 31
0.0
  0
LINE
  5
99
330
1F
100
AcDbEntity
  8
0
  6
Continuous
 62
     7
370
    15
100
AcDbLine
 10
-0.573870932
 20
44.8512226571
 30
0.0
 11
-0.573870932
 21
37.8512382735
 31
0.0
  0
LINE
  5
9A
330
1F
100
AcDbEntity
  8
0
  6
Continuous
 62
     7
370
    15
100
AcDbLine
 10
-11.286017691
 20
44.8512226571
 30
0.0
 11
-0.573870932
 21
44.8512226571
 31
0.0
  0
LINE
  5
9B
330
1F
100
AcDbEntity
  8
0
  6
Continuous
 62
     7
370
    15
100
AcDbLine
 10
-11.286017691
 20
37.8512382735
 30
0.0
 11
-11.286017691
 21
44.8512226571
 31
0.0
  0
LINE
  5
9C
330
1F
100
AcDbEntity
  8
0
  6
Continuous
 62
     7
370
    15
100
AcDbLine
 10
-11.286017691
 20
37.8512382735
 30
0.0
 11
-11.9298670639
 21
37.8512382735
 31
0.0
  0
LINE
  5
9D
330
1F
100
AcDbEntity
  8
0
  6
Continuous
 62
     7
370
    15
100
AcDbLine
 10
-11.9298670639
 20
44.8512226571
 30
0.0
 11
-11.9298670639
 21
37.8512382735
 31
0.0
  0
LINE
  5
9E
330
1F
100
AcDbEntity
  8
0
  6
Continuous
 62
     7
370
    15
100
AcDbLine
 10
-13.4298775543
 20
44.8512226571
 30
0.0
 11
-11.9298670639
 21
44.8512226571
 31
0.0
  0
LINE
  5
9F
330
1F
100
AcDbEntity
  8
0
  6
Continuous
 62
     7
370
    15
100
AcDbLine
 10
-13.4298775543
 20
49.851247691
 30
0.0
 11
13.5700728546
 21
49.851247691
 31
0.0
  0
LINE
  5
A0
330
1F
100
AcDbEntity
  8
0
  6
Continuous
 62
     7
370
    15
100
AcDbLine
 10
0.7140662323
 20
37.8512382735
 30
0.0
 11
-0.573870932
 21
37.8512382735
 31
0.0
  0
LINE
  5
A1
330
1F
100
AcDbEntity
  8
0
  6
Continuous
 62
     7
370
    15
100
AcDbLine
 10
-11.286017691
 20
37.8512382735
 30
0.0
 11
-5.9299443115
 21
37.8512382735
 31
0.0
  0
LINE
  5
A2
330
1F
100
AcDbEntity
  8
0
  6
Continuous
 62
     7
370
    15
100
AcDbLine
 10
-5.9299443115
 20
37.8512382735
 30
0.0
 11
-0.573870932
 21
37.8512382735
 31
0.0
  0
LINE
  5
A3
330
1F
100
AcDbEntity
  8
0
  6
Continuous
 62
     7
370
    15
100
AcDbLine
 10
6.0701396118
 20
37.8512382735
 30
0.0
 11
11.4262129913
 21
37.8512382735
 31
0.0
  0
LINE
  5
A4
330
1F
100
AcDbEntity
  8
0
  6
Continuous
 62
     7
370
    15
100
AcDbLine
 10
0.7140662323
 20
37.8512382735
 30
0.0
 11
6.0701396118
 21
37.8512382735
 31
0.0
  0
SPLINE
  5
A5
330
1F
100
AcDbEntity
  8
0
  6
Continuous
 62
     7
370
    15
100
AcDbSpline
210
0.0
220
0.0
230
1.0
 70
     8
 71
     3
 72
    26
 73
    22
 74
     0
 42
0.00000001
 43
0.00000001
 40
0.0
 40
0.0
 40
0.0
 40
0.0
 40
0.0501334917013564
 40
0.093073559239929
 40
0.1380718392551294
 40
0.2087864689267234
 40
0.277146965518544
 40
0.3416902146964228
 40
0.3991884922825862
 40
0.4507000022756124
 40
0.4999527446481506
 40
0.5492054870206889
 40
0.6007169970137151
 40
0.6582150709937082
 40
0.7227585803680635
 40
0.7672422704834911
 40
0.8133764781553708
 40
0.8619281467558855
 40
0.9069257539229186
 40
0.9498661634001829
 40
1.0
 40
1.0
 40
1.0
 40
1.0
 10
8.070113862626238
 20
25.85122885598062
 30
0.0
 10
8.05620732854817
 20
25.49039003472947
 30
0.0
 10
8.030389645011349
 20
24.8204874952086
 30
0.0
 10
7.830549294975286
 20
23.83565560768358
 30
0.0
 10
7.471593732892856
 20
22.72202151362673
 30
0.0
 10
6.830247424288949
 20
21.47143898298315
 30
0.0
 10
5.80389048070673
 20
20.1906018951748
 30
0.0
 10
4.531634688700326
 20
19.14335958434493
 30
0.0
 10
3.10212526451048
 20
18.39250566918938
 30
0.0
 10
1.600218362305172
 20
17.94952937529376
 30
0.0
 10
0.0700968177780315
 20
17.80317943502946
 30
0.0
 10
-1.460019656091438
 20
17.94952519718374
 30
0.0
 10
-2.961941164792092
 20
18.39252356636473
 30
0.0
 10
-4.391380421732594
 20
19.14327650195202
 30
0.0
 10
-5.504391704811651
 20
20.05950332965173
 30
0.0
 10
-6.331402045284928
 20
21.01270603792005
 30
0.0
 10
-6.927400322028765
 20
21.92305405379819
 30
0.0
 10
-7.381574318931161
 20
22.87746650940253
 30
0.0
 10
-7.690349218844705
 20
23.83565597888026
 30
0.0
 10
-7.890196104332281
 20
24.82046654307063
 30
0.0
 10
-7.91601264875208
 20
25.49038281710675
 30
0.0
 10
-7.92991856230052
 20
25.85122885598062
 30
0.0
  0
ARC
  5
A6
330
1F
100
AcDbEntity
  8
0
  6
Continuous
 62
     7
370
    15
100
AcDbCircle
 10
0.070103289
 20
25.8512332941
 30
0.0
 40
9.00000000000008
100
AcDbArc
 50
152.7339555493
 51
27.2660444507
  0
ARC
  5
A7
330
1F
100
AcDbEntity
  8
0
  6
Continuous
 62
     7
370
    15
100
AcDbCircle
 10
0.070103289
 20
25.8512332941
 30
0.0
 40
10.50000000000006
100
AcDbArc
 50
139.6324064558
 51
270.0
  0
ARC
  5
A8
330
1F
100
AcDbEntity
  8
0
  6
Continuous
 62
     7
370
    15
100
AcDbCircle
 10
0.070103289
 20
25.8512332941
 30
0.0
 40
10.50000000000006
100
AcDbArc
 50
270.0
 51
40.3675935442
  0
LINE
  5
A9
330
1F
100
AcDbEntity
  8
0
  6
Continuous
 62
     7
370
    15
100
AcDbLine
 10
8.8501002442
 20
34.1437548627
 30
0.0
 11
13.5695960175
 21
25.9694397677
 31
0.0
  0
ARC
  5
AA
330
1F
100
AcDbEntity
  8
0
  6
Continuous
 62
     7
370
    15
100
AcDbCircle
 10
0.070103289
 20
25.8512332941
 30
0.0
 40
13.50000000000001
100
AcDbArc
 50
359.4982925166
 51
0.5017074834
  0
LINE
  5
AB
330
1F
100
AcDbEntity
  8
0
  6
Continuous
 62
     7
370
    15
100
AcDbLine
 10
13.5695960175
 20
25.7330179442
 30
0.0
 11
6.9222476135
 21
14.2194420327
 31
0.0
  0
ARC
  5
AC
330
1F
100
AcDbEntity
  8
0
  6
Continuous
 62
     7
370
    15
100
AcDbCircle
 10
0.070103289
 20
25.8512332941
 30
0.0
 40
13.49999999999955
100
AcDbArc
 50
299.4982925166
 51
300.5017074834
  0
LINE
  5
AD
330
1F
100
AcDbEntity
  8
0
  6
Continuous
 62
     7
370
    15
100
AcDbLine
 10
6.7174460541
 20
14.101231121
 30
0.0
 11
-6.5772507538
 21
14.101231121
 31
0.0
  0
ARC
  5
AE
330
1F
100
AcDbEntity
  8
0
  6
Continuous
 62
     7
370
    15
100
AcDbCircle
 10
0.070103289
 20
25.8512332941
 30
0.0
 40
13.5000000000004
100
AcDbArc
 50
239.4982925166
 51
240.5017074834
  0
ARC
  5
AF
330
1F
100
AcDbEntity
  8
0
  6
Continuous
 62
     7
370
    15
100
AcDbCircle
 10
0.070103289
 20
25.8512332941
 30
0.0
 40
13.50000000000068
100
AcDbArc
 50
179.4982925166
 51
180.5017074834
  0
LINE
  5
B0
330
1F
100
AcDbEntity
  8
0
  6
Continuous
 62
     7
370
    15
100
AcDbLine
 10
-13.4294007171
 20
25.9694397677
 30
0.0
 11
-8.7099049438
 21
34.1437548627
 31
0.0
  0
LINE
  5
B1
330
1F
100
AcDbEntity
  8
0
  6
Continuous
 62
     7
370
    15
100
AcDbLine
 10
-6.7820523132
 20
14.2194420327
 30
0.0
 11
-13.4294007171
 21
25.7330179442
 31
0.0
  0
LINE
  5
B2
330
1F
100
AcDbEntity
  8
0
  6
Continuous
 62
     7
370
    15
100
AcDbLine
 10
-37.4299261917
 20
515.2012497414
 30
0.0
 11
-36.6299126495
 21
515.2012497414
 31
0.0
  0
LINE
  5
B3
330
1F
100
AcDbEntity
  8
0
  6
Continuous
 62
     7
370
    15
100
AcDbLine
 10
-37.4299261917
 20
510.2012545098
 30
0.0
 11
-37.4299261917
 21
515.2012497414
 31
0.0
  0
LINE
  5
B4
330
1F
100
AcDbEntity
  8
0
  6
Continuous
 62
     7
370
    15
100
AcDbLine
 10
-36.6299126495
 20
510.2012545098
 30
0.0
 11
-36.6299126495
 21
515.2012497414
 31
0.0
  0
LINE
  5
B5
330
1F
100
AcDbEntity
  8
0
  6
Continuous
 62
     7
370
    15
100
AcDbLine
 10
-37.4299261917
 20
78.7012368668
 30
0.0
 11
-37.4299261917
 21
510.2012545098
 31
0.0
  0
LINE
  5
B6
330
1F
100
AcDbEntity
  8
0
  6
Continuous
 62
     7
370
    15
100
AcDbLine
 10
-36.6299126495
 20
78.7012368668
 30
0.0
 11
-36.6299126495
 21
510.2012545098
 31
0.0
  0
LINE
  5
B7
330
1F
100
AcDbEntity
  8
0
  6
Continuous
 62
     7
370
    15
100
AcDbLine
 10
-37.4299261917
 20
73.7012416352
 30
0.0
 11
-36.6299126495
 21
73.7012416352
 31
0.0
  0
LINE
  5
B8
330
1F
100
AcDbEntity
  8
0
  6
Continuous
 62
     7
370
    15
100
AcDbLine
 10
-37.4299261917
 20
73.7012416352
 30
0.0
 11
-37.4299261917
 21
78.7012368668
 31
0.0
  0
LINE
  5
B9
330
1F
100
AcDbEntity
  8
0
  6
Continuous
 62
     7
370
    15
100
AcDbLine
 10
-36.6299126495
 20
73.7012416352
 30
0.0
 11
-36.6299126495
 21
78.7012368668
 31
0.0
  0
LINE
  5
BA
330
1F
100
AcDbEntity
  8
0
  6
Continuous
 62
     7
370
    15
100
AcDbLine
 10
-36.6299126495
 20
73.7012416352
 30
0.0
 11
-36.4624235977
 21
73.7012416352
 31
0.0
  0
LINE
  5
BB
330
1F
100
AcDbEntity
  8
0
  6
Continuous
 62
     7
370
    15
100
AcDbLine
 10
-36.4624235977
 20
515.2012497414
 30
0.0
 11
-36.6299126495
 21
515.2012497414
 31
0.0
  0
LINE
  5
BC
330
1F
100
AcDbEntity
  8
0
  6
Continuous
 62
     7
370
    15
100
AcDbLine
 10
-16.9907782425
 20
73.7012416352
 30
0.0
 11
-36.4624235977
 21
73.7012416352
 31
0.0
  0
LINE
  5
BD
330
1F
100
AcDbEntity
  8
0
  6
Continuous
 62
     7
370
    15
100
AcDbLine
 10
-36.4624235977
 20
515.2012497414
 30
0.0
 11
-16.9907782425
 21
515.2012497414
 31
0.0
  0
LINE
  5
BE
330
1F
100
AcDbEntity
  8
0
  6
Continuous
 62
     7
370
    15
100
AcDbLine
 10
38.3701350342
 20
518.1512624253
 30
0.0
 11
-1.6299460281
 21
518.1512624253
 31
0.0
  0
LINE
  5
BF
330
1F
100
AcDbEntity
  8
0
  6
Continuous
 62
     7
370
    15
100
AcDbLine
 10
38.3701350342
 20
516.451218747
 30
0.0
 11
-1.6299460281
 21
516.451218747
 31
0.0
  0
LINE
  5
C0
330
1F
100
AcDbEntity
  8
0
  6
Continuous
 62
     7
370
    15
100
AcDbLine
 10
38.3701350342
 20
518.1512624253
 30
0.0
 11
38.3701350342
 21
516.451218747
 31
0.0
  0
LINE
  5
C1
330
1F
100
AcDbEntity
  8
0
  6
Continuous
 62
     7
370
    15
100
AcDbLine
 10
-1.6299460281
 20
516.451218747
 30
0.0
 11
-1.6299460281
 21
518.1512624253
 31
0.0
  0
LINE
  5
C2
330
1F
100
AcDbEntity
  8
0
  6
Continuous
 62
     7
370
    15
100
AcDbLine
 10
38.3701350342
 20
72.4512428273
 30
0.0
 11
38.3701350342
 21
70.7512289513
 31
0.0
  0
LINE
  5
C3
330
1F
100
AcDbEntity
  8
0
  6
Continuous
 62
     7
370
    15
100
AcDbLine
 10
-1.6299460281
 20
70.7512289513
 30
0.0
 11
38.3701350342
 21
70.7512289513
 31
0.0
  0
LINE
  5
C4
330
1F
100
AcDbEntity
  8
0
  6
Continuous
 62
     7
370
    15
100
AcDbLine
 10
-1.6299460281
 20
70.7512289513
 30
0.0
 11
-1.6299460281
 21
72.4512428273
 31
0.0
  0
LINE
  5
C5
330
1F
100
AcDbEntity
  8
0
  6
Continuous
 62
     7
370
    15
100
AcDbLine
 10
-1.6299460281
 20
72.4512428273
 30
0.0
 11
38.3701350342
 21
72.4512428273
 31
0.0
  0
LINE
  5
C6
330
1F
100
AcDbEntity
  8
0
  6
Continuous
 62
     7
370
    15
100
AcDbLine
 10
43.8700940262
 20
517.3512488831
 30
0.0
 11
43.8700940262
 21
518.1512624253
 31
0.0
  0
LINE
  5
C7
330
1F
100
AcDbEntity
  8
0
  6
Continuous
 62
     7
370
    15
100
AcDbLine
 10
38.8700987946
 20
517.3512488831
 30
0.0
 11
43.8700940262
 21
517.3512488831
 31
0.0
  0
LINE
  5
C8
330
1F
100
AcDbEntity
  8
0
  6
Continuous
 62
     7
370
    15
100
AcDbLine
 10
38.8700987946
 20
518.1512624253
 30
0.0
 11
43.8700940262
 21
518.1512624253
 31
0.0
  0
LINE
  5
C9
330
1F
100
AcDbEntity
  8
0
  6
Continuous
 62
     7
370
    15
100
AcDbLine
 10
38.3701350342
 20
518.1512624253
 30
0.0
 11
38.8700987946
 21
518.1512624253
 31
0.0
  0
LINE
  5
CA
330
1F
100
AcDbEntity
  8
0
  6
Continuous
 62
     7
370
    15
100
AcDbLine
 10
38.3701350342
 20
517.3512488831
 30
0.0
 11
38.8700987946
 21
517.3512488831
 31
0.0
  0
LINE
  5
CB
330
1F
100
AcDbEntity
  8
0
  6
Continuous
 62
     7
370
    15
100
AcDbLine
 10
38.3701350342
 20
72.4512428273
 30
0.0
 11
38.8700987946
 21
72.4512428273
 31
0.0
  0
LINE
  5
CC
330
1F
100
AcDbEntity
  8
0
  6
Continuous
 62
     7
370
    15
100
AcDbLine
 10
38.3701350342
 20
71.6512292851
 30
0.0
 11
38.8700987946
 21
71.6512292851
 31
0.0
  0
LINE
  5
CD
330
1F
100
AcDbEntity
  8
0
  6
Continuous
 62
     7
370
    15
100
AcDbLine
 10
43.8700940262
 20
71.6512292851
 30
0.0
 11
43.8700940262
 21
72.4512428273
 31
0.0
  0
LINE
  5
CE
330
1F
100
AcDbEntity
  8
0
  6
Continuous
 62
     7
370
    15
100
AcDbLine
 10
38.8700987946
 20
72.4512428273
 30
0.0
 11
43.8700940262
 21
72.4512428273
 31
0.0
  0
LINE
  5
CF
330
1F
100
AcDbEntity
  8
0
  6
Continuous
 62
     7
370
    15
100
AcDbLine
 10
38.8700987946
 20
71.6512292851
 30
0.0
 11
43.8700940262
 21
71.6512292851
 31
0.0
  0
LINE
  5
D0
330
1F
100
AcDbEntity
  8
0
  6
Continuous
 62
     7
370
    15
100
AcDbLine
 10
-16.629931723
 20
517.2512322892
 30
0.0
 11
-16.629931723
 21
516.451218747
 31
0.0
  0
LINE
  5
D1
330
1F
100
AcDbEntity
  8
0
  6
Continuous
 62
     7
370
    15
100
AcDbLine
 10
-16.629931723
 20
516.451218747
 30
0.0
 11
-11.6299364914
 21
516.451218747
 31
0.0
  0
LINE
  5
D2
330
1F
100
AcDbEntity
  8
0
  6
Continuous
 62
     7
370
    15
100
AcDbLine
 10
-16.629931723
 20
517.2512322892
 30
0.0
 11
-11.6299364914
 21
517.2512322892
 31
0.0
  0
LINE
  5
D3
330
1F
100
AcDbEntity
  8
0
  6
Continuous
 62
     7
370
    15
100
AcDbLine
 10
-11.6299364914
 20
516.451218747
 30
0.0
 11
-1.6299460281
 21
516.451218747
 31
0.0
  0
LINE
  5
D4
330
1F
100
AcDbEntity
  8
0
  6
Continuous
 62
     7
370
    15
100
AcDbLine
 10
-11.6299364914
 20
517.2512322892
 30
0.0
 11
-1.6299460281
 21
517.2512322892
 31
0.0
  0
LINE
  5
D5
330
1F
100
AcDbEntity
  8
0
  6
Continuous
 62
     7
370
    15
100
AcDbLine
 10
-16.629931723
 20
71.6512292851
 30
0.0
 11
-16.629931723
 21
72.4512428273
 31
0.0
  0
LINE
  5
D6
330
1F
100
AcDbEntity
  8
0
  6
Continuous
 62
     7
370
    15
100
AcDbLine
 10
-11.6299364914
 20
72.4512428273
 30
0.0
 11
-16.629931723
 21
72.4512428273
 31
0.0
  0
LINE
  5
D7
330
1F
100
AcDbEntity
  8
0
  6
Continuous
 62
     7
370
    15
100
AcDbLine
 10
-11.6299364914
 20
71.6512292851
 30
0.0
 11
-16.629931723
 21
71.6512292851
 31
0.0
  0
LINE
  5
D8
330
1F
100
AcDbEntity
  8
0
  6
Continuous
 62
     7
370
    15
100
AcDbLine
 10
-1.6299460281
 20
72.4512428273
 30
0.0
 11
-11.6299364914
 21
72.4512428273
 31
0.0
  0
LINE
  5
D9
330
1F
100
AcDbEntity
  8
0
  6
Continuous
 62
     7
370
    15
100
AcDbLine
 10
-1.6299460281
 20
71.6512292851
 30
0.0
 11
-11.6299364914
 21
71.6512292851
 31
0.0
  0
LINE
  5
DA
330
1F
100
AcDbEntity
  8
0
  6
Continuous
 62
     7
370
    15
100
AcDbLine
 10
37.120106424
 20
515.2012497414
 30
0.0
 11
38.3701350342
 21
515.2012497414
 31
0.0
  0
LINE
  5
DB
330
1F
100
AcDbEntity
  8
0
  6
Continuous
 62
     7
370
    15
100
AcDbLine
 10
-16.629931723
 20
516.451218747
 30
0.0
 11
-16.629931723
 21
515.2012497414
 31
0.0
  0
LINE
  5
DC
330
1F
100
AcDbEntity
  8
0
  6
Continuous
 62
     7
370
    15
100
AcDbLine
 10
38.3701350342
 20
515.2012497414
 30
0.0
 11
38.3701350342
 21
516.451218747
 31
0.0
  0
LINE
  5
DD
330
1F
100
AcDbEntity
  8
0
  6
Continuous
 62
     7
370
    15
100
AcDbLine
 10
-16.629931723
 20
73.7012416352
 30
0.0
 11
-16.629931723
 21
72.4512428273
 31
0.0
  0
LINE
  5
DE
330
1F
100
AcDbEntity
  8
0
  6
Continuous
 62
     7
370
    15
100
AcDbLine
 10
38.3701350342
 20
73.7012416352
 30
0.0
 11
37.120106424
 21
73.7012416352
 31
0.0
  0
LINE
  5
DF
330
1F
100
AcDbEntity
  8
0
  6
Continuous
 62
     7
370
    15
100
AcDbLine
 10
38.3701350342
 20
72.4512428273
 30
0.0
 11
38.3701350342
 21
73.7012416352
 31
0.0
  0
LINE
  5
E0
330
1F
100
AcDbEntity
  8
0
  6
Continuous
 62
     7
370
    15
100
AcDbLine
 10
-16.9907782425
 20
73.7012416352
 30
0.0
 11
-15.9082386841
 21
73.7012416352
 31
0.0
  0
LINE
  5
E1
330
1F
100
AcDbEntity
  8
0
  6
Continuous
 62
     7
370
    15
100
AcDbLine
 10
-15.9082386841
 20
515.2012497414
 30
0.0
 11
-16.9907782425
 21
515.2012497414
 31
0.0
  0
LINE
  5
E2
330
1F
100
AcDbEntity
  8
0
  6
Continuous
 62
     7
370
    15
100
AcDbLine
 10
38.3701350342
 20
515.2012497414
 30
0.0
 11
39.1701485764
 21
515.2012497414
 31
0.0
  0
LINE
  5
E3
330
1F
100
AcDbEntity
  8
0
  6
Continuous
 62
     7
370
    15
100
AcDbLine
 10
39.1701485764
 20
73.7012416352
 30
0.0
 11
39.1701485764
 21
515.2012497414
 31
0.0
  0
LINE
  5
E4
330
1F
100
AcDbEntity
  8
0
  6
Continuous
 62
     7
370
    15
100
AcDbLine
 10
39.1701485764
 20
73.7012416352
 30
0.0
 11
38.3701350342
 21
73.7012416352
 31
0.0
  0
LINE
  5
E5
330
1F
100
AcDbEntity
  8
0
  6
Continuous
 62
     7
370
    15
100
AcDbLine
 10
40.4200579773
 20
515.2012497414
 30
0.0
 11
39.1701485764
 21
515.2012497414
 31
0.0
  0
LINE
  5
E6
330
1F
100
AcDbEntity
  8
0
  6
Continuous
 62
     7
370
    15
100
AcDbLine
 10
39.1701485764
 20
73.7012416352
 30
0.0
 11
40.4200579773
 21
73.7012416352
 31
0.0
  0
LINE
  5
E7
330
1F
100
AcDbEntity
  8
0
  6
Continuous
 62
     7
370
    15
100
AcDbLine
 10
44.170143808
 20
515.2012497414
 30
0.0
 11
44.7701241623
 21
515.1651293267
 31
0.0
  0
LINE
  5
E8
330
1F
100
AcDbEntity
  8
0
  6
Continuous
 62
     7
370
    15
100
AcDbLine
 10
44.7701241623
 20
73.73736205
 30
0.0
 11
44.170143808
 21
73.7012416352
 31
0.0
  0
LINE
  5
E9
330
1F
100
AcDbEntity
  8
0
  6
Continuous
 62
     7
370
    15
100
AcDbLine
 10
44.170143808
 20
73.7012416352
 30
0.0
 11
40.4200579773
 21
73.7012416352
 31
0.0
  0
LINE
  5
EA
330
1F
100
AcDbEntity
  8
0
  6
Continuous
 62
     7
370
    15
100
AcDbLine
 10
40.4200579773
 20
515.2012497414
 30
0.0
 11
44.170143808
 21
515.2012497414
 31
0.0
  0
LINE
  5
EB
330
1F
100
AcDbEntity
  8
0
  6
Continuous
 62
     7
370
    15
100
AcDbLine
 10
44.7701241623
 20
513.701239251
 30
0.0
 11
44.7701241623
 21
67.4012392987
 31
0.0
  0
LINE
  5
EC
330
1F
100
AcDbEntity
  8
0
  6
Continuous
 62
     7
370
    15
100
AcDbLine
 10
44.7701241623
 20
513.701239251
 30
0.0
 11
44.7701241623
 21
515.1512414445
 31
0.0
  0
LINE
  5
ED
330
1F
100
AcDbEntity
  8
0
  6
Continuous
 62
     7
370
    15
100
AcDbLine
 10
44.7701241623
 20
65.9512371053
 30
0.0
 11
44.7701241623
 21
67.4012392987
 31
0.0
  0
LINE
  5
EE
330
1F
100
AcDbEntity
  8
0
  6
Continuous
 62
     7
370
    15
100
AcDbLine
 10
60.8700539719
 20
515.1512414445
 30
0.0
 11
44.7701241623
 21
515.1512414445
 31
0.0
  0
LINE
  5
EF
330
1F
100
AcDbEntity
  8
0
  6
Continuous
 62
     7
370
    15
100
AcDbLine
 10
60.8700539719
 20
515.9512549867
 30
0.0
 11
44.7701241623
 21
515.9512549867
 31
0.0
  0
LINE
  5
F0
330
1F
100
AcDbEntity
  8
0
  6
Continuous
 62
     7
370
    15
100
AcDbLine
 10
44.7701241623
 20
515.9512549867
 30
0.0
 11
44.7701241623
 21
515.1512414445
 31
0.0
  0
LINE
  5
F1
330
1F
100
AcDbEntity
  8
0
  6
Continuous
 62
     7
370
    15
100
AcDbLine
 10
44.7701241623
 20
65.1512235631
 30
0.0
 11
60.8700539719
 21
65.1512235631
 31
0.0
  0
LINE
  5
F2
330
1F
100
AcDbEntity
  8
0
  6
Continuous
 62
     7
370
    15
100
AcDbLine
 10
44.7701241623
 20
65.9512371053
 30
0.0
 11
60.8700539719
 21
65.9512371053
 31
0.0
  0
LINE
  5
F3
330
1F
100
AcDbEntity
  8
0
  6
Continuous
 62
     7
370
    15
100
AcDbLine
 10
44.7701241623
 20
65.1512235631
 30
0.0
 11
44.7701241623
 21
65.9512371053
 31
0.0
  0
CIRCLE
  5
F4
330
1F
100
AcDbEntity
  8
0
  6
Continuous
 62
     7
370
    15
100
AcDbCircle
 10
157.670103289
 20
290.5512332941
 30
0.0
 40
10.30000000000004
  0
CIRCLE
  5
F5
330
1F
100
AcDbEntity
  8
0
  6
Continuous
 62
     7
370
    15
100
AcDbCircle
 10
157.670103289
 20
290.5512332941
 30
0.0
 40
10.99999999999999
  0
LINE
  5
F6
330
1F
100
AcDbEntity
  8
0
  6
Continuous
 62
     7
370
    15
100
AcDbLine
 10
783.6701001774
 20
36.4162266482
 30
0.0
 11
783.6701001774
 21
109.4212323655
 31
0.0
  0
LINE
  5
F7
330
1F
100
AcDbEntity
  8
0
  6
Continuous
 62
     7
370
    15
100
AcDbLine
 10
782.0701028954
 20
110.9212428559
 30
0.0
 11
783.6701001774
 21
110.9212428559
 31
0.0
  0
LINE
  5
F8
330
1F
100
AcDbEntity
  8
0
  6
Continuous
 62
     7
370
    15
100
AcDbLine
 10
783.6701001774
 20
110.9212428559
 30
0.0
 11
783.6701001774
 21
109.4212323655
 31
0.0
  0
SPLINE
  5
F9
330
1F
100
AcDbEntity
  8
0
  6
Continuous
 62
     7
370
    15
100
AcDbSpline
210
0.0
220
0.0
230
1.0
 70
     8
 71
     3
 72
    12
 73
     8
 74
     0
 42
0.00000001
 43
0.00000001
 40
0.0
 40
0.0
 40
0.0
 40
0.0
 40
0.2198150212411607
 40
0.4396334672348052
 40
0.6594689337189125
 40
0.8793008011535888
 40
1.0
 40
1.0
 40
1.0
 40
1.0
 10
-50.92274883878956
 20
527.0512491692436
 30
0.0
 10
-50.86466493196862
 20
527.0245938984526
 30
0.0
 10
-50.74849621336974
 20
526.9712829415771
 30
0.0
 10
-50.57404461182791
 20
526.5560604499422
 30
0.0
 10
-50.39966387551375
 20
525.9475875849622
 30
0.0
 10
-50.25146950234549
 20
525.3045917699426
 30
0.0
 10
-50.16170451620705
 20
524.8960354718706
 30
0.0
 10
-50.12988785398731
 20
524.7512251366509
 30
0.0
  0
SPLINE
  5
FA
330
1F
100
AcDbEntity
  8
0
  6
Continuous
 62
     7
370
    15
100
AcDbSpline
210
0.0
220
0.0
230
1.0
 70
     8
 71
     3
 72
    12
 73
     8
 74
     0
 42
0.00000001
 43
0.00000001
 40
0.0
 40
0.0
 40
0.0
 40
0.0
 40
0.2265694964974542
 40
0.4531735687074834
 40
0.6797807130636935
 40
0.906396987884249
 40
1.0
 40
1.0
 40
1.0
 40
1.0
 10
-50.92274883878956
 20
526.2512356270684
 30
0.0
 10
-50.8628761769252
 20
526.2327600687429
 30
0.0
 10
-50.74312171630901
 20
526.1958061326235
 30
0.0
 10
-50.56330212922933
 20
525.9085545264277
 30
0.0
 10
-50.38364950673247
 20
525.490106086878
 30
0.0
 10
-50.2387255920933
 20
525.0748565081853
 30
0.0
 10
-50.15450600564786
 20
524.824427743809
 30
0.0
 10
-50.12988785398731
 20
524.7512251366509
 30
0.0
  0
LINE
  5
FB
330
1F
100
AcDbEntity
  8
0
  6
Continuous
 62
     7
370
    15
100
AcDbLine
 10
-50.9227488388
 20
527.0512491692
 30
0.0
 11
-50.9227488388
 21
526.2512356271
 31
0.0
  0
SPLINE
  5
FC
330
1F
100
AcDbEntity
  8
0
  6
Continuous
 62
     7
370
    15
100
AcDbSpline
210
0.0
220
0.0
230
1.0
 70
     8
 71
     3
 72
    12
 73
     8
 74
     0
 42
0.00000001
 43
0.00000001
 40
0.0
 40
0.0
 40
0.0
 40
0.0
 40
0.2198237193785861
 40
0.4396333487912393
 40
0.6594798409075954
 40
0.8792881261017468
 40
1.0
 40
1.0
 40
1.0
 40
1.0
 10
-52.42991188658031
 20
56.95832672013168
 30
0.0
 10
-52.40322722613011
 20
57.01644800958883
 30
0.0
 10
-52.34985961562777
 20
57.13268686312273
 30
0.0
 10
-51.93474325474878
 20
57.30711014564965
 30
0.0
 10
-51.32619115924398
 20
57.48136792824493
 30
0.0
 10
-50.68328779926223
 20
57.6297909921023
 30
0.0
 10
-50.27472155943569
 20
57.71946022925761
 30
0.0
 10
-50.12988785398753
 20
57.7512473095787
 30
0.0
  0
LINE
  5
FD
330
1F
100
AcDbEntity
  8
0
  6
Continuous
 62
     7
370
    15
100
AcDbLine
 10
-52.4299118866
 20
525.5441457261
 30
0.0
 11
-52.4299118866
 21
56.9583267201
 31
0.0
  0
SPLINE
  5
FE
330
1F
100
AcDbEntity
  8
0
  6
Continuous
 62
     7
370
    15
100
AcDbSpline
210
0.0
220
0.0
230
1.0
 70
     8
 71
     3
 72
    11
 73
     7
 74
     0
 42
0.00000001
 43
0.00000001
 40
0.0
 40
0.0
 40
0.0
 40
0.0
 40
0.2499890993962926
 40
0.4999958882416343
 40
0.7499798453965235
 40
1.0
 40
1.0
 40
1.0
 40
1.0
 10
-50.12988785398753
 20
524.7512251366509
 30
0.0
 10
-50.43124771819762
 20
524.8173154141487
 30
0.0
 10
-51.03398877110754
 20
524.9495006457503
 30
0.0
 10
-51.7943315513143
 20
525.1476200834984
 30
0.0
 10
-52.32615209435343
 20
525.3459247998015
 30
0.0
 10
-52.39532361996346
 20
525.4780688951726
 30
0.0
 10
-52.42991188658009
 20
525.5441457260979
 30
0.0
  0
LINE
  5
FF
330
1F
100
AcDbEntity
  8
0
  6
Continuous
 62
     7
370
    15
100
AcDbLine
 10
-52.4299118866
 20
525.5441457261
 30
0.0
 11
-51.6298983444
 21
525.5441457261
 31
0.0
  0
LINE
  5
100
330
1F
100
AcDbEntity
  8
0
  6
Continuous
 62
     7
370
    15
100
AcDbLine
 10
52.8701569687
 20
517.051258706
 30
0.0
 11
52.470090593
 21
517.051258706
 31
0.0
  0
LINE
  5
101
330
1F
100
AcDbEntity
  8
0
  6
Continuous
 62
     7
370
    15
100
AcDbLine
 10
52.470090593
 20
59.1512412061
 30
0.0
 11
52.470090593
 21
65.1512235631
 31
0.0
  0
ARC
  5
102
330
1F
100
AcDbEntity
  8
0
  6
Continuous
 62
     7
370
    15
100
AcDbCircle
 10
51.470103289
 20
59.1512332941
 30
0.0
 40
1.000000000000114
100
AcDbArc
 50
270.0
 51
0.0
  0
LINE
  5
103
330
1F
100
AcDbEntity
  8
0
  6
Continuous
 62
     7
370
    15
100
AcDbLine
 10
49.3700530182
 20
58.1512242783
 30
0.0
 11
51.4700438629
 21
58.1512242783
 31
0.0
  0
LINE
  5
104
330
1F
100
AcDbEntity
  8
0
  6
Continuous
 62
     7
370
    15
100
AcDbLine
 10
49.3700530182
 20
57.7512473096
 30
0.0
 11
49.3700530182
 21
58.1512242783
 31
0.0
  0
LINE
  5
105
330
1F
100
AcDbEntity
  8
0
  6
Continuous
 62
     7
370
    15
100
AcDbLine
 10
49.3700530182
 20
524.3512183656
 30
0.0
 11
49.3700530182
 21
524.7512251367
 31
0.0
  0
LINE
  5
106
330
1F
100
AcDbEntity
  8
0
  6
Continuous
 62
     7
370
    15
100
AcDbLine
 10
51.4700438629
 20
524.3512183656
 30
0.0
 11
49.3700530182
 21
524.3512183656
 31
0.0
  0
ARC
  5
107
330
1F
100
AcDbEntity
  8
0
  6
Continuous
 62
     7
370
    15
100
AcDbCircle
 10
51.470103289
 20
523.3512332941
 30
0.0
 40
1.000000000000114
100
AcDbArc
 50
0.0
 51
90.0
  0
LINE
  5
108
330
1F
100
AcDbEntity
  8
0
  6
Continuous
 62
     7
370
    15
100
AcDbLine
 10
52.470090593
 20
517.051258706
 30
0.0
 11
52.470090593
 21
523.3512312402
 31
0.0
  0
LINE
  5
109
330
1F
100
AcDbEntity
  8
0
  6
Continuous
 62
     7
370
    15
100
AcDbLine
 10
-50.9227488388
 20
527.0512491692
 30
0.0
 11
49.3700530182
 21
527.0512491692
 31
0.0
  0
LINE
  5
10A
330
1F
100
AcDbEntity
  8
0
  6
Continuous
 62
     7
370
    15
100
AcDbLine
 10
49.3700530182
 20
524.7512251367
 30
0.0
 11
49.3700530182
 21
527.0512491692
 31
0.0
  0
SPLINE
  5
10B
330
1F
100
AcDbEntity
  8
0
  6
Continuous
 62
     7
370
    15
100
AcDbSpline
210
0.0
220
0.0
230
1.0
 70
     8
 71
     3
 72
    11
 73
     7
 74
     0
 42
0.00000001
 43
0.00000001
 40
0.0
 40
0.0
 40
0.0
 40
0.0
 40
0.2500041966764106
 40
0.5000008875962348
 40
0.7499888123577627
 40
0.9999999999999999
 40
0.9999999999999999
 40
0.9999999999999999
 40
0.9999999999999999
 10
-50.12988785398731
 20
57.75124730957864
 30
0.0
 10
-50.19596999026943
 20
57.44986188796142
 30
0.0
 10
-50.32813227888089
 20
56.84710009307742
 30
0.0
 10
-50.52636424115953
 20
56.08681262580495
 30
0.0
 10
-50.72466640773943
 20
55.5549432097956
 30
0.0
 10
-50.85671931381519
 20
55.48579766027417
 30
0.0
 10
-50.92274883878956
 20
55.45122327698587
 30
0.0
  0
LINE
  5
10C
330
1F
100
AcDbEntity
  8
0
  6
Continuous
 62
     7
370
    15
100
AcDbLine
 10
-50.9227488388
 20
55.451223277
 30
0.0
 11
-50.9227488388
 21
56.2512368192
 31
0.0
  0
SPLINE
  5
10D
330
1F
100
AcDbEntity
  8
0
  6
Continuous
 62
     7
370
    15
100
AcDbSpline
210
0.0
220
0.0
230
1.0
 70
     8
 71
     3
 72
    11
 73
     7
 74
     0
 42
0.00000001
 43
0.00000001
 40
0.0
 40
0.0
 40
0.0
 40
0.0
 40
0.250013335796935
 40
0.4999915417259029
 40
0.750026762720246
 40
1.0
 40
1.0
 40
1.0
 40
1.0
 10
-50.12988785398731
 20
57.75124730957864
 30
0.0
 10
-50.19596638993185
 20
57.55468519921969
 30
0.0
 10
-50.3281141769949
 20
57.16158859783233
 30
0.0
 10
-50.5264029234187
 20
56.66570841664842
 30
0.0
 10
-50.7246216639059
 20
56.31890134592749
 30
0.0
 10
-50.85671190536534
 20
56.27378979732723
 30
0.0
 10
-50.92274883878956
 20
56.25123681916116
 30
0.0
  0
LINE
  5
10E
330
1F
100
AcDbEntity
  8
0
  6
Continuous
 62
     7
370
    15
100
AcDbLine
 10
49.3700530182
 20
55.451223277
 30
0.0
 11
49.3700530182
 21
57.7512473096
 31
0.0
  0
LINE
  5
10F
330
1F
100
AcDbEntity
  8
0
  6
Continuous
 62
     7
370
    15
100
AcDbLine
 10
-50.9227488388
 20
55.451223277
 30
0.0
 11
49.3700530182
 21
55.451223277
 31
0.0
  0
SPLINE
  5
110
330
1F
100
AcDbEntity
  8
0
  6
Continuous
 62
     7
370
    15
100
AcDbSpline
210
0.0
220
0.0
230
1.0
 70
     8
 71
     3
 72
    12
 73
     8
 74
     0
 42
0.00000001
 43
0.00000001
 40
0.0
 40
0.0
 40
0.0
 40
0.0
 40
0.2265802117899533
 40
0.4531795665071508
 40
0.6797997206896041
 40
0.9063896576981755
 40
1.0
 40
1.0
 40
1.0
 40
1.0
 10
-51.62989834440479
 20
56.95832672013162
 30
0.0
 10
-51.61142393054475
 20
57.0182385199266
 30
0.0
 10
-51.57447354198941
 20
57.13806718124376
 30
0.0
 10
-51.28721821428672
 20
57.31783264730533
 30
0.0
 10
-50.86872655949826
 20
57.4974517896889
 30
0.0
 10
-50.4534822966145
 20
57.64232040437967
 30
0.0
 10
-50.20308990574551
 20
57.72660636430322
 30
0.0
 10
-50.12988785398753
 20
57.7512473095787
 30
0.0
  0
LINE
  5
111
330
1F
100
AcDbEntity
  8
0
  6
Continuous
 62
     7
370
    15
100
AcDbLine
 10
-52.4299118866
 20
56.9583267201
 30
0.0
 11
-51.6298983444
 21
56.9583267201
 31
0.0
  0
LINE
  5
112
330
1F
100
AcDbEntity
  8
0
  6
Continuous
 62
     7
370
    15
100
AcDbLine
 10
53.6700513016
 20
517.051258706
 30
0.0
 11
52.8701569687
 21
517.051258706
 31
0.0
  0
LINE
  5
113
330
1F
100
AcDbEntity
  8
0
  6
Continuous
 62
     7
370
    15
100
AcDbLine
 10
51.2701298844
 20
55.5512398709
 30
0.0
 11
51.2701298844
 21
45.0512260426
 31
0.0
  0
LINE
  5
114
330
1F
100
AcDbEntity
  8
0
  6
Continuous
 62
     7
370
    15
100
AcDbLine
 10
51.2701298844
 20
45.0512260426
 30
0.0
 11
50.0700499664
 21
45.0512260426
 31
0.0
  0
LINE
  5
115
330
1F
100
AcDbEntity
  8
0
  6
Continuous
 62
     7
370
    15
100
AcDbLine
 10
50.0700499664
 20
55.5512398709
 30
0.0
 11
50.0700499664
 21
45.0512260426
 31
0.0
  0
ARC
  5
116
330
1F
100
AcDbEntity
  8
0
  6
Continuous
 62
     7
370
    15
100
AcDbCircle
 10
48.570103289
 20
526.9512332941
 30
0.0
 40
2.699999999999932
100
AcDbArc
 50
287.2352852571
 51
0.0
  0
ARC
  5
117
330
1F
100
AcDbEntity
  8
0
  6
Continuous
 62
     7
370
    15
100
AcDbCircle
 10
48.570103289
 20
526.9512332941
 30
0.0
 40
1.500000000000057
100
AcDbArc
 50
302.2309526355
 51
0.0
  0
LINE
  5
118
330
1F
100
AcDbEntity
  8
0
  6
Continuous
 62
     7
370
    15
100
AcDbLine
 10
50.0700499664
 20
537.4512464036
 30
0.0
 11
50.0700499664
 21
526.9512325753
 31
0.0
  0
LINE
  5
119
330
1F
100
AcDbEntity
  8
0
  6
Continuous
 62
     7
370
    15
100
AcDbLine
 10
51.2701298844
 20
537.4512464036
 30
0.0
 11
50.0700499664
 21
537.4512464036
 31
0.0
  0
LINE
  5
11A
330
1F
100
AcDbEntity
  8
0
  6
Continuous
 62
     7
370
    15
100
AcDbLine
 10
51.2701298844
 20
537.4512464036
 30
0.0
 11
51.2701298844
 21
526.9512325753
 31
0.0
  0
ARC
  5
11B
330
1F
100
AcDbEntity
  8
0
  6
Continuous
 62
     7
370
    15
100
AcDbCircle
 10
48.570103289
 20
55.5512332941
 30
0.0
 40
1.499999999999979
100
AcDbArc
 50
360.0
 51
57.7690473645
  0
ARC
  5
11C
330
1F
100
AcDbEntity
  8
0
  6
Continuous
 62
     7
370
    15
100
AcDbCircle
 10
48.570103289
 20
55.5512332941
 30
0.0
 40
2.699999999999971
100
AcDbArc
 50
0.0
 51
72.7647147429
  0
LINE
  5
11D
330
1F
100
AcDbEntity
  8
0
  6
Continuous
 62
     7
370
    15
100
AcDbLine
 10
53.8201357971
 20
538.2512599458
 30
0.0
 11
60.8700539719
 21
538.2512599458
 31
0.0
  0
LINE
  5
11E
330
1F
100
AcDbEntity
  8
0
  6
Continuous
 62
     7
370
    15
100
AcDbLine
 10
53.8201357971
 20
537.4512464036
 30
0.0
 11
60.8700539719
 21
537.4512464036
 31
0.0
  0
LINE
  5
11F
330
1F
100
AcDbEntity
  8
0
  6
Continuous
 62
     7
370
    15
100
AcDbLine
 10
52.0701434265
 20
524.1512447823
 30
0.0
 11
52.0701434265
 21
535.701254033
 31
0.0
  0
LINE
  5
120
330
1F
100
AcDbEntity
  8
0
  6
Continuous
 62
     7
370
    15
100
AcDbLine
 10
51.2701298844
 20
524.3512183656
 30
0.0
 11
51.2701298844
 21
535.701254033
 31
0.0
  0
ARC
  5
121
330
1F
100
AcDbEntity
  8
0
  6
Continuous
 62
     7
370
    15
100
AcDbCircle
 10
53.820103289
 20
46.8012332941
 30
0.0
 40
2.550000000000054
100
AcDbArc
 50
180.0
 51
270.0
  0
ARC
  5
122
330
1F
100
AcDbEntity
  8
0
  6
Continuous
 62
     7
370
    15
100
AcDbCircle
 10
53.820103289
 20
46.8012332941
 30
0.0
 40
1.749999999999915
100
AcDbArc
 50
180.0
 51
270.0
  0
ARC
  5
123
330
1F
100
AcDbEntity
  8
0
  6
Continuous
 62
     7
370
    15
100
AcDbCircle
 10
53.820103289
 20
535.7012332941
 30
0.0
 40
2.549999999999834
100
AcDbArc
 50
90.0
 51
180.0
  0
ARC
  5
124
330
1F
100
AcDbEntity
  8
0
  6
Continuous
 62
     7
370
    15
100
AcDbCircle
 10
53.820103289
 20
535.7012332941
 30
0.0
 40
1.749999999999922
100
AcDbArc
 50
90.0
 51
180.0
  0
LINE
  5
125
330
1F
100
AcDbEntity
  8
0
  6
Continuous
 62
     7
370
    15
100
AcDbLine
 10
51.2701298844
 20
46.8012184132
 30
0.0
 11
51.2701298844
 21
58.1512242783
 31
0.0
  0
LINE
  5
126
330
1F
100
AcDbEntity
  8
0
  6
Continuous
 62
     7
370
    15
100
AcDbLine
 10
52.0701434265
 20
46.8012184132
 30
0.0
 11
52.0701434265
 21
58.3512276639
 31
0.0
  0
LINE
  5
127
330
1F
100
AcDbEntity
  8
0
  6
Continuous
 62
     7
370
    15
100
AcDbLine
 10
60.8700539719
 20
45.0512260426
 30
0.0
 11
53.8201357971
 21
45.0512260426
 31
0.0
  0
LINE
  5
128
330
1F
100
AcDbEntity
  8
0
  6
Continuous
 62
     7
370
    15
100
AcDbLine
 10
60.8700539719
 20
44.2512423028
 30
0.0
 11
53.8201357971
 21
44.2512423028
 31
0.0
  0
SPLINE
  5
129
330
1F
100
AcDbEntity
  8
0
  6
Continuous
 62
     7
370
    15
100
AcDbSpline
210
0.0
220
0.0
230
1.0
 70
     8
 71
     3
 72
     9
 73
     5
 74
     0
 42
0.00000001
 43
0.00000001
 40
0.0
 40
0.0
 40
0.0
 40
0.0
 40
0.4800509273449314
 40
1.0
 40
1.0
 40
1.0
 40
1.0
 10
62.17015048371999
 20
-7.594606257544767
 30
0.0
 10
62.15032664551168
 20
-7.554676988121289
 30
0.0
 10
62.10903136395052
 20
-7.471499835138228
 30
0.0
 10
62.06767567480664
 20
-7.359860243428107
 30
0.0
 10
62.04617282258739
 20
-7.301813341246854
 30
0.0
  0
LINE
  5
12A
330
1F
100
AcDbEntity
  8
0
  6
Continuous
 62
     7
370
    15
100
AcDbLine
 10
62.0701338898
 20
590.0608092774
 30
0.0
 11
62.1701504837
 21
590.2939230431
 31
0.0
  0
LINE
  5
12B
330
1F
100
AcDbEntity
  8
0
  6
Continuous
 62
     7
370
    15
100
AcDbLine
 10
60.8700539719
 20
62.7012342442
 30
0.0
 11
53.6700513016
 21
62.7012342442
 31
0.0
  0
LINE
  5
12C
330
1F
100
AcDbEntity
  8
0
  6
Continuous
 62
     7
370
    15
100
AcDbLine
 10
53.6700513016
 20
62.7012342442
 30
0.0
 11
53.6700513016
 21
65.1512235631
 31
0.0
  0
LINE
  5
12D
330
1F
100
AcDbEntity
  8
0
  6
Continuous
 62
     7
370
    15
100
AcDbLine
 10
53.6700513016
 20
515.9512549867
 30
0.0
 11
53.6700513016
 21
519.801238202
 31
0.0
  0
LINE
  5
12E
330
1F
100
AcDbEntity
  8
0
  6
Continuous
 62
     7
370
    15
100
AcDbLine
 10
60.8700539719
 20
519.801238202
 30
0.0
 11
53.6700513016
 21
519.801238202
 31
0.0
  0
LINE
  5
12F
330
1F
100
AcDbEntity
  8
0
  6
Continuous
 62
     7
370
    15
100
AcDbLine
 10
63.3201625
 20
592.2512203683
 30
0.0
 11
759.6701111447
 21
592.2512203683
 31
0.0
  0
LINE
  5
130
330
1F
100
AcDbEntity
  8
0
  6
Continuous
 62
     7
370
    15
100
AcDbLine
 10
759.6701111447
 20
592.2512203683
 30
0.0
 11
759.6701111447
 21
591.0512596597
 31
0.0
  0
LINE
  5
131
330
1F
100
AcDbEntity
  8
0
  6
Continuous
 62
     7
370
    15
100
AcDbLine
 10
63.3201625
 20
589.8012310494
 30
0.0
 11
63.3201625
 21
592.2512203683
 31
0.0
  0
LINE
  5
132
330
1F
100
AcDbEntity
  8
0
  6
Continuous
 62
     7
370
    15
100
AcDbLine
 10
759.6701111447
 20
-7.2987735044
 30
0.0
 11
759.6701111447
 21
-8.5487723123
 31
0.0
  0
LINE
  5
133
330
1F
100
AcDbEntity
  8
0
  6
Continuous
 62
     7
370
    15
100
AcDbLine
 10
759.6701111447
 20
591.0512596597
 30
0.0
 11
759.6701111447
 21
589.8012310494
 31
0.0
  0
LINE
  5
134
330
1F
100
AcDbEntity
  8
0
  6
Continuous
 62
     7
370
    15
100
AcDbLine
 10
782.0701028954
 20
591.0512596597
 30
0.0
 11
759.6701111447
 21
591.0512596597
 31
0.0
  0
LINE
  5
135
330
1F
100
AcDbEntity
  8
0
  6
Continuous
 62
     7
370
    15
100
AcDbLine
 10
782.0701028954
 20
591.0512596597
 30
0.0
 11
782.0701028954
 21
-8.5487723123
 31
0.0
  0
LINE
  5
136
330
1F
100
AcDbEntity
  8
0
  6
Continuous
 62
     7
370
    15
100
AcDbLine
 10
782.0701028954
 20
-8.5487723123
 30
0.0
 11
759.6701111447
 21
-8.5487723123
 31
0.0
  0
LINE
  5
137
330
1F
100
AcDbEntity
  8
0
  6
Continuous
 62
     7
370
    15
100
AcDbLine
 10
63.3201625
 20
-7.2987735044
 30
0.0
 11
60.8700539719
 21
-7.2987735044
 31
0.0
  0
LINE
  5
138
330
1F
100
AcDbEntity
  8
0
  6
Continuous
 62
     7
370
    15
100
AcDbLine
 10
60.8700539719
 20
589.8012310494
 30
0.0
 11
60.8700539719
 21
-7.2987735044
 31
0.0
  0
LINE
  5
139
330
1F
100
AcDbEntity
  8
0
  6
Continuous
 62
     7
370
    15
100
AcDbLine
 10
63.3201625
 20
589.8012310494
 30
0.0
 11
60.8700539719
 21
589.8012310494
 31
0.0
  0
CIRCLE
  5
13A
330
1F
100
AcDbEntity
  8
0
  6
Continuous
 62
     7
370
    15
100
AcDbCircle
 10
157.870103289
 20
291.2512332941
 30
0.0
 40
15.00000000000003
  0
LINE
  5
13B
330
1F
100
AcDbEntity
  8
0
  6
Continuous
 62
     7
370
    15
100
AcDbLine
 10
759.6701111447
 20
-8.5487723123
 30
0.0
 11
759.6701111447
 21
-9.7487628232
 31
0.0
  0
LINE
  5
13C
330
1F
100
AcDbEntity
  8
0
  6
Continuous
 62
     7
370
    15
100
AcDbLine
 10
759.6701111447
 20
-9.7487628232
 30
0.0
 11
63.3201625
 21
-9.7487628232
 31
0.0
  0
LINE
  5
13D
330
1F
100
AcDbEntity
  8
0
  6
Continuous
 62
     7
370
    15
100
AcDbLine
 10
63.3201625
 20
-9.7487628232
 30
0.0
 11
63.3201625
 21
-7.2987735044
 31
0.0
  0
LINE
  5
13E
330
1F
100
AcDbEntity
  8
0
  6
Continuous
 62
     7
370
    15
100
AcDbLine
 10
60.8700539719
 20
591.0512596597
 30
0.0
 11
60.8700539719
 21
589.8012310494
 31
0.0
  0
LINE
  5
13F
330
1F
100
AcDbEntity
  8
0
  6
Continuous
 62
     7
370
    15
100
AcDbLine
 10
60.8700539719
 20
591.0512596597
 30
0.0
 11
62.0701338898
 21
591.0512596597
 31
0.0
  0
LINE
  5
140
330
1F
100
AcDbEntity
  8
0
  6
Continuous
 62
     7
370
    15
100
AcDbLine
 10
62.0701338898
 20
591.0512596597
 30
0.0
 11
62.0701338898
 21
589.8012310494
 31
0.0
  0
LINE
  5
141
330
1F
100
AcDbEntity
  8
0
  6
Continuous
 62
     7
370
    15
100
AcDbLine
 10
62.0701338898
 20
-8.5487723123
 30
0.0
 11
60.8700539719
 21
-8.5487723123
 31
0.0
  0
LINE
  5
142
330
1F
100
AcDbEntity
  8
0
  6
Continuous
 62
     7
370
    15
100
AcDbLine
 10
60.8700539719
 20
-7.2987735044
 30
0.0
 11
60.8700539719
 21
-8.5487723123
 31
0.0
  0
LINE
  5
143
330
1F
100
AcDbEntity
  8
0
  6
Continuous
 62
     7
370
    15
100
AcDbLine
 10
62.0701338898
 20
-7.2987735044
 30
0.0
 11
62.0701338898
 21
-8.5487723123
 31
0.0
  0
LINE
  5
144
330
1F
100
AcDbEntity
  8
0
  6
Continuous
 62
     7
370
    15
100
AcDbLine
 10
766.824635471
 20
-9.7487628232
 30
0.0
 11
766.824635471
 21
-8.5487723123
 31
0.0
  0
LINE
  5
145
330
1F
100
AcDbEntity
  8
0
  6
Continuous
 62
     7
370
    15
100
AcDbLine
 10
766.824635471
 20
-9.7487628232
 30
0.0
 11
759.6701111447
 21
-9.7487628232
 31
0.0
  0
LINE
  5
146
330
1F
100
AcDbEntity
  8
0
  6
Continuous
 62
     7
370
    15
100
AcDbLine
 10
62.1701504837
 20
592.2512203683
 30
0.0
 11
62.1701504837
 21
591.0512596597
 31
0.0
  0
LINE
  5
147
330
1F
100
AcDbEntity
  8
0
  6
Continuous
 62
     7
370
    15
100
AcDbLine
 10
62.1701504837
 20
591.0512596597
 30
0.0
 11
63.3201625
 21
591.0512596597
 31
0.0
  0
LINE
  5
148
330
1F
100
AcDbEntity
  8
0
  6
Continuous
 62
     7
370
    15
100
AcDbLine
 10
62.1701504837
 20
592.2512203683
 30
0.0
 11
63.3201625
 21
592.2512203683
 31
0.0
  0
LINE
  5
149
330
1F
100
AcDbEntity
  8
0
  6
Continuous
 62
     7
370
    15
100
AcDbLine
 10
62.1701504837
 20
-9.7487628232
 30
0.0
 11
62.1701504837
 21
-8.5487723123
 31
0.0
  0
LINE
  5
14A
330
1F
100
AcDbEntity
  8
0
  6
Continuous
 62
     7
370
    15
100
AcDbLine
 10
63.3201625
 20
-9.7487628232
 30
0.0
 11
62.1701504837
 21
-9.7487628232
 31
0.0
  0
LINE
  5
14B
330
1F
100
AcDbEntity
  8
0
  6
Continuous
 62
     7
370
    15
100
AcDbLine
 10
63.3201625
 20
-8.5487723123
 30
0.0
 11
62.1701504837
 21
-8.5487723123
 31
0.0
  0
LINE
  5
14C
330
1F
100
AcDbEntity
  8
0
  6
Continuous
 62
     7
370
    15
100
AcDbLine
 10
780.7700957905
 20
-9.7487628232
 30
0.0
 11
780.7700957905
 21
-8.5487723123
 31
0.0
  0
LINE
  5
14D
330
1F
100
AcDbEntity
  8
0
  6
Continuous
 62
     7
370
    15
100
AcDbLine
 10
780.7700957905
 20
-9.7487628232
 30
0.0
 11
766.824635471
 21
-9.7487628232
 31
0.0
  0
LINE
  5
14E
330
1F
100
AcDbEntity
  8
0
  6
Continuous
 62
     7
370
    15
100
AcDbLine
 10
766.824635471
 20
592.2512203683
 30
0.0
 11
766.824635471
 21
591.0512596597
 31
0.0
  0
LINE
  5
14F
330
1F
100
AcDbEntity
  8
0
  6
Continuous
 62
     7
370
    15
100
AcDbLine
 10
780.7700957905
 20
592.2512203683
 30
0.0
 11
780.7700957905
 21
591.0512596597
 31
0.0
  0
LINE
  5
150
330
1F
100
AcDbEntity
  8
0
  6
Continuous
 62
     7
370
    15
100
AcDbLine
 10
766.824635471
 20
592.2512203683
 30
0.0
 11
780.7700957905
 21
592.2512203683
 31
0.0
  0
LINE
  5
151
330
1F
100
AcDbEntity
  8
0
  6
Continuous
 62
     7
370
    15
100
AcDbLine
 10
759.6701111447
 20
592.2512203683
 30
0.0
 11
766.824635471
 21
592.2512203683
 31
0.0
  0
LINE
  5
152
330
1F
100
AcDbEntity
  8
0
  6
Continuous
 62
     7
370
    15
100
AcDbLine
 10
62.1701504837
 20
-7.2987735044
 30
0.0
 11
62.1701504837
 21
-8.5487723123
 31
0.0
  0
LINE
  5
153
330
1F
100
AcDbEntity
  8
0
  6
Continuous
 62
     7
370
    15
100
AcDbLine
 10
62.1701504837
 20
591.0512596597
 30
0.0
 11
62.1701504837
 21
589.8012310494
 31
0.0
  0
LINE
  5
154
330
1F
100
AcDbEntity
  8
0
  6
Continuous
 62
     7
370
    15
100
AcDbLine
 10
784.8700906883
 20
55.68353238
 30
0.0
 11
784.8700906883
 21
36.3795697917
 31
0.0
  0
SPLINE
  5
155
330
1F
100
AcDbEntity
  8
0
  6
Continuous
 62
     7
370
    15
100
AcDbSpline
210
0.0
220
0.0
230
1.0
 70
     8
 71
     3
 72
    11
 73
     7
 74
     0
 42
0.00000001
 43
0.00000001
 40
0.0
 40
0.0
 40
0.0
 40
0.0
 40
0.2747441688026981
 40
0.5487278211785
 40
0.8335541178850949
 40
1.0
 40
1.0
 40
1.0
 40
1.0
 10
784.8700906883406
 20
55.68353237999796
 30
0.0
 10
784.851938535403
 20
55.93581606328918
 30
0.0
 10
784.8156844763099
 20
56.43968508607705
 30
0.0
 10
784.5161449367679
 20
57.15313984724568
 30
0.0
 10
784.130456562647
 20
57.71349102466694
 30
0.0
 10
783.7941445100419
 20
57.96556488589499
 30
0.0
 10
783.6701001774001
 20
58.05853905571817
 30
0.0
  0
LINE
  5
156
330
1F
100
AcDbEntity
  8
0
  6
Continuous
 62
     7
370
    15
100
AcDbLine
 10
830.9095527779
 20
32.6134056081
 30
0.0
 11
830.5644120823
 21
32.2462409963
 31
0.0
  0
LINE
  5
157
330
1F
100
AcDbEntity
  8
0
  6
Continuous
 62
     7
370
    15
100
AcDbLine
 10
837.2954156052
 20
147.8867322434
 30
0.0
 11
837.2620072018
 21
147.857108735
 31
0.0
  0
LINE
  5
158
330
1F
100
AcDbEntity
  8
0
  6
Continuous
 62
     7
370
    15
100
AcDbLine
 10
816.3701023709
 20
20.0634539355
 30
0.0
 11
816.3701023709
 21
16.4880246152
 31
0.0
  0
LINE
  5
159
330
1F
100
AcDbEntity
  8
0
  6
Continuous
 62
     7
370
    15
100
AcDbLine
 10
816.3701023709
 20
16.4880246152
 30
0.0
 11
816.3701023709
 21
5.0712317456
 31
0.0
  0
SPLINE
  5
15A
330
1F
100
AcDbEntity
  8
0
  6
Continuous
 62
     7
370
    15
100
AcDbSpline
210
0.0
220
0.0
230
1.0
 70
    24
 71
     3
 72
    10
 73
     6
 74
     0
 42
0.00000001
 43
0.00000001
 40
0.0
 40
0.0
 40
0.0
 40
0.0
 40
0.3517610709968698
 40
0.6775463450647303
 40
1.0
 40
1.0
 40
1.0
 40
1.0
 10
816.370102370851
 20
21.6899901856315
 30
0.0
 10
816.370102370851
 20
21.50277807362627
 30
0.0
 10
816.370102370851
 20
21.14217852836825
 30
0.0
 10
816.370102370851
 20
20.59656486576661
 30
0.0
 10
816.370102370851
 20
20.2405476630157
 30
0.0
 10
816.370102370851
 20
20.06345393551706
 30
0.0
  0
LINE
  5
15B
330
1F
100
AcDbEntity
  8
0
  6
Continuous
 62
     7
370
    15
100
AcDbLine
 10
816.3701023709
 20
28.0998885859
 30
0.0
 11
816.3701023709
 21
21.6899901856
 31
0.0
  0
LINE
  5
15C
330
1F
100
AcDbEntity
  8
0
  6
Continuous
 62
     7
370
    15
100
AcDbLine
 10
837.2528280865
 20
148.2389658917
 30
0.0
 11
837.2807528626
 21
148.3641654481
 31
0.0
  0
LINE
  5
15D
330
1F
100
AcDbEntity
  8
0
  6
Continuous
 62
     7
370
    15
100
AcDbLine
 10
843.8451017986
 20
165.9517973889
 30
0.0
 11
843.7578405987
 21
165.9510225285
 31
0.0
  0
SPLINE
  5
15E
330
1F
100
AcDbEntity
  8
0
  6
Continuous
 62
     7
370
    15
100
AcDbSpline
210
0.0
220
0.0
230
1.0
 70
     8
 71
     3
 72
    12
 73
     8
 74
     0
 42
0.00000001
 43
0.00000001
 40
0.0
 40
0.0
 40
0.0
 40
0.0
 40
0.1539426091442322
 40
0.2888210282260846
 40
0.5006759249911329
 40
0.7580550485647277
 40
1.0
 40
1.0
 40
1.0
 40
1.0
 10
843.8451017986464
 20
165.9517973889243
 30
0.0
 10
844.211940980401
 20
165.928435715779
 30
0.0
 10
844.9001901289438
 20
165.8846054695823
 30
0.0
 10
846.0392272846938
 20
165.4985061886143
 30
0.0
 10
847.264816609066
 20
164.7214452150206
 30
0.0
 10
848.3742184427141
 20
163.3650275901108
 30
0.0
 10
848.6568162787344
 20
162.1986987945779
 30
0.0
 10
848.7937476288008
 20
161.6335600842368
 30
0.0
  0
LINE
  5
15F
330
1F
100
AcDbEntity
  8
0
  6
Continuous
 62
     7
370
    15
100
AcDbLine
 10
843.7578405987
 20
165.9510225285
 30
0.0
 11
842.7910532604
 21
165.9341544141
 31
0.0
  0
LINE
  5
160
330
1F
100
AcDbEntity
  8
0
  6
Continuous
 62
     7
370
    15
100
AcDbLine
 10
842.7910532604
 20
165.9341544141
 30
0.0
 11
842.690619434
 21
165.932396077
 31
0.0
  0
SPLINE
  5
161
330
1F
100
AcDbEntity
  8
0
  6
Continuous
 62
     7
370
    15
100
AcDbSpline
210
0.0
220
0.0
230
1.0
 70
     8
 71
     3
 72
     9
 73
     5
 74
     0
 42
0.00000001
 43
0.00000001
 40
0.0
 40
0.0
 40
0.0
 40
0.0
 40
0.3138204053659093
 40
1.0
 40
1.0
 40
1.0
 40
1.0
 10
840.7720651279616
 20
165.5263990391624
 30
0.0
 10
840.9620117552687
 20
165.6082183260264
 30
0.0
 10
841.5672835096202
 20
165.868938424098
 30
0.0
 10
842.2334853353015
 20
165.9065724063582
 30
0.0
 10
842.6906194339919
 20
165.93239607705
 30
0.0
  0
LINE
  5
162
330
1F
100
AcDbEntity
  8
0
  6
Continuous
 62
     7
370
    15
100
AcDbLine
 10
790.8524300705
 20
36.1967772473
 30
0.0
 11
782.3853816639
 21
36.455491208
 31
0.0
  0
LINE
  5
163
330
1F
100
AcDbEntity
  8
0
  6
Continuous
 62
     7
370
    15
100
AcDbLine
 10
782.3853816639
 20
-3.5130291949
 30
0.0
 11
790.8524300705
 21
-3.2543003331
 31
0.0
  0
SPLINE
  5
164
330
1F
100
AcDbEntity
  8
0
  6
Continuous
 62
     7
370
    15
100
AcDbSpline
210
0.0
220
0.0
230
1.0
 70
     8
 71
     3
 72
    11
 73
     7
 74
     0
 42
0.00000001
 43
0.00000001
 40
0.0
 40
0.0
 40
0.0
 40
0.0
 40
0.2953937413039928
 40
0.5907137682540046
 40
0.8861220906219326
 40
1.0
 40
1.0
 40
1.0
 40
1.0
 10
782.3853816639113
 20
36.45549120797037
 30
0.0
 10
782.3519317073823
 20
36.4546307315185
 30
0.0
 10
782.2850401416304
 20
36.45290999334328
 30
0.0
 10
782.1886628158336
 20
36.42415867801863
 30
0.0
 10
782.1155077000876
 20
36.39059375025827
 30
0.0
 10
782.0799862261094
 20
36.36098570672225
 30
0.0
 10
782.0701028953719
 20
36.35274770153879
 30
0.0
  0
SPLINE
  5
165
330
1F
100
AcDbEntity
  8
0
  6
Continuous
 62
     7
370
    15
100
AcDbSpline
210
0.0
220
0.0
230
1.0
 70
     8
 71
     3
 72
    11
 73
     7
 74
     0
 42
0.00000001
 43
0.00000001
 40
0.0
 40
0.0
 40
0.0
 40
0.0
 40
0.2953937413039928
 40
0.5907137682540046
 40
0.8861220906219326
 40
1.0
 40
1.0
 40
1.0
 40
1.0
 10
782.3853816639113
 20
-3.513029194937956
 30
0.0
 10
782.3519317073823
 20
-3.512168718486031
 30
0.0
 10
782.2850401416304
 20
-3.510447980310916
 30
0.0
 10
782.1886628158336
 20
-3.481696664986156
 30
0.0
 10
782.1155077000876
 20
-3.448131737226079
 30
0.0
 10
782.0799862261094
 20
-3.418523693689945
 30
0.0
 10
782.0701028953719
 20
-3.410285688506376
 30
0.0
  0
LINE
  5
166
330
1F
100
AcDbEntity
  8
0
  6
Continuous
 62
     7
370
    15
100
AcDbLine
 10
790.8524300705
 20
-3.2543003331
 30
0.0
 11
791.3160349976
 21
-3.24014423
 31
0.0
  0
LINE
  5
167
330
1F
100
AcDbEntity
  8
0
  6
Continuous
 62
     7
370
    15
100
AcDbLine
 10
791.3160349976
 20
36.182606243
 30
0.0
 11
790.8524300705
 21
36.1967772473
 31
0.0
  0
SPLINE
  5
168
330
1F
100
AcDbEntity
  8
0
  6
Continuous
 62
     7
370
    15
100
AcDbSpline
210
0.0
220
0.0
230
1.0
 70
    24
 71
     3
 72
    14
 73
    10
 74
     0
 42
0.00000001
 43
0.00000001
 40
0.0
 40
0.0
 40
0.0
 40
0.0
 40
0.136480927935183
 40
0.2729578103918985
 40
0.4144327364821137
 40
0.5559055272250801
 40
0.6956192159114591
 40
0.835331954634049
 40
0.9999999999999999
 40
0.9999999999999999
 40
0.9999999999999999
 40
0.9999999999999999
 10
816.370102370851
 20
27.84865500820993
 30
0.0
 10
816.370102370851
 20
26.91225565008854
 30
0.0
 10
816.370102370851
 20
25.03948468998357
 30
0.0
 10
816.370102370851
 20
21.88068276911043
 30
0.0
 10
816.370102370851
 20
18.55002570891456
 30
0.0
 10
816.3701023708512
 20
15.12658511987958
 30
0.0
 10
816.3701023708509
 20
11.7654261075314
 30
0.0
 10
816.370102370851
 20
8.332119024706374
 30
0.0
 10
816.370102370851
 20
6.230674804321101
 30
0.0
 10
816.370102370851
 20
5.093807004822482
 30
0.0
  0
LINE
  5
169
330
1F
100
AcDbEntity
  8
0
  6
Continuous
 62
     7
370
    15
100
AcDbLine
 10
791.8079223286
 20
36.1675709714
 30
0.0
 11
791.3160349976
 21
36.182606243
 31
0.0
  0
LINE
  5
16A
330
1F
100
AcDbEntity
  8
0
  6
Continuous
 62
     7
370
    15
100
AcDbLine
 10
791.3160349976
 20
-3.24014423
 30
0.0
 11
791.8079223286
 21
-3.2251089584
 31
0.0
  0
LINE
  5
16B
330
1F
100
AcDbEntity
  8
0
  6
Continuous
 62
     7
370
    15
100
AcDbLine
 10
793.4293772827
 20
36.1180395116
 30
0.0
 11
791.8079223286
 21
36.1675709714
 31
0.0
  0
LINE
  5
16C
330
1F
100
AcDbEntity
  8
0
  6
Continuous
 62
     7
370
    15
100
AcDbLine
 10
791.8079223286
 20
-3.2251089584
 30
0.0
 11
793.4293772827
 21
-3.1755625974
 31
0.0
  0
SPLINE
  5
16D
330
1F
100
AcDbEntity
  8
0
  6
Continuous
 62
     7
370
    15
100
AcDbSpline
210
0.0
220
0.0
230
1.0
 70
    24
 71
     3
 72
    10
 73
     6
 74
     0
 42
0.00000001
 43
0.00000001
 40
0.0
 40
0.0
 40
0.0
 40
0.0
 40
0.4999608645009833
 40
0.7498994911846995
 40
1.0
 40
1.0
 40
1.0
 40
1.0
 10
816.370102370851
 20
28.07652356518625
 30
0.0
 10
816.3701023708511
 20
28.03904290041387
 30
0.0
 10
816.3701023708511
 20
27.98282503730137
 30
0.0
 10
816.3701023708509
 20
27.90646549648801
 30
0.0
 10
816.370102370851
 20
27.86795912862844
 30
0.0
 10
816.370102370851
 20
27.84869971169351
 30
0.0
  0
SPLINE
  5
16E
330
1F
100
AcDbEntity
  8
0
  6
Continuous
 62
     7
370
    15
100
AcDbSpline
210
0.0
220
0.0
230
1.0
 70
    24
 71
     3
 72
    10
 73
     6
 74
     0
 42
0.00000001
 43
0.00000001
 40
0.0
 40
0.0
 40
0.0
 40
0.0
 40
0.2500032154314876
 40
0.6249102574839754
 40
1.0
 40
1.0
 40
1.0
 40
1.0
 10
816.370102370851
 20
5.093777202500094
 30
0.0
 10
816.370102370851
 20
5.074526914054356
 30
0.0
 10
816.370102370851
 20
5.026408722100307
 30
0.0
 10
816.370102370851
 20
4.950242132688299
 30
0.0
 10
816.370102370851
 20
4.894044239426965
 30
0.0
 10
816.370102370851
 20
4.865938447846164
 30
0.0
  0
LINE
  5
16F
330
1F
100
AcDbEntity
  8
0
  6
Continuous
 62
     7
370
    15
100
AcDbLine
 10
816.3701023709
 20
31.6868216027
 30
0.0
 11
816.3701023709
 21
28.0764788617
 31
0.0
  0
LINE
  5
170
330
1F
100
AcDbEntity
  8
0
  6
Continuous
 62
     7
370
    15
100
AcDbLine
 10
816.3701023709
 20
4.8659831513
 30
0.0
 11
816.3701023709
 21
1.2556553115
 31
0.0
  0
SPLINE
  5
171
330
1F
100
AcDbEntity
  8
0
  6
Continuous
 62
     7
370
    15
100
AcDbSpline
210
0.0
220
0.0
230
1.0
 70
    24
 71
     3
 72
    10
 73
     6
 74
     0
 42
0.00000001
 43
0.00000001
 40
0.0
 40
0.0
 40
0.0
 40
0.0
 40
0.4996535591267179
 40
0.7498792913520473
 40
1.0
 40
1.0
 40
1.0
 40
1.0
 10
816.370102370851
 20
1.255655311478365
 30
0.0
 10
816.370102370851
 20
1.220067906170186
 30
0.0
 10
816.370102370851
 20
1.166658383139729
 30
0.0
 10
816.370102370851
 20
1.097882099623415
 30
0.0
 10
816.370102370851
 20
1.064153256296996
 30
0.0
 10
816.370102370851
 20
1.047292374504794
 30
0.0
  0
SPLINE
  5
172
330
1F
100
AcDbEntity
  8
0
  6
Continuous
 62
     7
370
    15
100
AcDbSpline
210
0.0
220
0.0
230
1.0
 70
    24
 71
     3
 72
    10
 73
     6
 74
     0
 42
0.00000001
 43
0.00000001
 40
0.0
 40
0.0
 40
0.0
 40
0.0
 40
0.2500471919921993
 40
0.6250667558502778
 40
1.0
 40
1.0
 40
1.0
 40
1.0
 10
816.370102370851
 20
31.89516963852762
 30
0.0
 10
816.370102370851
 20
31.87832575295957
 30
0.0
 10
816.370102370851
 20
31.83621948964149
 30
0.0
 10
816.370102370851
 20
31.7670871939833
 30
0.0
 10
816.370102370851
 20
31.71356481221849
 30
0.0
 10
816.370102370851
 20
31.68680670155405
 30
0.0
  0
SPLINE
  5
173
330
1F
100
AcDbEntity
  8
0
  6
Continuous
 62
     7
370
    15
100
AcDbSpline
210
0.0
220
0.0
230
1.0
 70
     8
 71
     3
 72
    10
 73
     6
 74
     0
 42
0.00000001
 43
0.00000001
 40
0.0
 40
0.0
 40
0.0
 40
0.0
 40
0.3367400838074756
 40
0.6736824254846477
 40
1.0
 40
1.0
 40
1.0
 40
1.0
 10
797.8701021324324
 20
35.98234953774332
 30
0.0
 10
797.3182674484581
 20
35.99920457143796
 30
0.0
 10
796.2142666293015
 20
36.03292476254988
 30
0.0
 10
794.6968840395177
 20
36.07931616851812
 30
0.0
 10
793.8473432676494
 20
36.10527031714361
 30
0.0
 10
793.4293772827315
 20
36.11803951157449
 30
0.0
  0
SPLINE
  5
174
330
1F
100
AcDbEntity
  8
0
  6
Continuous
 62
     7
370
    15
100
AcDbSpline
210
0.0
220
0.0
230
1.0
 70
     8
 71
     3
 72
    10
 73
     6
 74
     0
 42
0.00000001
 43
0.00000001
 40
0.0
 40
0.0
 40
0.0
 40
0.0
 40
0.3262982930865118
 40
0.6632084931493114
 40
0.9999999999999999
 40
0.9999999999999999
 40
0.9999999999999999
 40
0.9999999999999999
 10
793.4293772827315
 20
-3.175562597380888
 30
0.0
 10
793.8473323792259
 20
-3.162790027185114
 30
0.0
 10
794.6968353512707
 20
-3.136829495939131
 30
0.0
 10
796.2141020668874
 20
-3.090488220140741
 30
0.0
 10
797.3181669488778
 20
-3.056742507299426
 30
0.0
 10
797.8701021324324
 20
-3.039872623549711
 30
0.0
  0
SPLINE
  5
175
330
1F
100
AcDbEntity
  8
0
  6
Continuous
 62
     7
370
    15
100
AcDbSpline
210
0.0
220
0.0
230
1.0
 70
    24
 71
     3
 72
    11
 73
     7
 74
     0
 42
0.00000001
 43
0.00000001
 40
0.0
 40
0.0
 40
0.0
 40
0.0
 40
0.1115018528639367
 40
0.3917956691445608
 40
0.6720882735641082
 40
1.0
 40
1.0
 40
1.0
 40
1.0
 10
816.370102370851
 20
35.34657659424661
 30
0.0
 10
816.370102370851
 20
35.36467046222008
 30
0.0
 10
816.3701023708509
 20
35.42824876991629
 30
0.0
 10
816.370102370851
 20
34.92258603652726
 30
0.0
 10
816.3701023708508
 20
33.85889626818867
 30
0.0
 10
816.370102370851
 20
32.58300394343233
 30
0.0
 10
816.370102370851
 20
31.89511003388284
 30
0.0
  0
SPLINE
  5
176
330
1F
100
AcDbEntity
  8
0
  6
Continuous
 62
     7
370
    15
100
AcDbSpline
210
0.0
220
0.0
230
1.0
 70
    24
 71
     3
 72
    11
 73
     7
 74
     0
 42
0.00000001
 43
0.00000001
 40
0.0
 40
0.0
 40
0.0
 40
0.0
 40
0.2723452884304972
 40
0.5446751635998957
 40
0.8280786717928115
 40
1.0
 40
1.0
 40
1.0
 40
1.0
 10
816.370102370851
 20
1.047351979149569
 30
0.0
 10
816.370102370851
 20
0.4699573505048682
 30
0.0
 10
816.370102370851
 20
-0.6847992293910754
 30
0.0
 10
816.370102370851
 20
-1.809648791632701
 30
0.0
 10
816.370102370851
 20
-2.426480066434589
 30
0.0
 10
816.370102370851
 20
-2.410244716625209
 30
0.0
 10
816.370102370851
 20
-2.404114581214201
 30
0.0
  0
LINE
  5
177
330
1F
100
AcDbEntity
  8
0
  6
Continuous
 62
     7
370
    15
100
AcDbLine
 10
-8.7355349411
 20
547.6512104501
 30
0.0
 11
-8.7355349411
 21
532.6512247552
 31
0.0
  0
LINE
  5
178
330
1F
100
AcDbEntity
  8
0
  6
Continuous
 62
     7
370
    15
100
AcDbLine
 10
0.4587199341
 20
547.6512104501
 30
0.0
 11
-8.7355349411
 21
547.6512104501
 31
0.0
  0
LINE
  5
179
330
1F
100
AcDbEntity
  8
0
  6
Continuous
 62
     7
370
    15
100
AcDbLine
 10
0.4587199341
 20
532.6512247552
 30
0.0
 11
0.4587199341
 21
547.6512104501
 31
0.0
  0
LINE
  5
17A
330
1F
100
AcDbEntity
  8
0
  6
Continuous
 62
     7
370
    15
100
AcDbLine
 10
-8.7355349411
 20
532.6512247552
 30
0.0
 11
0.4587199341
 21
532.6512247552
 31
0.0
  0
LINE
  5
17B
330
1F
100
AcDbEntity
  8
0
  6
Continuous
 62
     7
370
    15
100
AcDbLine
 10
-27.1241639007
 20
532.6512247552
 30
0.0
 11
-27.1241639007
 21
547.6512104501
 31
0.0
  0
LINE
  5
17C
330
1F
100
AcDbEntity
  8
0
  6
Continuous
 62
     7
370
    15
100
AcDbLine
 10
-8.7355349411
 20
547.6512104501
 30
0.0
 11
-27.1241639007
 21
547.6512104501
 31
0.0
  0
LINE
  5
17D
330
1F
100
AcDbEntity
  8
0
  6
Continuous
 62
     7
370
    15
100
AcDbLine
 10
-27.1241639007
 20
532.6512247552
 30
0.0
 11
-8.7355349411
 21
532.6512247552
 31
0.0
  0
LINE
  5
17E
330
1F
100
AcDbEntity
  8
0
  6
Continuous
 62
     7
370
    15
100
AcDbLine
 10
-36.3185379852
 20
532.6512247552
 30
0.0
 11
-36.3185379852
 21
547.6512104501
 31
0.0
  0
LINE
  5
17F
330
1F
100
AcDbEntity
  8
0
  6
Continuous
 62
     7
370
    15
100
AcDbLine
 10
-36.3185379852
 20
532.6512247552
 30
0.0
 11
-27.1241639007
 21
532.6512247552
 31
0.0
  0
LINE
  5
180
330
1F
100
AcDbEntity
  8
0
  6
Continuous
 62
     7
370
    15
100
AcDbLine
 10
-27.1241639007
 20
547.6512104501
 30
0.0
 11
-36.3185379852
 21
547.6512104501
 31
0.0
  0
SPLINE
  5
181
330
1F
100
AcDbEntity
  8
0
  6
Continuous
 62
     7
370
    15
100
AcDbSpline
210
0.0
220
0.0
230
1.0
 70
    24
 71
     3
 72
    23
 73
    19
 74
     0
 42
0.00000001
 43
0.00000001
 40
0.0
 40
0.0
 40
0.0
 40
0.0
 40
0.0582582748380029
 40
0.1200047966822416
 40
0.1843214957429754
 40
0.249999889819475
 40
0.3156803910659294
 40
0.379994679636356
 40
0.4417412014805947
 40
0.4999997243327484
 40
0.558258247184902
 40
0.6200047690291407
 40
0.6843214680898745
 40
0.7499998621663742
 40
0.8156782562428737
 40
0.8799949553036075
 40
0.9417414771478463
 40
0.9999999999999999
 40
0.9999999999999999
 40
0.9999999999999999
 40
0.9999999999999999
 10
-31.92984799040111
 20
549.6512443055046
 30
0.0
 10
-31.88446096926212
 20
549.6512443055049
 30
0.0
 10
-31.79096935353986
 20
549.6512443055046
 30
0.0
 10
-31.012017039731
 20
549.6512443055044
 30
0.0
 10
-29.72043948311786
 20
549.6512443055049
 30
0.0
 10
-27.89943867202926
 20
549.6512443055044
 30
0.0
 10
-25.66104565330551
 20
549.6512443055046
 30
0.0
 10
-23.1519152792381
 20
549.6512443055044
 30
0.0
 10
-20.5427041096784
 20
549.6512443055046
 30
0.0
 10
-17.92990994459242
 20
549.6512443055044
 30
0.0
 10
-15.31711015524628
 20
549.6512443055046
 30
0.0
 10
-12.70788300550096
 20
549.6512443055044
 30
0.0
 10
-10.19868204434782
 20
549.6512443055049
 30
0.0
 10
-7.960377350755055
 20
549.6512443055044
 30
0.0
 10
-6.139376488753401
 20
549.6512443055046
 30
0.0
 10
-4.847792471514678
 20
549.6512443055046
 30
0.0
 10
-4.06888135530048
 20
549.6512443055044
 30
0.0
 10
-3.975287571324815
 20
549.6512443055046
 30
0.0
 10
-3.929850851424055
 20
549.6512443055046
 30
0.0
  0
LINE
  5
182
330
1F
100
AcDbEntity
  8
0
  6
Continuous
 62
     7
370
    15
100
AcDbLine
 10
-17.9299090256
 20
549.3012458314
 30
0.0
 11
-3.6798689712
 21
549.3012458314
 31
0.0
  0
LINE
  5
183
330
1F
100
AcDbEntity
  8
0
  6
Continuous
 62
     7
370
    15
100
AcDbLine
 10
-32.1799490799
 20
549.3012458314
 30
0.0
 11
-17.9299090256
 21
549.3012458314
 31
0.0
  0
LINE
  5
184
330
1F
100
AcDbEntity
  8
0
  6
Continuous
 62
     7
370
    15
100
AcDbLine
 10
-31.6798661102
 20
548.8512307633
 30
0.0
 11
-4.1799519409
 21
548.8512307633
 31
0.0
  0
LINE
  5
185
330
1F
100
AcDbEntity
  8
0
  6
Continuous
 62
     7
370
    15
100
AcDbLine
 10
-32.1799490799
 20
548.4012156953
 30
0.0
 11
-3.6798689712
 21
548.4012156953
 31
0.0
  0
LINE
  5
186
330
1F
100
AcDbEntity
  8
0
  6
Continuous
 62
     7
370
    15
100
AcDbLine
 10
-31.6798661102
 20
547.9512602319
 30
0.0
 11
-4.1799519409
 21
547.9512602319
 31
0.0
  0
LINE
  5
187
330
1F
100
AcDbEntity
  8
0
  6
Continuous
 62
     7
370
    15
100
AcDbLine
 10
-29.9799416412
 20
557.7512175073
 30
0.0
 11
-29.9799416412
 21
557.6762348641
 31
0.0
  0
LINE
  5
188
330
1F
100
AcDbEntity
  8
0
  6
Continuous
 62
     7
370
    15
100
AcDbLine
 10
-24.3891451706
 20
557.6762348641
 30
0.0
 11
-29.9799416412
 21
557.6762348641
 31
0.0
  0
SPLINE
  5
189
330
1F
100
AcDbEntity
  8
0
  6
Continuous
 62
     7
370
    15
100
AcDbSpline
210
0.0
220
0.0
230
1.0
 70
     8
 71
     3
 72
     9
 73
     5
 74
     0
 42
0.00000001
 43
0.00000001
 40
0.0
 40
0.0
 40
0.0
 40
0.0
 40
0.4001581992368777
 40
1.0
 40
1.0
 40
1.0
 40
1.0
 10
-24.00505283964405
 20
557.4280411232842
 30
0.0
 10
-23.9539557753663
 20
557.4755798039608
 30
0.0
 10
-23.8262636166775
 20
557.5943795205916
 30
0.0
 10
-23.65829547765341
 20
557.6455441691826
 30
0.0
 10
-23.55754116667041
 20
557.6762348641289
 30
0.0
  0
SPLINE
  5
18A
330
1F
100
AcDbEntity
  8
0
  6
Continuous
 62
     7
370
    15
100
AcDbSpline
210
0.0
220
0.0
230
1.0
 70
     8
 71
     3
 72
     9
 73
     5
 74
     0
 42
0.00000001
 43
0.00000001
 40
0.0
 40
0.0
 40
0.0
 40
0.0
 40
0.0752640767215234
 40
1.0
 40
1.0
 40
1.0
 40
1.0
 10
-23.55754116667041
 20
557.6762348641289
 30
0.0
 10
-23.5422978300992
 20
557.6802729834919
 30
0.0
 10
-23.33976646008562
 20
557.7339256626846
 30
0.0
 10
-23.12905149208855
 20
557.742909671536
 30
0.0
 10
-22.93419579160938
 20
557.7512175072563
 30
0.0
  0
SPLINE
  5
18B
330
1F
100
AcDbEntity
  8
0
  6
Continuous
 62
     7
370
    15
100
AcDbSpline
210
0.0
220
0.0
230
1.0
 70
    24
 71
     3
 72
    11
 73
     7
 74
     0
 42
0.00000001
 43
0.00000001
 40
0.0
 40
0.0
 40
0.0
 40
0.0
 40
0.2473071065010498
 40
0.4999999999999999
 40
0.7526928934989502
 40
0.9999999999999999
 40
0.9999999999999999
 40
0.9999999999999999
 40
0.9999999999999999
 10
-12.92562225950489
 20
557.7512175072563
 30
0.0
 10
-13.72349761656366
 20
557.7512175072561
 30
0.0
 10
-15.33662424350801
 20
557.7512175072561
 30
0.0
 10
-17.9299090255578
 20
557.7512175072568
 30
0.0
 10
-20.52319380760559
 20
557.7512175072559
 30
0.0
 10
-22.13632043455016
 20
557.7512175072561
 30
0.0
 10
-22.93419579160938
 20
557.7512175072563
 30
0.0
  0
LINE
  5
18C
330
1F
100
AcDbEntity
  8
0
  6
Continuous
 62
     7
370
    15
100
AcDbLine
 10
-12.9256222595
 20
557.7512175073
 30
0.0
 11
-12.3022768844
 21
557.6762348641
 31
0.0
  0
SPLINE
  5
18D
330
1F
100
AcDbEntity
  8
0
  6
Continuous
 62
     7
370
    15
100
AcDbSpline
210
0.0
220
0.0
230
1.0
 70
     8
 71
     3
 72
    10
 73
     6
 74
     0
 42
0.00000001
 43
0.00000001
 40
0.0
 40
0.0
 40
0.0
 40
0.0
 40
0.0452370346481364
 40
0.5778117666708259
 40
1.0
 40
1.0
 40
1.0
 40
1.0
 10
-12.30227688444385
 20
557.6762348641289
 30
0.0
 10
-12.2947685243715
 20
557.6741213552532
 30
0.0
 10
-12.19886438671147
 20
557.6471255473525
 30
0.0
 10
-12.03134017375218
 20
557.5899094802305
 30
0.0
 10
-11.90890501791197
 20
557.4776717243661
 30
0.0
 10
-11.85476521147044
 20
557.4280411232842
 30
0.0
  0
LINE
  5
18E
330
1F
100
AcDbEntity
  8
0
  6
Continuous
 62
     7
370
    15
100
AcDbLine
 10
-6.3798401703
 20
557.6762348641
 30
0.0
 11
-11.4706728805
 21
557.6762348641
 31
0.0
  0
LINE
  5
18F
330
1F
100
AcDbEntity
  8
0
  6
Continuous
 62
     7
370
    15
100
AcDbLine
 10
-6.3798401703
 20
557.7512175073
 30
0.0
 11
-6.3798401703
 21
557.6762348641
 31
0.0
  0
SPLINE
  5
190
330
1F
100
AcDbEntity
  8
0
  6
Continuous
 62
     7
370
    15
100
AcDbSpline
210
0.0
220
0.0
230
1.0
 70
     8
 71
     3
 72
    16
 73
    12
 74
     0
 42
0.00000001
 43
0.00000001
 40
0.0
 40
0.0
 40
0.0
 40
0.0
 40
0.4634369987981173
 40
0.6590330585725218
 40
0.7683930658549369
 40
0.8431973396564897
 40
0.8946985082695782
 40
0.9455914140188065
 40
0.9671676246550688
 40
0.9889881273417375
 40
1.0
 40
1.0
 40
1.0
 40
1.0
 10
-21.83401325834544
 20
557.7512175072563
 30
0.0
 10
-21.49908784199805
 20
557.7690591130336
 30
0.0
 10
-21.02280536541201
 20
557.794430863791
 30
0.0
 10
-20.47892092144932
 20
557.909599935879
 30
0.0
 10
-20.21458476646365
 20
557.9827460821554
 30
0.0
 10
-20.05380100138643
 20
558.0393703340707
 30
0.0
 10
-19.93713603867686
 20
558.0916398772584
 30
0.0
 10
-19.85923479964535
 20
558.1378073156209
 30
0.0
 10
-19.81010462030386
 20
558.1848611952562
 30
0.0
 10
-19.7882292358651
 20
558.2194835772345
 30
0.0
 10
-19.78602253010941
 20
558.2432647453069
 30
0.0
 10
-19.78528240812549
 20
558.2512408722771
 30
0.0
  0
SPLINE
  5
191
330
1F
100
AcDbEntity
  8
0
  6
Continuous
 62
     7
370
    15
100
AcDbSpline
210
0.0
220
0.0
230
1.0
 70
     8
 71
     3
 72
    14
 73
    10
 74
     0
 42
0.00000001
 43
0.00000001
 40
0.0
 40
0.0
 40
0.0
 40
0.0
 40
0.0139372257696762
 40
0.0322137999548253
 40
0.0666358804980941
 40
0.1906271559185684
 40
0.3407293869207585
 40
0.8042188792459827
 40
1.0
 40
1.0
 40
1.0
 40
1.0
 10
-16.07453564298877
 20
558.2512408722771
 30
0.0
 10
-16.07335460076143
 20
558.2411418311417
 30
0.0
 10
-16.07062479938848
 20
558.2177994173611
 30
0.0
 10
-16.04353379910717
 20
558.1762998125607
 30
0.0
 10
-15.9451142459881
 20
558.0938504237154
 30
0.0
 10
-15.73463451785173
 20
558.0097609848242
 30
0.0
 10
-15.22494775421213
 20
557.861991259625
 30
0.0
 10
-14.64263824144441
 20
557.7683770674408
 30
0.0
 10
-14.16694917964478
 20
557.755146530252
 30
0.0
 10
-14.02568558347972
 20
557.7512175072563
 30
0.0
  0
ARC
  5
192
330
1F
100
AcDbEntity
  8
0
  6
Continuous
 62
     7
370
    15
100
AcDbCircle
 10
-17.929896711
 20
567.2512332941
 30
0.0
 40
11.54999999999943
100
AcDbArc
 50
0.0
 51
80.7559261483
  0
ARC
  5
193
330
1F
100
AcDbEntity
  8
0
  6
Continuous
 62
     7
370
    15
100
AcDbCircle
 10
-17.929896711
 20
567.2512332941
 30
0.0
 40
11.54999999999928
100
AcDbArc
 50
99.2440738517
 51
180.0
  0
LINE
  5
194
330
1F
100
AcDbEntity
  8
0
  6
Continuous
 62
     7
370
    15
100
AcDbLine
 10
-16.074535643
 20
578.6512285699
 30
0.0
 11
-19.7852824081
 21
578.6512285699
 31
0.0
  0
LINE
  5
195
330
1F
100
AcDbEntity
  8
0
  6
Continuous
 62
     7
370
    15
100
AcDbLine
 10
-11.4706728805
 20
557.6762348641
 30
0.0
 11
-12.3022768844
 21
557.6762348641
 31
0.0
  0
ARC
  5
196
330
1F
100
AcDbEntity
  8
0
  6
Continuous
 62
     7
370
    15
100
AcDbCircle
 10
-17.929896711
 20
567.2512332941
 30
0.0
 40
11.5500000074006
100
AcDbArc
 50
301.7345138683
 51
304.0034060361
  0
ARC
  5
197
330
1F
100
AcDbEntity
  8
0
  6
Continuous
 62
     7
370
    15
100
AcDbCircle
 10
-17.929896711
 20
567.2512332941
 30
0.0
 40
11.55000000739975
100
AcDbArc
 50
235.9965939639
 51
238.2654861316
  0
LINE
  5
198
330
1F
100
AcDbEntity
  8
0
  6
Continuous
 62
     7
370
    15
100
AcDbLine
 10
-23.5575411667
 20
557.6762348641
 30
0.0
 11
-24.3891451706
 21
557.6762348641
 31
0.0
  0
ARC
  5
199
330
1F
100
AcDbEntity
  8
0
  6
Continuous
 62
     7
370
    15
100
AcDbCircle
 10
-17.929896711
 20
567.2512332941
 30
0.0
 40
11.54999999999921
100
AcDbArc
 50
80.7559261483
 51
99.2440738517
  0
SPLINE
  5
19A
330
1F
100
AcDbEntity
  8
0
  6
Continuous
 62
     7
370
    15
100
AcDbSpline
210
0.0
220
0.0
230
1.0
 70
    24
 71
     3
 72
    11
 73
     7
 74
     0
 42
0.00000001
 43
0.00000001
 40
0.0
 40
0.0
 40
0.0
 40
0.0
 40
0.0120333752882006
 40
0.3548210200738496
 40
0.697514569397786
 40
1.0
 40
1.0
 40
1.0
 40
1.0
 10
-6.379840170271489
 20
558.2512408722771
 30
0.0
 10
-6.379840170271489
 20
558.2497702469358
 30
0.0
 10
-6.379840170267936
 20
558.2064067872863
 30
0.0
 10
-6.379840170273043
 20
558.1230973148239
 30
0.0
 10
-6.379840170271267
 20
558.00375053496
 30
0.0
 10
-6.379840170271267
 20
557.9477184370145
 30
0.0
 10
-6.379840170271489
 20
557.9214483727349
 30
0.0
  0
SPLINE
  5
19B
330
1F
100
AcDbEntity
  8
0
  6
Continuous
 62
     7
370
    15
100
AcDbSpline
210
0.0
220
0.0
230
1.0
 70
     8
 71
     3
 72
    12
 73
     8
 74
     0
 42
0.00000001
 43
0.00000001
 40
0.0
 40
0.0
 40
0.0
 40
0.0
 40
0.1694629918106313
 40
0.3962664141782951
 40
0.6232559253677333
 40
0.8503237328323612
 40
0.9999999999999999
 40
0.9999999999999999
 40
0.9999999999999999
 40
0.9999999999999999
 10
-29.47985867155345
 20
558.209338807
 30
0.0
 10
-29.48440163311217
 20
558.1674795084422
 30
0.0
 10
-29.49502473770571
 20
558.069597168692
 30
0.0
 10
-29.57598575869413
 20
557.9329962577089
 30
0.0
 10
-29.70225737519993
 20
557.8197766988651
 30
0.0
 10
-29.84308703534744
 20
557.7598310131791
 30
0.0
 10
-29.93608173395446
 20
557.753666571837
 30
0.0
 10
-29.97302750242481
 20
557.7512175072563
 30
0.0
  0
SPLINE
  5
19C
330
1F
100
AcDbEntity
  8
0
  6
Continuous
 62
     7
370
    15
100
AcDbSpline
210
0.0
220
0.0
230
1.0
 70
    24
 71
     3
 72
    14
 73
    10
 74
     0
 42
0.00000001
 43
0.00000001
 40
0.0
 40
0.0
 40
0.0
 40
0.0
 40
0.0139378349078243
 40
0.0322152078859854
 40
0.066657348235973
 40
0.1906421394658689
 40
0.340758810008129
 40
0.8042641921771894
 40
1.0
 40
1.0
 40
1.0
 40
1.0
 10
-19.78528240812549
 20
578.6512285698784
 30
0.0
 10
-19.78646323838573
 20
578.6512285698786
 30
0.0
 10
-19.7891925498288
 20
578.6512285698784
 30
0.0
 10
-19.81629710902233
 20
578.6512285698782
 30
0.0
 10
-19.91463817823558
 20
578.6512285698784
 30
0.0
 10
-20.12523330930605
 20
578.651228569878
 30
0.0
 10
-20.63480794828187
 20
578.6512285698789
 30
0.0
 10
-21.21715426353332
 20
578.6512285698786
 30
0.0
 10
-21.692791454752
 20
578.6512285698784
 30
0.0
 10
-21.83401325834544
 20
578.6512285698784
 30
0.0
  0
SPLINE
  5
19D
330
1F
100
AcDbEntity
  8
0
  6
Continuous
 62
     7
370
    15
100
AcDbSpline
210
0.0
220
0.0
230
1.0
 70
    24
 71
     3
 72
    16
 73
    12
 74
     0
 42
0.00000001
 43
0.00000001
 40
0.0
 40
0.0
 40
0.0
 40
0.0
 40
0.4634731773258898
 40
0.6590546994025143
 40
0.7516926689532942
 40
0.8317747918802822
 40
0.8868188618581476
 40
0.9388254543757432
 40
0.962163254446057
 40
0.9857760405985977
 40
1.0
 40
1.0
 40
1.0
 40
1.0
 10
-14.0256855834795
 20
578.6512285698784
 30
0.0
 10
-14.360631063846
 20
578.6512285698784
 30
0.0
 10
-14.83692053145402
 20
578.6512285698786
 30
0.0
 10
-15.36911171511801
 20
578.651228569878
 30
0.0
 10
-15.62561064850065
 20
578.6512285698786
 30
0.0
 10
-15.78177652952184
 20
578.6512285698782
 30
0.0
 10
-15.90577431481055
 20
578.6512285698784
 30
0.0
 10
-15.98876121382098
 20
578.651228569878
 30
0.0
 10
-16.0423663574425
 20
578.6512285698786
 30
0.0
 10
-16.06991293921567
 20
578.6512285698782
 30
0.0
 10
-16.07327263376046
 20
578.6512285698784
 30
0.0
 10
-16.07453564298877
 20
578.6512285698784
 30
0.0
  0
SPLINE
  5
19E
330
1F
100
AcDbEntity
  8
0
  6
Continuous
 62
     7
370
    15
100
AcDbSpline
210
0.0
220
0.0
230
1.0
 70
    24
 71
     3
 72
    12
 73
     8
 74
     0
 42
0.00000001
 43
0.00000001
 40
0.0
 40
0.0
 40
0.0
 40
0.0
 40
0.2882575023102933
 40
0.6405723694890645
 40
0.8171783610114256
 40
0.9938160124956716
 40
0.9999999999999999
 40
0.9999999999999999
 40
0.9999999999999999
 40
0.9999999999999999
 10
-29.47985867155345
 20
570.6863194931877
 30
0.0
 10
-29.47985867155345
 20
570.3523455742426
 30
0.0
 10
-29.47985867155345
 20
569.6101811452452
 30
0.0
 10
-29.47985867155323
 20
568.6755894725142
 30
0.0
 10
-29.47985867155323
 20
567.8734788766775
 30
0.0
 10
-29.47985867155323
 20
567.4656007741917
 30
0.0
 10
-29.479858671553
 20
567.2582576432195
 30
0.0
 10
-29.47985867155323
 20
567.2512442101372
 30
0.0
  0
SPLINE
  5
19F
330
1F
100
AcDbEntity
  8
0
  6
Continuous
 62
     7
370
    15
100
AcDbSpline
210
0.0
220
0.0
230
1.0
 70
    24
 71
     3
 72
    12
 73
     8
 74
     0
 42
0.00000001
 43
0.00000001
 40
0.0
 40
0.0
 40
0.0
 40
0.0
 40
0.0061839875043283
 40
0.1828216389885743
 40
0.3594276305109355
 40
0.7117424976897067
 40
1.0
 40
1.0
 40
1.0
 40
1.0
 10
-6.379840170271489
 20
567.2512442101372
 30
0.0
 10
-6.379840170271489
 20
567.2582576432195
 30
0.0
 10
-6.379840170270601
 20
567.4656007741901
 30
0.0
 10
-6.379840170272377
 20
567.8734788766782
 30
0.0
 10
-6.379840170270601
 20
568.6755894725135
 30
0.0
 10
-6.379840170272155
 20
569.6101811452454
 30
0.0
 10
-6.379840170271489
 20
570.3523455742423
 30
0.0
 10
-6.379840170271489
 20
570.6863194931877
 30
0.0
  0
LINE
  5
1A0
330
1F
100
AcDbEntity
  8
0
  6
Continuous
 62
     7
370
    15
100
AcDbLine
 10
-29.4798586716
 20
571.8987971772
 30
0.0
 11
-29.4798586716
 21
570.6863790978
 31
0.0
  0
LINE
  5
1A1
330
1F
100
AcDbEntity
  8
0
  6
Continuous
 62
     7
370
    15
100
AcDbLine
 10
-6.3798401703
 20
570.6863790978
 30
0.0
 11
-6.3798401703
 21
571.8987971772
 31
0.0
  0
LINE
  5
1A2
330
1F
100
AcDbEntity
  8
0
  6
Continuous
 62
     7
370
    15
100
AcDbLine
 10
-21.8340132583
 20
578.6512285699
 30
0.0
 11
-22.9341957916
 21
578.6512285699
 31
0.0
  0
LINE
  5
1A3
330
1F
100
AcDbEntity
  8
0
  6
Continuous
 62
     7
370
    15
100
AcDbLine
 10
-12.9256222595
 20
578.6512285699
 30
0.0
 11
-14.0256855835
 21
578.6512285699
 31
0.0
  0
ARC
  5
1A4
330
1F
100
AcDbEntity
  8
0
  6
Continuous
 62
     7
370
    15
100
AcDbCircle
 10
-17.929896711
 20
567.2512332941
 30
0.0
 40
12.94999999999953
100
AcDbArc
 50
119.9195542982
 51
206.8880476177
  0
ARC
  5
1A5
330
1F
100
AcDbEntity
  8
0
  6
Continuous
 62
     7
370
    15
100
AcDbCircle
 10
-17.929896711
 20
567.2512332941
 30
0.0
 40
12.94999999999941
100
AcDbArc
 50
61.679645939
 51
118.320354061
  0
ARC
  5
1A6
330
1F
100
AcDbEntity
  8
0
  6
Continuous
 62
     7
370
    15
100
AcDbCircle
 10
-17.929896711
 20
567.2512332941
 30
0.0
 40
12.94999999999948
100
AcDbArc
 50
333.1119523823
 51
60.0804457018
  0
ARC
  5
1A7
330
1F
100
AcDbEntity
  8
0
  6
Continuous
 62
     7
370
    15
100
AcDbCircle
 10
-17.929896711
 20
567.2512332941
 30
0.0
 40
12.71339134382126
100
AcDbArc
 50
24.7023726087
 51
59.4648793228
  0
ARC
  5
1A8
330
1F
100
AcDbEntity
  8
0
  6
Continuous
 62
     7
370
    15
100
AcDbCircle
 10
-17.929896711
 20
567.2512332941
 30
0.0
 40
12.71339134382039
100
AcDbArc
 50
120.5351206772
 51
155.2976273913
  0
LINE
  5
1A9
330
1F
100
AcDbEntity
  8
0
  6
Continuous
 62
     7
370
    15
100
AcDbLine
 10
-6.3798401703
 20
571.8995124329
 30
0.0
 11
-6.3798401703
 21
572.5642234315
 31
0.0
  0
LINE
  5
1AA
330
1F
100
AcDbEntity
  8
0
  6
Continuous
 62
     7
370
    15
100
AcDbLine
 10
-29.4798586716
 20
572.5642234315
 30
0.0
 11
-29.4798586716
 21
571.8994528283
 31
0.0
  0
LINE
  5
1AB
330
1F
100
AcDbEntity
  8
0
  6
Continuous
 62
     7
370
    15
100
AcDbLine
 10
-22.9341957916
 20
578.6512285699
 30
0.0
 11
-23.5575411667
 21
578.6512285699
 31
0.0
  0
SPLINE
  5
1AC
330
1F
100
AcDbEntity
  8
0
  6
Continuous
 62
     7
370
    15
100
AcDbSpline
210
0.0
220
0.0
230
1.0
 70
    24
 71
     3
 72
     9
 73
     5
 74
     0
 42
0.00000001
 43
0.00000001
 40
0.0
 40
0.0
 40
0.0
 40
0.0
 40
0.075286908204515
 40
1.0
 40
1.0
 40
1.0
 40
1.0
 10
-12.30227688444385
 20
578.6512285698784
 30
0.0
 10
-12.31752002282716
 20
578.6512285698784
 30
0.0
 10
-12.51998734081083
 20
578.6512285698789
 30
0.0
 10
-12.73073819007919
 20
578.6512285698786
 30
0.0
 10
-12.92562225950489
 20
578.6512285698784
 30
0.0
  0
LINE
  5
1AD
330
1F
100
AcDbEntity
  8
0
  6
Continuous
 62
     7
370
    15
100
AcDbLine
 10
-11.4706728805
 20
578.6512285699
 30
0.0
 11
-12.3022768844
 21
578.6512285699
 31
0.0
  0
LINE
  5
1AE
330
1F
100
AcDbEntity
  8
0
  6
Continuous
 62
     7
370
    15
100
AcDbLine
 10
-11.4706728805
 20
578.6512285699
 30
0.0
 11
-11.4706728805
 21
578.201511525
 31
0.0
  0
LINE
  5
1AF
330
1F
100
AcDbEntity
  8
0
  6
Continuous
 62
     7
370
    15
100
AcDbLine
 10
-23.5575411667
 20
578.6512285699
 30
0.0
 11
-24.3891451706
 21
578.6512285699
 31
0.0
  0
LINE
  5
1B0
330
1F
100
AcDbEntity
  8
0
  6
Continuous
 62
     7
370
    15
100
AcDbLine
 10
-24.3891451706
 20
578.201511525
 30
0.0
 11
-24.3891451706
 21
578.6512285699
 31
0.0
  0
ARC
  5
1B1
330
1F
100
AcDbEntity
  8
0
  6
Continuous
 62
     7
370
    15
100
AcDbCircle
 10
-17.929896711
 20
567.2512332941
 30
0.0
 40
14.24999999999943
100
AcDbArc
 50
324.1473858073
 51
0.0
  0
ARC
  5
1B2
330
1F
100
AcDbEntity
  8
0
  6
Continuous
 62
     7
370
    15
100
AcDbCircle
 10
-17.929896711
 20
567.2512332941
 30
0.0
 40
14.24999999999943
100
AcDbArc
 50
0.0
 51
215.8526141927
  0
LINE
  5
1B3
330
1F
100
AcDbEntity
  8
0
  6
Continuous
 62
     7
370
    15
100
AcDbLine
 10
-27.1241639007
 20
583.1762343873
 30
0.0
 11
-8.7355349411
 21
583.1762343873
 31
0.0
  0
LINE
  5
1B4
330
1F
100
AcDbEntity
  8
0
  6
Continuous
 62
     7
370
    15
100
AcDbLine
 10
-8.7355349411
 20
583.1762343873
 30
0.0
 11
0.4587199341
 21
567.2512442101
 31
0.0
  0
LINE
  5
1B5
330
1F
100
AcDbEntity
  8
0
  6
Continuous
 62
     7
370
    15
100
AcDbLine
 10
0.4587199341
 20
567.2512442101
 30
0.0
 11
-5.1164601196
 21
557.5946957101
 31
0.0
  0
LINE
  5
1B6
330
1F
100
AcDbEntity
  8
0
  6
Continuous
 62
     7
370
    15
100
AcDbLine
 10
-30.7432387222
 20
557.5946957101
 30
0.0
 11
-36.3185379852
 21
567.2512442101
 31
0.0
  0
LINE
  5
1B7
330
1F
100
AcDbEntity
  8
0
  6
Continuous
 62
     7
370
    15
100
AcDbLine
 10
-36.3185379852
 20
567.2512442101
 30
0.0
 11
-27.1241639007
 21
583.1762343873
 31
0.0
  0
LINE
  5
1B8
330
1F
100
AcDbEntity
  8
0
  6
Continuous
 62
     7
370
    15
100
AcDbLine
 10
-8.7668869842
 20
34.1651082267
 30
0.0
 11
-13.5669682373
 21
25.851228856
 31
0.0
  0
LINE
  5
1B9
330
1F
100
AcDbEntity
  8
0
  6
Continuous
 62
     7
370
    15
100
AcDbLine
 10
13.7071635376
 20
25.851228856
 30
0.0
 11
8.9070822846
 21
34.1651082267
 31
0.0
  0
LINE
  5
1BA
330
1F
100
AcDbEntity
  8
0
  6
Continuous
 62
     7
370
    15
100
AcDbLine
 10
6.8886305939
 20
14.041239046
 30
0.0
 11
13.7071635376
 21
25.851228856
 31
0.0
  0
LINE
  5
1BB
330
1F
100
AcDbEntity
  8
0
  6
Continuous
 62
     7
370
    15
100
AcDbLine
 10
-6.7484352936
 20
14.041239046
 30
0.0
 11
6.8886305939
 21
14.041239046
 31
0.0
  0
LINE
  5
1BC
330
1F
100
AcDbEntity
  8
0
  6
Continuous
 62
     7
370
    15
100
AcDbLine
 10
-13.5669682373
 20
25.851228856
 30
0.0
 11
-6.7484352936
 21
14.041239046
 31
0.0
  0
LINE
  5
1BD
330
1F
100
AcDbEntity
  8
0
  6
Continuous
 62
     7
370
    15
100
AcDbLine
 10
2.7164246689
 20
9.2412322987
 30
0.0
 11
-2.5762293686
 21
9.2412322987
 31
0.0
  0
LINE
  5
1BE
330
1F
100
AcDbEntity
  8
0
  6
Continuous
 62
     7
370
    15
100
AcDbLine
 10
-2.8068993439
 20
9.2412322987
 30
0.0
 11
-5.4533455719
 21
9.2412322987
 31
0.0
  0
LINE
  5
1BF
330
1F
100
AcDbEntity
  8
0
  6
Continuous
 62
     7
370
    15
100
AcDbLine
 10
5.5935408722
 20
9.2412322987
 30
0.0
 11
2.9472138535
 21
9.2412322987
 31
0.0
  0
LINE
  5
1C0
330
1F
100
AcDbEntity
  8
0
  6
Continuous
 62
     7
370
    15
100
AcDbLine
 10
-2.7300093521
 20
7.2412282456
 30
0.0
 11
-2.7300093521
 21
9.2412322987
 31
0.0
  0
LINE
  5
1C1
330
1F
100
AcDbEntity
  8
0
  6
Continuous
 62
     7
370
    15
100
AcDbLine
 10
-2.7300093521
 20
7.2412282456
 30
0.0
 11
-5.5302355636
 21
7.2412282456
 31
0.0
  0
LINE
  5
1C2
330
1F
100
AcDbEntity
  8
0
  6
Continuous
 62
     7
370
    15
100
AcDbLine
 10
-5.5302355636
 20
7.2412282456
 30
0.0
 11
-5.5302355636
 21
9.2412322987
 31
0.0
  0
LINE
  5
1C3
330
1F
100
AcDbEntity
  8
0
  6
Continuous
 62
     7
370
    15
100
AcDbLine
 10
-5.4533455719
 20
9.2412322987
 30
0.0
 11
-5.5302355636
 21
9.2412322987
 31
0.0
  0
LINE
  5
1C4
330
1F
100
AcDbEntity
  8
0
  6
Continuous
 62
     7
370
    15
100
AcDbLine
 10
-2.7300093521
 20
9.2412322987
 30
0.0
 11
-2.8068993439
 21
9.2412322987
 31
0.0
  0
LINE
  5
1C5
330
1F
100
AcDbEntity
  8
0
  6
Continuous
 62
     7
370
    15
100
AcDbLine
 10
2.8702046524
 20
7.2412282456
 30
0.0
 11
2.8702046524
 21
9.2412322987
 31
0.0
  0
LINE
  5
1C6
330
1F
100
AcDbEntity
  8
0
  6
Continuous
 62
     7
370
    15
100
AcDbLine
 10
2.8702046524
 20
7.2412282456
 30
0.0
 11
-2.7300093521
 21
7.2412282456
 31
0.0
  0
LINE
  5
1C7
330
1F
100
AcDbEntity
  8
0
  6
Continuous
 62
     7
370
    15
100
AcDbLine
 10
-2.5762293686
 20
9.2412322987
 30
0.0
 11
-2.7300093521
 21
9.2412322987
 31
0.0
  0
LINE
  5
1C8
330
1F
100
AcDbEntity
  8
0
  6
Continuous
 62
     7
370
    15
100
AcDbLine
 10
2.8702046524
 20
9.2412322987
 30
0.0
 11
2.7164246689
 21
9.2412322987
 31
0.0
  0
LINE
  5
1C9
330
1F
100
AcDbEntity
  8
0
  6
Continuous
 62
     7
370
    15
100
AcDbLine
 10
5.670430864
 20
7.2412282456
 30
0.0
 11
5.670430864
 21
9.2412322987
 31
0.0
  0
LINE
  5
1CA
330
1F
100
AcDbEntity
  8
0
  6
Continuous
 62
     7
370
    15
100
AcDbLine
 10
5.670430864
 20
7.2412282456
 30
0.0
 11
2.8702046524
 21
7.2412282456
 31
0.0
  0
LINE
  5
1CB
330
1F
100
AcDbEntity
  8
0
  6
Continuous
 62
     7
370
    15
100
AcDbLine
 10
2.9472138535
 20
9.2412322987
 30
0.0
 11
2.8702046524
 21
9.2412322987
 31
0.0
  0
LINE
  5
1CC
330
1F
100
AcDbEntity
  8
0
  6
Continuous
 62
     7
370
    15
100
AcDbLine
 10
5.670430864
 20
9.2412322987
 30
0.0
 11
5.5935408722
 21
9.2412322987
 31
0.0
  0
LINE
  5
1CD
330
1F
100
AcDbEntity
  8
0
  6
Continuous
 62
     7
370
    15
100
AcDbLine
 10
60.3700902115
 20
461.2512380113
 30
0.0
 11
60.3700902115
 21
465.2512461175
 31
0.0
  0
LINE
  5
1CE
330
1F
100
AcDbEntity
  8
0
  6
Continuous
 62
     7
370
    15
100
AcDbLine
 10
60.3700902115
 20
457.251229905
 30
0.0
 11
60.3700902115
 21
461.2512380113
 31
0.0
  0
LINE
  5
1CF
330
1F
100
AcDbEntity
  8
0
  6
Continuous
 62
     7
370
    15
100
AcDbLine
 10
60.3700902115
 20
121.251234435
 30
0.0
 11
60.3700902115
 21
125.2512425412
 31
0.0
  0
LINE
  5
1D0
330
1F
100
AcDbEntity
  8
0
  6
Continuous
 62
     7
370
    15
100
AcDbLine
 10
60.3700902115
 20
117.2512263287
 30
0.0
 11
60.3700902115
 21
121.251234435
 31
0.0
  0
LINE
  5
1D1
330
1F
100
AcDbEntity
  8
0
  6
PHANTOM
 62
     8
370
     0
100
AcDbLine
 10
-11.9298670639
 20
36.0442340602
 30
0.0
 11
12.0700623642
 21
36.0442340602
 31
0.0
  0
LINE
  5
1D2
330
1F
100
AcDbEntity
  8
0
  6
PHANTOM
 62
     8
370
     0
100
AcDbLine
 10
0.0700976502
 20
35.1079046954
 30
0.0
 11
-11.2810109009
 21
35.1079046954
 31
0.0
  0
LINE
  5
1D3
330
1F
100
AcDbEntity
  8
0
  6
PHANTOM
 62
     8
370
     0
100
AcDbLine
 10
11.4212062012
 20
35.1079046954
 30
0.0
 11
0.0700976502
 21
35.1079046954
 31
0.0
  0
LINE
  5
1D4
330
1F
100
AcDbEntity
  8
0
  6
PHANTOM
 62
     8
370
     0
100
AcDbLine
 10
-8.5787747253
 20
34.0945661296
 30
0.0
 11
8.7189700257
 21
34.0945661296
 31
0.0
  0
LINE
  5
1D5
330
1F
100
AcDbEntity
  8
0
  6
PHANTOM
 62
     8
370
     0
100
AcDbLine
 10
8.0701138626
 20
33.1582367648
 30
0.0
 11
-7.9299185623
 21
33.1582367648
 31
0.0
  0
LINE
  5
1D6
330
1F
100
AcDbEntity
  8
0
  6
PHANTOM
 62
     8
370
     0
100
AcDbLine
 10
-37.4299261917
 20
510.2012545098
 30
0.0
 11
-36.6299126495
 21
510.2012545098
 31
0.0
  0
LINE
  5
1D7
330
1F
100
AcDbEntity
  8
0
  6
PHANTOM
 62
     8
370
     0
100
AcDbLine
 10
-37.4299261917
 20
78.7012368668
 30
0.0
 11
-36.6299126495
 21
78.7012368668
 31
0.0
  0
LINE
  5
1D8
330
1F
100
AcDbEntity
  8
0
  6
PHANTOM
 62
     8
370
     0
100
AcDbLine
 10
-36.4624235977
 20
73.7012416352
 30
0.0
 11
-36.4624235977
 21
515.2012497414
 31
0.0
  0
LINE
  5
1D9
330
1F
100
AcDbEntity
  8
0
  6
PHANTOM
 62
     8
370
     0
100
AcDbLine
 10
-16.9907782425
 20
515.2012497414
 30
0.0
 11
-16.9907782425
 21
73.7012416352
 31
0.0
  0
LINE
  5
1DA
330
1F
100
AcDbEntity
  8
0
  6
PHANTOM
 62
     8
370
     0
100
AcDbLine
 10
38.8700987946
 20
517.3512488831
 30
0.0
 11
38.8700987946
 21
518.1512624253
 31
0.0
  0
LINE
  5
1DB
330
1F
100
AcDbEntity
  8
0
  6
PHANTOM
 62
     8
370
     0
100
AcDbLine
 10
38.8700987946
 20
71.6512292851
 30
0.0
 11
38.8700987946
 21
72.4512428273
 31
0.0
  0
LINE
  5
1DC
330
1F
100
AcDbEntity
  8
0
  6
PHANTOM
 62
     8
370
     0
100
AcDbLine
 10
-11.6299364914
 20
517.2512322892
 30
0.0
 11
-11.6299364914
 21
516.451218747
 31
0.0
  0
LINE
  5
1DD
330
1F
100
AcDbEntity
  8
0
  6
PHANTOM
 62
     8
370
     0
100
AcDbLine
 10
-11.6299364914
 20
71.6512292851
 30
0.0
 11
-11.6299364914
 21
72.4512428273
 31
0.0
  0
LINE
  5
1DE
330
1F
100
AcDbEntity
  8
0
  6
PHANTOM
 62
     8
370
     0
100
AcDbLine
 10
-15.9082386841
 20
515.2012497414
 30
0.0
 11
37.120106424
 21
515.2012497414
 31
0.0
  0
LINE
  5
1DF
330
1F
100
AcDbEntity
  8
0
  6
PHANTOM
 62
     8
370
     0
100
AcDbLine
 10
37.120106424
 20
73.7012416352
 30
0.0
 11
-15.9082386841
 21
73.7012416352
 31
0.0
  0
LINE
  5
1E0
330
1F
100
AcDbEntity
  8
0
  6
PHANTOM
 62
     8
370
     0
100
AcDbLine
 10
-15.9082386841
 20
73.7012416352
 30
0.0
 11
-15.9082386841
 21
515.2012497414
 31
0.0
  0
LINE
  5
1E1
330
1F
100
AcDbEntity
  8
0
  6
PHANTOM
 62
     8
370
     0
100
AcDbLine
 10
37.120106424
 20
73.7012416352
 30
0.0
 11
37.120106424
 21
515.2012497414
 31
0.0
  0
LINE
  5
1E2
330
1F
100
AcDbEntity
  8
0
  6
PHANTOM
 62
     8
370
     0
100
AcDbLine
 10
40.4200579773
 20
73.7012416352
 30
0.0
 11
40.4200579773
 21
515.2012497414
 31
0.0
  0
LINE
  5
1E3
330
1F
100
AcDbEntity
  8
0
  6
PHANTOM
 62
     8
370
     0
100
AcDbLine
 10
60.8700539719
 20
513.701239251
 30
0.0
 11
44.7701241623
 21
513.701239251
 31
0.0
  0
LINE
  5
1E4
330
1F
100
AcDbEntity
  8
0
  6
PHANTOM
 62
     8
370
     0
100
AcDbLine
 10
44.7701241623
 20
67.4012392987
 30
0.0
 11
60.8700539719
 21
67.4012392987
 31
0.0
  0
LINE
  5
1E5
330
1F
100
AcDbEntity
  8
0
  6
PHANTOM
 62
     8
370
     0
100
AcDbLine
 10
783.6701001774
 20
109.4212323655
 30
0.0
 11
782.0701028954
 21
109.4212323655
 31
0.0
  0
LINE
  5
1E6
330
1F
100
AcDbEntity
  8
0
  6
PHANTOM
 62
     8
370
     0
100
AcDbLine
 10
-50.129887854
 20
524.7512251367
 30
0.0
 11
-50.129887854
 21
57.7512473096
 31
0.0
  0
LINE
  5
1E7
330
1F
100
AcDbEntity
  8
0
  6
PHANTOM
 62
     8
370
     0
100
AcDbLine
 10
52.8701569687
 20
515.9512549867
 30
0.0
 11
52.8701569687
 21
517.051258706
 31
0.0
  0
LINE
  5
1E8
330
1F
100
AcDbEntity
  8
0
  6
PHANTOM
 62
     8
370
     0
100
AcDbLine
 10
-50.129887854
 20
57.7512473096
 30
0.0
 11
49.3700530182
 21
57.7512473096
 31
0.0
  0
LINE
  5
1E9
330
1F
100
AcDbEntity
  8
0
  6
PHANTOM
 62
     8
370
     0
100
AcDbLine
 10
49.3700530182
 20
524.7512251367
 30
0.0
 11
-50.129887854
 21
524.7512251367
 31
0.0
  0
LINE
  5
1EA
330
1F
100
AcDbEntity
  8
0
  6
PHANTOM
 62
     8
370
     0
100
AcDbLine
 10
50.0700499664
 20
55.5512398709
 30
0.0
 11
51.2701298844
 21
55.5512398709
 31
0.0
  0
LINE
  5
1EB
330
1F
100
AcDbEntity
  8
0
  6
PHANTOM
 62
     8
370
     0
100
AcDbLine
 10
50.0700499664
 20
526.9512325753
 30
0.0
 11
51.2701298844
 21
526.9512325753
 31
0.0
  0
LINE
  5
1EC
330
1F
100
AcDbEntity
  8
0
  6
PHANTOM
 62
     8
370
     0
100
AcDbLine
 10
53.8201357971
 20
537.4512464036
 30
0.0
 11
53.8201357971
 21
538.2512599458
 31
0.0
  0
LINE
  5
1ED
330
1F
100
AcDbEntity
  8
0
  6
PHANTOM
 62
     8
370
     0
100
AcDbLine
 10
52.0701434265
 20
535.701254033
 30
0.0
 11
51.2701298844
 21
535.701254033
 31
0.0
  0
LINE
  5
1EE
330
1F
100
AcDbEntity
  8
0
  6
PHANTOM
 62
     8
370
     0
100
AcDbLine
 10
52.0701434265
 20
46.8012184132
 30
0.0
 11
51.2701298844
 21
46.8012184132
 31
0.0
  0
LINE
  5
1EF
330
1F
100
AcDbEntity
  8
0
  6
PHANTOM
 62
     8
370
     0
100
AcDbLine
 10
53.8201357971
 20
45.0512260426
 30
0.0
 11
53.8201357971
 21
44.2512423028
 31
0.0
  0
LINE
  5
1F0
330
1F
100
AcDbEntity
  8
0
  6
PHANTOM
 62
     8
370
     0
100
AcDbLine
 10
759.6701111447
 20
589.8012310494
 30
0.0
 11
63.3201625
 21
589.8012310494
 31
0.0
  0
LINE
  5
1F1
330
1F
100
AcDbEntity
  8
0
  6
PHANTOM
 62
     8
370
     0
100
AcDbLine
 10
759.6701111447
 20
589.8012310494
 30
0.0
 11
759.6701111447
 21
-7.2987735044
 31
0.0
  0
LINE
  5
1F2
330
1F
100
AcDbEntity
  8
0
  6
PHANTOM
 62
     8
370
     0
100
AcDbLine
 10
63.3201625
 20
589.8012310494
 30
0.0
 11
63.3201625
 21
-7.2987735044
 31
0.0
  0
LINE
  5
1F3
330
1F
100
AcDbEntity
  8
0
  6
PHANTOM
 62
     8
370
     0
100
AcDbLine
 10
63.3201625
 20
-7.2987735044
 30
0.0
 11
759.6701111447
 21
-7.2987735044
 31
0.0
  0
SPLINE
  5
1F4
330
1F
100
AcDbEntity
  8
0
  6
PHANTOM
 62
     8
370
     0
100
AcDbSpline
210
0.0
220
0.0
230
1.0
 70
     8
 71
     3
 72
    11
 73
     7
 74
     0
 42
0.00000001
 43
0.00000001
 40
0.0
 40
0.0
 40
0.0
 40
0.0
 40
0.1664447517422808
 40
0.4512780587619843
 40
0.7252557964783047
 40
1.0
 40
1.0
 40
1.0
 40
1.0
 10
783.6701001774001
 20
56.18823470963358
 30
0.0
 10
783.7941451952493
 20
56.16840177721222
 30
0.0
 10
784.1304657717056
 20
56.11462917609994
 30
0.0
 10
784.5161323787993
 20
55.99597661465522
 30
0.0
 10
784.8156886280685
 20
55.84415574226031
 30
0.0
 10
784.8519397894669
 20
55.73712333575565
 30
0.0
 10
784.8700906883406
 20
55.68353237999796
 30
0.0
  0
SPLINE
  5
1F5
330
1F
100
AcDbEntity
  8
0
  6
PHANTOM
 62
     8
370
     0
100
AcDbSpline
210
0.0
220
0.0
230
1.0
 70
     8
 71
     3
 72
    17
 73
    13
 74
     0
 42
0.00000001
 43
0.00000001
 40
0.0
 40
0.0
 40
0.0
 40
0.0
 40
0.0819874183208309
 40
0.169967935447066
 40
0.2544919311510362
 40
0.342642428023385
 40
0.4258752375874824
 40
0.5079625166292903
 40
0.6329988461980132
 40
0.7567416037946411
 40
0.8791350388521884
 40
0.9999999999999999
 40
0.9999999999999999
 40
0.9999999999999999
 40
0.9999999999999999
 10
818.6987664352583
 20
21.71405556095957
 30
0.0
 10
819.1981593045465
 20
22.299383292675
 30
0.0
 10
820.2334495564943
 20
23.51282491770917
 30
0.0
 10
821.8185763405554
 20
25.22393485650681
 30
0.0
 10
823.430690294705
 20
26.90311130477452
 30
0.0
 10
824.9811063162738
 20
28.47116675581546
 30
0.0
 10
826.4619350577316
 20
29.93763549017109
 30
0.0
 10
828.0681683851543
 20
31.50477394556034
 30
0.0
 10
829.7315804626129
 20
33.10467079328549
 30
0.0
 10
831.2314990358427
 20
34.53157932338768
 30
0.0
 10
832.2698070776723
 20
35.51262446316817
 30
0.0
 10
832.4055815413432
 20
35.64051297735826
 30
0.0
 10
832.4730422149825
 20
35.70405545128702
 30
0.0
  0
SPLINE
  5
1F6
330
1F
100
AcDbEntity
  8
0
  6
PHANTOM
 62
     8
370
     0
100
AcDbSpline
210
0.0
220
0.0
230
1.0
 70
     8
 71
     3
 72
    14
 73
    10
 74
     0
 42
0.00000001
 43
0.00000001
 40
0.0
 40
0.0
 40
0.0
 40
0.0
 40
0.083677112841813
 40
0.2508572847140982
 40
0.4536281078593067
 40
0.6690229319103843
 40
0.7845496561687412
 40
0.8976952832514794
 40
1.0
 40
1.0
 40
1.0
 40
1.0
 10
830.5644120823073
 20
32.24624099625467
 30
0.0
 10
830.280579150107
 20
31.93831753603027
 30
0.0
 10
829.4296707443784
 20
31.01518765608685
 30
0.0
 10
827.7188035730675
 20
29.45369398604442
 30
0.0
 10
825.4397497182233
 20
27.42529637692409
 30
0.0
 10
823.2859225478528
 20
25.55206388358461
 30
0.0
 10
821.4616371751566
 20
23.97516514968473
 30
0.0
 10
820.0991801133497
 20
22.77703239925127
 30
0.0
 10
819.1496449339561
 20
22.05629257884767
 30
0.0
 10
818.6987664352583
 20
21.71405556095957
 30
0.0
  0
LINE
  5
1F7
330
1F
100
AcDbEntity
  8
0
  6
PHANTOM
 62
     8
370
     0
100
AcDbLine
 10
843.1112792145
 20
148.6116141309
 30
0.0
 11
843.1214716088
 21
148.6118525494
 31
0.0
  0
LINE
  5
1F8
330
1F
100
AcDbEntity
  8
0
  6
PHANTOM
 62
     8
370
     0
100
AcDbLine
 10
845.0730170857
 20
148.6176640023
 30
0.0
 11
843.1214716088
 21
148.6118525494
 31
0.0
  0
SPLINE
  5
1F9
330
1F
100
AcDbEntity
  8
0
  6
PHANTOM
 62
     8
370
     0
100
AcDbSpline
210
0.0
220
0.0
230
1.0
 70
     8
 71
     3
 72
    13
 73
     9
 74
     0
 42
0.00000001
 43
0.00000001
 40
0.0
 40
0.0
 40
0.0
 40
0.0
 40
0.167199724184546
 40
0.3338861354008683
 40
0.5000058004366476
 40
0.6661335903000573
 40
0.8328106383655853
 40
1.0
 40
1.0
 40
1.0
 40
1.0
 10
845.0730170856642
 20
148.6176640023124
 30
0.0
 10
845.7301679478304
 20
141.2425849757987
 30
0.0
 10
847.0424521804398
 20
126.5150688483155
 30
0.0
 10
847.5180191232788
 20
104.3621875178611
 30
0.0
 10
846.9130986035356
 20
82.26373090747619
 30
0.0
 10
845.0992196305695
 20
60.22950310061248
 30
0.0
 10
842.2050792528113
 20
38.25505625238767
 30
0.0
 10
839.2914856775488
 20
23.75139853926583
 30
0.0
 10
837.8324534546065
 20
16.4884418476951
 30
0.0
  0
LINE
  5
1FA
330
1F
100
AcDbEntity
  8
0
  6
PHANTOM
 62
     8
370
     0
100
AcDbLine
 10
837.8324534546
 20
16.4884418477
 30
0.0
 11
816.5648605477
 21
16.488099121
 31
0.0
  0
LINE
  5
1FB
330
1F
100
AcDbEntity
  8
0
  6
PHANTOM
 62
     8
370
     0
100
AcDbLine
 10
816.5648605477
 20
20.063588046
 30
0.0
 11
816.5648605477
 21
16.488099121
 31
0.0
  0
LINE
  5
1FC
330
1F
100
AcDbEntity
  8
0
  6
PHANTOM
 62
     8
370
     0
100
AcDbLine
 10
818.6987664353
 20
20.0688779582
 30
0.0
 11
816.5648605477
 21
20.063588046
 31
0.0
  0
SPLINE
  5
1FD
330
1F
100
AcDbEntity
  8
0
  6
PHANTOM
 62
     8
370
     0
100
AcDbSpline
210
0.0
220
0.0
230
1.0
 70
     8
 71
     3
 72
    19
 73
    15
 74
     0
 42
0.00000001
 43
0.00000001
 40
0.0
 40
0.0
 40
0.0
 40
0.0
 40
0.0617512311818733
 40
0.1255330756300693
 40
0.1872690802984485
 40
0.2516906894814118
 40
0.3299189750707762
 40
0.4131527175520261
 40
0.5022921994360767
 40
0.6259167033814699
 40
0.7499756595697565
 40
0.8354985873982487
 40
0.9199679764109523
 40
1.0
 40
1.0
 40
1.0
 40
1.0
 10
838.5957803379225
 20
35.16312839878915
 30
0.0
 10
838.4860700319307
 20
34.62969337650901
 30
0.0
 10
838.2630417315085
 20
33.54528197751366
 30
0.0
 10
837.6300766953851
 20
32.01352164589549
 30
0.0
 10
836.8104045390794
 20
30.55314216012267
 30
0.0
 10
835.7447907574622
 20
29.09824942697531
 30
0.0
 10
834.3902987295157
 20
27.63652178838966
 30
0.0
 10
832.7176160874952
 20
26.19241177133696
 30
0.0
 10
830.5873623338911
 20
24.68618757561492
 30
0.0
 10
828.0082719257964
 20
23.21523281453192
 30
0.0
 10
825.3460228050868
 20
21.97446791237956
 30
0.0
 10
822.9320926810773
 20
21.04681122121127
 30
0.0
 10
820.8412030828795
 20
20.32801762216346
 30
0.0
 10
819.3999529191659
 20
20.15369037494291
 30
0.0
 10
818.6987664352583
 20
20.06887795819162
 30
0.0
  0
SPLINE
  5
1FE
330
1F
100
AcDbEntity
  8
0
  6
PHANTOM
 62
     8
370
     0
100
AcDbSpline
210
0.0
220
0.0
230
1.0
 70
     8
 71
     3
 72
    12
 73
     8
 74
     0
 42
0.00000001
 43
0.00000001
 40
0.0
 40
0.0
 40
0.0
 40
0.0
 40
0.2000852455478877
 40
0.4002024481203689
 40
0.6002623787511987
 40
0.8002166087124558
 40
1.0
 40
1.0
 40
1.0
 40
1.0
 10
843.1112792144942
 20
148.6116141308677
 30
0.0
 10
843.584472736963
 20
141.0388109259586
 30
0.0
 10
844.5309353589727
 20
125.8919950103743
 30
0.0
 10
844.631262026979
 20
103.1145579875394
 30
0.0
 10
843.7343865517443
 20
80.36511159877018
 30
0.0
 10
841.8397492465746
 20
57.67817682248949
 30
0.0
 10
839.676795175184
 20
42.66600592106351
 30
0.0
 10
838.5957803379225
 20
35.16312839878915
 30
0.0
  0
LINE
  5
1FF
330
1F
100
AcDbEntity
  8
0
  6
PHANTOM
 62
     8
370
     0
100
AcDbLine
 10
845.0730170857
 20
148.6176640023
 30
0.0
 11
845.1602782856
 21
148.6268133153
 31
0.0
  0
SPLINE
  5
200
330
1F
100
AcDbEntity
  8
0
  6
PHANTOM
 62
     8
370
     0
100
AcDbSpline
210
0.0
220
0.0
230
1.0
 70
     8
 71
     3
 72
    11
 73
     7
 74
     0
 42
0.00000001
 43
0.00000001
 40
0.0
 40
0.0
 40
0.0
 40
0.0
 40
0.2409776930972334
 40
0.5000039690516688
 40
0.759031889222412
 40
1.0
 40
1.0
 40
1.0
 40
1.0
 10
850.121470893495
 20
148.979076765908
 30
0.0
 10
850.0170235081364
 20
148.9895370358707
 30
0.0
 10
849.8003059084072
 20
149.0112410219596
 30
0.0
 10
848.632431380383
 20
148.944861071993
 30
0.0
 10
847.0062284374935
 20
148.8128245477441
 30
0.0
 10
845.7605976474291
 20
148.6873058178842
 30
0.0
 10
845.1602782856154
 20
148.6268133152854
 30
0.0
  0
SPLINE
  5
201
330
1F
100
AcDbEntity
  8
0
  6
PHANTOM
 62
     8
370
     0
100
AcDbSpline
210
0.0
220
0.0
230
1.0
 70
     8
 71
     3
 72
    18
 73
    14
 74
     0
 42
0.00000001
 43
0.00000001
 40
0.0
 40
0.0
 40
0.0
 40
0.0
 40
0.0751664021778288
 40
0.1521745706713027
 40
0.2310243149136851
 40
0.3117158297722913
 40
0.394249116064384
 40
0.4786243157988341
 40
0.5552517609694924
 40
0.6599013869385297
 40
0.7689092501708888
 40
0.8822754874505695
 40
1.0
 40
1.0
 40
1.0
 40
1.0
 10
850.121470893495
 20
148.979076765908
 30
0.0
 10
850.4485758924205
 20
145.6309218322568
 30
0.0
 10
851.110800787237
 20
138.8525737298161
 30
0.0
 10
851.8004548750095
 20
128.5336881588618
 30
0.0
 10
852.2626100149266
 20
117.9543762897687
 30
0.0
 10
852.4554675025478
 20
107.1180226760866
 30
0.0
 10
852.3662451182627
 20
96.03219049366702
 30
0.0
 10
851.9887130060819
 20
85.13356924509752
 30
0.0
 10
851.2722943954016
 20
73.25950879272858
 30
0.0
 10
850.1179387172664
 20
60.30985231240999
 30
0.0
 10
848.3126635151048
 20
45.77541559011883
 30
0.0
 10
845.9411295819679
 20
30.72617013715256
 30
0.0
 10
843.8538428590907
 20
20.58916009620743
 30
0.0
 10
842.7905168186354
 20
15.42506518257975
 30
0.0
  0
SPLINE
  5
202
330
1F
100
AcDbEntity
  8
0
  6
PHANTOM
 62
     8
370
     0
100
AcDbSpline
210
0.0
220
0.0
230
1.0
 70
     8
 71
     3
 72
    11
 73
     7
 74
     0
 42
0.00000001
 43
0.00000001
 40
0.0
 40
0.0
 40
0.0
 40
0.0
 40
0.2796555788567152
 40
0.5592991985271298
 40
0.7796495959321673
 40
1.0
 40
1.0
 40
1.0
 40
1.0
 10
842.7905168186354
 20
15.42506518257975
 30
0.0
 10
842.6513565022424
 20
15.45328200414187
 30
0.0
 10
842.373041820506
 20
15.50971444060251
 30
0.0
 10
841.0391406098606
 20
15.79502642249037
 30
0.0
 10
839.4594840653093
 20
16.13551347457626
 30
0.0
 10
838.3747969969737
 20
16.37079905546979
 30
0.0
 10
837.8324534546065
 20
16.4884418476951
 30
0.0
  0
SPLINE
  5
203
330
1F
100
AcDbEntity
  8
0
  6
PHANTOM
 62
     8
370
     0
100
AcDbSpline
210
0.0
220
0.0
230
1.0
 70
     8
 71
     3
 72
    17
 73
    13
 74
     0
 42
0.00000001
 43
0.00000001
 40
0.0
 40
0.0
 40
0.0
 40
0.0
 40
0.0907515493649786
 40
0.1737927025057954
 40
0.2490575695912934
 40
0.3349406953425483
 40
0.4181880125528743
 40
0.498763604635616
 40
0.6249293075919352
 40
0.7491131405194635
 40
0.8747491281495687
 40
1.0
 40
1.0
 40
1.0
 40
1.0
 10
837.8324534546065
 20
16.4884418476951
 30
0.0
 10
837.6924037144075
 20
15.6014430250197
 30
0.0
 10
837.4242030830717
 20
13.90280621285628
 30
0.0
 10
837.0601933104986
 20
11.51305424492727
 30
0.0
 10
836.7223629600066
 20
9.247277541696963
 30
0.0
 10
836.4110870692803
 20
7.090277264561184
 30
0.0
 10
836.1233851657265
 20
5.045726772569925
 30
0.0
 10
835.8277007600601
 20
2.892365496040827
 30
0.0
 10
835.5494873231844
 20
0.7970264835548968
 30
0.0
 10
835.3221309193091
 20
-0.9615956742989318
 30
0.0
 10
835.179162525944
 20
-2.094996627017343
 30
0.0
 10
835.1613250545352
 20
-2.237311507215956
 30
0.0
 10
835.1524200092482
 20
-2.308359719382536
 30
0.0
  0
SPLINE
  5
204
330
1F
100
AcDbEntity
  8
0
  6
PHANTOM
 62
     8
370
     0
100
AcDbSpline
210
0.0
220
0.0
230
1.0
 70
     8
 71
     3
 72
    15
 73
    11
 74
     0
 42
0.00000001
 43
0.00000001
 40
0.0
 40
0.0
 40
0.0
 40
0.0
 40
0.1249310053700643
 40
0.2501939922584539
 40
0.3747936281203365
 40
0.5001584907713333
 40
0.6247796472267868
 40
0.7500595516258058
 40
0.8750626905383075
 40
1.0
 40
1.0
 40
1.0
 40
1.0
 10
842.7905168186354
 20
15.42506518257975
 30
0.0
 10
842.5954380877827
 20
14.51574858915028
 30
0.0
 10
842.2047622396842
 20
12.69469905814652
 30
0.0
 10
841.6707818997436
 20
10.06491989773084
 30
0.0
 10
841.1965115881862
 20
7.633553192078313
 30
0.0
 10
840.7982713976868
 20
5.503165520839515
 30
0.0
 10
840.4820616763368
 20
3.747928697426406
 30
0.0
 10
840.255919348744
 20
2.454238571311051
 30
0.0
 10
840.1136794742448
 20
1.621983096718738
 30
0.0
 10
840.0960897247886
 20
1.517915758977195
 30
0.0
 10
840.0872971664595
 20
1.465895794762362
 30
0.0
  0
LINE
  5
205
330
1F
100
AcDbEntity
  8
0
  6
PHANTOM
 62
     8
370
     0
100
AcDbLine
 10
816.5648605477
 20
16.488099121
 30
0.0
 11
816.5648605477
 21
-1.9839167367
 31
0.0
  0
SPLINE
  5
206
330
1F
100
AcDbEntity
  8
0
  6
PHANTOM
 62
     8
370
     0
100
AcDbSpline
210
0.0
220
0.0
230
1.0
 70
     8
 71
     3
 72
    12
 73
     8
 74
     0
 42
0.00000001
 43
0.00000001
 40
0.0
 40
0.0
 40
0.0
 40
0.0
 40
0.2367425772454461
 40
0.4734636784566827
 40
0.7101827218382933
 40
0.9886307476702616
 40
1.0
 40
1.0
 40
1.0
 40
1.0
 10
838.5957803379225
 20
35.16312839878915
 30
0.0
 10
837.8964606699465
 20
35.27378797006703
 30
0.0
 10
836.4978847725755
 20
35.49509707417181
 30
0.0
 10
834.6564183324527
 20
35.78381201776243
 30
0.0
 10
833.3369101373358
 20
35.98806075838529
 30
0.0
 10
832.6705588896177
 20
36.08928848012633
 30
0.0
 10
832.7975547655593
 20
36.06674019264644
 30
0.0
 10
832.8025366913008
 20
36.06585564507364
 30
0.0
  0
SPLINE
  5
207
330
1F
100
AcDbEntity
  8
0
  6
PHANTOM
 62
     8
370
     0
100
AcDbSpline
210
0.0
220
0.0
230
1.0
 70
     8
 71
     3
 72
     9
 73
     5
 74
     0
 42
0.00000001
 43
0.00000001
 40
0.0
 40
0.0
 40
0.0
 40
0.0
 40
0.5000021974417095
 40
0.9999999999999999
 40
0.9999999999999999
 40
0.9999999999999999
 40
0.9999999999999999
 10
818.6987664352583
 20
21.71405556095957
 30
0.0
 10
818.6982597942933
 20
21.44391302408721
 30
0.0
 10
818.6972465168166
 20
20.90363032482206
 30
0.0
 10
818.698259797262
 20
20.34712793181409
 30
0.0
 10
818.6987664352583
 20
20.06887795819162
 30
0.0
  0
SPLINE
  5
208
330
1F
100
AcDbEntity
  8
0
  6
PHANTOM
 62
     8
370
     0
100
AcDbSpline
210
0.0
220
0.0
230
1.0
 70
     8
 71
     3
 72
    14
 73
    10
 74
     0
 42
0.00000001
 43
0.00000001
 40
0.0
 40
0.0
 40
0.0
 40
0.0
 40
0.1545487988722324
 40
0.3095869435354531
 40
0.4641520338985292
 40
0.6182281839052038
 40
0.7725403010296961
 40
0.926297175391073
 40
1.0
 40
1.0
 40
1.0
 40
1.0
 10
843.1112792144942
 20
148.6116141308677
 30
0.0
 10
842.6565935047012
 20
148.5777831800501
 30
0.0
 10
841.7457824198447
 20
148.5100141599285
 30
0.0
 10
840.458438235141
 20
148.3912944824447
 30
0.0
 10
839.3170392910538
 20
148.267847356204
 30
0.0
 10
838.3754495181852
 20
148.1442845749851
 30
0.0
 10
837.7020872371988
 20
148.0287856917518
 30
0.0
 10
837.3300516108256
 20
147.940458780196
 30
0.0
 10
837.3038919966612
 20
147.8998806175021
 30
0.0
 10
837.2954156051802
 20
147.8867322434318
 30
0.0
  0
LINE
  5
209
330
1F
100
AcDbEntity
  8
0
  6
PHANTOM
 62
     8
370
     0
100
AcDbLine
 10
816.5648605477
 20
21.7110902299
 30
0.0
 11
816.5648605477
 21
20.063588046
 31
0.0
  0
LINE
  5
20A
330
1F
100
AcDbEntity
  8
0
  6
PHANTOM
 62
     8
370
     0
100
AcDbLine
 10
818.6987664353
 20
21.714055561
 30
0.0
 11
816.5648605477
 21
21.7110902299
 31
0.0
  0
LINE
  5
20B
330
1F
100
AcDbEntity
  8
0
  6
PHANTOM
 62
     8
370
     0
100
AcDbLine
 10
816.5648605477
 20
35.4263723124
 30
0.0
 11
816.5648605477
 21
21.7110902299
 31
0.0
  0
LINE
  5
20C
330
1F
100
AcDbEntity
  8
0
  6
PHANTOM
 62
     8
370
     0
100
AcDbLine
 10
816.5648605477
 20
16.488099121
 30
0.0
 11
816.3701023709
 21
16.4880246152
 31
0.0
  0
SPLINE
  5
20D
330
1F
100
AcDbEntity
  8
0
  6
PHANTOM
 62
     8
370
     0
100
AcDbSpline
210
0.0
220
0.0
230
1.0
 70
     8
 71
     3
 72
    10
 73
     6
 74
     0
 42
0.00000001
 43
0.00000001
 40
0.0
 40
0.0
 40
0.0
 40
0.0
 40
0.2888478304029791
 40
0.6444170050770347
 40
1.0
 40
1.0
 40
1.0
 40
1.0
 10
816.370102370851
 20
20.06345393551706
 30
0.0
 10
816.386250904241
 20
20.06347542963588
 30
0.0
 10
816.422278142213
 20
20.06352338282863
 30
0.0
 10
816.4891038225427
 20
20.06356012184912
 30
0.0
 10
816.5396079787914
 20
20.06357873780756
 30
0.0
 10
816.5648605476546
 20
20.0635880459678
 30
0.0
  0
SPLINE
  5
20E
330
1F
100
AcDbEntity
  8
0
  6
PHANTOM
 62
     8
370
     0
100
AcDbSpline
210
0.0
220
0.0
230
1.0
 70
     8
 71
     3
 72
    10
 73
     6
 74
     0
 42
0.00000001
 43
0.00000001
 40
0.0
 40
0.0
 40
0.0
 40
0.0
 40
0.4703812418877392
 40
0.9406919637729618
 40
0.9999999999999999
 40
0.9999999999999999
 40
0.9999999999999999
 40
0.9999999999999999
 10
816.5648605476546
 20
21.71109022988199
 30
0.0
 10
816.5314440903064
 20
21.71002756616397
 30
0.0
 10
816.4646161854373
 20
21.70790239804349
 30
0.0
 10
816.4016601755307
 20
21.69759376099278
 30
0.0
 10
816.3732804083271
 20
21.69075590579794
 30
0.0
 10
816.370102370851
 20
21.6899901856315
 30
0.0
  0
LINE
  5
20F
330
1F
100
AcDbEntity
  8
0
  6
PHANTOM
 62
     8
370
     0
100
AcDbLine
 10
845.0730170857
 20
148.6176640023
 30
0.0
 11
845.0730170857
 21
149.9512583245
 31
0.0
  0
LINE
  5
210
330
1F
100
AcDbEntity
  8
0
  6
PHANTOM
 62
     8
370
     0
100
AcDbLine
 10
845.1602782856
 20
149.9583214749
 30
0.0
 11
845.0730170857
 21
149.9512583245
 31
0.0
  0
SPLINE
  5
211
330
1F
100
AcDbEntity
  8
0
  6
PHANTOM
 62
     8
370
     0
100
AcDbSpline
210
0.0
220
0.0
230
1.0
 70
     8
 71
     3
 72
    11
 73
     7
 74
     0
 42
0.00000001
 43
0.00000001
 40
0.0
 40
0.0
 40
0.0
 40
0.0
 40
0.2412796651565774
 40
0.4999956942682563
 40
0.7587178084578732
 40
1.0
 40
1.0
 40
1.0
 40
1.0
 10
845.1602782856154
 20
149.9583214749229
 30
0.0
 10
845.7524436411229
 20
149.9861431333135
 30
0.0
 10
846.9795678907215
 20
150.0437970155569
 30
0.0
 10
848.5891410334947
 20
149.8588912995959
 30
0.0
 10
849.7623975455053
 20
149.4945122432577
 30
0.0
 10
850.0045956979452
 20
149.1468464501407
 30
0.0
 10
850.121470893495
 20
148.979076765908
 30
0.0
  0
SPLINE
  5
212
330
1F
100
AcDbEntity
  8
0
  6
PHANTOM
 62
     8
370
     0
100
AcDbSpline
210
0.0
220
0.0
230
1.0
 70
     8
 71
     3
 72
     9
 73
     5
 74
     0
 42
0.00000001
 43
0.00000001
 40
0.0
 40
0.0
 40
0.0
 40
0.0
 40
0.5599190591851851
 40
1.0
 40
1.0
 40
1.0
 40
1.0
 10
843.1214716087508
 20
149.9454468716514
 30
0.0
 10
843.12103275788
 20
149.7005153515956
 30
0.0
 10
843.1202489823261
 20
149.2630744107349
 30
0.0
 10
843.1210979807331
 20
148.8108624254005
 30
0.0
 10
843.1214716087508
 20
148.6118525494468
 30
0.0
  0
LINE
  5
213
330
1F
100
AcDbEntity
  8
0
  6
PHANTOM
 62
     8
370
     0
100
AcDbLine
 10
845.0730170857
 20
149.9512583245
 30
0.0
 11
843.1214716088
 21
149.9454468717
 31
0.0
  0
SPLINE
  5
214
330
1F
100
AcDbEntity
  8
0
  6
PHANTOM
 62
     8
370
     0
100
AcDbSpline
210
0.0
220
0.0
230
1.0
 70
     8
 71
     3
 72
     9
 73
     5
 74
     0
 42
0.00000001
 43
0.00000001
 40
0.0
 40
0.0
 40
0.0
 40
0.0
 40
0.4997794667504877
 40
1.0
 40
1.0
 40
1.0
 40
1.0
 10
843.0602874408888
 20
149.9449402321708
 30
0.0
 10
843.0704796006827
 20
149.9450321390804
 30
0.0
 10
843.0908729150781
 20
149.9452160340096
 30
0.0
 10
843.1112690455099
 20
149.9453699031486
 30
0.0
 10
843.1214716087508
 20
149.9454468716514
 30
0.0
  0
SPLINE
  5
215
330
1F
100
AcDbEntity
  8
0
  6
PHANTOM
 62
     8
370
     0
100
AcDbSpline
210
0.0
220
0.0
230
1.0
 70
     8
 71
     3
 72
     9
 73
     5
 74
     0
 42
0.00000001
 43
0.00000001
 40
0.0
 40
0.0
 40
0.0
 40
0.0
 40
0.5599113213723328
 40
1.0
 40
1.0
 40
1.0
 40
1.0
 10
843.1112792144942
 20
148.6116141308678
 30
0.0
 10
843.1011935179993
 20
148.8648365294464
 30
0.0
 10
843.0831804932404
 20
149.3170910006687
 30
0.0
 10
843.067283519192
 20
149.7530705627749
 30
0.0
 10
843.0602874408888
 20
149.9449402321708
 30
0.0
  0
SPLINE
  5
216
330
1F
100
AcDbEntity
  8
0
  6
PHANTOM
 62
     8
370
     0
100
AcDbSpline
210
0.0
220
0.0
230
1.0
 70
     8
 71
     3
 72
    14
 73
    10
 74
     0
 42
0.00000001
 43
0.00000001
 40
0.0
 40
0.0
 40
0.0
 40
0.0
 40
0.0685277597851736
 40
0.2231433808551274
 40
0.3783204519502473
 40
0.533259105013472
 40
0.6886854312109361
 40
0.8445912945925824
 40
1.0
 40
1.0
 40
1.0
 40
1.0
 10
837.2807528625655
 20
148.3641654480827
 30
0.0
 10
837.2872058981586
 20
148.4204380061436
 30
0.0
 10
837.308218582413
 20
148.6036754108748
 30
0.0
 10
837.6692660140943
 20
148.9043838739709
 30
0.0
 10
838.333295755904
 20
149.2418738725048
 30
0.0
 10
839.2688439473404
 20
149.5297759756645
 30
0.0
 10
840.4064635604726
 20
149.7512465560316
 30
0.0
 10
841.6925538072067
 20
149.9021162436201
 30
0.0
 10
842.6048618705256
 20
149.9306807748243
 30
0.0
 10
843.0602874408888
 20
149.9449402321708
 30
0.0
  0
LINE
  5
217
330
1F
100
AcDbEntity
  8
0
  6
PHANTOM
 62
     8
370
     0
100
AcDbLine
 10
842.7910532604
 20
162.4382227887
 30
0.0
 11
843.7578405987
 21
162.4550909032
 31
0.0
  0
LINE
  5
218
330
1F
100
AcDbEntity
  8
0
  6
PHANTOM
 62
     8
370
     0
100
AcDbLine
 10
843.7578405987
 20
162.4550909032
 30
0.0
 11
845.0730170857
 21
149.9512583245
 31
0.0
  0
LINE
  5
219
330
1F
100
AcDbEntity
  8
0
  6
PHANTOM
 62
     8
370
     0
100
AcDbLine
 10
843.1214716088
 20
149.9454468717
 30
0.0
 11
842.7910532604
 21
162.4382227887
 31
0.0
  0
LINE
  5
21A
330
1F
100
AcDbEntity
  8
0
  6
PHANTOM
 62
     8
370
     0
100
AcDbLine
 10
843.7578405987
 20
162.4550909032
 30
0.0
 11
843.8451017986
 21
162.4651640881
 31
0.0
  0
SPLINE
  5
21B
330
1F
100
AcDbEntity
  8
0
  6
PHANTOM
 62
     8
370
     0
100
AcDbSpline
210
0.0
220
0.0
230
1.0
 70
     8
 71
     3
 72
    11
 73
     7
 74
     0
 42
0.00000001
 43
0.00000001
 40
0.0
 40
0.0
 40
0.0
 40
0.0
 40
0.2411416498781879
 40
0.4999993366209011
 40
0.7588610494213017
 40
1.0
 40
1.0
 40
1.0
 40
1.0
 10
848.7937476288008
 20
161.6335600842368
 30
0.0
 10
848.682810804254
 20
161.8000456794843
 30
0.0
 10
848.452786921162
 20
162.1452481246973
 30
0.0
 10
847.2848415595254
 20
162.4776261720807
 30
0.0
 10
845.6718956067888
 20
162.6125337242507
 30
0.0
 10
844.4394717844399
 20
162.5131126240585
 30
0.0
 10
843.8451017986464
 20
162.4651640881431
 30
0.0
  0
LINE
  5
21C
330
1F
100
AcDbEntity
  8
0
  6
PHANTOM
 62
     8
370
     0
100
AcDbLine
 10
848.7937476288
 20
161.6335600842
 30
0.0
 11
850.1214708935
 21
148.9790767659
 31
0.0
  0
SPLINE
  5
21D
330
1F
100
AcDbEntity
  8
0
  6
PHANTOM
 62
     8
370
     0
100
AcDbSpline
210
0.0
220
0.0
230
1.0
 70
     8
 71
     3
 72
    13
 73
     9
 74
     0
 42
0.00000001
 43
0.00000001
 40
0.0
 40
0.0
 40
0.0
 40
0.0
 40
0.1702052095728147
 40
0.3381356065700013
 40
0.5001958210823986
 40
0.6551211252397668
 40
0.9448995552995236
 40
1.0
 40
1.0
 40
1.0
 40
1.0
 10
842.1898510109114
 20
162.4015659321678
 30
0.0
 10
841.7355824818493
 20
162.3551069598122
 30
0.0
 10
840.8331167758608
 20
162.262809944712
 30
0.0
 10
839.6199463304181
 20
161.9724162301627
 30
0.0
 10
838.5962717813247
 20
161.60130565723
 30
0.0
 10
837.6104272536695
 20
161.0403675527192
 30
0.0
 10
836.9741825881621
 20
160.4911190965376
 30
0.0
 10
837.0179902845487
 20
160.1062312519453
 30
0.0
 10
837.0249893318343
 20
160.044738673104
 30
0.0
  0
LINE
  5
21E
330
1F
100
AcDbEntity
  8
0
  6
PHANTOM
 62
     8
370
     0
100
AcDbLine
 10
842.1898510109
 20
162.4015659322
 30
0.0
 11
842.7910532604
 21
162.4382227887
 31
0.0
  0
LINE
  5
21F
330
1F
100
AcDbEntity
  8
0
  6
PHANTOM
 62
     8
370
     0
100
AcDbLine
 10
848.9642467152
 20
161.6364807118
 30
0.0
 11
848.7937476288
 21
161.6335600842
 31
0.0
  0
ARC
  5
220
330
1F
100
AcDbEntity
  8
0
  6
PHANTOM
 62
     8
370
     0
100
AcDbCircle
 10
903.2761974828
 20
164.2030567159
 30
0.0
 40
59.54401893277068
100
AcDbArc
 50
178.3177915155
 51
181.6822084845
  0
SPLINE
  5
221
330
1F
100
AcDbEntity
  8
0
  6
PHANTOM
 62
     8
370
     0
100
AcDbSpline
210
0.0
220
0.0
230
1.0
 70
     8
 71
     3
 72
    11
 73
     7
 74
     0
 42
0.00000001
 43
0.00000001
 40
0.0
 40
0.0
 40
0.0
 40
0.0
 40
0.2500012497748985
 40
0.5000041948391473
 40
0.7500032735149597
 40
1.0
 40
1.0
 40
1.0
 40
1.0
 10
842.7910532604384
 20
165.9341544140708
 30
0.0
 10
842.7851396268293
 20
165.8856627222895
 30
0.0
 10
842.7733123195103
 20
165.7886790098986
 30
0.0
 10
842.7684971828728
 20
165.0261750774847
 30
0.0
 10
842.7733122898113
 20
163.9038851954594
 30
0.0
 10
842.7851396221096
 20
162.9267753920442
 30
0.0
 10
842.7910532604384
 20
162.4382227887046
 30
0.0
  0
SPLINE
  5
222
330
1F
100
AcDbEntity
  8
0
  6
PHANTOM
 62
     8
370
     0
100
AcDbSpline
210
0.0
220
0.0
230
1.0
 70
     8
 71
     3
 72
    11
 73
     7
 74
     0
 42
0.00000001
 43
0.00000001
 40
0.0
 40
0.0
 40
0.0
 40
0.0
 40
0.2797527024896689
 40
0.5594936238916506
 40
0.7797498322192006
 40
1.0
 40
1.0
 40
1.0
 40
1.0
 10
842.1898510109114
 20
162.4015659321678
 30
0.0
 10
842.2078234068804
 20
162.9506963263956
 30
0.0
 10
842.243767441956
 20
164.0489339895937
 30
0.0
 10
842.374740940125
 20
165.1621475105234
 30
0.0
 10
842.5279305908796
 20
165.8160943226686
 30
0.0
 10
842.6363903153808
 20
165.8936291799945
 30
0.0
 10
842.6906194339919
 20
165.93239607705
 30
0.0
  0
SPLINE
  5
223
330
1F
100
AcDbEntity
  8
0
  6
PHANTOM
 62
     8
370
     0
100
AcDbSpline
210
0.0
220
0.0
230
1.0
 70
    24
 71
     3
 72
     9
 73
     5
 74
     0
 42
0.00000001
 43
0.00000001
 40
0.0
 40
0.0
 40
0.0
 40
0.0
 40
0.5988655227442901
 40
1.0
 40
1.0
 40
1.0
 40
1.0
 10
782.3700930725264
 20
27.85531582726358
 30
0.0
 10
782.3034105791437
 20
27.85531582726358
 30
0.0
 10
782.1920625538356
 20
27.85531582726358
 30
0.0
 10
782.1050190469891
 20
27.85531582726364
 30
0.0
 10
782.0701028953719
 20
27.85531582726358
 30
0.0
  0
LINE
  5
224
330
1F
100
AcDbEntity
  8
0
  6
PHANTOM
 62
     8
370
     0
100
AcDbLine
 10
782.3700930725
 20
27.8553158273
 30
0.0
 11
782.3700930725
 21
5.0871461858
 31
0.0
  0
SPLINE
  5
225
330
1F
100
AcDbEntity
  8
0
  6
PHANTOM
 62
     8
370
     0
100
AcDbSpline
210
0.0
220
0.0
230
1.0
 70
    24
 71
     3
 72
     9
 73
     5
 74
     0
 42
0.00000001
 43
0.00000001
 40
0.0
 40
0.0
 40
0.0
 40
0.0
 40
0.4011344772557099
 40
1.0
 40
1.0
 40
1.0
 40
1.0
 10
782.0701028953719
 20
5.087146185768832
 30
0.0
 10
782.1050190469891
 20
5.087146185768832
 30
0.0
 10
782.1920625538356
 20
5.087146185768832
 30
0.0
 10
782.3034105791437
 20
5.087146185768832
 30
0.0
 10
782.3700930725264
 20
5.087146185768832
 30
0.0
  0
LINE
  5
226
330
1F
100
AcDbEntity
  8
0
  6
PHANTOM
 62
     8
370
     0
100
AcDbLine
 10
789.7889043938
 20
27.6286393632
 30
0.0
 11
782.3700930725
 21
27.8553158273
 31
0.0
  0
LINE
  5
227
330
1F
100
AcDbEntity
  8
0
  6
PHANTOM
 62
     8
370
     0
100
AcDbLine
 10
789.7889043938
 20
27.6286393632
 30
0.0
 11
789.7889043938
 21
5.3138226498
 31
0.0
  0
LINE
  5
228
330
1F
100
AcDbEntity
  8
0
  6
PHANTOM
 62
     8
370
     0
100
AcDbLine
 10
782.3700930725
 20
5.0871461858
 30
0.0
 11
789.7889043938
 21
5.3138226498
 31
0.0
  0
SPLINE
  5
229
330
1F
100
AcDbEntity
  8
0
  6
PHANTOM
 62
     8
370
     0
100
AcDbSpline
210
0.0
220
0.0
230
1.0
 70
     8
 71
     3
 72
    11
 73
     7
 74
     0
 42
0.00000001
 43
0.00000001
 40
0.0
 40
0.0
 40
0.0
 40
0.0
 40
0.2402532831405464
 40
0.5000174302010115
 40
0.7096956877391156
 40
1.0
 40
1.0
 40
1.0
 40
1.0
 10
782.3844577919173
 20
32.55554439915537
 30
0.0
 10
782.3838739851252
 20
32.34896234302747
 30
0.0
 10
782.3826589608474
 20
31.91902179245309
 30
0.0
 10
782.3790597213334
 20
30.84180807116793
 30
0.0
 10
782.3754669395488
 20
29.46925171159603
 30
0.0
 10
782.3720671110757
 20
28.44817970691327
 30
0.0
 10
782.3700930725264
 20
27.85531582726358
 30
0.0
  0
LINE
  5
22A
330
1F
100
AcDbEntity
  8
0
  6
PHANTOM
 62
     8
370
     0
100
AcDbLine
 10
782.3844577919
 20
32.5555443992
 30
0.0
 11
789.9324025761
 21
32.3249042262
 31
0.0
  0
LWPOLYLINE
  5
22B
330
1F
100
AcDbEntity
  8
0
  6
PHANTOM
 62
     8
370
     0
100
AcDbPolyline
 90
        9
 70
   128
 43
0.0
 10
789.9324025761
 20
32.3249042262
 10
789.922776426
 20
32.0102215041
 10
789.9100508343
 20
31.5935552348
 10
789.894494022
 20
31.0845911731
 10
789.8764934193
 20
30.495175742
 10
789.8564364563
 20
29.8390478124
 10
789.8348297726
 20
29.1314661731
 10
789.8121204029
 20
28.3888966073
 10
789.7889043938
 20
27.6286393632
  0
SPLINE
  5
22C
330
1F
100
AcDbEntity
  8
0
  6
PHANTOM
 62
     8
370
     0
100
AcDbSpline
210
0.0
220
0.0
230
1.0
 70
     8
 71
     3
 72
    11
 73
     7
 74
     0
 42
0.00000001
 43
0.00000001
 40
0.0
 40
0.0
 40
0.0
 40
0.0
 40
0.2902979215673953
 40
0.4999811231434371
 40
0.7597460217561935
 40
1.0
 40
1.0
 40
1.0
 40
1.0
 10
782.3700930725264
 20
5.087146185768832
 30
0.0
 10
782.3720671318574
 20
4.49429907918425
 30
0.0
 10
782.375467061131
 20
3.473236439114069
 30
0.0
 10
782.3790596620019
 20
2.100673126894825
 30
0.0
 10
782.382658970118
 20
1.023455692783726
 30
0.0
 10
782.383873988134
 20
0.5935147564969934
 30
0.0
 10
782.3844577919173
 20
0.3869325150382408
 30
0.0
  0
LWPOLYLINE
  5
22D
330
1F
100
AcDbEntity
  8
0
  6
PHANTOM
 62
     8
370
     0
100
AcDbPolyline
 90
        9
 70
   128
 43
0.0
 10
789.7889043938
 20
5.3138226498
 10
789.8121204029
 20
4.5535654057
 10
789.8348297726
 20
3.81099584
 10
789.8564364563
 20
3.1034142007
 10
789.8764934193
 20
2.447286271
 10
789.894494022
 20
1.85787084
 10
789.9100508343
 20
1.3489067782
 10
789.922776426
 20
0.9322405089
 10
789.9324025761
 20
0.6175577868
  0
LINE
  5
22E
330
1F
100
AcDbEntity
  8
0
  6
PHANTOM
 62
     8
370
     0
100
AcDbLine
 10
789.9324025761
 20
0.6175577868
 30
0.0
 11
782.3844577919
 21
0.386932515
 31
0.0
  0
SPLINE
  5
22F
330
1F
100
AcDbEntity
  8
0
  6
PHANTOM
 62
     8
370
     0
100
AcDbSpline
210
0.0
220
0.0
230
1.0
 70
     8
 71
     3
 72
     9
 73
     5
 74
     0
 42
0.00000001
 43
0.00000001
 40
0.0
 40
0.0
 40
0.0
 40
0.0
 40
0.415234999652816
 40
1.0
 40
1.0
 40
1.0
 40
1.0
 10
782.0701028953719
 20
32.45210053814768
 30
0.0
 10
782.1082436418243
 20
32.47937769026882
 30
0.0
 10
782.2000970416688
 20
32.54506856927458
 30
0.0
 10
782.3164302205363
 20
32.55167890574623
 30
0.0
 10
782.3844577919173
 20
32.55554439915537
 30
0.0
  0
SPLINE
  5
230
330
1F
100
AcDbEntity
  8
0
  6
PHANTOM
 62
     8
370
     0
100
AcDbSpline
210
0.0
220
0.0
230
1.0
 70
     8
 71
     3
 72
     9
 73
     5
 74
     0
 42
0.00000001
 43
0.00000001
 40
0.0
 40
0.0
 40
0.0
 40
0.0
 40
0.5847780321890815
 40
1.0
 40
1.0
 40
1.0
 40
1.0
 10
782.3844577919173
 20
0.3869325150382408
 30
0.0
 10
782.3164310323574
 20
0.390799375952211
 30
0.0
 10
782.2001018342423
 20
0.3974119036141976
 30
0.0
 10
782.1082442021343
 20
0.4630903437349843
 30
0.0
 10
782.0701028953719
 20
0.4903614748847374
 30
0.0
  0
LINE
  5
231
330
1F
100
AcDbEntity
  8
0
  6
PHANTOM
 62
     8
370
     0
100
AcDbLine
 10
794.7698857437
 20
27.6286393632
 30
0.0
 11
789.7889043938
 21
27.6286393632
 31
0.0
  0
LINE
  5
232
330
1F
100
AcDbEntity
  8
0
  6
PHANTOM
 62
     8
370
     0
100
AcDbLine
 10
794.7698857437
 20
27.6286393632
 30
0.0
 11
794.7698857437
 21
5.3138226498
 31
0.0
  0
LINE
  5
233
330
1F
100
AcDbEntity
  8
0
  6
PHANTOM
 62
     8
370
     0
100
AcDbLine
 10
789.7889043938
 20
5.3138226498
 30
0.0
 11
794.7698857437
 21
5.3138226498
 31
0.0
  0
ARC
  5
234
330
1F
100
AcDbEntity
  8
0
  6
PHANTOM
 62
     8
370
     0
100
AcDbCircle
 10
789.7650102132
 20
27.312871908
 30
0.0
 40
5.014826832711634
100
AcDbArc
 50
3.6101185159
 51
88.0871407646
  0
ARC
  5
235
330
1F
100
AcDbEntity
  8
0
  6
PHANTOM
 62
     8
370
     0
100
AcDbCircle
 10
789.7650031208
 20
5.6295974107
 30
0.0
 40
5.014834371015366
100
AcDbArc
 50
271.9129374362
 51
356.3898032833
  0
LINE
  5
236
330
1F
100
AcDbEntity
  8
0
  6
PHANTOM
 62
     8
370
     0
100
AcDbLine
 10
790.7534267555
 20
35.7171088685
 30
0.0
 11
789.9324025761
 21
32.3249042262
 31
0.0
  0
SPLINE
  5
237
330
1F
100
AcDbEntity
  8
0
  6
PHANTOM
 62
     8
370
     0
100
AcDbSpline
210
0.0
220
0.0
230
1.0
 70
     8
 71
     3
 72
    11
 73
     7
 74
     0
 42
0.00000001
 43
0.00000001
 40
0.0
 40
0.0
 40
0.0
 40
0.0
 40
0.249997812860089
 40
0.4999982138845114
 40
0.7499976610431714
 40
1.0
 40
1.0
 40
1.0
 40
1.0
 10
795.5909099231886
 20
31.02084400547861
 30
0.0
 10
795.5029854881242
 20
31.61433808084674
 30
0.0
 10
795.3271357077358
 20
32.80133237587762
 30
0.0
 10
794.2082211411043
 20
34.31841637619132
 30
0.0
 10
792.6326780535701
 20
35.41713298592725
 30
0.0
 10
791.379846270166
 20
35.61711652209765
 30
0.0
 10
790.7534267555403
 20
35.71710886849283
 30
0.0
  0
LINE
  5
238
330
1F
100
AcDbEntity
  8
0
  6
PHANTOM
 62
     8
370
     0
100
AcDbLine
 10
795.5909099232
 20
31.0208440055
 30
0.0
 11
794.7698857437
 21
27.6286393632
 31
0.0
  0
LINE
  5
239
330
1F
100
AcDbEntity
  8
0
  6
PHANTOM
 62
     8
370
     0
100
AcDbLine
 10
789.9324025761
 20
0.6175577868
 30
0.0
 11
790.7534267555
 21
-2.7746468555
 31
0.0
  0
LINE
  5
23A
330
1F
100
AcDbEntity
  8
0
  6
PHANTOM
 62
     8
370
     0
100
AcDbLine
 10
794.7698857437
 20
5.3138226498
 30
0.0
 11
795.5909099232
 21
1.9216180076
 31
0.0
  0
SPLINE
  5
23B
330
1F
100
AcDbEntity
  8
0
  6
PHANTOM
 62
     8
370
     0
100
AcDbSpline
210
0.0
220
0.0
230
1.0
 70
     8
 71
     3
 72
    11
 73
     7
 74
     0
 42
0.00000001
 43
0.00000001
 40
0.0
 40
0.0
 40
0.0
 40
0.0
 40
0.2500024036568949
 40
0.5000019155148727
 40
0.7500039543584524
 40
1.0
 40
1.0
 40
1.0
 40
1.0
 10
790.7534267555403
 20
-2.774646855460416
 30
0.0
 10
791.3798460983985
 20
-2.674654357303075
 30
0.0
 10
792.6326775382695
 20
-2.474670517610134
 30
0.0
 10
794.2082265069671
 20
-1.37595387973749
 30
0.0
 10
795.3271294602371
 20
0.1411395637258561
 30
0.0
 10
795.5029838048279
 20
1.328129935544708
 30
0.0
 10
795.5909099231886
 20
1.921618007553805
 30
0.0
  0
SPLINE
  5
23C
330
1F
100
AcDbEntity
  8
0
  6
PHANTOM
 62
     8
370
     0
100
AcDbSpline
210
0.0
220
0.0
230
1.0
 70
     8
 71
     3
 72
     9
 73
     5
 74
     0
 42
0.00000001
 43
0.00000001
 40
0.0
 40
0.0
 40
0.0
 40
0.0
 40
0.4151755257449513
 40
1.0
 40
1.0
 40
1.0
 40
1.0
 10
782.0701028953719
 20
35.86939873589395
 30
0.0
 10
782.1082461984814
 20
35.89666978617906
 30
0.0
 10
782.2001189143434
 20
35.96235537840214
 30
0.0
 10
782.316433926238
 20
35.96896325044629
 30
0.0
 10
782.3844577919173
 20
35.97282769574045
 30
0.0
  0
LINE
  5
23D
330
1F
100
AcDbEntity
  8
0
  6
PHANTOM
 62
     8
370
     0
100
AcDbLine
 10
782.3844577919
 20
35.9728276957
 30
0.0
 11
782.3844577919
 21
32.5555443992
 31
0.0
  0
LINE
  5
23E
330
1F
100
AcDbEntity
  8
0
  6
PHANTOM
 62
     8
370
     0
100
AcDbLine
 10
782.3844577919
 20
0.386932515
 30
0.0
 11
782.3844577919
 21
-3.0303656827
 31
0.0
  0
SPLINE
  5
23F
330
1F
100
AcDbEntity
  8
0
  6
PHANTOM
 62
     8
370
     0
100
AcDbSpline
210
0.0
220
0.0
230
1.0
 70
     8
 71
     3
 72
     9
 73
     5
 74
     0
 42
0.00000001
 43
0.00000001
 40
0.0
 40
0.0
 40
0.0
 40
0.0
 40
0.5848244742550488
 40
1.0
 40
1.0
 40
1.0
 40
1.0
 10
782.3844577919173
 20
-3.030365682708036
 30
0.0
 10
782.316433926238
 20
-3.026501237413826
 30
0.0
 10
782.2001189143433
 20
-3.01989336536973
 30
0.0
 10
782.1082461984814
 20
-2.954207773146644
 30
0.0
 10
782.0701028953719
 20
-2.926936722861539
 30
0.0
  0
LINE
  5
240
330
1F
100
AcDbEntity
  8
0
  6
PHANTOM
 62
     8
370
     0
100
AcDbLine
 10
782.3844577919
 20
35.9728276957
 30
0.0
 11
790.7534267555
 21
35.7171088685
 31
0.0
  0
LINE
  5
241
330
1F
100
AcDbEntity
  8
0
  6
PHANTOM
 62
     8
370
     0
100
AcDbLine
 10
790.7534267555
 20
-2.7746468555
 30
0.0
 11
782.3844577919
 21
-3.0303656827
 31
0.0
  0
LINE
  5
242
330
1F
100
AcDbEntity
  8
0
  6
PHANTOM
 62
     8
370
     0
100
AcDbLine
 10
795.6806745182
 20
1.7433554162
 30
0.0
 11
795.5909099232
 21
1.9216180076
 31
0.0
  0
LINE
  5
243
330
1F
100
AcDbEntity
  8
0
  6
PHANTOM
 62
     8
370
     0
100
AcDbLine
 10
795.5909099232
 20
31.0208440055
 30
0.0
 11
795.6806745182
 21
31.1991065968
 31
0.0
  0
LINE
  5
244
330
1F
100
AcDbEntity
  8
0
  6
PHANTOM
 62
     8
370
     0
100
AcDbLine
 10
796.0692073952
 20
31.1872303714
 30
0.0
 11
795.6806745182
 21
31.1991065968
 31
0.0
  0
LINE
  5
245
330
1F
100
AcDbEntity
  8
0
  6
PHANTOM
 62
     8
370
     0
100
AcDbLine
 10
795.8880390774
 20
27.8427690495
 30
0.0
 11
796.0692073952
 21
31.1872303714
 31
0.0
  0
SPLINE
  5
246
330
1F
100
AcDbEntity
  8
0
  6
PHANTOM
 62
     8
370
     0
100
AcDbSpline
210
0.0
220
0.0
230
1.0
 70
     8
 71
     3
 72
    11
 73
     7
 74
     0
 42
0.00000001
 43
0.00000001
 40
0.0
 40
0.0
 40
0.0
 40
0.0
 40
0.2497202498186708
 40
0.4998782855156243
 40
0.7499832229742498
 40
1.0
 40
1.0
 40
1.0
 40
1.0
 10
795.888039077394
 20
5.099692963494052
 30
0.0
 10
795.8550371070263
 20
6.973482364939054
 30
0.0
 10
795.7889753103641
 20
10.72434611784584
 30
0.0
 10
795.762439011542
 20
16.46801887470267
 30
0.0
 10
795.7888915376627
 20
22.21398694234345
 30
0.0
 10
795.8549937816063
 20
25.96672885569634
 30
0.0
 10
795.888039077394
 20
27.84276904953836
 30
0.0
  0
LINE
  5
247
330
1F
100
AcDbEntity
  8
0
  6
PHANTOM
 62
     8
370
     0
100
AcDbLine
 10
796.0692073952
 20
1.7552316417
 30
0.0
 11
795.8880390774
 21
5.0996929635
 31
0.0
  0
LINE
  5
248
330
1F
100
AcDbEntity
  8
0
  6
PHANTOM
 62
     8
370
     0
100
AcDbLine
 10
795.6806745182
 20
1.7433554162
 30
0.0
 11
796.0692073952
 21
1.7552316417
 31
0.0
  0
ELLIPSE
  5
249
330
1F
100
AcDbEntity
  8
0
  6
PHANTOM
 62
     8
370
     0
100
AcDbEllipse
 10
795.2301931017
 20
16.4712332941
 30
0.0
 11
0.0
 21
4.749999999999978
 31
0.0
210
0.0
220
0.0
230
1.0
 40
0.0874886635
 41
0.0
 42
6.283185307179586
  0
LINE
  5
24A
330
1F
100
AcDbEntity
  8
0
  6
PHANTOM
 62
     8
370
     0
100
AcDbLine
 10
790.8524300705
 20
-3.2543003331
 30
0.0
 11
790.7534267555
 21
-2.7746468555
 31
0.0
  0
SPLINE
  5
24B
330
1F
100
AcDbEntity
  8
0
  6
PHANTOM
 62
     8
370
     0
100
AcDbSpline
210
0.0
220
0.0
230
1.0
 70
     8
 71
     3
 72
    11
 73
     7
 74
     0
 42
0.00000001
 43
0.00000001
 40
0.0
 40
0.0
 40
0.0
 40
0.0
 40
0.2499986830864449
 40
0.4999992456080194
 40
0.7499995707309137
 40
1.0
 40
1.0
 40
1.0
 40
1.0
 10
795.6806745182204
 20
1.743355416191805
 30
0.0
 10
795.6088878734016
 20
1.100877884412654
 30
0.0
 10
795.4653140440877
 20
-0.1840820091504325
 30
0.0
 10
794.3561048013146
 20
-1.816137354238356
 30
0.0
 10
792.7650249868581
 20
-2.979118748931475
 30
0.0
 10
791.4899617978226
 20
-3.162573125659263
 30
0.0
 10
790.8524300705122
 20
-3.254300333129179
 30
0.0
  0
LINE
  5
24C
330
1F
100
AcDbEntity
  8
0
  6
PHANTOM
 62
     8
370
     0
100
AcDbLine
 10
790.7534267555
 20
35.7171088685
 30
0.0
 11
790.8524300705
 21
36.1967772473
 31
0.0
  0
SPLINE
  5
24D
330
1F
100
AcDbEntity
  8
0
  6
PHANTOM
 62
     8
370
     0
100
AcDbSpline
210
0.0
220
0.0
230
1.0
 70
     8
 71
     3
 72
    11
 73
     7
 74
     0
 42
0.00000001
 43
0.00000001
 40
0.0
 40
0.0
 40
0.0
 40
0.0
 40
0.2500005524785633
 40
0.499999458173668
 40
0.7499997134118785
 40
0.9999999999999999
 40
0.9999999999999999
 40
0.9999999999999999
 40
0.9999999999999999
 10
790.8524300705122
 20
36.19677724732279
 30
0.0
 10
791.4899608247877
 20
36.10504291162714
 30
0.0
 10
792.7650181338474
 20
35.92157484450092
 30
0.0
 10
794.3561093498259
 20
34.75861676475728
 30
0.0
 10
795.4653162709551
 20
33.12655348451015
 30
0.0
 10
795.6088884327978
 20
31.84158891958605
 30
0.0
 10
795.6806745182204
 20
31.19910659684061
 30
0.0
  0
LINE
  5
24E
330
1F
100
AcDbEntity
  8
0
  6
PHANTOM
 62
     8
370
     0
100
AcDbLine
 10
782.3853816639
 20
36.455491208
 30
0.0
 11
782.3844577919
 21
35.9728276957
 31
0.0
  0
LINE
  5
24F
330
1F
100
AcDbEntity
  8
0
  6
PHANTOM
 62
     8
370
     0
100
AcDbLine
 10
782.3844577919
 20
-3.0303656827
 30
0.0
 11
782.3853816639
 21
-3.5130291949
 31
0.0
  0
SPLINE
  5
250
330
1F
100
AcDbEntity
  8
0
  6
PHANTOM
 62
     8
370
     0
100
AcDbSpline
210
0.0
220
0.0
230
1.0
 70
     8
 71
     3
 72
    10
 73
     6
 74
     0
 42
0.00000001
 43
0.00000001
 40
0.0
 40
0.0
 40
0.0
 40
0.0
 40
0.0545218238965389
 40
0.4999945915133412
 40
1.0
 40
1.0
 40
1.0
 40
1.0
 10
796.0734095226454
 20
0.9158492316138633
 30
0.0
 10
796.0745827952713
 20
0.9309986517160862
 30
0.0
 10
796.0853423393482
 20
1.06992702157499
 30
0.0
 10
796.0963074006683
 20
1.352846821261244
 30
0.0
 10
796.0785815239952
 20
1.616043214593799
 30
0.0
 10
796.0692073951888
 20
1.755231641663302
 30
0.0
  0
SPLINE
  5
251
330
1F
100
AcDbEntity
  8
0
  6
PHANTOM
 62
     8
370
     0
100
AcDbSpline
210
0.0
220
0.0
230
1.0
 70
     8
 71
     3
 72
    11
 73
     7
 74
     0
 42
0.00000001
 43
0.00000001
 40
0.0
 40
0.0
 40
0.0
 40
0.0
 40
0.2499992300734171
 40
0.5000013500664343
 40
0.7499999574889987
 40
1.0
 40
1.0
 40
1.0
 40
1.0
 10
791.3160349975752
 20
-3.240144229995023
 30
0.0
 10
791.8837219807289
 20
-3.165788556893978
 30
0.0
 10
793.0191025093357
 20
-3.017076351161496
 30
0.0
 10
794.4912743657719
 20
-2.080872227194164
 30
0.0
 10
795.6182373487181
 20
-0.7465187222453484
 30
0.0
 10
795.9216851743524
 20
0.3617255200389358
 30
0.0
 10
796.0734095226454
 20
0.9158492316138633
 30
0.0
  0
SPLINE
  5
252
330
1F
100
AcDbEntity
  8
0
  6
PHANTOM
 62
     8
370
     0
100
AcDbSpline
210
0.0
220
0.0
230
1.0
 70
     8
 71
     3
 72
    11
 73
     7
 74
     0
 42
0.00000001
 43
0.00000001
 40
0.0
 40
0.0
 40
0.0
 40
0.0
 40
0.2499984985153617
 40
0.4999976206003016
 40
0.7500002552629255
 40
1.0
 40
1.0
 40
1.0
 40
1.0
 10
796.0734095226454
 20
32.02662768257974
 30
0.0
 10
795.9216843073551
 20
32.58074605894407
 30
0.0
 10
795.6182334983273
 20
33.68898419380662
 30
0.0
 10
794.4912745676473
 20
35.02333429465465
 30
0.0
 10
793.0191024588673
 20
35.9595383505869
 30
0.0
 10
791.8837219639063
 20
36.10825056539074
 30
0.0
 10
791.3160349975752
 20
36.18260624302744
 30
0.0
  0
SPLINE
  5
253
330
1F
100
AcDbEntity
  8
0
  6
PHANTOM
 62
     8
370
     0
100
AcDbSpline
210
0.0
220
0.0
230
1.0
 70
     8
 71
     3
 72
    11
 73
     7
 74
     0
 42
0.00000001
 43
0.00000001
 40
0.0
 40
0.0
 40
0.0
 40
0.0
 40
0.499995702815296
 40
0.8439489971569215
 40
0.9454886979181126
 40
1.0
 40
1.0
 40
1.0
 40
1.0
 10
796.0692073951888
 20
31.18723037136911
 30
0.0
 10
796.0786779108049
 20
31.32641172001111
 30
0.0
 10
796.094663312503
 20
31.56133765827002
 30
0.0
 10
796.086571438728
 20
31.82848079313805
 30
0.0
 10
796.0779700100451
 20
31.9681255984034
 30
0.0
 10
796.0745901618219
 20
32.01148240392177
 30
0.0
 10
796.0734095226454
 20
32.02662768257974
 30
0.0
  0
SPLINE
  5
254
330
1F
100
AcDbEntity
  8
0
  6
PHANTOM
 62
     8
370
     0
100
AcDbSpline
210
0.0
220
0.0
230
1.0
 70
     8
 71
     3
 72
    14
 73
    10
 74
     0
 42
0.00000001
 43
0.00000001
 40
0.0
 40
0.0
 40
0.0
 40
0.0
 40
0.2791835390697985
 40
0.5343359067241277
 40
0.775529510623095
 40
0.8900777089673462
 40
0.9453178267947644
 40
0.9724118133134495
 40
1.0
 40
1.0
 40
1.0
 40
1.0
 10
795.888039077394
 20
27.84276904953836
 30
0.0
 10
795.9349073816709
 20
28.09358143903012
 30
0.0
 10
796.0246097256769
 20
28.57361713885426
 30
0.0
 10
796.4089642539656
 20
29.03581866456678
 30
0.0
 10
796.8714218952992
 20
29.33233814603642
 30
0.0
 10
797.2806744478287
 20
29.45068491464609
 30
0.0
 10
797.503851647157
 20
29.45592002176295
 30
0.0
 10
797.6363007824431
 20
29.43334418574989
 30
0.0
 10
797.7017099994333
 20
29.39810785761854
 30
0.0
 10
797.7347101818251
 20
29.38033046616434
 30
0.0
  0
SPLINE
  5
255
330
1F
100
AcDbEntity
  8
0
  6
PHANTOM
 62
     8
370
     0
100
AcDbSpline
210
0.0
220
0.0
230
1.0
 70
     8
 71
     3
 72
     9
 73
     5
 74
     0
 42
0.00000001
 43
0.00000001
 40
0.0
 40
0.0
 40
0.0
 40
0.0
 40
0.5069859954456404
 40
0.9999999999999999
 40
0.9999999999999999
 40
0.9999999999999999
 40
0.9999999999999999
 10
797.7347101818251
 20
29.38033046616434
 30
0.0
 10
798.0987164022177
 20
29.15541035896329
 30
0.0
 10
798.8166972215355
 20
28.71176870175463
 30
0.0
 10
799.7187936694814
 20
28.48334712706296
 30
0.0
 10
800.1635398517775
 20
28.37073209179758
 30
0.0
  0
LINE
  5
256
330
1F
100
AcDbEntity
  8
0
  6
PHANTOM
 62
     8
370
     0
100
AcDbLine
 10
800.1635398518
 20
28.3707320918
 30
0.0
 11
800.2404894482
 21
28.3530891169
 31
0.0
  0
SPLINE
  5
257
330
1F
100
AcDbEntity
  8
0
  6
PHANTOM
 62
     8
370
     0
100
AcDbSpline
210
0.0
220
0.0
230
1.0
 70
     8
 71
     3
 72
    11
 73
     7
 74
     0
 42
0.00000001
 43
0.00000001
 40
0.0
 40
0.0
 40
0.0
 40
0.0
 40
0.2515960711154259
 40
0.5001090886017281
 40
0.7486050396760997
 40
1.0
 40
1.0
 40
1.0
 40
1.0
 10
800.2404894481825
 20
28.35308911694406
 30
0.0
 10
800.343768846182
 20
26.38642493334381
 30
0.0
 10
800.5490620583371
 20
22.47719603288617
 30
0.0
 10
800.6246748034431
 20
16.46873250821929
 30
0.0
 10
800.548920867809
 20
10.46196067124583
 30
0.0
 10
800.3436966392374
 20
6.554455731135056
 30
0.0
 10
800.2404894481825
 20
4.589372896088351
 30
0.0
  0
LINE
  5
258
330
1F
100
AcDbEntity
  8
0
  6
PHANTOM
 62
     8
370
     0
100
AcDbLine
 10
800.2404894482
 20
4.5893728961
 30
0.0
 11
800.1635398518
 21
4.5717299212
 31
0.0
  0
SPLINE
  5
259
330
1F
100
AcDbEntity
  8
0
  6
PHANTOM
 62
     8
370
     0
100
AcDbSpline
210
0.0
220
0.0
230
1.0
 70
     8
 71
     3
 72
     9
 73
     5
 74
     0
 42
0.00000001
 43
0.00000001
 40
0.0
 40
0.0
 40
0.0
 40
0.0
 40
0.4930569084841374
 40
1.0
 40
1.0
 40
1.0
 40
1.0
 10
800.1635398517775
 20
4.571729921234835
 30
0.0
 10
799.7187489403068
 20
4.45910275321082
 30
0.0
 10
798.8166402712728
 20
4.23067644767483
 30
0.0
 10
798.0986768023541
 20
3.787033350220959
 30
0.0
 10
797.7347101818251
 20
3.562131546868075
 30
0.0
  0
SPLINE
  5
25A
330
1F
100
AcDbEntity
  8
0
  6
PHANTOM
 62
     8
370
     0
100
AcDbSpline
210
0.0
220
0.0
230
1.0
 70
     8
 71
     3
 72
    13
 73
     9
 74
     0
 42
0.00000001
 43
0.00000001
 40
0.0
 40
0.0
 40
0.0
 40
0.0
 40
0.0275901667997072
 40
0.109685557767095
 40
0.2242134760239403
 40
0.4655170290459537
 40
0.720655886569995
 40
1.0
 40
1.0
 40
1.0
 40
1.0
 10
797.7347101818251
 20
3.562131546868075
 30
0.0
 10
797.7016380461141
 20
3.544796071048573
 30
0.0
 10
797.57015875212
 20
3.475878353072337
 30
0.0
 10
797.3053916128479
 20
3.49006148216896
 30
0.0
 10
796.8729570498937
 20
3.605950958101123
 30
0.0
 10
796.4085028839052
 20
3.908104967476844
 30
0.0
 10
796.0247930866868
 20
4.368378735401024
 30
0.0
 10
795.9349795494143
 20
4.848671181833907
 30
0.0
 10
795.888039077394
 20
5.099692963494052
 30
0.0
  0
SPLINE
  5
25B
330
1F
100
AcDbEntity
  8
0
  6
PHANTOM
 62
     8
370
     0
100
AcDbSpline
210
0.0
220
0.0
230
1.0
 70
     8
 71
     3
 72
     9
 73
     5
 74
     0
 42
0.00000001
 43
0.00000001
 40
0.0
 40
0.0
 40
0.0
 40
0.0
 40
0.5000194736840838
 40
1.0
 40
1.0
 40
1.0
 40
1.0
 10
797.8045370231795
 20
2.020055078400362
 30
0.0
 10
797.8134859316583
 20
2.266769573408822
 30
0.0
 10
797.8313830515702
 20
2.760179346413649
 30
0.0
 10
797.7669336350285
 20
3.294821087679478
 30
0.0
 10
797.7347101818251
 20
3.562131546868075
 30
0.0
  0
SPLINE
  5
25C
330
1F
100
AcDbEntity
  8
0
  6
PHANTOM
 62
     8
370
     0
100
AcDbSpline
210
0.0
220
0.0
230
1.0
 70
     8
 71
     3
 72
     9
 73
     5
 74
     0
 42
0.00000001
 43
0.00000001
 40
0.0
 40
0.0
 40
0.0
 40
0.0
 40
0.5846294100821748
 40
1.0
 40
1.0
 40
1.0
 40
1.0
 10
797.8045370231795
 20
2.020055078400362
 30
0.0
 10
797.6316010481294
 20
1.745155938081167
 30
0.0
 10
797.3357966084832
 20
1.274945005174832
 30
0.0
 10
796.9258812632062
 20
0.8968335069992617
 30
0.0
 10
796.7556144844222
 20
0.7397771109473594
 30
0.0
  0
LINE
  5
25D
330
1F
100
AcDbEntity
  8
0
  6
PHANTOM
 62
     8
370
     0
100
AcDbLine
 10
796.6832246433
 20
1.5559882153
 30
0.0
 11
796.7554654728
 21
0.7399410237
 31
0.0
  0
LINE
  5
25E
330
1F
100
AcDbEntity
  8
0
  6
PHANTOM
 62
     8
370
     0
100
AcDbLine
 10
796.4811350952
 20
2.4319678773
 30
0.0
 11
796.6832246433
 21
1.5559882153
 31
0.0
  0
SPLINE
  5
25F
330
1F
100
AcDbEntity
  8
0
  6
PHANTOM
 62
     8
370
     0
100
AcDbSpline
210
0.0
220
0.0
230
1.0
 70
     8
 71
     3
 72
     9
 73
     5
 74
     0
 42
0.00000001
 43
0.00000001
 40
0.0
 40
0.0
 40
0.0
 40
0.0
 40
0.5062802342964543
 40
1.0
 40
1.0
 40
1.0
 40
1.0
 10
795.888039077394
 20
5.099692963494052
 30
0.0
 10
795.9428147610705
 20
4.615257304704135
 30
0.0
 10
796.0510071809322
 20
3.658404506642288
 30
0.0
 10
796.3389647511372
 20
2.837342445658753
 30
0.0
 10
796.4811350952315
 20
2.431967877281893
 30
0.0
  0
SPLINE
  5
260
330
1F
100
AcDbEntity
  8
0
  6
PHANTOM
 62
     8
370
     0
100
AcDbSpline
210
0.0
220
0.0
230
1.0
 70
     8
 71
     3
 72
     9
 73
     5
 74
     0
 42
0.00000001
 43
0.00000001
 40
0.0
 40
0.0
 40
0.0
 40
0.0
 40
0.4938401583364454
 40
1.0
 40
1.0
 40
1.0
 40
1.0
 10
796.4811350952315
 20
30.51049413575052
 30
0.0
 10
796.3389249845856
 20
30.10502191625802
 30
0.0
 10
796.0509570900247
 20
29.28396228259372
 30
0.0
 10
795.9427892793288
 20
28.32709622283775
 30
0.0
 10
795.888039077394
 20
27.84276904953836
 30
0.0
  0
LINE
  5
261
330
1F
100
AcDbEntity
  8
0
  6
PHANTOM
 62
     8
370
     0
100
AcDbLine
 10
796.6832246433
 20
31.3864737977
 30
0.0
 11
796.4811350952
 21
30.5104941358
 31
0.0
  0
LINE
  5
262
330
1F
100
AcDbEntity
  8
0
  6
PHANTOM
 62
     8
370
     0
100
AcDbLine
 10
796.7554654728
 20
32.2025209893
 30
0.0
 11
796.6832246433
 21
31.3864737977
 31
0.0
  0
SPLINE
  5
263
330
1F
100
AcDbEntity
  8
0
  6
PHANTOM
 62
     8
370
     0
100
AcDbSpline
210
0.0
220
0.0
230
1.0
 70
     8
 71
     3
 72
     9
 73
     5
 74
     0
 42
0.00000001
 43
0.00000001
 40
0.0
 40
0.0
 40
0.0
 40
0.0
 40
0.4152383148790146
 40
1.0
 40
1.0
 40
1.0
 40
1.0
 10
796.7556144844222
 20
32.20268490208505
 30
0.0
 10
796.9258268038831
 20
32.04567961577048
 30
0.0
 10
797.335741576585
 20
31.66757075469301
 30
0.0
 10
797.631556052033
 20
31.19736515402949
 30
0.0
 10
797.8045370231795
 20
30.92240693463205
 30
0.0
  0
SPLINE
  5
264
330
1F
100
AcDbEntity
  8
0
  6
PHANTOM
 62
     8
370
     0
100
AcDbSpline
210
0.0
220
0.0
230
1.0
 70
     8
 71
     3
 72
     9
 73
     5
 74
     0
 42
0.00000001
 43
0.00000001
 40
0.0
 40
0.0
 40
0.0
 40
0.0
 40
0.4999805263159162
 40
1.0
 40
1.0
 40
1.0
 40
1.0
 10
797.7347101818251
 20
29.38033046616434
 30
0.0
 10
797.7669336350284
 20
29.64764092535293
 30
0.0
 10
797.8313830515702
 20
30.18228266661887
 30
0.0
 10
797.8134859316583
 20
30.67569243962359
 30
0.0
 10
797.8045370231795
 20
30.92240693463205
 30
0.0
  0
SPLINE
  5
265
330
1F
100
AcDbEntity
  8
0
  6
PHANTOM
 62
     8
370
     0
100
AcDbSpline
210
0.0
220
0.0
230
1.0
 70
     8
 71
     3
 72
     9
 73
     5
 74
     0
 42
0.00000001
 43
0.00000001
 40
0.0
 40
0.0
 40
0.0
 40
0.0
 40
0.4999470037076865
 40
1.0
 40
1.0
 40
1.0
 40
1.0
 10
796.0692073951888
 20
31.18723037136911
 30
0.0
 10
796.0980376598752
 20
31.0668918427553
 30
0.0
 10
796.1557043014847
 20
30.82618927284014
 30
0.0
 10
796.3726504990865
 20
30.61573328370515
 30
0.0
 10
796.4811350952315
 20
30.51049413575052
 30
0.0
  0
SPLINE
  5
266
330
1F
100
AcDbEntity
  8
0
  6
PHANTOM
 62
     8
370
     0
100
AcDbSpline
210
0.0
220
0.0
230
1.0
 70
     8
 71
     3
 72
     9
 73
     5
 74
     0
 42
0.00000001
 43
0.00000001
 40
0.0
 40
0.0
 40
0.0
 40
0.0
 40
0.5595626571001343
 40
1.0
 40
1.0
 40
1.0
 40
1.0
 10
796.4811350952315
 20
2.431967877281893
 30
0.0
 10
796.3612257572596
 20
2.313373646612271
 30
0.0
 10
796.1469345845909
 20
2.101432715306661
 30
0.0
 10
796.0929737581895
 20
1.861088298140745
 30
0.0
 10
796.0692073951888
 20
1.755231641663302
 30
0.0
  0
SPLINE
  5
267
330
1F
100
AcDbEntity
  8
0
  6
PHANTOM
 62
     8
370
     0
100
AcDbSpline
210
0.0
220
0.0
230
1.0
 70
     8
 71
     3
 72
     9
 73
     5
 74
     0
 42
0.00000001
 43
0.00000001
 40
0.0
 40
0.0
 40
0.0
 40
0.0
 40
0.5595214988932824
 40
1.0
 40
1.0
 40
1.0
 40
1.0
 10
796.0734095226454
 20
32.02662768257974
 30
0.0
 10
796.1383661898898
 20
31.88719021010372
 30
0.0
 10
796.2544594363027
 20
31.63798178334648
 30
0.0
 10
796.552114143895
 20
31.46338147833588
 30
0.0
 10
796.6832246433424
 20
31.38647379769205
 30
0.0
  0
SPLINE
  5
268
330
1F
100
AcDbEntity
  8
0
  6
PHANTOM
 62
     8
370
     0
100
AcDbSpline
210
0.0
220
0.0
230
1.0
 70
     8
 71
     3
 72
     9
 73
     5
 74
     0
 42
0.00000001
 43
0.00000001
 40
0.0
 40
0.0
 40
0.0
 40
0.0
 40
0.5595242454899536
 40
1.0
 40
1.0
 40
1.0
 40
1.0
 10
796.0734095226454
 20
0.9158492316138633
 30
0.0
 10
796.1383656241393
 20
1.055288183777703
 30
0.0
 10
796.2544572895451
 20
1.304498031765078
 30
0.0
 10
796.5521140549956
 20
1.479086311219235
 30
0.0
 10
796.6832246433424
 20
1.555988215340365
 30
0.0
  0
LINE
  5
269
330
1F
100
AcDbEntity
  8
0
  6
PHANTOM
 62
     8
370
     0
100
AcDbLine
 10
800.2404894482
 20
4.5893728961
 30
0.0
 11
816.3701023709
 21
5.0937772025
 31
0.0
  0
LINE
  5
26A
330
1F
100
AcDbEntity
  8
0
  6
PHANTOM
 62
     8
370
     0
100
AcDbLine
 10
816.3701023709
 20
27.8486997117
 30
0.0
 11
800.2404894482
 21
28.3530891169
 31
0.0
  0
LINE
  5
26B
330
1F
100
AcDbEntity
  8
0
  6
PHANTOM
 62
     8
370
     0
100
AcDbLine
 10
796.0874464165
 20
32.8170597781
 30
0.0
 11
796.1064304959
 21
33.121922635
 31
0.0
  0
LINE
  5
26C
330
1F
100
AcDbEntity
  8
0
  6
PHANTOM
 62
     8
370
     0
100
AcDbLine
 10
796.0734095226
 20
32.0266276826
 30
0.0
 11
796.0874464165
 21
32.8170597781
 31
0.0
  0
SPLINE
  5
26D
330
1F
100
AcDbEntity
  8
0
  6
PHANTOM
 62
     8
370
     0
100
AcDbSpline
210
0.0
220
0.0
230
1.0
 70
     8
 71
     3
 72
    11
 73
     7
 74
     0
 42
0.00000001
 43
0.00000001
 40
0.0
 40
0.0
 40
0.0
 40
0.0
 40
0.2499980337934534
 40
0.4999990497697827
 40
0.750001468770072
 40
1.0
 40
1.0
 40
1.0
 40
1.0
 10
791.8079223285841
 20
36.16757097138284
 30
0.0
 10
792.2658308103976
 20
36.11437555127223
 30
0.0
 10
793.1816532363346
 20
36.00798407649214
 30
0.0
 10
794.4224281400591
 20
35.3470524123346
 30
0.0
 10
795.4664761590647
 20
34.3891086558657
 30
0.0
 10
795.8931134893654
 20
33.54430585156737
 30
0.0
 10
796.106430495851
 20
33.12190773381113
 30
0.0
  0
LINE
  5
26E
330
1F
100
AcDbEntity
  8
0
  6
PHANTOM
 62
     8
370
     0
100
AcDbLine
 10
796.0874464165
 20
0.1254022349
 30
0.0
 11
796.0734095226
 21
0.9158492316
 31
0.0
  0
LINE
  5
26F
330
1F
100
AcDbEntity
  8
0
  6
PHANTOM
 62
     8
370
     0
100
AcDbLine
 10
796.1064304959
 20
-0.1794457208
 30
0.0
 11
796.0874464165
 21
0.1254022349
 31
0.0
  0
SPLINE
  5
270
330
1F
100
AcDbEntity
  8
0
  6
PHANTOM
 62
     8
370
     0
100
AcDbSpline
210
0.0
220
0.0
230
1.0
 70
     8
 71
     3
 72
    11
 73
     7
 74
     0
 42
0.00000001
 43
0.00000001
 40
0.0
 40
0.0
 40
0.0
 40
0.0
 40
0.249996581821563
 40
0.5000010684422004
 40
0.7500012221289912
 40
1.0
 40
1.0
 40
1.0
 40
1.0
 10
796.106430495851
 20
-0.1794457207787148
 30
0.0
 10
795.893111542302
 20
-0.6018368438716615
 30
0.0
 10
795.4664668901378
 20
-1.44663244590798
 30
0.0
 10
794.4224377261186
 20
-2.404595750910621
 30
0.0
 10
793.1816471517915
 20
-3.065499266106719
 30
0.0
 10
792.2658297629874
 20
-3.171905825199939
 30
0.0
 10
791.8079223285841
 20
-3.225108958350431
 30
0.0
  0
SPLINE
  5
271
330
1F
100
AcDbEntity
  8
0
  6
PHANTOM
 62
     8
370
     0
100
AcDbSpline
210
0.0
220
0.0
230
1.0
 70
     8
 71
     3
 72
     9
 73
     5
 74
     0
 42
0.00000001
 43
0.00000001
 40
0.0
 40
0.0
 40
0.0
 40
0.0
 40
0.5596558916733607
 40
1.0
 40
1.0
 40
1.0
 40
1.0
 10
796.08744641649
 20
0.1254022349250206
 30
0.0
 10
796.1817711343062
 20
0.2600638247953202
 30
0.0
 10
796.3503116950678
 20
0.5006788024519149
 30
0.0
 10
796.6316012670529
 20
0.6667934273428267
 30
0.0
 10
796.7554654728102
 20
0.7399410237204918
 30
0.0
  0
SPLINE
  5
272
330
1F
100
AcDbEntity
  8
0
  6
PHANTOM
 62
     8
370
     0
100
AcDbSpline
210
0.0
220
0.0
230
1.0
 70
     8
 71
     3
 72
     9
 73
     5
 74
     0
 42
0.00000001
 43
0.00000001
 40
0.0
 40
0.0
 40
0.0
 40
0.0
 40
0.5596855058598773
 40
1.0
 40
1.0
 40
1.0
 40
1.0
 10
796.7554654728102
 20
32.20252098931192
 30
0.0
 10
796.599762364069
 20
32.29786822918928
 30
0.0
 10
796.3215648636674
 20
32.46822683036626
 30
0.0
 10
796.1590181086843
 20
32.71041903849886
 30
0.0
 10
796.08744641649
 20
32.81705977810739
 30
0.0
  0
SPLINE
  5
273
330
1F
100
AcDbEntity
  8
0
  6
PHANTOM
 62
     8
370
     0
100
AcDbSpline
210
0.0
220
0.0
230
1.0
 70
     8
 71
     3
 72
     9
 73
     5
 74
     0
 42
0.00000001
 43
0.00000001
 40
0.0
 40
0.0
 40
0.0
 40
0.0
 40
0.5597629665219054
 40
0.9999999999999999
 40
0.9999999999999999
 40
0.9999999999999999
 40
0.9999999999999999
 10
800.2724077354598
 20
2.236121915711153
 30
0.0
 10
800.264879852459
 20
2.636564231260852
 30
0.0
 10
800.2514315119096
 20
3.351942595853086
 30
0.0
 10
800.1904056820711
 20
4.198877716272865
 30
0.0
 10
800.1635398517775
 20
4.571729921234835
 30
0.0
  0
SPLINE
  5
274
330
1F
100
AcDbEntity
  8
0
  6
PHANTOM
 62
     8
370
     0
100
AcDbSpline
210
0.0
220
0.0
230
1.0
 70
     8
 71
     3
 72
     9
 73
     5
 74
     0
 42
0.00000001
 43
0.00000001
 40
0.0
 40
0.0
 40
0.0
 40
0.0
 40
0.5085007936008131
 40
1.0
 40
1.0
 40
1.0
 40
1.0
 10
797.8045370231795
 20
2.020055078400362
 30
0.0
 10
798.1759959453805
 20
2.074349560276467
 30
0.0
 10
798.9064941606745
 20
2.181123202637358
 30
0.0
 10
799.8222932230708
 20
2.217997987979448
 30
0.0
 10
800.2724077354598
 20
2.236121915711153
 30
0.0
  0
SPLINE
  5
275
330
1F
100
AcDbEntity
  8
0
  6
PHANTOM
 62
     8
370
     0
100
AcDbSpline
210
0.0
220
0.0
230
1.0
 70
     8
 71
     3
 72
     9
 73
     5
 74
     0
 42
0.00000001
 43
0.00000001
 40
0.0
 40
0.0
 40
0.0
 40
0.0
 40
0.4914621727833903
 40
1.0
 40
1.0
 40
1.0
 40
1.0
 10
800.2724077354598
 20
30.70635499848245
 30
0.0
 10
799.8223396505026
 20
30.72447486140201
 30
0.0
 10
798.9065660469959
 20
30.76134415454995
 30
0.0
 10
798.1760381119758
 20
30.86811163308195
 30
0.0
 10
797.8045370231795
 20
30.92240693463205
 30
0.0
  0
SPLINE
  5
276
330
1F
100
AcDbEntity
  8
0
  6
PHANTOM
 62
     8
370
     0
100
AcDbSpline
210
0.0
220
0.0
230
1.0
 70
     8
 71
     3
 72
     9
 73
     5
 74
     0
 42
0.00000001
 43
0.00000001
 40
0.0
 40
0.0
 40
0.0
 40
0.0
 40
0.5597604194416544
 40
1.0
 40
1.0
 40
1.0
 40
1.0
 10
800.1635398517775
 20
28.37073209179758
 30
0.0
 10
800.1967260719589
 20
28.84372881369662
 30
0.0
 10
800.2560125435078
 20
29.68872732640104
 30
0.0
 10
800.2673961995141
 20
30.39529565421145
 30
0.0
 10
800.2724077354598
 20
30.70635499848245
 30
0.0
  0
SPLINE
  5
277
330
1F
100
AcDbEntity
  8
0
  6
PHANTOM
 62
     8
370
     0
100
AcDbSpline
210
0.0
220
0.0
230
1.0
 70
     8
 71
     3
 72
    10
 73
     6
 74
     0
 42
0.00000001
 43
0.00000001
 40
0.0
 40
0.0
 40
0.0
 40
0.0
 40
0.0909090557896081
 40
0.4470751052025183
 40
1.0
 40
1.0
 40
1.0
 40
1.0
 10
800.504269803636
 20
0.0923067559134849
 30
0.0
 10
800.3738897054035
 20
0.1169694391118248
 30
0.0
 10
799.7327028002342
 20
0.2382562745065209
 30
0.0
 10
798.8410077555548
 20
0.9414081785406592
 30
0.0
 10
798.1965235224832
 20
1.612127092119053
 30
0.0
 10
797.8045370231795
 20
2.020069979561556
 30
0.0
  0
SPLINE
  5
278
330
1F
100
AcDbEntity
  8
0
  6
PHANTOM
 62
     8
370
     0
100
AcDbSpline
210
0.0
220
0.0
230
1.0
 70
     8
 71
     3
 72
     9
 73
     5
 74
     0
 42
0.00000001
 43
0.00000001
 40
0.0
 40
0.0
 40
0.0
 40
0.0
 40
0.4999910929967465
 40
1.0
 40
1.0
 40
1.0
 40
1.0
 10
800.2372707973647
 20
-1.453554607497465
 30
0.0
 10
800.2961877303325
 20
-1.278702345810789
 30
0.0
 10
800.4140236953987
 20
-0.9289915926877224
 30
0.0
 10
800.4741874103045
 20
-0.2481300699107569
 30
0.0
 10
800.504269803636
 20
0.0923067559134849
 30
0.0
  0
SPLINE
  5
279
330
1F
100
AcDbEntity
  8
0
  6
PHANTOM
 62
     8
370
     0
100
AcDbSpline
210
0.0
220
0.0
230
1.0
 70
     8
 71
     3
 72
     9
 73
     5
 74
     0
 42
0.00000001
 43
0.00000001
 40
0.0
 40
0.0
 40
0.0
 40
0.0
 40
0.5069214733072699
 40
1.0
 40
1.0
 40
1.0
 40
1.0
 10
800.2372707973647
 20
-1.453554607497465
 30
0.0
 10
799.7210595709652
 20
-1.506065812983237
 30
0.0
 10
798.7027337481676
 20
-1.609654254686343
 30
0.0
 10
797.792094514844
 20
-1.627541993247827
 30
0.0
 10
797.3430778633284
 20
-1.636362053023588
 30
0.0
  0
SPLINE
  5
27A
330
1F
100
AcDbEntity
  8
0
  6
PHANTOM
 62
     8
370
     0
100
AcDbSpline
210
0.0
220
0.0
230
1.0
 70
     8
 71
     3
 72
     9
 73
     5
 74
     0
 42
0.00000001
 43
0.00000001
 40
0.0
 40
0.0
 40
0.0
 40
0.0
 40
0.5011357183159272
 40
1.0
 40
1.0
 40
1.0
 40
1.0
 10
797.3208155285048
 20
-1.601240016089689
 30
0.0
 10
797.324260518396
 20
-1.607307136232805
 30
0.0
 10
797.3311348834939
 20
-1.619413876825015
 30
0.0
 10
797.3391029030006
 20
-1.630721222263543
 30
0.0
 10
797.3430778633284
 20
-1.636362053023588
 30
0.0
  0
SPLINE
  5
27B
330
1F
100
AcDbEntity
  8
0
  6
PHANTOM
 62
     8
370
     0
100
AcDbSpline
210
0.0
220
0.0
230
1.0
 70
     8
 71
     3
 72
     9
 73
     5
 74
     0
 42
0.00000001
 43
0.00000001
 40
0.0
 40
0.0
 40
0.0
 40
0.0
 40
0.5087397654986343
 40
1.0
 40
1.0
 40
1.0
 40
1.0
 10
796.8124177108931
 20
0.4041135538947471
 30
0.0
 10
796.8889277662798
 20
-0.0402504172600238
 30
0.0
 10
797.0393191069522
 20
-0.9137106837662778
 30
0.0
 10
797.2280832240659
 20
-1.374749821280219
 30
0.0
 10
797.3208155285048
 20
-1.601240016089689
 30
0.0
  0
LINE
  5
27C
330
1F
100
AcDbEntity
  8
0
  6
PHANTOM
 62
     8
370
     0
100
AcDbLine
 10
796.7554654728
 20
0.7399410237
 30
0.0
 11
796.8124177109
 21
0.4041135539
 31
0.0
  0
LINE
  5
27D
330
1F
100
AcDbEntity
  8
0
  6
PHANTOM
 62
     8
370
     0
100
AcDbLine
 10
796.8124177109
 20
32.5383484591
 30
0.0
 11
796.7554654728
 21
32.2025209893
 31
0.0
  0
SPLINE
  5
27E
330
1F
100
AcDbEntity
  8
0
  6
PHANTOM
 62
     8
370
     0
100
AcDbSpline
210
0.0
220
0.0
230
1.0
 70
     8
 71
     3
 72
     9
 73
     5
 74
     0
 42
0.00000001
 43
0.00000001
 40
0.0
 40
0.0
 40
0.0
 40
0.0
 40
0.4917952729755858
 40
1.0
 40
1.0
 40
1.0
 40
1.0
 10
797.3208155285048
 20
34.5437169302833
 30
0.0
 10
797.2279878131525
 20
34.31693402977793
 30
0.0
 10
797.0392350526985
 20
33.85580129230109
 30
0.0
 10
796.888846091743
 20
32.98227742013904
 30
0.0
 10
796.8124177108931
 20
32.53834845913767
 30
0.0
  0
SPLINE
  5
27F
330
1F
100
AcDbEntity
  8
0
  6
PHANTOM
 62
     8
370
     0
100
AcDbSpline
210
0.0
220
0.0
230
1.0
 70
     8
 71
     3
 72
     9
 73
     5
 74
     0
 42
0.00000001
 43
0.00000001
 40
0.0
 40
0.0
 40
0.0
 40
0.0
 40
0.4988642816840728
 40
1.0
 40
1.0
 40
1.0
 40
1.0
 10
797.3430778633284
 20
34.578824066056
 30
0.0
 10
797.3391029030006
 20
34.57318323529607
 30
0.0
 10
797.3311348834937
 20
34.56187588985754
 30
0.0
 10
797.3242605183962
 20
34.54976914926517
 30
0.0
 10
797.3208155285048
 20
34.5437020291221
 30
0.0
  0
SPLINE
  5
280
330
1F
100
AcDbEntity
  8
0
  6
PHANTOM
 62
     8
370
     0
100
AcDbSpline
210
0.0
220
0.0
230
1.0
 70
     8
 71
     3
 72
     9
 73
     5
 74
     0
 42
0.00000001
 43
0.00000001
 40
0.0
 40
0.0
 40
0.0
 40
0.0
 40
0.49307852669273
 40
1.0
 40
1.0
 40
1.0
 40
1.0
 10
797.3430778633284
 20
34.578824066056
 30
0.0
 10
797.7920945148442
 20
34.57000400628024
 30
0.0
 10
798.7027337481675
 20
34.55211626771882
 30
0.0
 10
799.7210595709652
 20
34.44852782601565
 30
0.0
 10
800.2372707973647
 20
34.39601662052988
 30
0.0
  0
SPLINE
  5
281
330
1F
100
AcDbEntity
  8
0
  6
PHANTOM
 62
     8
370
     0
100
AcDbSpline
210
0.0
220
0.0
230
1.0
 70
     8
 71
     3
 72
     9
 73
     5
 74
     0
 42
0.00000001
 43
0.00000001
 40
0.0
 40
0.0
 40
0.0
 40
0.0
 40
0.5000033991958357
 40
0.9999999999999999
 40
0.9999999999999999
 40
0.9999999999999999
 40
0.9999999999999999
 10
800.2372707973647
 20
34.39601662052988
 30
0.0
 10
800.2961278143591
 20
34.22078890655417
 30
0.0
 10
800.4138410480874
 20
33.87033586111954
 30
0.0
 10
800.4741270217356
 20
33.19021391720739
 30
0.0
 10
800.504269803636
 20
32.85015525711893
 30
0.0
  0
SPLINE
  5
282
330
1F
100
AcDbEntity
  8
0
  6
PHANTOM
 62
     8
370
     0
100
AcDbSpline
210
0.0
220
0.0
230
1.0
 70
     8
 71
     3
 72
    11
 73
     7
 74
     0
 42
0.00000001
 43
0.00000001
 40
0.0
 40
0.0
 40
0.0
 40
0.0
 40
0.5522670270620957
 40
0.8027009256275911
 40
0.9091991074260856
 40
1.0
 40
1.0
 40
1.0
 40
1.0
 10
797.8045370231795
 20
30.92240693463205
 30
0.0
 10
798.1883134949692
 20
31.34099116267808
 30
0.0
 10
798.7461192556692
 20
31.94938878708992
 30
0.0
 10
799.5839385227017
 20
32.53424195907145
 30
0.0
 10
800.0867888283464
 20
32.77593148385033
 30
0.0
 10
800.3726917073566
 20
32.8267620407488
 30
0.0
 10
800.504269803636
 20
32.85015525711893
 30
0.0
  0
SPLINE
  5
283
330
1F
100
AcDbEntity
  8
0
  6
PHANTOM
 62
     8
370
     0
100
AcDbSpline
210
0.0
220
0.0
230
1.0
 70
     8
 71
     3
 72
     9
 73
     5
 74
     0
 42
0.00000001
 43
0.00000001
 40
0.0
 40
0.0
 40
0.0
 40
0.0
 40
0.5596763591018269
 40
1.0
 40
1.0
 40
1.0
 40
1.0
 10
796.8124177108931
 20
0.4041135538947471
 30
0.0
 10
796.6523604945888
 20
0.3159289005430499
 30
0.0
 10
796.3663787594286
 20
0.1583652444805961
 30
0.0
 10
796.1858996947265
 20
-0.076172991001433
 30
0.0
 10
796.106430495851
 20
-0.1794457207787148
 30
0.0
  0
SPLINE
  5
284
330
1F
100
AcDbEntity
  8
0
  6
PHANTOM
 62
     8
370
     0
100
AcDbSpline
210
0.0
220
0.0
230
1.0
 70
     8
 71
     3
 72
     9
 73
     5
 74
     0
 42
0.00000001
 43
0.00000001
 40
0.0
 40
0.0
 40
0.0
 40
0.0
 40
0.5596739530695176
 40
1.0
 40
1.0
 40
1.0
 40
1.0
 10
796.106430495851
 20
33.12192263497232
 30
0.0
 10
796.2105804777848
 20
32.99171533457185
 30
0.0
 10
796.3966709352069
 20
32.75906684398839
 30
0.0
 10
796.6853186178424
 20
32.6058248851131
 30
0.0
 10
796.8124177108931
 20
32.53834845913767
 30
0.0
  0
LINE
  5
285
330
1F
100
AcDbEntity
  8
0
  6
PHANTOM
 62
     8
370
     0
100
AcDbLine
 10
800.2724077355
 20
2.2361219157
 30
0.0
 11
800.5042698036
 21
0.0923067559
 31
0.0
  0
LINE
  5
286
330
1F
100
AcDbEntity
  8
0
  6
PHANTOM
 62
     8
370
     0
100
AcDbLine
 10
800.5042698036
 20
32.8501552571
 30
0.0
 11
800.2724077355
 21
30.7063549985
 31
0.0
  0
LINE
  5
287
330
1F
100
AcDbEntity
  8
0
  6
PHANTOM
 62
     8
370
     0
100
AcDbLine
 10
800.4421021591
 20
30.6836158265
 30
0.0
 11
800.2724077355
 21
30.7063549985
 31
0.0
  0
SPLINE
  5
288
330
1F
100
AcDbEntity
  8
0
  6
PHANTOM
 62
     8
370
     0
100
AcDbSpline
210
0.0
220
0.0
230
1.0
 70
     8
 71
     3
 72
     9
 73
     5
 74
     0
 42
0.00000001
 43
0.00000001
 40
0.0
 40
0.0
 40
0.0
 40
0.0
 40
0.5597501470559416
 40
1.0
 40
1.0
 40
1.0
 40
1.0
 10
800.4421021591353
 20
30.68361582650064
 30
0.0
 10
800.4166669152929
 20
30.28431054690956
 30
0.0
 10
800.371226563064
 20
29.57094712629893
 30
0.0
 10
800.2804526500418
 20
28.7253591147012
 30
0.0
 10
800.2404894481825
 20
28.35308911694406
 30
0.0
  0
SPLINE
  5
289
330
1F
100
AcDbEntity
  8
0
  6
PHANTOM
 62
     8
370
     0
100
AcDbSpline
210
0.0
220
0.0
230
1.0
 70
     8
 71
     3
 72
     9
 73
     5
 74
     0
 42
0.00000001
 43
0.00000001
 40
0.0
 40
0.0
 40
0.0
 40
0.0
 40
0.5597571515816278
 40
1.0
 40
1.0
 40
1.0
 40
1.0
 10
800.2404894481825
 20
4.589372896088351
 30
0.0
 10
800.2904448820441
 20
4.117118956186772
 30
0.0
 10
800.3796897156658
 20
3.27344248226008
 30
0.0
 10
800.4230243821339
 20
2.56898052513771
 30
0.0
 10
800.4421021591353
 20
2.258846186531771
 30
0.0
  0
LINE
  5
28A
330
1F
100
AcDbEntity
  8
0
  6
PHANTOM
 62
     8
370
     0
100
AcDbLine
 10
800.2724077355
 20
2.2361219157
 30
0.0
 11
800.4421021591
 21
2.2588461865
 31
0.0
  0
SPLINE
  5
28B
330
1F
100
AcDbEntity
  8
0
  6
PHANTOM
 62
     8
370
     0
100
AcDbSpline
210
0.0
220
0.0
230
1.0
 70
     8
 71
     3
 72
     9
 73
     5
 74
     0
 42
0.00000001
 43
0.00000001
 40
0.0
 40
0.0
 40
0.0
 40
0.0
 40
0.5090335661780951
 40
1.0
 40
1.0
 40
1.0
 40
1.0
 10
796.106430495851
 20
33.12192263497232
 30
0.0
 10
796.1442450900897
 20
33.52389009923207
 30
0.0
 10
796.2185321248771
 20
34.31355799339048
 30
0.0
 10
796.3249612627764
 20
34.73369529571318
 30
0.0
 10
796.3772143970656
 20
34.93996860875009
 30
0.0
  0
SPLINE
  5
28C
330
1F
100
AcDbEntity
  8
0
  6
PHANTOM
 62
     8
370
     0
100
AcDbSpline
210
0.0
220
0.0
230
1.0
 70
     8
 71
     3
 72
     9
 73
     5
 74
     0
 42
0.00000001
 43
0.00000001
 40
0.0
 40
0.0
 40
0.0
 40
0.0
 40
0.49999632554601
 40
1.0
 40
1.0
 40
1.0
 40
1.0
 10
793.4293772827315
 20
36.11803951157449
 30
0.0
 10
793.9688679423701
 20
36.05230540290655
 30
0.0
 10
795.0478571910402
 20
35.92083621941572
 30
0.0
 10
795.9340931574349
 20
35.26692608081378
 30
0.0
 10
796.3772143970656
 20
34.93996860875009
 30
0.0
  0
SPLINE
  5
28D
330
1F
100
AcDbEntity
  8
0
  6
PHANTOM
 62
     8
370
     0
100
AcDbSpline
210
0.0
220
0.0
230
1.0
 70
     8
 71
     3
 72
     9
 73
     5
 74
     0
 42
0.00000001
 43
0.00000001
 40
0.0
 40
0.0
 40
0.0
 40
0.0
 40
0.4904487430514223
 40
1.0
 40
1.0
 40
1.0
 40
1.0
 10
796.3772143970656
 20
-1.99750659571768
 30
0.0
 10
796.3250176939522
 20
-1.791500265655388
 30
0.0
 10
796.2185912755897
 20
-1.371463854142607
 30
0.0
 10
796.1442905327547
 20
-0.5818132027474165
 30
0.0
 10
796.106430495851
 20
-0.1794457207787148
 30
0.0
  0
SPLINE
  5
28E
330
1F
100
AcDbEntity
  8
0
  6
PHANTOM
 62
     8
370
     0
100
AcDbSpline
210
0.0
220
0.0
230
1.0
 70
     8
 71
     3
 72
     9
 73
     5
 74
     0
 42
0.00000001
 43
0.00000001
 40
0.0
 40
0.0
 40
0.0
 40
0.0
 40
0.5000041110689671
 40
0.9999999999999999
 40
0.9999999999999999
 40
0.9999999999999999
 40
0.9999999999999999
 10
796.3772143970656
 20
-1.99750659571768
 30
0.0
 10
795.9340934000035
 20
-2.324465299883116
 30
0.0
 10
795.0478586926235
 20
-2.978377331659232
 30
0.0
 10
793.9688681288258
 20
-3.109834535760025
 30
0.0
 10
793.4293772827315
 20
-3.175562597380888
 30
0.0
  0
SPLINE
  5
28F
330
1F
100
AcDbEntity
  8
0
  6
PHANTOM
 62
     8
370
     0
100
AcDbSpline
210
0.0
220
0.0
230
1.0
 70
     8
 71
     3
 72
     9
 73
     5
 74
     0
 42
0.00000001
 43
0.00000001
 40
0.0
 40
0.0
 40
0.0
 40
0.0
 40
0.5596703172849657
 40
1.0
 40
1.0
 40
1.0
 40
1.0
 10
796.3772143970656
 20
-1.99750659571768
 30
0.0
 10
796.5394834895611
 20
-1.891291294031761
 30
0.0
 10
796.8294204175779
 20
-1.701509384208155
 30
0.0
 10
797.1705889131133
 20
-1.631893816799013
 30
0.0
 10
797.3208155285048
 20
-1.601240016089689
 30
0.0
  0
SPLINE
  5
290
330
1F
100
AcDbEntity
  8
0
  6
PHANTOM
 62
     8
370
     0
100
AcDbSpline
210
0.0
220
0.0
230
1.0
 70
     8
 71
     3
 72
     9
 73
     5
 74
     0
 42
0.00000001
 43
0.00000001
 40
0.0
 40
0.0
 40
0.0
 40
0.0
 40
0.5596723474649798
 40
1.0
 40
1.0
 40
1.0
 40
1.0
 10
796.3772143970656
 20
34.93996860875009
 30
0.0
 10
796.5394830396784
 20
34.83375160743635
 30
0.0
 10
796.8294181121325
 20
34.64396734920944
 30
0.0
 10
797.1705886891934
 20
34.57436483984311
 30
0.0
 10
797.3208155285048
 20
34.5437169302833
 30
0.0
  0
LINE
  5
291
330
1F
100
AcDbEntity
  8
0
  6
PHANTOM
 62
     8
370
     0
100
AcDbLine
 10
800.4421021591
 20
30.6836158265
 30
0.0
 11
816.3701023709
 21
28.0764788617
 31
0.0
  0
LINE
  5
292
330
1F
100
AcDbEntity
  8
0
  6
PHANTOM
 62
     8
370
     0
100
AcDbLine
 10
816.3701023709
 20
4.8659831513
 30
0.0
 11
800.4421021591
 21
2.2588461865
 31
0.0
  0
LINE
  5
293
330
1F
100
AcDbEntity
  8
0
  6
PHANTOM
 62
     8
370
     0
100
AcDbLine
 10
816.3701023709
 20
31.6868216027
 30
0.0
 11
800.5042698036
 21
32.8501552571
 31
0.0
  0
LINE
  5
294
330
1F
100
AcDbEntity
  8
0
  6
PHANTOM
 62
     8
370
     0
100
AcDbLine
 10
800.5042698036
 20
0.0923067559
 30
0.0
 11
816.3701023709
 21
1.2556553115
 31
0.0
  0
SPLINE
  5
295
330
1F
100
AcDbEntity
  8
0
  6
PHANTOM
 62
     8
370
     0
100
AcDbSpline
210
0.0
220
0.0
230
1.0
 70
     8
 71
     3
 72
     9
 73
     5
 74
     0
 42
0.00000001
 43
0.00000001
 40
0.0
 40
0.0
 40
0.0
 40
0.0
 40
0.501859275840002
 40
1.0
 40
1.0
 40
1.0
 40
1.0
 10
816.370102370851
 20
1.047292374504794
 30
0.0
 10
813.6814637917342
 20
0.5602750409082202
 30
0.0
 10
808.3241082369992
 20
-0.4101510467264258
 30
0.0
 10
802.9261924676586
 20
-1.106616701750884
 30
0.0
 10
800.2372707973647
 20
-1.453554607497465
 30
0.0
  0
SPLINE
  5
296
330
1F
100
AcDbEntity
  8
0
  6
PHANTOM
 62
     8
370
     0
100
AcDbSpline
210
0.0
220
0.0
230
1.0
 70
     8
 71
     3
 72
     9
 73
     5
 74
     0
 42
0.00000001
 43
0.00000001
 40
0.0
 40
0.0
 40
0.0
 40
0.0
 40
0.4981407241599979
 40
1.0
 40
1.0
 40
1.0
 40
1.0
 10
800.2372707973647
 20
34.39601662052988
 30
0.0
 10
802.9261924676586
 20
34.04907871478336
 30
0.0
 10
808.324108236999
 20
33.35261305975895
 30
0.0
 10
813.6814637917342
 20
32.3821869721242
 30
0.0
 10
816.370102370851
 20
31.89516963852762
 30
0.0
  0
SPLINE
  5
297
330
1F
100
AcDbEntity
  8
0
  6
PHANTOM
 62
     8
370
     0
100
AcDbSpline
210
0.0
220
0.0
230
1.0
 70
     8
 71
     3
 72
     9
 73
     5
 74
     0
 42
0.00000001
 43
0.00000001
 40
0.0
 40
0.0
 40
0.0
 40
0.0
 40
0.5020209267406737
 40
1.0
 40
1.0
 40
1.0
 40
1.0
 10
796.3943209301161
 20
34.97185709370493
 30
0.0
 10
796.6101768196584
 20
35.26719714351562
 30
0.0
 10
797.0401507072884
 20
35.8554994115669
 30
0.0
 10
797.5941981168681
 20
35.94018025153373
 30
0.0
 10
797.8701021324324
 20
35.98234953774332
 30
0.0
  0
SPLINE
  5
298
330
1F
100
AcDbEntity
  8
0
  6
PHANTOM
 62
     8
370
     0
100
AcDbSpline
210
0.0
220
0.0
230
1.0
 70
     8
 71
     3
 72
     9
 73
     5
 74
     0
 42
0.00000001
 43
0.00000001
 40
0.0
 40
0.0
 40
0.0
 40
0.0
 40
0.4997293661816184
 40
0.9999999999999999
 40
0.9999999999999999
 40
0.9999999999999999
 40
0.9999999999999999
 10
796.3772143970656
 20
34.93996860875009
 30
0.0
 10
796.3800513608866
 20
34.94530713671734
 30
0.0
 10
796.3857283613049
 20
34.9559899749265
 30
0.0
 10
796.39145570717
 20
34.96656614593235
 30
0.0
 10
796.3943209301161
 20
34.97185709370493
 30
0.0
  0
SPLINE
  5
299
330
1F
100
AcDbEntity
  8
0
  6
PHANTOM
 62
     8
370
     0
100
AcDbSpline
210
0.0
220
0.0
230
1.0
 70
     8
 71
     3
 72
     9
 73
     5
 74
     0
 42
0.00000001
 43
0.00000001
 40
0.0
 40
0.0
 40
0.0
 40
0.0
 40
0.4977521132359952
 40
1.0
 40
1.0
 40
1.0
 40
1.0
 10
797.8701021324324
 20
-3.039872623549711
 30
0.0
 10
797.5943303798664
 20
-2.997746532712287
 30
0.0
 10
797.0402960619143
 20
-2.913113861715722
 30
0.0
 10
796.6102903767742
 20
-2.32483965611302
 30
0.0
 10
796.3943209301161
 20
-2.02938017951132
 30
0.0
  0
SPLINE
  5
29A
330
1F
100
AcDbEntity
  8
0
  6
PHANTOM
 62
     8
370
     0
100
AcDbSpline
210
0.0
220
0.0
230
1.0
 70
     8
 71
     3
 72
     9
 73
     5
 74
     0
 42
0.00000001
 43
0.00000001
 40
0.0
 40
0.0
 40
0.0
 40
0.0
 40
0.5002646987518977
 40
1.0
 40
1.0
 40
1.0
 40
1.0
 10
796.3943209301161
 20
-2.02938017951132
 30
0.0
 10
796.3914556903304
 20
-2.024095409425331
 30
0.0
 10
796.3857282428555
 20
-2.013531461780904
 30
0.0
 10
796.3800513438835
 20
-2.002846332178454
 30
0.0
 10
796.3772143970656
 20
-1.99750659571768
 30
0.0
  0
SPLINE
  5
29B
330
1F
100
AcDbEntity
  8
0
  6
PHANTOM
 62
     8
370
     0
100
AcDbSpline
210
0.0
220
0.0
230
1.0
 70
     8
 71
     3
 72
     9
 73
     5
 74
     0
 42
0.00000001
 43
0.00000001
 40
0.0
 40
0.0
 40
0.0
 40
0.0
 40
0.5596611404304119
 40
1.0
 40
1.0
 40
1.0
 40
1.0
 10
797.3430778633284
 20
34.578824066056
 30
0.0
 10
797.15160449798
 20
34.61999584520675
 30
0.0
 10
796.8094807528845
 20
34.69356139438734
 30
0.0
 10
796.5212431482333
 20
34.88677682940006
 30
0.0
 10
796.3943209301161
 20
34.97185709370493
 30
0.0
  0
SPLINE
  5
29C
330
1F
100
AcDbEntity
  8
0
  6
PHANTOM
 62
     8
370
     0
100
AcDbSpline
210
0.0
220
0.0
230
1.0
 70
     8
 71
     3
 72
     9
 73
     5
 74
     0
 42
0.00000001
 43
0.00000001
 40
0.0
 40
0.0
 40
0.0
 40
0.0
 40
0.5596873054873643
 40
1.0
 40
1.0
 40
1.0
 40
1.0
 10
796.3943209301161
 20
-2.02938017951132
 30
0.0
 10
796.5578759213691
 20
-1.923478921941391
 30
0.0
 10
796.8501015796065
 20
-1.734263878949371
 30
0.0
 10
797.1923718974341
 20
-1.666291260018216
 30
0.0
 10
797.3430778633284
 20
-1.636362053023588
 30
0.0
  0
SPLINE
  5
29D
330
1F
100
AcDbEntity
  8
0
  6
PHANTOM
 62
     8
370
     0
100
AcDbSpline
210
0.0
220
0.0
230
1.0
 70
     8
 71
     3
 72
     9
 73
     5
 74
     0
 42
0.00000001
 43
0.00000001
 40
0.0
 40
0.0
 40
0.0
 40
0.0
 40
0.5014010279960087
 40
1.0
 40
1.0
 40
1.0
 40
1.0
 10
797.3430778633284
 20
-1.636362053023588
 30
0.0
 10
797.4410626911231
 20
-2.039201840488392
 30
0.0
 10
797.6364847631247
 20
-2.842630164269166
 30
0.0
 10
797.7923752806495
 20
-2.974248070704066
 30
0.0
 10
797.8701021324324
 20
-3.039872623549711
 30
0.0
  0
SPLINE
  5
29E
330
1F
100
AcDbEntity
  8
0
  6
PHANTOM
 62
     8
370
     0
100
AcDbSpline
210
0.0
220
0.0
230
1.0
 70
     8
 71
     3
 72
     9
 73
     5
 74
     0
 42
0.00000001
 43
0.00000001
 40
0.0
 40
0.0
 40
0.0
 40
0.0
 40
0.4988174352204593
 40
1.0
 40
1.0
 40
1.0
 40
1.0
 10
797.8701021324324
 20
35.98234953774332
 30
0.0
 10
797.7923377323352
 20
35.91665465526111
 30
0.0
 10
797.6364402143132
 20
35.7849533997644
 30
0.0
 10
797.4410193788548
 20
34.98150060061367
 30
0.0
 10
797.3430778633284
 20
34.578824066056
 30
0.0
  0
LINE
  5
29F
330
1F
100
AcDbEntity
  8
0
  6
PHANTOM
 62
     8
370
     0
100
AcDbLine
 10
-32.1799490799
 20
549.4012624253
 30
0.0
 11
-3.6798689712
 21
549.4012624253
 31
0.0
  0
LINE
  5
2A0
330
1F
100
AcDbEntity
  8
0
  6
PHANTOM
 62
     8
370
     0
100
AcDbLine
 10
-17.9299090256
 20
550.1512080659
 30
0.0
 11
-4.9798462738
 21
550.1512080659
 31
0.0
  0
LINE
  5
2A1
330
1F
100
AcDbEntity
  8
0
  6
PHANTOM
 62
     8
370
     0
100
AcDbLine
 10
-30.879852568
 20
550.1512080659
 30
0.0
 11
-17.9299090256
 21
550.1512080659
 31
0.0
  0
LINE
  5
2A2
330
1F
100
AcDbEntity
  8
0
  6
PHANTOM
 62
     8
370
     0
100
AcDbLine
 10
-4.9798462738
 20
557.2512537469
 30
0.0
 11
-30.879852568
 21
557.2512537469
 31
0.0
  0
LINE
  5
2A3
330
1F
100
AcDbEntity
  8
0
  6
PHANTOM
 62
     8
370
     0
100
AcDbLine
 10
-16.074535643
 20
558.2512408723
 30
0.0
 11
-19.7852824081
 21
558.2512408723
 31
0.0
  0
SPLINE
  5
2A4
330
1F
100
AcDbEntity
  8
0
  6
PHANTOM
 62
     8
370
     0
100
AcDbSpline
210
0.0
220
0.0
230
1.0
 70
     8
 71
     3
 72
     9
 73
     5
 74
     0
 42
0.00000001
 43
0.00000001
 40
0.0
 40
0.0
 40
0.0
 40
0.0
 40
0.4999925724038267
 40
1.0
 40
1.0
 40
1.0
 40
1.0
 10
-21.83401325834522
 20
578.6512285698784
 30
0.0
 10
-20.53264544866451
 20
578.9762196769952
 30
0.0
 10
-17.92987116459055
 20
579.626211546983
 30
0.0
 10
-15.32709366543683
 20
578.9762261141329
 30
0.0
 10
-14.0256855834795
 20
578.6512285698784
 30
0.0
  0
SPLINE
  5
2A5
330
1F
100
AcDbEntity
  8
0
  6
PHANTOM
 62
     8
370
     0
100
AcDbSpline
210
0.0
220
0.0
230
1.0
 70
     8
 71
     3
 72
    11
 73
     7
 74
     0
 42
0.00000001
 43
0.00000001
 40
0.0
 40
0.0
 40
0.0
 40
0.0
 40
0.1363992563456314
 40
0.557695147602939
 40
0.9789770990158476
 40
1.0
 40
1.0
 40
1.0
 40
1.0
 10
-29.47985867155323
 20
564.091005944146
 30
0.0
 10
-29.58081205316532
 20
564.3785839576469
 30
0.0
 10
-29.99357978055306
 20
565.554403144523
 30
0.0
 10
-30.0479669982392
 20
567.7823720018035
 30
0.0
 10
-29.77112044109664
 20
569.6951362640692
 30
0.0
 10
-29.49307429979231
 20
570.6414027289588
 30
0.0
 10
-29.47985867155323
 20
570.6863790978325
 30
0.0
  0
SPLINE
  5
2A6
330
1F
100
AcDbEntity
  8
0
  6
PHANTOM
 62
     8
370
     0
100
AcDbSpline
210
0.0
220
0.0
230
1.0
 70
     8
 71
     3
 72
    11
 73
     7
 74
     0
 42
0.00000001
 43
0.00000001
 40
0.0
 40
0.0
 40
0.0
 40
0.0
 40
0.0210180545242408
 40
0.4423026597618405
 40
0.8635998844205155
 40
1.0
 40
1.0
 40
1.0
 40
1.0
 10
-6.379840170271711
 20
570.6863790978325
 30
0.0
 10
-6.36666530737684
 20
570.6414024242945
 30
0.0
 10
-6.089414294751627
 20
569.6949160446867
 30
0.0
 10
-5.811570206974759
 20
567.7824756990126
 30
0.0
 10
-5.86613085792731
 20
565.554392981386
 30
0.0
 10
-6.2788889148091
 20
564.3785825075578
 30
0.0
 10
-6.379840170271489
 20
564.091005944146
 30
0.0
  0
SPLINE
  5
2A7
330
1F
100
AcDbEntity
  8
0
  6
PHANTOM
 62
     8
370
     0
100
AcDbSpline
210
0.0
220
0.0
230
1.0
 70
     8
 71
     3
 72
    11
 73
     7
 74
     0
 42
0.00000001
 43
0.00000001
 40
0.0
 40
0.0
 40
0.0
 40
0.0
 40
0.2873082180379663
 40
0.5928389535060363
 40
0.898369211964502
 40
1.0
 40
1.0
 40
1.0
 40
1.0
 10
-29.47985867155323
 20
562.6782566536797
 30
0.0
 10
-29.77102969333312
 20
563.5382479849404
 30
0.0
 10
-30.37183925256581
 20
565.312775578793
 30
0.0
 10
-30.4450324577088
 20
568.1749788188648
 30
0.0
 10
-30.04235281657319
 20
570.4000879544992
 30
0.0
 10
-29.59231185322775
 20
571.5997173239649
 30
0.0
 10
-29.479977880843
 20
571.8991548050774
 30
0.0
  0
SPLINE
  5
2A8
330
1F
100
AcDbEntity
  8
0
  6
PHANTOM
 62
     8
370
     0
100
AcDbSpline
210
0.0
220
0.0
230
1.0
 70
     8
 71
     3
 72
    11
 73
     7
 74
     0
 42
0.00000001
 43
0.00000001
 40
0.0
 40
0.0
 40
0.0
 40
0.0
 40
0.1016323596812308
 40
0.4071622663828351
 40
0.7126921127398673
 40
0.9999999999999999
 40
0.9999999999999999
 40
0.9999999999999999
 40
0.9999999999999999
 10
-6.379720960981938
 20
571.8992144097222
 30
0.0
 10
-6.267431741266316
 20
571.5997550143351
 30
0.0
 10
-5.817575678362719
 20
570.4000528082871
 30
0.0
 10
-5.41478833161424
 20
568.1749973810914
 30
0.0
 10
-5.487831719266145
 20
565.3127688421408
 30
0.0
 10
-6.088659873059843
 20
563.5382463109289
 30
0.0
 10
-6.379840170271489
 20
562.6782566536797
 30
0.0
  0
SPLINE
  5
2A9
330
1F
100
AcDbEntity
  8
0
  6
PHANTOM
 62
     8
370
     0
100
AcDbSpline
210
0.0
220
0.0
230
1.0
 70
     8
 71
     3
 72
    11
 73
     7
 74
     0
 42
0.00000001
 43
0.00000001
 40
0.0
 40
0.0
 40
0.0
 40
0.0
 40
0.2473071065010498
 40
0.4999999999999999
 40
0.7526928934989502
 40
0.9999999999999999
 40
0.9999999999999999
 40
0.9999999999999999
 40
0.9999999999999999
 10
-22.93419579160938
 20
578.6512285698784
 30
0.0
 10
-22.13632043455016
 20
578.9468125436337
 30
0.0
 10
-20.52319380760559
 20
579.5444176386455
 30
0.0
 10
-17.9299090255578
 20
579.7804716946604
 30
0.0
 10
-15.33662424350801
 20
579.5444176386455
 30
0.0
 10
-13.72349761656344
 20
578.9468125436334
 30
0.0
 10
-12.92562225950489
 20
578.6512285698784
 30
0.0
  0
SPLINE
  5
2AA
330
1F
100
AcDbEntity
  8
0
  6
PHANTOM
 62
     8
370
     0
100
AcDbSpline
210
0.0
220
0.0
230
1.0
 70
     8
 71
     3
 72
    18
 73
    14
 74
     0
 42
0.00000001
 43
0.00000001
 40
0.0
 40
0.0
 40
0.0
 40
0.0
 40
0.0870482402198351
 40
0.1793133322675721
 40
0.2754129763167723
 40
0.3735532009201135
 40
0.4716917868850155
 40
0.5677904598252631
 40
0.660055551873
 40
0.7471039849939601
 40
0.8341545204406581
 40
0.9264175835253698
 40
0.9999999999999999
 40
0.9999999999999999
 40
0.9999999999999999
 40
0.9999999999999999
 10
-17.92990902555713
 20
580.7012111176384
 30
0.0
 10
-17.10958481745362
 20
580.6575767815306
 30
0.0
 10
-15.41977389280635
 20
580.5676930780919
 30
0.0
 10
-12.91301593451366
 20
579.8194251087821
 30
0.0
 10
-10.50252795713447
 20
578.578562657498
 30
0.0
 10
-8.3515211835139
 20
576.8291112275006
 30
0.0
 10
-6.604278038093936
 20
574.6787874669051
 30
0.0
 10
-5.355388065301225
 20
572.267984938375
 30
0.0
 10
-4.635597387446344
 20
569.7617430267051
 30
0.0
 10
-4.402384894310218
 20
567.2499721508834
 30
0.0
 10
-4.643443076222109
 20
564.7458839988689
 30
0.0
 10
-5.265763836637571
 20
562.4218338009963
 30
0.0
 10
-6.037455552088788
 20
561.0599569522849
 30
0.0
 10
-6.379840170271711
 20
560.4557186592949
 30
0.0
  0
SPLINE
  5
2AB
330
1F
100
AcDbEntity
  8
0
  6
PHANTOM
 62
     8
370
     0
100
AcDbSpline
210
0.0
220
0.0
230
1.0
 70
     8
 71
     3
 72
    18
 73
    14
 74
     0
 42
0.00000001
 43
0.00000001
 40
0.0
 40
0.0
 40
0.0
 40
0.0
 40
0.0735843140485674
 40
0.1658473211062038
 40
0.2528978036911524
 40
0.3399461839516397
 40
0.4322112199710693
 40
0.5283117768083444
 40
0.6264503031782387
 40
0.7245871909287438
 40
0.8206867766210909
 40
0.9129518126405204
 40
0.9999999999999999
 40
0.9999999999999999
 40
0.9999999999999999
 40
0.9999999999999999
 10
-29.47985867155323
 20
560.4557186592949
 30
0.0
 10
-29.82229154343874
 20
561.0599526434512
 30
0.0
 10
-30.59408068349146
 20
562.4217997828773
 30
0.0
 10
-31.21636585166798
 20
564.7458881751604
 30
0.0
 10
-31.4574373705494
 20
567.2499719704041
 30
0.0
 10
-31.22421242705342
 20
569.7617395941088
 30
0.0
 10
-30.50445589222184
 20
572.2680177742681
 30
0.0
 10
-29.25540014208128
 20
574.678759489106
 30
0.0
 10
-27.50819105818336
 20
576.8290722903664
 30
0.0
 10
-25.35727807149435
 20
578.5785980506944
 30
0.0
 10
-22.94679818160583
 20
579.81941974438
 30
0.0
 10
-20.44004506169816
 20
580.5676943096428
 30
0.0
 10
-18.75023352889315
 20
580.6575771840072
 30
0.0
 10
-17.92990902555736
 20
580.7012111176384
 30
0.0
  0
SPLINE
  5
2AC
330
1F
100
AcDbEntity
  8
0
  6
PHANTOM
 62
     8
370
     0
100
AcDbSpline
210
0.0
220
0.0
230
1.0
 70
     8
 71
     3
 72
    19
 73
    15
 74
     0
 42
0.00000001
 43
0.00000001
 40
0.0
 40
0.0
 40
0.0
 40
0.0
 40
0.0843853441751827
 40
0.1738236613118365
 40
0.2669833465495348
 40
0.3621163059233182
 40
0.4572507913716622
 40
0.5504096352503272
 40
0.6398492986453287
 40
0.7242328645581498
 40
0.8086183883761516
 40
0.8980580517711532
 40
0.9912151498968731
 40
1.0
 40
1.0
 40
1.0
 40
1.0
 10
-17.92990902555713
 20
581.2512427796257
 30
0.0
 10
-17.07601701473083
 20
581.2058376350608
 30
0.0
 10
-15.31710215649906
 20
581.1123084974153
 30
0.0
 10
-12.70787926967176
 20
580.3332656275714
 30
0.0
 10
-10.19879090367626
 20
579.0417916496959
 30
0.0
 10
-7.95988272032222
 20
577.2207772579321
 30
0.0
 10
-6.141163501048652
 20
574.9823948117116
 30
0.0
 10
-4.841493813862563
 20
572.4733608036682
 30
0.0
 10
-4.090734897988613
 20
569.8636118608435
 30
0.0
 10
-3.853358345741853
 20
567.2526481044247
 30
0.0
 10
-4.08410135379067
 20
564.6329714173845
 30
0.0
 10
-4.870358176551015
 20
562.0513221886798
 30
0.0
 10
-5.667426733190206
 20
560.2470940353978
 30
0.0
 10
-6.323318665536926
 20
559.4520621987671
 30
0.0
 10
-6.379840170271711
 20
559.3835503090752
 30
0.0
  0
SPLINE
  5
2AD
330
1F
100
AcDbEntity
  8
0
  6
PHANTOM
 62
     8
370
     0
100
AcDbSpline
210
0.0
220
0.0
230
1.0
 70
     8
 71
     3
 72
    19
 73
    15
 74
     0
 42
0.00000001
 43
0.00000001
 40
0.0
 40
0.0
 40
0.0
 40
0.0
 40
0.0087873173232216
 40
0.1019442923927042
 40
0.1913838376420285
 40
0.2757688907509026
 40
0.3601519859488469
 40
0.4495915311981712
 40
0.5427502520182926
 40
0.6378846117983618
 40
0.7330204976671291
 40
0.8261765683012167
 40
0.9156147672939716
 40
1.0
 40
1.0
 40
1.0
 40
1.0
 10
-29.47985867155323
 20
559.3835503090752
 30
0.0
 10
-29.53642142405566
 20
559.4520610190234
 30
0.0
 10
-30.19262280697155
 20
560.2468742242465
 30
0.0
 10
-30.98934150091082
 20
562.0514050291488
 30
0.0
 10
-31.77579906868355
 20
564.6329445552307
 30
0.0
 10
-32.00624816295839
 20
567.2526534714822
 30
0.0
 10
-31.76914206932202
 20
569.8636165972482
 30
0.0
 10
-31.01830817067319
 20
572.4733619617867
 30
0.0
 10
-29.71865457530276
 20
574.9823885525786
 30
0.0
 10
-27.89993274115599
 20
577.220825699496
 30
0.0
 10
-25.66093698989214
 20
579.0417161587973
 30
0.0
 10
-23.15191882579337
 20
580.3333003404078
 30
0.0
 10
-20.54271264196461
 20
581.1123028667799
 30
0.0
 10
-18.78379997338397
 20
581.2058357949119
 30
0.0
 10
-17.92990902555713
 20
581.2512427796257
 30
0.0
  0
ENDSEC
  0
SECTION
  2
OBJECTS
  0
DICTIONARY
  5
C
330
0
100
AcDbDictionary
281
     1
  3
ACAD_GROUP
350
D
  3
ACAD_LAYOUT
350
1A
  3
ACAD_MATERIAL
350
3B
  3
ACAD_MLEADERSTYLE
350
2AF
  3
ACAD_MLINESTYLE
350
17
  3
ACAD_PLOTSETTINGS
350
19
  3
ACAD_PLOTSTYLENAME
350
E
  3
ACAD_TABLESTYLE
350
2AE
  3
ACAD_VISUALSTYLE
350
2A
  0
DICTIONARY
  5
D
102
{ACAD_REACTORS
330
C
102
}
330
C
100
AcDbDictionary
281
     1
  0
DICTIONARY
  5
1A
102
{ACAD_REACTORS
330
C
102
}
330
C
100
AcDbDictionary
281
     1
  3
Layout1
350
1E
  3
Layout2
350
26
  3
Model
350
22
  0
DICTIONARY
  5
3B
102
{ACAD_REACTORS
330
C
102
}
330
C
100
AcDbDictionary
281
     1
  3
ByBlock
350
3D
  3
ByLayer
350
3C
  3
Global
350
3E
  0
DICTIONARY
  5
2AF
102
{ACAD_REACTORS
330
C
102
}
330
C
100
AcDbDictionary
281
     1
  0
DICTIONARY
  5
17
102
{ACAD_REACTORS
330
C
102
}
330
C
100
AcDbDictionary
281
     1
  3
Standard
350
18
  0
DICTIONARY
  5
19
102
{ACAD_REACTORS
330
C
102
}
330
C
100
AcDbDictionary
281
     1
  0
ACDBDICTIONARYWDFLT
  5
E
102
{ACAD_REACTORS
330
C
102
}
330
C
100
AcDbDictionary
281
     1
  3
Normal
350
F
100
AcDbDictionaryWithDefault
340
F
  0
DICTIONARY
  5
2AE
102
{ACAD_REACTORS
330
C
102
}
330
C
100
AcDbDictionary
281
     1
  0
DICTIONARY
  5
2A
102
{ACAD_REACTORS
330
C
102
}
330
C
100
AcDbDictionary
281
     1
  3
2dWireframe
350
2F
  3
3D Hidden
350
31
  3
3dWireframe
350
30
  3
Basic
350
32
  3
Brighten
350
36
  3
ColorChange
350
3A
  3
Conceptual
350
34
  3
Dim
350
35
  3
Facepattern
350
39
  3
Flat
350
2B
  3
FlatWithEdges
350
2C
  3
Gouraud
350
2D
  3
GouraudWithEdges
350
2E
  3
Linepattern
350
38
  3
Realistic
350
33
  3
Thicken
350
37
  0
LAYOUT
  5
1E
102
{ACAD_REACTORS
330
1A
102
}
330
1A
100
AcDbPlotSettings
  1

  2
none_device
  4

  6

 40
0.0
 41
0.0
 42
0.0
 43
0.0
 44
0.0
 45
0.0
 46
0.0
 47
0.0
 48
0.0
 49
0.0
140
0.0
141
0.0
142
1.0
143
1.0
 70
   688
 72
     0
 73
     0
 74
     5
  7

 75
    16
 76
     0
 77
     2
 78
   300
147
1.0
148
0.0
149
0.0
100
AcDbLayout
  1
Layout1
 70
     1
 71
     1
 10
0.0
 20
0.0
 11
420.0
 21
297.0
 12
0.0
 22
0.0
 32
0.0
 14
1.0000000000E+20
 24
1.0000000000E+20
 34
1.0000000000E+20
 15
-1.0000000000E+20
 25
-1.0000000000E+20
 35
-1.0000000000E+20
146
0.0
 13
0.0
 23
0.0
 33
0.0
 16
1.0
 26
0.0
 36
0.0
 17
0.0
 27
1.0
 37
0.0
 76
     0
330
1B
  0
LAYOUT
  5
26
102
{ACAD_REACTORS
330
1A
102
}
330
1A
100
AcDbPlotSettings
  1

  2
none_device
  4

  6

 40
0.0
 41
0.0
 42
0.0
 43
0.0
 44
0.0
 45
0.0
 46
0.0
 47
0.0
 48
0.0
 49
0.0
140
0.0
141
0.0
142
1.0
143
1.0
 70
   688
 72
     0
 73
     0
 74
     5
  7

 75
    16
 76
     0
 77
     2
 78
   300
147
1.0
148
0.0
149
0.0
100
AcDbLayout
  1
Layout2
 70
     1
 71
     2
 10
0.0
 20
0.0
 11
0.0
 21
0.0
 12
0.0
 22
0.0
 32
0.0
 14
0.0
 24
0.0
 34
0.0
 15
0.0
 25
0.0
 35
0.0
146
0.0
 13
0.0
 23
0.0
 33
0.0
 16
1.0
 26
0.0
 36
0.0
 17
0.0
 27
1.0
 37
0.0
 76
     0
330
23
  0
LAYOUT
  5
22
102
{ACAD_REACTORS
330
1A
102
}
330
1A
100
AcDbPlotSettings
  1

  2
none_device
  4

  6

 40
0.0
 41
0.0
 42
0.0
 43
0.0
 44
0.0
 45
0.0
 46
0.0
 47
0.0
 48
0.0
 49
0.0
140
0.0
141
0.0
142
1.0
143
1.0
 70
  1712
 72
     0
 73
     0
 74
     0
  7

 75
     0
 76
     0
 77
     2
 78
   300
147
1.0
148
0.0
149
0.0
100
AcDbLayout
  1
Model
 70
     1
 71
     0
 10
0.0
 20
0.0
 11
841.0
 21
594.0
 12
0.0
 22
0.0
 32
0.0
 14
0.0
 24
0.0
 34
0.0
 15
841.0
 25
594.0
 35
0.0
146
0.0
 13
0.0
 23
0.0
 33
0.0
 16
1.0
 26
0.0
 36
0.0
 17
0.0
 27
1.0
 37
0.0
 76
     0
330
1F
331
29
  0
MATERIAL
  5
3D
102
{ACAD_REACTORS
330
3B
102
}
330
3B
100
AcDbMaterial
  1
ByBlock
 72
     1
 94
      127
  0
MATERIAL
  5
3C
102
{ACAD_REACTORS
330
3B
102
}
330
3B
100
AcDbMaterial
  1
ByLayer
 72
     1
 94
      127
  0
MATERIAL
  5
3E
102
{ACAD_REACTORS
330
3B
102
}
330
3B
100
AcDbMaterial
  1
Global
 72
     1
 94
      127
  0
MLINESTYLE
  5
18
102
{ACAD_REACTORS
330
17
102
}
330
17
100
AcDbMlineStyle
  2
Standard
 70
     0
  3

 62
   256
 51
90.0
 52
90.0
 71
     2
 49
0.5
 62
   256
  6
BYLAYER
 49
-0.5
 62
   256
  6
BYLAYER
  0
ACDBPLACEHOLDER
  5
F
102
{ACAD_REACTORS
330
E
102
}
330
E
  0
VISUALSTYLE
  5
2F
102
{ACAD_REACTORS
330
2A
102
}
330
2A
100
AcDbVisualStyle
  2
2dWireframe
 70
     4
 71
     0
 72
     2
 73
     0
 90
        0
 40
-0.6
 41
-30.0
 62
     5
 63
     7
421
 16777215
 74
     1
 91
        4
 64
     7
 65
   257
 75
     1
175
     1
 42
1.0
 92
        0
 66
   257
 43
1.0
 76
     1
 77
     6
 78
     2
 67
     7
 79
     5
170
     0
171
     0
290
     0
174
     0
 93
        1
 44
0.0
173
     0
291
     0
 45
0.0
  0
VISUALSTYLE
  5
31
102
{ACAD_REACTORS
330
2A
102
}
330
2A
100
AcDbVisualStyle
  2
3D Hidden
 70
     6
 71
     1
 72
     2
 73
     2
 90
        0
 40
-0.6
 41
-30.0
 62
     5
 63
     7
421
 16777215
 74
     2
 91
        2
 64
     7
 65
   257
 75
     2
175
     1
 42
40.0
 92
        0
 66
   257
 43
1.0
 76
     1
 77
     6
 78
     2
 67
     7
 79
     3
170
     0
171
     0
290
     0
174
     0
 93
        1
 44
0.0
173
     0
291
     0
 45
0.0
  0
VISUALSTYLE
  5
30
102
{ACAD_REACTORS
330
2A
102
}
330
2A
100
AcDbVisualStyle
  2
3dWireframe
 70
     5
 71
     0
 72
     2
 73
     0
 90
        0
 40
-0.6
 41
-30.0
 62
     5
 63
     7
421
 16777215
 74
     1
 91
        4
 64
     7
 65
   257
 75
     1
175
     1
 42
1.0
 92
        0
 66
   257
 43
1.0
 76
     1
 77
     6
 78
     2
 67
     7
 79
     5
170
     0
171
     0
290
     0
174
     0
 93
        1
 44
0.0
173
     0
291
     0
 45
0.0
  0
VISUALSTYLE
  5
32
102
{ACAD_REACTORS
330
2A
102
}
330
2A
100
AcDbVisualStyle
  2
Basic
 70
     7
 71
     1
 72
     0
 73
     1
 90
        0
 40
-0.6
 41
-30.0
 62
     5
 63
     7
421
 16777215
 74
     0
 91
        4
 64
     7
 65
   257
 75
     1
175
     1
 42
1.0
 92
        8
 66
     7
 43
1.0
 76
     1
 77
     6
 78
     2
 67
     7
 79
     5
170
     0
171
     0
290
     0
174
     0
 93
        1
 44
0.0
173
     0
291
     1
 45
0.0
  0
VISUALSTYLE
  5
36
102
{ACAD_REACTORS
330
2A
102
}
330
2A
100
AcDbVisualStyle
  2
Brighten
 70
    12
 71
     2
 72
     2
 73
     0
 90
        0
 40
-0.6
 41
-30.0
 62
     5
 63
     7
421
 16777215
 74
     1
 91
        4
 64
     7
 65
   257
 75
     1
175
     1
 42
1.0
 92
        8
 66
     7
 43
1.0
 76
     1
 77
     6
 78
     2
 67
     7
 79
     5
170
     0
171
     0
290
     0
174
     0
 93
        1
 44
50.0
173
     0
291
     1
 45
0.0
  0
VISUALSTYLE
  5
3A
102
{ACAD_REACTORS
330
2A
102
}
330
2A
100
AcDbVisualStyle
  2
ColorChange
 70
    16
 71
     2
 72
     2
 73
     3
 90
        0
 40
-0.6
 41
-30.0
 62
     5
 63
     8
421
  8421504
 74
     1
 91
        4
 64
     7
 65
   257
 75
     1
175
     1
 42
1.0
 92
        8
 66
     8
424
  8421504
 43
1.0
 76
     1
 77
     6
 78
     2
 67
     7
 79
     5
170
     0
171
     0
290
     0
174
     0
 93
        1
 44
0.0
173
     0
291
     1
 45
0.0
  0
VISUALSTYLE
  5
34
102
{ACAD_REACTORS
330
2A
102
}
330
2A
100
AcDbVisualStyle
  2
Conceptual
 70
     9
 71
     3
 72
     2
 73
     0
 90
        0
 40
-0.6
 41
-30.0
 62
     5
 63
     7
421
 16777215
 74
     2
 91
        2
 64
     7
 65
   257
 75
     1
175
     1
 42
40.0
 92
        8
 66
     7
 43
1.0
 76
     1
 77
     6
 78
     2
 67
     7
 79
     3
170
     0
171
     0
290
     0
174
     0
 93
        1
 44
0.0
173
     0
291
     0
 45
0.0
  0
VISUALSTYLE
  5
35
102
{ACAD_REACTORS
330
2A
102
}
330
2A
100
AcDbVisualStyle
  2
Dim
 70
    11
 71
     2
 72
     2
 73
     0
 90
        0
 40
-0.6
 41
-30.0
 62
     5
 63
     7
421
 16777215
 74
     1
 91
        4
 64
     7
 65
   257
 75
     1
175
     1
 42
1.0
 92
        8
 66
     7
 43
1.0
 76
     1
 77
     6
 78
     2
 67
     7
 79
     5
170
     0
171
     0
290
     0
174
     0
 93
        1
 44
-50.0
173
     0
291
     1
 45
0.0
  0
VISUALSTYLE
  5
39
102
{ACAD_REACTORS
330
2A
102
}
330
2A
100
AcDbVisualStyle
  2
Facepattern
 70
    15
 71
     2
 72
     2
 73
     0
 90
        0
 40
-0.6
 41
-30.0
 62
     5
 63
     7
421
 16777215
 74
     1
 91
        4
 64
     7
 65
   257
 75
     1
175
     1
 42
1.0
 92
        8
 66
     7
 43
1.0
 76
     1
 77
     6
 78
     2
 67
     7
 79
     5
170
     0
171
     0
290
     0
174
     0
 93
        1
 44
0.0
173
     0
291
     1
 45
0.0
  0
VISUALSTYLE
  5
2B
102
{ACAD_REACTORS
330
2A
102
}
330
2A
100
AcDbVisualStyle
  2
Flat
 70
     0
 71
     2
 72
     1
 73
     1
 90
        2
 40
-0.6
 41
30.0
 62
     5
 63
     7
421
 16777215
 74
     0
 91
        4
 64
     7
 65
   257
 75
     1
175
     1
 42
1.0
 92
        8
 66
     7
 43
1.0
 76
     1
 77
     6
 78
     2
 67
     7
 79
     5
170
     0
171
     0
290
     0
174
     0
 93
       13
 44
0.0
173
     0
291
     1
 45
0.0
  0
VISUALSTYLE
  5
2C
102
{ACAD_REACTORS
330
2A
102
}
330
2A
100
AcDbVisualStyle
  2
FlatWithEdges
 70
     1
 71
     2
 72
     1
 73
     1
 90
        2
 40
-0.6
 41
30.0
 62
     5
 63
     7
421
 16777215
 74
     1
 91
        4
 64
     7
 65
   257
 75
     1
175
     1
 42
1.0
 92
        0
 66
   257
 43
1.0
 76
     1
 77
     6
 78
     2
 67
     7
 79
     5
170
     0
171
     0
290
     0
174
     0
 93
       13
 44
0.0
173
     0
291
     1
 45
0.0
  0
VISUALSTYLE
  5
2D
102
{ACAD_REACTORS
330
2A
102
}
330
2A
100
AcDbVisualStyle
  2
Gouraud
 70
     2
 71
     2
 72
     2
 73
     1
 90
        2
 40
-0.6
 41
30.0
 62
     5
 63
     7
421
 16777215
 74
     0
 91
        4
 64
     7
 65
   257
 75
     1
175
     1
 42
1.0
 92
        0
 66
     7
 43
1.0
 76
     1
 77
     6
 78
     2
 67
     7
 79
     5
170
     0
171
     0
290
     0
174
     0
 93
       13
 44
0.0
173
     0
291
     1
 45
0.0
  0
VISUALSTYLE
  5
2E
102
{ACAD_REACTORS
330
2A
102
}
330
2A
100
AcDbVisualStyle
  2
GouraudWithEdges
 70
     3
 71
     2
 72
     2
 73
     1
 90
        2
 40
-0.6
 41
30.0
 62
     5
 63
     7
421
 16777215
 74
     1
 91
        4
 64
     7
 65
   257
 75
     1
175
     1
 42
1.0
 92
        0
 66
   257
 43
1.0
 76
     1
 77
     6
 78
     2
 67
     7
 79
     5
170
     0
171
     0
290
     0
174
     0
 93
       13
 44
0.0
173
     0
291
     1
 45
0.0
  0
VISUALSTYLE
  5
38
102
{ACAD_REACTORS
330
2A
102
}
330
2A
100
AcDbVisualStyle
  2
Linepattern
 70
    14
 71
     2
 72
     2
 73
     0
 90
        0
 40
-0.6
 41
-30.0
 62
     5
 63
     7
421
 16777215
 74
     1
 91
        4
 64
     7
 65
   257
 75
     7
175
     7
 42
1.0
 92
        8
 66
     7
 43
1.0
 76
     1
 77
     6
 78
     2
 67
     7
 79
     5
170
     0
171
     0
290
     0
174
     0
 93
        1
 44
0.0
173
     0
291
     1
 45
0.0
  0
VISUALSTYLE
  5
33
102
{ACAD_REACTORS
330
2A
102
}
330
2A
100
AcDbVisualStyle
  2
Realistic
 70
     8
 71
     2
 72
     2
 73
     0
 90
        0
 40
-0.6
 41
-30.0
 62
     5
 63
     7
421
 16777215
 74
     1
 91
        0
 64
     7
 65
   257
 75
     1
175
     1
 42
1.0
 92
        8
 66
     8
424
  7895160
 43
1.0
 76
     1
 77
     6
 78
     2
 67
     7
 79
     5
170
     0
171
     0
290
     0
174
     0
 93
       13
 44
0.0
173
     0
291
     0
 45
0.0
  0
VISUALSTYLE
  5
37
102
{ACAD_REACTORS
330
2A
102
}
330
2A
100
AcDbVisualStyle
  2
Thicken
 70
    13
 71
     2
 72
     2
 73
     0
 90
        0
 40
-0.6
 41
-30.0
 62
     5
 63
     7
421
 16777215
 74
     1
 91
        4
 64
     7
 65
   257
 75
     1
175
     1
 42
1.0
 92
       12
 66
     7
 43
1.0
 76
     1
 77
     6
 78
     2
 67
     7
 79
     5
170
     0
171
     0
290
     0
174
     0
 93
        1
 44
0.0
173
     0
291
     1
 45
0.0
  0
ENDSEC
  0
EOF
