  0
SECTION
  2
HEADER
  9
$ACADVER
  1
AC1021
  9
$ACADMAINTVER
 70
    25
  9
$DWGCODEPAGE
  3
ANSI_1252
  9
$INSBASE
 10
0.0
 20
0.0
 30
0.0
  9
$EXTMIN
 10
0.0
 20
0.0
 30
0.0
  9
$EXTMAX
 10
841.0
 20
594.0
 30
0.0
  9
$LIMMIN
 10
0.0
 20
0.0
  9
$LIMMAX
 10
841.0
 20
594.0
  9
$ORTHOMODE
 70
     0
  9
$REGENMODE
 70
     1
  9
$FILLMODE
 70
     1
  9
$QTEXTMODE
 70
     0
  9
$MIRRTEXT
 70
     1
  9
$LTSCALE
 40
1.0
  9
$ATTMODE
 70
     1
  9
$TEXTSIZE
 40
3.5
  9
$TRACEWID
 40
1.0
  9
$TEXTSTYLE
  7
Standard
  9
$CLAYER
  8
0
  9
$CELTYPE
  6
ByLayer
  9
$CECOLOR
 62
   256
  9
$CELTSCALE
 40
1.0
  9
$DISPSILH
 70
     0
  9
$DIMSCALE
 40
1.0
  9
$DIMASZ
 40
3.302
  9
$DIMEXO
 40
1.0
  9
$DIMDLI
 40
3.75
  9
$DIMRND
 40
0.0
  9
$DIMDLE
 40
0.0
  9
$DIMEXE
 40
1.0
  9
$DIMTP
 40
0.0
  9
$DIMTM
 40
0.0
  9
$DIMTXT
 40
3.5
  9
$DIMCEN
 40
2.5
  9
$DIMTSZ
 40
0.0
  9
$DIMTOL
 70
     0
  9
$DIMLIM
 70
     0
  9
$DIMTIH
 70
     1
  9
$DIMTOH
 70
     1
  9
$DIMSE1
 70
     0
  9
$DIMSE2
 70
     0
  9
$DIMTAD
 70
     1
  9
$DIMZIN
 70
     0
  9
$DIMBLK
  1

  9
$DIMASO
 70
     1
  9
$DIMSHO
 70
     1
  9
$DIMPOST
  1

  9
$DIMAPOST
  1

  9
$DIMALT
 70
     0
  9
$DIMALTD
 70
     3
  9
$DIMALTF
 40
0.0393700787
  9
$DIMLFAC
 40
1.0
  9
$DIMTOFL
 70
     1
  9
$DIMTVP
 40
0.0
  9
$DIMTIX
 70
     0
  9
$DIMSOXD
 70
     0
  9
$DIMSAH
 70
     0
  9
$DIMBLK1
  1

  9
$DIMBLK2
  1

  9
$DIMSTYLE
  2
ISO-25
  9
$DIMCLRD
 70
     0
  9
$DIMCLRE
 70
     0
  9
$DIMCLRT
 70
     0
  9
$DIMTFAC
 40
1.0
  9
$DIMGAP
 40
1.524
  9
$DIMJUST
 70
     0
  9
$DIMSD1
 70
     0
  9
$DIMSD2
 70
     0
  9
$DIMTOLJ
 70
     0
  9
$DIMTZIN
 70
     0
  9
$DIMALTZ
 70
     0
  9
$DIMALTTZ
 70
     0
  9
$DIMUPT
 70
     0
  9
$DIMDEC
 70
     1
  9
$DIMTDEC
 70
     1
  9
$DIMALTU
 70
     2
  9
$DIMALTTD
 70
     3
  9
$DIMTXSTY
  7
Standard
  9
$DIMAUNIT
 70
     0
  9
$DIMADEC
 70
     1
  9
$DIMALTRND
 40
0.0
  9
$DIMAZIN
 70
     0
  9
$DIMDSEP
 70
    44
  9
$DIMATFIT
 70
     3
  9
$DIMFRAC
 70
     0
  9
$DIMLDRBLK
  1

  9
$DIMLUNIT
 70
     2
  9
$DIMLWD
 70
    -2
  9
$DIMLWE
 70
    -2
  9
$DIMTMOVE
 70
     0
  9
$DIMFXL
 40
1.0
  9
$DIMFXLON
 70
     0
  9
$DIMJOGANG
 40
0.7853981634
  9
$DIMTFILL
 70
     0
  9
$DIMTFILLCLR
 70
     0
  9
$DIMARCSYM
 70
     0
  9
$DIMLTYPE
  6

  9
$DIMLTEX1
  6

  9
$DIMLTEX2
  6

  9
$LUNITS
 70
     2
  9
$LUPREC
 70
     1
  9
$SKETCHINC
 40
1.0
  9
$FILLETRAD
 40
10.0
  9
$AUNITS
 70
     0
  9
$AUPREC
 70
     1
  9
$MENU
  1
.
  9
$ELEVATION
 40
0.0
  9
$PELEVATION
 40
0.0
  9
$THICKNESS
 40
0.0
  9
$LIMCHECK
 70
     0
  9
$CHAMFERA
 40
10.0
  9
$CHAMFERB
 40
10.0
  9
$CHAMFERC
 40
20.0
  9
$CHAMFERD
 40
0.0
  9
$SKPOLY
 70
     0
  9
$TDCREATE
 40
2455870.466295787
  9
$TDUCREATE
 40
2455870.466295787
  9
$TDUPDATE
 40
2455870.466295799
  9
$TDUUPDATE
 40
2455870.466295799
  9
$TDINDWG
 40
0.0000000116
  9
$TDUSRTIMER
 40
0.0000000116
  9
$USRTIMER
 70
     1
  9
$ANGBASE
 50
0.0
  9
$ANGDIR
 70
     0
  9
$PDMODE
 70
     0
  9
$PDSIZE
 40
-1.0
  9
$PLINEWID
 40
0.0
  9
$SPLFRAME
 70
     0
  9
$SPLINETYPE
 70
     6
  9
$SPLINESEGS
 70
     8
  9
$HANDSEED
  5
47A
  9
$SURFTAB1
 70
     6
  9
$SURFTAB2
 70
     6
  9
$SURFTYPE
 70
     6
  9
$SURFU
 70
     6
  9
$SURFV
 70
     6
  9
$UCSBASE
  2

  9
$UCSNAME
  2

  9
$UCSORG
 10
0.0
 20
0.0
 30
0.0
  9
$UCSXDIR
 10
1.0
 20
0.0
 30
0.0
  9
$UCSYDIR
 10
0.0
 20
1.0
 30
0.0
  9
$UCSORTHOREF
  2

  9
$UCSORTHOVIEW
 70
     0
  9
$UCSORGTOP
 10
0.0
 20
0.0
 30
0.0
  9
$UCSORGBOTTOM
 10
0.0
 20
0.0
 30
0.0
  9
$UCSORGLEFT
 10
0.0
 20
0.0
 30
0.0
  9
$UCSORGRIGHT
 10
0.0
 20
0.0
 30
0.0
  9
$UCSORGFRONT
 10
0.0
 20
0.0
 30
0.0
  9
$UCSORGBACK
 10
0.0
 20
0.0
 30
0.0
  9
$PUCSBASE
  2

  9
$PUCSNAME
  2

  9
$PUCSORG
 10
0.0
 20
0.0
 30
0.0
  9
$PUCSXDIR
 10
1.0
 20
0.0
 30
0.0
  9
$PUCSYDIR
 10
0.0
 20
1.0
 30
0.0
  9
$PUCSORTHOREF
  2

  9
$PUCSORTHOVIEW
 70
     0
  9
$PUCSORGTOP
 10
0.0
 20
0.0
 30
0.0
  9
$PUCSORGBOTTOM
 10
0.0
 20
0.0
 30
0.0
  9
$PUCSORGLEFT
 10
0.0
 20
0.0
 30
0.0
  9
$PUCSORGRIGHT
 10
0.0
 20
0.0
 30
0.0
  9
$PUCSORGFRONT
 10
0.0
 20
0.0
 30
0.0
  9
$PUCSORGBACK
 10
0.0
 20
0.0
 30
0.0
  9
$USERI1
 70
     0
  9
$USERI2
 70
     0
  9
$USERI3
 70
     0
  9
$USERI4
 70
     0
  9
$USERI5
 70
     0
  9
$USERR1
 40
0.0
  9
$USERR2
 40
0.0
  9
$USERR3
 40
0.0
  9
$USERR4
 40
0.0
  9
$USERR5
 40
0.0
  9
$WORLDVIEW
 70
     1
  9
$SHADEDGE
 70
     3
  9
$SHADEDIF
 70
    70
  9
$TILEMODE
 70
     1
  9
$MAXACTVP
 70
    64
  9
$PINSBASE
 10
0.0
 20
0.0
 30
0.0
  9
$PLIMCHECK
 70
     0
  9
$PEXTMIN
 10
1.0000000000E+20
 20
1.0000000000E+20
 30
1.0000000000E+20
  9
$PEXTMAX
 10
-1.0000000000E+20
 20
-1.0000000000E+20
 30
-1.0000000000E+20
  9
$PLIMMIN
 10
0.0
 20
0.0
  9
$PLIMMAX
 10
420.0
 20
297.0
  9
$UNITMODE
 70
     0
  9
$VISRETAIN
 70
     1
  9
$PLINEGEN
 70
     0
  9
$PSLTSCALE
 70
     1
  9
$TREEDEPTH
 70
  3020
  9
$CMLSTYLE
  2
Standard
  9
$CMLJUST
 70
     0
  9
$CMLSCALE
 40
20.0
  9
$PROXYGRAPHICS
 70
     1
  9
$MEASUREMENT
 70
     1
  9
$CELWEIGHT
370
    -1
  9
$ENDCAPS
280
     0
  9
$JOINSTYLE
280
     0
  9
$LWDISPLAY
290
     1
  9
$INSUNITS
 70
     4
  9
$HYPERLINKBASE
  1

  9
$STYLESHEET
  1

  9
$XEDIT
290
     1
  9
$CEPSNTYPE
380
     0
  9
$PSTYLEMODE
290
     1
  9
$FINGERPRINTGUID
  2
{1817739E-16DC-4280-B728-39E6FF830029}
  9
$VERSIONGUID
  2
{FAEB1C32-E019-11D5-929B-00C0DF256EC4}
  9
$EXTNAMES
290
     1
  9
$PSVPSCALE
 40
0.0
  9
$OLESTARTUP
290
     0
  9
$SORTENTS
280
   127
  9
$INDEXCTL
280
     0
  9
$HIDETEXT
280
     1
  9
$XCLIPFRAME
290
     0
  9
$HALOGAP
280
     0
  9
$OBSCOLOR
 70
   257
  9
$OBSLTYPE
280
     0
  9
$INTERSECTIONDISPLAY
280
     0
  9
$INTERSECTIONCOLOR
 70
   257
  9
$DIMASSOC
280
     2
  9
$PROJECTNAME
  1

  9
$CAMERADISPLAY
290
     0
  9
$LENSLENGTH
 40
50.0
  9
$CAMERAHEIGHT
 40
0.0
  9
$STEPSPERSEC
 40
2.0
  9
$STEPSIZE
 40
6.0
  9
$3DDWFPREC
 40
2.0
  9
$PSOLWIDTH
 40
5.0
  9
$PSOLHEIGHT
 40
80.0
  9
$LOFTANG1
 40
1.5707963268
  9
$LOFTANG2
 40
1.5707963268
  9
$LOFTMAG1
 40
0.0
  9
$LOFTMAG2
 40
0.0
  9
$LOFTPARAM
 70
     7
  9
$LOFTNORMALS
280
     1
  9
$LATITUDE
 40
37.795
  9
$LONGITUDE
 40
-122.394
  9
$NORTHDIRECTION
 40
0.0
  9
$TIMEZONE
 70
 -8000
  9
$LIGHTGLYPHDISPLAY
280
     1
  9
$TILEMODELIGHTSYNCH
280
     1
  9
$SOLIDHIST
280
     1
  9
$SHOWHIST
280
     1
  9
$DWFFRAME
280
     2
  9
$DGNFRAME
280
     2
  9
$REALWORLDSCALE
290
     1
  9
$INTERFERECOLOR
 62
   256
  9
$CSHADOW
280
     0
  9
$SHADOWPLANELOCATION
 40
0.0
  0
ENDSEC
  0
SECTION
  2
CLASSES
  0
CLASS
  1
ACDBDICTIONARYWDFLT
  2
AcDbDictionaryWithDefault
  3
ObjectDBX Classes
 90
        0
 91
        4
280
     0
281
     0
  0
CLASS
  1
VISUALSTYLE
  2
AcDbVisualStyle
  3
ObjectDBX Classes
 90
     4095
 91
        4
280
     0
281
     0
  0
CLASS
  1
MATERIAL
  2
AcDbMaterial
  3
ObjectDBX Classes
 90
     1153
 91
        4
280
     0
281
     0
  0
ENDSEC
  0
SECTION
  2
TABLES
  0
TABLE
  2
VPORT
  5
8
330
0
100
AcDbSymbolTable
 70
     1
  0
VPORT
  5
29
330
8
100
AcDbSymbolTableRecord
100
AcDbViewportTableRecord
  2
*Active
 70
     0
 10
0.0
 20
0.0
 11
1.0
 21
1.0
 12
420.5
 22
297.0
 13
0.0
 23
0.0
 14
10.0
 24
10.0
 15
10.0
 25
10.0
 16
0.0
 26
0.0
 36
1.0
 17
0.0
 27
0.0
 37
0.0
 40
594.0
 41
1.4158249158
 42
50.0
 43
0.0
 44
0.0
 50
0.0
 51
0.0
 71
     0
 72
  2000
 73
     1
 74
     3
 75
     0
 76
     0
 77
     0
 78
     0
281
     0
 65
     1
110
0.0
120
0.0
130
0.0
111
1.0
121
0.0
131
0.0
112
0.0
122
1.0
132
0.0
 79
     0
146
0.0
 60
     3
 61
     5
292
     1
282
     1
141
0.0
142
0.0
 63
   250
  0
ENDTAB
  0
TABLE
  2
LTYPE
  5
5
330
0
100
AcDbSymbolTable
 70
     6
  0
LTYPE
  5
14
330
5
100
AcDbSymbolTableRecord
100
AcDbLinetypeTableRecord
  2
ByBlock
 70
     0
  3

 72
    65
 73
     0
 40
0.0
  0
LTYPE
  5
15
330
5
100
AcDbSymbolTableRecord
100
AcDbLinetypeTableRecord
  2
ByLayer
 70
     0
  3

 72
    65
 73
     0
 40
0.0
  0
LTYPE
  5
16
330
5
100
AcDbSymbolTableRecord
100
AcDbLinetypeTableRecord
  2
Continuous
 70
     0
  3
Solid line
 72
    65
 73
     0
 40
0.0
  0
LTYPE
  5
3F
330
5
100
AcDbSymbolTableRecord
100
AcDbLinetypeTableRecord
  2
HIDDEN
 70
     0
  3
Hidden __ __ __ __ __ __ __ __ __ __ __ __ __ __
 72
    65
 73
     2
 40
1.905
 49
1.27
 74
     0
 49
-0.635
 74
     0
  0
LTYPE
  5
40
330
5
100
AcDbSymbolTableRecord
100
AcDbLinetypeTableRecord
  2
PHANTOM
 70
     0
  3
Phantom ______  __  __  ______  __  __  ______
 72
    65
 73
     6
 40
12.7
 49
6.35
 74
     0
 49
-1.27
 74
     0
 49
1.27
 74
     0
 49
-1.27
 74
     0
 49
1.27
 74
     0
 49
-1.27
 74
     0
  0
LTYPE
  5
41
330
5
100
AcDbSymbolTableRecord
100
AcDbLinetypeTableRecord
  2
CENTER
 70
     0
  3
Center ____ _ ____ _ ____ _ ____ _ ____ _ ____
 72
    65
 73
     4
 40
10.16
 49
6.35
 74
     0
 49
-1.27
 74
     0
 49
1.27
 74
     0
 49
-1.27
 74
     0
  0
LTYPE
  5
42
330
5
100
AcDbSymbolTableRecord
100
AcDbLinetypeTableRecord
  2
CENTERX2
 70
     0
  3
Center (2x) ________  __  ________  __  _____
 72
    65
 73
     4
 40
20.32
 49
12.7
 74
     0
 49
-2.54
 74
     0
 49
2.54
 74
     0
 49
-2.54
 74
     0
  0
LTYPE
  5
43
330
5
100
AcDbSymbolTableRecord
100
AcDbLinetypeTableRecord
  2
DOT2
 70
     0
  3
Dot (.5x) ........................................
 72
    65
 73
     2
 40
0.635
 49
0.0
 74
     0
 49
-0.635
 74
     0
  0
ENDTAB
  0
TABLE
  2
LAYER
  5
2
330
0
100
AcDbSymbolTable
 70
     4
  0
LAYER
  5
10
330
2
100
AcDbSymbolTableRecord
100
AcDbLayerTableRecord
  2
0
 70
     0
 62
     7
  6
Continuous
370
    -3
390
F
347
3E
  0
LAYER
  5
44
330
2
100
AcDbSymbolTableRecord
100
AcDbLayerTableRecord
  2
FORMAT
 70
     0
 62
     7
  6
Continuous
370
    -3
390
F
347
3E
  0
LAYER
  5
45
330
2
100
AcDbSymbolTableRecord
100
AcDbLayerTableRecord
  2
SLD-0
 70
     0
 62
     1
  6
Continuous
370
    -3
390
F
347
3E
  0
LAYER
  5
46
330
2
100
AcDbSymbolTableRecord
100
AcDbLayerTableRecord
  2
WATERMARK
 70
     0
 62
     1
  6
Continuous
370
    -3
390
F
347
3E
  0
ENDTAB
  0
TABLE
  2
STYLE
  5
3
330
0
100
AcDbSymbolTable
 70
     1
  0
STYLE
  5
11
330
3
100
AcDbSymbolTableRecord
100
AcDbTextStyleTableRecord
  2
Standard
 70
     0
 40
0.0
 41
1.0
 50
0.0
 71
     0
 42
2.5
  3
txt
  4

  0
ENDTAB
  0
TABLE
  2
VIEW
  5
6
330
0
100
AcDbSymbolTable
 70
     0
  0
ENDTAB
  0
TABLE
  2
UCS
  5
7
330
0
100
AcDbSymbolTable
 70
     0
  0
ENDTAB
  0
TABLE
  2
APPID
  5
9
330
0
100
AcDbSymbolTable
 70
     1
  0
APPID
  5
12
330
9
100
AcDbSymbolTableRecord
100
AcDbRegAppTableRecord
  2
ACAD
 70
     0
  0
ENDTAB
  0
TABLE
  2
DIMSTYLE
  5
A
330
0
100
AcDbSymbolTable
 70
     1
100
AcDbDimStyleTable
  0
DIMSTYLE
105
27
330
A
100
AcDbSymbolTableRecord
100
AcDbDimStyleTableRecord
  2
ISO-25
 70
     0
 41
2.5
 42
0.625
 43
3.75
 44
1.25
 73
     0
 74
     0
 77
     1
 78
     8
140
2.5
141
2.5
143
0.0393700787
147
0.625
171
     3
172
     1
178
     0
271
     2
272
     2
274
     3
278
    44
283
     0
284
     8
340
11
  0
ENDTAB
  0
TABLE
  2
BLOCK_RECORD
  5
1
330
0
100
AcDbSymbolTable
 70
     1
  0
BLOCK_RECORD
  5
1F
330
1
100
AcDbSymbolTableRecord
100
AcDbBlockTableRecord
  2
*Model_Space
340
22
 70
     0
280
     1
281
     0
  0
BLOCK_RECORD
  5
1B
330
1
100
AcDbSymbolTableRecord
100
AcDbBlockTableRecord
  2
*Paper_Space
340
1E
 70
     0
280
     1
281
     0
  0
BLOCK_RECORD
  5
23
330
1
100
AcDbSymbolTableRecord
100
AcDbBlockTableRecord
  2
*Paper_Space0
340
26
 70
     0
280
     1
281
     0
  0
ENDTAB
  0
ENDSEC
  0
SECTION
  2
BLOCKS
  0
BLOCK
  5
20
330
1F
100
AcDbEntity
  8
0
100
AcDbBlockBegin
  2
*Model_Space
 70
     0
 10
0.0
 20
0.0
 30
0.0
  3
*Model_Space
  1

  0
ENDBLK
  5
21
330
1F
100
AcDbEntity
  8
0
100
AcDbBlockEnd
  0
BLOCK
  5
1C
330
1B
100
AcDbEntity
 67
     1
  8
0
100
AcDbBlockBegin
  2
*Paper_Space
 70
     0
 10
0.0
 20
0.0
 30
0.0
  3
*Paper_Space
  1

  0
ENDBLK
  5
1D
330
1B
100
AcDbEntity
 67
     1
  8
0
100
AcDbBlockEnd
  0
BLOCK
  5
24
330
23
100
AcDbEntity
  8
0
100
AcDbBlockBegin
  2
*Paper_Space0
 70
     0
 10
0.0
 20
0.0
 30
0.0
  3
*Paper_Space0
  1

  0
ENDBLK
  5
25
330
23
100
AcDbEntity
  8
0
100
AcDbBlockEnd
  0
ENDSEC
  0
SECTION
  2
ENTITIES
  0
LINE
  5
47
330
1F
100
AcDbEntity
  8
0
  6
Continuous
 62
     7
370
    15
100
AcDbLine
 10
765.4665850222
 20
280.0985527758
 30
0.0
 11
766.4665721476
 21
280.0985527758
 31
0.0
  0
LINE
  5
48
330
1F
100
AcDbEntity
  8
0
  6
Continuous
 62
     7
370
    15
100
AcDbLine
 10
766.4665721476
 20
284.0985012774
 30
0.0
 11
765.4665850222
 21
284.0985012774
 31
0.0
  0
LINE
  5
49
330
1F
100
AcDbEntity
  8
0
  6
Continuous
 62
     7
370
    15
100
AcDbLine
 10
773.9665947973
 20
218.6584425692
 30
0.0
 11
767.966582638
 21
218.6584425692
 31
0.0
  0
LINE
  5
4A
330
1F
100
AcDbEntity
  8
0
  6
Continuous
 62
     7
370
    15
100
AcDbLine
 10
767.966582638
 20
198.6584616427
 30
0.0
 11
773.9665947973
 21
198.6584616427
 31
0.0
  0
LINE
  5
4B
330
1F
100
AcDbEntity
  8
0
  6
Continuous
 62
     7
370
    15
100
AcDbLine
 10
773.9665947973
 20
-206.491534638
 30
0.0
 11
768.0815003931
 21
-207.962756085
 31
0.0
  0
LINE
  5
4C
330
1F
100
AcDbEntity
  8
0
  6
Continuous
 62
     7
370
    15
100
AcDbLine
 10
768.0815003931
 20
-215.7202409979
 30
0.0
 11
773.9665947973
 21
-217.1915220495
 31
0.0
  0
ARC
  5
4D
330
1F
100
AcDbEntity
  8
0
  6
Continuous
 62
     7
370
    15
100
AcDbCircle
 10
768.5665861761
 20
-213.7799521623
 30
0.0
 40
2.000000000006201
100
AcDbArc
 50
180.0
 51
255.9637565331
  0
ARC
  5
4E
330
1F
100
AcDbEntity
  8
0
  6
Continuous
 62
     7
370
    15
100
AcDbCircle
 10
768.5665861761
 20
-209.9030577879
 30
0.0
 40
2.000000000006201
100
AcDbArc
 50
104.0362434669
 51
180.0
  0
LINE
  5
4F
330
1F
100
AcDbEntity
  8
0
  6
Continuous
 62
     7
370
    15
100
AcDbLine
 10
18.9165614664
 20
350.3931713823
 30
0.0
 11
18.9165614664
 21
347.3931504015
 31
0.0
  0
LINE
  5
50
330
1F
100
AcDbEntity
  8
0
  6
Continuous
 62
     7
370
    15
100
AcDbLine
 10
41.4165996134
 20
347.3931504015
 30
0.0
 11
41.4165996134
 21
350.3931713823
 31
0.0
  0
LINE
  5
51
330
1F
100
AcDbEntity
  8
0
  6
Continuous
 62
     7
370
    15
100
AcDbLine
 10
40.6665347635
 20
359.3931151156
 30
0.0
 11
40.6665347635
 21
364.9585200075
 31
0.0
  0
LINE
  5
52
330
1F
100
AcDbEntity
  8
0
  6
Continuous
 62
     7
370
    15
100
AcDbLine
 10
19.6666263163
 20
364.9585200075
 30
0.0
 11
19.6666263163
 21
359.3931151156
 31
0.0
  0
LINE
  5
53
330
1F
100
AcDbEntity
  8
0
  6
Continuous
 62
     7
370
    15
100
AcDbLine
 10
39.1666434824
 20
369.4585514788
 30
0.0
 11
38.1665967524
 21
369.9585152392
 31
0.0
  0
LINE
  5
54
330
1F
100
AcDbEntity
  8
0
  6
Continuous
 62
     7
370
    15
100
AcDbLine
 10
22.1665643274
 20
369.9585152392
 30
0.0
 11
21.1666368067
 21
369.4585514788
 31
0.0
  0
LINE
  5
55
330
1F
100
AcDbEntity
  8
0
  6
Continuous
 62
     7
370
    15
100
AcDbLine
 10
39.1666434824
 20
364.9585200075
 30
0.0
 11
39.1666434824
 21
369.4585514788
 31
0.0
  0
LINE
  5
56
330
1F
100
AcDbEntity
  8
0
  6
Continuous
 62
     7
370
    15
100
AcDbLine
 10
21.1666368067
 20
369.4585514788
 30
0.0
 11
21.1666368067
 21
364.9585200075
 31
0.0
  0
LINE
  5
57
330
1F
100
AcDbEntity
  8
0
  6
Continuous
 62
     7
370
    15
100
AcDbLine
 10
38.1665967524
 20
369.9585152392
 30
0.0
 11
38.1665967524
 21
379.9084378008
 31
0.0
  0
LINE
  5
58
330
1F
100
AcDbEntity
  8
0
  6
Continuous
 62
     7
370
    15
100
AcDbLine
 10
22.1665643274
 20
379.9084378008
 30
0.0
 11
22.1665643274
 21
369.9585152392
 31
0.0
  0
LINE
  5
59
330
1F
100
AcDbEntity
  8
0
  6
Continuous
 62
     7
370
    15
100
AcDbLine
 10
16.6666053354
 20
359.3931151156
 30
0.0
 11
16.6666053354
 21
350.3931713823
 31
0.0
  0
LINE
  5
5A
330
1F
100
AcDbEntity
  8
0
  6
Continuous
 62
     7
370
    15
100
AcDbLine
 10
43.6665557444
 20
350.3931713823
 30
0.0
 11
43.6665557444
 21
359.3931151156
 31
0.0
  0
LINE
  5
5B
330
1F
100
AcDbEntity
  8
0
  6
Continuous
 62
     7
370
    15
100
AcDbLine
 10
35.6665395319
 20
68.708474708
 30
0.0
 11
35.6665395319
 21
80.7084990267
 31
0.0
  0
LINE
  5
5C
330
1F
100
AcDbEntity
  8
0
  6
Continuous
 62
     7
370
    15
100
AcDbLine
 10
8.666589123
 20
80.7084990267
 30
0.0
 11
8.666589123
 21
68.708474708
 31
0.0
  0
ARC
  5
5D
330
1F
100
AcDbEntity
  8
0
  6
Continuous
 62
     7
370
    15
100
AcDbCircle
 10
11.1665861788
 20
66.9014954931
 30
0.0
 40
0.9999999999999374
100
AcDbArc
 50
180.0
 51
249.4439547804
  0
ARC
  5
5E
330
1F
100
AcDbEntity
  8
0
  6
Continuous
 62
     7
370
    15
100
AcDbCircle
 10
33.1665861788
 20
66.9014954931
 30
0.0
 40
0.9999999999998612
100
AcDbArc
 50
290.5560452196
 51
0.0
  0
LINE
  5
5F
330
1F
100
AcDbEntity
  8
0
  6
Continuous
 62
     7
370
    15
100
AcDbLine
 10
10.1665996134
 20
68.708474708
 30
0.0
 11
10.1665996134
 21
66.901500297
 31
0.0
  0
LINE
  5
60
330
1F
100
AcDbEntity
  8
0
  6
Continuous
 62
     7
370
    15
100
AcDbLine
 10
34.1665290415
 20
66.901500297
 30
0.0
 11
34.1665290415
 21
68.708474708
 31
0.0
  0
LINE
  5
61
330
1F
100
AcDbEntity
  8
0
  6
Continuous
 62
     7
370
    15
100
AcDbLine
 10
10.8154557764
 20
65.9651709322
 30
0.0
 11
13.517691952
 21
64.9518323664
 31
0.0
  0
LINE
  5
62
330
1F
100
AcDbEntity
  8
0
  6
Continuous
 62
     7
370
    15
100
AcDbLine
 10
32.8332923472
 20
65.7085133318
 30
0.0
 11
33.5176728785
 21
65.9651709322
 31
0.0
  0
LINE
  5
63
330
1F
100
AcDbEntity
  8
0
  6
Continuous
 62
     7
370
    15
100
AcDbLine
 10
30.8154367029
 20
64.9518323664
 30
0.0
 11
32.5666211664
 21
65.6084967379
 31
0.0
  0
LINE
  5
64
330
1F
100
AcDbEntity
  8
0
  6
Continuous
 62
     7
370
    15
100
AcDbLine
 10
51.6819499552
 20
45.4584909205
 30
0.0
 11
54.681970936
 21
45.4584909205
 31
0.0
  0
LINE
  5
65
330
1F
100
AcDbEntity
  8
0
  6
Continuous
 62
     7
370
    15
100
AcDbLine
 10
54.681970936
 20
67.9584694628
 30
0.0
 11
51.6819499552
 21
67.9584694628
 31
0.0
  0
LINE
  5
66
330
1F
100
AcDbEntity
  8
0
  6
Continuous
 62
     7
370
    15
100
AcDbLine
 10
32.5666211664
 20
65.6084967379
 30
0.0
 11
32.1166060984
 21
64.7084666018
 31
0.0
  0
LINE
  5
67
330
1F
100
AcDbEntity
  8
0
  6
Continuous
 62
     7
370
    15
100
AcDbLine
 10
32.1166060984
 20
48.7084937815
 30
0.0
 11
32.6165698588
 21
47.7085066561
 31
0.0
  0
LINE
  5
68
330
1F
100
AcDbEntity
  8
0
  6
Continuous
 62
     7
370
    15
100
AcDbLine
 10
35.1936362803
 20
65.7085133318
 30
0.0
 11
32.8332923472
 21
65.7085133318
 31
0.0
  0
LINE
  5
69
330
1F
100
AcDbEntity
  8
0
  6
Continuous
 62
     7
370
    15
100
AcDbLine
 10
32.6165698588
 20
47.7085066561
 30
0.0
 11
35.1936362803
 21
47.7085066561
 31
0.0
  0
ARC
  5
6A
330
1F
100
AcDbEntity
  8
0
  6
Continuous
 62
     7
370
    15
100
AcDbCircle
 10
13.1665861788
 20
64.0154945567
 30
0.0
 40
1.000000000000213
100
AcDbArc
 50
0.0
 51
69.4439547804
  0
ARC
  5
6B
330
1F
100
AcDbEntity
  8
0
  6
Continuous
 62
     7
370
    15
100
AcDbCircle
 10
31.1665861788
 20
64.0154945567
 30
0.0
 40
1.000000000000197
100
AcDbArc
 50
110.5560452196
 51
137.1170737127
  0
LINE
  5
6C
330
1F
100
AcDbEntity
  8
0
  6
Continuous
 62
     7
370
    15
100
AcDbLine
 10
32.1166060984
 20
64.7084666018
 30
0.0
 11
30.4456494867
 21
64.7084666018
 31
0.0
  0
LINE
  5
6D
330
1F
100
AcDbEntity
  8
0
  6
Continuous
 62
     7
370
    15
100
AcDbLine
 10
14.1638063013
 20
48.7084937815
 30
0.0
 11
32.1166060984
 21
48.7084937815
 31
0.0
  0
LINE
  5
6E
330
1F
100
AcDbEntity
  8
0
  6
Continuous
 62
     7
370
    15
100
AcDbLine
 10
14.166548115
 20
64.0155030016
 30
0.0
 11
14.166548115
 21
48.7056923632
 31
0.0
  0
LINE
  5
6F
330
1F
100
AcDbEntity
  8
0
  6
Continuous
 62
     7
370
    15
100
AcDbLine
 10
764.9665914595
 20
-1.6915249105
 30
0.0
 11
772.4665843069
 21
1.3084960703
 31
0.0
  0
LINE
  5
70
330
1F
100
AcDbEntity
  8
0
  6
Continuous
 62
     7
370
    15
100
AcDbLine
 10
772.4665843069
 20
58.3084774737
 30
0.0
 11
769.4301746904
 21
59.5230413202
 31
0.0
  0
LINE
  5
71
330
1F
100
AcDbEntity
  8
0
  6
Continuous
 62
     7
370
    15
100
AcDbLine
 10
772.9225598394
 20
58.1033182863
 30
0.0
 11
772.4665843069
 21
58.3084774737
 31
0.0
  0
LINE
  5
72
330
1F
100
AcDbEntity
  8
0
  6
Continuous
 62
     7
370
    15
100
AcDbLine
 10
772.4665843069
 20
1.3084960703
 30
0.0
 11
773.9665947973
 21
1.9835186724
 31
0.0
  0
LINE
  5
73
330
1F
100
AcDbEntity
  8
0
  6
Continuous
 62
     7
370
    15
100
AcDbLine
 10
769.4364927828
 20
59.5313263659
 30
0.0
 11
764.9665914595
 21
61.3192868952
 31
0.0
  0
LINE
  5
74
330
1F
100
AcDbEntity
  8
0
  6
Continuous
 62
     7
370
    15
100
AcDbLine
 10
68.4666179239
 20
467.7084637407
 30
0.0
 11
28.4665368616
 21
467.7084637407
 31
0.0
  0
LINE
  5
75
330
1F
100
AcDbEntity
  8
0
  6
Continuous
 62
     7
370
    15
100
AcDbLine
 10
198.7666033327
 20
1204.8767758135
 30
0.0
 11
198.7666033327
 21
1218.6084938769
 31
0.0
  0
LINE
  5
76
330
1F
100
AcDbEntity
  8
0
  6
Continuous
 62
     7
370
    15
100
AcDbLine
 10
198.7666033327
 20
1185.9084320788
 30
0.0
 11
198.7666033327
 21
1200.497264934
 31
0.0
  0
LINE
  5
77
330
1F
100
AcDbEntity
  8
0
  6
Continuous
 62
     7
370
    15
100
AcDbLine
 10
176.7665885508
 20
1200.4252625231
 30
0.0
 11
176.7665885508
 21
1185.9084320788
 31
0.0
  0
LINE
  5
78
330
1F
100
AcDbEntity
  8
0
  6
Continuous
 62
     7
370
    15
100
AcDbLine
 10
176.7665885508
 20
1218.6084938769
 30
0.0
 11
176.7665885508
 21
1204.7923756365
 31
0.0
  0
LINE
  5
79
330
1F
100
AcDbEntity
  8
0
  6
Continuous
 62
     7
370
    15
100
AcDbLine
 10
-21.5334154547
 20
409.9085283999
 30
0.0
 11
-21.0334516943
 21
409.9085283999
 31
0.0
  0
LINE
  5
7A
330
1F
100
AcDbEntity
  8
0
  6
Continuous
 62
     7
370
    15
100
AcDbLine
 10
-21.0334516943
 20
417.9085446123
 30
0.0
 11
-21.5334154547
 21
417.9085446123
 31
0.0
  0
LINE
  5
7B
330
1F
100
AcDbEntity
  8
0
  6
Continuous
 62
     7
370
    15
100
AcDbLine
 10
11.1665271341
 20
167.5084782366
 30
0.0
 11
11.1665271341
 21
80.7084990267
 31
0.0
  0
LINE
  5
7C
330
1F
100
AcDbEntity
  8
0
  6
Continuous
 62
     7
370
    15
100
AcDbLine
 10
33.1666015207
 20
80.7084990267
 30
0.0
 11
33.1666015207
 21
167.5084782366
 31
0.0
  0
LINE
  5
7D
330
1F
100
AcDbEntity
  8
0
  6
Continuous
 62
     7
370
    15
100
AcDbLine
 10
724.9665998041
 20
204.9084854845
 30
0.0
 11
725.4665933668
 21
204.9084854845
 31
0.0
  0
LINE
  5
7E
330
1F
100
AcDbEntity
  8
0
  6
Continuous
 62
     7
370
    15
100
AcDbLine
 10
725.4665933668
 20
658.4085179094
 30
0.0
 11
724.9665998041
 21
658.4085179094
 31
0.0
  0
LINE
  5
7F
330
1F
100
AcDbEntity
  8
0
  6
Continuous
 62
     7
370
    15
100
AcDbLine
 10
724.9665998041
 20
650.408501697
 30
0.0
 11
725.4665933668
 21
650.408501697
 31
0.0
  0
LINE
  5
80
330
1F
100
AcDbEntity
  8
0
  6
Continuous
 62
     7
370
    15
100
AcDbLine
 10
428.9665959894
 20
-266.0915302511
 30
0.0
 11
428.9665959894
 21
-265.5915068861
 31
0.0
  0
LINE
  5
81
330
1F
100
AcDbEntity
  8
0
  6
Continuous
 62
     7
370
    15
100
AcDbLine
 10
420.966579777
 20
-265.5915068861
 30
0.0
 11
420.966579777
 21
-266.0915302511
 31
0.0
  0
LINE
  5
82
330
1F
100
AcDbEntity
  8
0
  6
Continuous
 62
     7
370
    15
100
AcDbLine
 10
725.4665933668
 20
-231.5915273901
 30
0.0
 11
724.9665998041
 21
-231.5915273901
 31
0.0
  0
LINE
  5
83
330
1F
100
AcDbEntity
  8
0
  6
Continuous
 62
     7
370
    15
100
AcDbLine
 10
724.9665998041
 20
-239.5914839979
 30
0.0
 11
725.4665933668
 21
-239.5914839979
 31
0.0
  0
LINE
  5
84
330
1F
100
AcDbEntity
  8
0
  6
Continuous
 62
     7
370
    15
100
AcDbLine
 10
725.4665933668
 20
213.4084654574
 30
0.0
 11
724.9665998041
 21
213.4084654574
 31
0.0
  0
LINE
  5
85
330
1F
100
AcDbEntity
  8
0
  6
Continuous
 62
     7
370
    15
100
AcDbLine
 10
724.9665998041
 20
205.4084492449
 30
0.0
 11
725.4665933668
 21
205.4084492449
 31
0.0
  0
LINE
  5
86
330
1F
100
AcDbEntity
  8
0
  6
Continuous
 62
     7
370
    15
100
AcDbLine
 10
814.3908225119
 20
-184.3624758001
 30
0.0
 11
814.3908225119
 21
-184.3624161955
 31
0.0
  0
LINE
  5
87
330
1F
100
AcDbEntity
  8
0
  6
Continuous
 62
     7
370
    15
100
AcDbLine
 10
867.9333172857
 20
777.4349404101
 30
0.0
 11
846.6613434374
 21
777.0636034731
 31
0.0
  0
LINE
  5
88
330
1F
100
AcDbEntity
  8
0
  6
Continuous
 62
     7
370
    15
100
AcDbLine
 10
847.466572386
 20
740.1392412905
 30
0.0
 11
867.9333172857
 21
739.782090259
 31
0.0
  0
SPLINE
  5
89
330
1F
100
AcDbEntity
  8
0
  6
Continuous
 62
     7
370
    15
100
AcDbSpline
210
0.0
220
0.0
230
1.0
 70
     8
 71
     3
 72
     9
 73
     5
 74
     0
 42
0.00000001
 43
0.00000001
 40
0.0
 40
0.0
 40
0.0
 40
0.0
 40
0.501014473656577
 40
1.0
 40
1.0
 40
1.0
 40
1.0
 10
868.8551329195122
 20
777.3605538133736
 30
0.0
 10
868.6020406083672
 20
777.3638397701943
 30
0.0
 10
868.0968809284525
 20
777.3703983767681
 30
0.0
 10
867.6068121925811
 20
777.1738417383258
 30
0.0
 10
867.3622749864678
 20
777.0757628206368
 30
0.0
  0
SPLINE
  5
8A
330
1F
100
AcDbEntity
  8
0
  6
Continuous
 62
     7
370
    15
100
AcDbSpline
210
0.0
220
0.0
230
1.0
 70
     8
 71
     3
 72
     9
 73
     5
 74
     0
 42
0.00000001
 43
0.00000001
 40
0.0
 40
0.0
 40
0.0
 40
0.0
 40
0.4994862234803756
 40
1.0
 40
1.0
 40
1.0
 40
1.0
 10
867.3586093008141
 20
740.14603621999
 30
0.0
 10
867.6037277255502
 20
740.0466160121799
 30
0.0
 10
868.0944688375438
 20
739.8475710673216
 30
0.0
 10
868.6014045910646
 20
739.8535062266576
 30
0.0
 10
868.8551329195122
 20
739.856476855671
 30
0.0
  0
ARC
  5
8B
330
1F
100
AcDbEntity
  8
0
  6
Continuous
 62
     7
370
    15
100
AcDbCircle
 10
846.6665861761
 20
776.763685846
 30
0.0
 40
0.3000000000000507
100
AcDbArc
 50
91.0
 51
131.8103148958
  0
ARC
  5
8C
330
1F
100
AcDbEntity
  8
0
  6
Continuous
 62
     7
370
    15
100
AcDbCircle
 10
696.3665861761
 20
758.6084950249
 30
0.0
 40
186.6172676706113
100
AcDbArc
 50
355.9141588402
 51
4.0872355801
  0
SPLINE
  5
8D
330
1F
100
AcDbEntity
  8
0
  6
Continuous
 62
     7
370
    15
100
AcDbSpline
210
0.0
220
0.0
230
1.0
 70
     8
 71
     3
 72
    22
 73
    18
 74
     0
 42
0.00000001
 43
0.00000001
 40
0.0
 40
0.0
 40
0.0
 40
0.0
 40
0.0535289198724945
 40
0.0998591028935451
 40
0.1390278406066134
 40
0.1711201263261912
 40
0.1962834548345093
 40
0.224187996322492
 40
0.2589106874168491
 40
0.3007415888208775
 40
0.3496849786869757
 40
0.4260197748464039
 40
0.5150466445387543
 40
0.6168284340123132
 40
0.7314669577851796
 40
0.8591166043134735
 40
1.0
 40
1.0
 40
1.0
 40
1.0
 10
882.5092457353692
 20
771.9110203508494
 30
0.0
 10
882.406679189215
 20
772.498307738303
 30
0.0
 10
882.2153395673762
 20
773.5939022653635
 30
0.0
 10
881.4130409161596
 20
774.8283732836383
 30
0.0
 10
880.6039638300289
 20
775.6279658711061
 30
0.0
 10
879.9214873932291
 20
776.0937463355042
 30
0.0
 10
879.4306713689452
 20
776.354417089372
 30
0.0
 10
879.1908303731933
 20
776.458657762492
 30
0.0
 10
878.8657746575024
 20
776.5872604816153
 30
0.0
 10
878.5026532285407
 20
776.7040204459179
 30
0.0
 10
877.9970116724483
 20
776.8377018084562
 30
0.0
 10
877.3066154542844
 20
776.9754866363487
 30
0.0
 10
876.3448508877967
 20
777.1098558692506
 30
0.0
 10
875.0976864219701
 20
777.2247667576924
 30
0.0
 10
873.4844361520484
 20
777.3119111004338
 30
0.0
 10
871.4453921873749
 20
777.3657483469157
 30
0.0
 10
869.7464613752908
 20
777.3623412929583
 30
0.0
 10
868.8551329195122
 20
777.3605538133736
 30
0.0
  0
SPLINE
  5
8E
330
1F
100
AcDbEntity
  8
0
  6
Continuous
 62
     7
370
    15
100
AcDbSpline
210
0.0
220
0.0
230
1.0
 70
     8
 71
     3
 72
    18
 73
    14
 74
     0
 42
0.00000001
 43
0.00000001
 40
0.0
 40
0.0
 40
0.0
 40
0.0
 40
0.1413693289599496
 40
0.2708666157309812
 40
0.3887128497577579
 40
0.4950676148366929
 40
0.5900385686880483
 40
0.6605370070838354
 40
0.7239598028328674
 40
0.7880336118240522
 40
0.85515823127661
 40
0.9257220995344577
 40
1.0
 40
1.0
 40
1.0
 40
1.0
 10
868.8551329195122
 20
739.856476855671
 30
0.0
 10
869.7380887175308
 20
739.852721521155
 30
0.0
 10
871.4298506478506
 20
739.845526221024
 30
0.0
 10
873.4781211142289
 20
739.896437723071
 30
0.0
 10
875.1230127039591
 20
739.9844200988972
 30
0.0
 10
876.4205538774372
 20
740.1078894110819
 30
0.0
 10
877.3884505333724
 20
740.2494105617616
 30
0.0
 10
878.1438362364978
 20
740.4131077201537
 30
0.0
 10
878.6918885807294
 20
740.5605548555949
 30
0.0
 10
879.6035684076055
 20
740.9267138739337
 30
0.0
 10
880.7633175232805
 20
741.6908922902212
 30
0.0
 10
882.0224470325427
 20
743.0574622224342
 30
0.0
 10
882.3442291226246
 20
744.5437901475134
 30
0.0
 10
882.5092457353692
 20
745.3060103181954
 30
0.0
  0
SPLINE
  5
8F
330
1F
100
AcDbEntity
  8
0
  6
Continuous
 62
     7
370
    15
100
AcDbSpline
210
0.0
220
0.0
230
1.0
 70
     8
 71
     3
 72
    11
 73
     7
 74
     0
 42
0.00000001
 43
0.00000001
 40
0.0
 40
0.0
 40
0.0
 40
0.0
 40
0.2499910523984432
 40
0.5000037410492139
 40
0.7499990780539589
 40
1.0
 40
1.0
 40
1.0
 40
1.0
 10
825.8677564680199
 20
734.6188975099678
 30
0.0
 10
825.9844470791214
 20
735.21698341357
 30
0.0
 10
826.2178384006759
 20
736.413206983978
 30
0.0
 10
827.3466350987283
 20
737.8896962612354
 30
0.0
 10
828.8847558517459
 20
738.9329813016818
 30
0.0
 10
830.0922679333258
 20
739.098192220425
 30
0.0
 10
830.6960307180505
 20
739.1807986024971
 30
0.0
  0
SPLINE
  5
90
330
1F
100
AcDbEntity
  8
0
  6
Continuous
 62
     7
370
    15
100
AcDbSpline
210
0.0
220
0.0
230
1.0
 70
     8
 71
     3
 72
    11
 73
     7
 74
     0
 42
0.00000001
 43
0.00000001
 40
0.0
 40
0.0
 40
0.0
 40
0.0
 40
0.2500002736966631
 40
0.4999949608501437
 40
0.749993690077391
 40
1.0
 40
1.0
 40
1.0
 40
1.0
 10
830.6960307180505
 20
778.0362320665474
 30
0.0
 10
830.0922663933538
 20
778.1188373928858
 30
0.0
 10
828.8847512357677
 20
778.2840461996514
 30
0.0
 10
827.3466808828405
 20
779.3273285546734
 30
0.0
 10
826.2177815526064
 20
780.8037512740258
 30
0.0
 10
825.9844326755014
 20
781.9999998185241
 30
0.0
 10
825.8677564680199
 20
782.5981331590767
 30
0.0
  0
LWPOLYLINE
  5
91
330
1F
100
AcDbEntity
  8
0
  6
Continuous
 62
     7
370
    15
100
AcDbPolyline
 90
        3
 70
   128
 43
0.0
 10
830.6960009157
 20
739.1807986025
 10
838.3533798277
 20
739.4148064379
 10
846.4665852606
 20
739.6626425509
  0
LWPOLYLINE
  5
92
330
1F
100
AcDbEntity
  8
0
  6
Continuous
 62
     7
370
    15
100
AcDbPolyline
 90
        3
 70
   128
 43
0.0
 10
846.4665852606
 20
777.5542689089
 10
838.3533798277
 20
777.8022242312
 10
830.6960009157
 20
778.0362320665
  0
LINE
  5
93
330
1F
100
AcDbEntity
  8
0
  6
Continuous
 62
     7
370
    15
100
AcDbLine
 10
846.469029051
 20
760.886068416
 30
0.0
 11
846.4665852606
 21
760.894293857
 31
0.0
  0
LINE
  5
94
330
1F
100
AcDbEntity
  8
0
  6
Continuous
 62
     7
370
    15
100
AcDbLine
 10
770.3146182119
 20
767.0953226809
 30
0.0
 11
767.966582638
 21
767.0953226809
 31
0.0
  0
LINE
  5
95
330
1F
100
AcDbEntity
  8
0
  6
Continuous
 62
     7
370
    15
100
AcDbLine
 10
765.4665850222
 20
767.0953226809
 30
0.0
 11
764.9665914595
 21
767.0953226809
 31
0.0
  0
LINE
  5
96
330
1F
100
AcDbEntity
  8
0
  6
Continuous
 62
     7
370
    15
100
AcDbLine
 10
764.9665914595
 20
750.0953627352
 30
0.0
 11
765.4665850222
 21
750.0953627352
 31
0.0
  0
LINE
  5
97
330
1F
100
AcDbEntity
  8
0
  6
Continuous
 62
     7
370
    15
100
AcDbLine
 10
767.966582638
 20
750.0953627352
 30
0.0
 11
770.3146182119
 21
750.0953627352
 31
0.0
  0
LINE
  5
98
330
1F
100
AcDbEntity
  8
0
  6
Continuous
 62
     7
370
    15
100
AcDbLine
 10
774.7665785372
 20
762.9084540133
 30
0.0
 11
772.3146222651
 21
762.9084540133
 31
0.0
  0
LINE
  5
99
330
1F
100
AcDbEntity
  8
0
  6
Continuous
 62
     7
370
    15
100
AcDbLine
 10
772.3146222651
 20
754.9084378008
 30
0.0
 11
774.7665785372
 21
754.9084378008
 31
0.0
  0
ARC
  5
9A
330
1F
100
AcDbEntity
  8
0
  6
Continuous
 62
     7
370
    15
100
AcDbCircle
 10
774.7665861788
 20
763.9084950249
 30
0.0
 40
1.000000000000114
100
AcDbArc
 50
270.0
 51
0.0
  0
ARC
  5
9B
330
1F
100
AcDbEntity
  8
0
  6
Continuous
 62
     7
370
    15
100
AcDbCircle
 10
774.7665861788
 20
753.9084950249
 30
0.0
 40
1.000000000000114
100
AcDbArc
 50
41.4096223406
 51
90.0
  0
LINE
  5
9C
330
1F
100
AcDbEntity
  8
0
  6
Continuous
 62
     7
370
    15
100
AcDbLine
 10
772.3146222651
 20
763.2952881579
 30
0.0
 11
770.3146182119
 21
763.2952881579
 31
0.0
  0
LINE
  5
9D
330
1F
100
AcDbEntity
  8
0
  6
Continuous
 62
     7
370
    15
100
AcDbLine
 10
770.3146182119
 20
753.8952780489
 30
0.0
 11
772.3146222651
 21
753.8952780489
 31
0.0
  0
LINE
  5
9E
330
1F
100
AcDbEntity
  8
0
  6
Continuous
 62
     7
370
    15
100
AcDbLine
 10
805.9666000425
 20
1133.9085055117
 30
0.0
 11
805.9666000425
 21
1135.4085160021
 31
0.0
  0
LINE
  5
9F
330
1F
100
AcDbEntity
  8
0
  6
Continuous
 62
     7
370
    15
100
AcDbLine
 10
788.9665804922
 20
1135.4085160021
 30
0.0
 11
788.9665804922
 21
1133.9085055117
 31
0.0
  0
LINE
  5
A0
330
1F
100
AcDbEntity
  8
0
  6
Continuous
 62
     7
370
    15
100
AcDbLine
 10
805.9666000425
 20
1135.4085160021
 30
0.0
 11
805.4665766775
 21
1135.9084797625
 31
0.0
  0
LINE
  5
A1
330
1F
100
AcDbEntity
  8
0
  6
Continuous
 62
     7
370
    15
100
AcDbLine
 10
789.4665740549
 20
1135.9084797625
 30
0.0
 11
788.9665804922
 21
1135.4085160021
 31
0.0
  0
LINE
  5
A2
330
1F
100
AcDbEntity
  8
0
  6
Continuous
 62
     7
370
    15
100
AcDbLine
 10
788.9665804922
 20
1133.9085055117
 30
0.0
 11
789.4665740549
 21
1133.4085417513
 31
0.0
  0
LINE
  5
A3
330
1F
100
AcDbEntity
  8
0
  6
Continuous
 62
     7
370
    15
100
AcDbLine
 10
805.4665766775
 20
1133.4085417513
 30
0.0
 11
805.9666000425
 21
1133.9085055117
 31
0.0
  0
LINE
  5
A4
330
1F
100
AcDbEntity
  8
0
  6
Continuous
 62
     7
370
    15
100
AcDbLine
 10
788.9665804922
 20
260.9084797625
 30
0.0
 11
789.4665740549
 21
260.4085160021
 31
0.0
  0
LINE
  5
A5
330
1F
100
AcDbEntity
  8
0
  6
Continuous
 62
     7
370
    15
100
AcDbLine
 10
805.4665766775
 20
260.4085160021
 30
0.0
 11
805.9666000425
 21
260.9084797625
 31
0.0
  0
LINE
  5
A6
330
1F
100
AcDbEntity
  8
0
  6
Continuous
 62
     7
370
    15
100
AcDbLine
 10
805.9666000425
 20
262.4084902529
 30
0.0
 11
805.4665766775
 21
262.9084540133
 31
0.0
  0
LINE
  5
A7
330
1F
100
AcDbEntity
  8
0
  6
Continuous
 62
     7
370
    15
100
AcDbLine
 10
789.4665740549
 20
262.9084540133
 30
0.0
 11
788.9665804922
 21
262.4084902529
 31
0.0
  0
LINE
  5
A8
330
1F
100
AcDbEntity
  8
0
  6
Continuous
 62
     7
370
    15
100
AcDbLine
 10
805.9666000425
 20
260.9084797625
 30
0.0
 11
805.9666000425
 21
262.4084902529
 31
0.0
  0
LINE
  5
A9
330
1F
100
AcDbEntity
  8
0
  6
Continuous
 62
     7
370
    15
100
AcDbLine
 10
788.9665804922
 20
262.4084902529
 30
0.0
 11
788.9665804922
 21
260.9084797625
 31
0.0
  0
LINE
  5
AA
330
1F
100
AcDbEntity
  8
0
  6
Continuous
 62
     7
370
    15
100
AcDbLine
 10
803.9665959894
 20
259.5378113512
 30
0.0
 11
803.9665959894
 21
259.6085024599
 31
0.0
  0
LINE
  5
AB
330
1F
100
AcDbEntity
  8
0
  6
Continuous
 62
     7
370
    15
100
AcDbLine
 10
790.9665845453
 20
259.6085024599
 30
0.0
 11
790.9665845453
 21
259.5378113512
 31
0.0
  0
LINE
  5
AC
330
1F
100
AcDbEntity
  8
0
  6
Continuous
 62
     7
370
    15
100
AcDbLine
 10
788.9665804922
 20
271.4085531954
 30
0.0
 11
789.4665740549
 21
270.9084702257
 31
0.0
  0
LINE
  5
AD
330
1F
100
AcDbEntity
  8
0
  6
Continuous
 62
     7
370
    15
100
AcDbLine
 10
805.4665766775
 20
270.9084702257
 30
0.0
 11
805.9666000425
 21
271.4085531954
 31
0.0
  0
LINE
  5
AE
330
1F
100
AcDbEntity
  8
0
  6
Continuous
 62
     7
370
    15
100
AcDbLine
 10
788.9665804922
 20
272.9084444765
 30
0.0
 11
788.9665804922
 21
271.4085531954
 31
0.0
  0
LINE
  5
AF
330
1F
100
AcDbEntity
  8
0
  6
Continuous
 62
     7
370
    15
100
AcDbLine
 10
805.9666000425
 20
271.4085531954
 30
0.0
 11
805.9666000425
 21
272.9084444765
 31
0.0
  0
LINE
  5
B0
330
1F
100
AcDbEntity
  8
0
  6
Continuous
 62
     7
370
    15
100
AcDbLine
 10
805.9666000425
 20
272.9084444765
 30
0.0
 11
805.4665766775
 21
273.4085274462
 31
0.0
  0
LINE
  5
B1
330
1F
100
AcDbEntity
  8
0
  6
Continuous
 62
     7
370
    15
100
AcDbLine
 10
789.4665740549
 20
273.4085274462
 30
0.0
 11
788.9665804922
 21
272.9084444765
 31
0.0
  0
LINE
  5
B2
330
1F
100
AcDbEntity
  8
0
  6
Continuous
 62
     7
370
    15
100
AcDbLine
 10
788.9665804922
 20
-264.0914963957
 30
0.0
 11
788.9665804922
 21
-265.4914902922
 31
0.0
  0
LINE
  5
B3
330
1F
100
AcDbEntity
  8
0
  6
Continuous
 62
     7
370
    15
100
AcDbLine
 10
805.9666000425
 20
-265.4914902922
 30
0.0
 11
805.9666000425
 21
-264.0914963957
 31
0.0
  0
LINE
  5
B4
330
1F
100
AcDbEntity
  8
0
  6
Continuous
 62
     7
370
    15
100
AcDbLine
 10
805.9666000425
 20
-264.0914963957
 30
0.0
 11
805.4665766775
 21
-263.5915326353
 31
0.0
  0
LINE
  5
B5
330
1F
100
AcDbEntity
  8
0
  6
Continuous
 62
     7
370
    15
100
AcDbLine
 10
789.4665740549
 20
-263.5915326353
 30
0.0
 11
788.9665804922
 21
-264.0914963957
 31
0.0
  0
LINE
  5
B6
330
1F
100
AcDbEntity
  8
0
  6
Continuous
 62
     7
370
    15
100
AcDbLine
 10
790.9665845453
 20
-262.7207683798
 30
0.0
 11
790.9665845453
 21
-262.7915190931
 31
0.0
  0
LINE
  5
B7
330
1F
100
AcDbEntity
  8
0
  6
Continuous
 62
     7
370
    15
100
AcDbLine
 10
803.9665959894
 20
-262.7915190931
 30
0.0
 11
803.9665959894
 21
-262.7207683798
 31
0.0
  0
LINE
  5
B8
330
1F
100
AcDbEntity
  8
0
  6
Continuous
 62
     7
370
    15
100
AcDbLine
 10
22.6665280878
 20
347.3931504015
 30
0.0
 11
22.6665280878
 21
309.3814802889
 31
0.0
  0
LINE
  5
B9
330
1F
100
AcDbEntity
  8
0
  6
Continuous
 62
     7
370
    15
100
AcDbLine
 10
37.666632992
 20
309.3814802889
 30
0.0
 11
37.666632992
 21
347.3931504015
 31
0.0
  0
LINE
  5
BA
330
1F
100
AcDbEntity
  8
0
  6
Continuous
 62
     7
370
    15
100
AcDbLine
 10
724.9665998041
 20
-134.1874646421
 30
0.0
 11
725.9665869295
 21
-136.5446495291
 31
0.0
  0
LINE
  5
BB
330
1F
100
AcDbEntity
  8
0
  6
Continuous
 62
     7
370
    15
100
AcDbLine
 10
35.3936694681
 20
67.7084875826
 30
0.0
 11
35.1936362803
 21
67.5085139994
 31
0.0
  0
LINE
  5
BC
330
1F
100
AcDbEntity
  8
0
  6
Continuous
 62
     7
370
    15
100
AcDbLine
 10
35.1936362803
 20
45.9085059885
 30
0.0
 11
35.3936694681
 21
45.7084728006
 31
0.0
  0
LINE
  5
BD
330
1F
100
AcDbEntity
  8
0
  6
Continuous
 62
     7
370
    15
100
AcDbLine
 10
35.3936694681
 20
45.7084728006
 30
0.0
 11
42.682006222
 21
45.7084728006
 31
0.0
  0
LINE
  5
BE
330
1F
100
AcDbEntity
  8
0
  6
Continuous
 62
     7
370
    15
100
AcDbLine
 10
54.681970936
 20
45.7084728006
 30
0.0
 11
90.9665368616
 21
45.7084728006
 31
0.0
  0
LINE
  5
BF
330
1F
100
AcDbEntity
  8
0
  6
Continuous
 62
     7
370
    15
100
AcDbLine
 10
90.9665368616
 20
67.7084875826
 30
0.0
 11
54.681970936
 21
67.7084875826
 31
0.0
  0
LINE
  5
C0
330
1F
100
AcDbEntity
  8
0
  6
Continuous
 62
     7
370
    15
100
AcDbLine
 10
42.682006222
 20
67.7084875826
 30
0.0
 11
35.3936694681
 21
67.7084875826
 31
0.0
  0
SPLINE
  5
C1
330
1F
100
AcDbEntity
  8
0
  6
Continuous
 62
     7
370
    15
100
AcDbSpline
210
0.0
220
0.0
230
1.0
 70
     8
 71
     3
 72
     9
 73
     5
 74
     0
 42
0.00000001
 43
0.00000001
 40
0.0
 40
0.0
 40
0.0
 40
0.0
 40
0.0794977839661689
 40
1.0
 40
1.0
 40
1.0
 40
1.0
 10
767.8951464712243
 20
-69.97693054636756
 30
0.0
 10
767.8993822745201
 20
-69.96915476689803
 30
0.0
 10
767.9526643043401
 20
-69.87134349365765
 30
0.0
 10
767.9663825400511
 20
-69.75813846035273
 30
0.0
 10
767.9790102064233
 20
-69.65393297632971
 30
0.0
  0
SPLINE
  5
C2
330
1F
100
AcDbEntity
  8
0
  6
Continuous
 62
     7
370
    15
100
AcDbSpline
210
0.0
220
0.0
230
1.0
 70
     8
 71
     3
 72
    15
 73
    11
 74
     0
 42
0.00000001
 43
0.00000001
 40
0.0
 40
0.0
 40
0.0
 40
0.0
 40
0.1501259385366112
 40
0.4420132338635003
 40
0.6171568461524981
 40
0.7099343516029454
 40
0.7521354114049247
 40
0.8088656328450432
 40
0.8880722527243361
 40
1.0
 40
1.0
 40
1.0
 40
1.0
 10
766.0655818998437
 20
-71.30593531092433
 30
0.0
 10
766.185878134658
 20
-71.25286204072457
 30
0.0
 10
766.5400642819031
 20
-71.09659931876367
 30
0.0
 10
766.8908771947607
 20
-70.93776822241782
 30
0.0
 10
767.0916617117663
 20
-70.84068402981336
 30
0.0
 10
767.2071875316677
 20
-70.7814559988087
 30
0.0
 10
767.3493701900213
 20
-70.69294337376265
 30
0.0
 10
767.5185835543665
 20
-70.56100593783954
 30
0.0
 10
767.7352327454034
 20
-70.33096628092417
 30
0.0
 10
767.8360866869842
 20
-70.10768401351864
 30
0.0
 10
767.8951464712243
 20
-69.97693054636756
 30
0.0
  0
LINE
  5
C3
330
1F
100
AcDbEntity
  8
0
  6
Continuous
 62
     7
370
    15
100
AcDbLine
 10
767.9790102064
 20
-69.6539329763
 30
0.0
 11
768.0820070326
 21
-68.8740658041
 31
0.0
  0
SPLINE
  5
C4
330
1F
100
AcDbEntity
  8
0
  6
Continuous
 62
     7
370
    15
100
AcDbSpline
210
0.0
220
0.0
230
1.0
 70
     8
 71
     3
 72
    17
 73
    13
 74
     0
 42
0.00000001
 43
0.00000001
 40
0.0
 40
0.0
 40
0.0
 40
0.0
 40
0.0507812181372175
 40
0.0754282726645716
 40
0.0951673704251994
 40
0.1201776219577504
 40
0.1674985948893604
 40
0.2862005345803267
 40
0.5079650888754076
 40
0.7447537164799263
 40
0.9740015893130797
 40
1.0
 40
1.0
 40
1.0
 40
1.0
 10
768.0820070325951
 20
-68.8740658040885
 30
0.0
 10
768.0893008098675
 20
-68.75220382155433
 30
0.0
 10
768.100134677999
 20
-68.57119518916599
 30
0.0
 10
768.0667477743075
 20
-68.38006895747772
 30
0.0
 10
768.0441836393074
 20
-68.28429848272721
 30
0.0
 10
768.0207494621585
 20
-68.20363077315805
 30
0.0
 10
767.9872157144155
 20
-68.10351068588017
 30
0.0
 10
767.9236229273477
 20
-67.93304425404878
 30
0.0
 10
767.7663479581836
 20
-67.53432001239301
 30
0.0
 10
767.4569037740489
 20
-66.77602901889679
 30
0.0
 10
767.1821288943372
 20
-66.1089283399483
 30
0.0
 10
766.9969327754178
 20
-65.6645565801932
 30
0.0
 10
766.9780694067101
 20
-65.61929457148352
 30
0.0
  0
LINE
  5
C5
330
1F
100
AcDbEntity
  8
0
  6
Continuous
 62
     7
370
    15
100
AcDbLine
 10
39.7165559351
 20
242.5814820055
 30
0.0
 11
39.7165559351
 21
297.181482387
 31
0.0
  0
LINE
  5
C6
330
1F
100
AcDbEntity
  8
0
  6
Continuous
 62
     7
370
    15
100
AcDbLine
 10
20.6166051447
 20
297.181482387
 30
0.0
 11
20.6166051447
 21
242.5814820055
 31
0.0
  0
ARC
  5
C7
330
1F
100
AcDbEntity
  8
0
  6
Continuous
 62
     7
370
    15
100
AcDbCircle
 10
187.7001013518
 20
-265.4917481479
 30
0.0
 40
0.499999999999986
100
AcDbArc
 50
270.0
 51
348.4914796796
  0
ARC
  5
C8
330
1F
100
AcDbEntity
  8
0
  6
Continuous
 62
     7
370
    15
100
AcDbCircle
 10
186.8665861788
 20
-265.5915049751
 30
0.0
 40
0.4999999999999432
100
AcDbArc
 50
270.0
 51
0.0
  0
ARC
  5
C9
330
1F
100
AcDbEntity
  8
0
  6
Continuous
 62
     7
370
    15
100
AcDbCircle
 10
175.0665861788
 20
-265.5915049751
 30
0.0
 40
0.4999999999999432
100
AcDbArc
 50
180.0
 51
270.0
  0
ARC
  5
CA
330
1F
100
AcDbEntity
  8
0
  6
Continuous
 62
     7
370
    15
100
AcDbCircle
 10
695.8665861788
 20
-265.5915049751
 30
0.0
 40
0.5000000000001137
100
AcDbArc
 50
270.0
 51
0.0
  0
ARC
  5
CB
330
1F
100
AcDbEntity
  8
0
  6
Continuous
 62
     7
370
    15
100
AcDbCircle
 10
684.0665861788
 20
-265.5915049751
 30
0.0
 40
0.5000000000001137
100
AcDbArc
 50
180.0
 51
270.0
  0
ARC
  5
CC
330
1F
100
AcDbEntity
  8
0
  6
Continuous
 62
     7
370
    15
100
AcDbCircle
 10
640.8665861788
 20
-265.5915049751
 30
0.0
 40
0.4999999999999432
100
AcDbArc
 50
270.0
 51
0.0
  0
ARC
  5
CD
330
1F
100
AcDbEntity
  8
0
  6
Continuous
 62
     7
370
    15
100
AcDbCircle
 10
629.0665861788
 20
-265.5915049751
 30
0.0
 40
0.4999999999999432
100
AcDbArc
 50
180.0
 51
270.0
  0
LINE
  5
CE
330
1F
100
AcDbEntity
  8
0
  6
Continuous
 62
     7
370
    15
100
AcDbLine
 10
757.1665786326
 20
-266.0915302511
 30
0.0
 11
757.1665786326
 21
-265.5915068861
 31
0.0
  0
LINE
  5
CF
330
1F
100
AcDbEntity
  8
0
  6
Continuous
 62
     7
370
    15
100
AcDbLine
 10
746.7665813982
 20
-265.5915068861
 30
0.0
 11
746.7665813982
 21
-266.0915302511
 31
0.0
  0
LINE
  5
D0
330
1F
100
AcDbEntity
  8
0
  6
Continuous
 62
     7
370
    15
100
AcDbLine
 10
744.1665969908
 20
-266.0915302511
 30
0.0
 11
744.1665969908
 21
-265.5915068861
 31
0.0
  0
LINE
  5
D1
330
1F
100
AcDbEntity
  8
0
  6
Continuous
 62
     7
370
    15
100
AcDbLine
 10
733.7665997564
 20
-265.5915068861
 30
0.0
 11
733.7665997564
 21
-266.0915302511
 31
0.0
  0
LINE
  5
D2
330
1F
100
AcDbEntity
  8
0
  6
Continuous
 62
     7
370
    15
100
AcDbLine
 10
765.4665850222
 20
732.9084826235
 30
0.0
 11
764.9665914595
 21
732.9084826235
 31
0.0
  0
LINE
  5
D3
330
1F
100
AcDbEntity
  8
0
  6
Continuous
 62
     7
370
    15
100
AcDbLine
 10
764.9665914595
 20
724.908466411
 30
0.0
 11
765.4665850222
 21
724.908466411
 31
0.0
  0
LINE
  5
D4
330
1F
100
AcDbEntity
  8
0
  6
Continuous
 62
     7
370
    15
100
AcDbLine
 10
725.4665933668
 20
-234.5947670217
 30
0.0
 11
725.9665869295
 21
-234.5947670217
 31
0.0
  0
LINE
  5
D5
330
1F
100
AcDbEntity
  8
0
  6
Continuous
 62
     7
370
    15
100
AcDbLine
 10
725.9665869295
 20
-226.5947508093
 30
0.0
 11
725.4665933668
 21
-226.5947508093
 31
0.0
  0
LINE
  5
D6
330
1F
100
AcDbEntity
  8
0
  6
Continuous
 62
     7
370
    15
100
AcDbLine
 10
765.4665850222
 20
792.9085446123
 30
0.0
 11
764.9665914595
 21
792.9085446123
 31
0.0
  0
LINE
  5
D7
330
1F
100
AcDbEntity
  8
0
  6
Continuous
 62
     7
370
    15
100
AcDbLine
 10
764.9665914595
 20
784.9085283999
 30
0.0
 11
765.4665850222
 21
784.9085283999
 31
0.0
  0
LINE
  5
D8
330
1F
100
AcDbEntity
  8
0
  6
Continuous
 62
     7
370
    15
100
AcDbLine
 10
725.4665933668
 20
1100.4085493807
 30
0.0
 11
725.9665869295
 21
1100.4085493807
 31
0.0
  0
LINE
  5
D9
330
1F
100
AcDbEntity
  8
0
  6
Continuous
 62
     7
370
    15
100
AcDbLine
 10
725.9665869295
 20
1108.4084463839
 30
0.0
 11
725.4665933668
 21
1108.4084463839
 31
0.0
  0
LINE
  5
DA
330
1F
100
AcDbEntity
  8
0
  6
Continuous
 62
     7
370
    15
100
AcDbLine
 10
708.4665738165
 20
-438.5915147539
 30
0.0
 11
708.4665738165
 21
-436.5915107008
 31
0.0
  0
LINE
  5
DB
330
1F
100
AcDbEntity
  8
0
  6
Continuous
 62
     7
370
    15
100
AcDbLine
 10
616.4665959894
 20
-436.5915107008
 30
0.0
 11
616.4665959894
 21
-438.5915147539
 31
0.0
  0
LINE
  5
DC
330
1F
100
AcDbEntity
  8
0
  6
Continuous
 62
     7
370
    15
100
AcDbLine
 10
199.466600281
 20
-438.5915147539
 30
0.0
 11
199.466600281
 21
-436.5915107008
 31
0.0
  0
LINE
  5
DD
330
1F
100
AcDbEntity
  8
0
  6
Continuous
 62
     7
370
    15
100
AcDbLine
 10
107.4665330469
 20
-436.5915107008
 30
0.0
 11
107.4665330469
 21
-438.5915147539
 31
0.0
  0
LINE
  5
DE
330
1F
100
AcDbEntity
  8
0
  6
Continuous
 62
     7
370
    15
100
AcDbLine
 10
690.7665871203
 20
-436.5915107008
 30
0.0
 11
690.7665871203
 21
-364.5915138002
 31
0.0
  0
LINE
  5
DF
330
1F
100
AcDbEntity
  8
0
  6
Continuous
 62
     7
370
    15
100
AcDbLine
 10
634.166612488
 20
-364.5915138002
 30
0.0
 11
634.166612488
 21
-436.5915107008
 31
0.0
  0
LINE
  5
E0
330
1F
100
AcDbEntity
  8
0
  6
Continuous
 62
     7
370
    15
100
AcDbLine
 10
181.7665837824
 20
-436.5915107008
 30
0.0
 11
181.7665837824
 21
-364.5915138002
 31
0.0
  0
LINE
  5
E1
330
1F
100
AcDbEntity
  8
0
  6
Continuous
 62
     7
370
    15
100
AcDbLine
 10
125.1666091501
 20
-364.5915138002
 30
0.0
 11
125.1666091501
 21
-436.5915107008
 31
0.0
  0
LINE
  5
E2
330
1F
100
AcDbEntity
  8
0
  6
Continuous
 62
     7
370
    15
100
AcDbLine
 10
185.3665851175
 20
-358.5589277025
 30
0.0
 11
185.3665851175
 21
-283.0914901968
 31
0.0
  0
LINE
  5
E3
330
1F
100
AcDbEntity
  8
0
  6
Continuous
 62
     7
370
    15
100
AcDbLine
 10
121.566607815
 20
-283.0914901968
 30
0.0
 11
121.566607815
 21
-358.5589277025
 31
0.0
  0
ARC
  5
E4
330
1F
100
AcDbEntity
  8
0
  6
Continuous
 62
     7
370
    15
100
AcDbCircle
 10
180.6665861788
 20
-358.5589390294
 30
0.0
 40
4.700000000000057
100
AcDbArc
 50
350.5402980318
 51
0.0
  0
ARC
  5
E5
330
1F
100
AcDbEntity
  8
0
  6
Continuous
 62
     7
370
    15
100
AcDbCircle
 10
126.2665861788
 20
-358.5589390294
 30
0.0
 40
4.700000000000145
100
AcDbArc
 50
180.0
 51
189.4597019682
  0
LINE
  5
E6
330
1F
100
AcDbEntity
  8
0
  6
Continuous
 62
     7
370
    15
100
AcDbLine
 10
121.6305039942
 20
-359.3314038988
 30
0.0
 11
122.506930691
 21
-364.5915138002
 31
0.0
  0
LINE
  5
E7
330
1F
100
AcDbEntity
  8
0
  6
Continuous
 62
     7
370
    15
100
AcDbLine
 10
184.4262622416
 20
-364.5915138002
 30
0.0
 11
185.3026889383
 21
-359.3314038988
 31
0.0
  0
ARC
  5
E8
330
1F
100
AcDbEntity
  8
0
  6
Continuous
 62
     7
370
    15
100
AcDbCircle
 10
689.6665861788
 20
-358.5589390294
 30
0.0
 40
4.700000000000045
100
AcDbArc
 50
350.5402980318
 51
0.0
  0
ARC
  5
E9
330
1F
100
AcDbEntity
  8
0
  6
Continuous
 62
     7
370
    15
100
AcDbCircle
 10
635.2665861788
 20
-358.5589390294
 30
0.0
 40
4.7
100
AcDbArc
 50
180.0
 51
189.4597019682
  0
LINE
  5
EA
330
1F
100
AcDbEntity
  8
0
  6
Continuous
 62
     7
370
    15
100
AcDbLine
 10
694.3665884554
 20
-358.5589277025
 30
0.0
 11
694.3665884554
 21
-283.0914901968
 31
0.0
  0
LINE
  5
EB
330
1F
100
AcDbEntity
  8
0
  6
Continuous
 62
     7
370
    15
100
AcDbLine
 10
630.5666111528
 20
-283.0914901968
 30
0.0
 11
630.5666111528
 21
-358.5589277025
 31
0.0
  0
LINE
  5
EC
330
1F
100
AcDbEntity
  8
0
  6
Continuous
 62
     7
370
    15
100
AcDbLine
 10
630.630507332
 20
-359.3314038988
 30
0.0
 11
631.5069340288
 21
-364.5915138002
 31
0.0
  0
LINE
  5
ED
330
1F
100
AcDbEntity
  8
0
  6
Continuous
 62
     7
370
    15
100
AcDbLine
 10
693.4262357771
 20
-364.5915138002
 30
0.0
 11
694.3026624739
 21
-359.3314038988
 31
0.0
  0
LINE
  5
EE
330
1F
100
AcDbEntity
  8
0
  6
Continuous
 62
     7
370
    15
100
AcDbLine
 10
803.1665824473
 20
1139.6084976915
 30
0.0
 11
803.1665824473
 21
1139.7085142855
 31
0.0
  0
LINE
  5
EF
330
1F
100
AcDbEntity
  8
0
  6
Continuous
 62
     7
370
    15
100
AcDbLine
 10
795.1665960371
 20
1139.7085142855
 30
0.0
 11
795.1665960371
 21
1139.6084976915
 31
0.0
  0
ARC
  5
F0
330
1F
100
AcDbEntity
  8
0
  6
Continuous
 62
     7
370
    15
100
AcDbCircle
 10
92.4665861788
 20
1155.6584950249
 30
0.0
 40
0.3000000000001819
100
AcDbArc
 50
180.0
 51
228.189685104
  0
ARC
  5
F1
330
1F
100
AcDbEntity
  8
0
  6
Continuous
 62
     7
370
    15
100
AcDbCircle
 10
92.4665861788
 20
1164.7584950249
 30
0.0
 40
0.3000000000001819
100
AcDbArc
 50
131.810314896
 51
180.0
  0
LINE
  5
F2
330
1F
100
AcDbEntity
  8
0
  6
Continuous
 62
     7
370
    15
100
AcDbLine
 10
90.4665731012
 20
1156.2085104708
 30
0.0
 11
90.9665368616
 21
1156.2085104708
 31
0.0
  0
LINE
  5
F3
330
1F
100
AcDbEntity
  8
0
  6
Continuous
 62
     7
370
    15
100
AcDbLine
 10
90.9665368616
 20
1164.2085266832
 30
0.0
 11
90.4665731012
 21
1164.2085266832
 31
0.0
  0
LINE
  5
F4
330
1F
100
AcDbEntity
  8
0
  6
Continuous
 62
     7
370
    15
100
AcDbLine
 10
801.3665817797
 20
-268.491511273
 30
0.0
 11
801.3665817797
 21
-266.9915007826
 31
0.0
  0
LINE
  5
F5
330
1F
100
AcDbEntity
  8
0
  6
Continuous
 62
     7
370
    15
100
AcDbLine
 10
793.5665987551
 20
-266.9915007826
 30
0.0
 11
793.5665987551
 21
-268.491511273
 31
0.0
  0
LINE
  5
F6
330
1F
100
AcDbEntity
  8
0
  6
Continuous
 62
     7
370
    15
100
AcDbLine
 10
792.4665950358
 20
265.9084749941
 30
0.0
 11
792.4665950358
 21
262.9084540133
 31
0.0
  0
LINE
  5
F7
330
1F
100
AcDbEntity
  8
0
  6
Continuous
 62
     7
370
    15
100
AcDbLine
 10
802.466585499
 20
262.9084540133
 30
0.0
 11
802.466585499
 21
265.9084749941
 31
0.0
  0
LINE
  5
F8
330
1F
100
AcDbEntity
  8
0
  6
Continuous
 62
     7
370
    15
100
AcDbLine
 10
792.5665818274
 20
1139.7085142855
 30
0.0
 11
792.5665818274
 21
1139.6084976915
 31
0.0
  0
LINE
  5
F9
330
1F
100
AcDbEntity
  8
0
  6
Continuous
 62
     7
370
    15
100
AcDbLine
 10
792.5665818274
 20
1138.4085369829
 30
0.0
 11
792.5665818274
 21
1135.9084797625
 31
0.0
  0
LINE
  5
FA
330
1F
100
AcDbEntity
  8
0
  6
Continuous
 62
     7
370
    15
100
AcDbLine
 10
802.5665722906
 20
1135.9084797625
 30
0.0
 11
802.5665722906
 21
1138.4085369829
 31
0.0
  0
LINE
  5
FB
330
1F
100
AcDbEntity
  8
0
  6
Continuous
 62
     7
370
    15
100
AcDbLine
 10
765.4665850222
 20
301.8033457522
 30
0.0
 11
764.9665914595
 21
301.915283275
 31
0.0
  0
LINE
  5
FC
330
1F
100
AcDbEntity
  8
0
  6
Continuous
 62
     7
370
    15
100
AcDbLine
 10
765.4665850222
 20
273.393626285
 30
0.0
 11
765.4665850222
 21
292.2679138903
 31
0.0
  0
LINE
  5
FD
330
1F
100
AcDbEntity
  8
0
  6
Continuous
 62
     7
370
    15
100
AcDbLine
 10
765.4665850222
 20
294.6678353075
 30
0.0
 11
765.4665850222
 21
301.8033457522
 31
0.0
  0
LINE
  5
FE
330
1F
100
AcDbEntity
  8
0
  6
Continuous
 62
     7
370
    15
100
AcDbLine
 10
764.9665914595
 20
273.2821655993
 30
0.0
 11
765.4665850222
 21
273.393626285
 31
0.0
  0
SPLINE
  5
FF
330
1F
100
AcDbEntity
  8
0
  6
Continuous
 62
     7
370
    15
100
AcDbSpline
210
0.0
220
0.0
230
1.0
 70
    24
 71
     3
 72
     9
 73
     5
 74
     0
 42
0.00000001
 43
0.00000001
 40
0.0
 40
0.0
 40
0.0
 40
0.0
 40
0.4960235944753752
 40
1.0
 40
1.0
 40
1.0
 40
1.0
 10
765.4665850221734
 20
302.5984717134591
 30
0.0
 10
765.4665850221735
 20
302.5588155950556
 30
0.0
 10
765.4665850221734
 20
302.4788675465247
 30
0.0
 10
765.4665850221734
 20
302.0297103709946
 30
0.0
 10
765.4665850221734
 20
301.8033457521554
 30
0.0
  0
LINE
  5
100
330
1F
100
AcDbEntity
  8
0
  6
Continuous
 62
     7
370
    15
100
AcDbLine
 10
764.9665914595
 20
302.5984717135
 30
0.0
 11
765.4665850222
 21
302.5984717135
 31
0.0
  0
SPLINE
  5
101
330
1F
100
AcDbEntity
  8
0
  6
Continuous
 62
     7
370
    15
100
AcDbSpline
210
0.0
220
0.0
230
1.0
 70
    24
 71
     3
 72
     9
 73
     5
 74
     0
 42
0.00000001
 43
0.00000001
 40
0.0
 40
0.0
 40
0.0
 40
0.0
 40
0.4966608547553687
 40
1.0
 40
1.0
 40
1.0
 40
1.0
 10
765.4665850221734
 20
273.3936262849923
 30
0.0
 10
765.4665850221734
 20
273.1702922612511
 30
0.0
 10
765.4665850221734
 20
272.7206211796607
 30
0.0
 10
765.4665850221734
 20
272.639388108362
 30
0.0
 10
765.4665850221734
 20
272.5985003236886
 30
0.0
  0
LINE
  5
102
330
1F
100
AcDbEntity
  8
0
  6
Continuous
 62
     7
370
    15
100
AcDbLine
 10
765.4665850222
 20
272.5985003237
 30
0.0
 11
764.9665914595
 21
272.5985003237
 31
0.0
  0
LINE
  5
103
330
1F
100
AcDbEntity
  8
0
  6
Continuous
 62
     7
370
    15
100
AcDbLine
 10
766.4665721476
 20
277.3354006533
 30
0.0
 11
768.9665995657
 21
278.1853628878
 31
0.0
  0
LINE
  5
104
330
1F
100
AcDbEntity
  8
0
  6
Continuous
 62
     7
370
    15
100
AcDbLine
 10
770.1665900766
 20
285.5933857683
 30
0.0
 11
766.4665721476
 21
286.8616533999
 31
0.0
  0
LINE
  5
105
330
1F
100
AcDbEntity
  8
0
  6
Continuous
 62
     7
370
    15
100
AcDbLine
 10
766.4665721476
 20
277.3354006533
 30
0.0
 11
766.4665721476
 21
286.8616533999
 31
0.0
  0
LINE
  5
106
330
1F
100
AcDbEntity
  8
0
  6
Continuous
 62
     7
370
    15
100
AcDbLine
 10
766.4665721476
 20
290.39370544
 30
0.0
 11
769.4665931284
 21
290.39370544
 31
0.0
  0
LINE
  5
107
330
1F
100
AcDbEntity
  8
0
  6
Continuous
 62
     7
370
    15
100
AcDbLine
 10
769.4665931284
 20
290.39370544
 30
0.0
 11
769.4665931284
 21
296.0792732958
 31
0.0
  0
LINE
  5
108
330
1F
100
AcDbEntity
  8
0
  6
Continuous
 62
     7
370
    15
100
AcDbLine
 10
769.4665931284
 20
297.3891449694
 30
0.0
 11
769.4665931284
 21
302.8924418215
 31
0.0
  0
LINE
  5
109
330
1F
100
AcDbEntity
  8
0
  6
Continuous
 62
     7
370
    15
100
AcDbLine
 10
766.4665721476
 20
286.8616533999
 30
0.0
 11
766.4665721476
 21
290.39370544
 31
0.0
  0
LINE
  5
10A
330
1F
100
AcDbEntity
  8
0
  6
Continuous
 62
     7
370
    15
100
AcDbLine
 10
766.4665721476
 20
273.898358417
 30
0.0
 11
766.4665721476
 21
277.3354006533
 31
0.0
  0
LINE
  5
10B
330
1F
100
AcDbEntity
  8
0
  6
Continuous
 62
     7
370
    15
100
AcDbLine
 10
769.8474370062
 20
273.9769173388
 30
0.0
 11
766.4665721476
 21
273.393626285
 31
0.0
  0
LINE
  5
10C
330
1F
100
AcDbEntity
  8
0
  6
Continuous
 62
     7
370
    15
100
AcDbLine
 10
766.4665721476
 20
273.898358417
 30
0.0
 11
766.4665721476
 21
273.393626285
 31
0.0
  0
LINE
  5
10D
330
1F
100
AcDbEntity
  8
0
  6
Continuous
 62
     7
370
    15
100
AcDbLine
 10
769.4665931284
 20
303.3937168841
 30
0.0
 11
774.8935364306
 21
302.8085184816
 31
0.0
  0
LINE
  5
10E
330
1F
100
AcDbEntity
  8
0
  6
Continuous
 62
     7
370
    15
100
AcDbLine
 10
769.4665931284
 20
303.3937168841
 30
0.0
 11
769.4665931284
 21
302.8924418215
 31
0.0
  0
LINE
  5
10F
330
1F
100
AcDbEntity
  8
0
  6
Continuous
 62
     7
370
    15
100
AcDbLine
 10
767.966582638
 20
218.6584425692
 30
0.0
 11
767.966582638
 21
198.6584616427
 31
0.0
  0
LINE
  5
110
330
1F
100
AcDbEntity
  8
0
  6
Continuous
 62
     7
370
    15
100
AcDbLine
 10
20.4382680475
 20
396.7585516695
 30
0.0
 11
10.7098363459
 21
379.9084378008
 31
0.0
  0
LINE
  5
111
330
1F
100
AcDbEntity
  8
0
  6
Continuous
 62
     7
370
    15
100
AcDbLine
 10
39.8948930323
 20
396.7585516695
 30
0.0
 11
20.4382680475
 21
396.7585516695
 31
0.0
  0
LINE
  5
112
330
1F
100
AcDbEntity
  8
0
  6
Continuous
 62
     7
370
    15
100
AcDbLine
 10
49.6233247339
 20
379.9084378008
 30
0.0
 11
39.8948930323
 21
396.7585516695
 31
0.0
  0
LINE
  5
113
330
1F
100
AcDbEntity
  8
0
  6
Continuous
 62
     7
370
    15
100
AcDbLine
 10
40.6665347635
 20
364.3950176958
 30
0.0
 11
49.6233247339
 21
379.9084378008
 31
0.0
  0
LINE
  5
114
330
1F
100
AcDbEntity
  8
0
  6
Continuous
 62
     7
370
    15
100
AcDbLine
 10
10.7098363459
 20
379.9084378008
 30
0.0
 11
19.6666263163
 21
364.3950176958
 31
0.0
  0
SPLINE
  5
115
330
1F
100
AcDbEntity
  8
0
  6
Continuous
 62
     7
370
    15
100
AcDbSpline
210
0.0
220
0.0
230
1.0
 70
    24
 71
     3
 72
    13
 73
     9
 74
     0
 42
0.00000001
 43
0.00000001
 40
0.0
 40
0.0
 40
0.0
 40
0.0
 40
0.2394430755655884
 40
0.3698177558529894
 40
0.5000028749159625
 40
0.6303708033759191
 40
0.7605515257184678
 40
1.0
 40
1.0
 40
1.0
 40
1.0
 10
766.5665887415032
 20
-210.0508856054191
 30
0.0
 10
766.5665887415032
 20
-210.1683133623748
 30
0.0
 10
766.5665887415034
 20
-210.3496795156857
 30
0.0
 10
766.566588741503
 20
-210.7457328113789
 30
0.0
 10
766.5665887415034
 20
-211.0953494285632
 30
0.0
 10
766.5665887415032
 20
-211.4761383987859
 30
0.0
 10
766.5665887415032
 20
-211.9858720064728
 30
0.0
 10
766.5665887415032
 20
-212.3488704071503
 30
0.0
 10
766.5665887415032
 20
-212.5840234037283
 30
0.0
  0
LINE
  5
116
330
1F
100
AcDbEntity
  8
0
  6
Continuous
 62
     7
370
    15
100
AcDbLine
 10
36.8139289438
 20
350.3931713823
 30
0.0
 11
36.8139289438
 21
359.3931151156
 31
0.0
  0
LINE
  5
117
330
1F
100
AcDbEntity
  8
0
  6
Continuous
 62
     7
370
    15
100
AcDbLine
 10
23.519232136
 20
359.3931151156
 30
0.0
 11
23.519232136
 21
350.3931713823
 31
0.0
  0
LINE
  5
118
330
1F
100
AcDbEntity
  8
0
  6
Continuous
 62
     7
370
    15
100
AcDbLine
 10
36.8139289438
 20
359.3931151156
 30
0.0
 11
23.519232136
 21
359.3931151156
 31
0.0
  0
LINE
  5
119
330
1F
100
AcDbEntity
  8
0
  6
Continuous
 62
     7
370
    15
100
AcDbLine
 10
36.8139289438
 20
350.3931713823
 30
0.0
 11
23.519232136
 21
350.3931713823
 31
0.0
  0
LINE
  5
11A
330
1F
100
AcDbEntity
  8
0
  6
Continuous
 62
     7
370
    15
100
AcDbLine
 10
23.3144305765
 20
350.3931713823
 30
0.0
 11
23.3144305765
 21
359.3931151156
 31
0.0
  0
LINE
  5
11B
330
1F
100
AcDbEntity
  8
0
  6
Continuous
 62
     7
370
    15
100
AcDbLine
 10
23.3144305765
 20
359.3931151156
 30
0.0
 11
23.519232136
 21
359.3931151156
 31
0.0
  0
LINE
  5
11C
330
1F
100
AcDbEntity
  8
0
  6
Continuous
 62
     7
370
    15
100
AcDbLine
 10
23.3144305765
 20
350.3931713823
 30
0.0
 11
23.519232136
 21
350.3931713823
 31
0.0
  0
LINE
  5
11D
330
1F
100
AcDbEntity
  8
0
  6
Continuous
 62
     7
370
    15
100
AcDbLine
 10
37.0187305033
 20
359.3931151156
 30
0.0
 11
37.0187305033
 21
350.3931713823
 31
0.0
  0
LINE
  5
11E
330
1F
100
AcDbEntity
  8
0
  6
Continuous
 62
     7
370
    15
100
AcDbLine
 10
36.8139289438
 20
359.3931151156
 30
0.0
 11
37.0187305033
 21
359.3931151156
 31
0.0
  0
LINE
  5
11F
330
1F
100
AcDbEntity
  8
0
  6
Continuous
 62
     7
370
    15
100
AcDbLine
 10
36.8139289438
 20
350.3931713823
 30
0.0
 11
37.0187305033
 21
350.3931713823
 31
0.0
  0
LINE
  5
120
330
1F
100
AcDbEntity
  8
0
  6
Continuous
 62
     7
370
    15
100
AcDbLine
 10
16.6670821726
 20
359.3931151156
 30
0.0
 11
16.6670821726
 21
350.3931713823
 31
0.0
  0
LINE
  5
121
330
1F
100
AcDbEntity
  8
0
  6
Continuous
 62
     7
370
    15
100
AcDbLine
 10
23.3144305765
 20
359.3931151156
 30
0.0
 11
16.6670821726
 21
359.3931151156
 31
0.0
  0
LINE
  5
122
330
1F
100
AcDbEntity
  8
0
  6
Continuous
 62
     7
370
    15
100
AcDbLine
 10
23.3144305765
 20
350.3931713823
 30
0.0
 11
16.6670821726
 21
350.3931713823
 31
0.0
  0
LINE
  5
123
330
1F
100
AcDbEntity
  8
0
  6
Continuous
 62
     7
370
    15
100
AcDbLine
 10
43.6660789072
 20
350.3931713823
 30
0.0
 11
43.6660789072
 21
359.3931151156
 31
0.0
  0
LINE
  5
124
330
1F
100
AcDbEntity
  8
0
  6
Continuous
 62
     7
370
    15
100
AcDbLine
 10
43.6660789072
 20
359.3931151156
 30
0.0
 11
37.0187305033
 21
359.3931151156
 31
0.0
  0
LINE
  5
125
330
1F
100
AcDbEntity
  8
0
  6
Continuous
 62
     7
370
    15
100
AcDbLine
 10
43.6660789072
 20
350.3931713823
 30
0.0
 11
37.0187305033
 21
350.3931713823
 31
0.0
  0
LINE
  5
126
330
1F
100
AcDbEntity
  8
0
  6
Continuous
 62
     7
370
    15
100
AcDbLine
 10
41.4165996134
 20
347.3931504015
 30
0.0
 11
18.9165614664
 21
347.3931504015
 31
0.0
  0
LINE
  5
127
330
1F
100
AcDbEntity
  8
0
  6
Continuous
 62
     7
370
    15
100
AcDbLine
 10
30.1665805399
 20
364.9585200075
 30
0.0
 11
19.6666263163
 21
364.9585200075
 31
0.0
  0
LINE
  5
128
330
1F
100
AcDbEntity
  8
0
  6
Continuous
 62
     7
370
    15
100
AcDbLine
 10
40.6665347635
 20
364.9585200075
 30
0.0
 11
30.1665805399
 21
364.9585200075
 31
0.0
  0
LINE
  5
129
330
1F
100
AcDbEntity
  8
0
  6
Continuous
 62
     7
370
    15
100
AcDbLine
 10
38.1665967524
 20
369.9585152392
 30
0.0
 11
22.1665643274
 21
369.9585152392
 31
0.0
  0
LINE
  5
12A
330
1F
100
AcDbEntity
  8
0
  6
Continuous
 62
     7
370
    15
100
AcDbLine
 10
39.1666434824
 20
369.4585514788
 30
0.0
 11
21.1666368067
 21
369.4585514788
 31
0.0
  0
SPLINE
  5
12B
330
1F
100
AcDbEntity
  8
0
  6
Continuous
 62
     7
370
    15
100
AcDbSpline
210
0.0
220
0.0
230
1.0
 70
     8
 71
     3
 72
    26
 73
    22
 74
     0
 42
0.00000001
 43
0.00000001
 40
0.0
 40
0.0
 40
0.0
 40
0.0
 40
0.0501334917013564
 40
0.093073559239929
 40
0.1380718392551294
 40
0.2087864689267234
 40
0.277146965518544
 40
0.3416902146964228
 40
0.3991884922825862
 40
0.4507000022756124
 40
0.4999527446481506
 40
0.5492054870206889
 40
0.6007169970137151
 40
0.6582150709937082
 40
0.7227585803680635
 40
0.7672422704834911
 40
0.8133764781553708
 40
0.8619281467558855
 40
0.9069257539229186
 40
0.9498661634001829
 40
1.0
 40
1.0
 40
1.0
 40
1.0
 10
38.16659675236728
 20
379.9084378008006
 30
0.0
 10
38.15269021828921
 20
380.2691511832272
 30
0.0
 10
38.12687253475239
 20
380.9388208437392
 30
0.0
 10
37.92703218471632
 20
381.9239361441353
 30
0.0
 10
37.5680766226339
 20
383.0378181332277
 30
0.0
 10
36.92673031402999
 20
384.2880749848918
 30
0.0
 10
35.90037337044777
 20
385.5696932368118
 30
0.0
 10
34.62811757844136
 20
386.6147483441467
 30
0.0
 10
33.19860815425152
 20
387.3679297930197
 30
0.0
 10
31.69670125204621
 20
387.8092197558572
 30
0.0
 10
30.16657970751907
 20
387.9569584537526
 30
0.0
 10
28.6364632336496
 20
387.8092216088436
 30
0.0
 10
27.13454172494895
 20
387.3679221706215
 30
0.0
 10
25.70510246800844
 20
386.614785652385
 30
0.0
 10
24.59209118492939
 20
385.7005937609213
 30
0.0
 10
23.76508084445611
 20
384.7469673551729
 30
0.0
 10
23.16908256771227
 20
383.8364525581595
 30
0.0
 10
22.71490857080988
 20
382.8823862576995
 30
0.0
 10
22.40613367089633
 20
381.9238827974132
 30
0.0
 10
22.20628678540876
 20
380.9388349790707
 30
0.0
 10
22.18047024098896
 20
380.2691560144842
 30
0.0
 10
22.16656432744052
 20
379.9084378008006
 30
0.0
  0
LINE
  5
12C
330
1F
100
AcDbEntity
  8
0
  6
Continuous
 62
     7
370
    15
100
AcDbLine
 10
38.1665967524
 20
379.9084378008
 30
0.0
 11
38.1600402414
 21
380.2324486498
 31
0.0
  0
LWPOLYLINE
  5
12D
330
1F
100
AcDbEntity
  8
0
  6
Continuous
 62
     7
370
    15
100
AcDbPolyline
 90
        3
 70
   128
 43
0.0
 10
22.477223736
 20
382.1159554247
 10
22.2627662241
 20
381.1451149706
 10
22.1665643274
 20
379.9084378008
  0
ARC
  5
12E
330
1F
100
AcDbEntity
  8
0
  6
Continuous
 62
     7
370
    15
100
AcDbCircle
 10
30.1665861788
 20
379.9084950249
 30
0.0
 40
12.00000000000001
100
AcDbArc
 50
311.8103148958
 51
0.0
  0
ARC
  5
12F
330
1F
100
AcDbEntity
  8
0
  6
Continuous
 62
     7
370
    15
100
AcDbCircle
 10
30.1665861788
 20
379.9084950249
 30
0.0
 40
12.00000000000001
100
AcDbArc
 50
0.0
 51
228.1896851042
  0
LINE
  5
130
330
1F
100
AcDbEntity
  8
0
  6
Continuous
 62
     7
370
    15
100
AcDbLine
 10
18.8104651987
 20
387.208457065
 30
0.0
 11
24.1665385782
 21
390.300746036
 31
0.0
  0
LINE
  5
131
330
1F
100
AcDbEntity
  8
0
  6
Continuous
 62
     7
370
    15
100
AcDbLine
 10
18.1666158259
 20
379.9084378008
 30
0.0
 11
18.1666158259
 21
386.093134952
 31
0.0
  0
ARC
  5
132
330
1F
100
AcDbEntity
  8
0
  6
Continuous
 62
     7
370
    15
100
AcDbCircle
 10
30.1665861788
 20
379.9084950249
 30
0.0
 40
13.50000000000051
100
AcDbArc
 50
147.2660444507
 51
152.7339555493
  0
LINE
  5
133
330
1F
100
AcDbEntity
  8
0
  6
Continuous
 62
     7
370
    15
100
AcDbLine
 10
18.1666158259
 20
373.7238598589
 30
0.0
 11
18.1666158259
 21
379.9084378008
 31
0.0
  0
LINE
  5
134
330
1F
100
AcDbEntity
  8
0
  6
Continuous
 62
     7
370
    15
100
AcDbLine
 10
22.1665643274
 20
370.6709099535
 30
0.0
 11
18.8104651987
 21
372.6085377459
 31
0.0
  0
ARC
  5
135
330
1F
100
AcDbEntity
  8
0
  6
Continuous
 62
     7
370
    15
100
AcDbCircle
 10
30.1665861788
 20
379.9084950249
 30
0.0
 40
13.50000000000149
100
AcDbArc
 50
207.2660444507
 51
212.7339555493
  0
LINE
  5
136
330
1F
100
AcDbEntity
  8
0
  6
Continuous
 62
     7
370
    15
100
AcDbLine
 10
30.8105491221
 20
393.3931542162
 30
0.0
 11
36.1666225016
 21
390.300746036
 31
0.0
  0
LINE
  5
137
330
1F
100
AcDbEntity
  8
0
  6
Continuous
 62
     7
370
    15
100
AcDbLine
 10
24.1665385782
 20
390.300746036
 30
0.0
 11
29.5226119578
 21
393.3931542162
 31
0.0
  0
ARC
  5
138
330
1F
100
AcDbEntity
  8
0
  6
Continuous
 62
     7
370
    15
100
AcDbCircle
 10
30.1665861788
 20
379.9084950249
 30
0.0
 40
13.4999999999988
100
AcDbArc
 50
87.2660444507
 51
92.7339555493
  0
LINE
  5
139
330
1F
100
AcDbEntity
  8
0
  6
Continuous
 62
     7
370
    15
100
AcDbLine
 10
42.166545254
 20
386.093134952
 30
0.0
 11
42.166545254
 21
379.9084378008
 31
0.0
  0
LINE
  5
13A
330
1F
100
AcDbEntity
  8
0
  6
Continuous
 62
     7
370
    15
100
AcDbLine
 10
36.1666225016
 20
390.300746036
 30
0.0
 11
41.5226958811
 21
387.208457065
 31
0.0
  0
ARC
  5
13B
330
1F
100
AcDbEntity
  8
0
  6
Continuous
 62
     7
370
    15
100
AcDbCircle
 10
30.1665861788
 20
379.9084950249
 30
0.0
 40
13.50000000000017
100
AcDbArc
 50
27.2660444507
 51
32.7339555493
  0
LINE
  5
13C
330
1F
100
AcDbEntity
  8
0
  6
Continuous
 62
     7
370
    15
100
AcDbLine
 10
42.166545254
 20
379.9084378008
 30
0.0
 11
42.166545254
 21
373.7238598589
 31
0.0
  0
LINE
  5
13D
330
1F
100
AcDbEntity
  8
0
  6
Continuous
 62
     7
370
    15
100
AcDbLine
 10
41.5226958811
 20
372.6085377459
 30
0.0
 11
38.1665967524
 21
370.6709099535
 31
0.0
  0
ARC
  5
13E
330
1F
100
AcDbEntity
  8
0
  6
Continuous
 62
     7
370
    15
100
AcDbCircle
 10
30.1665861788
 20
379.9084950249
 30
0.0
 40
13.5000000000009
100
AcDbArc
 50
327.2660444507
 51
332.7339555493
  0
ARC
  5
13F
330
1F
100
AcDbEntity
  8
0
  6
Continuous
 62
     7
370
    15
100
AcDbCircle
 10
30.1665861788
 20
379.9084950249
 30
0.0
 40
13.50000000000026
100
AcDbArc
 50
212.7339555493
 51
229.7817954094
  0
ARC
  5
140
330
1F
100
AcDbEntity
  8
0
  6
Continuous
 62
     7
370
    15
100
AcDbCircle
 10
30.1665861788
 20
379.9084950249
 30
0.0
 40
13.5000000000001
100
AcDbArc
 50
92.7339555493
 51
147.2660444507
  0
ARC
  5
141
330
1F
100
AcDbEntity
  8
0
  6
Continuous
 62
     7
370
    15
100
AcDbCircle
 10
30.1665861788
 20
379.9084950249
 30
0.0
 40
13.5000000000012
100
AcDbArc
 50
152.7339555493
 51
207.2660444507
  0
ARC
  5
142
330
1F
100
AcDbEntity
  8
0
  6
Continuous
 62
     7
370
    15
100
AcDbCircle
 10
30.1665861788
 20
379.9084950249
 30
0.0
 40
13.4999999999994
100
AcDbArc
 50
32.7339555493
 51
87.2660444507
  0
ARC
  5
143
330
1F
100
AcDbEntity
  8
0
  6
Continuous
 62
     7
370
    15
100
AcDbCircle
 10
30.1665861788
 20
379.9084950249
 30
0.0
 40
13.50000000000128
100
AcDbArc
 50
310.2182045906
 51
327.2660444507
  0
ARC
  5
144
330
1F
100
AcDbEntity
  8
0
  6
Continuous
 62
     7
370
    15
100
AcDbCircle
 10
30.1665861788
 20
379.9084950249
 30
0.0
 40
13.5000000000006
100
AcDbArc
 50
332.7339555493
 51
27.2660444507
  0
LINE
  5
145
330
1F
100
AcDbEntity
  8
0
  6
Continuous
 62
     7
370
    15
100
AcDbLine
 10
35.6665395319
 20
68.708474708
 30
0.0
 11
35.6511615336
 21
68.708474708
 31
0.0
  0
LINE
  5
146
330
1F
100
AcDbEntity
  8
0
  6
Continuous
 62
     7
370
    15
100
AcDbLine
 10
35.6511615336
 20
75.7085037951
 30
0.0
 11
35.6511615336
 21
68.708474708
 31
0.0
  0
LINE
  5
147
330
1F
100
AcDbEntity
  8
0
  6
Continuous
 62
     7
370
    15
100
AcDbLine
 10
29.4665835917
 20
75.7085037951
 30
0.0
 11
35.6511615336
 21
75.7085037951
 31
0.0
  0
LINE
  5
148
330
1F
100
AcDbEntity
  8
0
  6
Continuous
 62
     7
370
    15
100
AcDbLine
 10
29.4665835917
 20
68.708474708
 30
0.0
 11
29.4665835917
 21
75.7085037951
 31
0.0
  0
LINE
  5
149
330
1F
100
AcDbEntity
  8
0
  6
Continuous
 62
     7
370
    15
100
AcDbLine
 10
29.4665835917
 20
68.708474708
 30
0.0
 11
28.3512614786
 21
68.708474708
 31
0.0
  0
LINE
  5
14A
330
1F
100
AcDbEntity
  8
0
  6
Continuous
 62
     7
370
    15
100
AcDbLine
 10
28.3512614786
 20
75.7085037951
 30
0.0
 11
28.3512614786
 21
68.708474708
 31
0.0
  0
LINE
  5
14B
330
1F
100
AcDbEntity
  8
0
  6
Continuous
 62
     7
370
    15
100
AcDbLine
 10
15.9819863855
 20
75.7085037951
 30
0.0
 11
28.3512614786
 21
75.7085037951
 31
0.0
  0
LINE
  5
14C
330
1F
100
AcDbEntity
  8
0
  6
Continuous
 62
     7
370
    15
100
AcDbLine
 10
15.9819863855
 20
68.708474708
 30
0.0
 11
15.9819863855
 21
75.7085037951
 31
0.0
  0
LINE
  5
14D
330
1F
100
AcDbEntity
  8
0
  6
Continuous
 62
     7
370
    15
100
AcDbLine
 10
15.9819863855
 20
68.708474708
 30
0.0
 11
14.8666642725
 21
68.708474708
 31
0.0
  0
LINE
  5
14E
330
1F
100
AcDbEntity
  8
0
  6
Continuous
 62
     7
370
    15
100
AcDbLine
 10
14.8666642725
 20
75.7085037951
 30
0.0
 11
14.8666642725
 21
68.708474708
 31
0.0
  0
LINE
  5
14F
330
1F
100
AcDbEntity
  8
0
  6
Continuous
 62
     7
370
    15
100
AcDbLine
 10
8.6819671213
 20
75.7085037951
 30
0.0
 11
14.8666642725
 21
75.7085037951
 31
0.0
  0
LINE
  5
150
330
1F
100
AcDbEntity
  8
0
  6
Continuous
 62
     7
370
    15
100
AcDbLine
 10
8.6819671213
 20
68.708474708
 30
0.0
 11
8.6819671213
 21
75.7085037951
 31
0.0
  0
LINE
  5
151
330
1F
100
AcDbEntity
  8
0
  6
Continuous
 62
     7
370
    15
100
AcDbLine
 10
8.6819671213
 20
68.708474708
 30
0.0
 11
8.666589123
 21
68.708474708
 31
0.0
  0
LINE
  5
152
330
1F
100
AcDbEntity
  8
0
  6
Continuous
 62
     7
370
    15
100
AcDbLine
 10
8.666589123
 20
80.7084990267
 30
0.0
 11
35.6665395319
 21
80.7084990267
 31
0.0
  0
LINE
  5
153
330
1F
100
AcDbEntity
  8
0
  6
Continuous
 62
     7
370
    15
100
AcDbLine
 10
42.682006222
 20
56.8267060045
 30
0.0
 11
51.6819499552
 21
56.8267060045
 31
0.0
  0
LINE
  5
154
330
1F
100
AcDbEntity
  8
0
  6
Continuous
 62
     7
370
    15
100
AcDbLine
 10
51.6819499552
 20
56.5903139834
 30
0.0
 11
51.6819499552
 21
56.8267060045
 31
0.0
  0
LINE
  5
155
330
1F
100
AcDbEntity
  8
0
  6
Continuous
 62
     7
370
    15
100
AcDbLine
 10
51.6819499552
 20
56.5903139834
 30
0.0
 11
42.682006222
 21
56.5903139834
 31
0.0
  0
LINE
  5
156
330
1F
100
AcDbEntity
  8
0
  6
Continuous
 62
     7
370
    15
100
AcDbLine
 10
42.682006222
 20
56.5903139834
 30
0.0
 11
42.682006222
 21
56.8267060045
 31
0.0
  0
LINE
  5
157
330
1F
100
AcDbEntity
  8
0
  6
Continuous
 62
     7
370
    15
100
AcDbLine
 10
42.682006222
 20
45.0767231707
 30
0.0
 11
51.6819499552
 21
45.0767231707
 31
0.0
  0
LINE
  5
158
330
1F
100
AcDbEntity
  8
0
  6
Continuous
 62
     7
370
    15
100
AcDbLine
 10
51.6819499552
 20
56.5903139834
 30
0.0
 11
51.6819499552
 21
45.0767231707
 31
0.0
  0
LINE
  5
159
330
1F
100
AcDbEntity
  8
0
  6
Continuous
 62
     7
370
    15
100
AcDbLine
 10
42.682006222
 20
56.5903139834
 30
0.0
 11
42.682006222
 21
45.0767231707
 31
0.0
  0
LINE
  5
15A
330
1F
100
AcDbEntity
  8
0
  6
Continuous
 62
     7
370
    15
100
AcDbLine
 10
51.6819499552
 20
68.3402968172
 30
0.0
 11
42.682006222
 21
68.3402968172
 31
0.0
  0
LINE
  5
15B
330
1F
100
AcDbEntity
  8
0
  6
Continuous
 62
     7
370
    15
100
AcDbLine
 10
51.6819499552
 20
68.3402968172
 30
0.0
 11
51.6819499552
 21
56.8267060045
 31
0.0
  0
LINE
  5
15C
330
1F
100
AcDbEntity
  8
0
  6
Continuous
 62
     7
370
    15
100
AcDbLine
 10
42.682006222
 20
68.3402968172
 30
0.0
 11
42.682006222
 21
56.8267060045
 31
0.0
  0
LINE
  5
15D
330
1F
100
AcDbEntity
  8
0
  6
Continuous
 62
     7
370
    15
100
AcDbLine
 10
22.1665643274
 20
68.708474708
 30
0.0
 11
28.3512614786
 21
68.708474708
 31
0.0
  0
LINE
  5
15E
330
1F
100
AcDbEntity
  8
0
  6
Continuous
 62
     7
370
    15
100
AcDbLine
 10
15.9819863855
 20
68.708474708
 30
0.0
 11
22.1665643274
 21
68.708474708
 31
0.0
  0
LINE
  5
15F
330
1F
100
AcDbEntity
  8
0
  6
Continuous
 62
     7
370
    15
100
AcDbLine
 10
8.6819671213
 20
68.708474708
 30
0.0
 11
11.7742560923
 21
68.708474708
 31
0.0
  0
LINE
  5
160
330
1F
100
AcDbEntity
  8
0
  6
Continuous
 62
     7
370
    15
100
AcDbLine
 10
11.7742560923
 20
68.708474708
 30
0.0
 11
14.8666642725
 21
68.708474708
 31
0.0
  0
LINE
  5
161
330
1F
100
AcDbEntity
  8
0
  6
Continuous
 62
     7
370
    15
100
AcDbLine
 10
32.5588725626
 20
68.708474708
 30
0.0
 11
35.6511615336
 21
68.708474708
 31
0.0
  0
LINE
  5
162
330
1F
100
AcDbEntity
  8
0
  6
Continuous
 62
     7
370
    15
100
AcDbLine
 10
29.4665835917
 20
68.708474708
 30
0.0
 11
32.5588725626
 21
68.708474708
 31
0.0
  0
SPLINE
  5
163
330
1F
100
AcDbEntity
  8
0
  6
Continuous
 62
     7
370
    15
100
AcDbSpline
210
0.0
220
0.0
230
1.0
 70
     8
 71
     3
 72
     9
 73
     5
 74
     0
 42
0.00000001
 43
0.00000001
 40
0.0
 40
0.0
 40
0.0
 40
0.0
 40
0.5123507261376249
 40
1.0
 40
1.0
 40
1.0
 40
1.0
 10
32.61668906804132
 20
65.64700133839807
 30
0.0
 10
32.67992949573656
 20
65.6649391295715
 30
0.0
 10
32.80336140374202
 20
65.69994989516292
 30
0.0
 10
32.82348102732452
 20
65.7057062496974
 30
0.0
 10
32.83329234715509
 20
65.70851333180627
 30
0.0
  0
LINE
  5
164
330
1F
100
AcDbEntity
  8
0
  6
Continuous
 62
     7
370
    15
100
AcDbLine
 10
32.5666211664
 20
65.6084967379
 30
0.0
 11
32.616689068
 21
65.6470013384
 31
0.0
  0
LINE
  5
165
330
1F
100
AcDbEntity
  8
0
  6
Continuous
 62
     7
370
    15
100
AcDbLine
 10
54.681970936
 20
67.9584694628
 30
0.0
 11
54.681970936
 21
45.4584909205
 31
0.0
  0
LINE
  5
166
330
1F
100
AcDbEntity
  8
0
  6
Continuous
 62
     7
370
    15
100
AcDbLine
 10
32.1166060984
 20
64.7084666018
 30
0.0
 11
32.1166060984
 21
48.7084937815
 31
0.0
  0
LINE
  5
167
330
1F
100
AcDbEntity
  8
0
  6
Continuous
 62
     7
370
    15
100
AcDbLine
 10
32.6165698588
 20
65.6470013384
 30
0.0
 11
32.6165698588
 21
47.7085066561
 31
0.0
  0
SPLINE
  5
168
330
1F
100
AcDbEntity
  8
0
  6
Continuous
 62
     7
370
    15
100
AcDbSpline
210
0.0
220
0.0
230
1.0
 70
     8
 71
     3
 72
    10
 73
     6
 74
     0
 42
0.00000001
 43
0.00000001
 40
0.0
 40
0.0
 40
0.0
 40
0.0
 40
0.0271613948312058
 40
0.5156215665100707
 40
1.0
 40
1.0
 40
1.0
 40
1.0
 10
30.42884097691584
 20
64.69898946324548
 30
0.0
 10
30.43438934919079
 20
64.70212484655846
 30
0.0
 10
30.53971753361357
 20
64.76164576827226
 30
0.0
 10
30.10833134170593
 20
64.55176688384701
 30
0.0
 10
29.68459578474852
 20
64.19375692832119
 30
0.0
 10
29.47361693974543
 20
64.01550300160608
 30
0.0
  0
SPLINE
  5
169
330
1F
100
AcDbEntity
  8
0
  6
Continuous
 62
     7
370
    15
100
AcDbSpline
210
0.0
220
0.0
230
1.0
 70
     8
 71
     3
 72
    11
 73
     7
 74
     0
 42
0.00000001
 43
0.00000001
 40
0.0
 40
0.0
 40
0.0
 40
0.0
 40
0.2155747146293802
 40
0.4637483176659599
 40
0.7321108899043886
 40
1.0
 40
1.0
 40
1.0
 40
1.0
 10
29.47361693974543
 20
64.01550300160608
 30
0.0
 10
29.09979930295475
 20
63.64167995067027
 30
0.0
 10
28.29563588112843
 20
62.83750488183537
 30
0.0
 10
26.49697769504949
 20
61.03894697166956
 30
0.0
 10
24.40963518878198
 20
58.95157477425672
 30
0.0
 10
22.91381438934886
 20
57.45575803003788
 30
0.0
 10
22.16656432744074
 20
56.70850999394617
 30
0.0
  0
SPLINE
  5
16A
330
1F
100
AcDbEntity
  8
0
  6
Continuous
 62
     7
370
    15
100
AcDbSpline
210
0.0
220
0.0
230
1.0
 70
     8
 71
     3
 72
    16
 73
    12
 74
     0
 42
0.00000001
 43
0.00000001
 40
0.0
 40
0.0
 40
0.0
 40
0.0
 40
0.1002732578821191
 40
0.1861604184742267
 40
0.2761649479119603
 40
0.4176097573753138
 40
0.5543429069347897
 40
0.6834446770287231
 40
0.7984462146645035
 40
0.9014830286965583
 40
0.9999999999999999
 40
0.9999999999999999
 40
0.9999999999999999
 40
0.9999999999999999
 10
22.16656432744074
 20
56.70850999394617
 30
0.0
 10
21.80590057090687
 20
56.34764899741596
 30
0.0
 10
21.13631710206404
 20
55.67769934639277
 30
0.0
 10
20.15117262407068
 20
54.69290381977843
 30
0.0
 10
19.03731055119479
 20
53.57930088074647
 30
0.0
 10
17.78693645833013
 20
52.32857248341394
 30
0.0
 10
16.50586239423296
 20
51.04821057195441
 30
0.0
 10
15.4588684700146
 20
49.99930792167995
 30
0.0
 10
14.71143116123114
 20
49.25390530401541
 30
0.0
 10
14.25213204810466
 20
48.79333758248106
 30
0.0
 10
14.19464638745921
 20
48.73634905935742
 30
0.0
 10
14.16654811497714
 20
48.7084937814829
 30
0.0
  0
LINE
  5
16B
330
1F
100
AcDbEntity
  8
0
  6
Continuous
 62
     7
370
    15
100
AcDbLine
 10
51.6819499552
 20
44.9584675554
 30
0.0
 11
42.682006222
 21
44.9584675554
 31
0.0
  0
LINE
  5
16C
330
1F
100
AcDbEntity
  8
0
  6
Continuous
 62
     7
370
    15
100
AcDbLine
 10
51.6819499552
 20
44.9584675554
 30
0.0
 11
51.6819499552
 21
45.0767231707
 31
0.0
  0
LINE
  5
16D
330
1F
100
AcDbEntity
  8
0
  6
Continuous
 62
     7
370
    15
100
AcDbLine
 10
42.682006222
 20
44.9584675554
 30
0.0
 11
42.682006222
 21
45.0767231707
 31
0.0
  0
LINE
  5
16E
330
1F
100
AcDbEntity
  8
0
  6
Continuous
 62
     7
370
    15
100
AcDbLine
 10
42.682006222
 20
68.4584928278
 30
0.0
 11
51.6819499552
 21
68.4584928278
 31
0.0
  0
LINE
  5
16F
330
1F
100
AcDbEntity
  8
0
  6
Continuous
 62
     7
370
    15
100
AcDbLine
 10
51.6819499552
 20
68.3402968172
 30
0.0
 11
51.6819499552
 21
68.4584928278
 31
0.0
  0
LINE
  5
170
330
1F
100
AcDbEntity
  8
0
  6
Continuous
 62
     7
370
    15
100
AcDbLine
 10
42.682006222
 20
68.3402968172
 30
0.0
 11
42.682006222
 21
68.4584928278
 31
0.0
  0
LWPOLYLINE
  5
171
330
1F
100
AcDbEntity
  8
0
  6
Continuous
 62
     7
370
    15
100
AcDbPolyline
 90
       19
 70
   128
 43
0.0
 10
28.6665700495
 20
63.208515716
 10
28.5678647577
 20
63.1097508196
 10
28.2746099054
 20
62.8164959673
 10
27.7957461893
 20
62.3376322512
 10
27.1458171427
 20
61.6877628092
 10
26.3447307169
 20
60.8866167788
 10
25.4165671885
 20
59.958512855
 10
24.3896983683
 20
58.9316440348
 10
23.2953570902
 20
57.8371835474
 10
22.1665643274
 20
56.7085099939
 10
21.037890774
 20
55.5797768358
 10
19.9434302866
 20
54.4853759531
 10
18.9165614664
 20
53.4585071329
 10
17.9885171473
 20
52.5304032091
 10
17.1873115122
 20
51.7291975741
 10
16.5373824656
 20
51.0793281321
 10
16.0586379587
 20
50.6004644159
 10
15.7653831064
 20
50.3072691683
 10
15.6665586054
 20
50.2085042719
  0
LINE
  5
172
330
1F
100
AcDbEntity
  8
0
  6
Continuous
 62
     7
370
    15
100
AcDbLine
 10
782.4665747702
 20
1120.279188228
 30
0.0
 11
782.166584593
 21
1120.279188228
 31
0.0
  0
LINE
  5
173
330
1F
100
AcDbEntity
  8
0
  6
Continuous
 62
     7
370
    15
100
AcDbLine
 10
782.166584593
 20
369.6792078737
 30
0.0
 11
782.4665747702
 21
369.6792078737
 31
0.0
  0
LINE
  5
174
330
1F
100
AcDbEntity
  8
0
  6
Continuous
 62
     7
370
    15
100
AcDbLine
 10
782.166584593
 20
1125.2791834597
 30
0.0
 11
782.166584593
 21
1120.279188228
 31
0.0
  0
LINE
  5
175
330
1F
100
AcDbEntity
  8
0
  6
Continuous
 62
     7
370
    15
100
AcDbLine
 10
782.166584593
 20
369.6792078737
 30
0.0
 11
782.166584593
 21
364.6792126421
 31
0.0
  0
LINE
  5
176
330
1F
100
AcDbEntity
  8
0
  6
Continuous
 62
     7
370
    15
100
AcDbLine
 10
784.7665988028
 20
1132.2084618334
 30
0.0
 11
784.7665988028
 21
1132.2014284853
 31
0.0
  0
LINE
  5
177
330
1F
100
AcDbEntity
  8
0
  6
Continuous
 62
     7
370
    15
100
AcDbLine
 10
809.2665813982
 20
1132.2084618334
 30
0.0
 11
809.2665813982
 21
1132.2014284853
 31
0.0
  0
LINE
  5
178
330
1F
100
AcDbEntity
  8
0
  6
Continuous
 62
     7
370
    15
100
AcDbLine
 10
809.5165930807
 20
274.6791792635
 30
0.0
 11
782.4665747702
 21
274.6791792635
 31
0.0
  0
LINE
  5
179
330
1F
100
AcDbEntity
  8
0
  6
Continuous
 62
     7
370
    15
100
AcDbLine
 10
782.4665747702
 20
274.6791792635
 30
0.0
 11
782.4665747702
 21
1132.2014284853
 31
0.0
  0
CIRCLE
  5
17A
330
1F
100
AcDbEntity
  8
0
  6
Continuous
 62
     7
370
    15
100
AcDbCircle
 10
787.9665861761
 20
383.554817634
 30
0.0
 40
1.699999999999932
  0
CIRCLE
  5
17B
330
1F
100
AcDbEntity
  8
0
  6
Continuous
 62
     7
370
    15
100
AcDbCircle
 10
787.9665861761
 20
863.554817634
 30
0.0
 40
1.700000000000045
  0
CIRCLE
  5
17C
330
1F
100
AcDbEntity
  8
0
  6
Continuous
 62
     7
370
    15
100
AcDbCircle
 10
787.9665861761
 20
1103.554817634
 30
0.0
 40
1.700000000000159
  0
CIRCLE
  5
17D
330
1F
100
AcDbEntity
  8
0
  6
Continuous
 62
     7
370
    15
100
AcDbCircle
 10
787.9665861761
 20
623.554817634
 30
0.0
 40
1.699999999999932
  0
LINE
  5
17E
330
1F
100
AcDbEntity
  8
0
  6
Continuous
 62
     7
370
    15
100
AcDbLine
 10
809.5165930807
 20
1132.2014284853
 30
0.0
 11
782.4665747702
 21
1132.2014284853
 31
0.0
  0
LINE
  5
17F
330
1F
100
AcDbEntity
  8
0
  6
Continuous
 62
     7
370
    15
100
AcDbLine
 10
811.9665823996
 20
1130.9585524325
 30
0.0
 11
811.9665823996
 21
275.858516765
 31
0.0
  0
SPLINE
  5
180
330
1F
100
AcDbEntity
  8
0
  6
Continuous
 62
     7
370
    15
100
AcDbSpline
210
0.0
220
0.0
230
1.0
 70
     8
 71
     3
 72
    13
 73
     9
 74
     0
 42
0.00000001
 43
0.00000001
 40
0.0
 40
0.0
 40
0.0
 40
0.0
 40
0.1342999556808722
 40
0.2621064125462232
 40
0.3841108998982525
 40
0.5010886000806419
 40
0.7091588083035897
 40
1.0
 40
1.0
 40
1.0
 40
1.0
 10
809.5165930807213
 20
274.6791792635079
 30
0.0
 10
809.698256196794
 20
274.6878482350152
 30
0.0
 10
810.0527988874775
 20
274.7047670270628
 30
0.0
 10
810.5436257536551
 20
274.7740362651492
 30
0.0
 10
810.9651296782617
 20
274.8752916270243
 30
0.0
 10
811.3985158325276
 20
275.0502553607803
 30
0.0
 10
811.8483248236001
 20
275.3806798148346
 30
0.0
 10
811.923031831091
 20
275.6825443535367
 30
0.0
 10
811.966582399569
 20
275.8585167650338
 30
0.0
  0
SPLINE
  5
181
330
1F
100
AcDbEntity
  8
0
  6
Continuous
 62
     7
370
    15
100
AcDbSpline
210
0.0
220
0.0
230
1.0
 70
     8
 71
     3
 72
    11
 73
     7
 74
     0
 42
0.00000001
 43
0.00000001
 40
0.0
 40
0.0
 40
0.0
 40
0.0
 40
0.2499972716302374
 40
0.500000830094905
 40
0.7499942509585754
 40
1.0
 40
1.0
 40
1.0
 40
1.0
 10
811.966582399569
 20
1130.958552432453
 30
0.0
 10
811.9297478336864
 20
1131.062092466159
 30
0.0
 10
811.85607777562
 20
1131.269175137355
 30
0.0
 10
811.2895710891681
 20
1131.580032095852
 30
0.0
 10
810.4796974084376
 20
1131.890617543779
 30
0.0
 10
809.8376331336239
 20
1132.097823135152
 30
0.0
 10
809.5165930807213
 20
1132.20142848531
 30
0.0
  0
SPLINE
  5
182
330
1F
100
AcDbEntity
  8
0
  6
Continuous
 62
     7
370
    15
100
AcDbSpline
210
0.0
220
0.0
230
1.0
 70
     8
 71
     3
 72
    12
 73
     8
 74
     0
 42
0.00000001
 43
0.00000001
 40
0.0
 40
0.0
 40
0.0
 40
0.0
 40
0.2256343587289241
 40
0.4513292075972198
 40
0.6770226247138116
 40
0.9027171998120284
 40
1.0
 40
1.0
 40
1.0
 40
1.0
 10
811.966582399569
 20
1130.958552432453
 30
0.0
 10
811.936633118945
 20
1131.248022941388
 30
0.0
 10
811.8767265286177
 20
1131.82704156318
 30
0.0
 10
811.4113787908403
 20
1132.588453706054
 30
0.0
 10
810.7325898149595
 20
1133.143500231104
 30
0.0
 10
810.0534116478593
 20
1133.383657041626
 30
0.0
 10
809.6408570877621
 20
1133.402781380987
 30
0.0
 10
809.5165930807213
 20
1133.408541751301
 30
0.0
  0
SPLINE
  5
183
330
1F
100
AcDbEntity
  8
0
  6
Continuous
 62
     7
370
    15
100
AcDbSpline
210
0.0
220
0.0
230
1.0
 70
     8
 71
     3
 72
     9
 73
     5
 74
     0
 42
0.00000001
 43
0.00000001
 40
0.0
 40
0.0
 40
0.0
 40
0.0
 40
0.4141142708504359
 40
1.0
 40
1.0
 40
1.0
 40
1.0
 10
810.2059207975487
 20
1131.97302348653
 30
0.0
 10
810.1214891336125
 20
1132.033763938376
 30
0.0
 10
809.9176041919924
 20
1132.180439520749
 30
0.0
 10
809.6647416408639
 20
1132.198109339027
 30
0.0
 10
809.5165930807213
 20
1132.208461833393
 30
0.0
  0
LINE
  5
184
330
1F
100
AcDbEntity
  8
0
  6
Continuous
 62
     7
370
    15
100
AcDbLine
 10
809.5165930807
 20
1133.4085417513
 30
0.0
 11
809.5165930807
 21
1132.2084618334
 31
0.0
  0
LINE
  5
185
330
1F
100
AcDbEntity
  8
0
  6
Continuous
 62
     7
370
    15
100
AcDbLine
 10
809.5165930807
 20
274.6084881548
 30
0.0
 11
809.5165930807
 21
273.4085274462
 31
0.0
  0
SPLINE
  5
186
330
1F
100
AcDbEntity
  8
0
  6
Continuous
 62
     7
370
    15
100
AcDbSpline
210
0.0
220
0.0
230
1.0
 70
     8
 71
     3
 72
     9
 73
     5
 74
     0
 42
0.00000001
 43
0.00000001
 40
0.0
 40
0.0
 40
0.0
 40
0.0
 40
0.0818180603453977
 40
1.0
 40
1.0
 40
1.0
 40
1.0
 10
809.9889002859215
 20
274.7088623766061
 30
0.0
 10
809.9777173761307
 20
274.7017206422573
 30
0.0
 10
809.8410371646527
 20
274.6144326484006
 30
0.0
 10
809.6718957098074
 20
274.611333623499
 30
0.0
 10
809.5165930807213
 20
274.6084881548043
 30
0.0
  0
SPLINE
  5
187
330
1F
100
AcDbEntity
  8
0
  6
Continuous
 62
     7
370
    15
100
AcDbSpline
210
0.0
220
0.0
230
1.0
 70
     8
 71
     3
 72
    12
 73
     8
 74
     0
 42
0.00000001
 43
0.00000001
 40
0.0
 40
0.0
 40
0.0
 40
0.0
 40
0.2245703846787572
 40
0.4491920533928385
 40
0.6738073572563978
 40
0.8984258351968466
 40
1.0
 40
1.0
 40
1.0
 40
1.0
 10
811.966582399569
 20
275.8585167650338
 30
0.0
 10
811.9369219643149
 20
275.5704028200689
 30
0.0
 10
811.8775943203989
 20
274.994109134973
 30
0.0
 10
811.4165211539079
 20
274.235260518817
 30
0.0
 10
810.7433725833571
 20
273.6801429589726
 30
0.0
 10
810.0630560133158
 20
273.434823865911
 30
0.0
 10
809.6463519002344
 20
273.4147715886111
 30
0.0
 10
809.5165930807213
 20
273.4085274461862
 30
0.0
  0
LINE
  5
188
330
1F
100
AcDbEntity
  8
0
  6
Continuous
 62
     7
370
    15
100
AcDbLine
 10
809.5165930807
 20
1132.2084618334
 30
0.0
 11
782.4665747702
 21
1132.2084618334
 31
0.0
  0
LINE
  5
189
330
1F
100
AcDbEntity
  8
0
  6
Continuous
 62
     7
370
    15
100
AcDbLine
 10
809.5165930807
 20
1133.4085417513
 30
0.0
 11
782.4665747702
 21
1133.4085417513
 31
0.0
  0
LINE
  5
18A
330
1F
100
AcDbEntity
  8
0
  6
Continuous
 62
     7
370
    15
100
AcDbLine
 10
782.4665747702
 20
1132.2084618334
 30
0.0
 11
782.4665747702
 21
1133.4085417513
 31
0.0
  0
LINE
  5
18B
330
1F
100
AcDbEntity
  8
0
  6
Continuous
 62
     7
370
    15
100
AcDbLine
 10
771.4165888846
 20
274.6084881548
 30
0.0
 11
809.5165930807
 21
274.6084881548
 31
0.0
  0
LINE
  5
18C
330
1F
100
AcDbEntity
  8
0
  6
Continuous
 62
     7
370
    15
100
AcDbLine
 10
809.5165930807
 20
273.4085274462
 30
0.0
 11
771.4165888846
 21
273.4085274462
 31
0.0
  0
LINE
  5
18D
330
1F
100
AcDbEntity
  8
0
  6
Continuous
 62
     7
370
    15
100
AcDbLine
 10
771.4165888846
 20
274.6084881548
 30
0.0
 11
771.4165888846
 21
273.4085274462
 31
0.0
  0
ARC
  5
18E
330
1F
100
AcDbEntity
  8
0
  6
Continuous
 62
     7
370
    15
100
AcDbCircle
 10
771.4165861761
 20
275.8584950249
 30
0.0
 40
1.25
100
AcDbArc
 50
180.0
 51
270.0
  0
ARC
  5
18F
330
1F
100
AcDbEntity
  8
0
  6
Continuous
 62
     7
370
    15
100
AcDbCircle
 10
771.4165861761
 20
275.8584950249
 30
0.0
 40
2.450000000000102
100
AcDbArc
 50
180.0
 51
270.0
  0
LINE
  5
190
330
1F
100
AcDbEntity
  8
0
  6
Continuous
 62
     7
370
    15
100
AcDbLine
 10
770.1665900766
 20
275.858516765
 30
0.0
 11
770.1665900766
 21
278.4085226778
 31
0.0
  0
LINE
  5
191
330
1F
100
AcDbEntity
  8
0
  6
Continuous
 62
     7
370
    15
100
AcDbLine
 10
768.9665995657
 20
278.4085226778
 30
0.0
 11
768.9665995657
 21
275.858516765
 31
0.0
  0
LINE
  5
192
330
1F
100
AcDbEntity
  8
0
  6
Continuous
 62
     7
370
    15
100
AcDbLine
 10
768.9665995657
 20
283.4085179094
 30
0.0
 11
770.1665900766
 21
283.4085179094
 31
0.0
  0
LINE
  5
193
330
1F
100
AcDbEntity
  8
0
  6
Continuous
 62
     7
370
    15
100
AcDbLine
 10
770.1665900766
 20
282.5509262804
 30
0.0
 11
770.1665900766
 21
278.4085226778
 31
0.0
  0
LINE
  5
194
330
1F
100
AcDbEntity
  8
0
  6
Continuous
 62
     7
370
    15
100
AcDbLine
 10
768.9665995657
 20
278.4085226778
 30
0.0
 11
768.9665995657
 21
283.4085179094
 31
0.0
  0
LINE
  5
195
330
1F
100
AcDbEntity
  8
0
  6
Continuous
 62
     7
370
    15
100
AcDbLine
 10
767.966582638
 20
718.9085436586
 30
0.0
 11
767.966582638
 21
728.9085341219
 31
0.0
  0
LINE
  5
196
330
1F
100
AcDbEntity
  8
0
  6
Continuous
 62
     7
370
    15
100
AcDbLine
 10
767.966582638
 20
718.9085436586
 30
0.0
 11
765.4665850222
 21
718.9085436586
 31
0.0
  0
LINE
  5
197
330
1F
100
AcDbEntity
  8
0
  6
Continuous
 62
     7
370
    15
100
AcDbLine
 10
765.4665850222
 20
718.9085436586
 30
0.0
 11
765.4665850222
 21
728.9085341219
 31
0.0
  0
LINE
  5
198
330
1F
100
AcDbEntity
  8
0
  6
Continuous
 62
     7
370
    15
100
AcDbLine
 10
767.966582638
 20
728.9085341219
 30
0.0
 11
767.966582638
 21
788.9084769014
 31
0.0
  0
LINE
  5
199
330
1F
100
AcDbEntity
  8
0
  6
Continuous
 62
     7
370
    15
100
AcDbLine
 10
765.4665850222
 20
728.9085341219
 30
0.0
 11
765.4665850222
 21
788.9084769014
 31
0.0
  0
LINE
  5
19A
330
1F
100
AcDbEntity
  8
0
  6
Continuous
 62
     7
370
    15
100
AcDbLine
 10
767.966582638
 20
798.9084673647
 30
0.0
 11
765.4665850222
 21
798.9084673647
 31
0.0
  0
LINE
  5
19B
330
1F
100
AcDbEntity
  8
0
  6
Continuous
 62
     7
370
    15
100
AcDbLine
 10
767.966582638
 20
788.9084769014
 30
0.0
 11
767.966582638
 21
798.9084673647
 31
0.0
  0
LINE
  5
19C
330
1F
100
AcDbEntity
  8
0
  6
Continuous
 62
     7
370
    15
100
AcDbLine
 10
765.4665850222
 20
788.9084769014
 30
0.0
 11
765.4665850222
 21
798.9084673647
 31
0.0
  0
LINE
  5
19D
330
1F
100
AcDbEntity
  8
0
  6
Continuous
 62
     7
370
    15
100
AcDbLine
 10
772.4665843069
 20
53.5082770113
 30
0.0
 11
772.4665843069
 21
58.3084774737
 31
0.0
  0
LINE
  5
19E
330
1F
100
AcDbEntity
  8
0
  6
Continuous
 62
     7
370
    15
100
AcDbLine
 10
772.4665843069
 20
1.3084960703
 30
0.0
 11
772.4665843069
 21
6.1086965326
 31
0.0
  0
SPLINE
  5
19F
330
1F
100
AcDbEntity
  8
0
  6
Continuous
 62
     7
370
    15
100
AcDbSpline
210
0.0
220
0.0
230
1.0
 70
     8
 71
     3
 72
    14
 73
    10
 74
     0
 42
0.00000001
 43
0.00000001
 40
0.0
 40
0.0
 40
0.0
 40
0.0
 40
0.141154777854605
 40
0.2842701092615025
 40
0.4273868777113943
 40
0.5705017173560446
 40
0.7136166481743587
 40
0.8567369410249023
 40
1.0
 40
1.0
 40
1.0
 40
1.0
 10
764.966591459475
 20
61.29347808400354
 30
0.0
 10
765.1093289683758
 20
61.22512208300912
 30
0.0
 10
765.3967865228962
 20
61.08746065796444
 30
0.0
 10
766.1710733104298
 20
60.73673891061549
 30
0.0
 10
767.0705739347175
 20
60.35955824077354
 30
0.0
 10
767.9897299861549
 20
60.00726963973646
 30
0.0
 10
768.7701876434209
 20
59.73437102330514
 30
0.0
 10
769.3213774966721
 20
59.55669281292985
 30
0.0
 10
769.3938969085403
 20
59.53426221179348
 30
0.0
 10
769.4301746904473
 20
59.52304132024011
 30
0.0
  0
LINE
  5
1A0
330
1F
100
AcDbEntity
  8
0
  6
Continuous
 62
     7
370
    15
100
AcDbLine
 10
772.4665843069
 20
51.6738844637
 30
0.0
 11
772.4665843069
 21
7.9430890802
 31
0.0
  0
SPLINE
  5
1A1
330
1F
100
AcDbEntity
  8
0
  6
Continuous
 62
     7
370
    15
100
AcDbSpline
210
0.0
220
0.0
230
1.0
 70
     8
 71
     3
 72
    12
 73
     8
 74
     0
 42
0.00000001
 43
0.00000001
 40
0.0
 40
0.0
 40
0.0
 40
0.0
 40
0.0304565209463599
 40
0.0888111398026127
 40
0.3925602719978095
 40
0.6962840991078457
 40
1.0
 40
1.0
 40
1.0
 40
1.0
 10
772.9233048975091
 20
52.5246215585824
 30
0.0
 10
772.9235454165766
 20
52.53521785399096
 30
0.0
 10
772.924246769583
 20
52.56611662521149
 30
0.0
 10
772.9203893279242
 20
52.7041975976037
 30
0.0
 10
772.8714751004964
 20
52.94413665727294
 30
0.0
 10
772.7178526256537
 20
53.25338201729191
 30
0.0
 10
772.5590420005499
 20
53.40479549557031
 30
0.0
 10
772.4796377241234
 20
53.48050124684534
 30
0.0
  0
SPLINE
  5
1A2
330
1F
100
AcDbEntity
  8
0
  6
Continuous
 62
     7
370
    15
100
AcDbSpline
210
0.0
220
0.0
230
1.0
 70
     8
 71
     3
 72
    11
 73
     7
 74
     0
 42
0.00000001
 43
0.00000001
 40
0.0
 40
0.0
 40
0.0
 40
0.0
 40
0.3700293276844605
 40
0.7444289818481312
 40
0.9442821327903168
 40
1.0
 40
1.0
 40
1.0
 40
1.0
 10
772.4665843069176
 20
53.50827701131067
 30
0.0
 10
772.4667582505369
 20
53.50513121841094
 30
0.0
 10
772.4671081921811
 20
53.49880247841632
 30
0.0
 10
772.470840177533
 20
53.48965254341753
 30
0.0
 10
772.4762564596167
 20
53.48337017364702
 30
0.0
 10
772.4790325086608
 20
53.48101475853828
 30
0.0
 10
772.4796377241234
 20
53.48050124684534
 30
0.0
  0
SPLINE
  5
1A3
330
1F
100
AcDbEntity
  8
0
  6
Continuous
 62
     7
370
    15
100
AcDbSpline
210
0.0
220
0.0
230
1.0
 70
     8
 71
     3
 72
    12
 73
     8
 74
     0
 42
0.00000001
 43
0.00000001
 40
0.0
 40
0.0
 40
0.0
 40
0.0
 40
0.0304565209463599
 40
0.0888111398026127
 40
0.3925602719978095
 40
0.6962840991078457
 40
1.0
 40
1.0
 40
1.0
 40
1.0
 10
772.9233048975091
 20
7.092351985370726
 30
0.0
 10
772.9235454165766
 20
7.081755689962388
 30
0.0
 10
772.924246769583
 20
7.050856918741411
 30
0.0
 10
772.9203893279242
 20
6.912775946349536
 30
0.0
 10
772.8714751004964
 20
6.672836886679967
 30
0.0
 10
772.7178526256537
 20
6.363591526661216
 30
0.0
 10
772.5590420005499
 20
6.212178048382588
 30
0.0
 10
772.4796377241234
 20
6.136472297107787
 30
0.0
  0
SPLINE
  5
1A4
330
1F
100
AcDbEntity
  8
0
  6
Continuous
 62
     7
370
    15
100
AcDbSpline
210
0.0
220
0.0
230
1.0
 70
     8
 71
     3
 72
    10
 73
     6
 74
     0
 42
0.00000001
 43
0.00000001
 40
0.0
 40
0.0
 40
0.0
 40
0.0
 40
0.2115283773674519
 40
0.4876979127773353
 40
0.9999999999999999
 40
0.9999999999999999
 40
0.9999999999999999
 40
0.9999999999999999
 10
772.4796377241234
 20
6.136472297107787
 30
0.0
 10
772.4774739080149
 20
6.134459117432933
 30
0.0
 10
772.4724850331747
 20
6.129817548591099
 30
0.0
 10
772.4673934776317
 20
6.119862789804031
 30
0.0
 10
772.4669029940519
 20
6.113094297454991
 30
0.0
 10
772.4665843069176
 20
6.108696532642455
 30
0.0
  0
SPLINE
  5
1A5
330
1F
100
AcDbEntity
  8
0
  6
Continuous
 62
     7
370
    15
100
AcDbSpline
210
0.0
220
0.0
230
1.0
 70
     8
 71
     3
 72
    12
 73
     8
 74
     0
 42
0.00000001
 43
0.00000001
 40
0.0
 40
0.0
 40
0.0
 40
0.0
 40
0.2239278741166279
 40
0.4477197196943553
 40
0.6715938131522908
 40
0.8955553570924155
 40
1.0
 40
1.0
 40
1.0
 40
1.0
 10
773.1353484212975
 20
58.00628192464075
 30
0.0
 10
773.1099508274824
 20
58.01776459155305
 30
0.0
 10
773.0591710680235
 20
58.04072295004947
 30
0.0
 10
772.9936518613279
 20
58.07053567208775
 30
0.0
 10
772.9460705610846
 20
58.09249995334631
 30
0.0
 10
772.9248725479498
 20
58.10219284869444
 30
0.0
 10
772.923117883923
 20
58.10304672411448
 30
0.0
 10
772.9225598394494
 20
58.10331828633508
 30
0.0
  0
LINE
  5
1A6
330
1F
100
AcDbEntity
  8
0
  6
Continuous
 62
     7
370
    15
100
AcDbLine
 10
773.1353484213
 20
58.0062819246
 30
0.0
 11
773.9665947973
 21
57.6296401743
 31
0.0
  0
SPLINE
  5
1A7
330
1F
100
AcDbEntity
  8
0
  6
Continuous
 62
     7
370
    15
100
AcDbSpline
210
0.0
220
0.0
230
1.0
 70
     8
 71
     3
 72
    14
 73
    10
 74
     0
 42
0.00000001
 43
0.00000001
 40
0.0
 40
0.0
 40
0.0
 40
0.0
 40
0.1422247978776812
 40
0.2852514141315344
 40
0.428265401181586
 40
0.5712779922806445
 40
0.7142848811197158
 40
0.8574040156018721
 40
1.0
 40
1.0
 40
1.0
 40
1.0
 10
764.966591459475
 20
61.30450494328699
 30
0.0
 10
765.110545735332
 20
61.23555083066923
 30
0.0
 10
765.3992658556714
 20
61.09725386398035
 30
0.0
 10
766.1759894080437
 20
60.74547755554727
 30
0.0
 10
767.076181836293
 20
60.36805764913966
 30
0.0
 10
767.9956076251829
 20
60.01568811736024
 30
0.0
 10
768.7760530978884
 20
59.74294203511021
 30
0.0
 10
769.325771735308
 20
59.5657329154885
 30
0.0
 10
769.3978813754483
 20
59.54345713924936
 30
0.0
 10
769.4338701784234
 20
59.53233964482507
 30
0.0
  0
LINE
  5
1A8
330
1F
100
AcDbEntity
  8
0
  6
Continuous
 62
     7
370
    15
100
AcDbLine
 10
68.4666179239
 20
467.7084637407
 30
0.0
 11
68.4666179239
 21
466.8585015062
 31
0.0
  0
LINE
  5
1A9
330
1F
100
AcDbEntity
  8
0
  6
Continuous
 62
     7
370
    15
100
AcDbLine
 10
28.4665368616
 20
466.8585015062
 30
0.0
 11
28.4665368616
 21
467.7084637407
 31
0.0
  0
LINE
  5
1AA
330
1F
100
AcDbEntity
  8
0
  6
Continuous
 62
     7
370
    15
100
AcDbLine
 10
68.4666179239
 20
466.8585015062
 30
0.0
 11
68.4666179239
 21
424.7585488085
 31
0.0
  0
LINE
  5
1AB
330
1F
100
AcDbEntity
  8
0
  6
Continuous
 62
     7
370
    15
100
AcDbLine
 10
28.4665368616
 20
424.7585488085
 30
0.0
 11
28.4665368616
 21
466.8585015062
 31
0.0
  0
LINE
  5
1AC
330
1F
100
AcDbEntity
  8
0
  6
Continuous
 62
     7
370
    15
100
AcDbLine
 10
68.4666179239
 20
424.7585488085
 30
0.0
 11
68.4666179239
 21
422.7085066561
 31
0.0
  0
LINE
  5
1AD
330
1F
100
AcDbEntity
  8
0
  6
Continuous
 62
     7
370
    15
100
AcDbLine
 10
28.4665368616
 20
422.7085066561
 30
0.0
 11
28.4665368616
 21
424.7585488085
 31
0.0
  0
LINE
  5
1AE
330
1F
100
AcDbEntity
  8
0
  6
Continuous
 62
     7
370
    15
100
AcDbLine
 10
13.4665511667
 20
461.808438373
 30
0.0
 11
13.4665511667
 21
445.9584904436
 31
0.0
  0
LINE
  5
1AF
330
1F
100
AcDbEntity
  8
0
  6
Continuous
 62
     7
370
    15
100
AcDbLine
 10
68.4666179239
 20
466.8585015062
 30
0.0
 11
68.9665816843
 21
466.8585015062
 31
0.0
  0
ARC
  5
1B0
330
1F
100
AcDbEntity
  8
0
  6
Continuous
 62
     7
370
    15
100
AcDbCircle
 10
68.9665861787
 20
461.8584950248
 30
0.0
 40
5.000000000000114
100
AcDbArc
 50
0.0
 51
90.0
  0
LINE
  5
1B1
330
1F
100
AcDbEntity
  8
0
  6
Continuous
 62
     7
370
    15
100
AcDbLine
 10
73.9665769159
 20
461.8585062746
 30
0.0
 11
73.9665769159
 21
445.8085251574
 31
0.0
  0
LINE
  5
1B2
330
1F
100
AcDbEntity
  8
0
  6
Continuous
 62
     7
370
    15
100
AcDbLine
 10
73.9665769159
 20
445.8085251574
 30
0.0
 11
68.4666179239
 21
445.8085251574
 31
0.0
  0
LINE
  5
1B3
330
1F
100
AcDbEntity
  8
0
  6
Continuous
 62
     7
370
    15
100
AcDbLine
 10
28.4665368616
 20
466.8085528139
 30
0.0
 11
18.4665463984
 21
466.8085528139
 31
0.0
  0
ARC
  5
1B4
330
1F
100
AcDbEntity
  8
0
  6
Continuous
 62
     7
370
    15
100
AcDbCircle
 10
18.4665861787
 20
461.8084950248
 30
0.0
 40
4.999999999999895
100
AcDbArc
 50
90.0
 51
180.0
  0
LINE
  5
1B5
330
1F
100
AcDbEntity
  8
0
  6
Continuous
 62
     7
370
    15
100
AcDbLine
 10
28.4665368616
 20
443.9084482912
 30
0.0
 11
14.1882442057
 21
443.9084482912
 31
0.0
  0
LINE
  5
1B6
330
1F
100
AcDbEntity
  8
0
  6
Continuous
 62
     7
370
    15
100
AcDbLine
 10
13.4665511667
 20
443.9084482912
 30
0.0
 11
14.1882442057
 21
443.9084482912
 31
0.0
  0
LINE
  5
1B7
330
1F
100
AcDbEntity
  8
0
  6
Continuous
 62
     7
370
    15
100
AcDbLine
 10
13.4665511667
 20
443.9084482912
 30
0.0
 11
13.4665511667
 21
445.9584904436
 31
0.0
  0
ARC
  5
1B8
330
1F
100
AcDbEntity
  8
0
  6
Continuous
 62
     7
370
    15
100
AcDbCircle
 10
-5.2834138213
 20
479.6844476667
 30
0.0
 40
2.050000000000054
100
AcDbArc
 50
180.0
 51
210.0
  0
ARC
  5
1B9
330
1F
100
AcDbEntity
  8
0
  6
Continuous
 62
     7
370
    15
100
AcDbCircle
 10
-5.2834138213
 20
479.6844476667
 30
0.0
 40
1.249999999999973
100
AcDbArc
 50
180.0
 51
210.0
  0
LINE
  5
1BA
330
1F
100
AcDbEntity
  8
0
  6
Continuous
 62
     7
370
    15
100
AcDbLine
 10
-6.5334297598
 20
479.6844673876
 30
0.0
 11
-6.5334297598
 21
484.3494845156
 31
0.0
  0
LINE
  5
1BB
330
1F
100
AcDbEntity
  8
0
  6
Continuous
 62
     7
370
    15
100
AcDbLine
 10
-7.333443302
 20
479.6844673876
 30
0.0
 11
-7.333443302
 21
484.3494845156
 31
0.0
  0
LINE
  5
1BC
330
1F
100
AcDbEntity
  8
0
  6
Continuous
 62
     7
370
    15
100
AcDbLine
 10
13.1057046473
 20
445.3334761385
 30
0.0
 11
-6.365940708
 21
479.0594530825
 31
0.0
  0
LINE
  5
1BD
330
1F
100
AcDbEntity
  8
0
  6
Continuous
 62
     7
370
    15
100
AcDbLine
 10
12.4129794657
 20
444.9335289721
 30
0.0
 11
-7.0587850988
 21
478.659505916
 31
0.0
  0
LINE
  5
1BE
330
1F
100
AcDbEntity
  8
0
  6
Continuous
 62
     7
370
    15
100
AcDbLine
 10
-7.333443302
 20
489.3494797472
 30
0.0
 11
-6.5334297598
 21
489.3494797472
 31
0.0
  0
LINE
  5
1BF
330
1F
100
AcDbEntity
  8
0
  6
Continuous
 62
     7
370
    15
100
AcDbLine
 10
-6.5334297598
 20
484.3494845156
 30
0.0
 11
-6.5334297598
 21
489.3494797472
 31
0.0
  0
LINE
  5
1C0
330
1F
100
AcDbEntity
  8
0
  6
Continuous
 62
     7
370
    15
100
AcDbLine
 10
-7.333443302
 20
484.3494845156
 30
0.0
 11
-7.333443302
 21
489.3494797472
 31
0.0
  0
ARC
  5
1C1
330
1F
100
AcDbEntity
  8
0
  6
Continuous
 62
     7
370
    15
100
AcDbCircle
 10
14.1882740152
 20
445.9584950248
 30
0.0
 40
2.049999999999895
100
AcDbArc
 50
210.0
 51
249.3876842236
  0
ARC
  5
1C2
330
1F
100
AcDbEntity
  8
0
  6
Continuous
 62
     7
370
    15
100
AcDbCircle
 10
14.1882740152
 20
445.9584950248
 30
0.0
 40
1.250000000000013
100
AcDbArc
 50
210.0
 51
234.7356103173
  0
ARC
  5
1C3
330
1F
100
AcDbEntity
  8
0
  6
Continuous
 62
     7
370
    15
100
AcDbCircle
 10
67.2165861787
 20
442.6584950248
 30
0.0
 40
2.049999999999925
100
AcDbArc
 50
0.0
 51
52.4281306803
  0
LINE
  5
1C4
330
1F
100
AcDbEntity
  8
0
  6
Continuous
 62
     7
370
    15
100
AcDbLine
 10
69.2666314661
 20
442.6585388903
 30
0.0
 11
69.2666314661
 21
438.158507419
 31
0.0
  0
ARC
  5
1C5
330
1F
100
AcDbEntity
  8
0
  6
Continuous
 62
     7
370
    15
100
AcDbCircle
 10
70.5165861787
 20
438.1584950248
 30
0.0
 40
2.050000000000125
100
AcDbArc
 50
180.0
 51
270.0
  0
ARC
  5
1C6
330
1F
100
AcDbEntity
  8
0
  6
Continuous
 62
     7
370
    15
100
AcDbCircle
 10
70.5165861787
 20
438.1584950248
 30
0.0
 40
1.25
100
AcDbArc
 50
180.0
 51
270.0
  0
LINE
  5
1C7
330
1F
100
AcDbEntity
  8
0
  6
Continuous
 62
     7
370
    15
100
AcDbLine
 10
74.2666266977
 20
436.9084788088
 30
0.0
 11
70.5165408671
 21
436.9084788088
 31
0.0
  0
LINE
  5
1C8
330
1F
100
AcDbEntity
  8
0
  6
Continuous
 62
     7
370
    15
100
AcDbLine
 10
74.2666266977
 20
436.1084652666
 30
0.0
 11
70.5165408671
 21
436.1084652666
 31
0.0
  0
LINE
  5
1C9
330
1F
100
AcDbEntity
  8
0
  6
Continuous
 62
     7
370
    15
100
AcDbLine
 10
79.2666219294
 20
436.1084652666
 30
0.0
 11
79.2666219294
 21
436.9084788088
 31
0.0
  0
LINE
  5
1CA
330
1F
100
AcDbEntity
  8
0
  6
Continuous
 62
     7
370
    15
100
AcDbLine
 10
79.2666219294
 20
436.9084788088
 30
0.0
 11
74.2666266977
 21
436.9084788088
 31
0.0
  0
LINE
  5
1CB
330
1F
100
AcDbEntity
  8
0
  6
Continuous
 62
     7
370
    15
100
AcDbLine
 10
79.2666219294
 20
436.1084652666
 30
0.0
 11
74.2666266977
 21
436.1084652666
 31
0.0
  0
LINE
  5
1CC
330
1F
100
AcDbEntity
  8
0
  6
Continuous
 62
     7
370
    15
100
AcDbLine
 10
74.8666070521
 20
440.0085163836
 30
0.0
 11
90.9665368616
 21
440.0085163836
 31
0.0
  0
LINE
  5
1CD
330
1F
100
AcDbEntity
  8
0
  6
Continuous
 62
     7
370
    15
100
AcDbLine
 10
74.8666070521
 20
440.3753233675
 30
0.0
 11
74.8666070521
 21
440.0085163836
 31
0.0
  0
LWPOLYLINE
  5
1CE
330
1F
100
AcDbEntity
  8
0
  6
Continuous
 62
     7
370
    15
100
AcDbPolyline
 90
        3
 70
   128
 43
0.0
 10
89.8665927469
 20
454.4085217241
 10
90.7849811136
 20
454.2257738833
 10
90.9665368616
 20
454.1416121248
  0
ARC
  5
1CF
330
1F
100
AcDbEntity
  8
0
  6
Continuous
 62
     7
370
    15
100
AcDbCircle
 10
89.8665861788
 20
452.0084950249
 30
0.0
 40
2.400000000000887
100
AcDbArc
 50
90.0
 51
297.2796127342
  0
LINE
  5
1D0
330
1F
100
AcDbEntity
  8
0
  6
Continuous
 62
     7
370
    15
100
AcDbLine
 10
74.8666070521
 20
465.0084925417
 30
0.0
 11
90.9665368616
 21
465.0084925417
 31
0.0
  0
LINE
  5
1D1
330
1F
100
AcDbEntity
  8
0
  6
Continuous
 62
     7
370
    15
100
AcDbLine
 10
74.8666070521
 20
441.2585449938
 30
0.0
 11
74.8666070521
 21
465.0084925417
 31
0.0
  0
LINE
  5
1D2
330
1F
100
AcDbEntity
  8
0
  6
Continuous
 62
     7
370
    15
100
AcDbLine
 10
74.8666070521
 20
439.2085028414
 30
0.0
 11
74.8666070521
 21
440.0085163836
 31
0.0
  0
LINE
  5
1D3
330
1F
100
AcDbEntity
  8
0
  6
Continuous
 62
     7
370
    15
100
AcDbLine
 10
74.8666070521
 20
440.3753233675
 30
0.0
 11
74.8666070521
 21
441.2585449938
 31
0.0
  0
LINE
  5
1D4
330
1F
100
AcDbEntity
  8
0
  6
Continuous
 62
     7
370
    15
100
AcDbLine
 10
90.9665368616
 20
439.2085028414
 30
0.0
 11
74.8666070521
 21
439.2085028414
 31
0.0
  0
LINE
  5
1D5
330
1F
100
AcDbEntity
  8
0
  6
Continuous
 62
     7
370
    15
100
AcDbLine
 10
725.9165786326
 20
-265.9915136572
 30
0.0
 11
696.166589123
 21
-265.9915136572
 31
0.0
  0
LINE
  5
1D6
330
1F
100
AcDbEntity
  8
0
  6
Continuous
 62
     7
370
    15
100
AcDbLine
 10
683.7665878355
 20
-265.9915136572
 30
0.0
 11
678.1665824473
 21
-265.9915136572
 31
0.0
  0
LINE
  5
1D7
330
1F
100
AcDbEntity
  8
0
  6
Continuous
 62
     7
370
    15
100
AcDbLine
 10
725.9165786326
 20
124.5377612833
 30
0.0
 11
724.9665998041
 21
124.5377612833
 31
0.0
  0
ARC
  5
1D8
330
1F
100
AcDbEntity
  8
0
  6
Continuous
 62
     7
370
    15
100
AcDbCircle
 10
678.1665861787
 20
-260.9915049751
 30
0.0
 40
4.999999999999979
100
AcDbArc
 50
246.9260819353
 51
270.0
  0
LINE
  5
1D9
330
1F
100
AcDbEntity
  8
0
  6
Continuous
 62
     7
370
    15
100
AcDbLine
 10
728.3665977537
 20
-265.5915068861
 30
0.0
 11
728.3665977537
 21
-265.9915136572
 31
0.0
  0
LINE
  5
1DA
330
1F
100
AcDbEntity
  8
0
  6
Continuous
 62
     7
370
    15
100
AcDbLine
 10
728.3665977537
 20
-265.9915136572
 30
0.0
 11
725.9165786326
 21
-265.9915136572
 31
0.0
  0
LINE
  5
1DB
330
1F
100
AcDbEntity
  8
0
  6
Continuous
 62
     7
370
    15
100
AcDbLine
 10
725.9165786326
 20
125.8084727053
 30
0.0
 11
725.9165786326
 21
124.6085119967
 31
0.0
  0
LINE
  5
1DC
330
1F
100
AcDbEntity
  8
0
  6
Continuous
 62
     7
370
    15
100
AcDbLine
 10
725.9165786326
 20
124.6085119967
 30
0.0
 11
724.9665998041
 21
124.6085119967
 31
0.0
  0
LINE
  5
1DD
330
1F
100
AcDbEntity
  8
0
  6
Continuous
 62
     7
370
    15
100
AcDbLine
 10
724.9665998041
 20
125.8084727053
 30
0.0
 11
725.9165786326
 21
125.8084727053
 31
0.0
  0
SPLINE
  5
1DE
330
1F
100
AcDbEntity
  8
0
  6
Continuous
 62
     7
370
    15
100
AcDbSpline
210
0.0
220
0.0
230
1.0
 70
    11
 71
     3
 72
    27
 73
    23
 74
     0
 42
0.00000001
 43
0.00000001
 40
0.0
 40
0.0
 40
0.0
 40
0.0
 40
0.0489594510387623
 40
0.0977550861651585
 40
0.1505872750666364
 40
0.2069132489103948
 40
0.2591957179045189
 40
0.3069573429874031
 40
0.3554159470193936
 40
0.4084726974936673
 40
0.4648333807816693
 40
0.5166641144087059
 40
0.5628728796914059
 40
0.6112685311961782
 40
0.6657533064989182
 40
0.7216082070758959
 40
0.7723195352171119
 40
0.8197247623108989
 40
0.8691894303493695
 40
0.9235857226177845
 40
0.9795692585820015
 40
1.0
 40
1.0
 40
1.0
 40
1.0
 10
193.7618993341546
 20
1202.608461451923
 30
0.0
 10
193.8140330422515
 20
1202.034662556339
 30
0.0
 10
193.9181260216255
 20
1200.88898466802
 30
0.0
 10
194.6670861304373
 20
1199.337979558952
 30
0.0
 10
195.6794499065306
 20
1198.05350041171
 30
0.0
 10
196.8035454800883
 20
1197.223441529395
 30
0.0
 10
197.7367240402586
 20
1197.020075164869
 30
0.0
 10
198.3475424005446
 20
1197.391996856182
 30
0.0
 10
198.6769811269357
 20
1198.244382712546
 30
0.0
 10
198.7816639752629
 20
1199.572849198344
 30
0.0
 10
198.7563659780918
 20
1201.301605966244
 30
0.0
 10
198.7467735168513
 20
1203.144574175664
 30
0.0
 10
198.7732077272997
 20
1204.808274138246
 30
0.0
 10
198.7567407583387
 20
1206.263577141334
 30
0.0
 10
198.5680579549892
 20
1207.441715866669
 30
0.0
 10
198.0582552622539
 20
1208.112565558457
 30
0.0
 10
197.240847988479
 20
1208.147331415533
 30
0.0
 10
196.2648530524867
 20
1207.641203636017
 30
0.0
 10
195.2251979387862
 20
1206.659985128048
 30
0.0
 10
194.2767303138339
 20
1205.209801348989
 30
0.0
 10
193.8055176196905
 20
1203.738910622559
 30
0.0
 10
193.7711011901089
 20
1202.846944700495
 30
0.0
 10
193.7618993341546
 20
1202.608461451923
 30
0.0
  0
SPLINE
  5
1DF
330
1F
100
AcDbEntity
  8
0
  6
Continuous
 62
     7
370
    15
100
AcDbSpline
210
0.0
220
0.0
230
1.0
 70
     8
 71
     3
 72
    10
 73
     6
 74
     0
 42
0.00000001
 43
0.00000001
 40
0.0
 40
0.0
 40
0.0
 40
0.0
 40
0.2717915219683832
 40
0.6603514881873687
 40
1.0
 40
1.0
 40
1.0
 40
1.0
 10
187.7635859071832
 20
1200.490827632343
 30
0.0
 10
187.5783327975822
 20
1200.865199002967
 30
0.0
 10
187.1282372032444
 20
1201.77478106033
 30
0.0
 10
187.1345626896481
 20
1203.37879706966
 30
0.0
 10
187.5599790547064
 20
1204.408612271128
 30
0.0
 10
187.7584003030876
 20
1204.88893516103
 30
0.0
  0
LINE
  5
1E0
330
1F
100
AcDbEntity
  8
0
  6
Continuous
 62
     7
370
    15
100
AcDbLine
 10
182.7772401392
 20
1218.6084938769
 30
0.0
 11
198.7666033327
 21
1218.6084938769
 31
0.0
  0
LINE
  5
1E1
330
1F
100
AcDbEntity
  8
0
  6
Continuous
 62
     7
370
    15
100
AcDbLine
 10
176.7665885508
 20
1218.6084938769
 30
0.0
 11
182.7772401392
 21
1218.6084938769
 31
0.0
  0
SPLINE
  5
1E2
330
1F
100
AcDbEntity
  8
0
  6
Continuous
 62
     7
370
    15
100
AcDbSpline
210
0.0
220
0.0
230
1.0
 70
    11
 71
     3
 72
    27
 73
    23
 74
     0
 42
0.00000001
 43
0.00000001
 40
0.0
 40
0.0
 40
0.0
 40
0.0
 40
0.0489594041636472
 40
0.0977544532178561
 40
0.1505875093541301
 40
0.2069134768664424
 40
0.2591940505758591
 40
0.3069570450577208
 40
0.3554162052520254
 40
0.4084723554296432
 40
0.4648330324144548
 40
0.5166637602153428
 40
0.5628725133772473
 40
0.611267666273184
 40
0.6657526286767561
 40
0.7216082870825805
 40
0.7723188472584117
 40
0.8197237948761579
 40
0.8691899526571039
 40
0.9235858898395283
 40
0.979569349091334
 40
1.0
 40
1.0
 40
1.0
 40
1.0
 10
178.5439990579704
 20
1202.608461451924
 30
0.0
 10
178.5768937887379
 20
1202.034664869625
 30
0.0
 10
178.6425728237437
 20
1200.888997921282
 30
0.0
 10
179.1754447264481
 20
1199.337952230247
 30
0.0
 10
180.0710727746608
 20
1198.053516416338
 30
0.0
 10
181.4012391590908
 20
1197.223447552779
 30
0.0
 10
183.0058995357347
 20
1197.020078478249
 30
0.0
 10
184.6198828542221
 20
1197.39199445934
 30
0.0
 10
186.134408401648
 20
1198.244366300045
 30
0.0
 10
187.4483728757458
 20
1199.572861958229
 30
0.0
 10
188.2953338153622
 20
1201.301603978513
 30
0.0
 10
188.423495604185
 20
1203.144575773862
 30
0.0
 10
187.9198540230346
 20
1204.808263843156
 30
0.0
 10
186.9224532085726
 20
1206.263589616589
 30
0.0
 10
185.4633401681477
 20
1207.44171980443
 30
0.0
 10
183.7333021817888
 20
1208.112558493518
 30
0.0
 10
182.0881616071188
 20
1208.147335282118
 30
0.0
 10
180.7242056746318
 20
1207.641183465782
 30
0.0
 10
179.6416269535441
 20
1206.660015005575
 30
0.0
 10
178.8814145864523
 20
1205.209791527849
 30
0.0
 10
178.5723795420368
 20
1203.738913585625
 30
0.0
 10
178.549986286977
 20
1202.846944903765
 30
0.0
 10
178.5439990579705
 20
1202.608461451923
 30
0.0
  0
SPLINE
  5
1E3
330
1F
100
AcDbEntity
  8
0
  6
Continuous
 62
     7
370
    15
100
AcDbSpline
210
0.0
220
0.0
230
1.0
 70
     8
 71
     3
 72
     9
 73
     5
 74
     0
 42
0.00000001
 43
0.00000001
 40
0.0
 40
0.0
 40
0.0
 40
0.0
 40
0.750572017650673
 40
1.0
 40
1.0
 40
1.0
 40
1.0
 10
176.7819069444757
 20
1202.608461451923
 30
0.0
 10
176.7751953409514
 20
1203.194418988513
 30
0.0
 10
176.7662533562159
 20
1203.975100285993
 30
0.0
 10
176.7721031835726
 20
1204.629219900766
 30
0.0
 10
176.773562294207
 20
1204.792375636494
 30
0.0
  0
SPLINE
  5
1E4
330
1F
100
AcDbEntity
  8
0
  6
Continuous
 62
     7
370
    15
100
AcDbSpline
210
0.0
220
0.0
230
1.0
 70
     8
 71
     3
 72
    13
 73
     9
 74
     0
 42
0.00000001
 43
0.00000001
 40
0.0
 40
0.0
 40
0.0
 40
0.0
 40
0.1629793975578234
 40
0.3717379428981504
 40
0.5637394996270118
 40
0.7349383883920383
 40
0.9142162183270727
 40
1.0
 40
1.0
 40
1.0
 40
1.0
 10
180.1471851884942
 20
1206.710214686787
 30
0.0
 10
180.4301544663055
 20
1206.364106937261
 30
0.0
 10
181.0755760276391
 20
1205.574673519554
 30
0.0
 10
181.7231531677072
 20
1203.909211270704
 30
0.0
 10
181.8370917264329
 20
1202.070114011845
 30
0.0
 10
181.4085482908659
 20
1200.422078545362
 30
0.0
 10
180.7958063092983
 20
1199.216644221967
 30
0.0
 10
180.3194212829207
 20
1198.71973890204
 30
0.0
 10
180.1652453958611
 20
1198.558921885883
 30
0.0
  0
SPLINE
  5
1E5
330
1F
100
AcDbEntity
  8
0
  6
Continuous
 62
     7
370
    15
100
AcDbSpline
210
0.0
220
0.0
230
1.0
 70
     8
 71
     3
 72
     9
 73
     5
 74
     0
 42
0.00000001
 43
0.00000001
 40
0.0
 40
0.0
 40
0.0
 40
0.0
 40
0.6859389660161247
 40
1.0
 40
1.0
 40
1.0
 40
1.0
 10
176.7698072015862
 20
1200.42526252309
 30
0.0
 10
176.7733532940882
 20
1200.905299122202
 30
0.0
 10
176.7785229850923
 20
1201.60512319241
 30
0.0
 10
176.7810981770323
 20
1202.368663266703
 30
0.0
 10
176.7819069444757
 20
1202.608461451923
 30
0.0
  0
SPLINE
  5
1E6
330
1F
100
AcDbEntity
  8
0
  6
Continuous
 62
     7
370
    15
100
AcDbSpline
210
0.0
220
0.0
230
1.0
 70
     8
 71
     3
 72
    18
 73
    14
 74
     0
 42
0.00000001
 43
0.00000001
 40
0.0
 40
0.0
 40
0.0
 40
0.0
 40
0.0160258388147317
 40
0.1102174831196418
 40
0.2056022318049466
 40
0.3109361061146712
 40
0.4245091682311468
 40
0.5287047421226563
 40
0.6191380608426718
 40
0.7136687423080434
 40
0.822138705329274
 40
0.9349947220589944
 40
1.0
 40
1.0
 40
1.0
 40
1.0
 10
196.9295881807427
 20
1197.148199153339
 30
0.0
 10
196.9777097952942
 20
1197.135423162753
 30
0.0
 10
197.3086655287723
 20
1197.047556465532
 30
0.0
 10
197.6839051089652
 20
1197.404498143141
 30
0.0
 10
198.0141273486666
 20
1198.184954709294
 30
0.0
 10
198.0880629321146
 20
1199.494396769036
 30
0.0
 10
198.033567205428
 20
1201.202749416523
 30
0.0
 10
198.0137900943744
 20
1203.048203413526
 30
0.0
 10
198.0582435651168
 20
1204.700480064882
 30
0.0
 10
198.0831298930327
 20
1206.155089428842
 30
0.0
 10
197.9412463803199
 20
1207.341393973948
 30
0.0
 10
197.5673933921241
 20
1208.05176315373
 30
0.0
 10
197.0881671351942
 20
1208.044279266117
 30
0.0
 10
196.9130180894952
 20
1208.04154403249
 30
0.0
  0
SPLINE
  5
1E7
330
1F
100
AcDbEntity
  8
0
  6
Continuous
 62
     7
370
    15
100
AcDbSpline
210
0.0
220
0.0
230
1.0
 70
     8
 71
     3
 72
    13
 73
     9
 74
     0
 42
0.00000001
 43
0.00000001
 40
0.0
 40
0.0
 40
0.0
 40
0.0
 40
0.1288995394028332
 40
0.3392534924951056
 40
0.5360904381580335
 40
0.7053482573974578
 40
0.8785761645599828
 40
1.0
 40
1.0
 40
1.0
 40
1.0
 10
195.3398726999383
 20
1206.687088084614
 30
0.0
 10
195.5515778220102
 20
1206.427241620004
 30
0.0
 10
196.1087691228845
 20
1205.743346075925
 30
0.0
 10
196.5368010112494
 20
1204.202355128155
 30
0.0
 10
196.6757545393822
 20
1202.361580952092
 30
0.0
 10
196.4494924918509
 20
1200.691456961189
 30
0.0
 10
196.0491655777366
 20
1199.392293502717
 30
0.0
 10
195.5583054425523
 20
1198.80516485607
 30
0.0
 10
195.3560255586724
 20
1198.563213420307
 30
0.0
  0
SPLINE
  5
1E8
330
1F
100
AcDbEntity
  8
0
  6
Continuous
 62
     7
370
    15
100
AcDbSpline
210
0.0
220
0.0
230
1.0
 70
     8
 71
     3
 72
    11
 73
     7
 74
     0
 42
0.00000001
 43
0.00000001
 40
0.0
 40
0.0
 40
0.0
 40
0.0
 40
0.2856387890479244
 40
0.6229858103662417
 40
0.9195532806562875
 40
0.9999999999999999
 40
0.9999999999999999
 40
0.9999999999999999
 40
0.9999999999999999
 10
187.5841759264092
 20
1200.113649440205
 30
0.0
 10
187.3344371148734
 20
1200.56284243907
 30
0.0
 10
186.7897501120928
 20
1201.542544339298
 30
0.0
 10
186.7837605096835
 20
1203.224401373853
 30
0.0
 10
187.1017170220179
 20
1204.489909115773
 30
0.0
 10
187.500463014557
 20
1205.029796383755
 30
0.0
 10
187.5855468332391
 20
1205.144996714985
 30
0.0
  0
SPLINE
  5
1E9
330
1F
100
AcDbEntity
  8
0
  6
Continuous
 62
     7
370
    15
100
AcDbSpline
210
0.0
220
0.0
230
1.0
 70
     8
 71
     3
 72
    12
 73
     8
 74
     0
 42
0.00000001
 43
0.00000001
 40
0.0
 40
0.0
 40
0.0
 40
0.0
 40
0.1930737693208835
 40
0.3854206499059968
 40
0.5960407696988661
 40
0.8231439672986134
 40
1.0
 40
1.0
 40
1.0
 40
1.0
 10
178.914859157763
 20
1202.608461451923
 30
0.0
 10
178.9458049525723
 20
1202.041459292318
 30
0.0
 10
179.0075800367242
 20
1200.909589636373
 30
0.0
 10
179.5099006540415
 20
1199.3700871178
 30
0.0
 10
180.3747723145141
 20
1198.095719193425
 30
0.0
 10
181.6038093132707
 20
1197.238693620571
 30
0.0
 10
182.6502188842091
 20
1197.175754373519
 30
0.0
 10
183.1083439409356
 20
1197.148199153339
 30
0.0
  0
SPLINE
  5
1EA
330
1F
100
AcDbEntity
  8
0
  6
Continuous
 62
     7
370
    15
100
AcDbSpline
210
0.0
220
0.0
230
1.0
 70
     8
 71
     3
 72
    13
 73
     9
 74
     0
 42
0.00000001
 43
0.00000001
 40
0.0
 40
0.0
 40
0.0
 40
0.0
 40
0.073224379680203
 40
0.2600078414260533
 40
0.4539515688970216
 40
0.6694058821958105
 40
0.8960470238007374
 40
1.0
 40
1.0
 40
1.0
 40
1.0
 10
183.1082247316461
 20
1208.04154403249
 30
0.0
 10
182.9126916069356
 20
1208.059557049544
 30
0.0
 10
182.21838534029
 20
1208.123518338151
 30
0.0
 10
181.1721712361574
 20
1207.685914528478
 30
0.0
 10
180.0795916872711
 20
1206.79269984373
 30
0.0
 10
179.3037594977741
 20
1205.388947821388
 30
0.0
 10
178.9536784949774
 20
1203.881575241653
 30
0.0
 10
178.9241455750309
 20
1202.913017550236
 30
0.0
 10
178.914859157763
 20
1202.608461451923
 30
0.0
  0
SPLINE
  5
1EB
330
1F
100
AcDbEntity
  8
0
  6
Continuous
 62
     7
370
    15
100
AcDbSpline
210
0.0
220
0.0
230
1.0
 70
     8
 71
     3
 72
    14
 73
    10
 74
     0
 42
0.00000001
 43
0.00000001
 40
0.0
 40
0.0
 40
0.0
 40
0.0
 40
0.0112394800706745
 40
0.1850573265777046
 40
0.3724694408702127
 40
0.5443857529985824
 40
0.6936139082644928
 40
0.8496047679761929
 40
1.0
 40
1.0
 40
1.0
 40
1.0
 10
180.5165551721673
 20
1207.045192790424
 30
0.0
 10
180.540021375172
 20
1207.02685558597
 30
0.0
 10
180.9263909194637
 20
1206.72493467753
 30
0.0
 10
181.6685100216017
 20
1205.69256245763
 30
0.0
 10
182.4286434428512
 20
1204.022293757248
 30
0.0
 10
182.5759277283323
 20
1202.165559877761
 30
0.0
 10
182.1631964162151
 20
1200.522549487438
 30
0.0
 10
181.4243406864625
 20
1199.126761161636
 30
0.0
 10
180.7870178647842
 20
1198.47529953621
 30
0.0
 10
180.474176269732
 20
1198.155517650044
 30
0.0
  0
LINE
  5
1EC
330
1F
100
AcDbEntity
  8
0
  6
Continuous
 62
     7
370
    15
100
AcDbLine
 10
725.9665869295
 20
1090.6280232195
 30
0.0
 11
724.9665998041
 21
1090.710992885
 31
0.0
  0
LINE
  5
1ED
330
1F
100
AcDbEntity
  8
0
  6
Continuous
 62
     7
370
    15
100
AcDbLine
 10
725.9665869295
 20
1087.3849344973
 30
0.0
 11
724.9665998041
 21
1086.1786556963
 31
0.0
  0
LINE
  5
1EE
330
1F
100
AcDbEntity
  8
0
  6
Continuous
 62
     7
370
    15
100
AcDbLine
 10
725.9665869295
 20
382.6470328097
 30
0.0
 11
724.9665998041
 21
383.9391422991
 31
0.0
  0
LINE
  5
1EF
330
1F
100
AcDbEntity
  8
0
  6
Continuous
 62
     7
370
    15
100
AcDbLine
 10
724.9665998041
 20
379.3963146929
 30
0.0
 11
725.9665869295
 21
379.3963146929
 31
0.0
  0
LINE
  5
1F0
330
1F
100
AcDbEntity
  8
0
  6
Continuous
 62
     7
370
    15
100
AcDbLine
 10
724.566593033
 20
1139.4084645037
 30
0.0
 11
724.0958653509
 21
1139.4084645037
 31
0.0
  0
LINE
  5
1F1
330
1F
100
AcDbEntity
  8
0
  6
Continuous
 62
     7
370
    15
100
AcDbLine
 10
724.9665998041
 20
262.208457065
 30
0.0
 11
725.9665869295
 21
263.2085037951
 31
0.0
  0
LINE
  5
1F2
330
1F
100
AcDbEntity
  8
0
  6
Continuous
 62
     7
370
    15
100
AcDbLine
 10
809.9165998518
 20
-262.7207683798
 30
0.0
 11
773.9665947973
 21
-262.7207683798
 31
0.0
  0
LINE
  5
1F3
330
1F
100
AcDbEntity
  8
0
  6
Continuous
 62
     7
370
    15
100
AcDbLine
 10
773.9665947973
 20
-262.7207683798
 30
0.0
 11
773.9665947973
 21
259.5378113512
 31
0.0
  0
LINE
  5
1F4
330
1F
100
AcDbEntity
  8
0
  6
Continuous
 62
     7
370
    15
100
AcDbLine
 10
809.9165998518
 20
259.5378113512
 30
0.0
 11
773.9665947973
 21
259.5378113512
 31
0.0
  0
CIRCLE
  5
1F5
330
1F
100
AcDbEntity
  8
0
  6
Continuous
 62
     7
370
    15
100
AcDbCircle
 10
787.9665861761
 20
-1.5915049751
 30
0.0
 40
1.700000000000045
  0
CIRCLE
  5
1F6
330
1F
100
AcDbEntity
  8
0
  6
Continuous
 62
     7
370
    15
100
AcDbCircle
 10
787.9665861761
 20
-101.5915049751
 30
0.0
 40
1.700000000000045
  0
CIRCLE
  5
1F7
330
1F
100
AcDbEntity
  8
0
  6
Continuous
 62
     7
370
    15
100
AcDbCircle
 10
787.9665861761
 20
-201.5915049751
 30
0.0
 40
1.700000000000045
  0
CIRCLE
  5
1F8
330
1F
100
AcDbEntity
  8
0
  6
Continuous
 62
     7
370
    15
100
AcDbCircle
 10
787.9665861761
 20
98.4084950249
 30
0.0
 40
1.700000000000045
  0
CIRCLE
  5
1F9
330
1F
100
AcDbEntity
  8
0
  6
Continuous
 62
     7
370
    15
100
AcDbCircle
 10
787.9665861761
 20
198.4084950249
 30
0.0
 40
1.700000000000045
  0
SPLINE
  5
1FA
330
1F
100
AcDbEntity
  8
0
  6
Continuous
 62
     7
370
    15
100
AcDbSpline
210
0.0
220
0.0
230
1.0
 70
     8
 71
     3
 72
    12
 73
     8
 74
     0
 42
0.00000001
 43
0.00000001
 40
0.0
 40
0.0
 40
0.0
 40
0.0
 40
0.2286700820099395
 40
0.4574138999591417
 40
0.6861666492326092
 40
0.9149066181946945
 40
1.0
 40
1.0
 40
1.0
 40
1.0
 10
811.966582399569
 20
-261.541490482891
 30
0.0
 10
811.9408457980986
 20
-261.6314152104487
 30
0.0
 10
811.8893642962477
 20
-261.8112936622929
 30
0.0
 10
811.4897406565376
 20
-262.0811079798381
 30
0.0
 10
810.9083927643117
 20
-262.3508709612636
 30
0.0
 10
810.3428941688557
 20
-262.5646631825369
 30
0.0
 10
810.0075308978383
 20
-262.6874702373677
 30
0.0
 10
809.916599851809
 20
-262.7207683797721
 30
0.0
  0
SPLINE
  5
1FB
330
1F
100
AcDbEntity
  8
0
  6
Continuous
 62
     7
370
    15
100
AcDbSpline
210
0.0
220
0.0
230
1.0
 70
     8
 71
     3
 72
    12
 73
     8
 74
     0
 42
0.00000001
 43
0.00000001
 40
0.0
 40
0.0
 40
0.0
 40
0.0
 40
0.2286639909082245
 40
0.4574152938718266
 40
0.6861507133232929
 40
0.9148972886841324
 40
0.9999999999999999
 40
0.9999999999999999
 40
0.9999999999999999
 40
0.9999999999999999
 10
809.916599851809
 20
259.5378113512155
 30
0.0
 10
810.1620641117198
 20
259.4478949024179
 30
0.0
 10
810.6530863585375
 20
259.26802767152
 30
0.0
 10
811.296226050769
 20
258.9980881952394
 30
0.0
 10
811.7604489340723
 20
258.728529908113
 30
0.0
 10
811.9491933215168
 20
258.5146673138041
 30
0.0
 10
811.962873036796
 20
258.3917923625758
 30
0.0
 10
811.966582399569
 20
258.3584738496898
 30
0.0
  0
LINE
  5
1FC
330
1F
100
AcDbEntity
  8
0
  6
Continuous
 62
     7
370
    15
100
AcDbLine
 10
811.9665823996
 20
258.3584738497
 30
0.0
 11
811.9665823996
 21
-261.5414904829
 31
0.0
  0
SPLINE
  5
1FD
330
1F
100
AcDbEntity
  8
0
  6
Continuous
 62
     7
370
    15
100
AcDbSpline
210
0.0
220
0.0
230
1.0
 70
     8
 71
     3
 72
    10
 73
     6
 74
     0
 42
0.00000001
 43
0.00000001
 40
0.0
 40
0.0
 40
0.0
 40
0.0
 40
0.0732868128866843
 40
0.5395421097517658
 40
1.0
 40
1.0
 40
1.0
 40
1.0
 10
810.8412169038872
 20
259.1805411104318
 30
0.0
 10
810.8274086304776
 20
259.2022056899732
 30
0.0
 10
810.7257512561978
 20
259.3617016823919
 30
0.0
 10
810.3965871959596
 20
259.5470594258942
 30
0.0
 10
810.0759269625313
 20
259.5881070449055
 30
0.0
 10
809.916599851809
 20
259.6085024599191
 30
0.0
  0
LINE
  5
1FE
330
1F
100
AcDbEntity
  8
0
  6
Continuous
 62
     7
370
    15
100
AcDbLine
 10
809.9165998518
 20
260.4085160021
 30
0.0
 11
809.9165998518
 21
259.6085024599
 31
0.0
  0
SPLINE
  5
1FF
330
1F
100
AcDbEntity
  8
0
  6
Continuous
 62
     7
370
    15
100
AcDbSpline
210
0.0
220
0.0
230
1.0
 70
     8
 71
     3
 72
    12
 73
     8
 74
     0
 42
0.00000001
 43
0.00000001
 40
0.0
 40
0.0
 40
0.0
 40
0.0
 40
0.2286708269810753
 40
0.4574108607461645
 40
0.6861588164252408
 40
0.9149048205783511
 40
1.0
 40
1.0
 40
1.0
 40
1.0
 10
811.966582399569
 20
258.3584738496898
 30
0.0
 10
811.9408462513816
 20
258.6039473802109
 30
0.0
 10
811.8893661660109
 20
259.0949687333435
 30
0.0
 10
811.4897447804632
 20
259.7381402572443
 30
0.0
 10
810.9083729121809
 20
260.2022623426286
 30
0.0
 10
810.3428964240898
 20
260.3911884525094
 30
0.0
 10
810.0075311046851
 20
260.4048199465885
 30
0.0
 10
809.916599851809
 20
260.4085160020944
 30
0.0
  0
SPLINE
  5
200
330
1F
100
AcDbEntity
  8
0
  6
Continuous
 62
     7
370
    15
100
AcDbSpline
210
0.0
220
0.0
230
1.0
 70
     8
 71
     3
 72
    12
 73
     8
 74
     0
 42
0.00000001
 43
0.00000001
 40
0.0
 40
0.0
 40
0.0
 40
0.0
 40
0.2286645534858059
 40
0.457406226076126
 40
0.6861514872171111
 40
0.9148980413600426
 40
1.0
 40
1.0
 40
1.0
 40
1.0
 10
809.916599851809
 20
-263.5915326352958
 30
0.0
 10
810.1620605967586
 20
-263.5657790788761
 30
0.0
 10
810.6530648704237
 20
-263.5142632804267
 30
0.0
 10
811.2962585348196
 20
-263.1147119725513
 30
0.0
 10
811.7604342494394
 20
-262.5333227774186
 30
0.0
 10
811.9491939216119
 20
-261.967814140889
 30
0.0
 10
811.9628731834183
 20
-261.6324315417667
 30
0.0
 10
811.966582399569
 20
-261.541490482891
 30
0.0
  0
LINE
  5
201
330
1F
100
AcDbEntity
  8
0
  6
Continuous
 62
     7
370
    15
100
AcDbLine
 10
809.9165998518
 20
-263.5915326353
 30
0.0
 11
809.9165998518
 21
-262.7915190931
 31
0.0
  0
SPLINE
  5
202
330
1F
100
AcDbEntity
  8
0
  6
Continuous
 62
     7
370
    15
100
AcDbSpline
210
0.0
220
0.0
230
1.0
 70
     8
 71
     3
 72
    10
 73
     6
 74
     0
 42
0.00000001
 43
0.00000001
 40
0.0
 40
0.0
 40
0.0
 40
0.0
 40
0.4688807953841416
 40
0.9380499305988916
 40
1.0
 40
1.0
 40
1.0
 40
1.0
 10
809.916599851809
 20
-262.7915190931205
 30
0.0
 10
810.0777252980954
 20
-262.7705998519293
 30
0.0
 10
810.4000752753062
 20
-262.7287485051887
 30
0.0
 10
810.7275111152929
 20
-262.5437229265186
 30
0.0
 10
810.8267240220671
 20
-262.3876616825668
 30
0.0
 10
810.8382962762932
 20
-262.3694586034659
 30
0.0
  0
LINE
  5
203
330
1F
100
AcDbEntity
  8
0
  6
Continuous
 62
     7
370
    15
100
AcDbLine
 10
809.9165998518
 20
-263.5915326353
 30
0.0
 11
773.9665947973
 21
-263.5915326353
 31
0.0
  0
LINE
  5
204
330
1F
100
AcDbEntity
  8
0
  6
Continuous
 62
     7
370
    15
100
AcDbLine
 10
773.9665947973
 20
-262.7915190931
 30
0.0
 11
773.9665947973
 21
-263.5915326353
 31
0.0
  0
LINE
  5
205
330
1F
100
AcDbEntity
  8
0
  6
Continuous
 62
     7
370
    15
100
AcDbLine
 10
809.9165998518
 20
-262.7915190931
 30
0.0
 11
773.9665947973
 21
-262.7915190931
 31
0.0
  0
LINE
  5
206
330
1F
100
AcDbEntity
  8
0
  6
Continuous
 62
     7
370
    15
100
AcDbLine
 10
809.9165998518
 20
260.4085160021
 30
0.0
 11
773.9665947973
 21
260.4085160021
 31
0.0
  0
LINE
  5
207
330
1F
100
AcDbEntity
  8
0
  6
Continuous
 62
     7
370
    15
100
AcDbLine
 10
809.9165998518
 20
259.6085024599
 30
0.0
 11
773.9665947973
 21
259.6085024599
 31
0.0
  0
LINE
  5
208
330
1F
100
AcDbEntity
  8
0
  6
Continuous
 62
     7
370
    15
100
AcDbLine
 10
773.9665947973
 20
259.6085024599
 30
0.0
 11
773.9665947973
 21
260.4085160021
 31
0.0
  0
LWPOLYLINE
  5
209
330
1F
100
AcDbEntity
  8
0
  6
Continuous
 62
     7
370
    15
100
AcDbPolyline
 90
        3
 70
   128
 43
0.0
 10
789.3165789663
 20
-201.5914963957
 10
789.4421957552
 20
-200.9601043936
 10
789.494498831
 20
-200.8461999174
  0
LWPOLYLINE
  5
20A
330
1F
100
AcDbEntity
  8
0
  6
Continuous
 62
     7
370
    15
100
AcDbPolyline
 90
        3
 70
   128
 43
0.0
 10
789.494498831
 20
-202.3367928739
 10
789.4421957552
 20
-202.2229480024
 10
789.3165789663
 20
-201.5914963957
  0
LWPOLYLINE
  5
20B
330
1F
100
AcDbEntity
  8
0
  6
Continuous
 62
     7
370
    15
100
AcDbPolyline
 90
        3
 70
   128
 43
0.0
 10
789.3165789663
 20
-101.5915321585
 10
789.4421957552
 20
-100.9600805517
 10
789.494498831
 20
-100.8462356802
  0
LWPOLYLINE
  5
20C
330
1F
100
AcDbEntity
  8
0
  6
Continuous
 62
     7
370
    15
100
AcDbPolyline
 90
        3
 70
   128
 43
0.0
 10
789.494498831
 20
-102.3368286367
 10
789.4421957552
 20
-102.2229241606
 10
789.3165789663
 20
-101.5915321585
  0
LWPOLYLINE
  5
20D
330
1F
100
AcDbEntity
  8
0
  6
Continuous
 62
     7
370
    15
100
AcDbPolyline
 90
        3
 70
   128
 43
0.0
 10
789.3165789663
 20
-1.5915083166
 10
789.4421957552
 20
-0.9600567099
 10
789.494498831
 20
-0.8462118383
  0
LWPOLYLINE
  5
20E
330
1F
100
AcDbEntity
  8
0
  6
Continuous
 62
     7
370
    15
100
AcDbPolyline
 90
        3
 70
   128
 43
0.0
 10
789.494498831
 20
-2.3368047949
 10
789.4421957552
 20
-2.2229599234
 10
789.3165789663
 20
-1.5915083166
  0
LWPOLYLINE
  5
20F
330
1F
100
AcDbEntity
  8
0
  6
Continuous
 62
     7
370
    15
100
AcDbPolyline
 90
        3
 70
   128
 43
0.0
 10
789.3165789663
 20
98.4085155253
 10
789.4421957552
 20
99.0399075274
 10
789.494498831
 20
99.1538120035
  0
LWPOLYLINE
  5
210
330
1F
100
AcDbEntity
  8
0
  6
Continuous
 62
     7
370
    15
100
AcDbPolyline
 90
        3
 70
   128
 43
0.0
 10
789.494498831
 20
97.663219047
 10
789.4421957552
 20
97.7770639185
 10
789.3165789663
 20
98.4085155253
  0
LWPOLYLINE
  5
211
330
1F
100
AcDbEntity
  8
0
  6
Continuous
 62
     7
370
    15
100
AcDbPolyline
 90
        3
 70
   128
 43
0.0
 10
789.3165789663
 20
198.4084797625
 10
789.4421957552
 20
199.0399313692
 10
789.494498831
 20
199.1537762407
  0
LWPOLYLINE
  5
212
330
1F
100
AcDbEntity
  8
0
  6
Continuous
 62
     7
370
    15
100
AcDbPolyline
 90
        3
 70
   128
 43
0.0
 10
789.494498831
 20
197.6631832842
 10
789.4421957552
 20
197.7770281557
 10
789.3165789663
 20
198.4084797625
  0
LINE
  5
213
330
1F
100
AcDbEntity
  8
0
  6
Continuous
 62
     7
370
    15
100
AcDbLine
 10
764.9665914595
 20
-226.0915087934
 30
0.0
 11
766.4665721476
 21
-226.0915087934
 31
0.0
  0
LINE
  5
214
330
1F
100
AcDbEntity
  8
0
  6
Continuous
 62
     7
370
    15
100
AcDbLine
 10
766.4665721476
 20
-226.0915087934
 30
0.0
 11
766.4665721476
 21
-231.0915040251
 31
0.0
  0
LINE
  5
215
330
1F
100
AcDbEntity
  8
0
  6
Continuous
 62
     7
370
    15
100
AcDbLine
 10
766.4665721476
 20
-263.7414979216
 30
0.0
 11
766.4665721476
 21
-231.0915040251
 31
0.0
  0
LINE
  5
216
330
1F
100
AcDbEntity
  8
0
  6
Continuous
 62
     7
370
    15
100
AcDbLine
 10
764.9665914595
 20
-263.7414979216
 30
0.0
 11
764.9665914595
 21
-263.1415175672
 31
0.0
  0
LINE
  5
217
330
1F
100
AcDbEntity
  8
0
  6
Continuous
 62
     7
370
    15
100
AcDbLine
 10
789.3955253183
 20
-265.4914902922
 30
0.0
 11
792.9310642302
 21
-265.4914902922
 31
0.0
  0
LINE
  5
218
330
1F
100
AcDbEntity
  8
0
  6
Continuous
 62
     7
370
    15
100
AcDbLine
 10
792.9310642302
 20
-266.9915007826
 30
0.0
 11
789.3955253183
 21
-266.9915007826
 31
0.0
  0
LINE
  5
219
330
1F
100
AcDbEntity
  8
0
  6
Continuous
 62
     7
370
    15
100
AcDbLine
 10
768.2165943205
 20
-265.4914902922
 30
0.0
 11
789.3955253183
 21
-265.4914902922
 31
0.0
  0
LINE
  5
21A
330
1F
100
AcDbEntity
  8
0
  6
Continuous
 62
     7
370
    15
100
AcDbLine
 10
768.2165943205
 20
-266.9915007826
 30
0.0
 11
789.3955253183
 21
-266.9915007826
 31
0.0
  0
ARC
  5
21B
330
1F
100
AcDbEntity
  8
0
  6
Continuous
 62
     7
370
    15
100
AcDbCircle
 10
768.2165861788
 20
-263.7415049767
 30
0.0
 40
3.25
100
AcDbArc
 50
180.0
 51
270.0
  0
ARC
  5
21C
330
1F
100
AcDbEntity
  8
0
  6
Continuous
 62
     7
370
    15
100
AcDbCircle
 10
768.2165861788
 20
-263.7415049767
 30
0.0
 40
1.750000000000114
100
AcDbArc
 50
180.0
 51
270.0
  0
LINE
  5
21D
330
1F
100
AcDbEntity
  8
0
  6
Continuous
 62
     7
370
    15
100
AcDbLine
 10
792.9310642302
 20
-266.9915007826
 30
0.0
 11
805.0021074831
 21
-266.9915007826
 31
0.0
  0
LINE
  5
21E
330
1F
100
AcDbEntity
  8
0
  6
Continuous
 62
     7
370
    15
100
AcDbLine
 10
792.9310642302
 20
-265.4914902922
 30
0.0
 11
805.0021074831
 21
-265.4914902922
 31
0.0
  0
LINE
  5
21F
330
1F
100
AcDbEntity
  8
0
  6
Continuous
 62
     7
370
    15
100
AcDbLine
 10
806.4665936052
 20
-265.4914902922
 30
0.0
 11
806.4665936052
 21
-266.9915007826
 31
0.0
  0
LINE
  5
220
330
1F
100
AcDbEntity
  8
0
  6
Continuous
 62
     7
370
    15
100
AcDbLine
 10
806.4665936052
 20
-266.9915007826
 30
0.0
 11
805.0021074831
 21
-266.9915007826
 31
0.0
  0
LINE
  5
221
330
1F
100
AcDbEntity
  8
0
  6
Continuous
 62
     7
370
    15
100
AcDbLine
 10
805.0021074831
 20
-265.4914902922
 30
0.0
 11
806.4665936052
 21
-265.4914902922
 31
0.0
  0
LINE
  5
222
330
1F
100
AcDbEntity
  8
0
  6
Continuous
 62
     7
370
    15
100
AcDbLine
 10
811.9665823996
 20
232.4584675554
 30
0.0
 11
813.7665830671
 21
232.4584675554
 31
0.0
  0
LINE
  5
223
330
1F
100
AcDbEntity
  8
0
  6
Continuous
 62
     7
370
    15
100
AcDbLine
 10
813.7665830671
 20
232.4584675554
 30
0.0
 11
813.7665830671
 21
230.958457065
 31
0.0
  0
LINE
  5
224
330
1F
100
AcDbEntity
  8
0
  6
Continuous
 62
     7
370
    15
100
AcDbLine
 10
813.7665830671
 20
193.9585161928
 30
0.0
 11
813.7665830671
 21
230.958457065
 31
0.0
  0
LINE
  5
225
330
1F
100
AcDbEntity
  8
0
  6
Continuous
 62
     7
370
    15
100
AcDbLine
 10
813.7665830671
 20
192.4585057024
 30
0.0
 11
811.9665823996
 21
192.4585057024
 31
0.0
  0
LINE
  5
226
330
1F
100
AcDbEntity
  8
0
  6
Continuous
 62
     7
370
    15
100
AcDbLine
 10
813.7665830671
 20
193.9585161928
 30
0.0
 11
813.7665830671
 21
192.4585057024
 31
0.0
  0
LINE
  5
227
330
1F
100
AcDbEntity
  8
0
  6
Continuous
 62
     7
370
    15
100
AcDbLine
 10
79.4665359079
 20
414.9085236315
 30
0.0
 11
79.4665359079
 21
420.4084826235
 31
0.0
  0
ARC
  5
228
330
1F
100
AcDbEntity
  8
0
  6
Continuous
 62
     7
370
    15
100
AcDbCircle
 10
76.4665861788
 20
414.9084950249
 30
0.0
 40
3.000000000000114
100
AcDbArc
 50
270.0
 51
0.0
  0
LINE
  5
229
330
1F
100
AcDbEntity
  8
0
  6
Continuous
 62
     7
370
    15
100
AcDbLine
 10
-18.5333944738
 20
411.9085026507
 30
0.0
 11
76.4666341364
 21
411.9085026507
 31
0.0
  0
ARC
  5
22A
330
1F
100
AcDbEntity
  8
0
  6
Continuous
 62
     7
370
    15
100
AcDbCircle
 10
-18.5334138212
 20
414.9084950249
 30
0.0
 40
2.999999999999988
100
AcDbArc
 50
220.1554437773
 51
270.0
  0
LINE
  5
22B
330
1F
100
AcDbEntity
  8
0
  6
Continuous
 62
     7
370
    15
100
AcDbLine
 10
-20.826265949
 20
420.4084826235
 30
0.0
 11
-20.826265949
 21
412.9738760714
 31
0.0
  0
LINE
  5
22C
330
1F
100
AcDbEntity
  8
0
  6
Continuous
 62
     7
370
    15
100
AcDbLine
 10
79.4665359079
 20
420.4084826235
 30
0.0
 11
79.4665359079
 21
422.7085066561
 31
0.0
  0
SPLINE
  5
22D
330
1F
100
AcDbEntity
  8
0
  6
Continuous
 62
     7
370
    15
100
AcDbSpline
210
0.0
220
0.0
230
1.0
 70
     8
 71
     3
 72
    11
 73
     7
 74
     0
 42
0.00000001
 43
0.00000001
 40
0.0
 40
0.0
 40
0.0
 40
0.0
 40
0.2500041966764106
 40
0.5000008875962348
 40
0.7499888123577627
 40
0.9999999999999999
 40
0.9999999999999999
 40
0.9999999999999999
 40
0.9999999999999999
 10
-20.03340496424627
 20
422.7085066560861
 30
0.0
 10
-20.09948710052839
 20
422.6739136056816
 30
0.0
 10
-20.23164938913985
 20
422.6047285434431
 30
0.0
 10
-20.42988135141849
 20
422.0729369067089
 30
0.0
 10
-20.62818351799839
 20
421.3126881922176
 30
0.0
 10
-20.76023642407415
 20
420.7098938282401
 30
0.0
 10
-20.82626594904852
 20
420.4084826234933
 30
0.0
  0
LINE
  5
22E
330
1F
100
AcDbEntity
  8
0
  6
Continuous
 62
     7
370
    15
100
AcDbLine
 10
-20.0334049642
 20
422.7085066561
 30
0.0
 11
79.4665359079
 21
422.7085066561
 31
0.0
  0
SPLINE
  5
22F
330
1F
100
AcDbEntity
  8
0
  6
Continuous
 62
     7
370
    15
100
AcDbSpline
210
0.0
220
0.0
230
1.0
 70
     8
 71
     3
 72
    12
 73
     8
 74
     0
 42
0.00000001
 43
0.00000001
 40
0.0
 40
0.0
 40
0.0
 40
0.0
 40
0.2198237193785861
 40
0.4396333487912393
 40
0.6594798409075954
 40
0.8792881261017468
 40
1.0
 40
1.0
 40
1.0
 40
1.0
 10
-22.33342899683927
 20
420.4084826234935
 30
0.0
 10
-22.30674433638907
 20
420.6732401337518
 30
0.0
 10
-22.25337672588673
 20
421.202738184197
 30
0.0
 10
-21.83826036500774
 20
421.9041534733399
 30
0.0
 10
-21.22970826950293
 20
422.4250916733862
 30
0.0
 10
-20.5868049095212
 20
422.6770696273474
 30
0.0
 10
-20.17823866969465
 20
422.7002790778232
 30
0.0
 10
-20.03340496424649
 20
422.7085066560863
 30
0.0
  0
SPLINE
  5
230
330
1F
100
AcDbEntity
  8
0
  6
Continuous
 62
     7
370
    15
100
AcDbSpline
210
0.0
220
0.0
230
1.0
 70
     8
 71
     3
 72
    11
 73
     7
 74
     0
 42
0.00000001
 43
0.00000001
 40
0.0
 40
0.0
 40
0.0
 40
0.0
 40
0.2832204683286381
 40
0.5664648649111005
 40
0.849735260384835
 40
1.0
 40
1.0
 40
1.0
 40
1.0
 10
-21.53341545466375
 20
420.4084826234933
 30
0.0
 10
-21.51509151532433
 20
420.5869518540226
 30
0.0
 10
-21.47844208852273
 20
420.9439053932891
 30
0.0
 10
-21.18892933238986
 20
421.4040154076191
 30
0.0
 10
-20.84315931947106
 20
421.7142886795104
 30
0.0
 10
-20.57999729525334
 20
421.787508891375
 30
0.0
 10
-20.48878445033025
 20
421.812887263691
 30
0.0
  0
LINE
  5
231
330
1F
100
AcDbEntity
  8
0
  6
Continuous
 62
     7
370
    15
100
AcDbLine
 10
-22.3334289968
 20
420.4084826235
 30
0.0
 11
-21.5334154547
 21
420.4084826235
 31
0.0
  0
LINE
  5
232
330
1F
100
AcDbEntity
  8
0
  6
Continuous
 62
     7
370
    15
100
AcDbLine
 10
-21.5334154547
 20
420.4084826235
 30
0.0
 11
-21.5334154547
 21
408.9739275698
 31
0.0
  0
LINE
  5
233
330
1F
100
AcDbEntity
  8
0
  6
Continuous
 62
     7
370
    15
100
AcDbLine
 10
-22.3334289968
 20
408.9739275698
 30
0.0
 11
-21.5334154547
 21
408.9739275698
 31
0.0
  0
LINE
  5
234
330
1F
100
AcDbEntity
  8
0
  6
Continuous
 62
     7
370
    15
100
AcDbLine
 10
-22.3334289968
 20
420.4084826235
 30
0.0
 11
-22.3334289968
 21
408.9739275698
 31
0.0
  0
LINE
  5
235
330
1F
100
AcDbEntity
  8
0
  6
Continuous
 62
     7
370
    15
100
AcDbLine
 10
-22.3334289968
 20
407.9085541491
 30
0.0
 11
-21.5334154547
 21
407.9085541491
 31
0.0
  0
LINE
  5
236
330
1F
100
AcDbEntity
  8
0
  6
Continuous
 62
     7
370
    15
100
AcDbLine
 10
-22.3334289968
 20
407.9085541491
 30
0.0
 11
-22.3334289968
 21
408.9739275698
 31
0.0
  0
LINE
  5
237
330
1F
100
AcDbEntity
  8
0
  6
Continuous
 62
     7
370
    15
100
AcDbLine
 10
-21.5334154547
 20
407.9085541491
 30
0.0
 11
-21.5334154547
 21
408.9739275698
 31
0.0
  0
LINE
  5
238
330
1F
100
AcDbEntity
  8
0
  6
Continuous
 62
     7
370
    15
100
AcDbLine
 10
82.5665734827
 20
421.9084931139
 30
0.0
 11
82.5665734827
 21
422.7085066561
 31
0.0
  0
LINE
  5
239
330
1F
100
AcDbEntity
  8
0
  6
Continuous
 62
     7
370
    15
100
AcDbLine
 10
82.5665734827
 20
422.7085066561
 30
0.0
 11
81.5665267527
 21
422.7085066561
 31
0.0
  0
LINE
  5
23A
330
1F
100
AcDbEntity
  8
0
  6
Continuous
 62
     7
370
    15
100
AcDbLine
 10
79.4665359079
 20
422.7085066561
 30
0.0
 11
81.5665267527
 21
422.7085066561
 31
0.0
  0
LINE
  5
23B
330
1F
100
AcDbEntity
  8
0
  6
Continuous
 62
     7
370
    15
100
AcDbLine
 10
82.5665734827
 20
422.7085066561
 30
0.0
 11
82.9666398584
 21
422.7085066561
 31
0.0
  0
ARC
  5
23C
330
1F
100
AcDbEntity
  8
0
  6
Continuous
 62
     7
370
    15
100
AcDbCircle
 10
82.9665861788
 20
420.4084950249
 30
0.0
 40
2.299999999999955
100
AcDbArc
 50
40.7057068311
 51
90.0
  0
LINE
  5
23D
330
1F
100
AcDbEntity
  8
0
  6
Continuous
 62
     7
370
    15
100
AcDbLine
 10
81.3666127741
 20
421.9084931139
 30
0.0
 11
80.1665328562
 21
421.9084931139
 31
0.0
  0
LINE
  5
23E
330
1F
100
AcDbEntity
  8
0
  6
Continuous
 62
     7
370
    15
100
AcDbLine
 10
81.3666127741
 20
169.4155884508
 30
0.0
 11
80.1665328562
 21
169.4155884508
 31
0.0
  0
LINE
  5
23F
330
1F
100
AcDbEntity
  8
0
  6
Continuous
 62
     7
370
    15
100
AcDbLine
 10
80.1665328562
 20
421.9084931139
 30
0.0
 11
80.1665328562
 21
169.4155884508
 31
0.0
  0
LINE
  5
240
330
1F
100
AcDbEntity
  8
0
  6
Continuous
 62
     7
370
    15
100
AcDbLine
 10
81.3666127741
 20
421.9084931139
 30
0.0
 11
81.3666127741
 21
169.4155884508
 31
0.0
  0
LINE
  5
241
330
1F
100
AcDbEntity
  8
0
  6
Continuous
 62
     7
370
    15
100
AcDbLine
 10
80.1665328562
 20
421.9084931139
 30
0.0
 11
79.4665359079
 21
421.9084931139
 31
0.0
  0
LINE
  5
242
330
1F
100
AcDbEntity
  8
0
  6
Continuous
 62
     7
370
    15
100
AcDbLine
 10
78.6666415751
 20
169.4155884508
 30
0.0
 11
80.1665328562
 21
169.4155884508
 31
0.0
  0
LINE
  5
243
330
1F
100
AcDbEntity
  8
0
  6
Continuous
 62
     7
370
    15
100
AcDbLine
 10
-21.0334516943
 20
170.2085090403
 30
0.0
 11
-21.0334516943
 21
420.6584645037
 31
0.0
  0
LINE
  5
244
330
1F
100
AcDbEntity
  8
0
  6
Continuous
 62
     7
370
    15
100
AcDbLine
 10
-20.7930065573
 20
420.6584645037
 30
0.0
 11
-21.0334516943
 21
420.6584645037
 31
0.0
  0
SPLINE
  5
245
330
1F
100
AcDbEntity
  8
0
  6
Continuous
 62
     7
370
    15
100
AcDbSpline
210
0.0
220
0.0
230
1.0
 70
     8
 71
     3
 72
    12
 73
     8
 74
     0
 42
0.00000001
 43
0.00000001
 40
0.0
 40
0.0
 40
0.0
 40
0.0
 40
0.226588495770526
 40
0.4532294935471445
 40
0.6798614162189899
 40
0.9064961541947621
 40
1.0
 40
1.0
 40
1.0
 40
1.0
 10
-21.03345169428777
 20
170.2085090402718
 30
0.0
 10
-21.00015612099976
 20
170.1005000367336
 30
0.0
 10
-20.93355725962603
 20
169.8844570032788
 30
0.0
 10
-20.41649118034633
 20
169.560481260396
 30
0.0
 10
-19.66300640229729
 20
169.236545917698
 30
0.0
 10
-18.91562338177394
 20
168.9754134014912
 30
0.0
 10
-18.46498159696236
 20
168.8235460235973
 30
0.0
 10
-18.33336128596258
 20
168.779189658558
 30
0.0
  0
LINE
  5
246
330
1F
100
AcDbEntity
  8
0
  6
Continuous
 62
     7
370
    15
100
AcDbLine
 10
78.6666415751
 20
168.7791896586
 30
0.0
 11
78.6666415751
 21
169.4155884508
 31
0.0
  0
LINE
  5
247
330
1F
100
AcDbEntity
  8
0
  6
Continuous
 62
     7
370
    15
100
AcDbLine
 10
-18.333361286
 20
168.7791896586
 30
0.0
 11
78.6666415751
 21
168.7791896586
 31
0.0
  0
LINE
  5
248
330
1F
100
AcDbEntity
  8
0
  6
Continuous
 62
     7
370
    15
100
AcDbLine
 10
78.6666415751
 20
167.5084782366
 30
0.0
 11
78.6666415751
 21
168.7084985499
 31
0.0
  0
LINE
  5
249
330
1F
100
AcDbEntity
  8
0
  6
Continuous
 62
     7
370
    15
100
AcDbLine
 10
-18.333361286
 20
167.5084782366
 30
0.0
 11
78.6666415751
 21
167.5084782366
 31
0.0
  0
LINE
  5
24A
330
1F
100
AcDbEntity
  8
0
  6
Continuous
 62
     7
370
    15
100
AcDbLine
 10
-18.333361286
 20
167.5084782366
 30
0.0
 11
-18.333361286
 21
168.7084985499
 31
0.0
  0
LINE
  5
24B
330
1F
100
AcDbEntity
  8
0
  6
Continuous
 62
     7
370
    15
100
AcDbLine
 10
-18.333361286
 20
168.7084985499
 30
0.0
 11
78.6666415751
 21
168.7084985499
 31
0.0
  0
SPLINE
  5
24C
330
1F
100
AcDbEntity
  8
0
  6
Continuous
 62
     7
370
    15
100
AcDbSpline
210
0.0
220
0.0
230
1.0
 70
     8
 71
     3
 72
    11
 73
     7
 74
     0
 42
0.00000001
 43
0.00000001
 40
0.0
 40
0.0
 40
0.0
 40
0.0
 40
0.2500073771256399
 40
0.5000072962381206
 40
0.7500072153506011
 40
1.0
 40
1.0
 40
1.0
 40
1.0
 10
-18.33336128596258
 20
167.5084782365914
 30
0.0
 10
-18.68718488120308
 20
167.5490546295921
 30
0.0
 10
-19.39482151671185
 20
167.6302062051519
 30
0.0
 10
-20.28728909035754
 20
168.2546412841382
 30
0.0
 10
-20.91171091173266
 20
169.1470899401839
 30
0.0
 10
-20.99287181946802
 20
169.8547060392657
 30
0.0
 10
-21.03345169428777
 20
170.2085090402718
 30
0.0
  0
SPLINE
  5
24D
330
1F
100
AcDbEntity
  8
0
  6
Continuous
 62
     7
370
    15
100
AcDbSpline
210
0.0
220
0.0
230
1.0
 70
     8
 71
     3
 72
    10
 73
     6
 74
     0
 42
0.00000001
 43
0.00000001
 40
0.0
 40
0.0
 40
0.0
 40
0.0
 40
0.4980919522699163
 40
0.9961113619257848
 40
1.0
 40
1.0
 40
1.0
 40
1.0
 10
-18.33336128596258
 20
168.7084985498544
 30
0.0
 10
-18.52521324322359
 20
168.7342069382524
 30
0.0
 10
-18.90888921623318
 20
168.7856199708531
 30
0.0
 10
-19.28826555444324
 20
168.986100336684
 30
0.0
 10
-19.39575613361483
 20
169.150386244167
 30
0.0
 10
-19.396588939466
 20
169.1516590837594
 30
0.0
  0
LINE
  5
24E
330
1F
100
AcDbEntity
  8
0
  6
Continuous
 62
     7
370
    15
100
AcDbLine
 10
81.3666127741
 20
155.5085135225
 30
0.0
 11
80.1665328562
 21
155.5085135225
 31
0.0
  0
LINE
  5
24F
330
1F
100
AcDbEntity
  8
0
  6
Continuous
 62
     7
370
    15
100
AcDbLine
 10
80.1665328562
 20
166.0084677462
 30
0.0
 11
80.1665328562
 21
155.5085135225
 31
0.0
  0
LINE
  5
250
330
1F
100
AcDbEntity
  8
0
  6
Continuous
 62
     7
370
    15
100
AcDbLine
 10
81.3666127741
 20
155.9085202936
 30
0.0
 11
81.3666127741
 21
155.5085135225
 31
0.0
  0
ARC
  5
251
330
1F
100
AcDbEntity
  8
0
  6
Continuous
 62
     7
370
    15
100
AcDbCircle
 10
78.6665861788
 20
166.0084950249
 30
0.0
 40
2.700000000001154
100
AcDbArc
 50
0.0
 51
90.0
  0
ARC
  5
252
330
1F
100
AcDbEntity
  8
0
  6
Continuous
 62
     7
370
    15
100
AcDbCircle
 10
78.6665861788
 20
166.0084950249
 30
0.0
 40
1.500000000001194
100
AcDbArc
 50
0.0
 51
90.0
  0
ARC
  5
253
330
1F
100
AcDbEntity
  8
0
  6
Continuous
 62
     7
370
    15
100
AcDbCircle
 10
-19.7834138212
 20
420.6584950249
 30
0.0
 40
1.250000000000195
100
AcDbArc
 50
128.1921571183
 51
180.0000000001
  0
LINE
  5
254
330
1F
100
AcDbEntity
  8
0
  6
Continuous
 62
     7
370
    15
100
AcDbLine
 10
83.9166186869
 20
155.9085202936
 30
0.0
 11
90.9665368616
 21
155.9085202936
 31
0.0
  0
LINE
  5
255
330
1F
100
AcDbEntity
  8
0
  6
Continuous
 62
     7
370
    15
100
AcDbLine
 10
90.9665368616
 20
421.9084931139
 30
0.0
 11
83.9166186869
 21
421.9084931139
 31
0.0
  0
LINE
  5
256
330
1F
100
AcDbEntity
  8
0
  6
Continuous
 62
     7
370
    15
100
AcDbLine
 10
81.3666127741
 20
421.9084931139
 30
0.0
 11
83.9166186869
 21
421.9084931139
 31
0.0
  0
LINE
  5
257
330
1F
100
AcDbEntity
  8
0
  6
Continuous
 62
     7
370
    15
100
AcDbLine
 10
83.9166186869
 20
155.9085202936
 30
0.0
 11
81.3666127741
 21
155.9085202936
 31
0.0
  0
LINE
  5
258
330
1F
100
AcDbEntity
  8
0
  6
Continuous
 62
     7
370
    15
100
AcDbLine
 10
81.3666127741
 20
155.9085202936
 30
0.0
 11
81.3666127741
 21
169.4155884508
 31
0.0
  0
LINE
  5
259
330
1F
100
AcDbEntity
  8
0
  6
Continuous
 62
     7
370
    15
100
AcDbLine
 10
150.9665988505
 20
-263.5415243383
 30
0.0
 11
150.9665988505
 21
-263.1415175672
 31
0.0
  0
LINE
  5
25A
330
1F
100
AcDbEntity
  8
0
  6
Continuous
 62
     7
370
    15
100
AcDbLine
 10
150.9665988505
 20
-263.1415175672
 30
0.0
 11
150.5665920794
 21
-263.1415175672
 31
0.0
  0
LINE
  5
25B
330
1F
100
AcDbEntity
  8
0
  6
Continuous
 62
     7
370
    15
100
AcDbLine
 10
150.5665920794
 20
-263.1415175672
 30
0.0
 11
150.5665920794
 21
-265.5915068861
 31
0.0
  0
LINE
  5
25C
330
1F
100
AcDbEntity
  8
0
  6
Continuous
 62
     7
370
    15
100
AcDbLine
 10
93.016579014
 20
-265.5915068861
 30
0.0
 11
150.5665920794
 21
-265.5915068861
 31
0.0
  0
SPLINE
  5
25D
330
1F
100
AcDbEntity
  8
0
  6
Continuous
 62
     7
370
    15
100
AcDbSpline
210
0.0
220
0.0
230
1.0
 70
     8
 71
     3
 72
    11
 73
     7
 74
     0
 42
0.00000001
 43
0.00000001
 40
0.0
 40
0.0
 40
0.0
 40
0.0
 40
0.2590891919414838
 40
0.5182602138146489
 40
0.7774248347385614
 40
1.0
 40
1.0
 40
1.0
 40
1.0
 10
93.01657901402521
 20
1137.358541560566
 30
0.0
 10
92.92666164501934
 20
1137.604412415825
 30
0.0
 10
92.74679850778261
 20
1138.096231781436
 30
0.0
 10
92.47688069233911
 20
1138.733433415757
 30
0.0
 10
92.21986957000367
 20
1139.197253811143
 30
0.0
 10
92.05265989861805
 20
1139.307554354024
 30
0.0
 10
91.97540507908869
 20
1139.358515811359
 30
0.0
  0
LINE
  5
25E
330
1F
100
AcDbEntity
  8
0
  6
Continuous
 62
     7
370
    15
100
AcDbLine
 10
724.0958653509
 20
1139.4084645037
 30
0.0
 11
723.9665828764
 21
1139.4084645037
 31
0.0
  0
LINE
  5
25F
330
1F
100
AcDbEntity
  8
0
  6
Continuous
 62
     7
370
    15
100
AcDbLine
 10
92.2666333735
 20
1139.4084645037
 30
0.0
 11
92.1666167795
 21
1139.4084645037
 31
0.0
  0
SPLINE
  5
260
330
1F
100
AcDbEntity
  8
0
  6
Continuous
 62
     7
370
    15
100
AcDbSpline
210
0.0
220
0.0
230
1.0
 70
     8
 71
     3
 72
    11
 73
     7
 74
     0
 42
0.00000001
 43
0.00000001
 40
0.0
 40
0.0
 40
0.0
 40
0.0
 40
0.0467053561039122
 40
0.4486181941316991
 40
0.8505001834187523
 40
1.0
 40
1.0
 40
1.0
 40
1.0
 10
723.5876165449242
 20
1138.945097995197
 30
0.0
 10
723.577165781632
 20
1138.930897118638
 30
0.0
 10
723.4767832356772
 20
1138.794493670963
 30
0.0
 10
723.2865189647098
 20
1138.335242335494
 30
0.0
 10
723.072748311536
 20
1137.785978441211
 30
0.0
 10
722.9498969585364
 20
1137.449714924527
 30
0.0
 10
722.9165874540429
 20
1137.358541560566
 30
0.0
  0
SPLINE
  5
261
330
1F
100
AcDbEntity
  8
0
  6
Continuous
 62
     7
370
    15
100
AcDbSpline
210
0.0
220
0.0
230
1.0
 70
     8
 71
     3
 72
    11
 73
     7
 74
     0
 42
0.00000001
 43
0.00000001
 40
0.0
 40
0.0
 40
0.0
 40
0.0
 40
0.2506729131024211
 40
0.5014802184621114
 40
0.7522840893634056
 40
1.0
 40
1.0
 40
1.0
 40
1.0
 10
93.01657901402521
 20
1137.358541560566
 30
0.0
 10
92.91802946123335
 20
1137.522777151132
 30
0.0
 10
92.72087752067499
 20
1137.851336383227
 30
0.0
 10
92.425182300161
 20
1138.26540129286
 30
0.0
 10
92.13065401954485
 20
1138.552966141576
 30
0.0
 10
91.93464096301757
 20
1138.590032554507
 30
0.0
 10
91.83724151249933
 20
1138.608450961506
 30
0.0
  0
LINE
  5
262
330
1F
100
AcDbEntity
  8
0
  6
Continuous
 62
     7
370
    15
100
AcDbLine
 10
91.8372415125
 20
1139.3585158114
 30
0.0
 11
91.8372415125
 21
1138.6084509615
 31
0.0
  0
LINE
  5
263
330
1F
100
AcDbEntity
  8
0
  6
Continuous
 62
     7
370
    15
100
AcDbLine
 10
93.016579014
 20
-265.5915068861
 30
0.0
 11
90.9665368616
 21
-265.5915068861
 31
0.0
  0
LINE
  5
264
330
1F
100
AcDbEntity
  8
0
  6
Continuous
 62
     7
370
    15
100
AcDbLine
 10
90.9665368616
 20
-265.5915068861
 30
0.0
 11
90.9665368616
 21
1138.5377598528
 31
0.0
  0
SPLINE
  5
265
330
1F
100
AcDbEntity
  8
0
  6
Continuous
 62
     7
370
    15
100
AcDbSpline
210
0.0
220
0.0
230
1.0
 70
     8
 71
     3
 72
    12
 73
     8
 74
     0
 42
0.00000001
 43
0.00000001
 40
0.0
 40
0.0
 40
0.0
 40
0.0
 40
0.2286773592751146
 40
0.4574013873797229
 40
0.6861529911275238
 40
0.9149212275260967
 40
0.9999999999999999
 40
0.9999999999999999
 40
0.9999999999999999
 40
0.9999999999999999
 10
90.96653686162043
 20
1138.537759852802
 30
0.0
 10
90.992315865919
 20
1138.447832253788
 30
0.0
 10
91.04387913553552
 20
1138.267958703196
 30
0.0
 10
91.44336338474962
 20
1137.99820142594
 30
0.0
 10
92.02476562493872
 20
1137.728446473972
 30
0.0
 10
92.59025524440607
 20
1137.514567505801
 30
0.0
 10
92.92565708144612
 20
1137.391817163486
 30
0.0
 10
93.01657901402521
 20
1137.358541560566
 30
0.0
  0
LINE
  5
266
330
1F
100
AcDbEntity
  8
0
  6
Continuous
 62
     7
370
    15
100
AcDbLine
 10
90.9665368616
 20
1138.5377598528
 30
0.0
 11
91.7665504038
 21
1138.5377598528
 31
0.0
  0
SPLINE
  5
267
330
1F
100
AcDbEntity
  8
0
  6
Continuous
 62
     7
370
    15
100
AcDbSpline
210
0.0
220
0.0
230
1.0
 70
     8
 71
     3
 72
    11
 73
     7
 74
     0
 42
0.00000001
 43
0.00000001
 40
0.0
 40
0.0
 40
0.0
 40
0.0
 40
0.2506883089082038
 40
0.5014949170342484
 40
0.7523167378636993
 40
1.0
 40
1.0
 40
1.0
 40
1.0
 10
91.76655040379572
 20
1138.537759852802
 30
0.0
 10
91.78547228463191
 20
1138.439212154804
 30
0.0
 10
91.82332497549523
 20
1138.242070254382
 30
0.0
 10
92.11399956750516
 20
1137.946352520645
 30
0.0
 10
92.52776673027691
 20
1137.6518403006
 30
0.0
 10
92.85432692069546
 20
1137.455896590551
 30
0.0
 10
93.01657901402521
 20
1137.358541560566
 30
0.0
  0
SPLINE
  5
268
330
1F
100
AcDbEntity
  8
0
  6
Continuous
 62
     7
370
    15
100
AcDbSpline
210
0.0
220
0.0
230
1.0
 70
     8
 71
     3
 72
    12
 73
     8
 74
     0
 42
0.00000001
 43
0.00000001
 40
0.0
 40
0.0
 40
0.0
 40
0.0
 40
0.2286729107948367
 40
0.457412012539121
 40
0.6861605442067822
 40
0.9148994269780313
 40
1.0
 40
1.0
 40
1.0
 40
1.0
 10
722.9165874540429
 20
-263.5415243383291
 30
0.0
 10
723.0065106211761
 20
-263.7869984528781
 30
0.0
 10
723.186382984323
 20
-264.2780177361501
 30
0.0
 10
723.4562149791846
 20
-264.9211768708058
 30
0.0
 10
723.7259351066856
 20
-265.3853703022083
 30
0.0
 10
723.9397174996337
 20
-265.5740625295254
 30
0.0
 10
724.0625564055658
 20
-265.5877857134006
 30
0.0
 10
724.095865350924
 20
-265.5915068860892
 30
0.0
  0
LINE
  5
269
330
1F
100
AcDbEntity
  8
0
  6
Continuous
 62
     7
370
    15
100
AcDbLine
 10
724.0958653509
 20
-265.5915068861
 30
0.0
 11
150.9665988505
 21
-265.5915068861
 31
0.0
  0
LINE
  5
26A
330
1F
100
AcDbEntity
  8
0
  6
Continuous
 62
     7
370
    15
100
AcDbLine
 10
150.9665988505
 20
-265.5915068861
 30
0.0
 11
150.9665988505
 21
-263.5415243383
 31
0.0
  0
SPLINE
  5
26B
330
1F
100
AcDbEntity
  8
0
  6
Continuous
 62
     7
370
    15
100
AcDbSpline
210
0.0
220
0.0
230
1.0
 70
     8
 71
     3
 72
    10
 73
     6
 74
     0
 42
0.00000001
 43
0.00000001
 40
0.0
 40
0.0
 40
0.0
 40
0.0
 40
0.3761998049844502
 40
0.752498581363229
 40
1.0
 40
1.0
 40
1.0
 40
1.0
 10
722.9165874540429
 20
1137.358541560566
 30
0.0
 10
723.160483045252
 20
1137.44847428556
 30
0.0
 10
723.6483383922085
 20
1137.628363395229
 30
0.0
 10
724.2390785790255
 20
1137.867272642646
 30
0.0
 10
724.4735594718437
 20
1138.016412228571
 30
0.0
 10
724.5665930330376
 20
1138.075585437214
 30
0.0
  0
SPLINE
  5
26C
330
1F
100
AcDbEntity
  8
0
  6
Continuous
 62
     7
370
    15
100
AcDbSpline
210
0.0
220
0.0
230
1.0
 70
     8
 71
     3
 72
    11
 73
     7
 74
     0
 42
0.00000001
 43
0.00000001
 40
0.0
 40
0.0
 40
0.0
 40
0.0
 40
0.2506500082030447
 40
0.5014885158980691
 40
0.7523027222605886
 40
1.0
 40
1.0
 40
1.0
 40
1.0
 10
722.9165874540429
 20
1137.358541560566
 30
0.0
 10
723.0808319629241
 20
1137.457034061863
 30
0.0
 10
723.409444499559
 20
1137.654093135017
 30
0.0
 10
723.8234150985584
 20
1137.949963394938
 30
0.0
 10
724.1110284172825
 20
1138.244468619757
 30
0.0
 10
724.1481443357962
 20
1138.44040446953
 30
0.0
 10
724.16658626195
 20
1138.537759852802
 30
0.0
  0
LINE
  5
26D
330
1F
100
AcDbEntity
  8
0
  6
Continuous
 62
     7
370
    15
100
AcDbLine
 10
724.566593033
 20
1138.5377598528
 30
0.0
 11
724.1665862619
 21
1138.5377598528
 31
0.0
  0
LINE
  5
26E
330
1F
100
AcDbEntity
  8
0
  6
Continuous
 62
     7
370
    15
100
AcDbLine
 10
724.9665998041
 20
-264.7208022352
 30
0.0
 11
724.9665998041
 21
1134.9085522417
 31
0.0
  0
SPLINE
  5
26F
330
1F
100
AcDbEntity
  8
0
  6
Continuous
 62
     7
370
    15
100
AcDbSpline
210
0.0
220
0.0
230
1.0
 70
     8
 71
     3
 72
    12
 73
     8
 74
     0
 42
0.00000001
 43
0.00000001
 40
0.0
 40
0.0
 40
0.0
 40
0.0
 40
0.2286714080553498
 40
0.4574125215090564
 40
0.6861625661814309
 40
0.9149076242750771
 40
1.0
 40
1.0
 40
1.0
 40
1.0
 10
724.9665998041253
 20
-264.7208022352103
 30
0.0
 10
724.940863916572
 20
-264.6308778495131
 30
0.0
 10
724.8893842964516
 20
-264.4510016666676
 30
0.0
 10
724.4897574801237
 20
-264.1811853891337
 30
0.0
 10
723.9084056415484
 20
-263.9114150631103
 30
0.0
 10
723.3428893760256
 20
-263.6976335980966
 30
0.0
 10
723.0075183457683
 20
-263.5748226967585
 30
0.0
 10
722.9165874540429
 20
-263.5415243383292
 30
0.0
  0
LINE
  5
270
330
1F
100
AcDbEntity
  8
0
  6
Continuous
 62
     7
370
    15
100
AcDbLine
 10
724.9665998041
 20
-264.7208022352
 30
0.0
 11
724.1665862619
 21
-264.7208022352
 31
0.0
  0
SPLINE
  5
271
330
1F
100
AcDbEntity
  8
0
  6
Continuous
 62
     7
370
    15
100
AcDbSpline
210
0.0
220
0.0
230
1.0
 70
     8
 71
     3
 72
    11
 73
     7
 74
     0
 42
0.00000001
 43
0.00000001
 40
0.0
 40
0.0
 40
0.0
 40
0.0
 40
0.2506796599899374
 40
0.5014882270909793
 40
0.7523099797737121
 40
1.0
 40
1.0
 40
1.0
 40
1.0
 10
724.16658626195
 20
-264.7208022352103
 30
0.0
 10
724.1476926752903
 20
-264.6222515394861
 30
0.0
 10
724.1098957863132
 20
-264.4250994702701
 30
0.0
 10
723.8191419792926
 20
-264.129419186735
 30
0.0
 10
723.4054435982196
 20
-263.8347978828331
 30
0.0
 10
723.078855609055
 20
-263.6388719068265
 30
0.0
 10
722.9165874540429
 20
-263.5415243383292
 30
0.0
  0
SPLINE
  5
272
330
1F
100
AcDbEntity
  8
0
  6
Continuous
 62
     7
370
    15
100
AcDbSpline
210
0.0
220
0.0
230
1.0
 70
     8
 71
     3
 72
    11
 73
     7
 74
     0
 42
0.00000001
 43
0.00000001
 40
0.0
 40
0.0
 40
0.0
 40
0.0
 40
0.2506684568417261
 40
0.5014915967086332
 40
0.7523045388014775
 40
1.0
 40
1.0
 40
1.0
 40
1.0
 10
722.9165874540429
 20
-263.5415243383292
 30
0.0
 10
723.0151214013703
 20
-263.7057626788457
 30
0.0
 10
723.2122500995629
 20
-264.0343407084238
 30
0.0
 10
723.5080139340629
 20
-264.4483797643302
 30
0.0
 10
723.8025886308346
 20
-264.7359224177307
 30
0.0
 10
723.9985148601289
 20
-264.773047089686
 30
0.0
 10
724.095865350924
 20
-264.7914933439139
 30
0.0
  0
LINE
  5
273
330
1F
100
AcDbEntity
  8
0
  6
Continuous
 62
     7
370
    15
100
AcDbLine
 10
724.0958653509
 20
-265.5915068861
 30
0.0
 11
724.0958653509
 21
-264.7914933439
 31
0.0
  0
LINE
  5
274
330
1F
100
AcDbEntity
  8
0
  6
Continuous
 62
     7
370
    15
100
AcDbLine
 10
724.0958653509
 20
1139.4084645037
 30
0.0
 11
724.0958653509
 21
1138.6084509615
 31
0.0
  0
SPLINE
  5
275
330
1F
100
AcDbEntity
  8
0
  6
Continuous
 62
     7
370
    15
100
AcDbSpline
210
0.0
220
0.0
230
1.0
 70
     8
 71
     3
 72
    11
 73
     7
 74
     0
 42
0.00000001
 43
0.00000001
 40
0.0
 40
0.0
 40
0.0
 40
0.0
 40
0.2506715951910956
 40
0.5014837697198992
 40
0.7523179196585762
 40
1.0
 40
1.0
 40
1.0
 40
1.0
 10
724.095865350924
 20
1138.608450961506
 30
0.0
 10
723.9973297804256
 20
1138.589577445564
 30
0.0
 10
723.8002033796165
 20
1138.551819829209
 30
0.0
 10
723.5044623543022
 20
1138.261104738035
 30
0.0
 10
723.2098790332534
 20
1137.847371140144
 30
0.0
 10
723.013938342475
 20
1137.520796453775
 30
0.0
 10
722.9165874540429
 20
1137.358541560566
 30
0.0
  0
LINE
  5
276
330
1F
100
AcDbEntity
  8
0
  6
Continuous
 62
     7
370
    15
100
AcDbLine
 10
92.0440696299
 20
1138.5377598528
 30
0.0
 11
91.7665504038
 21
1138.5377598528
 31
0.0
  0
LINE
  5
277
330
1F
100
AcDbEntity
  8
0
  6
Continuous
 62
     7
370
    15
100
AcDbLine
 10
725.4665933668
 20
205.4084492449
 30
0.0
 11
725.4665933668
 21
204.9084854845
 31
0.0
  0
LINE
  5
278
330
1F
100
AcDbEntity
  8
0
  6
Continuous
 62
     7
370
    15
100
AcDbLine
 10
725.4665933668
 20
658.4085179094
 30
0.0
 11
725.4665933668
 21
650.408501697
 31
0.0
  0
LINE
  5
279
330
1F
100
AcDbEntity
  8
0
  6
Continuous
 62
     7
370
    15
100
AcDbLine
 10
725.4665933668
 20
-231.7820238348
 30
0.0
 11
725.4665933668
 21
-239.5914839979
 31
0.0
  0
LINE
  5
27A
330
1F
100
AcDbEntity
  8
0
  6
Continuous
 62
     7
370
    15
100
AcDbLine
 10
725.4665933668
 20
213.4084654574
 30
0.0
 11
725.4665933668
 21
205.4084492449
 31
0.0
  0
LINE
  5
27B
330
1F
100
AcDbEntity
  8
0
  6
Continuous
 62
     7
370
    15
100
AcDbLine
 10
93.016579014
 20
-266.0915302511
 30
0.0
 11
96.5373061716
 21
-266.0915302511
 31
0.0
  0
LINE
  5
27C
330
1F
100
AcDbEntity
  8
0
  6
Continuous
 62
     7
370
    15
100
AcDbLine
 10
93.016579014
 20
-266.0915302511
 30
0.0
 11
90.9665368616
 21
-266.0915302511
 31
0.0
  0
LINE
  5
27D
330
1F
100
AcDbEntity
  8
0
  6
Continuous
 62
     7
370
    15
100
AcDbLine
 10
90.9665368616
 20
-266.0915302511
 30
0.0
 11
90.9665368616
 21
-265.5915068861
 31
0.0
  0
LINE
  5
27E
330
1F
100
AcDbEntity
  8
0
  6
Continuous
 62
     7
370
    15
100
AcDbLine
 10
605.9665821612
 20
-266.0915302511
 30
0.0
 11
605.9665821612
 21
-265.5915068861
 31
0.0
  0
LINE
  5
27F
330
1F
100
AcDbEntity
  8
0
  6
Continuous
 62
     7
370
    15
100
AcDbLine
 10
209.9666141092
 20
-266.0915302511
 30
0.0
 11
209.9666141092
 21
-265.5915068861
 31
0.0
  0
LINE
  5
280
330
1F
100
AcDbEntity
  8
0
  6
Continuous
 62
     7
370
    15
100
AcDbLine
 10
724.0958653509
 20
-266.0915302511
 30
0.0
 11
724.0958653509
 21
-265.9915136572
 31
0.0
  0
LINE
  5
281
330
1F
100
AcDbEntity
  8
0
  6
Continuous
 62
     7
370
    15
100
AcDbLine
 10
150.9665988505
 20
-266.0915302511
 30
0.0
 11
150.9665988505
 21
-265.5915068861
 31
0.0
  0
LINE
  5
282
330
1F
100
AcDbEntity
  8
0
  6
Continuous
 62
     7
370
    15
100
AcDbLine
 10
150.9665988505
 20
-263.6414813276
 30
0.0
 11
150.5665920794
 21
-263.6414813276
 31
0.0
  0
LINE
  5
283
330
1F
100
AcDbEntity
  8
0
  6
Continuous
 62
     7
370
    15
100
AcDbLine
 10
150.5665920794
 20
-265.5915068861
 30
0.0
 11
150.5665920794
 21
-266.0915302511
 31
0.0
  0
LINE
  5
284
330
1F
100
AcDbEntity
  8
0
  6
Continuous
 62
     7
370
    15
100
AcDbLine
 10
90.9665368616
 20
436.2084818606
 30
0.0
 11
83.7665341913
 21
436.2084818606
 31
0.0
  0
LINE
  5
285
330
1F
100
AcDbEntity
  8
0
  6
Continuous
 62
     7
370
    15
100
AcDbLine
 10
83.7665341913
 20
436.2084818606
 30
0.0
 11
83.7665341913
 21
437.4084425692
 31
0.0
  0
LINE
  5
286
330
1F
100
AcDbEntity
  8
0
  6
Continuous
 62
     7
370
    15
100
AcDbLine
 10
90.9665368616
 20
437.4084425692
 30
0.0
 11
83.7665341913
 21
437.4084425692
 31
0.0
  0
LINE
  5
287
330
1F
100
AcDbEntity
  8
0
  6
Continuous
 62
     7
370
    15
100
AcDbLine
 10
723.9665828764
 20
1141.9584704165
 30
0.0
 11
724.566593033
 21
1141.9584704165
 31
0.0
  0
LINE
  5
288
330
1F
100
AcDbEntity
  8
0
  6
Continuous
 62
     7
370
    15
100
AcDbLine
 10
723.9665828764
 20
1141.3584900622
 30
0.0
 11
723.9665828764
 21
1141.9584704165
 31
0.0
  0
LINE
  5
289
330
1F
100
AcDbEntity
  8
0
  6
Continuous
 62
     7
370
    15
100
AcDbLine
 10
92.2666333735
 20
1183.3585453753
 30
0.0
 11
92.2666333735
 21
1141.3584900622
 31
0.0
  0
LINE
  5
28A
330
1F
100
AcDbEntity
  8
0
  6
Continuous
 62
     7
370
    15
100
AcDbLine
 10
93.4166453898
 20
1183.3585453753
 30
0.0
 11
92.2666333735
 21
1183.3585453753
 31
0.0
  0
LINE
  5
28B
330
1F
100
AcDbEntity
  8
0
  6
Continuous
 62
     7
370
    15
100
AcDbLine
 10
93.4166453898
 20
1183.4584427599
 30
0.0
 11
93.4166453898
 21
1183.3585453753
 31
0.0
  0
LINE
  5
28C
330
1F
100
AcDbEntity
  8
0
  6
Continuous
 62
     7
370
    15
100
AcDbLine
 10
789.7665940344
 20
1183.3585453753
 30
0.0
 11
789.7665940344
 21
1183.4584427599
 31
0.0
  0
LINE
  5
28D
330
1F
100
AcDbEntity
  8
0
  6
Continuous
 62
     7
370
    15
100
AcDbLine
 10
796.9211183607
 20
1183.3585453753
 30
0.0
 11
789.7665940344
 21
1183.3585453753
 31
0.0
  0
ARC
  5
28E
330
1F
100
AcDbEntity
  8
0
  6
Continuous
 62
     7
370
    15
100
AcDbCircle
 10
789.7665861788
 20
1163.5084950249
 30
0.0
 40
21.09999999999992
100
AcDbArc
 50
0.0
 51
70.1792943547
  0
LINE
  5
28F
330
1F
100
AcDbEntity
  8
0
  6
Continuous
 62
     7
370
    15
100
AcDbLine
 10
810.8665786802
 20
1140.8585263018
 30
0.0
 11
810.8665786802
 21
1163.508529735
 31
0.0
  0
ARC
  5
290
330
1F
100
AcDbEntity
  8
0
  6
Continuous
 62
     7
370
    15
100
AcDbCircle
 10
809.7165861788
 20
1140.8584950249
 30
0.0
 40
1.150000000000091
100
AcDbArc
 50
270.0
 51
0.0
  0
LINE
  5
291
330
1F
100
AcDbEntity
  8
0
  6
Continuous
 62
     7
370
    15
100
AcDbLine
 10
769.9665866911
 20
1139.7085142855
 30
0.0
 11
809.7165964663
 21
1139.7085142855
 31
0.0
  0
ARC
  5
292
330
1F
100
AcDbEntity
  8
0
  6
Continuous
 62
     7
370
    15
100
AcDbCircle
 10
769.9665861788
 20
1134.7084950249
 30
0.0
 40
5.0
100
AcDbArc
 50
90.0
 51
180.0
  0
LINE
  5
293
330
1F
100
AcDbEntity
  8
0
  6
Continuous
 62
     7
370
    15
100
AcDbLine
 10
764.9665914595
 20
1135.9084797625
 30
0.0
 11
764.9665914595
 21
1134.7085190539
 31
0.0
  0
ARC
  5
294
330
1F
100
AcDbEntity
  8
0
  6
Continuous
 62
     7
370
    15
100
AcDbCircle
 10
759.9665861788
 20
1135.9084950249
 30
0.0
 40
5.000000000000227
100
AcDbArc
 50
270.0
 51
0.0
  0
LINE
  5
295
330
1F
100
AcDbEntity
  8
0
  6
Continuous
 62
     7
370
    15
100
AcDbLine
 10
728.966578108
 20
1130.9084845308
 30
0.0
 11
759.9665962278
 21
1130.9084845308
 31
0.0
  0
LINE
  5
296
330
1F
100
AcDbEntity
  8
0
  6
Continuous
 62
     7
370
    15
100
AcDbLine
 10
724.566593033
 20
1135.3084994082
 30
0.0
 11
728.966578108
 21
1130.9084845308
 31
0.0
  0
LINE
  5
297
330
1F
100
AcDbEntity
  8
0
  6
Continuous
 62
     7
370
    15
100
AcDbLine
 10
724.566593033
 20
1141.9584704165
 30
0.0
 11
724.566593033
 21
1135.3084994082
 31
0.0
  0
LINE
  5
298
330
1F
100
AcDbEntity
  8
0
  6
Continuous
 62
     7
370
    15
100
AcDbLine
 10
723.9665828764
 20
1141.3584900622
 30
0.0
 11
723.9665828764
 21
1138.9085007433
 31
0.0
  0
LINE
  5
299
330
1F
100
AcDbEntity
  8
0
  6
Continuous
 62
     7
370
    15
100
AcDbLine
 10
723.7381480753
 20
1138.9085007433
 30
0.0
 11
723.9665828764
 21
1138.9085007433
 31
0.0
  0
LINE
  5
29A
330
1F
100
AcDbEntity
  8
0
  6
Continuous
 62
     7
370
    15
100
AcDbLine
 10
92.2666333735
 20
1138.9567805056
 30
0.0
 11
92.2666333735
 21
1141.3584900622
 31
0.0
  0
LINE
  5
29B
330
1F
100
AcDbEntity
  8
0
  6
Continuous
 62
     7
370
    15
100
AcDbLine
 10
789.7665940344
 20
1185.565586162
 30
0.0
 11
789.7665940344
 21
1183.4584427599
 31
0.0
  0
LINE
  5
29C
330
1F
100
AcDbEntity
  8
0
  6
Continuous
 62
     7
370
    15
100
AcDbLine
 10
93.4166453898
 20
1183.4584427599
 30
0.0
 11
93.4166453898
 21
1185.9084320788
 31
0.0
  0
LINE
  5
29D
330
1F
100
AcDbEntity
  8
0
  6
Continuous
 62
     7
370
    15
100
AcDbLine
 10
93.4166453898
 20
1185.9084320788
 30
0.0
 11
789.7665940344
 21
1185.9084320788
 31
0.0
  0
LINE
  5
29E
330
1F
100
AcDbEntity
  8
0
  6
Continuous
 62
     7
370
    15
100
AcDbLine
 10
92.1666167795
 20
1183.4584427599
 30
0.0
 11
92.1666167795
 21
1139.3585158114
 31
0.0
  0
LINE
  5
29F
330
1F
100
AcDbEntity
  8
0
  6
Continuous
 62
     7
370
    15
100
AcDbLine
 10
92.1666167795
 20
1183.4584427599
 30
0.0
 11
90.9665368616
 21
1183.4584427599
 31
0.0
  0
LINE
  5
2A0
330
1F
100
AcDbEntity
  8
0
  6
Continuous
 62
     7
370
    15
100
AcDbLine
 10
90.9665368616
 20
1139.3585158114
 30
0.0
 11
92.1666167795
 21
1139.3585158114
 31
0.0
  0
LINE
  5
2A1
330
1F
100
AcDbEntity
  8
0
  6
Continuous
 62
     7
370
    15
100
AcDbLine
 10
90.9665368616
 20
1183.4584427599
 30
0.0
 11
90.9665368616
 21
1139.3585158114
 31
0.0
  0
ARC
  5
2A2
330
1F
100
AcDbEntity
  8
0
  6
Continuous
 62
     7
370
    15
100
AcDbCircle
 10
789.7665861788
 20
1163.5084950249
 30
0.0
 40
22.40000000000009
100
AcDbArc
 50
0.0
 51
90.0
  0
LINE
  5
2A3
330
1F
100
AcDbEntity
  8
0
  6
Continuous
 62
     7
370
    15
100
AcDbLine
 10
789.7665940344
 20
1185.565586162
 30
0.0
 11
789.7665940344
 21
1185.9084320788
 31
0.0
  0
ARC
  5
2A4
330
1F
100
AcDbEntity
  8
0
  6
Continuous
 62
     7
370
    15
100
AcDbCircle
 10
789.7665861788
 20
1163.5084950249
 30
0.0
 40
21.19999999999993
100
AcDbArc
 50
0.0
 51
90.0
  0
LINE
  5
2A5
330
1F
100
AcDbEntity
  8
0
  6
Continuous
 62
     7
370
    15
100
AcDbLine
 10
792.1665750563
 20
1138.4085369829
 30
0.0
 11
809.7165964663
 21
1138.4085369829
 31
0.0
  0
LINE
  5
2A6
330
1F
100
AcDbEntity
  8
0
  6
Continuous
 62
     7
370
    15
100
AcDbLine
 10
792.1665750563
 20
1139.6084976915
 30
0.0
 11
809.7165964663
 21
1139.6084976915
 31
0.0
  0
LINE
  5
2A7
330
1F
100
AcDbEntity
  8
0
  6
Continuous
 62
     7
370
    15
100
AcDbLine
 10
792.1665750563
 20
1138.4085369829
 30
0.0
 11
792.1665750563
 21
1139.6084976915
 31
0.0
  0
ARC
  5
2A8
330
1F
100
AcDbEntity
  8
0
  6
Continuous
 62
     7
370
    15
100
AcDbCircle
 10
809.7165861788
 20
1140.8584950249
 30
0.0
 40
1.250000000000227
100
AcDbArc
 50
270.0
 51
0.0
  0
ARC
  5
2A9
330
1F
100
AcDbEntity
  8
0
  6
Continuous
 62
     7
370
    15
100
AcDbCircle
 10
809.7165861788
 20
1140.8584950249
 30
0.0
 40
2.450000000000045
100
AcDbArc
 50
270.0
 51
0.0
  0
LINE
  5
2AA
330
1F
100
AcDbEntity
  8
0
  6
Continuous
 62
     7
370
    15
100
AcDbLine
 10
810.9665952742
 20
1140.8585263018
 30
0.0
 11
810.9665952742
 21
1163.508529735
 31
0.0
  0
LINE
  5
2AB
330
1F
100
AcDbEntity
  8
0
  6
Continuous
 62
     7
370
    15
100
AcDbLine
 10
812.1665857851
 20
1140.8585263018
 30
0.0
 11
812.1665857851
 21
1163.508529735
 31
0.0
  0
ARC
  5
2AC
330
1F
100
AcDbEntity
  8
0
  6
Continuous
 62
     7
370
    15
100
AcDbCircle
 10
93.4165861788
 20
1183.4584950249
 30
0.0
 40
1.250000000000227
100
AcDbArc
 50
90.0
 51
180.0
  0
ARC
  5
2AD
330
1F
100
AcDbEntity
  8
0
  6
Continuous
 62
     7
370
    15
100
AcDbCircle
 10
93.4165861788
 20
1183.4584950249
 30
0.0
 40
2.450000000000045
100
AcDbArc
 50
90.0
 51
180.0
  0
LWPOLYLINE
  5
2AE
330
1F
100
AcDbEntity
  8
0
  6
Continuous
 62
     7
370
    15
100
AcDbPolyline
 90
        3
 70
   128
 43
0.0
 10
90.9665368616
 20
1139.3585158114
 10
91.013624531
 20
1138.8804865603
 10
91.1081574976
 20
1138.5377598528
  0
LINE
  5
2AF
330
1F
100
AcDbEntity
  8
0
  6
Continuous
 62
     7
370
    15
100
AcDbLine
 10
813.5665796816
 20
-241.5975379225
 30
0.0
 11
813.5665796816
 21
-185.5858611341
 31
0.0
  0
LINE
  5
2B0
330
1F
100
AcDbEntity
  8
0
  6
Continuous
 62
     7
370
    15
100
AcDbLine
 10
811.9665823996
 20
-183.59148972
 30
0.0
 11
813.5665796816
 21
-183.59148972
 31
0.0
  0
SPLINE
  5
2B1
330
1F
100
AcDbEntity
  8
0
  6
Continuous
 62
     7
370
    15
100
AcDbSpline
210
0.0
220
0.0
230
1.0
 70
    24
 71
     3
 72
    11
 73
     7
 74
     0
 42
0.00000001
 43
0.00000001
 40
0.0
 40
0.0
 40
0.0
 40
0.0
 40
0.2833571656777427
 40
0.55810695974678
 40
0.7754832253612259
 40
1.0
 40
1.0
 40
1.0
 40
1.0
 10
813.5665796815972
 20
-185.5858611341361
 30
0.0
 10
813.5665796815972
 20
-185.2888056842524
 30
0.0
 10
813.5665796815972
 20
-184.7037182607025
 30
0.0
 10
813.5665796815974
 20
-184.0556626922827
 30
0.0
 10
813.5665796815972
 20
-183.6616989660077
 30
0.0
 10
813.5665796815973
 20
-183.6151435634604
 30
0.0
 10
813.5665796815972
 20
-183.5914897199514
 30
0.0
  0
LINE
  5
2B2
330
1F
100
AcDbEntity
  8
0
  6
Continuous
 62
     7
370
    15
100
AcDbLine
 10
811.9665823996
 20
-243.5914921041
 30
0.0
 11
813.5665796816
 21
-243.5914921041
 31
0.0
  0
SPLINE
  5
2B3
330
1F
100
AcDbEntity
  8
0
  6
Continuous
 62
     7
370
    15
100
AcDbSpline
210
0.0
220
0.0
230
1.0
 70
    24
 71
     3
 72
    11
 73
     7
 74
     0
 42
0.00000001
 43
0.00000001
 40
0.0
 40
0.0
 40
0.0
 40
0.0
 40
0.2832778649057324
 40
0.5580019847905101
 40
0.7754087782741147
 40
1.0
 40
1.0
 40
1.0
 40
1.0
 10
813.5665796815972
 20
-243.5914921041373
 30
0.0
 10
813.5665796815972
 20
-243.5532096866148
 30
0.0
 10
813.5665796815972
 20
-243.4778008121258
 30
0.0
 10
813.5665796815974
 20
-242.9448720748111
 30
0.0
 10
813.5665796815972
 20
-242.2944452316309
 30
0.0
 10
813.5665796815972
 20
-241.8323440899265
 30
0.0
 10
813.5665796815972
 20
-241.5975379224662
 30
0.0
  0
LINE
  5
2B4
330
1F
100
AcDbEntity
  8
0
  6
Continuous
 62
     7
370
    15
100
AcDbLine
 10
814.9665735781
 20
-186.1292170759
 30
0.0
 11
814.9665735781
 21
-241.0537647482
 31
0.0
  0
SPLINE
  5
2B5
330
1F
100
AcDbEntity
  8
0
  6
Continuous
 62
     7
370
    15
100
AcDbSpline
210
0.0
220
0.0
230
1.0
 70
     8
 71
     3
 72
    11
 73
     7
 74
     0
 42
0.00000001
 43
0.00000001
 40
0.0
 40
0.0
 40
0.0
 40
0.0
 40
0.2372013342620944
 40
0.4978710935709573
 40
0.74858848707272
 40
1.0
 40
1.0
 40
1.0
 40
1.0
 10
813.5665796815972
 20
-183.5914897199515
 30
0.0
 10
813.7615695049038
 20
-183.7344101709276
 30
0.0
 10
814.1708412186022
 20
-184.0343914566256
 30
0.0
 10
814.6144013346628
 20
-184.6578094736961
 30
0.0
 10
814.911726102485
 20
-185.3734984131847
 30
0.0
 10
814.9482742454037
 20
-185.8770788130333
 30
0.0
 10
814.9665735780816
 20
-186.1292170759086
 30
0.0
  0
SPLINE
  5
2B6
330
1F
100
AcDbEntity
  8
0
  6
Continuous
 62
     7
370
    15
100
AcDbSpline
210
0.0
220
0.0
230
1.0
 70
    24
 71
     3
 72
    13
 73
     9
 74
     0
 42
0.00000001
 43
0.00000001
 40
0.0
 40
0.0
 40
0.0
 40
0.0
 40
0.1275349208141624
 40
0.2545892739491947
 40
0.4999490745626392
 40
0.7453400837172642
 40
0.8725202782629656
 40
1.0
 40
1.0
 40
1.0
 40
1.0
 10
813.5665796815972
 20
-183.5914897199515
 30
0.0
 10
813.5665796815972
 20
-183.5987631786325
 30
0.0
 10
813.5665796815974
 20
-183.6132826886838
 30
0.0
 10
813.5665796815972
 20
-183.7737556941516
 30
0.0
 10
813.5665796815972
 20
-184.1395636295494
 30
0.0
 10
813.5665796815972
 20
-184.6871404146003
 30
0.0
 10
813.5665796815972
 20
-185.186980289585
 30
0.0
 10
813.5665796815973
 20
-185.4527966362132
 30
0.0
 10
813.5665796815972
 20
-185.5858611341361
 30
0.0
  0
SPLINE
  5
2B7
330
1F
100
AcDbEntity
  8
0
  6
Continuous
 62
     7
370
    15
100
AcDbSpline
210
0.0
220
0.0
230
1.0
 70
     8
 71
     3
 72
    11
 73
     7
 74
     0
 42
0.00000001
 43
0.00000001
 40
0.0
 40
0.0
 40
0.0
 40
0.0
 40
0.251429526968974
 40
0.5021460539019147
 40
0.7627994855904013
 40
1.0
 40
1.0
 40
1.0
 40
1.0
 10
814.9665735780816
 20
-241.0537647481803
 30
0.0
 10
814.9482754710139
 20
-241.3059227980309
 30
0.0
 10
814.9117311463726
 20
-241.8095238317615
 30
0.0
 10
814.6144178681711
 20
-242.5252256203947
 30
0.0
 10
814.1708210196456
 20
-243.1485937938565
 30
0.0
 10
813.7615670790121
 20
-243.4485697593669
 30
0.0
 10
813.5665796815972
 20
-243.5914921041373
 30
0.0
  0
SPLINE
  5
2B8
330
1F
100
AcDbEntity
  8
0
  6
Continuous
 62
     7
370
    15
100
AcDbSpline
210
0.0
220
0.0
230
1.0
 70
    24
 71
     3
 72
    13
 73
     9
 74
     0
 42
0.00000001
 43
0.00000001
 40
0.0
 40
0.0
 40
0.0
 40
0.0
 40
0.1275851869685392
 40
0.2546667631265613
 40
0.5000465988233571
 40
0.7453948494455914
 40
0.8725417551652026
 40
1.0
 40
1.0
 40
1.0
 40
1.0
 10
813.5665796815972
 20
-241.5975379224661
 30
0.0
 10
813.5665796815972
 20
-241.7307068768338
 30
0.0
 10
813.5665796815972
 20
-241.9965191342254
 30
0.0
 10
813.5665796815973
 20
-242.4962485242812
 30
0.0
 10
813.5665796815972
 20
-243.0436809674444
 30
0.0
 10
813.5665796815972
 20
-243.4093609842471
 30
0.0
 10
813.5665796815972
 20
-243.5697142421364
 30
0.0
 10
813.5665796815973
 20
-243.5842269012931
 30
0.0
 10
813.5665796815972
 20
-243.5914921041373
 30
0.0
  0
CIRCLE
  5
2B9
330
1F
100
AcDbEntity
  8
0
  6
Continuous
 62
     7
370
    15
100
AcDbCircle
 10
779.5093689634
 20
752.6953454302
 30
0.0
 40
2.0
  0
SPLINE
  5
2BA
330
1F
100
AcDbEntity
  8
0
  6
Continuous
 62
     7
370
    15
100
AcDbSpline
210
0.0
220
0.0
230
1.0
 70
     8
 71
     3
 72
    15
 73
    11
 74
     0
 42
0.00000001
 43
0.00000001
 40
0.0
 40
0.0
 40
0.0
 40
0.0
 40
0.1249924913837679
 40
0.2500028578535917
 40
0.3750027001977854
 40
0.5000042995505246
 40
0.6250009164840431
 40
0.7500025018816491
 40
0.8749964014779762
 40
1.0
 40
1.0
 40
1.0
 40
1.0
 10
777.709408861361
 20
752.7074766878243
 30
0.0
 10
777.738058433382
 20
752.9428552820385
 30
0.0
 10
777.7953616745785
 20
753.4136461317909
 30
0.0
 10
778.2155728888829
 20
754.0100250901925
 30
0.0
 10
778.8132608842571
 20
754.4063742448861
 30
0.0
 10
779.5217859280261
 20
754.5420902800632
 30
0.0
 10
780.2284190940094
 20
754.3968142098964
 30
0.0
 10
780.8206576363541
 20
753.9924642137211
 30
0.0
 10
781.2329226503633
 20
753.3905713292339
 30
0.0
 10
781.2838540844995
 20
752.9190480088621
 30
0.0
 10
781.3093207895379
 20
752.6832772020455
 30
0.0
  0
SPLINE
  5
2BB
330
1F
100
AcDbEntity
  8
0
  6
Continuous
 62
     7
370
    15
100
AcDbSpline
210
0.0
220
0.0
230
1.0
 70
     8
 71
     3
 72
    15
 73
    11
 74
     0
 42
0.00000001
 43
0.00000001
 40
0.0
 40
0.0
 40
0.0
 40
0.0
 40
0.1250088487529274
 40
0.2500012763335765
 40
0.3749977647593234
 40
0.4999948002405862
 40
0.6249932585501532
 40
0.7499914899825438
 40
0.8749997554972065
 40
1.0
 40
1.0
 40
1.0
 40
1.0
 10
781.3093207895379
 20
752.6832772020455
 30
0.0
 10
781.2806996464469
 20
752.4478511509367
 30
0.0
 10
781.2234611199409
 20
751.9770299743041
 30
0.0
 10
780.8031086857209
 20
751.3807184284511
 30
0.0
 10
780.2054697283867
 20
750.9844196015514
 30
0.0
 10
779.4969673557252
 20
750.8485024288003
 30
0.0
 10
778.7903213518279
 20
750.9938281861467
 30
0.0
 10
778.1980281283975
 20
751.3981765134004
 30
0.0
 10
777.78583330598
 20
752.000163830296
 30
0.0
 10
777.7348831313565
 20
752.4717107781884
 30
0.0
 10
777.709408861361
 20
752.7074766878243
 30
0.0
  0
SPLINE
  5
2BC
330
1F
100
AcDbEntity
  8
0
  6
Continuous
 62
     7
370
    15
100
AcDbSpline
210
0.0
220
0.0
230
1.0
 70
     8
 71
     3
 72
    15
 73
    11
 74
     0
 42
0.00000001
 43
0.00000001
 40
0.0
 40
0.0
 40
0.0
 40
0.0
 40
0.1250127129305637
 40
0.2499975591627012
 40
0.3750052911392208
 40
0.5000011003480801
 40
0.6250021241363077
 40
0.7500001968400204
 40
0.8750030660176523
 40
1.0
 40
1.0
 40
1.0
 40
1.0
 10
777.9094122469048
 20
752.7060461763497
 30
0.0
 10
777.9348493377964
 20
752.9153266060757
 30
0.0
 10
777.9857178493745
 20
753.3338408146351
 30
0.0
 10
778.3594056607609
 20
753.8638607741075
 30
0.0
 10
778.8905494624323
 20
754.2163113510259
 30
0.0
 10
779.5203995872341
 20
754.3369734969017
 30
0.0
 10
780.1485398218462
 20
754.2078579775487
 30
0.0
 10
780.6749804728206
 20
753.8483581466982
 30
0.0
 10
781.0413999892667
 20
753.3133005638477
 30
0.0
 10
781.0866984924407
 20
752.8941558738264
 30
0.0
 10
781.1093472063164
 20
752.6845885042305
 30
0.0
  0
SPLINE
  5
2BD
330
1F
100
AcDbEntity
  8
0
  6
Continuous
 62
     7
370
    15
100
AcDbSpline
210
0.0
220
0.0
230
1.0
 70
     8
 71
     3
 72
    15
 73
    11
 74
     0
 42
0.00000001
 43
0.00000001
 40
0.0
 40
0.0
 40
0.0
 40
0.0
 40
0.1249952268984713
 40
0.2500045183448318
 40
0.3750038110550143
 40
0.5000043092107894
 40
0.6250041773685043
 40
0.7500118781862282
 40
0.8749995018442247
 40
1.0
 40
1.0
 40
1.0
 40
1.0
 10
781.1093472063164
 20
752.6845885042305
 30
0.0
 10
781.0838817869488
 20
752.4753577453589
 30
0.0
 10
781.0329480828273
 20
752.0568726848289
 30
0.0
 10
780.6594057255268
 20
751.5267672535911
 30
0.0
 10
780.128134302265
 20
751.1744703598122
 30
0.0
 10
779.4983460121503
 20
751.0537697856776
 30
0.0
 10
778.8702004307355
 20
751.1829095485467
 30
0.0
 10
778.3437981398035
 20
751.5423751267631
 30
0.0
 10
777.9772969828997
 20
752.0773516718319
 30
0.0
 10
777.9320412691328
 20
752.4964741465135
 30
0.0
 10
777.9094122469048
 20
752.7060461763497
 30
0.0
  0
CIRCLE
  5
2BE
330
1F
100
AcDbEntity
  8
0
  6
Continuous
 62
     7
370
    15
100
AcDbCircle
 10
779.5093689634
 20
752.6953454302
 30
0.0
 40
1.500000000042056
  0
SPLINE
  5
2BF
330
1F
100
AcDbEntity
  8
0
  6
Continuous
 62
     7
370
    15
100
AcDbSpline
210
0.0
220
0.0
230
1.0
 70
     8
 71
     3
 72
    10
 73
     6
 74
     0
 42
0.00000001
 43
0.00000001
 40
0.0
 40
0.0
 40
0.0
 40
0.0
 40
0.3107581344063333
 40
0.6553755099014704
 40
1.0
 40
1.0
 40
1.0
 40
1.0
 10
782.4665747701745
 20
749.4844151262398
 30
0.0
 10
782.2234974067118
 20
749.326267119832
 30
0.0
 10
781.7108577252783
 20
748.9927397914566
 30
0.0
 10
780.812752749781
 20
748.6965390791951
 30
0.0
 10
780.1709531741056
 20
748.6550689573903
 30
0.0
 10
779.8500500738244
 20
748.6343336824532
 30
0.0
  0
LINE
  5
2C0
330
1F
100
AcDbEntity
  8
0
  6
Continuous
 62
     7
370
    15
100
AcDbLine
 10
779.8500500738
 20
748.6343336825
 30
0.0
 11
778.0165813982
 21
748.6343336825
 31
0.0
  0
SPLINE
  5
2C1
330
1F
100
AcDbEntity
  8
0
  6
Continuous
 62
     7
370
    15
100
AcDbSpline
210
0.0
220
0.0
230
1.0
 70
     8
 71
     3
 72
    11
 73
     7
 74
     0
 42
0.00000001
 43
0.00000001
 40
0.0
 40
0.0
 40
0.0
 40
0.0
 40
0.2500018209434606
 40
0.4999996503908056
 40
0.7500101817411466
 40
1.0
 40
1.0
 40
1.0
 40
1.0
 10
778.016581398211
 20
748.6343336824532
 30
0.0
 10
777.6889865435066
 20
748.6718942735378
 30
0.0
 10
777.0338020644341
 20
748.747014856019
 30
0.0
 10
776.2074335172091
 20
749.3251540683091
 30
0.0
 10
775.6293620417463
 20
750.1515290575882
 30
0.0
 10
775.5541754972835
 20
750.8066998620135
 30
0.0
 10
775.5165837823968
 20
751.1342716936228
 30
0.0
  0
LINE
  5
2C2
330
1F
100
AcDbEntity
  8
0
  6
Continuous
 62
     7
370
    15
100
AcDbLine
 10
775.5165837824
 20
751.1342716936
 30
0.0
 11
775.5165837824
 21
755.0343228106
 31
0.0
  0
SPLINE
  5
2C3
330
1F
100
AcDbEntity
  8
0
  6
Continuous
 62
     7
370
    15
100
AcDbSpline
210
0.0
220
0.0
230
1.0
 70
     8
 71
     3
 72
    11
 73
     7
 74
     0
 42
0.00000001
 43
0.00000001
 40
0.0
 40
0.0
 40
0.0
 40
0.0
 40
0.2499898182588534
 40
0.5000003496091945
 40
0.7499981790565394
 40
1.0
 40
1.0
 40
1.0
 40
1.0
 10
775.5165837823968
 20
755.034322810566
 30
0.0
 10
775.5541754972835
 20
755.3618946421752
 30
0.0
 10
775.6293620417463
 20
756.0170654466008
 30
0.0
 10
776.2074335172091
 20
756.8434404358795
 30
0.0
 10
777.0338020644341
 20
757.4215796481698
 30
0.0
 10
777.6889865435066
 20
757.4967002306512
 30
0.0
 10
778.016581398211
 20
757.5342608217354
 30
0.0
  0
LINE
  5
2C4
330
1F
100
AcDbEntity
  8
0
  6
Continuous
 62
     7
370
    15
100
AcDbLine
 10
778.0165813982
 20
757.5342608217
 30
0.0
 11
782.4665747702
 21
757.5342608217
 31
0.0
  0
SPLINE
  5
2C5
330
1F
100
AcDbEntity
  8
0
  6
Continuous
 62
     7
370
    15
100
AcDbSpline
210
0.0
220
0.0
230
1.0
 70
     8
 71
     3
 72
     9
 73
     5
 74
     0
 42
0.00000001
 43
0.00000001
 40
0.0
 40
0.0
 40
0.0
 40
0.0
 40
0.2663410027605547
 40
1.0
 40
1.0
 40
1.0
 40
1.0
 10
867.3679672300439
 20
740.174646449482
 30
0.0
 10
867.4158296487577
 20
740.102332571174
 30
0.0
 10
867.5955331800118
 20
739.8308239504254
 30
0.0
 10
867.787845027305
 20
739.8027136406636
 30
0.0
 10
867.9289363443474
 20
739.7820902589913
 30
0.0
  0
LINE
  5
2C6
330
1F
100
AcDbEntity
  8
0
  6
Continuous
 62
     7
370
    15
100
AcDbLine
 10
847.466572386
 20
740.1393604998
 30
0.0
 11
847.466572386
 21
740.3794480089
 31
0.0
  0
LWPOLYLINE
  5
2C7
330
1F
100
AcDbEntity
  8
0
  6
Continuous
 62
     7
370
    15
100
AcDbPolyline
 90
        3
 70
   128
 43
0.0
 10
847.466572386
 20
740.3794480089
 10
846.7620454847
 20
740.391845775
 10
846.6613434374
 20
740.3936339144
  0
LINE
  5
2C8
330
1F
100
AcDbEntity
  8
0
  6
Continuous
 62
     7
370
    15
100
AcDbLine
 10
846.4665852606
 20
769.8651505236
 30
0.0
 11
846.4665852606
 21
747.4098158602
 31
0.0
  0
SPLINE
  5
2C9
330
1F
100
AcDbEntity
  8
0
  6
Continuous
 62
     7
370
    15
100
AcDbSpline
210
0.0
220
0.0
230
1.0
 70
     8
 71
     3
 72
    10
 73
     6
 74
     0
 42
0.00000001
 43
0.00000001
 40
0.0
 40
0.0
 40
0.0
 40
0.0
 40
0.4681329909760557
 40
0.9359801131326595
 40
1.0
 40
1.0
 40
1.0
 40
1.0
 10
846.6613434373955
 20
740.3936339143868
 30
0.0
 10
846.6280289287506
 20
740.3975440467651
 30
0.0
 10
846.5614202552078
 20
740.4053619237702
 30
0.0
 10
846.4983443875163
 20
740.4430401986688
 30
0.0
 10
846.4699973438694
 20
740.4679967656766
 30
0.0
 10
846.466585260592
 20
740.4710007433052
 30
0.0
  0
SPLINE
  5
2CA
330
1F
100
AcDbEntity
  8
0
  6
Continuous
 62
     7
370
    15
100
AcDbSpline
210
0.0
220
0.0
230
1.0
 70
     8
 71
     3
 72
    10
 73
     6
 74
     0
 42
0.00000001
 43
0.00000001
 40
0.0
 40
0.0
 40
0.0
 40
0.0
 40
0.4197732409726487
 40
0.8382601311287732
 40
1.0
 40
1.0
 40
1.0
 40
1.0
 10
867.9289363443474
 20
739.7820902589913
 30
0.0
 10
869.3740843538089
 20
739.7763645254174
 30
0.0
 10
872.2599518691001
 20
739.7649306041769
 30
0.0
 10
874.7314296594316
 20
739.8687328054812
 30
0.0
 10
875.499126459103
 20
740.0109156925591
 30
0.0
 10
875.7131241380791
 20
740.0505495790596
 30
0.0
  0
LINE
  5
2CB
330
1F
100
AcDbEntity
  8
0
  6
Continuous
 62
     7
370
    15
100
AcDbLine
 10
846.6613136351
 20
740.1969385866
 30
0.0
 11
847.466572386
 21
740.1826334719
 31
0.0
  0
SPLINE
  5
2CC
330
1F
100
AcDbEntity
  8
0
  6
Continuous
 62
     7
370
    15
100
AcDbSpline
210
0.0
220
0.0
230
1.0
 70
    24
 71
     3
 72
    14
 73
    10
 74
     0
 42
0.00000001
 43
0.00000001
 40
0.0
 40
0.0
 40
0.0
 40
0.0
 40
0.1361883880586021
 40
0.272369068595639
 40
0.4140872057933597
 40
0.5557979052184024
 40
0.6959300542890081
 40
0.8360614032065947
 40
1.0
 40
1.0
 40
1.0
 40
1.0
 10
846.466585260592
 20
769.9559880022164
 30
0.0
 10
846.466585260592
 20
769.0234907532525
 30
0.0
 10
846.4665852605921
 20
767.1585490295938
 30
0.0
 10
846.466585260592
 20
764.0115838972132
 30
0.0
 10
846.466585260592
 20
760.6894184919486
 30
0.0
 10
846.466585260592
 20
757.269068507227
 30
0.0
 10
846.4665852605921
 20
753.9092042206814
 30
0.0
 10
846.466585260592
 20
750.4851390314677
 30
0.0
 10
846.466585260592
 20
748.3904105863055
 30
0.0
 10
846.466585260592
 20
747.2610426668282
 30
0.0
  0
LINE
  5
2CD
330
1F
100
AcDbEntity
  8
0
  6
Continuous
 62
     7
370
    15
100
AcDbLine
 10
825.777157408
 20
783.6337042574
 30
0.0
 11
826.1656902849
 21
779.1926813845
 31
0.0
  0
LINE
  5
2CE
330
1F
100
AcDbEntity
  8
0
  6
Continuous
 62
     7
370
    15
100
AcDbLine
 10
826.1656902849
 20
738.0243492846
 30
0.0
 11
825.777157408
 21
733.5833264116
 31
0.0
  0
LINE
  5
2CF
330
1F
100
AcDbEntity
  8
0
  6
Continuous
 62
     7
370
    15
100
AcDbLine
 10
825.777157408
 20
783.6337042574
 30
0.0
 11
825.6873928129
 21
784.6597386126
 31
0.0
  0
LINE
  5
2D0
330
1F
100
AcDbEntity
  8
0
  6
Continuous
 62
     7
370
    15
100
AcDbLine
 10
825.6873928129
 20
732.5572920565
 30
0.0
 11
825.777157408
 21
733.5833264116
 31
0.0
  0
LINE
  5
2D1
330
1F
100
AcDbEntity
  8
0
  6
Continuous
 62
     7
370
    15
100
AcDbLine
 10
824.8663686335
 20
794.0442515139
 30
0.0
 11
825.6873928129
 21
784.6597386126
 31
0.0
  0
LINE
  5
2D2
330
1F
100
AcDbEntity
  8
0
  6
Continuous
 62
     7
370
    15
100
AcDbLine
 10
825.6873928129
 20
732.5572920565
 30
0.0
 11
824.8663686335
 21
723.1726599459
 31
0.0
  0
SPLINE
  5
2D3
330
1F
100
AcDbEntity
  8
0
  6
Continuous
 62
     7
370
    15
100
AcDbSpline
210
0.0
220
0.0
230
1.0
 70
    24
 71
     3
 72
    10
 73
     6
 74
     0
 42
0.00000001
 43
0.00000001
 40
0.0
 40
0.0
 40
0.0
 40
0.0
 40
0.4996535591267179
 40
0.7498792913520473
 40
1.0
 40
1.0
 40
1.0
 40
1.0
 10
846.466585260592
 20
770.2432823900338
 30
0.0
 10
846.4665852605921
 20
770.1960763558684
 30
0.0
 10
846.4665852605921
 20
770.1252296125584
 30
0.0
 10
846.466585260592
 20
770.0289541410143
 30
0.0
 10
846.466585260592
 20
769.9803066447517
 30
0.0
 10
846.466585260592
 20
769.9559880022164
 30
0.0
  0
SPLINE
  5
2D4
330
1F
100
AcDbEntity
  8
0
  6
Continuous
 62
     7
370
    15
100
AcDbSpline
210
0.0
220
0.0
230
1.0
 70
    24
 71
     3
 72
    10
 73
     6
 74
     0
 42
0.00000001
 43
0.00000001
 40
0.0
 40
0.0
 40
0.0
 40
0.0
 40
0.2499800155678951
 40
0.6248988285511352
 40
0.9999999999999999
 40
0.9999999999999999
 40
0.9999999999999999
 40
0.9999999999999999
 10
846.466585260592
 20
747.2610426668282
 30
0.0
 10
846.466585260592
 20
747.23672207676
 30
0.0
 10
846.4665852605922
 20
747.1759255838524
 30
0.0
 10
846.466585260592
 20
747.0798843868174
 30
0.0
 10
846.466585260592
 20
747.0090532493372
 30
0.0
 10
846.466585260592
 20
746.9736290697213
 30
0.0
  0
LINE
  5
2D5
330
1F
100
AcDbEntity
  8
0
  6
Continuous
 62
     7
370
    15
100
AcDbLine
 10
846.4665852606
 20
746.973748279
 30
0.0
 11
846.4665852606
 21
743.3704090838
 31
0.0
  0
LINE
  5
2D6
330
1F
100
AcDbEntity
  8
0
  6
Continuous
 62
     7
370
    15
100
AcDbLine
 10
846.4665852606
 20
773.8466215853
 30
0.0
 11
846.4665852606
 21
770.24328239
 31
0.0
  0
ARC
  5
2D7
330
1F
100
AcDbEntity
  8
0
  6
Continuous
 62
     7
370
    15
100
AcDbCircle
 10
819.885383765
 20
723.6084950249
 30
0.0
 40
5.000000000000114
100
AcDbArc
 50
270.0
 51
355.0
  0
ARC
  5
2D8
330
1F
100
AcDbEntity
  8
0
  6
Continuous
 62
     7
370
    15
100
AcDbCircle
 10
819.885383765
 20
793.6084950249
 30
0.0
 40
5.000000000000114
100
AcDbArc
 50
5.0
 51
90.0
  0
LINE
  5
2D9
330
1F
100
AcDbEntity
  8
0
  6
Continuous
 62
     7
370
    15
100
AcDbLine
 10
812.4665759623
 20
718.6084938769
 30
0.0
 11
812.4689899504
 21
718.7424851183
 31
0.0
  0
SPLINE
  5
2DA
330
1F
100
AcDbEntity
  8
0
  6
Continuous
 62
     7
370
    15
100
AcDbSpline
210
0.0
220
0.0
230
1.0
 70
     8
 71
     3
 72
    11
 73
     7
 74
     0
 42
0.00000001
 43
0.00000001
 40
0.0
 40
0.0
 40
0.0
 40
0.0
 40
0.2499817314293403
 40
0.4999697904217461
 40
0.750010820791816
 40
1.0
 40
1.0
 40
1.0
 40
1.0
 10
812.4665759622674
 20
718.6084938768502
 30
0.0
 10
812.4010623230652
 20
718.6159989783876
 30
0.0
 10
812.2700333863728
 20
718.6310093714321
 30
0.0
 10
812.1047384482307
 20
718.7466107217366
 30
0.0
 10
811.9891360518021
 20
718.9119040312917
 30
0.0
 10
811.9740997639121
 20
719.0429442980346
 30
0.0
 10
811.966582399569
 20
719.1084576372264
 30
0.0
  0
SPLINE
  5
2DB
330
1F
100
AcDbEntity
  8
0
  6
Continuous
 62
     7
370
    15
100
AcDbSpline
210
0.0
220
0.0
230
1.0
 70
     8
 71
     3
 72
    11
 73
     7
 74
     0
 42
0.00000001
 43
0.00000001
 40
0.0
 40
0.0
 40
0.0
 40
0.0
 40
0.249981723556349
 40
0.5000152967281802
 40
0.7499959001021604
 40
1.0
 40
1.0
 40
1.0
 40
1.0
 10
811.966582399569
 20
798.1084538225289
 30
0.0
 10
811.974099907171
 20
798.1739664572038
 30
0.0
 10
811.9891364816083
 20
798.3050053147666
 30
0.0
 10
812.1047367287415
 20
798.4703091941041
 30
0.0
 10
812.2700464062308
 20
798.5858749814463
 30
0.0
 10
812.4010640578862
 20
798.6009826186198
 30
0.0
 10
812.4665759622674
 20
798.6085367921944
 30
0.0
  0
LINE
  5
2DC
330
1F
100
AcDbEntity
  8
0
  6
Continuous
 62
     7
370
    15
100
AcDbLine
 10
812.4665759623
 20
798.6085367922
 30
0.0
 11
812.4689899504
 21
798.4744263414
 31
0.0
  0
LINE
  5
2DD
330
1F
100
AcDbEntity
  8
0
  6
Continuous
 62
     7
370
    15
100
AcDbLine
 10
812.4665759623
 20
798.6085367922
 30
0.0
 11
819.8853872835
 21
798.6085367922
 31
0.0
  0
LINE
  5
2DE
330
1F
100
AcDbEntity
  8
0
  6
Continuous
 62
     7
370
    15
100
AcDbLine
 10
812.4665759623
 20
718.6084938769
 30
0.0
 11
819.8853872835
 21
718.6084938769
 31
0.0
  0
SPLINE
  5
2DF
330
1F
100
AcDbEntity
  8
0
  6
Continuous
 62
     7
370
    15
100
AcDbSpline
210
0.0
220
0.0
230
1.0
 70
    24
 71
     3
 72
    11
 73
     7
 74
     0
 42
0.00000001
 43
0.00000001
 40
0.0
 40
0.0
 40
0.0
 40
0.0
 40
0.250919352088412
 40
0.5321069112256815
 40
0.8235896459289481
 40
1.0
 40
1.0
 40
1.0
 40
1.0
 10
846.466585260592
 20
743.0286360506173
 30
0.0
 10
846.466585260592
 20
742.5110440376639
 30
0.0
 10
846.466585260592
 20
741.4134232882266
 30
0.0
 10
846.4665852605922
 20
740.3307400281869
 30
0.0
 10
846.466585260592
 20
739.7101777681585
 30
0.0
 10
846.466585260592
 20
739.7270801437039
 30
0.0
 10
846.466585260592
 20
739.7334528688546
 30
0.0
  0
SPLINE
  5
2E0
330
1F
100
AcDbEntity
  8
0
  6
Continuous
 62
     7
370
    15
100
AcDbSpline
210
0.0
220
0.0
230
1.0
 70
    24
 71
     3
 72
    11
 73
     7
 74
     0
 42
0.00000001
 43
0.00000001
 40
0.0
 40
0.0
 40
0.0
 40
0.0
 40
0.1151839676388508
 40
0.4033286250161299
 40
0.6914713231938978
 40
1.0
 40
1.0
 40
1.0
 40
1.0
 10
846.466585260592
 20
777.48357780019
 30
0.0
 10
846.4665852605921
 20
777.5017172926222
 30
0.0
 10
846.4665852605921
 20
777.5652346092352
 30
0.0
 10
846.4665852605922
 20
777.0564433137097
 30
0.0
 10
846.466585260592
 20
776.0335267521194
 30
0.0
 10
846.466585260592
 20
774.8168185806126
 30
0.0
 10
846.466585260592
 20
774.18767936269
 30
0.0
  0
LINE
  5
2E1
330
1F
100
AcDbEntity
  8
0
  6
Continuous
 62
     7
370
    15
100
AcDbLine
 10
775.7665954649
 20
763.9085007433
 30
0.0
 11
775.7665954649
 21
756.0803843264
 31
0.0
  0
LINE
  5
2E2
330
1F
100
AcDbEntity
  8
0
  6
Continuous
 62
     7
370
    15
100
AcDbLine
 10
775.7665954649
 20
763.9085007433
 30
0.0
 11
782.4665747702
 21
763.9085007433
 31
0.0
  0
LINE
  5
2E3
330
1F
100
AcDbEntity
  8
0
  6
Continuous
 62
     7
370
    15
100
AcDbLine
 10
770.3146182119
 20
751.208539081
 30
0.0
 11
770.3146182119
 21
750.0953627352
 31
0.0
  0
LINE
  5
2E4
330
1F
100
AcDbEntity
  8
0
  6
Continuous
 62
     7
370
    15
100
AcDbLine
 10
770.3146182119
 20
767.0953226809
 30
0.0
 11
770.3146182119
 21
751.208539081
 31
0.0
  0
LINE
  5
2E5
330
1F
100
AcDbEntity
  8
0
  6
Continuous
 62
     7
370
    15
100
AcDbLine
 10
772.3146222651
 20
753.8952780489
 30
0.0
 11
772.3146222651
 21
763.2952881579
 31
0.0
  0
LINE
  5
2E6
330
1F
100
AcDbEntity
  8
0
  6
Continuous
 62
     7
370
    15
100
AcDbLine
 10
782.4665747702
 20
302.8085184816
 30
0.0
 11
771.4373014986
 21
302.8085184816
 31
0.0
  0
LINE
  5
2E7
330
1F
100
AcDbEntity
  8
0
  6
Continuous
 62
     7
370
    15
100
AcDbLine
 10
771.4373014986
 20
277.3084593538
 30
0.0
 11
771.4373014986
 21
302.8085184816
 31
0.0
  0
SPLINE
  5
2E8
330
1F
100
AcDbEntity
  8
0
  6
Continuous
 62
     7
370
    15
100
AcDbSpline
210
0.0
220
0.0
230
1.0
 70
     8
 71
     3
 72
    12
 73
     8
 74
     0
 42
0.00000001
 43
0.00000001
 40
0.0
 40
0.0
 40
0.0
 40
0.0
 40
0.2265911890052135
 40
0.4532256944601807
 40
0.6798819984545588
 40
0.9065215768550834
 40
1.0
 40
1.0
 40
1.0
 40
1.0
 10
772.8665910780053
 20
274.6084881548045
 30
0.0
 10
772.7586046945258
 20
274.6417958160752
 30
0.0
 10
772.5426112842806
 20
274.7084175058969
 30
0.0
 10
772.2184690478126
 20
275.2253032682115
 30
0.0
 10
771.8946645955873
 20
275.9789381454896
 30
0.0
 10
771.6335124539506
 20
276.7262783338917
 30
0.0
 10
771.4816478459556
 20
277.1768785168671
 30
0.0
 10
771.4373014986138
 20
277.30845935384
 30
0.0
  0
SPLINE
  5
2E9
330
1F
100
AcDbEntity
  8
0
  6
Continuous
 62
     7
370
    15
100
AcDbSpline
210
0.0
220
0.0
230
1.0
 70
     8
 71
     3
 72
     9
 73
     5
 74
     0
 42
0.00000001
 43
0.00000001
 40
0.0
 40
0.0
 40
0.0
 40
0.0
 40
0.2497424396914779
 40
1.0
 40
1.0
 40
1.0
 40
1.0
 10
807.644232374392
 20
274.6791792635082
 30
0.0
 10
807.6293936665601
 20
274.663889850171
 30
0.0
 10
807.5699776223736
 20
274.6026691247079
 30
0.0
 10
807.5109023787754
 20
274.605993795447
 30
0.0
 10
807.466580730639
 20
274.6084881548043
 30
0.0
  0
SPLINE
  5
2EA
330
1F
100
AcDbEntity
  8
0
  6
Continuous
 62
     7
370
    15
100
AcDbSpline
210
0.0
220
0.0
230
1.0
 70
     8
 71
     3
 72
    12
 73
     8
 74
     0
 42
0.00000001
 43
0.00000001
 40
0.0
 40
0.0
 40
0.0
 40
0.0
 40
0.2265868791840261
 40
0.4532251927993659
 40
0.6798766347112457
 40
0.9065150399070686
 40
1.0
 40
1.0
 40
1.0
 40
1.0
 10
770.1665900766473
 20
277.30845935384
 30
0.0
 10
770.1998628983624
 20
276.9880936110385
 30
0.0
 10
770.2664160946072
 20
276.3472894035295
 30
0.0
 10
770.7834801038587
 20
275.5057014908544
 30
0.0
 10
771.5369761335398
 20
274.8940104322877
 30
0.0
 10
772.2843959296569
 20
274.6344475255676
 30
0.0
 10
772.7350016324606
 20
274.6143555675011
 30
0.0
 10
772.8665910780053
 20
274.6084881548043
 30
0.0
  0
LINE
  5
2EB
330
1F
100
AcDbEntity
  8
0
  6
Continuous
 62
     7
370
    15
100
AcDbLine
 10
770.1665900766
 20
277.3084593538
 30
0.0
 11
771.3665805876
 21
277.3084593538
 31
0.0
  0
SPLINE
  5
2EC
330
1F
100
AcDbEntity
  8
0
  6
Continuous
 62
     7
370
    15
100
AcDbSpline
210
0.0
220
0.0
230
1.0
 70
     8
 71
     3
 72
    10
 73
     6
 74
     0
 42
0.00000001
 43
0.00000001
 40
0.0
 40
0.0
 40
0.0
 40
0.0
 40
0.4544250008824982
 40
0.9614409537696914
 40
0.9999999999999999
 40
0.9999999999999999
 40
0.9999999999999999
 40
0.9999999999999999
 10
771.3665805875878
 20
277.30845935384
 30
0.0
 10
771.3874198815417
 20
277.1349178937561
 30
0.0
 10
771.4315102168358
 20
276.7677508880295
 30
0.0
 10
771.6186557013887
 20
276.391027839064
 30
0.0
 10
771.7918109607444
 20
276.2698867213091
 30
0.0
 10
771.8040488779168
 20
276.2613249544259
 30
0.0
  0
LINE
  5
2ED
330
1F
100
AcDbEntity
  8
0
  6
Continuous
 62
     7
370
    15
100
AcDbLine
 10
807.4665807306
 20
274.6084881548
 30
0.0
 11
807.859583956
 21
274.6791792635
 31
0.0
  0
LINE
  5
2EE
330
1F
100
AcDbEntity
  8
0
  6
Continuous
 62
     7
370
    15
100
AcDbLine
 10
770.1665900766
 20
302.8085184816
 30
0.0
 11
771.3665805876
 21
302.8085184816
 31
0.0
  0
LINE
  5
2EF
330
1F
100
AcDbEntity
  8
0
  6
Continuous
 62
     7
370
    15
100
AcDbLine
 10
770.1665900766
 20
282.5509262804
 30
0.0
 11
770.1665900766
 21
302.8085184816
 31
0.0
  0
LINE
  5
2F0
330
1F
100
AcDbEntity
  8
0
  6
Continuous
 62
     7
370
    15
100
AcDbLine
 10
771.3665805876
 20
277.3084593538
 30
0.0
 11
771.3665805876
 21
302.8085184816
 31
0.0
  0
LINE
  5
2F1
330
1F
100
AcDbEntity
  8
0
  6
Continuous
 62
     7
370
    15
100
AcDbLine
 10
765.166594845
 20
291.7482805971
 30
0.0
 11
764.9665914595
 21
291.4018584017
 31
0.0
  0
LINE
  5
2F2
330
1F
100
AcDbEntity
  8
0
  6
Continuous
 62
     7
370
    15
100
AcDbLine
 10
765.166594845
 20
291.7482805971
 30
0.0
 11
767.367555958
 21
295.5604744677
 31
0.0
  0
LINE
  5
2F3
330
1F
100
AcDbEntity
  8
0
  6
Continuous
 62
     7
370
    15
100
AcDbLine
 10
764.9665914595
 20
293.8017798189
 30
0.0
 11
766.328319174
 21
296.160454822
 31
0.0
  0
ARC
  5
2F4
330
1F
100
AcDbEntity
  8
0
  6
Continuous
 62
     7
370
    15
100
AcDbCircle
 10
768.6665861761
 20
294.8104188136
 30
0.0
 40
1.500000000000114
100
AcDbArc
 50
360.0
 51
150.0
  0
ARC
  5
2F5
330
1F
100
AcDbEntity
  8
0
  6
Continuous
 62
     7
370
    15
100
AcDbCircle
 10
768.6665861761
 20
294.8104188136
 30
0.0
 40
2.700000000000045
100
AcDbArc
 50
56.2510114041
 51
150.0
  0
LINE
  5
2F6
330
1F
100
AcDbEntity
  8
0
  6
Continuous
 62
     7
370
    15
100
AcDbLine
 10
767.4665890753
 20
265.4085112337
 30
0.0
 11
767.4665890753
 21
228.4084511522
 31
0.0
  0
LINE
  5
2F7
330
1F
100
AcDbEntity
  8
0
  6
Continuous
 62
     7
370
    15
100
AcDbLine
 10
767.4665890753
 20
268.4085322146
 30
0.0
 11
767.4665890753
 21
265.4085112337
 31
0.0
  0
LINE
  5
2F8
330
1F
100
AcDbEntity
  8
0
  6
Continuous
 62
     7
370
    15
100
AcDbLine
 10
767.4665890753
 20
228.4084511522
 30
0.0
 11
764.9665914595
 21
228.4084511522
 31
0.0
  0
LINE
  5
2F9
330
1F
100
AcDbEntity
  8
0
  6
Continuous
 62
     7
370
    15
100
AcDbLine
 10
764.9665914595
 20
268.4085322146
 30
0.0
 11
767.4665890753
 21
268.4085322146
 31
0.0
  0
LINE
  5
2FA
330
1F
100
AcDbEntity
  8
0
  6
Continuous
 62
     7
370
    15
100
AcDbLine
 10
767.6665924608
 20
250.9084892992
 30
0.0
 11
767.6665924608
 21
265.4085112337
 31
0.0
  0
LINE
  5
2FB
330
1F
100
AcDbEntity
  8
0
  6
Continuous
 62
     7
370
    15
100
AcDbLine
 10
767.6665924608
 20
265.4085112337
 30
0.0
 11
770.4665802538
 21
265.4085112337
 31
0.0
  0
LINE
  5
2FC
330
1F
100
AcDbEntity
  8
0
  6
Continuous
 62
     7
370
    15
100
AcDbLine
 10
780.4666005194
 20
259.5378113512
 30
0.0
 11
780.4666005194
 21
259.6085024599
 31
0.0
  0
LINE
  5
2FD
330
1F
100
AcDbEntity
  8
0
  6
Continuous
 62
     7
370
    15
100
AcDbLine
 10
780.4666005194
 20
260.4085160021
 30
0.0
 11
780.4666005194
 21
265.4085112337
 31
0.0
  0
LINE
  5
2FE
330
1F
100
AcDbEntity
  8
0
  6
Continuous
 62
     7
370
    15
100
AcDbLine
 10
767.6665924608
 20
250.9084892992
 30
0.0
 11
773.9665947973
 21
250.9084892992
 31
0.0
  0
LINE
  5
2FF
330
1F
100
AcDbEntity
  8
0
  6
Continuous
 62
     7
370
    15
100
AcDbLine
 10
780.4666005194
 20
270.9084702257
 30
0.0
 11
780.4666005194
 21
265.4085112337
 31
0.0
  0
LINE
  5
300
330
1F
100
AcDbEntity
  8
0
  6
Continuous
 62
     7
370
    15
100
AcDbLine
 10
770.4665802538
 20
270.9084702257
 30
0.0
 11
780.4666005194
 21
270.9084702257
 31
0.0
  0
LINE
  5
301
330
1F
100
AcDbEntity
  8
0
  6
Continuous
 62
     7
370
    15
100
AcDbLine
 10
770.4665802538
 20
265.4085112337
 30
0.0
 11
770.4665802538
 21
270.9084702257
 31
0.0
  0
LINE
  5
302
330
1F
100
AcDbEntity
  8
0
  6
Continuous
 62
     7
370
    15
100
AcDbLine
 10
807.4665807306
 20
270.9084702257
 30
0.0
 11
807.4665807306
 21
268.4085322146
 31
0.0
  0
LINE
  5
303
330
1F
100
AcDbEntity
  8
0
  6
Continuous
 62
     7
370
    15
100
AcDbLine
 10
802.466585499
 20
270.9084702257
 30
0.0
 11
807.4665807306
 21
270.9084702257
 31
0.0
  0
LINE
  5
304
330
1F
100
AcDbEntity
  8
0
  6
Continuous
 62
     7
370
    15
100
AcDbLine
 10
807.4665807306
 20
268.4085322146
 30
0.0
 11
802.466585499
 21
268.4085322146
 31
0.0
  0
LINE
  5
305
330
1F
100
AcDbEntity
  8
0
  6
Continuous
 62
     7
370
    15
100
AcDbLine
 10
781.7165993273
 20
268.4085322146
 30
0.0
 11
781.7165993273
 21
270.9084702257
 31
0.0
  0
LINE
  5
306
330
1F
100
AcDbEntity
  8
0
  6
Continuous
 62
     7
370
    15
100
AcDbLine
 10
781.7165993273
 20
270.9084702257
 30
0.0
 11
802.466585499
 21
270.9084702257
 31
0.0
  0
LINE
  5
307
330
1F
100
AcDbEntity
  8
0
  6
Continuous
 62
     7
370
    15
100
AcDbLine
 10
781.7165993273
 20
268.4085322146
 30
0.0
 11
802.466585499
 21
268.4085322146
 31
0.0
  0
ARC
  5
308
330
1F
100
AcDbEntity
  8
0
  6
Continuous
 62
     7
370
    15
100
AcDbCircle
 10
770.4665861788
 20
265.4084950249
 30
0.0
 40
3.000000000000114
100
AcDbArc
 50
90.0
 51
180.0
  0
ARC
  5
309
330
1F
100
AcDbEntity
  8
0
  6
Continuous
 62
     7
370
    15
100
AcDbCircle
 10
770.4665861788
 20
265.4084950249
 30
0.0
 40
5.500000000000057
100
AcDbArc
 50
90.0
 51
146.9442688491
  0
LINE
  5
30A
330
1F
100
AcDbEntity
  8
0
  6
Continuous
 62
     7
370
    15
100
AcDbLine
 10
781.7165993273
 20
270.9084702257
 30
0.0
 11
780.4666005194
 21
270.9084702257
 31
0.0
  0
LINE
  5
30B
330
1F
100
AcDbEntity
  8
0
  6
Continuous
 62
     7
370
    15
100
AcDbLine
 10
799.9513588965
 20
1133.9085055117
 30
0.0
 11
788.9665804922
 21
1133.9085055117
 31
0.0
  0
LINE
  5
30C
330
1F
100
AcDbEntity
  8
0
  6
Continuous
 62
     7
370
    15
100
AcDbLine
 10
805.9666000425
 20
1133.9085055117
 30
0.0
 11
799.9513588965
 21
1133.9085055117
 31
0.0
  0
LINE
  5
30D
330
1F
100
AcDbEntity
  8
0
  6
Continuous
 62
     7
370
    15
100
AcDbLine
 10
799.9513588965
 20
1135.4085160021
 30
0.0
 11
788.9665804922
 21
1135.4085160021
 31
0.0
  0
LINE
  5
30E
330
1F
100
AcDbEntity
  8
0
  6
Continuous
 62
     7
370
    15
100
AcDbLine
 10
805.9666000425
 20
1135.4085160021
 30
0.0
 11
799.9513588965
 21
1135.4085160021
 31
0.0
  0
LINE
  5
30F
330
1F
100
AcDbEntity
  8
0
  6
Continuous
 62
     7
370
    15
100
AcDbLine
 10
799.8052083075
 20
1135.9084797625
 30
0.0
 11
789.4665740549
 21
1135.9084797625
 31
0.0
  0
LINE
  5
310
330
1F
100
AcDbEntity
  8
0
  6
Continuous
 62
     7
370
    15
100
AcDbLine
 10
805.4665766775
 20
1135.9084797625
 30
0.0
 11
799.8052083075
 21
1135.9084797625
 31
0.0
  0
LINE
  5
311
330
1F
100
AcDbEntity
  8
0
  6
Continuous
 62
     7
370
    15
100
AcDbLine
 10
805.9666000425
 20
260.9084797625
 30
0.0
 11
788.9665804922
 21
260.9084797625
 31
0.0
  0
SPLINE
  5
312
330
1F
100
AcDbEntity
  8
0
  6
Continuous
 62
     7
370
    15
100
AcDbSpline
210
0.0
220
0.0
230
1.0
 70
    24
 71
     3
 72
     9
 73
     5
 74
     0
 42
0.00000001
 43
0.00000001
 40
0.0
 40
0.0
 40
0.0
 40
0.0
 40
0.9542676091315856
 40
1.0
 40
1.0
 40
1.0
 40
1.0
 10
797.6665936529259
 20
260.4085160020944
 30
0.0
 10
797.6665936529263
 20
260.4720258017576
 30
0.0
 10
797.6665936529266
 20
260.5385792497166
 30
0.0
 10
797.6665936529259
 20
260.605489236301
 30
0.0
 10
797.6665936529259
 20
260.6085491899606
 30
0.0
  0
LINE
  5
313
330
1F
100
AcDbEntity
  8
0
  6
Continuous
 62
     7
370
    15
100
AcDbLine
 10
797.2665868818
 20
260.60854919
 30
0.0
 11
797.6665936529
 21
260.60854919
 31
0.0
  0
SPLINE
  5
314
330
1F
100
AcDbEntity
  8
0
  6
Continuous
 62
     7
370
    15
100
AcDbSpline
210
0.0
220
0.0
230
1.0
 70
    24
 71
     3
 72
     9
 73
     5
 74
     0
 42
0.00000001
 43
0.00000001
 40
0.0
 40
0.0
 40
0.0
 40
0.0
 40
0.0457323908684143
 40
1.0
 40
1.0
 40
1.0
 40
1.0
 10
797.2665868818383
 20
260.6085491899606
 30
0.0
 10
797.2665868818384
 20
260.605489236301
 30
0.0
 10
797.2665868818382
 20
260.5385792497159
 30
0.0
 10
797.2665868818382
 20
260.4720258017574
 30
0.0
 10
797.2665868818383
 20
260.4085160020946
 30
0.0
  0
LINE
  5
315
330
1F
100
AcDbEntity
  8
0
  6
Continuous
 62
     7
370
    15
100
AcDbLine
 10
805.9666000425
 20
262.4084902529
 30
0.0
 11
788.9665804922
 21
262.4084902529
 31
0.0
  0
LINE
  5
316
330
1F
100
AcDbEntity
  8
0
  6
Continuous
 62
     7
370
    15
100
AcDbLine
 10
805.4665766775
 20
262.9084540133
 30
0.0
 11
789.4665740549
 21
262.9084540133
 31
0.0
  0
LINE
  5
317
330
1F
100
AcDbEntity
  8
0
  6
Continuous
 62
     7
370
    15
100
AcDbLine
 10
788.9665804922
 20
271.4085531954
 30
0.0
 11
805.9666000425
 21
271.4085531954
 31
0.0
  0
LINE
  5
318
330
1F
100
AcDbEntity
  8
0
  6
Continuous
 62
     7
370
    15
100
AcDbLine
 10
788.9665804922
 20
272.9084444765
 30
0.0
 11
805.9666000425
 21
272.9084444765
 31
0.0
  0
LINE
  5
319
330
1F
100
AcDbEntity
  8
0
  6
Continuous
 62
     7
370
    15
100
AcDbLine
 10
788.9665804922
 20
-264.0914963957
 30
0.0
 11
805.9666000425
 21
-264.0914963957
 31
0.0
  0
LINE
  5
31A
330
1F
100
AcDbEntity
  8
0
  6
Continuous
 62
     7
370
    15
100
AcDbLine
 10
778.6958657324
 20
342.7084637407
 30
0.0
 11
764.9665914595
 21
342.7084637407
 31
0.0
  0
LWPOLYLINE
  5
31B
330
1F
100
AcDbEntity
  8
0
  6
Continuous
 62
     7
370
    15
100
AcDbPolyline
 90
        3
 70
   128
 43
0.0
 10
782.4665747702
 20
341.9703198198
 10
780.6467853605
 20
342.516298366
 10
778.6958657324
 20
342.7084637407
  0
LINE
  5
31C
330
1F
100
AcDbEntity
  8
0
  6
Continuous
 62
     7
370
    15
100
AcDbLine
 10
782.4665747702
 20
306.5085364107
 30
0.0
 11
764.9665914595
 21
306.5085364107
 31
0.0
  0
LINE
  5
31D
330
1F
100
AcDbEntity
  8
0
  6
Continuous
 62
     7
370
    15
100
AcDbLine
 10
769.9665866911
 20
233.4084463839
 30
0.0
 11
769.9665866911
 21
228.4084511522
 31
0.0
  0
LINE
  5
31E
330
1F
100
AcDbEntity
  8
0
  6
Continuous
 62
     7
370
    15
100
AcDbLine
 10
769.9665866911
 20
228.4084511522
 30
0.0
 11
767.4665890753
 21
228.4084511522
 31
0.0
  0
ARC
  5
31F
330
1F
100
AcDbEntity
  8
0
  6
Continuous
 62
     7
370
    15
100
AcDbCircle
 10
772.9665861788
 20
262.9084950249
 30
0.0
 40
5.500000000000041
100
AcDbArc
 50
117.0356917894
 51
152.9643082106
  0
LWPOLYLINE
  5
320
330
1F
100
AcDbEntity
  8
0
  6
Continuous
 62
     7
370
    15
100
AcDbPolyline
 90
        3
 70
   128
 43
0.0
 10
767.6665924608
 20
264.3781853441
 10
767.5722681105
 20
263.9814568285
 10
767.4665890753
 20
262.9084540133
  0
LINE
  5
321
330
1F
100
AcDbEntity
  8
0
  6
Continuous
 62
     7
370
    15
100
AcDbLine
 10
769.9665866911
 20
250.9084892992
 30
0.0
 11
769.9665866911
 21
233.4084463839
 31
0.0
  0
LINE
  5
322
330
1F
100
AcDbEntity
  8
0
  6
Continuous
 62
     7
370
    15
100
AcDbLine
 10
780.4666005194
 20
268.4085322146
 30
0.0
 11
781.7165993273
 21
268.4085322146
 31
0.0
  0
LINE
  5
323
330
1F
100
AcDbEntity
  8
0
  6
Continuous
 62
     7
370
    15
100
AcDbLine
 10
780.4666005194
 20
265.9084749941
 30
0.0
 11
802.466585499
 21
265.9084749941
 31
0.0
  0
LINE
  5
324
330
1F
100
AcDbEntity
  8
0
  6
Continuous
 62
     7
370
    15
100
AcDbLine
 10
807.4665807306
 20
268.4085322146
 30
0.0
 11
807.4665807306
 21
265.9084749941
 31
0.0
  0
LINE
  5
325
330
1F
100
AcDbEntity
  8
0
  6
Continuous
 62
     7
370
    15
100
AcDbLine
 10
807.4665807306
 20
265.9084749941
 30
0.0
 11
802.466585499
 21
265.9084749941
 31
0.0
  0
LINE
  5
326
330
1F
100
AcDbEntity
  8
0
  6
Continuous
 62
     7
370
    15
100
AcDbLine
 10
35.3936694681
 20
61.8229461435
 30
0.0
 11
35.3936694681
 21
45.7084728006
 31
0.0
  0
LINE
  5
327
330
1F
100
AcDbEntity
  8
0
  6
Continuous
 62
     7
370
    15
100
AcDbLine
 10
35.3936694681
 20
67.7084875826
 30
0.0
 11
35.3936694681
 21
61.8229461435
 31
0.0
  0
LINE
  5
328
330
1F
100
AcDbEntity
  8
0
  6
Continuous
 62
     7
370
    15
100
AcDbLine
 10
35.1936362803
 20
61.7299628977
 30
0.0
 11
35.1936362803
 21
67.5085139994
 31
0.0
  0
LINE
  5
329
330
1F
100
AcDbEntity
  8
0
  6
Continuous
 62
     7
370
    15
100
AcDbLine
 10
35.1936362803
 20
45.9085059885
 30
0.0
 11
35.1936362803
 21
61.7299628977
 31
0.0
  0
LINE
  5
32A
330
1F
100
AcDbEntity
  8
0
  6
Continuous
 62
     7
370
    15
100
AcDbLine
 10
725.9665869295
 20
-100.742404389
 30
0.0
 11
724.9665998041
 21
-101.1686372038
 31
0.0
  0
LWPOLYLINE
  5
32B
330
1F
100
AcDbEntity
  8
0
  6
Continuous
 62
     7
370
    15
100
AcDbPolyline
 90
        3
 70
   128
 43
0.0
 10
724.9665998041
 20
-93.5578989263
 10
725.7689081251
 20
-93.2140397306
 10
725.9665869295
 20
-93.1291627165
  0
LINE
  5
32C
330
1F
100
AcDbEntity
  8
0
  6
Continuous
 62
     7
370
    15
100
AcDbLine
 10
724.9665998041
 20
-93.5460972067
 30
0.0
 11
725.9665869295
 21
-93.1171225782
 31
0.0
  0
LWPOLYLINE
  5
32D
330
1F
100
AcDbEntity
  8
0
  6
Continuous
 62
     7
370
    15
100
AcDbPolyline
 90
        3
 70
   128
 43
0.0
 10
724.9665998041
 20
-67.0494484182
 10
725.629403454
 20
-66.7526172872
 10
725.9665869295
 20
-66.6005658384
  0
LWPOLYLINE
  5
32E
330
1F
100
AcDbEntity
  8
0
  6
Continuous
 62
     7
370
    15
100
AcDbPolyline
 90
        3
 70
   128
 43
0.0
 10
725.9665869295
 20
-66.3422989126
 10
725.3647290289
 20
-66.5819691893
 10
724.882646662
 20
-66.7755054708
  0
LINE
  5
32F
330
1F
100
AcDbEntity
  8
0
  6
Continuous
 62
     7
370
    15
100
AcDbLine
 10
725.9665869295
 20
-113.049273419
 30
0.0
 11
724.9665998041
 21
-113.4708570715
 31
0.0
  0
LINE
  5
330
330
1F
100
AcDbEntity
  8
0
  6
Continuous
 62
     7
370
    15
100
AcDbLine
 10
725.9665869295
 20
-113.0725192304
 30
0.0
 11
724.9665998041
 21
-113.496606278
 31
0.0
  0
LINE
  5
331
330
1F
100
AcDbEntity
  8
0
  6
Continuous
 62
     7
370
    15
100
AcDbLine
 10
725.9665869295
 20
-124.8026537176
 30
0.0
 11
725.7895313322
 21
-124.87775557
 31
0.0
  0
LINE
  5
332
330
1F
100
AcDbEntity
  8
0
  6
Continuous
 62
     7
370
    15
100
AcDbLine
 10
725.7895313322
 20
-124.87775557
 30
0.0
 11
724.9665998041
 21
-122.9379224058
 31
0.0
  0
LWPOLYLINE
  5
333
330
1F
100
AcDbEntity
  8
0
  6
Continuous
 62
     7
370
    15
100
AcDbPolyline
 90
        3
 70
   128
 43
0.0
 10
725.9665869295
 20
-128.5133408781
 10
725.7240258276
 20
-128.6139535185
 10
724.9665998041
 20
-128.9272951361
  0
LINE
  5
334
330
1F
100
AcDbEntity
  8
0
  6
Continuous
 62
     7
370
    15
100
AcDbLine
 10
725.2268336832
 20
-106.9825934645
 30
0.0
 11
724.9665998041
 21
-106.3691424604
 31
0.0
  0
LINE
  5
335
330
1F
100
AcDbEntity
  8
0
  6
Continuous
 62
     7
370
    15
100
AcDbLine
 10
725.9665869295
 20
-106.6641258474
 30
0.0
 11
725.2268336832
 21
-106.9825934645
 31
0.0
  0
LINE
  5
336
330
1F
100
AcDbEntity
  8
0
  6
Continuous
 62
     7
370
    15
100
AcDbLine
 10
725.2268336832
 20
-106.9825934645
 30
0.0
 11
724.9665998041
 21
-107.0913123365
 31
0.0
  0
LINE
  5
337
330
1F
100
AcDbEntity
  8
0
  6
Continuous
 62
     7
370
    15
100
AcDbLine
 10
725.7895313322
 20
-124.87775557
 30
0.0
 11
724.9665998041
 21
-125.2139257666
 31
0.0
  0
LINE
  5
338
330
1F
100
AcDbEntity
  8
0
  6
Continuous
 62
     7
370
    15
100
AcDbLine
 10
766.0477005064
 20
-71.3135051008
 30
0.0
 11
764.9665914595
 21
-71.7887329336
 31
0.0
  0
LWPOLYLINE
  5
339
330
1F
100
AcDbEntity
  8
0
  6
Continuous
 62
     7
370
    15
100
AcDbPolyline
 90
        3
 70
   128
 43
0.0
 10
767.9790102064
 20
-69.6539329763
 10
767.9655395567
 20
-69.7377371069
 10
767.8987525522
 20
-69.9779438253
  0
LINE
  5
33A
330
1F
100
AcDbEntity
  8
0
  6
Continuous
 62
     7
370
    15
100
AcDbLine
 10
765.2589522421
 20
-61.522011685
 30
0.0
 11
764.9665914595
 21
-60.8362006422
 31
0.0
  0
LWPOLYLINE
  5
33B
330
1F
100
AcDbEntity
  8
0
  6
Continuous
 62
     7
370
    15
100
AcDbPolyline
 90
        5
 70
   128
 43
0.0
 10
766.9781588137
 20
-65.6192945715
 10
766.807629925
 20
-65.2095126387
 10
766.3369916498
 20
-64.0832828756
 10
765.8155106127
 20
-62.8415989157
 10
765.2589522421
 20
-61.522011685
  0
LINE
  5
33C
330
1F
100
AcDbEntity
  8
0
  6
Continuous
 62
     7
370
    15
100
AcDbLine
 10
27.3664735376
 20
265.0314522509
 30
0.0
 11
32.9666875422
 21
265.0314522509
 31
0.0
  0
LINE
  5
33D
330
1F
100
AcDbEntity
  8
0
  6
Continuous
 62
     7
370
    15
100
AcDbLine
 10
24.5662473261
 20
269.8814821962
 30
0.0
 11
27.3664735376
 21
265.0314522509
 31
0.0
  0
LINE
  5
33E
330
1F
100
AcDbEntity
  8
0
  6
Continuous
 62
     7
370
    15
100
AcDbLine
 10
27.3664735376
 20
274.7313929323
 30
0.0
 11
24.5662473261
 21
269.8814821962
 31
0.0
  0
LINE
  5
33F
330
1F
100
AcDbEntity
  8
0
  6
Continuous
 62
     7
370
    15
100
AcDbLine
 10
32.9666875422
 20
274.7313929323
 30
0.0
 11
27.3664735376
 21
274.7313929323
 31
0.0
  0
LINE
  5
340
330
1F
100
AcDbEntity
  8
0
  6
Continuous
 62
     7
370
    15
100
AcDbLine
 10
35.7669137537
 20
269.8814821962
 30
0.0
 11
32.9666875422
 21
274.7313929323
 31
0.0
  0
LINE
  5
341
330
1F
100
AcDbEntity
  8
0
  6
Continuous
 62
     7
370
    15
100
AcDbLine
 10
32.9666875422
 20
265.0314522509
 30
0.0
 11
35.7669137537
 21
269.8814821962
 31
0.0
  0
ARC
  5
342
330
1F
100
AcDbEntity
  8
0
  6
Continuous
 62
     7
370
    15
100
AcDbCircle
 10
30.1665861788
 20
269.8814440418
 30
0.0
 40
5.525000000000337
100
AcDbArc
 50
61.3814626183
 51
118.6185373817
  0
ARC
  5
343
330
1F
100
AcDbEntity
  8
0
  6
Continuous
 62
     7
370
    15
100
AcDbCircle
 10
30.1665861788
 20
269.8814440418
 30
0.0
 40
5.525000000000021
100
AcDbArc
 50
241.3814626183
 51
298.6185373817
  0
ARC
  5
344
330
1F
100
AcDbEntity
  8
0
  6
Continuous
 62
     7
370
    15
100
AcDbCircle
 10
30.1665861788
 20
269.8814440418
 30
0.0
 40
5.525000000000541
100
AcDbArc
 50
301.3814626173
 51
358.6185373827
  0
ARC
  5
345
330
1F
100
AcDbEntity
  8
0
  6
Continuous
 62
     7
370
    15
100
AcDbCircle
 10
30.1665861788
 20
269.8814440418
 30
0.0
 40
5.52500000000054
100
AcDbArc
 50
1.3814626173
 51
58.6185373827
  0
ARC
  5
346
330
1F
100
AcDbEntity
  8
0
  6
Continuous
 62
     7
370
    15
100
AcDbCircle
 10
30.1665861788
 20
269.8814440418
 30
0.0
 40
5.525000000000309
100
AcDbArc
 50
121.3814626193
 51
178.6185373807
  0
ARC
  5
347
330
1F
100
AcDbEntity
  8
0
  6
Continuous
 62
     7
370
    15
100
AcDbCircle
 10
30.1665861788
 20
269.8814440418
 30
0.0
 40
5.524999999999904
100
AcDbArc
 50
181.3814626193
 51
238.6185373807
  0
LINE
  5
348
330
1F
100
AcDbEntity
  8
0
  6
Continuous
 62
     7
370
    15
100
AcDbLine
 10
36.9851134836
 20
297.181482387
 30
0.0
 11
36.9851134836
 21
309.3814802889
 31
0.0
  0
LINE
  5
349
330
1F
100
AcDbEntity
  8
0
  6
Continuous
 62
     7
370
    15
100
AcDbLine
 10
23.3480475962
 20
297.181482387
 30
0.0
 11
36.9851134836
 21
297.181482387
 31
0.0
  0
LINE
  5
34A
330
1F
100
AcDbEntity
  8
0
  6
Continuous
 62
     7
370
    15
100
AcDbLine
 10
23.3480475962
 20
297.181482387
 30
0.0
 11
23.3480475962
 21
309.3814802889
 31
0.0
  0
LINE
  5
34B
330
1F
100
AcDbEntity
  8
0
  6
Continuous
 62
     7
370
    15
100
AcDbLine
 10
23.3480475962
 20
309.3814802889
 30
0.0
 11
36.9851134836
 21
309.3814802889
 31
0.0
  0
LINE
  5
34C
330
1F
100
AcDbEntity
  8
0
  6
Continuous
 62
     7
370
    15
100
AcDbLine
 10
23.3480475962
 20
242.5814820055
 30
0.0
 11
23.3480475962
 21
230.3814841036
 31
0.0
  0
LINE
  5
34D
330
1F
100
AcDbEntity
  8
0
  6
Continuous
 62
     7
370
    15
100
AcDbLine
 10
36.9851134836
 20
242.5814820055
 30
0.0
 11
23.3480475962
 21
242.5814820055
 31
0.0
  0
LINE
  5
34E
330
1F
100
AcDbEntity
  8
0
  6
Continuous
 62
     7
370
    15
100
AcDbLine
 10
36.9851134836
 20
242.5814820055
 30
0.0
 11
36.9851134836
 21
230.3814841036
 31
0.0
  0
LINE
  5
34F
330
1F
100
AcDbEntity
  8
0
  6
Continuous
 62
     7
370
    15
100
AcDbLine
 10
36.9851134836
 20
230.3814841036
 30
0.0
 11
23.3480475962
 21
230.3814841036
 31
0.0
  0
LINE
  5
350
330
1F
100
AcDbEntity
  8
0
  6
Continuous
 62
     7
370
    15
100
AcDbLine
 10
16.5295146525
 20
297.181482387
 30
0.0
 11
16.5295146525
 21
309.3814802889
 31
0.0
  0
LINE
  5
351
330
1F
100
AcDbEntity
  8
0
  6
Continuous
 62
     7
370
    15
100
AcDbLine
 10
16.5295146525
 20
297.181482387
 30
0.0
 11
23.3480475962
 21
297.181482387
 31
0.0
  0
LINE
  5
352
330
1F
100
AcDbEntity
  8
0
  6
Continuous
 62
     7
370
    15
100
AcDbLine
 10
16.5295146525
 20
309.3814802889
 30
0.0
 11
23.3480475962
 21
309.3814802889
 31
0.0
  0
LINE
  5
353
330
1F
100
AcDbEntity
  8
0
  6
Continuous
 62
     7
370
    15
100
AcDbLine
 10
43.8036464274
 20
297.181482387
 30
0.0
 11
43.8036464274
 21
309.3814802889
 31
0.0
  0
LINE
  5
354
330
1F
100
AcDbEntity
  8
0
  6
Continuous
 62
     7
370
    15
100
AcDbLine
 10
36.9851134836
 20
297.181482387
 30
0.0
 11
43.8036464274
 21
297.181482387
 31
0.0
  0
LINE
  5
355
330
1F
100
AcDbEntity
  8
0
  6
Continuous
 62
     7
370
    15
100
AcDbLine
 10
36.9851134836
 20
309.3814802889
 30
0.0
 11
43.8036464274
 21
309.3814802889
 31
0.0
  0
LINE
  5
356
330
1F
100
AcDbEntity
  8
0
  6
Continuous
 62
     7
370
    15
100
AcDbLine
 10
16.5295146525
 20
242.5814820055
 30
0.0
 11
16.5295146525
 21
230.3814841036
 31
0.0
  0
LINE
  5
357
330
1F
100
AcDbEntity
  8
0
  6
Continuous
 62
     7
370
    15
100
AcDbLine
 10
23.3480475962
 20
230.3814841036
 30
0.0
 11
16.5295146525
 21
230.3814841036
 31
0.0
  0
LINE
  5
358
330
1F
100
AcDbEntity
  8
0
  6
Continuous
 62
     7
370
    15
100
AcDbLine
 10
23.3480475962
 20
242.5814820055
 30
0.0
 11
16.5295146525
 21
242.5814820055
 31
0.0
  0
LINE
  5
359
330
1F
100
AcDbEntity
  8
0
  6
Continuous
 62
     7
370
    15
100
AcDbLine
 10
43.8036464274
 20
242.5814820055
 30
0.0
 11
43.8036464274
 21
230.3814841036
 31
0.0
  0
LINE
  5
35A
330
1F
100
AcDbEntity
  8
0
  6
Continuous
 62
     7
370
    15
100
AcDbLine
 10
43.8036464274
 20
230.3814841036
 30
0.0
 11
36.9851134836
 21
230.3814841036
 31
0.0
  0
LINE
  5
35B
330
1F
100
AcDbEntity
  8
0
  6
Continuous
 62
     7
370
    15
100
AcDbLine
 10
43.8036464274
 20
242.5814820055
 30
0.0
 11
36.9851134836
 21
242.5814820055
 31
0.0
  0
LINE
  5
35C
330
1F
100
AcDbEntity
  8
0
  6
Continuous
 62
     7
370
    15
100
AcDbLine
 10
187.7001069605
 20
-265.9917520758
 30
0.0
 11
187.1662877619
 21
-265.9917520758
 31
0.0
  0
LINE
  5
35D
330
1F
100
AcDbEntity
  8
0
  6
Continuous
 62
     7
370
    15
100
AcDbLine
 10
98.9665530741
 20
-278.0914949652
 30
0.0
 11
98.9665530741
 21
-269.5915149923
 31
0.0
  0
LINE
  5
35E
330
1F
100
AcDbEntity
  8
0
  6
Continuous
 62
     7
370
    15
100
AcDbLine
 10
759.9665962278
 20
-269.5915149923
 30
0.0
 11
759.9665962278
 21
-278.0914949652
 31
0.0
  0
ARC
  5
35F
330
1F
100
AcDbEntity
  8
0
  6
Continuous
 62
     7
370
    15
100
AcDbCircle
 10
754.9665861788
 20
-278.0915049751
 30
0.0
 40
5.000000000000114
100
AcDbArc
 50
270.0
 51
0.0
  0
LINE
  5
360
330
1F
100
AcDbEntity
  8
0
  6
Continuous
 62
     7
370
    15
100
AcDbLine
 10
754.9666009962
 20
-283.0914901968
 30
0.0
 11
103.9665483057
 21
-283.0914901968
 31
0.0
  0
ARC
  5
361
330
1F
100
AcDbEntity
  8
0
  6
Continuous
 62
     7
370
    15
100
AcDbCircle
 10
103.9665861788
 20
-278.0915049751
 30
0.0
 40
5.0
100
AcDbArc
 50
180.0
 51
270.0
  0
LINE
  5
362
330
1F
100
AcDbEntity
  8
0
  6
Continuous
 62
     7
370
    15
100
AcDbLine
 10
759.9665962278
 20
-266.0915302511
 30
0.0
 11
759.9665962278
 21
-269.5915149923
 31
0.0
  0
LINE
  5
363
330
1F
100
AcDbEntity
  8
0
  6
Continuous
 62
     7
370
    15
100
AcDbLine
 10
134.9665664255
 20
-266.0915302511
 30
0.0
 11
759.9665962278
 21
-266.0915302511
 31
0.0
  0
LINE
  5
364
330
1F
100
AcDbEntity
  8
0
  6
Continuous
 62
     7
370
    15
100
AcDbLine
 10
98.9665530741
 20
-269.5915149923
 30
0.0
 11
98.9665530741
 21
-266.0915302511
 31
0.0
  0
LINE
  5
365
330
1F
100
AcDbEntity
  8
0
  6
Continuous
 62
     7
370
    15
100
AcDbLine
 10
603.9666079104
 20
-301.0914968725
 30
0.0
 11
603.9666079104
 21
-283.0914901968
 31
0.0
  0
ARC
  5
366
330
1F
100
AcDbEntity
  8
0
  6
Continuous
 62
     7
370
    15
100
AcDbCircle
 10
598.9665861788
 20
-301.0915049751
 30
0.0
 40
5.0
100
AcDbArc
 50
270.0
 51
0.0
  0
LINE
  5
367
330
1F
100
AcDbEntity
  8
0
  6
Continuous
 62
     7
370
    15
100
AcDbLine
 10
237.7447627604
 20
-306.0914921041
 30
0.0
 11
598.9666126787
 21
-306.0914921041
 31
0.0
  0
ARC
  5
368
330
1F
100
AcDbEntity
  8
0
  6
Continuous
 62
     7
370
    15
100
AcDbCircle
 10
237.7447607718
 20
-301.0915049751
 30
0.0
 40
5.0
100
AcDbArc
 50
225.0
 51
270.0
  0
LINE
  5
369
330
1F
100
AcDbEntity
  8
0
  6
Continuous
 62
     7
370
    15
100
AcDbLine
 10
212.673678261
 20
-283.0914901968
 30
0.0
 11
234.2092536509
 21
-304.6270655867
 31
0.0
  0
LINE
  5
36A
330
1F
100
AcDbEntity
  8
0
  6
Continuous
 62
     7
370
    15
100
AcDbLine
 10
196.9666026651
 20
-304.6270655867
 30
0.0
 11
196.9666026651
 21
-283.0914901968
 31
0.0
  0
LINE
  5
36B
330
1F
100
AcDbEntity
  8
0
  6
Continuous
 62
     7
370
    15
100
AcDbLine
 10
198.9665769159
 20
-283.0914901968
 30
0.0
 11
198.9665769159
 21
-304.6270655867
 31
0.0
  0
LINE
  5
36C
330
1F
100
AcDbEntity
  8
0
  6
Continuous
 62
     7
370
    15
100
AcDbLine
 10
198.9665769159
 20
-306.0914921041
 30
0.0
 11
196.9666026651
 21
-306.0914921041
 31
0.0
  0
LINE
  5
36D
330
1F
100
AcDbEntity
  8
0
  6
Continuous
 62
     7
370
    15
100
AcDbLine
 10
196.9666026651
 20
-306.0914921041
 30
0.0
 11
196.9666026651
 21
-304.6270655867
 31
0.0
  0
LINE
  5
36E
330
1F
100
AcDbEntity
  8
0
  6
Continuous
 62
     7
370
    15
100
AcDbLine
 10
198.9665769159
 20
-304.6270655867
 30
0.0
 11
198.9665769159
 21
-306.0914921041
 31
0.0
  0
LINE
  5
36F
330
1F
100
AcDbEntity
  8
0
  6
Continuous
 62
     7
370
    15
100
AcDbLine
 10
723.6288629591
 20
-266.0915302511
 30
0.0
 11
723.6844442904
 21
-265.9682082411
 31
0.0
  0
LWPOLYLINE
  5
370
330
1F
100
AcDbEntity
  8
0
  6
Continuous
 62
     7
370
    15
100
AcDbPolyline
 90
        3
 70
   128
 43
0.0
 10
720.4665981352
 20
-266.0915302511
 10
720.7592271387
 20
-266.062681603
 10
721.0050962984
 20
-265.9915136572
  0
LINE
  5
371
330
1F
100
AcDbEntity
  8
0
  6
Continuous
 62
     7
370
    15
100
AcDbLine
 10
134.9665664255
 20
-265.5915068861
 30
0.0
 11
134.9665664255
 21
-266.0915302511
 31
0.0
  0
LINE
  5
372
330
1F
100
AcDbEntity
  8
0
  6
Continuous
 62
     7
370
    15
100
AcDbLine
 10
97.7166436731
 20
-266.0915302511
 30
0.0
 11
134.9665664255
 21
-266.0915302511
 31
0.0
  0
LINE
  5
373
330
1F
100
AcDbEntity
  8
0
  6
Continuous
 62
     7
370
    15
100
AcDbLine
 10
97.7166436731
 20
-266.0915302511
 30
0.0
 11
97.7166436731
 21
-265.5915068861
 31
0.0
  0
LINE
  5
374
330
1F
100
AcDbEntity
  8
0
  6
Continuous
 62
     7
370
    15
100
AcDbLine
 10
96.5373061716
 20
-266.0915302511
 30
0.0
 11
96.5373061716
 21
-265.5915068861
 31
0.0
  0
LINE
  5
375
330
1F
100
AcDbEntity
  8
0
  6
Continuous
 62
     7
370
    15
100
AcDbLine
 10
97.7166436731
 20
-266.0915302511
 30
0.0
 11
96.5373061716
 21
-266.0915302511
 31
0.0
  0
LINE
  5
376
330
1F
100
AcDbEntity
  8
0
  6
Continuous
 62
     7
370
    15
100
AcDbLine
 10
725.4665933668
 20
-231.7820238348
 30
0.0
 11
725.4665933668
 21
-226.5947508093
 31
0.0
  0
LINE
  5
377
330
1F
100
AcDbEntity
  8
0
  6
Continuous
 62
     7
370
    15
100
AcDbLine
 10
725.4665933668
 20
1100.4085493807
 30
0.0
 11
725.4665933668
 21
1108.4084463839
 31
0.0
  0
LINE
  5
378
330
1F
100
AcDbEntity
  8
0
  6
Continuous
 62
     7
370
    15
100
AcDbLine
 10
728.4165762484
 20
-265.5915068861
 30
0.0
 11
725.9665869295
 21
-265.5915068861
 31
0.0
  0
LINE
  5
379
330
1F
100
AcDbEntity
  8
0
  6
Continuous
 62
     7
370
    15
100
AcDbLine
 10
725.9665869295
 20
-265.5915068861
 30
0.0
 11
725.9665869295
 21
1133.9085055117
 31
0.0
  0
LINE
  5
37A
330
1F
100
AcDbEntity
  8
0
  6
Continuous
 62
     7
370
    15
100
AcDbLine
 10
762.5165723383
 20
-265.5915068861
 30
0.0
 11
762.5165723383
 21
-263.1415175672
 31
0.0
  0
LINE
  5
37B
330
1F
100
AcDbEntity
  8
0
  6
Continuous
 62
     7
370
    15
100
AcDbLine
 10
728.4165762484
 20
-265.5915068861
 30
0.0
 11
762.5165723383
 21
-265.5915068861
 31
0.0
  0
LINE
  5
37C
330
1F
100
AcDbEntity
  8
0
  6
Continuous
 62
     7
370
    15
100
AcDbLine
 10
764.9665914595
 20
1134.7085190539
 30
0.0
 11
764.9665914595
 21
-263.1415175672
 31
0.0
  0
LINE
  5
37D
330
1F
100
AcDbEntity
  8
0
  6
Continuous
 62
     7
370
    15
100
AcDbLine
 10
764.9665914595
 20
-263.1415175672
 30
0.0
 11
762.5165723383
 21
-263.1415175672
 31
0.0
  0
ARC
  5
37E
330
1F
100
AcDbEntity
  8
0
  6
Continuous
 62
     7
370
    15
100
AcDbCircle
 10
762.5165861788
 20
-263.1415049751
 30
0.0
 40
2.449999999999989
100
AcDbArc
 50
270.0
 51
0.0
  0
ARC
  5
37F
330
1F
100
AcDbEntity
  8
0
  6
Continuous
 62
     7
370
    15
100
AcDbCircle
 10
762.5165861788
 20
-263.1415049751
 30
0.0
 40
1.25
100
AcDbArc
 50
270.0
 51
0.0
  0
LINE
  5
380
330
1F
100
AcDbEntity
  8
0
  6
Continuous
 62
     7
370
    15
100
AcDbLine
 10
762.5165723383
 20
-264.3207954641
 30
0.0
 11
763.3375071108
 21
-264.0639590498
 31
0.0
  0
SPLINE
  5
381
330
1F
100
AcDbEntity
  8
0
  6
Continuous
 62
     7
370
    15
100
AcDbSpline
210
0.0
220
0.0
230
1.0
 70
     8
 71
     3
 72
    11
 73
     7
 74
     0
 42
0.00000001
 43
0.00000001
 40
0.0
 40
0.0
 40
0.0
 40
0.0
 40
0.2727012977891778
 40
0.5235951856366952
 40
0.7744228658413638
 40
1.0
 40
1.0
 40
1.0
 40
1.0
 10
762.516572338305
 20
-264.3207954641227
 30
0.0
 10
762.6954057899861
 20
-264.2134815041597
 30
0.0
 10
763.038771718532
 20
-264.0074352797969
 30
0.0
 10
763.4546582614367
 20
-263.7031015904453
 30
0.0
 10
763.7189265448352
 20
-263.4171555363924
 30
0.0
 10
763.7512811025159
 20
-263.2300919576192
 30
0.0
 10
763.7666009485345
 20
-263.1415175672416
 30
0.0
  0
LINE
  5
382
330
1F
100
AcDbEntity
  8
0
  6
Continuous
 62
     7
370
    15
100
AcDbLine
 10
708.4665738165
 20
-438.5915147539
 30
0.0
 11
616.4665959894
 21
-438.5915147539
 31
0.0
  0
LINE
  5
383
330
1F
100
AcDbEntity
  8
0
  6
Continuous
 62
     7
370
    15
100
AcDbLine
 10
708.4665738165
 20
-436.5915107008
 30
0.0
 11
616.4665959894
 21
-436.5915107008
 31
0.0
  0
LINE
  5
384
330
1F
100
AcDbEntity
  8
0
  6
Continuous
 62
     7
370
    15
100
AcDbLine
 10
199.466600281
 20
-436.5915107008
 30
0.0
 11
107.4665330469
 21
-436.5915107008
 31
0.0
  0
LINE
  5
385
330
1F
100
AcDbEntity
  8
0
  6
Continuous
 62
     7
370
    15
100
AcDbLine
 10
199.466600281
 20
-438.5915147539
 30
0.0
 11
107.4665330469
 21
-438.5915147539
 31
0.0
  0
LINE
  5
386
330
1F
100
AcDbEntity
  8
0
  6
Continuous
 62
     7
370
    15
100
AcDbLine
 10
184.4262622416
 20
-364.5915138002
 30
0.0
 11
122.506930691
 21
-364.5915138002
 31
0.0
  0
LINE
  5
387
330
1F
100
AcDbEntity
  8
0
  6
Continuous
 62
     7
370
    15
100
AcDbLine
 10
693.4262357771
 20
-364.5915138002
 30
0.0
 11
631.5069340288
 21
-364.5915138002
 31
0.0
  0
LINE
  5
388
330
1F
100
AcDbEntity
  8
0
  6
Continuous
 62
     7
370
    15
100
AcDbLine
 10
90.4665731012
 20
1156.2085104708
 30
0.0
 11
90.4665731012
 21
1164.2085266832
 31
0.0
  0
LINE
  5
389
330
1F
100
AcDbEntity
  8
0
  6
Continuous
 62
     7
370
    15
100
AcDbLine
 10
793.5665987551
 20
-268.491511273
 30
0.0
 11
801.3665817797
 21
-268.491511273
 31
0.0
  0
LINE
  5
38A
330
1F
100
AcDbEntity
  8
0
  6
Continuous
 62
     7
370
    15
100
AcDbLine
 10
810.8665786802
 20
1143.6183405642
 30
0.0
 11
810.9665952742
 21
1143.4341622118
 31
0.0
  0
LWPOLYLINE
  5
38B
330
1F
100
AcDbEntity
  8
0
  6
Continuous
 62
     7
370
    15
100
AcDbPolyline
 90
        3
 70
   128
 43
0.0
 10
810.9665952742
 20
1141.2827921633
 10
810.9385214865
 20
1141.2272406344
 10
810.8665786802
 20
1141.0986138109
  0
LINE
  5
38C
330
1F
100
AcDbEntity
  8
0
  6
PHANTOM
 62
     8
370
     0
100
AcDbLine
 10
769.4665931284
 20
302.8924418215
 30
0.0
 11
770.245476824
 21
302.8085184816
 31
0.0
  0
LINE
  5
38D
330
1F
100
AcDbEntity
  8
0
  6
PHANTOM
 62
     8
370
     0
100
AcDbLine
 10
771.3665805876
 20
302.687640262
 30
0.0
 11
771.4373014986
 21
302.6800108675
 31
0.0
  0
LINE
  5
38E
330
1F
100
AcDbEntity
  8
0
  6
PHANTOM
 62
     8
370
     0
100
AcDbLine
 10
771.8887768805
 20
274.8337937121
 30
0.0
 11
770.9990583479
 21
274.6802521471
 31
0.0
  0
LINE
  5
38F
330
1F
100
AcDbEntity
  8
0
  6
PHANTOM
 62
     8
370
     0
100
AcDbLine
 10
769.4397114336
 20
274.4113159899
 30
0.0
 11
766.4665721476
 21
273.898358417
 31
0.0
  0
LINE
  5
390
330
1F
100
AcDbEntity
  8
0
  6
PHANTOM
 62
     8
370
     0
100
AcDbLine
 10
768.0815003931
 20
-213.3272337194
 30
0.0
 11
768.0815003931
 21
-215.7202409979
 31
0.0
  0
LINE
  5
391
330
1F
100
AcDbEntity
  8
0
  6
PHANTOM
 62
     8
370
     0
100
AcDbLine
 10
768.0815003931
 20
-207.962756085
 30
0.0
 11
768.0815003931
 21
-213.3272337194
 31
0.0
  0
ARC
  5
392
330
1F
100
AcDbEntity
  8
0
  6
PHANTOM
 62
     8
370
     0
100
AcDbCircle
 10
30.1665861788
 20
379.9084950249
 30
0.0
 40
8.648876558411738
100
AcDbArc
 50
337.664679734
 51
202.335320266
  0
ARC
  5
393
330
1F
100
AcDbEntity
  8
0
  6
PHANTOM
 62
     8
370
     0
100
AcDbCircle
 10
30.1665861788
 20
379.9084950249
 30
0.0
 40
11.35112344158842
100
AcDbArc
 50
90.0
 51
225.1885452802
  0
ARC
  5
394
330
1F
100
AcDbEntity
  8
0
  6
PHANTOM
 62
     8
370
     0
100
AcDbCircle
 10
30.1665861788
 20
379.9084950249
 30
0.0
 40
11.35112344158843
100
AcDbArc
 50
314.8114547198
 51
90.0
  0
LINE
  5
395
330
1F
100
AcDbEntity
  8
0
  6
PHANTOM
 62
     8
370
     0
100
AcDbLine
 10
22.1665643274
 20
66.901500297
 30
0.0
 11
34.1665290415
 21
66.901500297
 31
0.0
  0
LINE
  5
396
330
1F
100
AcDbEntity
  8
0
  6
PHANTOM
 62
     8
370
     0
100
AcDbLine
 10
10.1665996134
 20
66.901500297
 30
0.0
 11
22.1665643274
 21
66.901500297
 31
0.0
  0
LINE
  5
397
330
1F
100
AcDbEntity
  8
0
  6
PHANTOM
 62
     8
370
     0
100
AcDbLine
 10
33.5176728785
 20
65.9651709322
 30
0.0
 11
10.8154557764
 21
65.9651709322
 31
0.0
  0
LINE
  5
398
330
1F
100
AcDbEntity
  8
0
  6
PHANTOM
 62
     8
370
     0
100
AcDbLine
 10
13.517691952
 20
64.9518323664
 30
0.0
 11
30.8154367029
 21
64.9518323664
 31
0.0
  0
LINE
  5
399
330
1F
100
AcDbEntity
  8
0
  6
PHANTOM
 62
     8
370
     0
100
AcDbLine
 10
29.4736169397
 20
64.0155030016
 30
0.0
 11
14.166548115
 21
64.0155030016
 31
0.0
  0
LINE
  5
39A
330
1F
100
AcDbEntity
  8
0
  6
PHANTOM
 62
     8
370
     0
100
AcDbLine
 10
809.5165930807
 20
1132.2014284853
 30
0.0
 11
809.5165930807
 21
274.6791792635
 31
0.0
  0
LINE
  5
39B
330
1F
100
AcDbEntity
  8
0
  6
PHANTOM
 62
     8
370
     0
100
AcDbLine
 10
770.1665900766
 20
278.4085226778
 30
0.0
 11
768.9665995657
 21
278.4085226778
 31
0.0
  0
LINE
  5
39C
330
1F
100
AcDbEntity
  8
0
  6
PHANTOM
 62
     8
370
     0
100
AcDbLine
 10
767.966582638
 20
728.9085341219
 30
0.0
 11
765.4665850222
 21
728.9085341219
 31
0.0
  0
LINE
  5
39D
330
1F
100
AcDbEntity
  8
0
  6
PHANTOM
 62
     8
370
     0
100
AcDbLine
 10
767.966582638
 20
788.9084769014
 30
0.0
 11
765.4665850222
 21
788.9084769014
 31
0.0
  0
SPLINE
  5
39E
330
1F
100
AcDbEntity
  8
0
  6
PHANTOM
 62
     8
370
     0
100
AcDbSpline
210
0.0
220
0.0
230
1.0
 70
     8
 71
     3
 72
     9
 73
     5
 74
     0
 42
0.00000001
 43
0.00000001
 40
0.0
 40
0.0
 40
0.0
 40
0.0
 40
0.5209680169184931
 40
1.0
 40
1.0
 40
1.0
 40
1.0
 10
771.837963920794
 20
52.40356452504358
 30
0.0
 10
771.8660649637565
 20
52.64731310221427
 30
0.0
 10
771.9200050177519
 20
53.11518938109228
 30
0.0
 10
772.289557059505
 20
53.38096296456774
 30
0.0
 10
772.4665843069176
 20
53.50827701131078
 30
0.0
  0
LINE
  5
39F
330
1F
100
AcDbEntity
  8
0
  6
PHANTOM
 62
     8
370
     0
100
AcDbLine
 10
771.8379639208
 20
7.2134090189
 30
0.0
 11
771.8379639208
 21
52.403564525
 31
0.0
  0
SPLINE
  5
3A0
330
1F
100
AcDbEntity
  8
0
  6
PHANTOM
 62
     8
370
     0
100
AcDbSpline
210
0.0
220
0.0
230
1.0
 70
     8
 71
     3
 72
     9
 73
     5
 74
     0
 42
0.00000001
 43
0.00000001
 40
0.0
 40
0.0
 40
0.0
 40
0.0
 40
0.479031983081507
 40
1.0
 40
1.0
 40
1.0
 40
1.0
 10
772.4665843069176
 20
6.108696532642455
 30
0.0
 10
772.289557059505
 20
6.236010579385387
 30
0.0
 10
771.9200050177519
 20
6.501784162860957
 30
0.0
 10
771.8660649637566
 20
6.969660441739078
 30
0.0
 10
771.837963920794
 20
7.213409018909545
 30
0.0
  0
ARC
  5
3A1
330
1F
100
AcDbEntity
  8
0
  6
PHANTOM
 62
     8
370
     0
100
AcDbCircle
 10
771.6547338097
 20
8.0068807125
 30
0.0
 40
0.8143528732588761
100
AcDbArc
 50
283.0029297644
 51
355.5071815181
  0
ARC
  5
3A2
330
1F
100
AcDbEntity
  8
0
  6
PHANTOM
 62
     8
370
     0
100
AcDbCircle
 10
771.6547338097
 20
51.6100928314
 30
0.0
 40
0.814352873258876
100
AcDbArc
 50
4.4928184819
 51
76.9970702356
  0
SPLINE
  5
3A3
330
1F
100
AcDbEntity
  8
0
  6
PHANTOM
 62
     8
370
     0
100
AcDbSpline
210
0.0
220
0.0
230
1.0
 70
     8
 71
     3
 72
     9
 73
     5
 74
     0
 42
0.00000001
 43
0.00000001
 40
0.0
 40
0.0
 40
0.0
 40
0.0
 40
0.4684432381371256
 40
0.9999999999999999
 40
0.9999999999999999
 40
0.9999999999999999
 40
0.9999999999999999
 10
772.9233048975091
 20
52.52462155858251
 30
0.0
 10
772.7966166394959
 20
52.43560499019961
 30
0.0
 10
772.5261713695055
 20
52.24557861958368
 30
0.0
 10
772.4872651636949
 20
51.87230211418969
 30
0.0
 10
772.4665843069176
 20
51.67388446370325
 30
0.0
  0
SPLINE
  5
3A4
330
1F
100
AcDbEntity
  8
0
  6
PHANTOM
 62
     8
370
     0
100
AcDbSpline
210
0.0
220
0.0
230
1.0
 70
     8
 71
     3
 72
     9
 73
     5
 74
     0
 42
0.00000001
 43
0.00000001
 40
0.0
 40
0.0
 40
0.0
 40
0.0
 40
0.5315567618628744
 40
0.9999999999999999
 40
0.9999999999999999
 40
0.9999999999999999
 40
0.9999999999999999
 10
772.4665843069176
 20
7.943089080249877
 30
0.0
 10
772.4872651636949
 20
7.744671429763317
 30
0.0
 10
772.5261713695057
 20
7.371394924369445
 30
0.0
 10
772.7966166394959
 20
7.181368553753398
 30
0.0
 10
772.9233048975091
 20
7.092351985370726
 30
0.0
  0
SPLINE
  5
3A5
330
1F
100
AcDbEntity
  8
0
  6
PHANTOM
 62
     8
370
     0
100
AcDbSpline
210
0.0
220
0.0
230
1.0
 70
     8
 71
     3
 72
    10
 73
     6
 74
     0
 42
0.00000001
 43
0.00000001
 40
0.0
 40
0.0
 40
0.0
 40
0.0
 40
0.4078496111779004
 40
0.9613219983048665
 40
1.0
 40
1.0
 40
1.0
 40
1.0
 10
773.9665947973351
 20
52.51234300175867
 30
0.0
 10
773.8002130307656
 20
52.55573482516029
 30
0.0
 10
773.4080428583874
 20
52.65801153019889
 30
0.0
 10
773.0904371487181
 20
52.59596461091509
 30
0.0
 10
772.9335522826821
 20
52.52899581747806
 30
0.0
 10
772.9233048975091
 20
52.5246215585824
 30
0.0
  0
SPLINE
  5
3A6
330
1F
100
AcDbEntity
  8
0
  6
PHANTOM
 62
     8
370
     0
100
AcDbSpline
210
0.0
220
0.0
230
1.0
 70
     8
 71
     3
 72
    10
 73
     6
 74
     0
 42
0.00000001
 43
0.00000001
 40
0.0
 40
0.0
 40
0.0
 40
0.0
 40
0.5080737920208178
 40
0.5923429482624655
 40
0.9999999999999999
 40
0.9999999999999999
 40
0.9999999999999999
 40
0.9999999999999999
 10
772.9233048975091
 20
7.092351985370726
 30
0.0
 10
773.071464588038
 20
7.049862997606349
 30
0.0
 10
773.2441980556557
 20
7.00032678322926
 30
0.0
 10
773.5959720597152
 20
7.002803246378253
 30
0.0
 10
773.7986426140402
 20
7.05848626955452
 30
0.0
 10
773.9665947973351
 20
7.104630542194457
 30
0.0
  0
SPLINE
  5
3A7
330
1F
100
AcDbEntity
  8
0
  6
PHANTOM
 62
     8
370
     0
100
AcDbSpline
210
0.0
220
0.0
230
1.0
 70
     8
 71
     3
 72
     9
 73
     5
 74
     0
 42
0.00000001
 43
0.00000001
 40
0.0
 40
0.0
 40
0.0
 40
0.0
 40
0.5704786845853054
 40
1.0
 40
1.0
 40
1.0
 40
1.0
 10
772.4796377241234
 20
53.48050124684534
 30
0.0
 10
772.7093404984238
 20
53.57009599157414
 30
0.0
 10
773.1119896779761
 20
53.727147862485
 30
0.0
 10
773.7098157545403
 20
53.63741727243876
 30
0.0
 10
773.9665947973351
 20
53.59887607136926
 30
0.0
  0
SPLINE
  5
3A8
330
1F
100
AcDbEntity
  8
0
  6
PHANTOM
 62
     8
370
     0
100
AcDbSpline
210
0.0
220
0.0
230
1.0
 70
     8
 71
     3
 72
     9
 73
     5
 74
     0
 42
0.00000001
 43
0.00000001
 40
0.0
 40
0.0
 40
0.0
 40
0.0
 40
0.4295213154146945
 40
1.0
 40
1.0
 40
1.0
 40
1.0
 10
773.9665947973351
 20
6.018097472583972
 30
0.0
 10
773.70981575454
 20
5.979556271514586
 30
0.0
 10
773.1119896779761
 20
5.889825681468341
 30
0.0
 10
772.7093404984238
 20
6.046877552379204
 30
0.0
 10
772.4796377241234
 20
6.136472297107787
 30
0.0
  0
LINE
  5
3A9
330
1F
100
AcDbEntity
  8
0
  6
PHANTOM
 62
     8
370
     0
100
AcDbLine
 10
28.4665368616
 20
466.8585015062
 30
0.0
 11
68.4666179239
 21
466.8585015062
 31
0.0
  0
LINE
  5
3AA
330
1F
100
AcDbEntity
  8
0
  6
PHANTOM
 62
     8
370
     0
100
AcDbLine
 10
28.4665368616
 20
424.7585488085
 30
0.0
 11
68.4666179239
 21
424.7585488085
 31
0.0
  0
LINE
  5
3AB
330
1F
100
AcDbEntity
  8
0
  6
PHANTOM
 62
     8
370
     0
100
AcDbLine
 10
28.4665368616
 20
445.9584904436
 30
0.0
 11
13.4665511667
 21
445.9584904436
 31
0.0
  0
LINE
  5
3AC
330
1F
100
AcDbEntity
  8
0
  6
PHANTOM
 62
     8
370
     0
100
AcDbLine
 10
-6.365940708
 20
479.0594530825
 30
0.0
 11
-7.0587850988
 21
478.659505916
 31
0.0
  0
LINE
  5
3AD
330
1F
100
AcDbEntity
  8
0
  6
PHANTOM
 62
     8
370
     0
100
AcDbLine
 10
-6.5334297598
 20
479.6844673876
 30
0.0
 11
-7.333443302
 21
479.6844673876
 31
0.0
  0
LINE
  5
3AE
330
1F
100
AcDbEntity
  8
0
  6
PHANTOM
 62
     8
370
     0
100
AcDbLine
 10
-7.333443302
 20
484.3494845156
 30
0.0
 11
-6.5334297598
 21
484.3494845156
 31
0.0
  0
LINE
  5
3AF
330
1F
100
AcDbEntity
  8
0
  6
PHANTOM
 62
     8
370
     0
100
AcDbLine
 10
13.1057046473
 20
445.3334761385
 30
0.0
 11
12.4129794657
 21
444.9335289721
 31
0.0
  0
LINE
  5
3B0
330
1F
100
AcDbEntity
  8
0
  6
PHANTOM
 62
     8
370
     0
100
AcDbLine
 10
68.4666179239
 20
442.6585388903
 30
0.0
 11
69.2666314661
 21
442.6585388903
 31
0.0
  0
LINE
  5
3B1
330
1F
100
AcDbEntity
  8
0
  6
PHANTOM
 62
     8
370
     0
100
AcDbLine
 10
69.2666314661
 20
438.158507419
 30
0.0
 11
68.4666179239
 21
438.158507419
 31
0.0
  0
LINE
  5
3B2
330
1F
100
AcDbEntity
  8
0
  6
PHANTOM
 62
     8
370
     0
100
AcDbLine
 10
70.5165408671
 20
436.9084788088
 30
0.0
 11
70.5165408671
 21
436.1084652666
 31
0.0
  0
LINE
  5
3B3
330
1F
100
AcDbEntity
  8
0
  6
PHANTOM
 62
     8
370
     0
100
AcDbLine
 10
74.2666266977
 20
436.1084652666
 30
0.0
 11
74.2666266977
 21
436.9084788088
 31
0.0
  0
LINE
  5
3B4
330
1F
100
AcDbEntity
  8
0
  6
PHANTOM
 62
     8
370
     0
100
AcDbLine
 10
90.9665368616
 20
441.2585449938
 30
0.0
 11
74.8666070521
 21
441.2585449938
 31
0.0
  0
LINE
  5
3B5
330
1F
100
AcDbEntity
  8
0
  6
PHANTOM
 62
     8
370
     0
100
AcDbLine
 10
725.9165786326
 20
124.5377612833
 30
0.0
 11
725.9165786326
 21
-66.3621472593
 31
0.0
  0
LINE
  5
3B6
330
1F
100
AcDbEntity
  8
0
  6
PHANTOM
 62
     8
370
     0
100
AcDbLine
 10
725.9165786326
 20
-136.4267515417
 30
0.0
 11
725.9165786326
 21
-226.5947508093
 31
0.0
  0
LINE
  5
3B7
330
1F
100
AcDbEntity
  8
0
  6
PHANTOM
 62
     8
370
     0
100
AcDbLine
 10
725.9165786326
 20
-234.5947670217
 30
0.0
 11
725.9165786326
 21
-265.9915136572
 31
0.0
  0
LINE
  5
3B8
330
1F
100
AcDbEntity
  8
0
  6
PHANTOM
 62
     8
370
     0
100
AcDbLine
 10
809.9165998518
 20
259.5378113512
 30
0.0
 11
809.9165998518
 21
-262.7207683798
 31
0.0
  0
LINE
  5
3B9
330
1F
100
AcDbEntity
  8
0
  6
PHANTOM
 62
     8
370
     0
100
AcDbLine
 10
766.4665721476
 20
-231.0915040251
 30
0.0
 11
764.9665914595
 21
-231.0915040251
 31
0.0
  0
LINE
  5
3BA
330
1F
100
AcDbEntity
  8
0
  6
PHANTOM
 62
     8
370
     0
100
AcDbLine
 10
766.4665721476
 20
-263.7414979216
 30
0.0
 11
764.9665914595
 21
-263.7414979216
 31
0.0
  0
LINE
  5
3BB
330
1F
100
AcDbEntity
  8
0
  6
PHANTOM
 62
     8
370
     0
100
AcDbLine
 10
789.3955253183
 20
-266.9915007826
 30
0.0
 11
789.3955253183
 21
-265.4914902922
 31
0.0
  0
LINE
  5
3BC
330
1F
100
AcDbEntity
  8
0
  6
PHANTOM
 62
     8
370
     0
100
AcDbLine
 10
792.9310642302
 20
-265.4914902922
 30
0.0
 11
792.9310642302
 21
-266.9915007826
 31
0.0
  0
LINE
  5
3BD
330
1F
100
AcDbEntity
  8
0
  6
PHANTOM
 62
     8
370
     0
100
AcDbLine
 10
768.2165943205
 20
-265.4914902922
 30
0.0
 11
768.2165943205
 21
-266.9915007826
 31
0.0
  0
LINE
  5
3BE
330
1F
100
AcDbEntity
  8
0
  6
PHANTOM
 62
     8
370
     0
100
AcDbLine
 10
805.0021074831
 20
-266.9915007826
 30
0.0
 11
805.0021074831
 21
-265.4914902922
 31
0.0
  0
LINE
  5
3BF
330
1F
100
AcDbEntity
  8
0
  6
PHANTOM
 62
     8
370
     0
100
AcDbLine
 10
813.7665830671
 20
230.958457065
 30
0.0
 11
811.9665823996
 21
230.958457065
 31
0.0
  0
LINE
  5
3C0
330
1F
100
AcDbEntity
  8
0
  6
PHANTOM
 62
     8
370
     0
100
AcDbLine
 10
811.9665823996
 20
193.9585161928
 30
0.0
 11
813.7665830671
 21
193.9585161928
 31
0.0
  0
LINE
  5
3C1
330
1F
100
AcDbEntity
  8
0
  6
PHANTOM
 62
     8
370
     0
100
AcDbLine
 10
-20.826265949
 20
420.4084826235
 30
0.0
 11
79.4665359079
 21
420.4084826235
 31
0.0
  0
LINE
  5
3C2
330
1F
100
AcDbEntity
  8
0
  6
PHANTOM
 62
     8
370
     0
100
AcDbLine
 10
81.5665267527
 20
421.9084931139
 30
0.0
 11
81.5665267527
 21
422.7085066561
 31
0.0
  0
LINE
  5
3C3
330
1F
100
AcDbEntity
  8
0
  6
PHANTOM
 62
     8
370
     0
100
AcDbLine
 10
82.9666398584
 20
421.9084931139
 30
0.0
 11
82.9666398584
 21
422.7085066561
 31
0.0
  0
LINE
  5
3C4
330
1F
100
AcDbEntity
  8
0
  6
PHANTOM
 62
     8
370
     0
100
AcDbLine
 10
78.6666415751
 20
412.8688526873
 30
0.0
 11
78.6666415751
 21
169.4155884508
 31
0.0
  0
LINE
  5
3C5
330
1F
100
AcDbEntity
  8
0
  6
PHANTOM
 62
     8
370
     0
100
AcDbLine
 10
-18.333361286
 20
168.7791896586
 30
0.0
 11
-18.333361286
 21
411.9085026507
 31
0.0
  0
LINE
  5
3C6
330
1F
100
AcDbEntity
  8
0
  6
PHANTOM
 62
     8
370
     0
100
AcDbLine
 10
80.1665328562
 20
166.0084677462
 30
0.0
 11
81.3666127741
 21
166.0084677462
 31
0.0
  0
LINE
  5
3C7
330
1F
100
AcDbEntity
  8
0
  6
PHANTOM
 62
     8
370
     0
100
AcDbLine
 10
83.9166186869
 20
155.9085202936
 30
0.0
 11
83.9166186869
 21
421.9084931139
 31
0.0
  0
LINE
  5
3C8
330
1F
100
AcDbEntity
  8
0
  6
PHANTOM
 62
     8
370
     0
100
AcDbLine
 10
150.9665988505
 20
-263.5415243383
 30
0.0
 11
722.916587454
 21
-263.5415243383
 31
0.0
  0
LINE
  5
3C9
330
1F
100
AcDbEntity
  8
0
  6
PHANTOM
 62
     8
370
     0
100
AcDbLine
 10
93.016579014
 20
1137.3585415606
 30
0.0
 11
93.016579014
 21
-265.5915068861
 31
0.0
  0
LINE
  5
3CA
330
1F
100
AcDbEntity
  8
0
  6
PHANTOM
 62
     8
370
     0
100
AcDbLine
 10
722.916587454
 20
1137.3585415606
 30
0.0
 11
93.016579014
 21
1137.3585415606
 31
0.0
  0
LINE
  5
3CB
330
1F
100
AcDbEntity
  8
0
  6
PHANTOM
 62
     8
370
     0
100
AcDbLine
 10
722.916587454
 20
-263.5415243383
 30
0.0
 11
722.916587454
 21
1137.3585415606
 31
0.0
  0
LINE
  5
3CC
330
1F
100
AcDbEntity
  8
0
  6
PHANTOM
 62
     8
370
     0
100
AcDbLine
 10
93.016579014
 20
-266.0915302511
 30
0.0
 11
93.016579014
 21
-265.5915068861
 31
0.0
  0
LINE
  5
3CD
330
1F
100
AcDbEntity
  8
0
  6
PHANTOM
 62
     8
370
     0
100
AcDbLine
 10
600.9665869295
 20
-266.0915302511
 30
0.0
 11
600.9665869295
 21
-265.5915068861
 31
0.0
  0
LINE
  5
3CE
330
1F
100
AcDbEntity
  8
0
  6
PHANTOM
 62
     8
370
     0
100
AcDbLine
 10
214.9666093409
 20
-266.0915302511
 30
0.0
 11
214.9666093409
 21
-265.5915068861
 31
0.0
  0
LINE
  5
3CF
330
1F
100
AcDbEntity
  8
0
  6
PHANTOM
 62
     8
370
     0
100
AcDbLine
 10
610.9665773928
 20
-266.0915302511
 30
0.0
 11
610.9665773928
 21
-265.5915068861
 31
0.0
  0
LINE
  5
3D0
330
1F
100
AcDbEntity
  8
0
  6
PHANTOM
 62
     8
370
     0
100
AcDbLine
 10
204.966559273
 20
-266.0915302511
 30
0.0
 11
204.966559273
 21
-265.5915068861
 31
0.0
  0
LINE
  5
3D1
330
1F
100
AcDbEntity
  8
0
  6
PHANTOM
 62
     8
370
     0
100
AcDbLine
 10
155.9665940821
 20
-266.0915302511
 30
0.0
 11
155.9665940821
 21
-265.5915068861
 31
0.0
  0
LINE
  5
3D2
330
1F
100
AcDbEntity
  8
0
  6
PHANTOM
 62
     8
370
     0
100
AcDbLine
 10
92.2666333735
 20
1141.3584900622
 30
0.0
 11
723.9665828764
 21
1141.3584900622
 31
0.0
  0
LINE
  5
3D3
330
1F
100
AcDbEntity
  8
0
  6
PHANTOM
 62
     8
370
     0
100
AcDbLine
 10
789.7665940344
 20
1183.4584427599
 30
0.0
 11
93.4166453898
 21
1183.4584427599
 31
0.0
  0
LINE
  5
3D4
330
1F
100
AcDbEntity
  8
0
  6
PHANTOM
 62
     8
370
     0
100
AcDbLine
 10
812.1665857851
 20
1163.508529735
 30
0.0
 11
810.9665952742
 21
1163.508529735
 31
0.0
  0
LINE
  5
3D5
330
1F
100
AcDbEntity
  8
0
  6
PHANTOM
 62
     8
370
     0
100
AcDbLine
 10
809.7165964663
 20
1138.4085369829
 30
0.0
 11
809.7165964663
 21
1139.6084976915
 31
0.0
  0
LINE
  5
3D6
330
1F
100
AcDbEntity
  8
0
  6
PHANTOM
 62
     8
370
     0
100
AcDbLine
 10
810.9665952742
 20
1140.8585263018
 30
0.0
 11
812.1665857851
 21
1140.8585263018
 31
0.0
  0
LINE
  5
3D7
330
1F
100
AcDbEntity
  8
0
  6
PHANTOM
 62
     8
370
     0
100
AcDbLine
 10
811.9665823996
 20
-185.5858611341
 30
0.0
 11
813.5665796816
 21
-185.5858611341
 31
0.0
  0
LINE
  5
3D8
330
1F
100
AcDbEntity
  8
0
  6
PHANTOM
 62
     8
370
     0
100
AcDbLine
 10
811.9665823996
 20
-241.5975379225
 30
0.0
 11
813.5665796816
 21
-241.5975379225
 31
0.0
  0
SPLINE
  5
3D9
330
1F
100
AcDbEntity
  8
0
  6
PHANTOM
 62
     8
370
     0
100
AcDbSpline
210
0.0
220
0.0
230
1.0
 70
     8
 71
     3
 72
    11
 73
     7
 74
     0
 42
0.00000001
 43
0.00000001
 40
0.0
 40
0.0
 40
0.0
 40
0.0
 40
0.2371552161436497
 40
0.4978002416573664
 40
0.7485405183484811
 40
1.0
 40
1.0
 40
1.0
 40
1.0
 10
813.5665796815972
 20
-185.585861134136
 30
0.0
 10
813.7615718431517
 20
-185.616594538225
 30
0.0
 10
814.1708697988179
 20
-185.6811054363245
 30
0.0
 10
814.6144396913539
 20
-185.8141001392227
 30
0.0
 10
814.9117314268408
 20
-185.9675233533741
 30
0.0
 10
814.9482754160053
 20
-186.0752677344859
 30
0.0
 10
814.9665735780816
 20
-186.1292170759086
 30
0.0
  0
SPLINE
  5
3DA
330
1F
100
AcDbEntity
  8
0
  6
PHANTOM
 62
     8
370
     0
100
AcDbSpline
210
0.0
220
0.0
230
1.0
 70
     8
 71
     3
 72
    11
 73
     7
 74
     0
 42
0.00000001
 43
0.00000001
 40
0.0
 40
0.0
 40
0.0
 40
0.0
 40
0.2371485200626071
 40
0.4977938056552131
 40
0.7485350465057281
 40
1.0
 40
1.0
 40
1.0
 40
1.0
 10
813.5665796815972
 20
-241.5975379224662
 30
0.0
 10
813.7615728479433
 20
-241.5667828277648
 30
0.0
 10
814.1708791776922
 20
-241.5022254118863
 30
0.0
 10
814.6144389207747
 20
-241.3691951339645
 30
0.0
 10
814.9117335106861
 20
-241.2156467974705
 30
0.0
 10
814.9482760022266
 20
-241.1077772470175
 30
0.0
 10
814.9665735780816
 20
-241.0537647481803
 30
0.0
  0
LINE
  5
3DB
330
1F
100
AcDbEntity
  8
0
  6
PHANTOM
 62
     8
370
     0
100
AcDbLine
 10
846.6613434374
 20
777.0636034731
 30
0.0
 11
846.6613434374
 21
740.3936339144
 31
0.0
  0
SPLINE
  5
3DC
330
1F
100
AcDbEntity
  8
0
  6
PHANTOM
 62
     8
370
     0
100
AcDbSpline
210
0.0
220
0.0
230
1.0
 70
     8
 71
     3
 72
    17
 73
    13
 74
     0
 42
0.00000001
 43
0.00000001
 40
0.0
 40
0.0
 40
0.0
 40
0.0
 40
0.0907515493649786
 40
0.1737927025057954
 40
0.2490575695912934
 40
0.3349406953425483
 40
0.4181880125528743
 40
0.498763604635616
 40
0.6249293075919352
 40
0.7491131405194635
 40
0.8747491281495687
 40
1.0
 40
1.0
 40
1.0
 40
1.0
 10
867.9289363443474
 20
777.4348212007637
 30
0.0
 10
867.7888866041486
 20
777.3972213445595
 30
0.0
 10
867.5206859728128
 20
777.3252161758406
 30
0.0
 10
867.1566762002396
 20
776.8024056893914
 30
0.0
 10
866.8188458497477
 20
776.0278681173876
 30
0.0
 10
866.5075699590212
 20
774.9657928486018
 30
0.0
 10
866.2198680554676
 20
773.599283393899
 30
0.0
 10
865.9241836498011
 20
771.7193420944053
 30
0.0
 10
865.6459702129254
 20
769.189170772181
 30
0.0
 10
865.4186138090502
 20
765.9011372213769
 30
0.0
 10
865.275645415685
 20
762.333573742483
 30
0.0
 10
865.2578079442761
 20
759.8488903897392
 30
0.0
 10
865.2489028989892
 20
758.6084557298775
 30
0.0
  0
SPLINE
  5
3DD
330
1F
100
AcDbEntity
  8
0
  6
PHANTOM
 62
     8
370
     0
100
AcDbSpline
210
0.0
220
0.0
230
1.0
 70
     8
 71
     3
 72
    15
 73
    11
 74
     0
 42
0.00000001
 43
0.00000001
 40
0.0
 40
0.0
 40
0.0
 40
0.0
 40
0.1428809451360297
 40
0.2862039621667338
 40
0.4280257762906799
 40
0.5721055113041273
 40
0.7111316321895336
 40
0.8570339865256659
 40
0.9428839678673648
 40
1.0
 40
1.0
 40
1.0
 40
1.0
 10
865.2489028989892
 20
758.6084557298775
 30
0.0
 10
865.257796062286
 20
757.3688617504073
 30
0.0
 10
865.2756099042181
 20
754.8858385028725
 30
0.0
 10
865.4184537999431
 20
751.3193417791704
 30
0.0
 10
865.6456890663675
 20
748.0301280844841
 30
0.0
 10
865.9585257293085
 20
745.1859182751718
 30
0.0
 10
866.3554755796059
 20
742.828532554497
 30
0.0
 10
866.7619243381746
 20
741.3362479532184
 30
0.0
 10
867.1095632163566
 20
740.4931389207436
 30
0.0
 10
867.2942024306876
 20
740.2655642835509
 30
0.0
 10
867.3679672300439
 20
740.174646449482
 30
0.0
  0
SPLINE
  5
3DE
330
1F
100
AcDbEntity
  8
0
  6
PHANTOM
 62
     8
370
     0
100
AcDbSpline
210
0.0
220
0.0
230
1.0
 70
     8
 71
     3
 72
    11
 73
     7
 74
     0
 42
0.00000001
 43
0.00000001
 40
0.0
 40
0.0
 40
0.0
 40
0.0
 40
0.1760559916274613
 40
0.4959220401352875
 40
0.7479596069232571
 40
1.0
 40
1.0
 40
1.0
 40
1.0
 10
868.8332878172021
 20
739.964003634846
 30
0.0
 10
869.2102968905804
 20
740.0141843539891
 30
0.0
 10
870.2722721581695
 20
740.1555355479061
 30
0.0
 10
871.5886546543529
 20
741.2320423957179
 30
0.0
 10
872.6025158117326
 20
742.7418376221137
 30
0.0
 10
872.7921713883717
 20
743.8399787969814
 30
0.0
 10
872.8869997083764
 20
744.3890524629708
 30
0.0
  0
SPLINE
  5
3DF
330
1F
100
AcDbEntity
  8
0
  6
PHANTOM
 62
     8
370
     0
100
AcDbSpline
210
0.0
220
0.0
230
1.0
 70
     8
 71
     3
 72
    11
 73
     7
 74
     0
 42
0.00000001
 43
0.00000001
 40
0.0
 40
0.0
 40
0.0
 40
0.0
 40
0.2796555788567152
 40
0.5592991985271298
 40
0.7796495959321673
 40
1.0
 40
1.0
 40
1.0
 40
1.0
 10
872.8869997083764
 20
772.8279782060738
 30
0.0
 10
872.7478393919836
 20
773.5240337575895
 30
0.0
 10
872.4695247102472
 20
774.9161150945134
 30
0.0
 10
871.1356234996017
 20
776.4214086435912
 30
0.0
 10
869.5559669550503
 20
777.3025789203274
 30
0.0
 10
868.4712798867147
 20
777.3907404401739
 30
0.0
 10
867.9289363443474
 20
777.4348212007637
 30
0.0
  0
SPLINE
  5
3E0
330
1F
100
AcDbEntity
  8
0
  6
PHANTOM
 62
     8
370
     0
100
AcDbSpline
210
0.0
220
0.0
230
1.0
 70
     8
 71
     3
 72
    15
 73
    11
 74
     0
 42
0.00000001
 43
0.00000001
 40
0.0
 40
0.0
 40
0.0
 40
0.0
 40
0.1249310053700643
 40
0.2501939922584539
 40
0.3747936281203365
 40
0.5001584907713333
 40
0.6247796472267868
 40
0.7500595516258058
 40
0.8750626905383075
 40
1.0
 40
1.0
 40
1.0
 40
1.0
 10
872.8869997083764
 20
772.8279782060738
 30
0.0
 10
872.6919209775236
 20
772.7735269431178
 30
0.0
 10
872.3012451294253
 20
772.6644797228366
 30
0.0
 10
871.7672647894847
 20
771.8209514599514
 30
0.0
 10
871.2929944779273
 20
770.5085227875874
 30
0.0
 10
870.8947542874279
 20
768.7299711195247
 30
0.0
 10
870.5785445660779
 20
766.5605275499303
 30
0.0
 10
870.352402238485
 20
764.0862742974592
 30
0.0
 10
870.2101623639859
 20
761.3995499411368
 30
0.0
 10
870.1925726145297
 20
759.5386570926414
 30
0.0
 10
870.1837800562005
 20
758.6084557298777
 30
0.0
  0
SPLINE
  5
3E1
330
1F
100
AcDbEntity
  8
0
  6
PHANTOM
 62
     8
370
     0
100
AcDbSpline
210
0.0
220
0.0
230
1.0
 70
     8
 71
     3
 72
    15
 73
    11
 74
     0
 42
0.00000001
 43
0.00000001
 40
0.0
 40
0.0
 40
0.0
 40
0.0
 40
0.1256428967416188
 40
0.2501866089924852
 40
0.3753329487951844
 40
0.5002530260829461
 40
0.6250134974933079
 40
0.7502418138236411
 40
0.8747963346426096
 40
1.0
 40
1.0
 40
1.0
 40
1.0
 10
872.8869997083764
 20
744.3890524629708
 30
0.0
 10
872.6908155007915
 20
744.4440758647912
 30
0.0
 10
872.3001633994277
 20
744.5536412972482
 30
0.0
 10
871.7656103901083
 20
745.3996756932648
 30
0.0
 10
871.2922527452442
 20
746.7111077064557
 30
0.0
 10
870.8939648033931
 20
748.4917060910714
 30
0.0
 10
870.5781540303763
 20
750.6596154305794
 30
0.0
 10
870.3524285912896
 20
753.1318981030863
 30
0.0
 10
870.2102248093574
 20
755.8167106648157
 30
0.0
 10
870.1926102345539
 20
757.6762629922449
 30
0.0
 10
870.1837800562005
 20
758.6084557298775
 30
0.0
  0
SPLINE
  5
3E2
330
1F
100
AcDbEntity
  8
0
  6
PHANTOM
 62
     8
370
     0
100
AcDbSpline
210
0.0
220
0.0
230
1.0
 70
     8
 71
     3
 72
    15
 73
    11
 74
     0
 42
0.00000001
 43
0.00000001
 40
0.0
 40
0.0
 40
0.0
 40
0.0
 40
0.1289802637853417
 40
0.2545054221462907
 40
0.3765753957752869
 40
0.4951901347229151
 40
0.610349693939596
 40
0.7220545884065454
 40
0.8450670870517825
 40
1.0
 40
1.0
 40
1.0
 40
1.0
 10
872.8869997083764
 20
744.3890524629708
 30
0.0
 10
873.6751296164125
 20
744.3826896682895
 30
0.0
 10
875.2302771177747
 20
744.3701345245888
 30
0.0
 10
877.152101794123
 20
744.3976570297692
 30
0.0
 10
878.7583332824734
 20
744.4564588063032
 30
0.0
 10
880.0436979546105
 20
744.5471016097465
 30
0.0
 10
881.0420680555968
 20
744.6657643226504
 30
0.0
 10
881.7888549862129
 20
744.8186291730019
 30
0.0
 10
882.3890243215153
 20
745.0176111785028
 30
0.0
 10
882.3977685834196
 20
745.2112846677086
 30
0.0
 10
882.4026428281884
 20
745.3192425493355
 30
0.0
  0
SPLINE
  5
3E3
330
1F
100
AcDbEntity
  8
0
  6
PHANTOM
 62
     8
370
     0
100
AcDbSpline
210
0.0
220
0.0
230
1.0
 70
     8
 71
     3
 72
    14
 73
    10
 74
     0
 42
0.00000001
 43
0.00000001
 40
0.0
 40
0.0
 40
0.0
 40
0.0
 40
0.0920634396347792
 40
0.2185301616134593
 40
0.3333840740762872
 40
0.4902393490178813
 40
0.6536270171512226
 40
0.8235472834965555
 40
1.0
 40
1.0
 40
1.0
 40
1.0
 10
882.4814401685815
 20
771.9074440721627
 30
0.0
 10
882.4723564447492
 20
771.9708099297713
 30
0.0
 10
882.4507944908944
 20
772.121220898109
 30
0.0
 10
882.079598530133
 20
772.3090263432995
 30
0.0
 10
881.3708113621019
 20
772.5006776570629
 30
0.0
 10
880.2137799108887
 20
772.6622191426349
 30
0.0
 10
878.4093280153126
 20
772.7832338265674
 30
0.0
 10
876.0375642578119
 20
772.8482920841775
 30
0.0
 10
873.9503094767298
 20
772.8348341027491
 30
0.0
 10
872.8869997083764
 20
772.8279782060738
 30
0.0
  0
SPLINE
  5
3E4
330
1F
100
AcDbEntity
  8
0
  6
PHANTOM
 62
     8
370
     0
100
AcDbSpline
210
0.0
220
0.0
230
1.0
 70
     8
 71
     3
 72
     9
 73
     5
 74
     0
 42
0.00000001
 43
0.00000001
 40
0.0
 40
0.0
 40
0.0
 40
0.0
 40
0.4981408105116661
 40
1.0
 40
1.0
 40
1.0
 40
1.0
 10
830.3337536871056
 20
746.9881726030465
 30
0.0
 10
833.022675128096
 20
747.0613528529065
 30
0.0
 10
838.4205895014001
 20
747.2082596076147
 30
0.0
 10
843.777946446383
 20
747.2434047527674
 30
0.0
 10
846.466585260592
 20
747.2610426668282
 30
0.0
  0
SPLINE
  5
3E5
330
1F
100
AcDbEntity
  8
0
  6
PHANTOM
 62
     8
370
     0
100
AcDbSpline
210
0.0
220
0.0
230
1.0
 70
     8
 71
     3
 72
     9
 73
     5
 74
     0
 42
0.00000001
 43
0.00000001
 40
0.0
 40
0.0
 40
0.0
 40
0.0
 40
0.4930703409312965
 40
1.0
 40
1.0
 40
1.0
 40
1.0
 10
827.4395607530694
 20
746.0811091188546
 30
0.0
 10
827.8885815309659
 20
746.3189739696116
 30
0.0
 10
828.7992442511134
 20
746.8013896231429
 30
0.0
 10
829.8175462181346
 20
746.9253389918342
 30
0.0
 10
830.3337536871056
 20
746.9881726030465
 30
0.0
  0
SPLINE
  5
3E6
330
1F
100
AcDbEntity
  8
0
  6
PHANTOM
 62
     8
370
     0
100
AcDbSpline
210
0.0
220
0.0
230
1.0
 70
     8
 71
     3
 72
     9
 73
     5
 74
     0
 42
0.00000001
 43
0.00000001
 40
0.0
 40
0.0
 40
0.0
 40
0.0
 40
0.4988220387490221
 40
0.9999999999999999
 40
0.9999999999999999
 40
0.9999999999999999
 40
0.9999999999999999
 10
827.9665850221734
 20
758.6084557298775
 30
0.0
 10
827.8888210849007
 20
756.5063037516597
 30
0.0
 10
827.7329259334598
 20
752.292071390376
 30
0.0
 10
827.5375026139316
 20
748.1546790013045
 30
0.0
 10
827.4395607530694
 20
746.0811091188546
 30
0.0
  0
SPLINE
  5
3E7
330
1F
100
AcDbEntity
  8
0
  6
PHANTOM
 62
     8
370
     0
100
AcDbSpline
210
0.0
220
0.0
230
1.0
 70
     8
 71
     3
 72
     9
 73
     5
 74
     0
 42
0.00000001
 43
0.00000001
 40
0.0
 40
0.0
 40
0.0
 40
0.0
 40
0.5014010279960087
 40
1.0
 40
1.0
 40
1.0
 40
1.0
 10
827.4395607530694
 20
771.13592155019
 30
0.0
 10
827.5375455808642
 20
769.0614025939293
 30
0.0
 10
827.7329676528658
 20
764.9239580327329
 30
0.0
 10
827.8888581703904
 20
760.7096869563219
 30
0.0
 10
827.9665850221734
 20
758.6084557298775
 30
0.0
  0
SPLINE
  5
3E8
330
1F
100
AcDbEntity
  8
0
  6
PHANTOM
 62
     8
370
     0
100
AcDbSpline
210
0.0
220
0.0
230
1.0
 70
     8
 71
     3
 72
     9
 73
     5
 74
     0
 42
0.00000001
 43
0.00000001
 40
0.0
 40
0.0
 40
0.0
 40
0.0
 40
0.5069214733072699
 40
1.0
 40
1.0
 40
1.0
 40
1.0
 10
830.3337536871056
 20
770.2287388567086
 30
0.0
 10
829.8175424607061
 20
770.2915643913659
 30
0.0
 10
828.7992166379086
 20
770.4154998290331
 30
0.0
 10
827.8885774045851
 20
770.8980074187397
 30
0.0
 10
827.4395607530694
 20
771.13592155019
 30
0.0
  0
SPLINE
  5
3E9
330
1F
100
AcDbEntity
  8
0
  6
PHANTOM
 62
     8
370
     0
100
AcDbSpline
210
0.0
220
0.0
230
1.0
 70
     8
 71
     3
 72
     9
 73
     5
 74
     0
 42
0.00000001
 43
0.00000001
 40
0.0
 40
0.0
 40
0.0
 40
0.0
 40
0.501859275840002
 40
1.0
 40
1.0
 40
1.0
 40
1.0
 10
846.466585260592
 20
769.9559880022164
 30
0.0
 10
843.7779466814752
 20
769.9736359545599
 30
0.0
 10
838.4205911267402
 20
770.0088010958528
 30
0.0
 10
833.0226753573996
 20
770.1556082397407
 30
0.0
 10
830.3337536871056
 20
770.2287388567086
 30
0.0
  0
LINE
  5
3EA
330
1F
100
AcDbEntity
  8
0
  6
PHANTOM
 62
     8
370
     0
100
AcDbLine
 10
812.4818645537
 20
734.0191555742
 30
0.0
 11
812.4809406817
 21
731.2829447512
 31
0.0
  0
LINE
  5
3EB
330
1F
100
AcDbEntity
  8
0
  6
PHANTOM
 62
     8
370
     0
100
AcDbLine
 10
812.4665759623
 20
731.2828255419
 30
0.0
 11
812.4809406817
 21
731.2829447512
 31
0.0
  0
SPLINE
  5
3EC
330
1F
100
AcDbEntity
  8
0
  6
PHANTOM
 62
     8
370
     0
100
AcDbSpline
210
0.0
220
0.0
230
1.0
 70
     8
 71
     3
 72
    11
 73
     7
 74
     0
 42
0.00000001
 43
0.00000001
 40
0.0
 40
0.0
 40
0.0
 40
0.0
 40
0.2500437505973929
 40
0.5000074230525555
 40
0.7500082201211005
 40
1.0
 40
1.0
 40
1.0
 40
1.0
 10
811.966582399569
 20
731.4540100816841
 30
0.0
 10
811.9740925074896
 20
731.4315465320938
 30
0.0
 10
811.9891103181697
 20
731.3866266270102
 30
0.0
 10
812.1047702024973
 20
731.330196718217
 30
0.0
 10
812.2700292764321
 20
731.2906522895684
 30
0.0
 10
812.401061188027
 20
731.2854344264148
 30
0.0
 10
812.4665759622674
 20
731.2828255418892
 30
0.0
  0
SPLINE
  5
3ED
330
1F
100
AcDbEntity
  8
0
  6
PHANTOM
 62
     8
370
     0
100
AcDbSpline
210
0.0
220
0.0
230
1.0
 70
    24
 71
     3
 72
    15
 73
    11
 74
     0
 42
0.00000001
 43
0.00000001
 40
0.0
 40
0.0
 40
0.0
 40
0.0
 40
0.1250157962192062
 40
0.2500003952349272
 40
0.3750223624153377
 40
0.4999966718608185
 40
0.62501190656303
 40
0.7499986354042366
 40
0.8749963964942175
 40
0.9999999999999999
 40
0.9999999999999999
 40
0.9999999999999999
 40
0.9999999999999999
 10
812.4818645536523
 20
734.0191555742379
 30
0.0
 10
812.4484549220213
 20
734.0191555742381
 30
0.0
 10
812.3816439960021
 20
734.0191555742377
 30
0.0
 10
812.2846619276601
 20
734.0191555742383
 30
0.0
 10
812.1949695440863
 20
734.0191555742377
 30
0.0
 10
812.1161705310603
 20
734.0191555742385
 30
0.0
 10
812.0512173942676
 20
734.0191555742379
 30
0.0
 10
812.0032947196529
 20
734.0191555742379
 30
0.0
 10
811.9723792586734
 20
734.0191555742377
 30
0.0
 10
811.9685147160413
 20
734.0191555742381
 30
0.0
 10
811.966582399569
 20
734.0191555742379
 30
0.0
  0
LINE
  5
3EE
330
1F
100
AcDbEntity
  8
0
  6
PHANTOM
 62
     8
370
     0
100
AcDbLine
 10
812.4809406817
 20
785.9340859179
 30
0.0
 11
812.4818645537
 21
783.1978750948
 31
0.0
  0
SPLINE
  5
3EF
330
1F
100
AcDbEntity
  8
0
  6
PHANTOM
 62
     8
370
     0
100
AcDbSpline
210
0.0
220
0.0
230
1.0
 70
    24
 71
     3
 72
    15
 73
    11
 74
     0
 42
0.00000001
 43
0.00000001
 40
0.0
 40
0.0
 40
0.0
 40
0.0
 40
0.1250157962192062
 40
0.2500003952349272
 40
0.3750223624153377
 40
0.4999966718608185
 40
0.62501190656303
 40
0.7499986354042366
 40
0.8749963964942175
 40
0.9999999999999999
 40
0.9999999999999999
 40
0.9999999999999999
 40
0.9999999999999999
 10
812.4818645536523
 20
783.1978750948067
 30
0.0
 10
812.4484549220213
 20
783.1978750948067
 30
0.0
 10
812.3816439960021
 20
783.1978750948066
 30
0.0
 10
812.2846619276601
 20
783.1978750948072
 30
0.0
 10
812.1949695440863
 20
783.1978750948067
 30
0.0
 10
812.1161705310603
 20
783.1978750948074
 30
0.0
 10
812.0512173942676
 20
783.1978750948067
 30
0.0
 10
812.0032947196529
 20
783.1978750948067
 30
0.0
 10
811.9723792586734
 20
783.1978750948067
 30
0.0
 10
811.9685147160413
 20
783.1978750948072
 30
0.0
 10
811.966582399569
 20
783.1978750948067
 30
0.0
  0
SPLINE
  5
3F0
330
1F
100
AcDbEntity
  8
0
  6
PHANTOM
 62
     8
370
     0
100
AcDbSpline
210
0.0
220
0.0
230
1.0
 70
     8
 71
     3
 72
    11
 73
     7
 74
     0
 42
0.00000001
 43
0.00000001
 40
0.0
 40
0.0
 40
0.0
 40
0.0
 40
0.2500201210202743
 40
0.499999832095062
 40
0.7499860736028401
 40
1.0
 40
1.0
 40
1.0
 40
1.0
 10
812.4809406816582
 20
785.9340859178658
 30
0.0
 10
812.4140247216627
 20
785.9320308610236
 30
0.0
 10
812.2802036170824
 20
785.9279210794919
 30
0.0
 10
812.109686358917
 20
785.8886584342575
 30
0.0
 10
811.989988939145
 20
785.8315639326561
 30
0.0
 10
811.9743848674254
 20
785.7858692124946
 30
0.0
 10
811.966582399569
 20
785.7630205873604
 30
0.0
  0
LINE
  5
3F1
330
1F
100
AcDbEntity
  8
0
  6
PHANTOM
 62
     8
370
     0
100
AcDbLine
 10
812.4818645537
 20
734.0191555742
 30
0.0
 11
812.4818645537
 21
783.1978750948
 31
0.0
  0
LINE
  5
3F2
330
1F
100
AcDbEntity
  8
0
  6
PHANTOM
 62
     8
370
     0
100
AcDbLine
 10
812.4818645537
 20
783.1978750948
 30
0.0
 11
820.9489129603
 21
783.1978750948
 31
0.0
  0
LINE
  5
3F3
330
1F
100
AcDbEntity
  8
0
  6
PHANTOM
 62
     8
370
     0
100
AcDbLine
 10
820.9489129603
 20
783.1978750948
 30
0.0
 11
821.4125178873
 21
777.8986645464
 31
0.0
  0
LINE
  5
3F4
330
1F
100
AcDbEntity
  8
0
  6
PHANTOM
 62
     8
370
     0
100
AcDbLine
 10
821.4125178873
 20
777.8986645464
 30
0.0
 11
821.9044052183
 21
775.2922726397
 31
0.0
  0
LINE
  5
3F5
330
1F
100
AcDbEntity
  8
0
  6
PHANTOM
 62
     8
370
     0
100
AcDbLine
 10
821.9044052183
 20
775.2922726397
 30
0.0
 11
823.5258601725
 21
770.5112648729
 31
0.0
  0
SPLINE
  5
3F6
330
1F
100
AcDbEntity
  8
0
  6
PHANTOM
 62
     8
370
     0
100
AcDbSpline
210
0.0
220
0.0
230
1.0
 70
     8
 71
     3
 72
    10
 73
     6
 74
     0
 42
0.00000001
 43
0.00000001
 40
0.0
 40
0.0
 40
0.0
 40
0.0
 40
0.3262982930865118
 40
0.6632084931493114
 40
0.9999999999999999
 40
0.9999999999999999
 40
0.9999999999999999
 40
0.9999999999999999
 10
823.5258601724724
 20
770.5112648729439
 30
0.0
 10
823.9438152689669
 20
769.1932255668444
 30
0.0
 10
824.7933182410117
 20
766.5142815434447
 30
0.0
 10
826.3105849566285
 20
762.5562559511334
 30
0.0
 10
827.4146498386187
 20
759.9242345665398
 30
0.0
 10
827.9665850221734
 20
758.6084557298775
 30
0.0
  0
SPLINE
  5
3F7
330
1F
100
AcDbEntity
  8
0
  6
PHANTOM
 62
     8
370
     0
100
AcDbSpline
210
0.0
220
0.0
230
1.0
 70
     8
 71
     3
 72
    10
 73
     6
 74
     0
 42
0.00000001
 43
0.00000001
 40
0.0
 40
0.0
 40
0.0
 40
0.0
 40
0.3367313949286015
 40
0.6736824604191737
 40
1.0
 40
1.0
 40
1.0
 40
1.0
 10
827.9665850221734
 20
758.6084557298775
 30
0.0
 10
827.4147425985002
 20
757.2929140285778
 30
0.0
 10
826.3106977504614
 20
754.6609724173608
 30
0.0
 10
824.793394113904
 20
750.7029596722379
 30
0.0
 10
823.9438314217047
 20
748.0237666696552
 30
0.0
 10
823.5258601724724
 20
746.7056465868111
 30
0.0
  0
LINE
  5
3F8
330
1F
100
AcDbEntity
  8
0
  6
PHANTOM
 62
     8
370
     0
100
AcDbLine
 10
823.5258601725
 20
746.7056465868
 30
0.0
 11
821.9044052183
 21
741.9247580294
 31
0.0
  0
LINE
  5
3F9
330
1F
100
AcDbEntity
  8
0
  6
PHANTOM
 62
     8
370
     0
100
AcDbLine
 10
821.9044052183
 20
741.9247580294
 30
0.0
 11
821.4125178873
 21
739.3182469133
 31
0.0
  0
LINE
  5
3FA
330
1F
100
AcDbEntity
  8
0
  6
PHANTOM
 62
     8
370
     0
100
AcDbLine
 10
821.4125178873
 20
739.3182469133
 30
0.0
 11
820.9489129603
 21
734.0191555742
 31
0.0
  0
LINE
  5
3FB
330
1F
100
AcDbEntity
  8
0
  6
PHANTOM
 62
     8
370
     0
100
AcDbLine
 10
820.9489129603
 20
734.0191555742
 30
0.0
 11
812.4818645537
 21
734.0191555742
 31
0.0
  0
LINE
  5
3FC
330
1F
100
AcDbEntity
  8
0
  6
PHANTOM
 62
     8
370
     0
100
AcDbLine
 10
820.8499096453
 20
785.9340859179
 30
0.0
 11
812.4809406817
 21
785.9340859179
 31
0.0
  0
LINE
  5
3FD
330
1F
100
AcDbEntity
  8
0
  6
PHANTOM
 62
     8
370
     0
100
AcDbLine
 10
820.9489129603
 20
783.1978750948
 30
0.0
 11
820.8499096453
 21
785.9340859179
 31
0.0
  0
LINE
  5
3FE
330
1F
100
AcDbEntity
  8
0
  6
PHANTOM
 62
     8
370
     0
100
AcDbLine
 10
820.8499096453
 20
731.2829447512
 30
0.0
 11
820.9489129603
 21
734.0191555742
 31
0.0
  0
LINE
  5
3FF
330
1F
100
AcDbEntity
  8
0
  6
PHANTOM
 62
     8
370
     0
100
AcDbLine
 10
812.4809406817
 20
731.2829447512
 30
0.0
 11
820.8499096453
 21
731.2829447512
 31
0.0
  0
SPLINE
  5
400
330
1F
100
AcDbEntity
  8
0
  6
PHANTOM
 62
     8
370
     0
100
AcDbSpline
210
0.0
220
0.0
230
1.0
 70
     8
 71
     3
 72
    10
 73
     6
 74
     0
 42
0.00000001
 43
0.00000001
 40
0.0
 40
0.0
 40
0.0
 40
0.0
 40
0.0545218238965389
 40
0.4999945915133412
 40
1.0
 40
1.0
 40
1.0
 40
1.0
 10
826.1698924123864
 20
778.3260298494454
 30
0.0
 10
826.1710656850124
 20
778.3418524612226
 30
0.0
 10
826.1818252290893
 20
778.4869543625705
 30
0.0
 10
826.1927902904093
 20
778.7733704100781
 30
0.0
 10
826.1750644137363
 20
779.0476380527712
 30
0.0
 10
826.1656902849297
 20
779.1926813844796
 30
0.0
  0
SPLINE
  5
401
330
1F
100
AcDbEntity
  8
0
  6
PHANTOM
 62
     8
370
     0
100
AcDbSpline
210
0.0
220
0.0
230
1.0
 70
     8
 71
     3
 72
    11
 73
     7
 74
     0
 42
0.00000001
 43
0.00000001
 40
0.0
 40
0.0
 40
0.0
 40
0.0
 40
0.2499992300734171
 40
0.5000013500664343
 40
0.7499999574889987
 40
1.0
 40
1.0
 40
1.0
 40
1.0
 10
821.4125178873162
 20
777.8986645464058
 30
0.0
 10
821.98020487047
 20
777.9485687037486
 30
0.0
 10
823.1155853990766
 20
778.0483775953122
 30
0.0
 10
824.5877572555129
 20
778.1795800816961
 30
0.0
 10
825.7147202384591
 20
778.2818185185572
 30
0.0
 10
826.0181680640935
 20
778.3112927109504
 30
0.0
 10
826.1698924123864
 20
778.3260298494454
 30
0.0
  0
SPLINE
  5
402
330
1F
100
AcDbEntity
  8
0
  6
PHANTOM
 62
     8
370
     0
100
AcDbSpline
210
0.0
220
0.0
230
1.0
 70
     8
 71
     3
 72
    11
 73
     7
 74
     0
 42
0.00000001
 43
0.00000001
 40
0.0
 40
0.0
 40
0.0
 40
0.0
 40
0.2499986830864449
 40
0.4999992456080194
 40
0.7499995707309137
 40
1.0
 40
1.0
 40
1.0
 40
1.0
 10
825.7771574079613
 20
783.6337042574046
 30
0.0
 10
825.7053707631426
 20
783.6256887759505
 30
0.0
 10
825.5617969338288
 20
783.609657752784
 30
0.0
 10
824.4525876910556
 20
783.5081599283385
 30
0.0
 10
822.8615078765991
 20
783.3659942057376
 30
0.0
 10
821.5864446875637
 20
783.253914806232
 30
0.0
 10
820.9489129602532
 20
783.1978750948067
 30
0.0
  0
SPLINE
  5
403
330
1F
100
AcDbEntity
  8
0
  6
PHANTOM
 62
     8
370
     0
100
AcDbSpline
210
0.0
220
0.0
230
1.0
 70
     8
 71
     3
 72
    11
 73
     7
 74
     0
 42
0.00000001
 43
0.00000001
 40
0.0
 40
0.0
 40
0.0
 40
0.0
 40
0.2499981039849086
 40
0.5000005993435598
 40
0.749999582126484
 40
1.0
 40
1.0
 40
1.0
 40
1.0
 10
821.4125178873162
 20
739.3182469133492
 30
0.0
 10
821.9802056502585
 20
739.2683930664585
 30
0.0
 10
823.1155911479353
 20
739.1686844969631
 30
0.0
 10
824.5877565084063
 20
739.0374421378497
 30
0.0
 10
825.7147204252358
 20
738.9352142628641
 30
0.0
 10
826.0181681263525
 20
738.9057386622206
 30
0.0
 10
826.1698924123864
 20
738.8910008195992
 30
0.0
  0
SPLINE
  5
404
330
1F
100
AcDbEntity
  8
0
  6
PHANTOM
 62
     8
370
     0
100
AcDbSpline
210
0.0
220
0.0
230
1.0
 70
     8
 71
     3
 72
    11
 73
     7
 74
     0
 42
0.00000001
 43
0.00000001
 40
0.0
 40
0.0
 40
0.0
 40
0.0
 40
0.4999205368978042
 40
0.8439561415661323
 40
0.9454967426999153
 40
1.0
 40
1.0
 40
1.0
 40
1.0
 10
826.1656902849297
 20
738.0243492845652
 30
0.0
 10
826.1751600296247
 20
738.1693521687727
 30
0.0
 10
826.1911466687095
 20
738.4141432218283
 30
0.0
 10
826.1830553055443
 20
738.6852968241799
 30
0.0
 10
826.1744533439241
 20
738.8298775958242
 30
0.0
 10
826.1710730774563
 20
738.8751781626097
 30
0.0
 10
826.1698924123864
 20
738.8910008195992
 30
0.0
  0
SPLINE
  5
405
330
1F
100
AcDbEntity
  8
0
  6
PHANTOM
 62
     8
370
     0
100
AcDbSpline
210
0.0
220
0.0
230
1.0
 70
     8
 71
     3
 72
    11
 73
     7
 74
     0
 42
0.00000001
 43
0.00000001
 40
0.0
 40
0.0
 40
0.0
 40
0.0
 40
0.2500003387974417
 40
0.5000017110195107
 40
0.7500014073845679
 40
0.9999999999999999
 40
0.9999999999999999
 40
0.9999999999999999
 40
0.9999999999999999
 10
820.9489129602532
 20
734.0191555742379
 30
0.0
 10
821.5864455198398
 20
733.9631328176376
 30
0.0
 10
822.8615132743766
 20
733.8510870728568
 30
0.0
 10
824.4525806408815
 20
733.7086670175647
 30
0.0
 10
825.5617991876474
 20
733.6074237977592
 30
0.0
 10
825.705371440169
 20
733.5913588618588
 30
0.0
 10
825.7771574079613
 20
733.5833264116402
 30
0.0
  0
SPLINE
  5
406
330
1F
100
AcDbEntity
  8
0
  6
PHANTOM
 62
     8
370
     0
100
AcDbSpline
210
0.0
220
0.0
230
1.0
 70
     8
 71
     3
 72
    11
 73
     7
 74
     0
 42
0.00000001
 43
0.00000001
 40
0.0
 40
0.0
 40
0.0
 40
0.0
 40
0.2500024036568949
 40
0.5000019155148727
 40
0.7500039543584524
 40
1.0
 40
1.0
 40
1.0
 40
1.0
 10
820.8499096452813
 20
785.9340859178658
 30
0.0
 10
821.4763289881395
 20
785.9526944180595
 30
0.0
 10
822.7291604280106
 20
785.9899112032001
 30
0.0
 10
824.3047093967082
 20
785.730813807364
 30
0.0
 10
825.423612349978
 20
785.2801457351366
 30
0.0
 10
825.599466694569
 20
784.8665393341998
 30
0.0
 10
825.6873928129296
 20
784.6597386125679
 30
0.0
  0
SPLINE
  5
407
330
1F
100
AcDbEntity
  8
0
  6
PHANTOM
 62
     8
370
     0
100
AcDbSpline
210
0.0
220
0.0
230
1.0
 70
     8
 71
     3
 72
    11
 73
     7
 74
     0
 42
0.00000001
 43
0.00000001
 40
0.0
 40
0.0
 40
0.0
 40
0.0
 40
0.2500002261872383
 40
0.4999976760657523
 40
0.7499983845735689
 40
1.0
 40
1.0
 40
1.0
 40
1.0
 10
825.6873928129296
 20
732.5572920564766
 30
0.0
 10
825.5994713875884
 20
732.3504247140269
 30
0.0
 10
825.4236295132935
 20
731.9366923264353
 30
0.0
 10
824.3046886977074
 20
731.4863123926376
 30
0.0
 10
822.7291705645172
 20
731.2269167397823
 30
0.0
 10
821.4763307091723
 20
731.2642687247966
 30
0.0
 10
820.8499096452813
 20
731.2829447511788
 30
0.0
  0
LINE
  5
408
330
1F
100
AcDbEntity
  8
0
  6
PHANTOM
 62
     8
370
     0
100
AcDbLine
 10
826.1839293062
 20
740.1920510058
 30
0.0
 11
826.2029133856
 21
740.7516194109
 31
0.0
  0
LINE
  5
409
330
1F
100
AcDbEntity
  8
0
  6
PHANTOM
 62
     8
370
     0
100
AcDbLine
 10
826.1698924124
 20
738.8910008196
 30
0.0
 11
826.1839293062
 21
740.1920510058
 31
0.0
  0
SPLINE
  5
40A
330
1F
100
AcDbEntity
  8
0
  6
PHANTOM
 62
     8
370
     0
100
AcDbSpline
210
0.0
220
0.0
230
1.0
 70
     8
 71
     3
 72
    11
 73
     7
 74
     0
 42
0.00000001
 43
0.00000001
 40
0.0
 40
0.0
 40
0.0
 40
0.0
 40
0.2499987778710088
 40
0.4999989315577997
 40
0.7500034181784371
 40
1.0
 40
1.0
 40
1.0
 40
1.0
 10
821.9044052183251
 20
741.924758029377
 30
0.0
 10
822.3623126527284
 20
741.8020242434429
 30
0.0
 10
823.2781300415326
 20
741.5565559961352
 30
0.0
 10
824.5189206158595
 20
741.2196059682077
 30
0.0
 10
825.5629497798789
 20
740.9328883158202
 30
0.0
 10
825.9895944320428
 20
740.8120417423687
 30
0.0
 10
826.202913385592
 20
740.751619410908
 30
0.0
  0
LINE
  5
40B
330
1F
100
AcDbEntity
  8
0
  6
PHANTOM
 62
     8
370
     0
100
AcDbLine
 10
826.1839293062
 20
777.024860454
 30
0.0
 11
826.1698924124
 21
778.3260298494
 31
0.0
  0
LINE
  5
40C
330
1F
100
AcDbEntity
  8
0
  6
PHANTOM
 62
     8
370
     0
100
AcDbLine
 10
826.2029133856
 20
776.4654112581
 30
0.0
 11
826.1839293062
 21
777.024860454
 31
0.0
  0
SPLINE
  5
40D
330
1F
100
AcDbEntity
  8
0
  6
PHANTOM
 62
     8
370
     0
100
AcDbSpline
210
0.0
220
0.0
230
1.0
 70
     8
 71
     3
 72
    11
 73
     7
 74
     0
 42
0.00000001
 43
0.00000001
 40
0.0
 40
0.0
 40
0.0
 40
0.0
 40
0.249996581821563
 40
0.5000010684422004
 40
0.7500012221289912
 40
1.0
 40
1.0
 40
1.0
 40
1.0
 10
826.202913385592
 20
776.4654112581368
 30
0.0
 10
825.989594432043
 20
776.4049889266762
 30
0.0
 10
825.5629497798789
 20
776.2841423532241
 30
0.0
 10
824.5189206158597
 20
775.9974247008374
 30
0.0
 10
823.2781300415326
 20
775.6604746729083
 30
0.0
 10
822.3623126527284
 20
775.4150064256015
 30
0.0
 10
821.9044052183251
 20
775.2922726396675
 30
0.0
  0
SPLINE
  5
40E
330
1F
100
AcDbEntity
  8
0
  6
PHANTOM
 62
     8
370
     0
100
AcDbSpline
210
0.0
220
0.0
230
1.0
 70
     8
 71
     3
 72
     9
 73
     5
 74
     0
 42
0.00000001
 43
0.00000001
 40
0.0
 40
0.0
 40
0.0
 40
0.0
 40
0.5097032733028359
 40
1.0
 40
1.0
 40
1.0
 40
1.0
 10
826.202913385592
 20
740.7516194109078
 30
0.0
 10
826.2407796963067
 20
741.5784826281457
 30
0.0
 10
826.3150705880824
 20
743.2007269034859
 30
0.0
 10
826.4215102627342
 20
744.9534262537547
 30
0.0
 10
826.4736972868066
 20
745.8127690080757
 30
0.0
  0
SPLINE
  5
40F
330
1F
100
AcDbEntity
  8
0
  6
PHANTOM
 62
     8
370
     0
100
AcDbSpline
210
0.0
220
0.0
230
1.0
 70
     8
 71
     3
 72
     9
 73
     5
 74
     0
 42
0.00000001
 43
0.00000001
 40
0.0
 40
0.0
 40
0.0
 40
0.0
 40
0.4999958889310329
 40
0.9999999999999999
 40
0.9999999999999999
 40
0.9999999999999999
 40
0.9999999999999999
 10
823.5258601724724
 20
746.7056465868111
 30
0.0
 10
824.0653510185667
 20
746.5436008866424
 30
0.0
 10
825.1443415823645
 20
746.2195068215593
 30
0.0
 10
826.0305762897447
 20
745.9483490224023
 30
0.0
 10
826.4736972868066
 20
745.8127690080757
 30
0.0
  0
SPLINE
  5
410
330
1F
100
AcDbEntity
  8
0
  6
PHANTOM
 62
     8
370
     0
100
AcDbSpline
210
0.0
220
0.0
230
1.0
 70
     8
 71
     3
 72
     9
 73
     5
 74
     0
 42
0.00000001
 43
0.00000001
 40
0.0
 40
0.0
 40
0.0
 40
0.0
 40
0.4904487430514223
 40
1.0
 40
1.0
 40
1.0
 40
1.0
 10
826.4736972868066
 20
771.4041424516795
 30
0.0
 10
826.4215005836933
 20
772.2637707838611
 30
0.0
 10
826.3150741653307
 20
774.0165091573621
 30
0.0
 10
826.2407734224956
 20
775.638780736086
 30
0.0
 10
826.202913385592
 20
776.4654112581368
 30
0.0
  0
SPLINE
  5
411
330
1F
100
AcDbEntity
  8
0
  6
PHANTOM
 62
     8
370
     0
100
AcDbSpline
210
0.0
220
0.0
230
1.0
 70
     8
 71
     3
 72
     9
 73
     5
 74
     0
 42
0.00000001
 43
0.00000001
 40
0.0
 40
0.0
 40
0.0
 40
0.0
 40
0.5000041110689671
 40
0.9999999999999999
 40
0.9999999999999999
 40
0.9999999999999999
 40
0.9999999999999999
 10
826.4736972868066
 20
771.4041424516793
 30
0.0
 10
826.0305762897445
 20
771.2685624373528
 30
0.0
 10
825.1443415823645
 20
770.9974046381956
 30
0.0
 10
824.0653510185667
 20
770.6733105731128
 30
0.0
 10
823.5258601724724
 20
770.5112648729439
 30
0.0
  0
SPLINE
  5
412
330
1F
100
AcDbEntity
  8
0
  6
PHANTOM
 62
     8
370
     0
100
AcDbSpline
210
0.0
220
0.0
230
1.0
 70
     8
 71
     3
 72
     9
 73
     5
 74
     0
 42
0.00000001
 43
0.00000001
 40
0.0
 40
0.0
 40
0.0
 40
0.0
 40
0.5020255846518636
 40
1.0
 40
1.0
 40
1.0
 40
1.0
 10
826.4908038198571
 20
746.0092259172554
 30
0.0
 10
826.7066583601962
 20
748.1111447072473
 30
0.0
 10
827.1366255709087
 20
752.2980205443616
 30
0.0
 10
827.6906800612664
 20
756.5106660480895
 30
0.0
 10
827.9665850221734
 20
758.6084557298775
 30
0.0
  0
SPLINE
  5
413
330
1F
100
AcDbEntity
  8
0
  6
PHANTOM
 62
     8
370
     0
100
AcDbSpline
210
0.0
220
0.0
230
1.0
 70
     8
 71
     3
 72
     9
 73
     5
 74
     0
 42
0.00000001
 43
0.00000001
 40
0.0
 40
0.0
 40
0.0
 40
0.0
 40
0.5000288824601747
 40
0.9999999999999999
 40
0.9999999999999999
 40
0.9999999999999999
 40
0.9999999999999999
 10
826.4736972868066
 20
745.8127690080757
 30
0.0
 10
826.4765333915574
 20
745.8455108804698
 30
0.0
 10
826.482205273423
 20
745.9109908428132
 30
0.0
 10
826.4879377480909
 20
745.9764821534751
 30
0.0
 10
826.4908038198571
 20
746.0092259172557
 30
0.0
  0
SPLINE
  5
414
330
1F
100
AcDbEntity
  8
0
  6
PHANTOM
 62
     8
370
     0
100
AcDbSpline
210
0.0
220
0.0
230
1.0
 70
     8
 71
     3
 72
     9
 73
     5
 74
     0
 42
0.00000001
 43
0.00000001
 40
0.0
 40
0.0
 40
0.0
 40
0.0
 40
0.4977521132359952
 40
1.0
 40
1.0
 40
1.0
 40
1.0
 10
827.9665850221734
 20
758.6084557298775
 30
0.0
 10
827.6908132696075
 20
760.7053295284569
 30
0.0
 10
827.1367789516554
 20
764.9180164117865
 30
0.0
 10
826.7067732665154
 20
769.1049341604626
 30
0.0
 10
826.4908038198571
 20
771.2078047517891
 30
0.0
  0
SPLINE
  5
415
330
1F
100
AcDbEntity
  8
0
  6
PHANTOM
 62
     8
370
     0
100
AcDbSpline
210
0.0
220
0.0
230
1.0
 70
     8
 71
     3
 72
     9
 73
     5
 74
     0
 42
0.00000001
 43
0.00000001
 40
0.0
 40
0.0
 40
0.0
 40
0.0
 40
0.5002646987518977
 40
1.0
 40
1.0
 40
1.0
 40
1.0
 10
826.4908038198571
 20
771.2078047517891
 30
0.0
 10
826.4879385800714
 20
771.2405488437171
 30
0.0
 10
826.4822111325965
 20
771.3060023766358
 30
0.0
 10
826.4765342336244
 20
771.3714406409498
 30
0.0
 10
826.4736972868066
 20
771.4041424516793
 30
0.0
  0
SPLINE
  5
416
330
1F
100
AcDbEntity
  8
0
  6
PHANTOM
 62
     8
370
     0
100
AcDbSpline
210
0.0
220
0.0
230
1.0
 70
     8
 71
     3
 72
     9
 73
     5
 74
     0
 42
0.00000001
 43
0.00000001
 40
0.0
 40
0.0
 40
0.0
 40
0.0
 40
0.5596873054873643
 40
1.0
 40
1.0
 40
1.0
 40
1.0
 10
826.4908038198571
 20
771.2078047517894
 30
0.0
 10
826.6543588111102
 20
771.1870169915846
 30
0.0
 10
826.9465844693476
 20
771.1498752519
 30
0.0
 10
827.2888547871751
 20
771.1401872849999
 30
0.0
 10
827.4395607530694
 20
771.13592155019
 30
0.0
  0
SPLINE
  5
417
330
1F
100
AcDbEntity
  8
0
  6
PHANTOM
 62
     8
370
     0
100
AcDbSpline
210
0.0
220
0.0
230
1.0
 70
     8
 71
     3
 72
     9
 73
     5
 74
     0
 42
0.00000001
 43
0.00000001
 40
0.0
 40
0.0
 40
0.0
 40
0.0
 40
0.5596738872423233
 40
1.0
 40
1.0
 40
1.0
 40
1.0
 10
827.4395607530694
 20
746.0811091188546
 30
0.0
 10
827.2480896586327
 20
746.0749440168131
 30
0.0
 10
826.9059777631143
 20
746.0639284911979
 30
0.0
 10
826.6177278039004
 20
746.0259491936915
 30
0.0
 10
826.4908038198571
 20
746.0092259172554
 30
0.0
  0
SPLINE
  5
418
330
1F
100
AcDbEntity
  8
0
  6
PHANTOM
 62
     8
370
     0
100
AcDbSpline
210
0.0
220
0.0
230
1.0
 70
     8
 71
     3
 72
    11
 73
     7
 74
     0
 42
0.00000001
 43
0.00000001
 40
0.0
 40
0.0
 40
0.0
 40
0.0
 40
0.2500022596251028
 40
0.4999728916093347
 40
0.7499778819107655
 40
1.0
 40
1.0
 40
1.0
 40
1.0
 10
812.4809406816582
 20
795.3185988191719
 30
0.0
 10
812.4140245020973
 20
795.3165906369882
 30
0.0
 10
812.2802006085026
 20
795.312574526674
 30
0.0
 10
812.109676853983
 20
795.2733210674825
 30
0.0
 10
811.9899919681214
 20
795.2160404137765
 30
0.0
 10
811.9743857672767
 20
795.1703696518344
 30
0.0
 10
811.966582399569
 20
795.1475334886666
 30
0.0
  0
LINE
  5
419
330
1F
100
AcDbEntity
  8
0
  6
PHANTOM
 62
     8
370
     0
100
AcDbLine
 10
812.4809406817
 20
795.3185988192
 30
0.0
 11
812.4809406817
 21
785.9340859179
 31
0.0
  0
LINE
  5
41A
330
1F
100
AcDbEntity
  8
0
  6
PHANTOM
 62
     8
370
     0
100
AcDbLine
 10
812.4809406817
 20
721.8984318499
 30
0.0
 11
812.4809406817
 21
731.2829447512
 31
0.0
  0
LINE
  5
41B
330
1F
100
AcDbEntity
  8
0
  6
PHANTOM
 62
     8
370
     0
100
AcDbLine
 10
812.4809406817
 20
721.8984318499
 30
0.0
 11
812.4665759623
 21
721.8983126406
 31
0.0
  0
SPLINE
  5
41C
330
1F
100
AcDbEntity
  8
0
  6
PHANTOM
 62
     8
370
     0
100
AcDbSpline
210
0.0
220
0.0
230
1.0
 70
     8
 71
     3
 72
    11
 73
     7
 74
     0
 42
0.00000001
 43
0.00000001
 40
0.0
 40
0.0
 40
0.0
 40
0.0
 40
0.2499848348710491
 40
0.4999789404777295
 40
0.7500042608191441
 40
0.9999999999999999
 40
0.9999999999999999
 40
0.9999999999999999
 40
0.9999999999999999
 10
812.4665759622674
 20
721.8983126405831
 30
0.0
 10
812.4010619172548
 20
721.9008748486464
 30
0.0
 10
812.2700313976286
 20
721.9059993597933
 30
0.0
 10
812.104746229
 20
721.9455323273285
 30
0.0
 10
811.989131355848
 20
722.0021668473499
 30
0.0
 10
811.97409842188
 20
722.0469751467929
 30
0.0
 10
811.966582399569
 20
722.0693779710884
 30
0.0
  0
LINE
  5
41D
330
1F
100
AcDbEntity
  8
0
  6
PHANTOM
 62
     8
370
     0
100
AcDbLine
 10
820.0288854658
 20
795.3185988192
 30
0.0
 11
812.4809406817
 21
795.3185988192
 31
0.0
  0
LINE
  5
41E
330
1F
100
AcDbEntity
  8
0
  6
PHANTOM
 62
     8
370
     0
100
AcDbLine
 10
820.0288854658
 20
795.3185988192
 30
0.0
 11
820.8499096453
 21
785.9340859179
 31
0.0
  0
LINE
  5
41F
330
1F
100
AcDbEntity
  8
0
  6
PHANTOM
 62
     8
370
     0
100
AcDbLine
 10
820.8499096453
 20
731.2829447512
 30
0.0
 11
820.0288854658
 21
721.8984318499
 31
0.0
  0
LINE
  5
420
330
1F
100
AcDbEntity
  8
0
  6
PHANTOM
 62
     8
370
     0
100
AcDbLine
 10
820.0288854658
 20
721.8984318499
 30
0.0
 11
812.4809406817
 21
721.8984318499
 31
0.0
  0
LWPOLYLINE
  5
421
330
1F
100
AcDbEntity
  8
0
  6
PHANTOM
 62
     8
370
     0
100
AcDbPolyline
 90
        9
 70
   128
 43
0.0
 10
824.8663686335
 20
794.0442515139
 10
824.7498713553
 20
794.3535996203
 10
824.46004377
 20
794.6364832644
 10
824.0072272837
 20
794.8826504473
 10
823.4075449526
 20
795.0833988909
 10
822.6823650419
 20
795.2315760378
 10
821.8574963629
 20
795.3220558886
 10
820.96238361
 20
795.3513813738
 10
820.0288854658
 20
795.3185988192
  0
LWPOLYLINE
  5
422
330
1F
100
AcDbEntity
  8
0
  6
PHANTOM
 62
     8
370
     0
100
AcDbPolyline
 90
        9
 70
   128
 43
0.0
 10
820.0288854658
 20
721.8984318499
 10
820.96238361
 20
721.8656492952
 10
821.8574963629
 20
721.8949747805
 10
822.6823650419
 20
721.985335422
 10
823.4075449526
 20
722.1336317782
 10
824.0072272837
 20
722.3343802218
 10
824.46004377
 20
722.5805474047
 10
824.7498713553
 20
722.8633118395
 10
824.8663686335
 20
723.1726599459
  0
SPLINE
  5
423
330
1F
100
AcDbEntity
  8
0
  6
PHANTOM
 62
     8
370
     0
100
AcDbSpline
210
0.0
220
0.0
230
1.0
 70
     8
 71
     3
 72
     9
 73
     5
 74
     0
 42
0.00000001
 43
0.00000001
 40
0.0
 40
0.0
 40
0.0
 40
0.0
 40
0.5596807599866774
 40
1.0
 40
1.0
 40
1.0
 40
1.0
 10
826.4736972868066
 20
745.8127690080757
 30
0.0
 10
826.6359640651501
 20
745.839271703376
 30
0.0
 10
826.9258914486597
 20
745.8866249397109
 30
0.0
 10
827.2670706511132
 20
745.9054501666893
 30
0.0
 10
827.4172984182458
 20
745.9137392763253
 30
0.0
  0
SPLINE
  5
424
330
1F
100
AcDbEntity
  8
0
  6
PHANTOM
 62
     8
370
     0
100
AcDbSpline
210
0.0
220
0.0
230
1.0
 70
     8
 71
     3
 72
     9
 73
     5
 74
     0
 42
0.00000001
 43
0.00000001
 40
0.0
 40
0.0
 40
0.0
 40
0.0
 40
0.4985296881518508
 40
1.0
 40
1.0
 40
1.0
 40
1.0
 10
827.4395607530694
 20
746.0811091188546
 30
0.0
 10
827.4355846798921
 20
746.0532923475727
 30
0.0
 10
827.4276090803005
 20
745.9974947251975
 30
0.0
 10
827.4207420367277
 20
745.9417124375213
 30
0.0
 10
827.4172984182458
 20
745.9137392763253
 30
0.0
  0
SPLINE
  5
425
330
1F
100
AcDbEntity
  8
0
  6
PHANTOM
 62
     8
370
     0
100
AcDbSpline
210
0.0
220
0.0
230
1.0
 70
     8
 71
     3
 72
     9
 73
     5
 74
     0
 42
0.00000001
 43
0.00000001
 40
0.0
 40
0.0
 40
0.0
 40
0.0
 40
0.5596703172849657
 40
1.0
 40
1.0
 40
1.0
 40
1.0
 10
826.4736972868066
 20
771.4041424516793
 30
0.0
 10
826.6359663793022
 20
771.377704648677
 30
0.0
 10
826.9259033073189
 20
771.3304664761566
 30
0.0
 10
827.2670718028543
 20
771.3115164447472
 30
0.0
 10
827.4172984182458
 20
771.3031721834298
 30
0.0
  0
SPLINE
  5
426
330
1F
100
AcDbEntity
  8
0
  6
PHANTOM
 62
     8
370
     0
100
AcDbSpline
210
0.0
220
0.0
230
1.0
 70
     8
 71
     3
 72
     9
 73
     5
 74
     0
 42
0.00000001
 43
0.00000001
 40
0.0
 40
0.0
 40
0.0
 40
0.0
 40
0.5011357183159272
 40
1.0
 40
1.0
 40
1.0
 40
1.0
 10
827.4172984182458
 20
771.3031721834298
 30
0.0
 10
827.4207434081371
 20
771.2752393376414
 30
0.0
 10
827.4276177732349
 20
771.2195002538607
 30
0.0
 10
827.4355857927416
 20
771.1637388986186
 30
0.0
 10
827.4395607530694
 20
771.13592155019
 30
0.0
  0
SPLINE
  5
427
330
1F
100
AcDbEntity
  8
0
  6
PHANTOM
 62
     8
370
     0
100
AcDbSpline
210
0.0
220
0.0
230
1.0
 70
     8
 71
     3
 72
     9
 73
     5
 74
     0
 42
0.00000001
 43
0.00000001
 40
0.0
 40
0.0
 40
0.0
 40
0.0
 40
0.5596511342105718
 40
1.0
 40
1.0
 40
1.0
 40
1.0
 10
826.202913385592
 20
740.7516194109078
 30
0.0
 10
826.3070677713908
 20
740.8637021626819
 30
0.0
 10
826.4931736852939
 20
741.0639746984137
 30
0.0
 10
826.7818030064357
 20
741.2099519979962
 30
0.0
 10
826.9089006006341
 20
741.2742329362984
 30
0.0
  0
SPLINE
  5
428
330
1F
100
AcDbEntity
  8
0
  6
PHANTOM
 62
     8
370
     0
100
AcDbSpline
210
0.0
220
0.0
230
1.0
 70
     8
 71
     3
 72
     9
 73
     5
 74
     0
 42
0.00000001
 43
0.00000001
 40
0.0
 40
0.0
 40
0.0
 40
0.0
 40
0.4911096245275578
 40
1.0
 40
1.0
 40
1.0
 40
1.0
 10
827.4172984182458
 20
745.9137392763253
 30
0.0
 10
827.3245851129942
 20
745.1114384996466
 30
0.0
 10
827.1358017933011
 20
743.4777894392148
 30
0.0
 10
826.9854255987442
 20
742.0174073341024
 30
0.0
 10
826.9089006006341
 20
741.2742329362984
 30
0.0
  0
SPLINE
  5
429
330
1F
100
AcDbEntity
  8
0
  6
PHANTOM
 62
     8
370
     0
100
AcDbSpline
210
0.0
220
0.0
230
1.0
 70
     8
 71
     3
 72
     9
 73
     5
 74
     0
 42
0.00000001
 43
0.00000001
 40
0.0
 40
0.0
 40
0.0
 40
0.0
 40
0.5596763591018269
 40
1.0
 40
1.0
 40
1.0
 40
1.0
 10
826.9089006006341
 20
775.9426785234566
 30
0.0
 10
826.7488433843299
 20
776.026214292767
 30
0.0
 10
826.4628616491696
 20
776.1754715696756
 30
0.0
 10
826.2823825844675
 20
776.3767733328546
 30
0.0
 10
826.202913385592
 20
776.4654112581368
 30
0.0
  0
SPLINE
  5
42A
330
1F
100
AcDbEntity
  8
0
  6
PHANTOM
 62
     8
370
     0
100
AcDbSpline
210
0.0
220
0.0
230
1.0
 70
     8
 71
     3
 72
     9
 73
     5
 74
     0
 42
0.00000001
 43
0.00000001
 40
0.0
 40
0.0
 40
0.0
 40
0.0
 40
0.5087397654986343
 40
1.0
 40
1.0
 40
1.0
 40
1.0
 10
826.9089006006341
 20
775.9426785234566
 30
0.0
 10
826.9854106560208
 20
775.1997363812982
 30
0.0
 10
827.1358019966932
 20
773.7393784683882
 30
0.0
 10
827.324566113807
 20
772.1057224313031
 30
0.0
 10
827.4172984182458
 20
771.3031721834298
 30
0.0
  0
SPLINE
  5
42B
330
1F
100
AcDbEntity
  8
0
  6
PHANTOM
 62
     8
370
     0
100
AcDbSpline
210
0.0
220
0.0
230
1.0
 70
     8
 71
     3
 72
    10
 73
     6
 74
     0
 42
0.00000001
 43
0.00000001
 40
0.0
 40
0.0
 40
0.0
 40
0.0
 40
0.0909090557896081
 40
0.4470751052025183
 40
1.0
 40
1.0
 40
1.0
 40
1.0
 10
830.600752693377
 20
773.0593634370919
 30
0.0
 10
830.4703725951446
 20
773.126080369406
 30
0.0
 10
829.8291856899751
 20
773.4541827710212
 30
0.0
 10
828.9374906452957
 20
774.7234030522911
 30
0.0
 10
828.2930064122243
 20
775.8476603799068
 30
0.0
 10
827.9010199129204
 20
776.5314532045479
 30
0.0
  0
SPLINE
  5
42C
330
1F
100
AcDbEntity
  8
0
  6
PHANTOM
 62
     8
370
     0
100
AcDbSpline
210
0.0
220
0.0
230
1.0
 70
     8
 71
     3
 72
     9
 73
     5
 74
     0
 42
0.00000001
 43
0.00000001
 40
0.0
 40
0.0
 40
0.0
 40
0.0
 40
0.4999910929967465
 40
1.0
 40
1.0
 40
1.0
 40
1.0
 10
830.3337536871056
 20
770.2287388567088
 30
0.0
 10
830.3926706200735
 20
770.7443525176266
 30
0.0
 10
830.5105065851398
 20
771.775598210081
 30
0.0
 10
830.5706703000457
 20
772.6314366127847
 30
0.0
 10
830.600752693377
 20
773.0593634370919
 30
0.0
  0
LINE
  5
42D
330
1F
100
AcDbEntity
  8
0
  6
PHANTOM
 62
     8
370
     0
100
AcDbLine
 10
826.8519483626
 20
776.4494372133
 30
0.0
 11
826.9089006006
 21
775.9426785235
 31
0.0
  0
SPLINE
  5
42E
330
1F
100
AcDbEntity
  8
0
  6
PHANTOM
 62
     8
370
     0
100
AcDbSpline
210
0.0
220
0.0
230
1.0
 70
     8
 71
     3
 72
     9
 73
     5
 74
     0
 42
0.00000001
 43
0.00000001
 40
0.0
 40
0.0
 40
0.0
 40
0.0
 40
0.5846294100821748
 40
1.0
 40
1.0
 40
1.0
 40
1.0
 10
827.9010199129204
 20
776.5314532045479
 30
0.0
 10
827.7280839378705
 20
776.4936694727995
 30
0.0
 10
827.4322794982243
 20
776.429040955833
 30
0.0
 10
827.0223641529473
 20
776.443535722744
 30
0.0
 10
826.8520973741631
 20
776.4495564226265
 30
0.0
  0
SPLINE
  5
42F
330
1F
100
AcDbEntity
  8
0
  6
PHANTOM
 62
     8
370
     0
100
AcDbSpline
210
0.0
220
0.0
230
1.0
 70
     8
 71
     3
 72
     9
 73
     5
 74
     0
 42
0.00000001
 43
0.00000001
 40
0.0
 40
0.0
 40
0.0
 40
0.0
 40
0.4152359490626859
 40
1.0
 40
1.0
 40
1.0
 40
1.0
 10
826.8520973741631
 20
740.7673550371285
 30
0.0
 10
827.0223099234184
 20
740.773425754296
 30
0.0
 10
827.432227585026
 20
740.7880456762481
 30
0.0
 10
827.7280396509403
 20
740.7233121148196
 30
0.0
 10
827.9010199129204
 20
740.6854582552071
 30
0.0
  0
LINE
  5
430
330
1F
100
AcDbEntity
  8
0
  6
PHANTOM
 62
     8
370
     0
100
AcDbLine
 10
826.9089006006
 20
741.2742329363
 30
0.0
 11
826.8519483626
 21
740.7674742464
 31
0.0
  0
SPLINE
  5
431
330
1F
100
AcDbEntity
  8
0
  6
PHANTOM
 62
     8
370
     0
100
AcDbSpline
210
0.0
220
0.0
230
1.0
 70
     8
 71
     3
 72
     9
 73
     5
 74
     0
 42
0.00000001
 43
0.00000001
 40
0.0
 40
0.0
 40
0.0
 40
0.0
 40
0.4999865253889677
 40
1.0
 40
1.0
 40
1.0
 40
1.0
 10
830.3337536871056
 20
746.9881726030467
 30
0.0
 10
830.3926111319422
 20
746.4727855354242
 30
0.0
 10
830.5103291940255
 20
745.4419836208701
 30
0.0
 10
830.5706109854108
 20
744.5857803862625
 30
0.0
 10
830.600752693377
 20
744.1576672319527
 30
0.0
  0
SPLINE
  5
432
330
1F
100
AcDbEntity
  8
0
  6
PHANTOM
 62
     8
370
     0
100
AcDbSpline
210
0.0
220
0.0
230
1.0
 70
     8
 71
     3
 72
    11
 73
     7
 74
     0
 42
0.00000001
 43
0.00000001
 40
0.0
 40
0.0
 40
0.0
 40
0.0
 40
0.5522759206556412
 40
0.8026890718975564
 40
0.909200722635226
 40
0.9999999999999999
 40
0.9999999999999999
 40
0.9999999999999999
 40
0.9999999999999999
 10
827.9010199129204
 20
740.6854582552071
 30
0.0
 10
828.2847561342169
 20
741.3841873708571
 30
0.0
 10
828.8424861742305
 20
742.399734499335
 30
0.0
 10
829.6805097412486
 20
743.4692894569756
 30
0.0
 10
830.1832364963791
 20
743.9514710516518
 30
0.0
 10
830.4691705131693
 20
744.0926835423387
 30
0.0
 10
830.600752693377
 20
744.1576672319527
 30
0.0
  0
LINE
  5
433
330
1F
100
AcDbEntity
  8
0
  6
PHANTOM
 62
     8
370
     0
100
AcDbLine
 10
830.6007526934
 20
773.0593634371
 30
0.0
 11
846.4665852606
 21
770.24328239
 31
0.0
  0
LINE
  5
434
330
1F
100
AcDbEntity
  8
0
  6
PHANTOM
 62
     8
370
     0
100
AcDbLine
 10
830.6007526934
 20
744.157667232
 30
0.0
 11
846.4665852606
 21
746.973748279
 31
0.0
  0
LINE
  5
435
330
1F
100
AcDbEntity
  8
0
  6
PHANTOM
 62
     8
370
     0
100
AcDbLine
 10
830.3688906252
 20
775.2270651583
 30
0.0
 11
830.6007526934
 21
773.0593634371
 31
0.0
  0
SPLINE
  5
436
330
1F
100
AcDbEntity
  8
0
  6
PHANTOM
 62
     8
370
     0
100
AcDbSpline
210
0.0
220
0.0
230
1.0
 70
     8
 71
     3
 72
     9
 73
     5
 74
     0
 42
0.00000001
 43
0.00000001
 40
0.0
 40
0.0
 40
0.0
 40
0.0
 40
0.5085007936008131
 40
1.0
 40
1.0
 40
1.0
 40
1.0
 10
827.9010199129204
 20
776.5314532045479
 30
0.0
 10
828.2724788351214
 20
776.2241425973955
 30
0.0
 10
829.0029770504156
 20
775.6197962305466
 30
0.0
 10
829.9187761128118
 20
775.3564832696162
 30
0.0
 10
830.3688906252007
 20
775.2270651582835
 30
0.0
  0
LINE
  5
437
330
1F
100
AcDbEntity
  8
0
  6
PHANTOM
 62
     8
370
     0
100
AcDbLine
 10
830.6007526934
 20
744.157667232
 30
0.0
 11
830.3688906252
 21
741.9899655108
 31
0.0
  0
SPLINE
  5
438
330
1F
100
AcDbEntity
  8
0
  6
PHANTOM
 62
     8
370
     0
100
AcDbSpline
210
0.0
220
0.0
230
1.0
 70
     8
 71
     3
 72
     9
 73
     5
 74
     0
 42
0.00000001
 43
0.00000001
 40
0.0
 40
0.0
 40
0.0
 40
0.0
 40
0.4946803374203604
 40
1.0
 40
1.0
 40
1.0
 40
1.0
 10
830.3688906252007
 20
741.9899655107613
 30
0.0
 10
829.915885605556
 20
741.8594550574995
 30
0.0
 10
829.0001325719769
 20
741.5956272006208
 30
0.0
 10
828.2699802419576
 20
740.990992206447
 30
0.0
 10
827.9010199129204
 20
740.6854582552071
 30
0.0
  0
LINE
  5
439
330
1F
100
AcDbEntity
  8
0
  6
PHANTOM
 62
     8
370
     0
100
AcDbLine
 10
830.5385850489
 20
742.0083237414
 30
0.0
 11
846.4665852606
 21
743.3704090838
 31
0.0
  0
LINE
  5
43A
330
1F
100
AcDbEntity
  8
0
  6
PHANTOM
 62
     8
370
     0
100
AcDbLine
 10
830.5385850489
 20
742.0083237414
 30
0.0
 11
830.3688906252
 21
741.9899655108
 31
0.0
  0
LINE
  5
43B
330
1F
100
AcDbEntity
  8
0
  6
PHANTOM
 62
     8
370
     0
100
AcDbLine
 10
830.3688906252
 20
775.2270651583
 30
0.0
 11
830.5385850489
 21
775.2087069277
 31
0.0
  0
LINE
  5
43C
330
1F
100
AcDbEntity
  8
0
  6
PHANTOM
 62
     8
370
     0
100
AcDbLine
 10
846.4665852606
 20
773.8466215853
 30
0.0
 11
830.5385850489
 21
775.2087069277
 31
0.0
  0
SPLINE
  5
43D
330
1F
100
AcDbEntity
  8
0
  6
PHANTOM
 62
     8
370
     0
100
AcDbSpline
210
0.0
220
0.0
230
1.0
 70
     8
 71
     3
 72
     9
 73
     5
 74
     0
 42
0.00000001
 43
0.00000001
 40
0.0
 40
0.0
 40
0.0
 40
0.0
 40
0.5000194736840838
 40
1.0
 40
1.0
 40
1.0
 40
1.0
 10
827.9010199129204
 20
776.5314532045479
 30
0.0
 10
827.9099688213994
 20
776.6861947700787
 30
0.0
 10
827.9278659413113
 20
776.9956658480563
 30
0.0
 10
827.8634165247696
 20
777.2182644379557
 30
0.0
 10
827.8311930715661
 20
777.3295593980904
 30
0.0
  0
LINE
  5
43E
330
1F
100
AcDbEntity
  8
0
  6
PHANTOM
 62
     8
370
     0
100
AcDbLine
 10
826.7797075331
 20
777.3960781817
 30
0.0
 11
826.8519483626
 21
776.4494372133
 31
0.0
  0
LINE
  5
43F
330
1F
100
AcDbEntity
  8
0
  6
PHANTOM
 62
     8
370
     0
100
AcDbLine
 10
826.577617985
 20
778.3451033358
 30
0.0
 11
826.7797075331
 21
777.3960781817
 31
0.0
  0
SPLINE
  5
440
330
1F
100
AcDbEntity
  8
0
  6
PHANTOM
 62
     8
370
     0
100
AcDbSpline
210
0.0
220
0.0
230
1.0
 70
     8
 71
     3
 72
     9
 73
     5
 74
     0
 42
0.00000001
 43
0.00000001
 40
0.0
 40
0.0
 40
0.0
 40
0.0
 40
0.5062802342964543
 40
1.0
 40
1.0
 40
1.0
 40
1.0
 10
825.9845219671349
 20
781.2637043718453
 30
0.0
 10
826.0392976508115
 20
780.7931768973829
 30
0.0
 10
826.1474900706731
 20
779.8637954153727
 30
0.0
 10
826.4354476408781
 20
778.8470772099445
 30
0.0
 10
826.5776179849724
 20
778.3451033357737
 30
0.0
  0
SPLINE
  5
441
330
1F
100
AcDbEntity
  8
0
  6
PHANTOM
 62
     8
370
     0
100
AcDbSpline
210
0.0
220
0.0
230
1.0
 70
     8
 71
     3
 72
    13
 73
     9
 74
     0
 42
0.00000001
 43
0.00000001
 40
0.0
 40
0.0
 40
0.0
 40
0.0
 40
0.0275901667997072
 40
0.109685557767095
 40
0.2242134760239403
 40
0.4655170290459537
 40
0.720655886569995
 40
1.0
 40
1.0
 40
1.0
 40
1.0
 10
827.8311930715661
 20
777.3295593980904
 30
0.0
 10
827.7981209358552
 20
777.3538731681415
 30
0.0
 10
827.6666416418611
 20
777.4505333097363
 30
0.0
 10
827.401874502589
 20
777.7140711484674
 30
0.0
 10
826.9694399396348
 20
778.2520498831673
 30
0.0
 10
826.5049857736461
 20
779.075768593364
 30
0.0
 10
826.1212759764278
 20
780.1809951123013
 30
0.0
 10
826.0314624391553
 20
780.892067123573
 30
0.0
 10
825.9845219671349
 20
781.2637043718453
 30
0.0
  0
SPLINE
  5
442
330
1F
100
AcDbEntity
  8
0
  6
PHANTOM
 62
     8
370
     0
100
AcDbSpline
210
0.0
220
0.0
230
1.0
 70
     8
 71
     3
 72
     9
 73
     5
 74
     0
 42
0.00000001
 43
0.00000001
 40
0.0
 40
0.0
 40
0.0
 40
0.0
 40
0.4937197657035456
 40
1.0
 40
1.0
 40
1.0
 40
1.0
 10
826.5776179849724
 20
738.8718081239817
 30
0.0
 10
826.4354476408781
 20
738.3698342498111
 30
0.0
 10
826.1474900706731
 20
737.3531160443824
 30
0.0
 10
826.0392976508115
 20
736.4237345623727
 30
0.0
 10
825.9845219671349
 20
735.9532070879097
 30
0.0
  0
LINE
  5
443
330
1F
100
AcDbEntity
  8
0
  6
PHANTOM
 62
     8
370
     0
100
AcDbLine
 10
826.7797075331
 20
739.8209524874
 30
0.0
 11
826.577617985
 21
738.871808124
 31
0.0
  0
LINE
  5
444
330
1F
100
AcDbEntity
  8
0
  6
PHANTOM
 62
     8
370
     0
100
AcDbLine
 10
826.8519483626
 20
740.7674742464
 30
0.0
 11
826.7797075331
 21
739.8209524874
 31
0.0
  0
SPLINE
  5
445
330
1F
100
AcDbEntity
  8
0
  6
PHANTOM
 62
     8
370
     0
100
AcDbSpline
210
0.0
220
0.0
230
1.0
 70
     8
 71
     3
 72
     9
 73
     5
 74
     0
 42
0.00000001
 43
0.00000001
 40
0.0
 40
0.0
 40
0.0
 40
0.0
 40
0.5000118655843021
 40
1.0
 40
1.0
 40
1.0
 40
1.0
 10
827.8311930715661
 20
739.8873520616646
 30
0.0
 10
827.8634170202455
 20
739.9987015510196
 30
0.0
 10
827.9278633882165
 20
740.2213952449467
 30
0.0
 10
827.9099675964566
 20
740.5307730324191
 30
0.0
 10
827.9010199129204
 20
740.6854582552071
 30
0.0
  0
SPLINE
  5
446
330
1F
100
AcDbEntity
  8
0
  6
PHANTOM
 62
     8
370
     0
100
AcDbSpline
210
0.0
220
0.0
230
1.0
 70
     8
 71
     3
 72
    14
 73
    10
 74
     0
 42
0.00000001
 43
0.00000001
 40
0.0
 40
0.0
 40
0.0
 40
0.0
 40
0.2792030476144229
 40
0.5343530834795781
 40
0.7755259638803634
 40
0.8900921314735433
 40
0.9453320109417592
 40
0.9724258776223298
 40
1.0
 40
1.0
 40
1.0
 40
1.0
 10
825.9845219671349
 20
735.95320708791
 30
0.0
 10
826.031390966237
 20
736.324679149349
 30
0.0
 10
826.1210912556994
 20
737.0356213942581
 30
0.0
 10
826.5053984311209
 20
738.1419622323981
 30
0.0
 10
826.9680000530434
 20
738.9624301709406
 30
0.0
 10
827.3771223348896
 20
739.4731711839502
 30
0.0
 10
827.6003426205207
 20
739.6984116939003
 30
0.0
 10
827.7327539425024
 20
739.8156041144695
 30
0.0
 10
827.7981884156281
 20
739.8632964210478
 30
0.0
 10
827.8311930715661
 20
739.8873520616646
 30
0.0
  0
SPLINE
  5
447
330
1F
100
AcDbEntity
  8
0
  6
PHANTOM
 62
     8
370
     0
100
AcDbSpline
210
0.0
220
0.0
230
1.0
 70
     8
 71
     3
 72
     9
 73
     5
 74
     0
 42
0.00000001
 43
0.00000001
 40
0.0
 40
0.0
 40
0.0
 40
0.0
 40
0.5596558916733607
 40
1.0
 40
1.0
 40
1.0
 40
1.0
 10
826.183929306231
 20
777.0248604539986
 30
0.0
 10
826.2782540240472
 20
776.9025317278604
 30
0.0
 10
826.4467945848089
 20
776.6839532621312
 30
0.0
 10
826.7280841567939
 20
776.521133802921
 30
0.0
 10
826.8519483625512
 20
776.449437213337
 30
0.0
  0
SPLINE
  5
448
330
1F
100
AcDbEntity
  8
0
  6
PHANTOM
 62
     8
370
     0
100
AcDbSpline
210
0.0
220
0.0
230
1.0
 70
     8
 71
     3
 72
     9
 73
     5
 74
     0
 42
0.00000001
 43
0.00000001
 40
0.0
 40
0.0
 40
0.0
 40
0.0
 40
0.5596258935249191
 40
1.0
 40
1.0
 40
1.0
 40
1.0
 10
826.8519483625512
 20
740.767474246418
 30
0.0
 10
826.696239740187
 20
740.6744507576826
 30
0.0
 10
826.418002753361
 20
740.5082263391707
 30
0.0
 10
826.2554939675687
 20
740.2887171630525
 30
0.0
 10
826.183929306231
 20
740.1920510057564
 30
0.0
  0
SPLINE
  5
449
330
1F
100
AcDbEntity
  8
0
  6
PHANTOM
 62
     8
370
     0
100
AcDbSpline
210
0.0
220
0.0
230
1.0
 70
     8
 71
     3
 72
     9
 73
     5
 74
     0
 42
0.00000001
 43
0.00000001
 40
0.0
 40
0.0
 40
0.0
 40
0.0
 40
0.5595242454899536
 40
1.0
 40
1.0
 40
1.0
 40
1.0
 10
826.1698924123864
 20
778.3260298494454
 30
0.0
 10
826.2348485138804
 20
778.1328892464916
 30
0.0
 10
826.3509401792861
 20
777.787702054854
 30
0.0
 10
826.6485969447366
 20
777.5158308539902
 30
0.0
 10
826.7797075330834
 20
777.3960781816597
 30
0.0
  0
SPLINE
  5
44A
330
1F
100
AcDbEntity
  8
0
  6
PHANTOM
 62
     8
370
     0
100
AcDbSpline
210
0.0
220
0.0
230
1.0
 70
     8
 71
     3
 72
     9
 73
     5
 74
     0
 42
0.00000001
 43
0.00000001
 40
0.0
 40
0.0
 40
0.0
 40
0.0
 40
0.5594598679596066
 40
1.0
 40
1.0
 40
1.0
 40
1.0
 10
826.1698924123864
 20
738.8910008195992
 30
0.0
 10
826.2348617717458
 20
739.0840871279054
 30
0.0
 10
826.3509904935364
 20
739.4292169921988
 30
0.0
 10
826.6485990293986
 20
739.701153529386
 30
0.0
 10
826.7797075330834
 20
739.8209524873848
 30
0.0
  0
ARC
  5
44B
330
1F
100
AcDbEntity
  8
0
  6
PHANTOM
 62
     8
370
     0
100
AcDbCircle
 10
797.0090055893
 20
721.2543981642
 30
0.0
 40
23.02888727048517
100
AcDbArc
 50
353.4024304389
 51
1.6025621812
  0
ARC
  5
44C
330
1F
100
AcDbEntity
  8
0
  6
PHANTOM
 62
     8
370
     0
100
AcDbCircle
 10
797.0055375345
 20
795.9624812377
 30
0.0
 40
23.03234973974392
100
AcDbArc
 50
358.3980552386
 51
6.5969521413
  0
SPLINE
  5
44D
330
1F
100
AcDbEntity
  8
0
  6
PHANTOM
 62
     8
370
     0
100
AcDbSpline
210
0.0
220
0.0
230
1.0
 70
     8
 71
     3
 72
    11
 73
     7
 74
     0
 42
0.00000001
 43
0.00000001
 40
0.0
 40
0.0
 40
0.0
 40
0.0
 40
0.1891368031401234
 40
0.428692889468469
 40
0.7255002330404648
 40
1.0
 40
1.0
 40
1.0
 40
1.0
 10
812.4689899503808
 20
718.7424851183052
 30
0.0
 10
812.4700927899711
 20
718.7824352189994
 30
0.0
 10
812.4725924594311
 20
718.8729851480275
 30
0.0
 10
812.4755232346546
 20
719.5305803453214
 30
0.0
 10
812.4791466022924
 20
720.5232888593
 30
0.0
 10
812.4803584277408
 20
721.4521403375975
 30
0.0
 10
812.4809406816582
 20
721.8984318498726
 30
0.0
  0
SPLINE
  5
44E
330
1F
100
AcDbEntity
  8
0
  6
PHANTOM
 62
     8
370
     0
100
AcDbSpline
210
0.0
220
0.0
230
1.0
 70
     8
 71
     3
 72
    11
 73
     7
 74
     0
 42
0.00000001
 43
0.00000001
 40
0.0
 40
0.0
 40
0.0
 40
0.0
 40
0.189129176272051
 40
0.4287029291901562
 40
0.725497575443592
 40
1.0
 40
1.0
 40
1.0
 40
1.0
 10
812.4689899503808
 20
798.4744263414498
 30
0.0
 10
812.4700928156043
 20
798.4345296071372
 30
0.0
 10
812.4725927025133
 20
798.3440948725175
 30
0.0
 10
812.4755229320181
 20
797.686292584797
 30
0.0
 10
812.4791467318018
 20
796.6937515132718
 30
0.0
 10
812.4803584590536
 20
795.7649016967854
 30
0.0
 10
812.4809406816582
 20
795.3185988191719
 30
0.0
  0
SPLINE
  5
44F
330
1F
100
AcDbEntity
  8
0
  6
PHANTOM
 62
     8
370
     0
100
AcDbSpline
210
0.0
220
0.0
230
1.0
 70
     8
 71
     3
 72
     9
 73
     5
 74
     0
 42
0.00000001
 43
0.00000001
 40
0.0
 40
0.0
 40
0.0
 40
0.0
 40
0.5596112705264312
 40
1.0
 40
1.0
 40
1.0
 40
1.0
 10
826.1656902849297
 20
738.024349284565
 30
0.0
 10
826.2000155574493
 20
738.1973600010183
 30
0.0
 10
826.2613532651178
 20
738.506522317014
 30
0.0
 10
826.4809222699172
 20
738.760124556113
 30
0.0
 10
826.5776179849724
 20
738.8718081239815
 30
0.0
  0
SPLINE
  5
450
330
1F
100
AcDbEntity
  8
0
  6
PHANTOM
 62
     8
370
     0
100
AcDbSpline
210
0.0
220
0.0
230
1.0
 70
     8
 71
     3
 72
     9
 73
     5
 74
     0
 42
0.00000001
 43
0.00000001
 40
0.0
 40
0.0
 40
0.0
 40
0.0
 40
0.5595626571001343
 40
1.0
 40
1.0
 40
1.0
 40
1.0
 10
826.5776179849724
 20
778.3451033357735
 30
0.0
 10
826.4577086470008
 20
778.4894520279939
 30
0.0
 10
826.2434174743319
 20
778.747419014155
 30
0.0
 10
826.1894566479306
 20
779.0565351117899
 30
0.0
 10
826.1656902849297
 20
779.1926813844796
 30
0.0
  0
SPLINE
  5
451
330
1F
100
AcDbEntity
  8
0
  6
PHANTOM
 62
     8
370
     0
100
AcDbSpline
210
0.0
220
0.0
230
1.0
 70
     8
 71
     3
 72
     9
 73
     5
 74
     0
 42
0.00000001
 43
0.00000001
 40
0.0
 40
0.0
 40
0.0
 40
0.0
 40
0.4930569084841374
 40
1.0
 40
1.0
 40
1.0
 40
1.0
 10
830.2600227415185
 20
776.471252513325
 30
0.0
 10
829.8152318300478
 20
776.5453421407693
 30
0.0
 10
828.9131231610138
 20
776.6956080150926
 30
0.0
 10
828.1951596920951
 20
777.1162950248189
 30
0.0
 10
827.8311930715661
 20
777.3295593980904
 30
0.0
  0
SPLINE
  5
452
330
1F
100
AcDbEntity
  8
0
  6
PHANTOM
 62
     8
370
     0
100
AcDbSpline
210
0.0
220
0.0
230
1.0
 70
     8
 71
     3
 72
     9
 73
     5
 74
     0
 42
0.00000001
 43
0.00000001
 40
0.0
 40
0.0
 40
0.0
 40
0.0
 40
0.5597629665219054
 40
0.9999999999999999
 40
0.9999999999999999
 40
0.9999999999999999
 40
0.9999999999999999
 10
830.3688906252007
 20
775.2270651582833
 30
0.0
 10
830.3613627422
 20
775.5289430235495
 30
0.0
 10
830.3479144016505
 20
776.0682389100604
 30
0.0
 10
830.2868885718123
 20
776.3480634069286
 30
0.0
 10
830.2600227415185
 20
776.4712525133248
 30
0.0
  0
SPLINE
  5
453
330
1F
100
AcDbEntity
  8
0
  6
PHANTOM
 62
     8
370
     0
100
AcDbSpline
210
0.0
220
0.0
230
1.0
 70
     8
 71
     3
 72
     9
 73
     5
 74
     0
 42
0.00000001
 43
0.00000001
 40
0.0
 40
0.0
 40
0.0
 40
0.0
 40
0.5597629810567375
 40
1.0
 40
1.0
 40
1.0
 40
1.0
 10
830.2600227415185
 20
740.7457781557198
 30
0.0
 10
830.2932089546089
 20
740.9092082811221
 30
0.0
 10
830.3524951421801
 20
741.2011713635937
 30
0.0
 10
830.3638790205312
 20
741.7488549301132
 30
0.0
 10
830.3688906252007
 20
741.9899655107613
 30
0.0
  0
SPLINE
  5
454
330
1F
100
AcDbEntity
  8
0
  6
PHANTOM
 62
     8
370
     0
100
AcDbSpline
210
0.0
220
0.0
230
1.0
 70
     8
 71
     3
 72
     9
 73
     5
 74
     0
 42
0.00000001
 43
0.00000001
 40
0.0
 40
0.0
 40
0.0
 40
0.0
 40
0.5037622253908454
 40
1.0
 40
1.0
 40
1.0
 40
1.0
 10
827.8311930715661
 20
739.8873520616646
 30
0.0
 10
828.1927125160742
 20
740.0993974546111
 30
0.0
 10
828.9103515653849
 20
740.520321021839
 30
0.0
 10
829.8123948094716
 20
740.6710037125898
 30
0.0
 10
830.2600227415185
 20
740.7457781557198
 30
0.0
  0
SPLINE
  5
455
330
1F
100
AcDbEntity
  8
0
  6
PHANTOM
 62
     8
370
     0
100
AcDbSpline
210
0.0
220
0.0
230
1.0
 70
     8
 71
     3
 72
     9
 73
     5
 74
     0
 42
0.00000001
 43
0.00000001
 40
0.0
 40
0.0
 40
0.0
 40
0.0
 40
0.5597700851143039
 40
1.0
 40
1.0
 40
1.0
 40
1.0
 10
830.5385850488763
 20
742.0083237413521
 30
0.0
 10
830.5131510400022
 20
741.7038028680811
 30
0.0
 10
830.4677145124876
 20
741.1597922441324
 30
0.0
 10
830.3769358297144
 20
740.876963534641
 30
0.0
 10
830.3369723379235
 20
740.7524538759346
 30
0.0
  0
LINE
  5
456
330
1F
100
AcDbEntity
  8
0
  6
PHANTOM
 62
     8
370
     0
100
AcDbLine
 10
830.2600227415
 20
740.7457781557
 30
0.0
 11
830.3369723379
 21
740.7524538759
 31
0.0
  0
LINE
  5
457
330
1F
100
AcDbEntity
  8
0
  6
PHANTOM
 62
     8
370
     0
100
AcDbLine
 10
830.3369723379
 20
776.4645767931
 30
0.0
 11
830.2600227415
 21
776.4712525133
 31
0.0
  0
SPLINE
  5
458
330
1F
100
AcDbEntity
  8
0
  6
PHANTOM
 62
     8
370
     0
100
AcDbSpline
210
0.0
220
0.0
230
1.0
 70
     8
 71
     3
 72
     9
 73
     5
 74
     0
 42
0.00000001
 43
0.00000001
 40
0.0
 40
0.0
 40
0.0
 40
0.0
 40
0.5597571515816278
 40
1.0
 40
1.0
 40
1.0
 40
1.0
 10
830.3369723379235
 20
776.4645767931099
 30
0.0
 10
830.386927771785
 20
776.2994103510066
 30
0.0
 10
830.4761726054069
 20
776.0043423172409
 30
0.0
 10
830.5195072718751
 20
775.4519109058149
 30
0.0
 10
830.5385850488763
 20
775.2087069276924
 30
0.0
  0
LINE
  5
459
330
1F
100
AcDbEntity
  8
0
  6
PHANTOM
 62
     8
370
     0
100
AcDbLine
 10
846.4665852606
 20
743.2051850084
 30
0.0
 11
830.3369723379
 21
740.7524538759
 31
0.0
  0
LINE
  5
45A
330
1F
100
AcDbEntity
  8
0
  6
PHANTOM
 62
     8
370
     0
100
AcDbLine
 10
830.3369723379
 20
776.4645767931
 30
0.0
 11
846.4665852606
 21
774.0117264513
 31
0.0
  0
SPLINE
  5
45B
330
1F
100
AcDbEntity
  8
0
  6
PHANTOM
 62
     8
370
     0
100
AcDbSpline
210
0.0
220
0.0
230
1.0
 70
     8
 71
     3
 72
     9
 73
     5
 74
     0
 42
0.00000001
 43
0.00000001
 40
0.0
 40
0.0
 40
0.0
 40
0.0
 40
0.5031947646762699
 40
1.0
 40
1.0
 40
1.0
 40
1.0
 10
830.3369723379235
 20
740.7524538759346
 30
0.0
 10
830.4423873929077
 20
740.2997962532074
 30
0.0
 10
830.6518789504203
 20
739.4002288202702
 30
0.0
 10
830.6813563762514
 20
739.2537094179412
 30
0.0
 10
830.6960009157281
 20
739.1809178117867
 30
0.0
  0
SPLINE
  5
45C
330
1F
100
AcDbEntity
  8
0
  6
PHANTOM
 62
     8
370
     0
100
AcDbSpline
210
0.0
220
0.0
230
1.0
 70
     8
 71
     3
 72
    10
 73
     6
 74
     0
 42
0.00000001
 43
0.00000001
 40
0.0
 40
0.0
 40
0.0
 40
0.0
 40
0.0002241096388413
 40
0.4972130627718301
 40
1.0
 40
1.0
 40
1.0
 40
1.0
 10
830.6960009157281
 20
778.0359936479683
 30
0.0
 10
830.6960108540973
 20
778.0360731497553
 30
0.0
 10
830.7180602715247
 20
778.2124570270144
 30
0.0
 10
830.6358378205587
 20
777.7080884702441
 30
0.0
 10
830.4369785791923
 20
776.8806801440473
 30
0.0
 10
830.3369723379235
 20
776.4645767931099
 30
0.0
  0
LINE
  5
45D
330
1F
100
AcDbEntity
  8
0
  6
PHANTOM
 62
     8
370
     0
100
AcDbLine
 10
774.7665785372
 20
754.9084378008
 30
0.0
 11
774.7665785372
 21
762.9084540133
 31
0.0
  0
LINE
  5
45E
330
1F
100
AcDbEntity
  8
0
  6
PHANTOM
 62
     8
370
     0
100
AcDbLine
 10
782.4665747702
 20
277.3084593538
 30
0.0
 11
771.4373014986
 21
277.3084593538
 31
0.0
  0
LINE
  5
45F
330
1F
100
AcDbEntity
  8
0
  6
PHANTOM
 62
     8
370
     0
100
AcDbLine
 10
764.9665914595
 20
291.8636751894
 30
0.0
 11
765.166594845
 21
291.7482805971
 31
0.0
  0
LINE
  5
460
330
1F
100
AcDbEntity
  8
0
  6
PHANTOM
 62
     8
370
     0
100
AcDbLine
 10
767.367555958
 20
295.5604744677
 30
0.0
 11
766.328319174
 21
296.160454822
 31
0.0
  0
LINE
  5
461
330
1F
100
AcDbEntity
  8
0
  6
PHANTOM
 62
     8
370
     0
100
AcDbLine
 10
770.4665802538
 20
265.4085112337
 30
0.0
 11
780.4666005194
 21
265.4085112337
 31
0.0
  0
LINE
  5
462
330
1F
100
AcDbEntity
  8
0
  6
PHANTOM
 62
     8
370
     0
100
AcDbLine
 10
802.466585499
 20
268.4085322146
 30
0.0
 11
802.466585499
 21
270.9084702257
 31
0.0
  0
LINE
  5
463
330
1F
100
AcDbEntity
  8
0
  6
PHANTOM
 62
     8
370
     0
100
AcDbLine
 10
782.4665747702
 20
309.2085076098
 30
0.0
 11
764.9665914595
 21
309.2085076098
 31
0.0
  0
LINE
  5
464
330
1F
100
AcDbEntity
  8
0
  6
PHANTOM
 62
     8
370
     0
100
AcDbLine
 10
767.4665890753
 20
233.4084463839
 30
0.0
 11
769.9665866911
 21
233.4084463839
 31
0.0
  0
LINE
  5
465
330
1F
100
AcDbEntity
  8
0
  6
PHANTOM
 62
     8
370
     0
100
AcDbLine
 10
767.6665924608
 20
262.9084540133
 30
0.0
 11
767.4665890753
 21
262.9084540133
 31
0.0
  0
LINE
  5
466
330
1F
100
AcDbEntity
  8
0
  6
PHANTOM
 62
     8
370
     0
100
AcDbLine
 10
802.466585499
 20
265.9084749941
 30
0.0
 11
802.466585499
 21
268.4085322146
 31
0.0
  0
LINE
  5
467
330
1F
100
AcDbEntity
  8
0
  6
PHANTOM
 62
     8
370
     0
100
AcDbLine
 10
766.4362631857
 20
-69.5346640821
 30
0.0
 11
764.9665914595
 21
-66.0703229185
 31
0.0
  0
LINE
  5
468
330
1F
100
AcDbEntity
  8
0
  6
PHANTOM
 62
     8
370
     0
100
AcDbLine
 10
764.9665914595
 20
-70.1807188269
 30
0.0
 11
766.4362631857
 21
-69.5346640821
 31
0.0
  0
ARC
  5
469
330
1F
100
AcDbEntity
  8
0
  6
PHANTOM
 62
     8
370
     0
100
AcDbCircle
 10
765.3120535619
 20
-70.2209549009
 30
0.0
 40
1.317134148929114
100
AcDbArc
 50
303.9535694185
 51
31.4026114697
  0
LINE
  5
46A
330
1F
100
AcDbEntity
  8
0
  6
PHANTOM
 62
     8
370
     0
100
AcDbLine
 10
767.8728245318
 20
-68.8719200369
 30
0.0
 11
764.9665914595
 21
-62.0213197943
 31
0.0
  0
ARC
  5
46B
330
1F
100
AcDbEntity
  8
0
  6
PHANTOM
 62
     8
370
     0
100
AcDbCircle
 10
759.345775407
 20
-52.2770367452
 30
0.0
 40
18.65745744311518
100
AcDbArc
 50
292.3358537734
 51
297.195732495
  0
ARC
  5
46C
330
1F
100
AcDbEntity
  8
0
  6
PHANTOM
 62
     8
370
     0
100
AcDbCircle
 10
766.4926200854
 20
-69.4575468657
 30
0.0
 40
1.499307538937483
100
AcDbArc
 50
352.4735111001
 51
22.9917263882
  0
LINE
  5
46D
330
1F
100
AcDbEntity
  8
0
  6
PHANTOM
 62
     8
370
     0
100
AcDbLine
 10
767.8728245318
 20
-68.8719200369
 30
0.0
 11
767.9758213579
 21
-68.0920528646
 31
0.0
  0
ARC
  5
46E
330
1F
100
AcDbEntity
  8
0
  6
PHANTOM
 62
     8
370
     0
100
AcDbCircle
 10
766.5950751771
 20
-68.6777532529
 30
0.0
 40
1.499834977846875
100
AcDbArc
 50
352.4790076896
 51
22.9862297987
  0
ARC
  5
46F
330
1F
100
AcDbEntity
  8
0
  6
PHANTOM
 62
     8
370
     0
100
AcDbCircle
 10
704.331627295
 20
-92.3323907405
 30
0.0
 40
68.10416593905794
100
AcDbArc
 50
20.8504725843
 51
23.093875847
  0
LINE
  5
470
330
1F
100
AcDbEntity
  8
0
  6
PHANTOM
 62
     8
370
     0
100
AcDbLine
 10
759.9665962278
 20
-269.5915149923
 30
0.0
 11
98.9665530741
 21
-269.5915149923
 31
0.0
  0
LINE
  5
471
330
1F
100
AcDbEntity
  8
0
  6
PHANTOM
 62
     8
370
     0
100
AcDbLine
 10
196.9666026651
 20
-304.6270655867
 30
0.0
 11
198.9665769159
 21
-304.6270655867
 31
0.0
  0
LINE
  5
472
330
1F
100
AcDbEntity
  8
0
  6
PHANTOM
 62
     8
370
     0
100
AcDbLine
 10
728.4165762484
 20
1131.4585161928
 30
0.0
 11
728.4165762484
 21
-265.5915068861
 31
0.0
  0
LINE
  5
473
330
1F
100
AcDbEntity
  8
0
  6
PHANTOM
 62
     8
370
     0
100
AcDbLine
 10
762.5165723383
 20
-263.1415175672
 30
0.0
 11
762.5165723383
 21
1131.6076470141
 31
0.0
  0
LINE
  5
474
330
1F
100
AcDbEntity
  8
0
  6
PHANTOM
 62
     8
370
     0
100
AcDbLine
 10
185.3665851175
 20
-358.5589277025
 30
0.0
 11
121.566607815
 21
-358.5589277025
 31
0.0
  0
LINE
  5
475
330
1F
100
AcDbEntity
  8
0
  6
PHANTOM
 62
     8
370
     0
100
AcDbLine
 10
185.3026889383
 20
-359.3314038988
 30
0.0
 11
121.6305039942
 21
-359.3314038988
 31
0.0
  0
LINE
  5
476
330
1F
100
AcDbEntity
  8
0
  6
PHANTOM
 62
     8
370
     0
100
AcDbLine
 10
694.3026624739
 20
-359.3314038988
 30
0.0
 11
630.630507332
 21
-359.3314038988
 31
0.0
  0
LINE
  5
477
330
1F
100
AcDbEntity
  8
0
  6
PHANTOM
 62
     8
370
     0
100
AcDbLine
 10
694.3665884554
 20
-358.5589277025
 30
0.0
 11
630.5666111528
 21
-358.5589277025
 31
0.0
  0
ENDSEC
  0
SECTION
  2
OBJECTS
  0
DICTIONARY
  5
C
330
0
100
AcDbDictionary
281
     1
  3
ACAD_GROUP
350
D
  3
ACAD_LAYOUT
350
1A
  3
ACAD_MATERIAL
350
3B
  3
ACAD_MLEADERSTYLE
350
479
  3
ACAD_MLINESTYLE
350
17
  3
ACAD_PLOTSETTINGS
350
19
  3
ACAD_PLOTSTYLENAME
350
E
  3
ACAD_TABLESTYLE
350
478
  3
ACAD_VISUALSTYLE
350
2A
  0
DICTIONARY
  5
D
102
{ACAD_REACTORS
330
C
102
}
330
C
100
AcDbDictionary
281
     1
  0
DICTIONARY
  5
1A
102
{ACAD_REACTORS
330
C
102
}
330
C
100
AcDbDictionary
281
     1
  3
Layout1
350
1E
  3
Layout2
350
26
  3
Model
350
22
  0
DICTIONARY
  5
3B
102
{ACAD_REACTORS
330
C
102
}
330
C
100
AcDbDictionary
281
     1
  3
ByBlock
350
3D
  3
ByLayer
350
3C
  3
Global
350
3E
  0
DICTIONARY
  5
479
102
{ACAD_REACTORS
330
C
102
}
330
C
100
AcDbDictionary
281
     1
  0
DICTIONARY
  5
17
102
{ACAD_REACTORS
330
C
102
}
330
C
100
AcDbDictionary
281
     1
  3
Standard
350
18
  0
DICTIONARY
  5
19
102
{ACAD_REACTORS
330
C
102
}
330
C
100
AcDbDictionary
281
     1
  0
ACDBDICTIONARYWDFLT
  5
E
102
{ACAD_REACTORS
330
C
102
}
330
C
100
AcDbDictionary
281
     1
  3
Normal
350
F
100
AcDbDictionaryWithDefault
340
F
  0
DICTIONARY
  5
478
102
{ACAD_REACTORS
330
C
102
}
330
C
100
AcDbDictionary
281
     1
  0
DICTIONARY
  5
2A
102
{ACAD_REACTORS
330
C
102
}
330
C
100
AcDbDictionary
281
     1
  3
2dWireframe
350
2F
  3
3D Hidden
350
31
  3
3dWireframe
350
30
  3
Basic
350
32
  3
Brighten
350
36
  3
ColorChange
350
3A
  3
Conceptual
350
34
  3
Dim
350
35
  3
Facepattern
350
39
  3
Flat
350
2B
  3
FlatWithEdges
350
2C
  3
Gouraud
350
2D
  3
GouraudWithEdges
350
2E
  3
Linepattern
350
38
  3
Realistic
350
33
  3
Thicken
350
37
  0
LAYOUT
  5
1E
102
{ACAD_REACTORS
330
1A
102
}
330
1A
100
AcDbPlotSettings
  1

  2
none_device
  4

  6

 40
0.0
 41
0.0
 42
0.0
 43
0.0
 44
0.0
 45
0.0
 46
0.0
 47
0.0
 48
0.0
 49
0.0
140
0.0
141
0.0
142
1.0
143
1.0
 70
   688
 72
     0
 73
     0
 74
     5
  7

 75
    16
 76
     0
 77
     2
 78
   300
147
1.0
148
0.0
149
0.0
100
AcDbLayout
  1
Layout1
 70
     1
 71
     1
 10
0.0
 20
0.0
 11
420.0
 21
297.0
 12
0.0
 22
0.0
 32
0.0
 14
1.0000000000E+20
 24
1.0000000000E+20
 34
1.0000000000E+20
 15
-1.0000000000E+20
 25
-1.0000000000E+20
 35
-1.0000000000E+20
146
0.0
 13
0.0
 23
0.0
 33
0.0
 16
1.0
 26
0.0
 36
0.0
 17
0.0
 27
1.0
 37
0.0
 76
     0
330
1B
  0
LAYOUT
  5
26
102
{ACAD_REACTORS
330
1A
102
}
330
1A
100
AcDbPlotSettings
  1

  2
none_device
  4

  6

 40
0.0
 41
0.0
 42
0.0
 43
0.0
 44
0.0
 45
0.0
 46
0.0
 47
0.0
 48
0.0
 49
0.0
140
0.0
141
0.0
142
1.0
143
1.0
 70
   688
 72
     0
 73
     0
 74
     5
  7

 75
    16
 76
     0
 77
     2
 78
   300
147
1.0
148
0.0
149
0.0
100
AcDbLayout
  1
Layout2
 70
     1
 71
     2
 10
0.0
 20
0.0
 11
0.0
 21
0.0
 12
0.0
 22
0.0
 32
0.0
 14
0.0
 24
0.0
 34
0.0
 15
0.0
 25
0.0
 35
0.0
146
0.0
 13
0.0
 23
0.0
 33
0.0
 16
1.0
 26
0.0
 36
0.0
 17
0.0
 27
1.0
 37
0.0
 76
     0
330
23
  0
LAYOUT
  5
22
102
{ACAD_REACTORS
330
1A
102
}
330
1A
100
AcDbPlotSettings
  1

  2
none_device
  4

  6

 40
0.0
 41
0.0
 42
0.0
 43
0.0
 44
0.0
 45
0.0
 46
0.0
 47
0.0
 48
0.0
 49
0.0
140
0.0
141
0.0
142
1.0
143
1.0
 70
  1712
 72
     0
 73
     0
 74
     0
  7

 75
     0
 76
     0
 77
     2
 78
   300
147
1.0
148
0.0
149
0.0
100
AcDbLayout
  1
Model
 70
     1
 71
     0
 10
0.0
 20
0.0
 11
841.0
 21
594.0
 12
0.0
 22
0.0
 32
0.0
 14
0.0
 24
0.0
 34
0.0
 15
841.0
 25
594.0
 35
0.0
146
0.0
 13
0.0
 23
0.0
 33
0.0
 16
1.0
 26
0.0
 36
0.0
 17
0.0
 27
1.0
 37
0.0
 76
     0
330
1F
331
29
  0
MATERIAL
  5
3D
102
{ACAD_REACTORS
330
3B
102
}
330
3B
100
AcDbMaterial
  1
ByBlock
 72
     1
 94
      127
  0
MATERIAL
  5
3C
102
{ACAD_REACTORS
330
3B
102
}
330
3B
100
AcDbMaterial
  1
ByLayer
 72
     1
 94
      127
  0
MATERIAL
  5
3E
102
{ACAD_REACTORS
330
3B
102
}
330
3B
100
AcDbMaterial
  1
Global
 72
     1
 94
      127
  0
MLINESTYLE
  5
18
102
{ACAD_REACTORS
330
17
102
}
330
17
100
AcDbMlineStyle
  2
Standard
 70
     0
  3

 62
   256
 51
90.0
 52
90.0
 71
     2
 49
0.5
 62
   256
  6
BYLAYER
 49
-0.5
 62
   256
  6
BYLAYER
  0
ACDBPLACEHOLDER
  5
F
102
{ACAD_REACTORS
330
E
102
}
330
E
  0
VISUALSTYLE
  5
2F
102
{ACAD_REACTORS
330
2A
102
}
330
2A
100
AcDbVisualStyle
  2
2dWireframe
 70
     4
 71
     0
 72
     2
 73
     0
 90
        0
 40
-0.6
 41
-30.0
 62
     5
 63
     7
421
 16777215
 74
     1
 91
        4
 64
     7
 65
   257
 75
     1
175
     1
 42
1.0
 92
        0
 66
   257
 43
1.0
 76
     1
 77
     6
 78
     2
 67
     7
 79
     5
170
     0
171
     0
290
     0
174
     0
 93
        1
 44
0.0
173
     0
291
     0
 45
0.0
  0
VISUALSTYLE
  5
31
102
{ACAD_REACTORS
330
2A
102
}
330
2A
100
AcDbVisualStyle
  2
3D Hidden
 70
     6
 71
     1
 72
     2
 73
     2
 90
        0
 40
-0.6
 41
-30.0
 62
     5
 63
     7
421
 16777215
 74
     2
 91
        2
 64
     7
 65
   257
 75
     2
175
     1
 42
40.0
 92
        0
 66
   257
 43
1.0
 76
     1
 77
     6
 78
     2
 67
     7
 79
     3
170
     0
171
     0
290
     0
174
     0
 93
        1
 44
0.0
173
     0
291
     0
 45
0.0
  0
VISUALSTYLE
  5
30
102
{ACAD_REACTORS
330
2A
102
}
330
2A
100
AcDbVisualStyle
  2
3dWireframe
 70
     5
 71
     0
 72
     2
 73
     0
 90
        0
 40
-0.6
 41
-30.0
 62
     5
 63
     7
421
 16777215
 74
     1
 91
        4
 64
     7
 65
   257
 75
     1
175
     1
 42
1.0
 92
        0
 66
   257
 43
1.0
 76
     1
 77
     6
 78
     2
 67
     7
 79
     5
170
     0
171
     0
290
     0
174
     0
 93
        1
 44
0.0
173
     0
291
     0
 45
0.0
  0
VISUALSTYLE
  5
32
102
{ACAD_REACTORS
330
2A
102
}
330
2A
100
AcDbVisualStyle
  2
Basic
 70
     7
 71
     1
 72
     0
 73
     1
 90
        0
 40
-0.6
 41
-30.0
 62
     5
 63
     7
421
 16777215
 74
     0
 91
        4
 64
     7
 65
   257
 75
     1
175
     1
 42
1.0
 92
        8
 66
     7
 43
1.0
 76
     1
 77
     6
 78
     2
 67
     7
 79
     5
170
     0
171
     0
290
     0
174
     0
 93
        1
 44
0.0
173
     0
291
     1
 45
0.0
  0
VISUALSTYLE
  5
36
102
{ACAD_REACTORS
330
2A
102
}
330
2A
100
AcDbVisualStyle
  2
Brighten
 70
    12
 71
     2
 72
     2
 73
     0
 90
        0
 40
-0.6
 41
-30.0
 62
     5
 63
     7
421
 16777215
 74
     1
 91
        4
 64
     7
 65
   257
 75
     1
175
     1
 42
1.0
 92
        8
 66
     7
 43
1.0
 76
     1
 77
     6
 78
     2
 67
     7
 79
     5
170
     0
171
     0
290
     0
174
     0
 93
        1
 44
50.0
173
     0
291
     1
 45
0.0
  0
VISUALSTYLE
  5
3A
102
{ACAD_REACTORS
330
2A
102
}
330
2A
100
AcDbVisualStyle
  2
ColorChange
 70
    16
 71
     2
 72
     2
 73
     3
 90
        0
 40
-0.6
 41
-30.0
 62
     5
 63
     8
421
  8421504
 74
     1
 91
        4
 64
     7
 65
   257
 75
     1
175
     1
 42
1.0
 92
        8
 66
     8
424
  8421504
 43
1.0
 76
     1
 77
     6
 78
     2
 67
     7
 79
     5
170
     0
171
     0
290
     0
174
     0
 93
        1
 44
0.0
173
     0
291
     1
 45
0.0
  0
VISUALSTYLE
  5
34
102
{ACAD_REACTORS
330
2A
102
}
330
2A
100
AcDbVisualStyle
  2
Conceptual
 70
     9
 71
     3
 72
     2
 73
     0
 90
        0
 40
-0.6
 41
-30.0
 62
     5
 63
     7
421
 16777215
 74
     2
 91
        2
 64
     7
 65
   257
 75
     1
175
     1
 42
40.0
 92
        8
 66
     7
 43
1.0
 76
     1
 77
     6
 78
     2
 67
     7
 79
     3
170
     0
171
     0
290
     0
174
     0
 93
        1
 44
0.0
173
     0
291
     0
 45
0.0
  0
VISUALSTYLE
  5
35
102
{ACAD_REACTORS
330
2A
102
}
330
2A
100
AcDbVisualStyle
  2
Dim
 70
    11
 71
     2
 72
     2
 73
     0
 90
        0
 40
-0.6
 41
-30.0
 62
     5
 63
     7
421
 16777215
 74
     1
 91
        4
 64
     7
 65
   257
 75
     1
175
     1
 42
1.0
 92
        8
 66
     7
 43
1.0
 76
     1
 77
     6
 78
     2
 67
     7
 79
     5
170
     0
171
     0
290
     0
174
     0
 93
        1
 44
-50.0
173
     0
291
     1
 45
0.0
  0
VISUALSTYLE
  5
39
102
{ACAD_REACTORS
330
2A
102
}
330
2A
100
AcDbVisualStyle
  2
Facepattern
 70
    15
 71
     2
 72
     2
 73
     0
 90
        0
 40
-0.6
 41
-30.0
 62
     5
 63
     7
421
 16777215
 74
     1
 91
        4
 64
     7
 65
   257
 75
     1
175
     1
 42
1.0
 92
        8
 66
     7
 43
1.0
 76
     1
 77
     6
 78
     2
 67
     7
 79
     5
170
     0
171
     0
290
     0
174
     0
 93
        1
 44
0.0
173
     0
291
     1
 45
0.0
  0
VISUALSTYLE
  5
2B
102
{ACAD_REACTORS
330
2A
102
}
330
2A
100
AcDbVisualStyle
  2
Flat
 70
     0
 71
     2
 72
     1
 73
     1
 90
        2
 40
-0.6
 41
30.0
 62
     5
 63
     7
421
 16777215
 74
     0
 91
        4
 64
     7
 65
   257
 75
     1
175
     1
 42
1.0
 92
        8
 66
     7
 43
1.0
 76
     1
 77
     6
 78
     2
 67
     7
 79
     5
170
     0
171
     0
290
     0
174
     0
 93
       13
 44
0.0
173
     0
291
     1
 45
0.0
  0
VISUALSTYLE
  5
2C
102
{ACAD_REACTORS
330
2A
102
}
330
2A
100
AcDbVisualStyle
  2
FlatWithEdges
 70
     1
 71
     2
 72
     1
 73
     1
 90
        2
 40
-0.6
 41
30.0
 62
     5
 63
     7
421
 16777215
 74
     1
 91
        4
 64
     7
 65
   257
 75
     1
175
     1
 42
1.0
 92
        0
 66
   257
 43
1.0
 76
     1
 77
     6
 78
     2
 67
     7
 79
     5
170
     0
171
     0
290
     0
174
     0
 93
       13
 44
0.0
173
     0
291
     1
 45
0.0
  0
VISUALSTYLE
  5
2D
102
{ACAD_REACTORS
330
2A
102
}
330
2A
100
AcDbVisualStyle
  2
Gouraud
 70
     2
 71
     2
 72
     2
 73
     1
 90
        2
 40
-0.6
 41
30.0
 62
     5
 63
     7
421
 16777215
 74
     0
 91
        4
 64
     7
 65
   257
 75
     1
175
     1
 42
1.0
 92
        0
 66
     7
 43
1.0
 76
     1
 77
     6
 78
     2
 67
     7
 79
     5
170
     0
171
     0
290
     0
174
     0
 93
       13
 44
0.0
173
     0
291
     1
 45
0.0
  0
VISUALSTYLE
  5
2E
102
{ACAD_REACTORS
330
2A
102
}
330
2A
100
AcDbVisualStyle
  2
GouraudWithEdges
 70
     3
 71
     2
 72
     2
 73
     1
 90
        2
 40
-0.6
 41
30.0
 62
     5
 63
     7
421
 16777215
 74
     1
 91
        4
 64
     7
 65
   257
 75
     1
175
     1
 42
1.0
 92
        0
 66
   257
 43
1.0
 76
     1
 77
     6
 78
     2
 67
     7
 79
     5
170
     0
171
     0
290
     0
174
     0
 93
       13
 44
0.0
173
     0
291
     1
 45
0.0
  0
VISUALSTYLE
  5
38
102
{ACAD_REACTORS
330
2A
102
}
330
2A
100
AcDbVisualStyle
  2
Linepattern
 70
    14
 71
     2
 72
     2
 73
     0
 90
        0
 40
-0.6
 41
-30.0
 62
     5
 63
     7
421
 16777215
 74
     1
 91
        4
 64
     7
 65
   257
 75
     7
175
     7
 42
1.0
 92
        8
 66
     7
 43
1.0
 76
     1
 77
     6
 78
     2
 67
     7
 79
     5
170
     0
171
     0
290
     0
174
     0
 93
        1
 44
0.0
173
     0
291
     1
 45
0.0
  0
VISUALSTYLE
  5
33
102
{ACAD_REACTORS
330
2A
102
}
330
2A
100
AcDbVisualStyle
  2
Realistic
 70
     8
 71
     2
 72
     2
 73
     0
 90
        0
 40
-0.6
 41
-30.0
 62
     5
 63
     7
421
 16777215
 74
     1
 91
        0
 64
     7
 65
   257
 75
     1
175
     1
 42
1.0
 92
        8
 66
     8
424
  7895160
 43
1.0
 76
     1
 77
     6
 78
     2
 67
     7
 79
     5
170
     0
171
     0
290
     0
174
     0
 93
       13
 44
0.0
173
     0
291
     0
 45
0.0
  0
VISUALSTYLE
  5
37
102
{ACAD_REACTORS
330
2A
102
}
330
2A
100
AcDbVisualStyle
  2
Thicken
 70
    13
 71
     2
 72
     2
 73
     0
 90
        0
 40
-0.6
 41
-30.0
 62
     5
 63
     7
421
 16777215
 74
     1
 91
        4
 64
     7
 65
   257
 75
     1
175
     1
 42
1.0
 92
       12
 66
     7
 43
1.0
 76
     1
 77
     6
 78
     2
 67
     7
 79
     5
170
     0
171
     0
290
     0
174
     0
 93
        1
 44
0.0
173
     0
291
     1
 45
0.0
  0
ENDSEC
  0
EOF
