  0
SECTION
  2
HEADER
  9
$ACADVER
  1
AC1015
  9
$ACADMAINTVER
 70
     6
  9
$DWGCODEPAGE
  3
ANSI_1252
  9
$INSBASE
 10
0.0
 20
0.0
 30
0.0
  9
$EXTMIN
 10
0.0
 20
0.0
 30
0.0
  9
$EXTMAX
 10
1200.0
 20
1200.0
 30
0.0
  9
$LIMMIN
 10
0.0
 20
0.0
  9
$LIMMAX
 10
1200.0
 20
1200.0
  9
$ORTHOMODE
 70
     0
  9
$REGENMODE
 70
     1
  9
$FILLMODE
 70
     1
  9
$QTEXTMODE
 70
     0
  9
$MIRRTEXT
 70
     1
  9
$LTSCALE
 40
1.0
  9
$ATTMODE
 70
     1
  9
$TEXTSIZE
 40
3.5
  9
$TRACEWID
 40
1.0
  9
$TEXTSTYLE
  7
STANDARD
  9
$CLAYER
  8
0
  9
$CELTYPE
  6
ByLayer
  9
$CECOLOR
 62
   256
  9
$CELTSCALE
 40
1.0
  9
$DISPSILH
 70
     0
  9
$DIMSCALE
 40
1.0
  9
$DIMASZ
 40
3.302
  9
$DIMEXO
 40
1.0
  9
$DIMDLI
 40
3.75
  9
$DIMRND
 40
0.0
  9
$DIMDLE
 40
0.0
  9
$DIMEXE
 40
1.0
  9
$DIMTP
 40
0.0
  9
$DIMTM
 40
0.0
  9
$DIMTXT
 40
3.5
  9
$DIMCEN
 40
2.5
  9
$DIMTSZ
 40
0.0
  9
$DIMTOL
 70
     0
  9
$DIMLIM
 70
     0
  9
$DIMTIH
 70
     1
  9
$DIMTOH
 70
     1
  9
$DIMSE1
 70
     0
  9
$DIMSE2
 70
     0
  9
$DIMTAD
 70
     1
  9
$DIMZIN
 70
     1
  9
$DIMBLK
  1

  9
$DIMASO
 70
     1
  9
$DIMSHO
 70
     1
  9
$DIMPOST
  1

  9
$DIMAPOST
  1

  9
$DIMALT
 70
     0
  9
$DIMALTD
 70
     3
  9
$DIMALTF
 40
0.0393700787
  9
$DIMLFAC
 40
1.0
  9
$DIMTOFL
 70
     1
  9
$DIMTVP
 40
0.0
  9
$DIMTIX
 70
     0
  9
$DIMSOXD
 70
     0
  9
$DIMSAH
 70
     0
  9
$DIMBLK1
  1

  9
$DIMBLK2
  1

  9
$DIMSTYLE
  2
ISO-25
  9
$DIMCLRD
 70
     0
  9
$DIMCLRE
 70
     0
  9
$DIMCLRT
 70
     0
  9
$DIMTFAC
 40
1.0
  9
$DIMGAP
 40
1.524
  9
$DIMJUST
 70
     0
  9
$DIMSD1
 70
     0
  9
$DIMSD2
 70
     0
  9
$DIMTOLJ
 70
     0
  9
$DIMTZIN
 70
     1
  9
$DIMALTZ
 70
     0
  9
$DIMALTTZ
 70
     0
  9
$DIMUPT
 70
     0
  9
$DIMDEC
 70
     1
  9
$DIMTDEC
 70
     1
  9
$DIMALTU
 70
     2
  9
$DIMALTTD
 70
     3
  9
$DIMTXSTY
  7
STANDARD
  9
$DIMAUNIT
 70
     0
  9
$DIMADEC
 70
     1
  9
$DIMALTRND
 40
0.0
  9
$DIMAZIN
 70
     0
  9
$DIMDSEP
 70
    44
  9
$DIMATFIT
 70
     3
  9
$DIMFRAC
 70
     0
  9
$DIMLDRBLK
  1

  9
$DIMLUNIT
 70
     2
  9
$DIMLWD
 70
    -2
  9
$DIMLWE
 70
    -2
  9
$DIMTMOVE
 70
     0
  9
$LUNITS
 70
     2
  9
$LUPREC
 70
     1
  9
$SKETCHINC
 40
1.0
  9
$FILLETRAD
 40
10.0
  9
$AUNITS
 70
     0
  9
$AUPREC
 70
     1
  9
$MENU
  1
.
  9
$ELEVATION
 40
0.0
  9
$PELEVATION
 40
0.0
  9
$THICKNESS
 40
0.0
  9
$LIMCHECK
 70
     0
  9
$CHAMFERA
 40
10.0
  9
$CHAMFERB
 40
10.0
  9
$CHAMFERC
 40
20.0
  9
$CHAMFERD
 40
0.0
  9
$SKPOLY
 70
     0
  9
$TDCREATE
 40
2455631.608943495
  9
$TDUCREATE
 40
2455631.608943495
  9
$TDUPDATE
 40
2455631.608943507
  9
$TDUUPDATE
 40
2455631.608943507
  9
$TDINDWG
 40
0.0000000116
  9
$TDUSRTIMER
 40
0.0000000116
  9
$USRTIMER
 70
     1
  9
$ANGBASE
 50
0.0
  9
$ANGDIR
 70
     0
  9
$PDMODE
 70
     0
  9
$PDSIZE
 40
-1.0
  9
$PLINEWID
 40
0.0
  9
$SPLFRAME
 70
     0
  9
$SPLINETYPE
 70
     6
  9
$SPLINESEGS
 70
     8
  9
$HANDSEED
  5
49F
  9
$SURFTAB1
 70
     6
  9
$SURFTAB2
 70
     6
  9
$SURFTYPE
 70
     6
  9
$SURFU
 70
     6
  9
$SURFV
 70
     6
  9
$UCSBASE
  2

  9
$UCSNAME
  2

  9
$UCSORG
 10
0.0
 20
0.0
 30
0.0
  9
$UCSXDIR
 10
1.0
 20
0.0
 30
0.0
  9
$UCSYDIR
 10
0.0
 20
1.0
 30
0.0
  9
$UCSORTHOREF
  2

  9
$UCSORTHOVIEW
 70
     0
  9
$UCSORGTOP
 10
0.0
 20
0.0
 30
0.0
  9
$UCSORGBOTTOM
 10
0.0
 20
0.0
 30
0.0
  9
$UCSORGLEFT
 10
0.0
 20
0.0
 30
0.0
  9
$UCSORGRIGHT
 10
0.0
 20
0.0
 30
0.0
  9
$UCSORGFRONT
 10
0.0
 20
0.0
 30
0.0
  9
$UCSORGBACK
 10
0.0
 20
0.0
 30
0.0
  9
$PUCSBASE
  2

  9
$PUCSNAME
  2

  9
$PUCSORG
 10
0.0
 20
0.0
 30
0.0
  9
$PUCSXDIR
 10
1.0
 20
0.0
 30
0.0
  9
$PUCSYDIR
 10
0.0
 20
1.0
 30
0.0
  9
$PUCSORTHOREF
  2

  9
$PUCSORTHOVIEW
 70
     0
  9
$PUCSORGTOP
 10
0.0
 20
0.0
 30
0.0
  9
$PUCSORGBOTTOM
 10
0.0
 20
0.0
 30
0.0
  9
$PUCSORGLEFT
 10
0.0
 20
0.0
 30
0.0
  9
$PUCSORGRIGHT
 10
0.0
 20
0.0
 30
0.0
  9
$PUCSORGFRONT
 10
0.0
 20
0.0
 30
0.0
  9
$PUCSORGBACK
 10
0.0
 20
0.0
 30
0.0
  9
$USERI1
 70
     0
  9
$USERI2
 70
     0
  9
$USERI3
 70
     0
  9
$USERI4
 70
     0
  9
$USERI5
 70
     0
  9
$USERR1
 40
0.0
  9
$USERR2
 40
0.0
  9
$USERR3
 40
0.0
  9
$USERR4
 40
0.0
  9
$USERR5
 40
0.0
  9
$WORLDVIEW
 70
     1
  9
$SHADEDGE
 70
     3
  9
$SHADEDIF
 70
    70
  9
$TILEMODE
 70
     1
  9
$MAXACTVP
 70
    64
  9
$PINSBASE
 10
0.0
 20
0.0
 30
0.0
  9
$PLIMCHECK
 70
     0
  9
$PEXTMIN
 10
1.0000000000E+20
 20
1.0000000000E+20
 30
1.0000000000E+20
  9
$PEXTMAX
 10
-1.0000000000E+20
 20
-1.0000000000E+20
 30
-1.0000000000E+20
  9
$PLIMMIN
 10
0.0
 20
0.0
  9
$PLIMMAX
 10
420.0
 20
297.0
  9
$UNITMODE
 70
     0
  9
$VISRETAIN
 70
     1
  9
$PLINEGEN
 70
     0
  9
$PSLTSCALE
 70
     1
  9
$TREEDEPTH
 70
  3020
  9
$CMLSTYLE
  2
Standard
  9
$CMLJUST
 70
     0
  9
$CMLSCALE
 40
20.0
  9
$PROXYGRAPHICS
 70
     1
  9
$MEASUREMENT
 70
     1
  9
$CELWEIGHT
370
    -1
  9
$ENDCAPS
280
     0
  9
$JOINSTYLE
280
     0
  9
$LWDISPLAY
290
     1
  9
$INSUNITS
 70
     4
  9
$HYPERLINKBASE
  1

  9
$STYLESHEET
  1

  9
$XEDIT
290
     1
  9
$CEPSNTYPE
380
     0
  9
$PSTYLEMODE
290
     1
  9
$FINGERPRINTGUID
  2
{68E05B80-0175-42DE-8408-17377824EE0E}
  9
$VERSIONGUID
  2
{FAEB1C32-E019-11D5-929B-00C0DF256EC4}
  9
$EXTNAMES
290
     1
  9
$PSVPSCALE
 40
0.0
  9
$OLESTARTUP
290
     0
  0
ENDSEC
  0
SECTION
  2
CLASSES
  0
CLASS
  1
ACDBDICTIONARYWDFLT
  2
AcDbDictionaryWithDefault
  3
ObjectDBX Classes
 90
        0
280
     0
281
     0
  0
CLASS
  1
VISUALSTYLE
  2
AcDbVisualStyle
  3
ObjectDBX Classes
 90
     4095
280
     0
281
     0
  0
CLASS
  1
MATERIAL
  2
AcDbMaterial
  3
ObjectDBX Classes
 90
     1153
280
     0
281
     0
  0
CLASS
  1
ACDBPLACEHOLDER
  2
AcDbPlaceHolder
  3
ObjectDBX Classes
 90
        0
280
     0
281
     0
  0
CLASS
  1
LAYOUT
  2
AcDbLayout
  3
ObjectDBX Classes
 90
        0
280
     0
281
     0
  0
ENDSEC
  0
SECTION
  2
TABLES
  0
TABLE
  2
VPORT
  5
8
330
0
100
AcDbSymbolTable
 70
     1
  0
VPORT
  5
29
330
8
100
AcDbSymbolTableRecord
100
AcDbViewportTableRecord
  2
*Active
 70
     0
 10
0.0
 20
0.0
 11
1.0
 21
1.0
 12
600.0
 22
600.0
 13
0.0
 23
0.0
 14
10.0
 24
10.0
 15
10.0
 25
10.0
 16
0.0
 26
0.0
 36
1.0
 17
0.0
 27
0.0
 37
0.0
 40
1200.0
 41
1.0
 42
50.0
 43
0.0
 44
0.0
 50
0.0
 51
0.0
 71
     0
 72
  2000
 73
     1
 74
     3
 75
     0
 76
     0
 77
     0
 78
     0
281
     0
 65
     1
110
0.0
120
0.0
130
0.0
111
1.0
121
0.0
131
0.0
112
0.0
122
1.0
132
0.0
 79
     0
146
0.0
  0
ENDTAB
  0
TABLE
  2
LTYPE
  5
5
330
0
100
AcDbSymbolTable
 70
     8
  0
LTYPE
  5
14
330
5
100
AcDbSymbolTableRecord
100
AcDbLinetypeTableRecord
  2
ByBlock
 70
     0
  3

 72
    65
 73
     0
 40
0.0
  0
LTYPE
  5
15
330
5
100
AcDbSymbolTableRecord
100
AcDbLinetypeTableRecord
  2
ByLayer
 70
     0
  3

 72
    65
 73
     0
 40
0.0
  0
LTYPE
  5
16
330
5
100
AcDbSymbolTableRecord
100
AcDbLinetypeTableRecord
  2
Continuous
 70
     0
  3
Solid line
 72
    65
 73
     0
 40
0.0
  0
LTYPE
  5
3F
330
5
100
AcDbSymbolTableRecord
100
AcDbLinetypeTableRecord
  2
SLD-Solid
 70
     0
  3
SolidWorks Line Style
 72
    65
 73
     0
 40
0.0
  0
LTYPE
  5
40
330
5
100
AcDbSymbolTableRecord
100
AcDbLinetypeTableRecord
  2
SLD-Dashed
 70
     0
  3
SolidWorks Line Style
 72
    65
 73
     2
 40
1.905
 49
1.27
 74
     0
 49
-0.635
 74
     0
  0
LTYPE
  5
41
330
5
100
AcDbSymbolTableRecord
100
AcDbLinetypeTableRecord
  2
SLD-Phantom
 70
     0
  3
SolidWorks Line Style
 72
    65
 73
     6
 40
12.7
 49
6.35
 74
     0
 49
-1.27
 74
     0
 49
1.27
 74
     0
 49
-1.27
 74
     0
 49
1.27
 74
     0
 49
-1.27
 74
     0
  0
LTYPE
  5
42
330
5
100
AcDbSymbolTableRecord
100
AcDbLinetypeTableRecord
  2
SLD-Chain
 70
     0
  3
SolidWorks Line Style
 72
    65
 73
     4
 40
10.16
 49
6.35
 74
     0
 49
-1.27
 74
     0
 49
1.27
 74
     0
 49
-1.27
 74
     0
  0
LTYPE
  5
43
330
5
100
AcDbSymbolTableRecord
100
AcDbLinetypeTableRecord
  2
SLD-Center
 70
     0
  3
SolidWorks Line Style
 72
    65
 73
     4
 40
19.05
 49
15.24
 74
     0
 49
-1.27
 74
     0
 49
1.27
 74
     0
 49
-1.27
 74
     0
  0
LTYPE
  5
44
330
5
100
AcDbSymbolTableRecord
100
AcDbLinetypeTableRecord
  2
SLD-Stitch
 70
     0
  3
SolidWorks Line Style
 72
    65
 73
     2
 40
0.635
 49
0.0
 74
     0
 49
-0.635
 74
     0
  0
LTYPE
  5
45
330
5
100
AcDbSymbolTableRecord
100
AcDbLinetypeTableRecord
  2
SLD-Thin-Thick-Chain
 70
     0
  3
SolidWorks Line Style
 72
    65
 73
     4
 40
10.16
 49
6.35
 74
     0
 49
-1.27
 74
     0
 49
1.27
 74
     0
 49
-1.27
 74
     0
  0
ENDTAB
  0
TABLE
  2
LAYER
  5
2
330
0
100
AcDbSymbolTable
 70
     5
  0
LAYER
  5
10
330
2
100
AcDbSymbolTableRecord
100
AcDbLayerTableRecord
  2
0
 70
     0
 62
     7
  6
Continuous
370
    -3
390
F
  0
LAYER
  5
46
330
2
100
AcDbSymbolTableRecord
100
AcDbLayerTableRecord
  2
SLD-0_0
 70
     0
 62
   179
  6
SLD-Solid
370
    -3
390
F
  0
LAYER
  5
47
330
2
100
AcDbSymbolTableRecord
100
AcDbLayerTableRecord
  2
FORMAT
 70
     0
 62
   179
  6
SLD-Solid
370
    -3
390
F
  0
LAYER
  5
48
330
2
100
AcDbSymbolTableRecord
100
AcDbLayerTableRecord
  2
SLD-0
 70
     0
 62
     1
  6
SLD-Solid
370
    -3
390
F
  0
LAYER
  5
49
330
2
100
AcDbSymbolTableRecord
100
AcDbLayerTableRecord
  2
WATERMARK
 70
     0
 62
    20
  6
SLD-Solid
370
    -3
390
F
  0
ENDTAB
  0
TABLE
  2
STYLE
  5
3
330
0
100
AcDbSymbolTable
 70
     1
  0
STYLE
  5
11
330
3
100
AcDbSymbolTableRecord
100
AcDbTextStyleTableRecord
  2
STANDARD
 70
     0
 40
0.0
 41
1.0
 50
0.0
 71
     0
 42
2.5
  3
GOTHIC.TTF
  4

1001
ACAD
1000
CENTURY GOTHIC
1071
       34
  0
ENDTAB
  0
TABLE
  2
VIEW
  5
6
330
0
100
AcDbSymbolTable
 70
     0
  0
ENDTAB
  0
TABLE
  2
UCS
  5
7
330
0
100
AcDbSymbolTable
 70
     0
  0
ENDTAB
  0
TABLE
  2
APPID
  5
9
330
0
100
AcDbSymbolTable
 70
     1
  0
APPID
  5
12
330
9
100
AcDbSymbolTableRecord
100
AcDbRegAppTableRecord
  2
ACAD
 70
     0
  0
ENDTAB
  0
TABLE
  2
DIMSTYLE
  5
A
330
0
100
AcDbSymbolTable
 70
     1
100
AcDbDimStyleTable
  0
DIMSTYLE
105
27
330
A
100
AcDbSymbolTableRecord
100
AcDbDimStyleTableRecord
  2
ISO-25
 70
     0
 41
2.5
 42
0.625
 43
3.75
 44
1.25
 73
     0
 74
     0
 77
     1
 78
     8
140
2.5
141
2.5
143
0.0393700787
147
0.625
171
     3
172
     1
271
     2
272
     2
274
     3
278
    44
283
     0
284
     8
340
11
  0
ENDTAB
  0
TABLE
  2
BLOCK_RECORD
  5
1
330
0
100
AcDbSymbolTable
 70
     1
  0
BLOCK_RECORD
  5
1F
330
1
100
AcDbSymbolTableRecord
100
AcDbBlockTableRecord
  2
*Model_Space
340
22
  0
BLOCK_RECORD
  5
1B
330
1
100
AcDbSymbolTableRecord
100
AcDbBlockTableRecord
  2
*Paper_Space
340
1E
  0
BLOCK_RECORD
  5
23
330
1
100
AcDbSymbolTableRecord
100
AcDbBlockTableRecord
  2
*Paper_Space0
340
26
  0
ENDTAB
  0
ENDSEC
  0
SECTION
  2
BLOCKS
  0
BLOCK
  5
20
330
1F
100
AcDbEntity
  8
0
100
AcDbBlockBegin
  2
*Model_Space
 70
     0
 10
0.0
 20
0.0
 30
0.0
  3
*Model_Space
  1

  0
ENDBLK
  5
21
330
1F
100
AcDbEntity
  8
0
100
AcDbBlockEnd
  0
BLOCK
  5
1C
330
1B
100
AcDbEntity
 67
     1
  8
0
100
AcDbBlockBegin
  2
*Paper_Space
 70
     0
 10
0.0
 20
0.0
 30
0.0
  3
*Paper_Space
  1

  0
ENDBLK
  5
1D
330
1B
100
AcDbEntity
 67
     1
  8
0
100
AcDbBlockEnd
  0
BLOCK
  5
24
330
23
100
AcDbEntity
  8
0
100
AcDbBlockBegin
  2
*Paper_Space0
 70
     0
 10
0.0
 20
0.0
 30
0.0
  3
*Paper_Space0
  1

  0
ENDBLK
  5
25
330
23
100
AcDbEntity
  8
0
100
AcDbBlockEnd
  0
ENDSEC
  0
SECTION
  2
ENTITIES
  0
LINE
  5
4A
330
1F
100
AcDbEntity
  8
SLD-0_0
  6
SLD-Solid
 62
   179
370
    15
100
AcDbLine
 10
753.5949251105
 20
988.0128331726
 30
0.0
 11
753.5949251105
 21
989.187819535
 31
0.0
  0
LINE
  5
4B
330
1F
100
AcDbEntity
  8
SLD-0_0
  6
SLD-Solid
 62
   179
370
    15
100
AcDbLine
 10
648.6240452577
 20
989.187819535
 30
0.0
 11
648.6240452577
 21
988.0128331726
 31
0.0
  0
LINE
  5
4C
330
1F
100
AcDbEntity
  8
SLD-0_0
  6
SLD-Solid
 62
   179
370
    15
100
AcDbLine
 10
648.9682099273
 20
987.5200219696
 30
0.0
 11
649.6240472843
 21
987.2795172279
 31
0.0
  0
LINE
  5
4D
330
1F
100
AcDbEntity
  8
SLD-0_0
  6
SLD-Solid
 62
   179
370
    15
100
AcDbLine
 10
752.594923084
 20
987.2795172279
 30
0.0
 11
753.2507529904
 21
987.5200219696
 31
0.0
  0
LINE
  5
4E
330
1F
100
AcDbEntity
  8
SLD-0_0
  6
SLD-Solid
 62
   179
370
    15
100
AcDbLine
 10
751.6049048354
 20
991.2845917289
 30
0.0
 11
701.1094889094
 21
993.9235873764
 31
0.0
  0
LINE
  5
4F
330
1F
100
AcDbEntity
  8
SLD-0_0
  6
SLD-Solid
 62
   179
370
    15
100
AcDbLine
 10
701.1094889094
 20
993.9235873764
 30
0.0
 11
650.6140655329
 21
991.2845917289
 31
0.0
  0
LINE
  5
50
330
1F
100
AcDbEntity
  8
SLD-0_0
  6
SLD-Solid
 62
   179
370
    15
100
AcDbLine
 10
750.1062056472
 20
986.183805043
 30
0.0
 11
750.1062056472
 21
986.754638726
 31
0.0
  0
LINE
  5
51
330
1F
100
AcDbEntity
  8
SLD-0_0
  6
SLD-Solid
 62
   179
370
    15
100
AcDbLine
 10
652.1127647211
 20
986.754638726
 30
0.0
 11
652.1127647211
 21
986.183805043
 31
0.0
  0
LINE
  5
52
330
1F
100
AcDbEntity
  8
SLD-0_0
  6
SLD-Solid
 62
   179
370
    15
100
AcDbLine
 10
652.3895239879
 20
985.7890434807
 30
0.0
 11
652.4585312654
 21
985.7640691345
 31
0.0
  0
LINE
  5
53
330
1F
100
AcDbEntity
  8
SLD-0_0
  6
SLD-Solid
 62
   179
370
    15
100
AcDbLine
 10
749.7604391028
 20
985.7640691345
 30
0.0
 11
749.8294463803
 21
985.7890434807
 31
0.0
  0
LINE
  5
54
330
1F
100
AcDbEntity
  8
SLD-0_0
  6
SLD-Solid
 62
   179
370
    15
100
AcDbLine
 10
473.5949239184
 20
988.0128331726
 30
0.0
 11
473.5949239184
 21
989.187819535
 31
0.0
  0
LINE
  5
55
330
1F
100
AcDbEntity
  8
SLD-0_0
  6
SLD-Solid
 62
   179
370
    15
100
AcDbLine
 10
368.6240366151
 20
989.187819535
 30
0.0
 11
368.6240366151
 21
988.0128331726
 31
0.0
  0
LINE
  5
56
330
1F
100
AcDbEntity
  8
SLD-0_0
  6
SLD-Solid
 62
   179
370
    15
100
AcDbLine
 10
368.9682087352
 20
987.5200219696
 30
0.0
 11
369.6240535428
 21
987.2795172279
 31
0.0
  0
LINE
  5
57
330
1F
100
AcDbEntity
  8
SLD-0_0
  6
SLD-Solid
 62
   179
370
    15
100
AcDbLine
 10
472.5949144413
 20
987.2795172279
 30
0.0
 11
473.2507592489
 21
987.5200219696
 31
0.0
  0
LINE
  5
58
330
1F
100
AcDbEntity
  8
SLD-0_0
  6
SLD-Solid
 62
   179
370
    15
100
AcDbLine
 10
471.6049036433
 20
991.2845917289
 30
0.0
 11
421.1094877173
 21
993.9235873764
 31
0.0
  0
LINE
  5
59
330
1F
100
AcDbEntity
  8
SLD-0_0
  6
SLD-Solid
 62
   179
370
    15
100
AcDbLine
 10
421.1094877173
 20
993.9235873764
 30
0.0
 11
370.6140568902
 21
991.2845917289
 31
0.0
  0
LINE
  5
5A
330
1F
100
AcDbEntity
  8
SLD-0_0
  6
SLD-Solid
 62
   179
370
    15
100
AcDbLine
 10
470.1062044551
 20
986.183805043
 30
0.0
 11
470.1062044551
 21
986.754638726
 31
0.0
  0
LINE
  5
5B
330
1F
100
AcDbEntity
  8
SLD-0_0
  6
SLD-Solid
 62
   179
370
    15
100
AcDbLine
 10
372.1127709796
 20
986.754638726
 30
0.0
 11
372.1127709796
 21
986.183805043
 31
0.0
  0
LINE
  5
5C
330
1F
100
AcDbEntity
  8
SLD-0_0
  6
SLD-Solid
 62
   179
370
    15
100
AcDbLine
 10
372.3895153453
 20
985.7890434807
 30
0.0
 11
372.4585375239
 21
985.7640691345
 31
0.0
  0
LINE
  5
5D
330
1F
100
AcDbEntity
  8
SLD-0_0
  6
SLD-Solid
 62
   179
370
    15
100
AcDbLine
 10
469.7604379107
 20
985.7640691345
 30
0.0
 11
469.8294451882
 21
985.7890434807
 31
0.0
  0
LINE
  5
5E
330
1F
100
AcDbEntity
  8
SLD-0_0
  6
SLD-Solid
 62
   179
370
    15
100
AcDbLine
 10
372.0754435708
 20
985.4640193527
 30
0.0
 11
372.0754435708
 21
983.7683864181
 31
0.0
  0
LINE
  5
5F
330
1F
100
AcDbEntity
  8
SLD-0_0
  6
SLD-Solid
 62
   179
370
    15
100
AcDbLine
 10
470.1435244133
 20
983.7683864181
 30
0.0
 11
470.1435244133
 21
985.4640193527
 31
0.0
  0
LINE
  5
60
330
1F
100
AcDbEntity
  8
SLD-0_0
  6
SLD-Solid
 62
   179
370
    15
100
AcDbLine
 10
469.8435267856
 20
985.7640691345
 30
0.0
 11
372.3754337479
 21
985.7640691345
 31
0.0
  0
LINE
  5
61
330
1F
100
AcDbEntity
  8
SLD-0_0
  6
SLD-Solid
 62
   179
370
    15
100
AcDbLine
 10
749.8435279776
 20
985.7640691345
 30
0.0
 11
652.3754423906
 21
985.7640691345
 31
0.0
  0
LINE
  5
62
330
1F
100
AcDbEntity
  8
SLD-0_0
  6
SLD-Solid
 62
   179
370
    15
100
AcDbLine
 10
652.0754373123
 20
985.4640193527
 30
0.0
 11
652.0754373123
 21
983.7683864181
 31
0.0
  0
LINE
  5
63
330
1F
100
AcDbEntity
  8
SLD-0_0
  6
SLD-Solid
 62
   179
370
    15
100
AcDbLine
 10
750.143533056
 20
983.7683864181
 30
0.0
 11
750.143533056
 21
985.4640193527
 31
0.0
  0
LINE
  5
64
330
1F
100
AcDbEntity
  8
SLD-0_0
  6
SLD-Solid
 62
   179
370
    15
100
AcDbLine
 10
939.2685344865
 20
916.0294957702
 30
0.0
 11
936.4153793504
 21
915.10246473
 31
0.0
  0
LINE
  5
65
330
1F
100
AcDbEntity
  8
SLD-0_0
  6
SLD-Solid
 62
   179
370
    15
100
AcDbLine
 10
942.5802579572
 20
896.1288757866
 30
0.0
 11
945.4334428956
 21
897.0559068268
 31
0.0
  0
LINE
  5
66
330
1F
100
AcDbEntity
  8
SLD-0_0
  6
SLD-Solid
 62
   179
370
    15
100
AcDbLine
 10
943.7139681031
 20
915.2921267097
 30
0.0
 11
939.909761255
 21
914.0560455864
 31
0.0
  0
LINE
  5
67
330
1F
100
AcDbEntity
  8
SLD-0_0
  6
SLD-Solid
 62
   179
370
    15
100
AcDbLine
 10
944.7922161271
 20
899.0293570106
 30
0.0
 11
948.5964458373
 21
900.2654459938
 31
0.0
  0
LINE
  5
68
330
1F
100
AcDbEntity
  8
SLD-0_0
  6
SLD-Solid
 62
   179
370
    15
100
AcDbLine
 10
946.9200423409
 20
914.2046399658
 30
0.0
 11
944.8152533223
 21
913.5207362716
 31
0.0
  0
LINE
  5
69
330
1F
100
AcDbEntity
  8
SLD-0_0
  6
SLD-Solid
 62
   179
370
    15
100
AcDbLine
 10
948.4462192704
 20
902.3458190506
 30
0.0
 11
948.6488750626
 21
902.411682183
 31
0.0
  0
LINE
  5
6A
330
1F
100
AcDbEntity
  8
SLD-0_0
  6
SLD-Solid
 62
   179
370
    15
100
AcDbLine
 10
186.659490173
 20
329.8757966851
 30
0.0
 11
181.5594783475
 21
329.8757966851
 31
0.0
  0
LINE
  5
6B
330
1F
100
AcDbEntity
  8
SLD-0_0
  6
SLD-Solid
 62
   179
370
    15
100
AcDbLine
 10
181.5594841374
 20
324.9379747538
 30
0.0
 11
186.659490173
 21
324.9379746859
 31
0.0
  0
LINE
  5
6C
330
1F
100
AcDbEntity
  8
SLD-0_0
  6
SLD-Solid
 62
   179
370
    15
100
AcDbLine
 10
186.659490173
 20
343.7988531088
 30
0.0
 11
181.5594783475
 21
343.7988531088
 31
0.0
  0
LINE
  5
6D
330
1F
100
AcDbEntity
  8
SLD-0_0
  6
SLD-Solid
 62
   179
370
    15
100
AcDbLine
 10
187.1594837357
 20
338.0428232496
 30
0.0
 11
192.2594955613
 21
338.0428232496
 31
0.0
  0
LINE
  5
6E
330
1F
100
AcDbEntity
  8
SLD-0_0
  6
SLD-Solid
 62
   179
370
    15
100
AcDbLine
 10
192.2594955613
 20
343.3689899986
 30
0.0
 11
187.1594837357
 21
343.3689899986
 31
0.0
  0
LINE
  5
6F
330
1F
100
AcDbEntity
  8
SLD-0_0
  6
SLD-Solid
 62
   179
370
    15
100
AcDbLine
 10
186.2227073361
 20
343.0684140195
 30
0.0
 11
185.9594841374
 21
343.0684138639
 31
0.0
  0
LINE
  5
70
330
1F
100
AcDbEntity
  8
SLD-0_0
  6
SLD-Solid
 62
   179
370
    15
100
AcDbLine
 10
187.7310028722
 20
325.3678377961
 30
0.0
 11
192.2594955613
 21
325.3678377961
 31
0.0
  0
LINE
  5
71
330
1F
100
AcDbEntity
  8
SLD-0_0
  6
SLD-Solid
 62
   179
370
    15
100
AcDbLine
 10
193.5594728639
 20
329.3684140091
 30
0.0
 11
193.7558403661
 21
329.0283136313
 31
0.0
  0
LINE
  5
72
330
1F
100
AcDbEntity
  8
SLD-0_0
  6
SLD-Solid
 62
   179
370
    15
100
AcDbLine
 10
193.7558403661
 20
339.7085141634
 30
0.0
 11
193.5594728639
 21
339.3684137856
 31
0.0
  0
LINE
  5
73
330
1F
100
AcDbEntity
  8
SLD-0_0
  6
SLD-Solid
 62
   179
370
    15
100
AcDbLine
 10
193.3094909837
 20
339.3684137856
 30
0.0
 11
193.2212761094
 21
339.521191666
 31
0.0
  0
LINE
  5
74
330
1F
100
AcDbEntity
  8
SLD-0_0
  6
SLD-Solid
 62
   179
370
    15
100
AcDbLine
 10
188.1094923665
 20
329.3684140091
 30
0.0
 11
188.1976774384
 21
329.2156361287
 31
0.0
  0
LINE
  5
75
330
1F
100
AcDbEntity
  8
SLD-0_0
  6
SLD-Solid
 62
   179
370
    15
100
AcDbLine
 10
193.2212761094
 20
329.2156361287
 30
0.0
 11
193.3094909837
 21
329.3684140091
 31
0.0
  0
LINE
  5
76
330
1F
100
AcDbEntity
  8
SLD-0_0
  6
SLD-Solid
 62
   179
370
    15
100
AcDbLine
 10
193.5594728639
 20
337.3684134578
 30
0.0
 11
193.3094909837
 21
337.3684134578
 31
0.0
  0
LINE
  5
77
330
1F
100
AcDbEntity
  8
SLD-0_0
  6
SLD-Solid
 62
   179
370
    15
100
AcDbLine
 10
193.3094909837
 20
331.3684143369
 30
0.0
 11
193.5594728639
 21
331.3684143369
 31
0.0
  0
LINE
  5
78
330
1F
100
AcDbEntity
  8
SLD-0_0
  6
SLD-Solid
 62
   179
370
    15
100
AcDbLine
 10
830.6750705888
 20
965.368432576
 30
0.0
 11
830.6084027936
 21
965.1683993881
 31
0.0
  0
LINE
  5
79
330
1F
100
AcDbEntity
  8
SLD-0_0
  6
SLD-Solid
 62
   179
370
    15
100
AcDbLine
 10
294.9105551888
 20
965.1683993881
 30
0.0
 11
294.7105518033
 21
965.768439347
 31
0.0
  0
LINE
  5
7A
330
1F
100
AcDbEntity
  8
SLD-0_0
  6
SLD-Solid
 62
   179
370
    15
100
AcDbLine
 10
287.8084233453
 20
965.768439347
 30
0.0
 11
287.6084199597
 21
965.1683993881
 31
0.0
  0
LINE
  5
7B
330
1F
100
AcDbEntity
  8
SLD-0_0
  6
SLD-Solid
 62
   179
370
    15
100
AcDbLine
 10
963.109498327
 20
815.7684035843
 30
0.0
 11
963.109498327
 21
817.4100943153
 31
0.0
  0
LINE
  5
7C
330
1F
100
AcDbEntity
  8
SLD-0_0
  6
SLD-Solid
 62
   179
370
    15
100
AcDbLine
 10
959.0094736268
 20
281.9684125726
 30
0.0
 11
959.0094736268
 21
282.4684135859
 31
0.0
  0
LINE
  5
7D
330
1F
100
AcDbEntity
  8
SLD-0_0
  6
SLD-Solid
 62
   179
370
    15
100
AcDbLine
 10
951.2094906022
 20
282.4684135859
 30
0.0
 11
951.2094906022
 21
281.9684125726
 31
0.0
  0
LINE
  5
7E
330
1F
100
AcDbEntity
  8
SLD-0_0
  6
SLD-Solid
 62
   179
370
    15
100
AcDbLine
 10
950.1094868829
 20
815.7684035843
 30
0.0
 11
950.1094868829
 21
814.4684262817
 31
0.0
  0
LINE
  5
7F
330
1F
100
AcDbEntity
  8
SLD-0_0
  6
SLD-Solid
 62
   179
370
    15
100
AcDbLine
 10
960.1094773461
 20
813.9684029167
 30
0.0
 11
960.1094773461
 21
815.7684035843
 31
0.0
  0
LINE
  5
80
330
1F
100
AcDbEntity
  8
SLD-0_0
  6
SLD-Solid
 62
   179
370
    15
100
AcDbLine
 10
963.109498327
 20
282.4684135859
 30
0.0
 11
963.109498327
 21
284.9684112017
 31
0.0
  0
LINE
  5
81
330
1F
100
AcDbEntity
  8
SLD-0_0
  6
SLD-Solid
 62
   179
370
    15
100
AcDbLine
 10
963.6094918897
 20
811.9684286659
 30
0.0
 11
963.6094918897
 21
813.468409354
 31
0.0
  0
LINE
  5
82
330
1F
100
AcDbEntity
  8
SLD-0_0
  6
SLD-Solid
 62
   179
370
    15
100
AcDbLine
 10
963.6094918897
 20
813.468409354
 30
0.0
 11
963.109498327
 21
813.9684029167
 31
0.0
  0
LINE
  5
83
330
1F
100
AcDbEntity
  8
SLD-0_0
  6
SLD-Solid
 62
   179
370
    15
100
AcDbLine
 10
963.109498327
 20
811.4684053009
 30
0.0
 11
963.6094918897
 21
811.9684286659
 31
0.0
  0
LINE
  5
84
330
1F
100
AcDbEntity
  8
SLD-0_0
  6
SLD-Solid
 62
   179
370
    15
100
AcDbLine
 10
961.6094878365
 20
810.6613286083
 30
0.0
 11
961.6094878365
 21
810.668421561
 31
0.0
  0
LINE
  5
85
330
1F
100
AcDbEntity
  8
SLD-0_0
  6
SLD-Solid
 62
   179
370
    15
100
AcDbLine
 10
948.6094763924
 20
810.668421561
 30
0.0
 11
948.6094763924
 21
810.6613286083
 31
0.0
  0
LINE
  5
86
330
1F
100
AcDbEntity
  8
SLD-0_0
  6
SLD-Solid
 62
   179
370
    15
100
AcDbLine
 10
946.6094723393
 20
286.9684152549
 30
0.0
 11
946.6094723393
 21
285.468412215
 31
0.0
  0
LINE
  5
87
330
1F
100
AcDbEntity
  8
SLD-0_0
  6
SLD-Solid
 62
   179
370
    15
100
AcDbLine
 10
963.6094918897
 20
285.468412215
 30
0.0
 11
963.6094918897
 21
286.9684152549
 31
0.0
  0
LINE
  5
88
330
1F
100
AcDbEntity
  8
SLD-0_0
  6
SLD-Solid
 62
   179
370
    15
100
AcDbLine
 10
963.6094918897
 20
286.9684152549
 30
0.0
 11
963.109498327
 21
287.4684125428
 31
0.0
  0
LINE
  5
89
330
1F
100
AcDbEntity
  8
SLD-0_0
  6
SLD-Solid
 62
   179
370
    15
100
AcDbLine
 10
947.1094957044
 20
287.4684125428
 30
0.0
 11
946.6094723393
 21
286.9684152549
 31
0.0
  0
LINE
  5
8A
330
1F
100
AcDbEntity
  8
SLD-0_0
  6
SLD-Solid
 62
   179
370
    15
100
AcDbLine
 10
946.6094723393
 20
285.468412215
 30
0.0
 11
947.1094957044
 21
284.9684112017
 31
0.0
  0
LINE
  5
8B
330
1F
100
AcDbEntity
  8
SLD-0_0
  6
SLD-Solid
 62
   179
370
    15
100
AcDbLine
 10
963.109498327
 20
284.9684112017
 30
0.0
 11
963.6094918897
 21
285.468412215
 31
0.0
  0
LINE
  5
8C
330
1F
100
AcDbEntity
  8
SLD-0_0
  6
SLD-Solid
 62
   179
370
    15
100
AcDbLine
 10
948.6094763924
 20
288.2754855101
 30
0.0
 11
948.6094763924
 21
288.2684149091
 31
0.0
  0
LINE
  5
8D
330
1F
100
AcDbEntity
  8
SLD-0_0
  6
SLD-Solid
 62
   179
370
    15
100
AcDbLine
 10
961.6094878365
 20
288.2684149091
 30
0.0
 11
961.6094878365
 21
288.2754855101
 31
0.0
  0
LINE
  5
8E
330
1F
100
AcDbEntity
  8
SLD-0_0
  6
SLD-Solid
 62
   179
370
    15
100
AcDbLine
 10
888.1094841377
 20
114.4684138655
 30
0.0
 11
888.1094804456
 21
118.4684165065
 31
0.0
  0
LINE
  5
8F
330
1F
100
AcDbEntity
  8
SLD-0_0
  6
SLD-Solid
 62
   179
370
    15
100
AcDbLine
 10
831.1094692399
 20
118.4684165065
 30
0.0
 11
831.1094692399
 21
114.4684084003
 31
0.0
  0
LINE
  5
90
330
1F
100
AcDbEntity
  8
SLD-0_0
  6
SLD-Solid
 62
   179
370
    15
100
AcDbLine
 10
299.1094841377
 20
114.4684138655
 30
0.0
 11
299.1094788958
 21
118.4684165065
 31
0.0
  0
LINE
  5
91
330
1F
100
AcDbEntity
  8
SLD-0_0
  6
SLD-Solid
 62
   179
370
    15
100
AcDbLine
 10
242.1094825913
 20
118.4684165065
 30
0.0
 11
242.1094841377
 21
114.4684138655
 31
0.0
  0
LINE
  5
92
330
1F
100
AcDbEntity
  8
SLD-0_0
  6
SLD-Solid
 62
   179
370
    15
100
AcDbLine
 10
298.9094904115
 20
118.4684165065
 30
0.0
 11
298.9094904115
 21
186.468420202
 31
0.0
  0
LINE
  5
93
330
1F
100
AcDbEntity
  8
SLD-0_0
  6
SLD-Solid
 62
   179
370
    15
100
AcDbLine
 10
242.3094859769
 20
186.468420202
 30
0.0
 11
242.3094859769
 21
118.4684165065
 31
0.0
  0
LINE
  5
94
330
1F
100
AcDbEntity
  8
SLD-0_0
  6
SLD-Solid
 62
   179
370
    15
100
AcDbLine
 10
887.90947706
 20
118.4684165065
 30
0.0
 11
887.90947706
 21
186.468420202
 31
0.0
  0
LINE
  5
95
330
1F
100
AcDbEntity
  8
SLD-0_0
  6
SLD-Solid
 62
   179
370
    15
100
AcDbLine
 10
831.3094726254
 20
186.468420202
 30
0.0
 11
831.3094726254
 21
118.4684165065
 31
0.0
  0
LINE
  5
96
330
1F
100
AcDbEntity
  8
SLD-0_0
  6
SLD-Solid
 62
   179
370
    15
100
AcDbLine
 10
891.5094783952
 20
192.5009764974
 30
0.0
 11
891.5094841377
 21
278.9684138655
 31
0.0
  0
LINE
  5
97
330
1F
100
AcDbEntity
  8
SLD-0_0
  6
SLD-Solid
 62
   179
370
    15
100
AcDbLine
 10
827.7094712903
 20
278.9684139435
 30
0.0
 11
827.7094712903
 21
192.5009764974
 31
0.0
  0
LINE
  5
98
330
1F
100
AcDbEntity
  8
SLD-0_0
  6
SLD-Solid
 62
   179
370
    15
100
AcDbLine
 10
827.7733973647
 20
191.7285165866
 30
0.0
 11
828.6498239686
 21
186.468420202
 31
0.0
  0
LINE
  5
99
330
1F
100
AcDbEntity
  8
SLD-0_0
  6
SLD-Solid
 62
   179
370
    15
100
AcDbLine
 10
890.5691257169
 20
186.468420202
 30
0.0
 11
891.445582216
 21
191.7285152023
 31
0.0
  0
LINE
  5
9A
330
1F
100
AcDbEntity
  8
SLD-0_0
  6
SLD-Solid
 62
   179
370
    15
100
AcDbLine
 10
302.5094768454
 20
192.5009764974
 30
0.0
 11
302.5094841377
 21
278.9684138655
 31
0.0
  0
LINE
  5
9B
330
1F
100
AcDbEntity
  8
SLD-0_0
  6
SLD-Solid
 62
   179
370
    15
100
AcDbLine
 10
238.7094841377
 20
278.9684138655
 30
0.0
 11
238.7094846417
 21
192.5009764974
 31
0.0
  0
LINE
  5
9C
330
1F
100
AcDbEntity
  8
SLD-0_0
  6
SLD-Solid
 62
   179
370
    15
100
AcDbLine
 10
238.7734106233
 20
191.7285152023
 30
0.0
 11
239.64983732
 21
186.468420202
 31
0.0
  0
LINE
  5
9D
330
1F
100
AcDbEntity
  8
SLD-0_0
  6
SLD-Solid
 62
   179
370
    15
100
AcDbLine
 10
301.5691390683
 20
186.468420202
 30
0.0
 11
302.4455709107
 21
191.7285165867
 31
0.0
  0
LINE
  5
9E
330
1F
100
AcDbEntity
  8
SLD-0_0
  6
SLD-Solid
 62
   179
370
    15
100
AcDbLine
 10
198.3094862153
 20
936.5184135978
 30
0.0
 11
197.4094858815
 21
936.5184135978
 31
0.0
  0
LINE
  5
9F
330
1F
100
AcDbEntity
  8
SLD-0_0
  6
SLD-Solid
 62
   179
370
    15
100
AcDbLine
 10
197.4094858815
 20
904.5184083526
 30
0.0
 11
198.3094862153
 21
904.5184083526
 31
0.0
  0
LINE
  5
A0
330
1F
100
AcDbEntity
  8
SLD-0_0
  6
SLD-Solid
 62
   179
370
    15
100
AcDbLine
 10
905.9094837357
 20
885.4456968849
 30
0.0
 11
906.1094871213
 21
885.5106659477
 31
0.0
  0
LINE
  5
A1
330
1F
100
AcDbEntity
  8
SLD-0_0
  6
SLD-Solid
 62
   179
370
    15
100
AcDbLine
 10
940.5186227013
 20
902.4739094322
 30
0.0
 11
947.8541961362
 21
904.8573799675
 31
0.0
  0
LINE
  5
A2
330
1F
100
AcDbEntity
  8
SLD-0_0
  6
SLD-Solid
 62
   179
370
    15
100
AcDbLine
 10
945.073043411
 20
913.4169049804
 30
0.0
 11
937.7374699761
 21
911.0334344452
 31
0.0
  0
LINE
  5
A3
330
1F
100
AcDbEntity
  8
SLD-0_0
  6
SLD-Solid
 62
   179
370
    15
100
AcDbLine
 10
905.9094837357
 20
888.0743809288
 30
0.0
 11
906.1094871213
 21
888.1393499916
 31
0.0
  0
LINE
  5
A4
330
1F
100
AcDbEntity
  8
SLD-0_0
  6
SLD-Solid
 62
   179
370
    15
100
AcDbLine
 10
906.1094871213
 20
918.4540339058
 30
0.0
 11
905.9094837357
 21
919.0695710724
 31
0.0
  0
LINE
  5
A5
330
1F
100
AcDbEntity
  8
SLD-0_0
  6
SLD-Solid
 62
   179
370
    15
100
AcDbLine
 10
945.2275684525
 20
912.9413791244
 30
0.0
 11
937.8919950177
 21
910.5579085891
 31
0.0
  0
LINE
  5
A6
330
1F
100
AcDbEntity
  8
SLD-0_0
  6
SLD-Solid
 62
   179
370
    15
100
AcDbLine
 10
940.3641274621
 20
902.9494352882
 30
0.0
 11
947.6997008969
 21
905.3329058235
 31
0.0
  0
LINE
  5
A7
330
1F
100
AcDbEntity
  8
SLD-0_0
  6
SLD-Solid
 62
   179
370
    15
100
AcDbLine
 10
958.4088078191
 20
878.8458533828
 30
0.0
 11
966.6833034207
 21
885.7402630394
 31
0.0
  0
LINE
  5
A8
330
1F
100
AcDbEntity
  8
SLD-0_0
  6
SLD-Solid
 62
   179
370
    15
100
AcDbLine
 10
940.817361181
 20
940.4987521713
 30
0.0
 11
938.3226981809
 21
940.6645126884
 31
0.0
  0
LINE
  5
A9
330
1F
100
AcDbEntity
  8
SLD-0_0
  6
SLD-Solid
 62
   179
370
    15
100
AcDbLine
 10
949.0693262269
 20
939.950449044
 30
0.0
 11
945.8061805417
 21
940.1672907417
 31
0.0
  0
LINE
  5
AA
330
1F
100
AcDbEntity
  8
SLD-0_0
  6
SLD-Solid
 62
   179
370
    15
100
AcDbLine
 10
949.5663693597
 20
939.8962088173
 30
0.0
 11
949.0693262269
 21
939.950449044
 31
0.0
  0
LINE
  5
AB
330
1F
100
AcDbEntity
  8
SLD-0_0
  6
SLD-Solid
 62
   179
370
    15
100
AcDbLine
 10
966.6833034207
 20
885.7402630394
 30
0.0
 11
982.444500034
 21
900.0455565994
 31
0.0
  0
LINE
  5
AC
330
1F
100
AcDbEntity
  8
SLD-0_0
  6
SLD-Solid
 62
   179
370
    15
100
AcDbLine
 10
948.6613026311
 20
902.3734160011
 30
0.0
 11
950.5741944959
 21
902.9582567756
 31
0.0
  0
LINE
  5
AD
330
1F
100
AcDbEntity
  8
SLD-0_0
  6
SLD-Solid
 62
   179
370
    15
100
AcDbLine
 10
945.8096674134
 20
940.1770659034
 30
0.0
 11
940.8152452161
 21
940.5089445656
 31
0.0
  0
LINE
  5
AE
330
1F
100
AcDbEntity
  8
SLD-0_0
  6
SLD-Solid
 62
   179
370
    15
100
AcDbLine
 10
306.4305236985
 20
1024.6121712272
 30
0.0
 11
306.206305926
 21
1026.959819371
 31
0.0
  0
LINE
  5
AF
330
1F
100
AcDbEntity
  8
SLD-0_0
  6
SLD-Solid
 62
   179
370
    15
100
AcDbLine
 10
818.3198621919
 20
1026.9591637199
 30
0.0
 11
818.0957487275
 21
1024.6249266212
 31
0.0
  0
LINE
  5
B0
330
1F
100
AcDbEntity
  8
SLD-0_0
  6
SLD-Solid
 62
   179
370
    15
100
AcDbLine
 10
538.2676716617
 20
1027.3198314254
 30
0.0
 11
537.9454516296
 21
1023.9488311355
 31
0.0
  0
LINE
  5
B1
330
1F
100
AcDbEntity
  8
SLD-0_0
  6
SLD-Solid
 62
   179
370
    15
100
AcDbLine
 10
586.5730842997
 20
1023.9771433418
 30
0.0
 11
586.2526497294
 21
1027.3199506347
 31
0.0
  0
LINE
  5
B2
330
1F
100
AcDbEntity
  8
SLD-0_0
  6
SLD-Solid
 62
   179
370
    15
100
AcDbLine
 10
828.25947315
 20
996.2684341018
 30
0.0
 11
829.8081508328
 21
985.1078219955
 31
0.0
  0
LINE
  5
B3
330
1F
100
AcDbEntity
  8
SLD-0_0
  6
SLD-Solid
 62
   179
370
    15
100
AcDbLine
 10
836.8143490006
 20
985.8538337295
 30
0.0
 11
838.1135514428
 21
995.2167101448
 31
0.0
  0
LINE
  5
B4
330
1F
100
AcDbEntity
  8
SLD-0_0
  6
SLD-Solid
 62
   179
370
    15
100
AcDbLine
 10
286.4054194142
 20
995.2167101448
 30
0.0
 11
287.741934364
 21
985.5849571769
 31
0.0
  0
LINE
  5
B5
330
1F
100
AcDbEntity
  8
SLD-0_0
  6
SLD-Solid
 62
   179
370
    15
100
AcDbLine
 10
294.7770258834
 20
985.5849571769
 30
0.0
 11
296.2594828059
 21
996.2684341018
 31
0.0
  0
LINE
  5
B6
330
1F
100
AcDbEntity
  8
SLD-0_0
  6
SLD-Solid
 62
   179
370
    15
100
AcDbLine
 10
586.5730842997
 20
1023.9771433418
 30
0.0
 11
586.2526497294
 21
1027.3199506347
 31
0.0
  0
LINE
  5
B7
330
1F
100
AcDbEntity
  8
SLD-0_0
  6
SLD-Solid
 62
   179
370
    15
100
AcDbLine
 10
367.4622377803
 20
1009.4467230385
 30
0.0
 11
367.2156831672
 21
1008.8710017746
 31
0.0
  0
LINE
  5
B8
330
1F
100
AcDbEntity
  8
SLD-0_0
  6
SLD-Solid
 62
   179
370
    15
100
AcDbLine
 10
656.9609618236
 20
1009.826523835
 30
0.0
 11
656.9083085706
 21
1010.2258153503
 31
0.0
  0
LINE
  5
B9
330
1F
100
AcDbEntity
  8
SLD-0_0
  6
SLD-Solid
 62
   179
370
    15
100
AcDbLine
 10
199.2094865491
 20
965.1683993881
 30
0.0
 11
199.2094865491
 21
965.8144541328
 31
0.0
  0
LINE
  5
BA
330
1F
100
AcDbEntity
  8
SLD-0_0
  6
SLD-Solid
 62
   179
370
    15
100
AcDbLine
 10
199.2094865491
 20
963.5653920715
 30
0.0
 11
199.2094865491
 21
963.7067742889
 31
0.0
  0
LINE
  5
BB
330
1F
100
AcDbEntity
  8
SLD-0_0
  6
SLD-Solid
 62
   179
370
    15
100
AcDbLine
 10
199.2094865491
 20
964.9978108947
 30
0.0
 11
199.2094865491
 21
965.1683993881
 31
0.0
  0
LINE
  5
BC
330
1F
100
AcDbEntity
  8
SLD-0_0
  6
SLD-Solid
 62
   179
370
    15
100
AcDbLine
 10
199.1994729688
 20
965.3369017189
 30
0.0
 11
199.2094865491
 21
965.3369017189
 31
0.0
  0
LINE
  5
BD
330
1F
100
AcDbEntity
  8
SLD-0_0
  6
SLD-Solid
 62
   179
370
    15
100
AcDbLine
 10
199.1994729688
 20
965.3369017189
 30
0.0
 11
199.1994729688
 21
965.7157488411
 31
0.0
  0
LINE
  5
BE
330
1F
100
AcDbEntity
  8
SLD-0_0
  6
SLD-Solid
 62
   179
370
    15
100
AcDbLine
 10
199.1994729688
 20
965.7157488411
 30
0.0
 11
199.2094865491
 21
965.7157488411
 31
0.0
  0
LINE
  5
BF
330
1F
100
AcDbEntity
  8
SLD-0_0
  6
SLD-Solid
 62
   179
370
    15
100
AcDbLine
 10
752.594923084
 20
987.2795172279
 30
0.0
 11
649.6240472843
 21
987.2795172279
 31
0.0
  0
LINE
  5
C0
330
1F
100
AcDbEntity
  8
SLD-0_0
  6
SLD-Solid
 62
   179
370
    15
100
AcDbLine
 10
472.5949144413
 20
987.2795172279
 30
0.0
 11
369.6240535428
 21
987.2795172279
 31
0.0
  0
LINE
  5
C1
330
1F
100
AcDbEntity
  8
SLD-0_0
  6
SLD-Solid
 62
   179
370
    15
100
AcDbLine
 10
940.5906549146
 20
911.9604654854
 30
0.0
 11
940.2238479306
 21
913.0893774574
 31
0.0
  0
LINE
  5
C2
330
1F
100
AcDbEntity
  8
SLD-0_0
  6
SLD-Solid
 62
   179
370
    15
100
AcDbLine
 10
940.2238479306
 20
913.0893774574
 30
0.0
 11
939.8401132275
 21
914.2704434936
 31
0.0
  0
LINE
  5
C3
330
1F
100
AcDbEntity
  8
SLD-0_0
  6
SLD-Solid
 62
   179
370
    15
100
AcDbLine
 10
939.8401132275
 20
914.2704434936
 30
0.0
 11
939.5470967938
 21
915.1722021644
 31
0.0
  0
LINE
  5
C4
330
1F
100
AcDbEntity
  8
SLD-0_0
  6
SLD-Solid
 62
   179
370
    15
100
AcDbLine
 10
939.5470967938
 20
915.1722021644
 30
0.0
 11
939.3554380586
 21
915.7621093338
 31
0.0
  0
LINE
  5
C5
330
1F
100
AcDbEntity
  8
SLD-0_0
  6
SLD-Solid
 62
   179
370
    15
100
AcDbLine
 10
939.3554380586
 20
915.7621093338
 30
0.0
 11
939.2720213582
 21
916.0187669342
 31
0.0
  0
LINE
  5
C6
330
1F
100
AcDbEntity
  8
SLD-0_0
  6
SLD-Solid
 62
   179
370
    15
100
AcDbLine
 10
939.2720213582
 20
916.0187669342
 30
0.0
 11
939.2685344865
 21
916.0294957702
 31
0.0
  0
LINE
  5
C7
330
1F
100
AcDbEntity
  8
SLD-0_0
  6
SLD-Solid
 62
   179
370
    15
100
AcDbLine
 10
945.4334428956
 20
897.0559068268
 30
0.0
 11
945.4299262215
 21
897.0666952675
 31
0.0
  0
LINE
  5
C8
330
1F
100
AcDbEntity
  8
SLD-0_0
  6
SLD-Solid
 62
   179
370
    15
100
AcDbLine
 10
945.4299262215
 20
897.0666952675
 30
0.0
 11
945.3465393235
 21
897.3233528679
 31
0.0
  0
LINE
  5
C9
330
1F
100
AcDbEntity
  8
SLD-0_0
  6
SLD-Solid
 62
   179
370
    15
100
AcDbLine
 10
945.3465393235
 20
897.3233528679
 30
0.0
 11
945.1548805882
 21
897.9132600372
 31
0.0
  0
LINE
  5
CA
330
1F
100
AcDbEntity
  8
SLD-0_0
  6
SLD-Solid
 62
   179
370
    15
100
AcDbLine
 10
945.1548805882
 20
897.9132600372
 30
0.0
 11
944.8618641545
 21
898.815018708
 31
0.0
  0
LINE
  5
CB
330
1F
100
AcDbEntity
  8
SLD-0_0
  6
SLD-Solid
 62
   179
370
    15
100
AcDbLine
 10
944.8618641545
 20
898.815018708
 30
0.0
 11
944.4781294515
 21
899.9960847442
 31
0.0
  0
LINE
  5
CC
330
1F
100
AcDbEntity
  8
SLD-0_0
  6
SLD-Solid
 62
   179
370
    15
100
AcDbLine
 10
944.4781294515
 20
899.9960847442
 30
0.0
 11
944.0174749543
 21
901.4137812202
 31
0.0
  0
LINE
  5
CD
330
1F
100
AcDbEntity
  8
SLD-0_0
  6
SLD-Solid
 62
   179
370
    15
100
AcDbLine
 10
944.0174749543
 20
901.4137812202
 30
0.0
 11
943.4966197659
 21
903.0168481415
 31
0.0
  0
LINE
  5
CE
330
1F
100
AcDbEntity
  8
SLD-0_0
  6
SLD-Solid
 62
   179
370
    15
100
AcDbLine
 10
943.4966197659
 20
903.0168481415
 30
0.0
 11
943.3718076398
 21
903.401000077
 31
0.0
  0
LINE
  5
CF
330
1F
100
AcDbEntity
  8
SLD-0_0
  6
SLD-Solid
 62
   179
370
    15
100
AcDbLine
 10
188.1094923665
 20
338.0428232496
 30
0.0
 11
188.1094923665
 21
330.2750937884
 31
0.0
  0
LINE
  5
D0
330
1F
100
AcDbEntity
  8
SLD-0_0
  6
SLD-Solid
 62
   179
370
    15
100
AcDbLine
 10
186.9094720532
 20
330.2750937884
 30
0.0
 11
186.9094720532
 21
337.7651522179
 31
0.0
  0
LINE
  5
D1
330
1F
100
AcDbEntity
  8
SLD-0_0
  6
SLD-Solid
 62
   179
370
    15
100
AcDbLine
 10
187.1594837357
 20
330.3062875067
 30
0.0
 11
187.859480684
 21
330.3062875067
 31
0.0
  0
LINE
  5
D2
330
1F
100
AcDbEntity
  8
SLD-0_0
  6
SLD-Solid
 62
   179
370
    15
100
AcDbLine
 10
188.1094923665
 20
330.0306998437
 30
0.0
 11
188.1094923665
 21
326.1555169021
 31
0.0
  0
LINE
  5
D3
330
1F
100
AcDbEntity
  8
SLD-0_0
  6
SLD-Solid
 62
   179
370
    15
100
AcDbLine
 10
181.3094964673
 20
325.1879751926
 30
0.0
 11
181.3094964673
 21
329.0631581341
 31
0.0
  0
LINE
  5
D4
330
1F
100
AcDbEntity
  8
SLD-0_0
  6
SLD-Solid
 62
   179
370
    15
100
AcDbLine
 10
181.3094964673
 20
329.0631581341
 30
0.0
 11
181.3094964673
 21
329.6257961785
 31
0.0
  0
LINE
  5
D5
330
1F
100
AcDbEntity
  8
SLD-0_0
  6
SLD-Solid
 62
   179
370
    15
100
AcDbLine
 10
186.9094720532
 20
330.0306998437
 30
0.0
 11
186.9094720532
 21
330.2750937884
 31
0.0
  0
LINE
  5
D6
330
1F
100
AcDbEntity
  8
SLD-0_0
  6
SLD-Solid
 62
   179
370
    15
100
AcDbLine
 10
188.1094923665
 20
330.2750937884
 30
0.0
 11
188.1094923665
 21
330.0306998437
 31
0.0
  0
LINE
  5
D7
330
1F
100
AcDbEntity
  8
SLD-0_0
  6
SLD-Solid
 62
   179
370
    15
100
AcDbLine
 10
186.659490173
 20
324.9379746859
 30
0.0
 11
186.659490173
 21
324.9573108052
 31
0.0
  0
LINE
  5
D8
330
1F
100
AcDbEntity
  8
SLD-0_0
  6
SLD-Solid
 62
   179
370
    15
100
AcDbLine
 10
188.1094923665
 20
326.1555169021
 30
0.0
 11
188.1094841374
 21
325.9184138639
 31
0.0
  0
LINE
  5
D9
330
1F
100
AcDbEntity
  8
SLD-0_0
  6
SLD-Solid
 62
   179
370
    15
100
AcDbLine
 10
181.3094964673
 20
342.9862154891
 30
0.0
 11
181.3094964673
 21
343.5488530678
 31
0.0
  0
LINE
  5
DA
330
1F
100
AcDbEntity
  8
SLD-0_0
  6
SLD-Solid
 62
   179
370
    15
100
AcDbLine
 10
181.3094964673
 20
339.6851202716
 30
0.0
 11
181.3094964673
 21
342.9862154891
 31
0.0
  0
LINE
  5
DB
330
1F
100
AcDbEntity
  8
SLD-0_0
  6
SLD-Solid
 62
   179
370
    15
100
AcDbLine
 10
185.7094815423
 20
329.8757966851
 30
0.0
 11
185.7094815423
 21
337.7017291506
 31
0.0
  0
LINE
  5
DC
330
1F
100
AcDbEntity
  8
SLD-0_0
  6
SLD-Solid
 62
   179
370
    15
100
AcDbLine
 10
186.9094720532
 20
337.7017291506
 30
0.0
 11
186.9094720532
 21
330.2750937884
 31
0.0
  0
LINE
  5
DD
330
1F
100
AcDbEntity
  8
SLD-0_0
  6
SLD-Solid
 62
   179
370
    15
100
AcDbLine
 10
186.659490173
 20
337.6405757164
 30
0.0
 11
185.9594932248
 21
337.6405757164
 31
0.0
  0
LINE
  5
DE
330
1F
100
AcDbEntity
  8
SLD-0_0
  6
SLD-Solid
 62
   179
370
    15
100
AcDbLine
 10
185.7094815423
 20
337.9242155944
 30
0.0
 11
185.7094815423
 21
342.2381795255
 31
0.0
  0
LINE
  5
DF
330
1F
100
AcDbEntity
  8
SLD-0_0
  6
SLD-Solid
 62
   179
370
    15
100
AcDbLine
 10
192.5094841374
 20
343.1189901719
 30
0.0
 11
192.5094774415
 21
338.8050260266
 31
0.0
  0
LINE
  5
E0
330
1F
100
AcDbEntity
  8
SLD-0_0
  6
SLD-Solid
 62
   179
370
    15
100
AcDbLine
 10
192.5094774415
 20
338.8050260266
 30
0.0
 11
192.5094841374
 21
338.2928231998
 31
0.0
  0
LINE
  5
E1
330
1F
100
AcDbEntity
  8
SLD-0_0
  6
SLD-Solid
 62
   179
370
    15
100
AcDbLine
 10
185.7094815423
 20
337.7017291506
 30
0.0
 11
185.7094815423
 21
337.9242155944
 31
0.0
  0
LINE
  5
E2
330
1F
100
AcDbEntity
  8
SLD-0_0
  6
SLD-Solid
 62
   179
370
    15
100
AcDbLine
 10
186.9094720532
 20
337.9242155944
 30
0.0
 11
186.9094720532
 21
337.7017291506
 31
0.0
  0
LINE
  5
E3
330
1F
100
AcDbEntity
  8
SLD-0_0
  6
SLD-Solid
 62
   179
370
    15
100
AcDbLine
 10
187.1594837357
 20
343.3689899986
 30
0.0
 11
187.1594837357
 21
343.3388537971
 31
0.0
  0
LINE
  5
E4
330
1F
100
AcDbEntity
  8
SLD-0_0
  6
SLD-Solid
 62
   179
370
    15
100
AcDbLine
 10
185.7094815423
 20
342.2381795255
 30
0.0
 11
185.7094841374
 21
342.8184138639
 31
0.0
  0
LINE
  5
E5
330
1F
100
AcDbEntity
  8
SLD-0_0
  6
SLD-Solid
 62
   179
370
    15
100
AcDbLine
 10
192.5094774415
 20
326.1300396418
 30
0.0
 11
192.5094841374
 21
325.6178375558
 31
0.0
  0
LINE
  5
E6
330
1F
100
AcDbEntity
  8
SLD-0_0
  6
SLD-Solid
 62
   179
370
    15
100
AcDbLine
 10
192.5094774415
 20
328.8670961057
 30
0.0
 11
192.5094774415
 21
326.1300396418
 31
0.0
  0
LINE
  5
E7
330
1F
100
AcDbEntity
  8
SLD-0_0
  6
SLD-Solid
 62
   179
370
    15
100
AcDbLine
 10
198.3094862153
 20
328.696163023
 30
0.0
 11
194.0060606648
 21
328.696163023
 31
0.0
  0
LINE
  5
E8
330
1F
100
AcDbEntity
  8
SLD-0_0
  6
SLD-Solid
 62
   179
370
    15
100
AcDbLine
 10
194.0060606648
 20
332.4645810073
 30
0.0
 11
193.5594728639
 21
330.5803720151
 31
0.0
  0
LINE
  5
E9
330
1F
100
AcDbEntity
  8
SLD-0_0
  6
SLD-Solid
 62
   179
370
    15
100
AcDbLine
 10
198.3094862153
 20
332.4645810073
 30
0.0
 11
194.0060606648
 21
332.4645810073
 31
0.0
  0
LINE
  5
EA
330
1F
100
AcDbEntity
  8
SLD-0_0
  6
SLD-Solid
 62
   179
370
    15
100
AcDbLine
 10
193.5594728639
 20
330.5803720151
 30
0.0
 11
193.5594728639
 21
335.3007069101
 31
0.0
  0
LINE
  5
EB
330
1F
100
AcDbEntity
  8
SLD-0_0
  6
SLD-Solid
 62
   179
370
    15
100
AcDbLine
 10
198.3094862153
 20
338.1368328129
 30
0.0
 11
194.0060606648
 21
338.1368328129
 31
0.0
  0
LINE
  5
EC
330
1F
100
AcDbEntity
  8
SLD-0_0
  6
SLD-Solid
 62
   179
370
    15
100
AcDbLine
 10
193.5594728639
 20
335.3007069101
 30
0.0
 11
193.5594728639
 21
339.0887487923
 31
0.0
  0
LINE
  5
ED
330
1F
100
AcDbEntity
  8
SLD-0_0
  6
SLD-Solid
 62
   179
370
    15
100
AcDbLine
 10
194.0060606648
 20
340.040665703
 30
0.0
 11
193.5594728639
 21
339.0887487923
 31
0.0
  0
LINE
  5
EE
330
1F
100
AcDbEntity
  8
SLD-0_0
  6
SLD-Solid
 62
   179
370
    15
100
AcDbLine
 10
198.3094862153
 20
340.040665703
 30
0.0
 11
194.0060606648
 21
340.040665703
 31
0.0
  0
LINE
  5
EF
330
1F
100
AcDbEntity
  8
SLD-0_0
  6
SLD-Solid
 62
   179
370
    15
100
AcDbLine
 10
194.0060606648
 20
328.696163023
 30
0.0
 11
193.8301077535
 21
329.0711991732
 31
0.0
  0
LINE
  5
F0
330
1F
100
AcDbEntity
  8
SLD-0_0
  6
SLD-Solid
 62
   179
370
    15
100
AcDbLine
 10
193.5594728639
 20
329.3684140091
 30
0.0
 11
193.5594728639
 21
330.5803720151
 31
0.0
  0
LINE
  5
F1
330
1F
100
AcDbEntity
  8
SLD-0_0
  6
SLD-Solid
 62
   179
370
    15
100
AcDbLine
 10
193.5594728639
 20
339.0887487923
 30
0.0
 11
193.5594728639
 21
339.3684137856
 31
0.0
  0
LINE
  5
F2
330
1F
100
AcDbEntity
  8
SLD-0_0
  6
SLD-Solid
 62
   179
370
    15
100
AcDbLine
 10
185.2628937413
 20
338.9759917056
 30
0.0
 11
185.7094815423
 21
336.3176385184
 31
0.0
  0
LINE
  5
F3
330
1F
100
AcDbEntity
  8
SLD-0_0
  6
SLD-Solid
 62
   179
370
    15
100
AcDbLine
 10
185.2628937413
 20
333.6592862626
 30
0.0
 11
180.9560707261
 21
333.6592862626
 31
0.0
  0
LINE
  5
F4
330
1F
100
AcDbEntity
  8
SLD-0_0
  6
SLD-Solid
 62
   179
370
    15
100
AcDbLine
 10
180.9560707261
 20
338.9759917056
 30
0.0
 11
180.5094829251
 21
336.3176385184
 31
0.0
  0
LINE
  5
F5
330
1F
100
AcDbEntity
  8
SLD-0_0
  6
SLD-Solid
 62
   179
370
    15
100
AcDbLine
 10
185.2628937413
 20
338.9759917056
 30
0.0
 11
180.9560707261
 21
338.9759917056
 31
0.0
  0
LINE
  5
F6
330
1F
100
AcDbEntity
  8
SLD-0_0
  6
SLD-Solid
 62
   179
370
    15
100
AcDbLine
 10
180.5094829251
 20
331.3554968928
 30
0.0
 11
180.5094829251
 21
336.3176385184
 31
0.0
  0
LINE
  5
F7
330
1F
100
AcDbEntity
  8
SLD-0_0
  6
SLD-Solid
 62
   179
370
    15
100
AcDbLine
 10
185.4884079148
 20
329.8757966851
 30
0.0
 11
185.7094815423
 21
331.3554968928
 31
0.0
  0
LINE
  5
F8
330
1F
100
AcDbEntity
  8
SLD-0_0
  6
SLD-Solid
 62
   179
370
    15
100
AcDbLine
 10
181.3094964673
 20
329.0517084544
 30
0.0
 11
180.9560707261
 21
329.0517084544
 31
0.0
  0
LINE
  5
F9
330
1F
100
AcDbEntity
  8
SLD-0_0
  6
SLD-Solid
 62
   179
370
    15
100
AcDbLine
 10
180.5094829251
 20
336.3176385184
 30
0.0
 11
180.5094829251
 21
339.3305555229
 31
0.0
  0
LINE
  5
FA
330
1F
100
AcDbEntity
  8
SLD-0_0
  6
SLD-Solid
 62
   179
370
    15
100
AcDbLine
 10
180.9560707261
 20
329.0517084544
 30
0.0
 11
180.5094829251
 21
329.4062722718
 31
0.0
  0
LINE
  5
FB
330
1F
100
AcDbEntity
  8
SLD-0_0
  6
SLD-Solid
 62
   179
370
    15
100
AcDbLine
 10
180.5094829251
 20
331.3554968928
 30
0.0
 11
180.5094829251
 21
329.3685648834
 31
0.0
  0
LINE
  5
FC
330
1F
100
AcDbEntity
  8
SLD-0_0
  6
SLD-Solid
 62
   179
370
    15
100
AcDbLine
 10
185.2628937413
 20
339.6851202716
 30
0.0
 11
185.7094815423
 21
339.3305555229
 31
0.0
  0
LINE
  5
FD
330
1F
100
AcDbEntity
  8
SLD-0_0
  6
SLD-Solid
 62
   179
370
    15
100
AcDbLine
 10
180.9560707261
 20
339.6851202716
 30
0.0
 11
180.5094829251
 21
339.3305555229
 31
0.0
  0
LINE
  5
FE
330
1F
100
AcDbEntity
  8
SLD-0_0
  6
SLD-Solid
 62
   179
370
    15
100
AcDbLine
 10
185.2628937413
 20
339.6851202716
 30
0.0
 11
180.9560707261
 21
339.6851202716
 31
0.0
  0
LINE
  5
FF
330
1F
100
AcDbEntity
  8
SLD-0_0
  6
SLD-Solid
 62
   179
370
    15
100
AcDbLine
 10
192.8629031827
 20
339.8697326203
 30
0.0
 11
193.3094909837
 21
337.7358472218
 31
0.0
  0
LINE
  5
100
330
1F
100
AcDbEntity
  8
SLD-0_0
  6
SLD-Solid
 62
   179
370
    15
100
AcDbLine
 10
192.8629031827
 20
335.6019627546
 30
0.0
 11
188.5560801675
 21
335.6019627546
 31
0.0
  0
LINE
  5
101
330
1F
100
AcDbEntity
  8
SLD-0_0
  6
SLD-Solid
 62
   179
370
    15
100
AcDbLine
 10
188.1737163712
 20
338.0428232496
 30
0.0
 11
188.1094923665
 21
337.7358472218
 31
0.0
  0
LINE
  5
102
330
1F
100
AcDbEntity
  8
SLD-0_0
  6
SLD-Solid
 62
   179
370
    15
100
AcDbLine
 10
192.8629031827
 20
339.8697326203
 30
0.0
 11
192.5094774415
 21
339.8697326203
 31
0.0
  0
LINE
  5
103
330
1F
100
AcDbEntity
  8
SLD-0_0
  6
SLD-Solid
 62
   179
370
    15
100
AcDbLine
 10
193.3094909837
 20
332.8513043245
 30
0.0
 11
193.3094909837
 21
337.7358472218
 31
0.0
  0
LINE
  5
104
330
1F
100
AcDbEntity
  8
SLD-0_0
  6
SLD-Solid
 62
   179
370
    15
100
AcDbLine
 10
192.8629031827
 20
330.1006440317
 30
0.0
 11
188.5560801675
 21
330.1006440317
 31
0.0
  0
LINE
  5
105
330
1F
100
AcDbEntity
  8
SLD-0_0
  6
SLD-Solid
 62
   179
370
    15
100
AcDbLine
 10
188.5560801675
 20
330.1006440317
 30
0.0
 11
188.1094923665
 21
329.4838700687
 31
0.0
  0
LINE
  5
106
330
1F
100
AcDbEntity
  8
SLD-0_0
  6
SLD-Solid
 62
   179
370
    15
100
AcDbLine
 10
192.8629031827
 20
330.1006440317
 30
0.0
 11
193.3094909837
 21
329.4838700687
 31
0.0
  0
LINE
  5
107
330
1F
100
AcDbEntity
  8
SLD-0_0
  6
SLD-Solid
 62
   179
370
    15
100
AcDbLine
 10
193.3094909837
 20
332.8513043245
 30
0.0
 11
193.3094909837
 21
329.4838700687
 31
0.0
  0
LINE
  5
108
330
1F
100
AcDbEntity
  8
SLD-0_0
  6
SLD-Solid
 62
   179
370
    15
100
AcDbLine
 10
193.1603601624
 20
339.486023063
 30
0.0
 11
192.8629031827
 21
339.8697326203
 31
0.0
  0
LINE
  5
109
330
1F
100
AcDbEntity
  8
SLD-0_0
  6
SLD-Solid
 62
   179
370
    15
100
AcDbLine
 10
193.3094909837
 20
339.3684137856
 30
0.0
 11
193.3094909837
 21
337.7358472218
 31
0.0
  0
LINE
  5
10A
330
1F
100
AcDbEntity
  8
SLD-0_0
  6
SLD-Solid
 62
   179
370
    15
100
AcDbLine
 10
192.8629031827
 20
328.8670961057
 30
0.0
 11
188.5560801675
 21
328.8670961057
 31
0.0
  0
LINE
  5
10B
330
1F
100
AcDbEntity
  8
SLD-0_0
  6
SLD-Solid
 62
   179
370
    15
100
AcDbLine
 10
188.2585933854
 20
329.2508047317
 30
0.0
 11
188.5560801675
 21
328.8670961057
 31
0.0
  0
LINE
  5
10C
330
1F
100
AcDbEntity
  8
SLD-0_0
  6
SLD-Solid
 62
   179
370
    15
100
AcDbLine
 10
193.3094909837
 20
329.4838700687
 30
0.0
 11
193.3094909837
 21
329.3684140091
 31
0.0
  0
LINE
  5
10D
330
1F
100
AcDbEntity
  8
SLD-0_0
  6
SLD-Solid
 62
   179
370
    15
100
AcDbLine
 10
297.1612246545
 20
984.2170965603
 30
0.0
 11
293.1279441764
 21
984.217090184
 31
0.0
  0
LINE
  5
10E
330
1F
100
AcDbEntity
  8
SLD-0_0
  6
SLD-Solid
 62
   179
370
    15
100
AcDbLine
 10
290.1215753009
 20
984.217090184
 30
0.0
 11
285.3577436213
 21
984.2170965603
 31
0.0
  0
LINE
  5
10F
330
1F
100
AcDbEntity
  8
SLD-0_0
  6
SLD-Solid
 62
   179
370
    15
100
AcDbLine
 10
296.4194914748
 20
984.7684331482
 30
0.0
 11
296.3751456191
 21
984.7684331482
 31
0.0
  0
LINE
  5
110
330
1F
100
AcDbEntity
  8
SLD-0_0
  6
SLD-Solid
 62
   179
370
    15
100
AcDbLine
 10
286.1438146283
 20
984.7684331482
 30
0.0
 11
286.0994687726
 21
984.7684331482
 31
0.0
  0
LINE
  5
111
330
1F
100
AcDbEntity
  8
SLD-0_0
  6
SLD-Solid
 62
   179
370
    15
100
AcDbLine
 10
840.1612392117
 20
984.217090184
 30
0.0
 11
834.3974104573
 21
984.217090184
 31
0.0
  0
LINE
  5
112
330
1F
100
AcDbEntity
  8
SLD-0_0
  6
SLD-Solid
 62
   179
370
    15
100
AcDbLine
 10
831.3910117795
 20
984.217090184
 30
0.0
 11
828.3577314069
 21
984.217090184
 31
0.0
  0
LINE
  5
113
330
1F
100
AcDbEntity
  8
SLD-0_0
  6
SLD-Solid
 62
   179
370
    15
100
AcDbLine
 10
839.4194892098
 20
984.7684331482
 30
0.0
 11
839.3751433541
 21
984.7684331482
 31
0.0
  0
LINE
  5
114
330
1F
100
AcDbEntity
  8
SLD-0_0
  6
SLD-Solid
 62
   179
370
    15
100
AcDbLine
 10
829.1438272645
 20
984.7684331482
 30
0.0
 11
829.0994814088
 21
984.7684331482
 31
0.0
  0
LINE
  5
115
330
1F
100
AcDbEntity
  8
SLD-0_0
  6
SLD-Solid
 62
   179
370
    15
100
AcDbLine
 10
298.9094904115
 20
965.768439347
 30
0.0
 11
298.9094904115
 21
965.7185502594
 31
0.0
  0
LINE
  5
116
330
1F
100
AcDbEntity
  8
SLD-0_0
  6
SLD-Solid
 62
   179
370
    15
100
AcDbLine
 10
294.9594906022
 20
965.768439347
 30
0.0
 11
294.9594906022
 21
965.7185502594
 31
0.0
  0
LINE
  5
117
330
1F
100
AcDbEntity
  8
SLD-0_0
  6
SLD-Solid
 62
   179
370
    15
100
AcDbLine
 10
285.2594903161
 20
965.7185502594
 30
0.0
 11
285.2594903161
 21
965.768439347
 31
0.0
  0
LINE
  5
118
330
1F
100
AcDbEntity
  8
SLD-0_0
  6
SLD-Solid
 62
   179
370
    15
100
AcDbLine
 10
281.3094905068
 20
965.768439347
 30
0.0
 11
281.3094905068
 21
965.7185502594
 31
0.0
  0
LINE
  5
119
330
1F
100
AcDbEntity
  8
SLD-0_0
  6
SLD-Solid
 62
   179
370
    15
100
AcDbLine
 10
281.3094905068
 20
965.7185502594
 30
0.0
 11
281.3094905068
 21
965.1683993881
 31
0.0
  0
LINE
  5
11A
330
1F
100
AcDbEntity
  8
SLD-0_0
  6
SLD-Solid
 62
   179
370
    15
100
AcDbLine
 10
285.2594903161
 20
965.1683993881
 30
0.0
 11
285.2594903161
 21
965.7185502594
 31
0.0
  0
LINE
  5
11B
330
1F
100
AcDbEntity
  8
SLD-0_0
  6
SLD-Solid
 62
   179
370
    15
100
AcDbLine
 10
298.9094904115
 20
965.7185502594
 30
0.0
 11
298.9094904115
 21
965.1683993881
 31
0.0
  0
LINE
  5
11C
330
1F
100
AcDbEntity
  8
SLD-0_0
  6
SLD-Solid
 62
   179
370
    15
100
AcDbLine
 10
294.9594906022
 20
965.7185502594
 30
0.0
 11
294.9594906022
 21
965.1683993881
 31
0.0
  0
LINE
  5
11D
330
1F
100
AcDbEntity
  8
SLD-0_0
  6
SLD-Solid
 62
   179
370
    15
100
AcDbLine
 10
823.3094862153
 20
965.368432576
 30
0.0
 11
823.3094862153
 21
965.3185434883
 31
0.0
  0
LINE
  5
11E
330
1F
100
AcDbEntity
  8
SLD-0_0
  6
SLD-Solid
 62
   179
370
    15
100
AcDbLine
 10
840.9094861199
 20
965.368432576
 30
0.0
 11
840.9094861199
 21
965.3185434883
 31
0.0
  0
LINE
  5
11F
330
1F
100
AcDbEntity
  8
SLD-0_0
  6
SLD-Solid
 62
   179
370
    15
100
AcDbLine
 10
827.2594860246
 20
965.3185434883
 30
0.0
 11
827.2594860246
 21
965.368432576
 31
0.0
  0
LINE
  5
120
330
1F
100
AcDbEntity
  8
SLD-0_0
  6
SLD-Solid
 62
   179
370
    15
100
AcDbLine
 10
823.3094862153
 20
965.3185434883
 30
0.0
 11
823.3094862153
 21
965.1683993881
 31
0.0
  0
LINE
  5
121
330
1F
100
AcDbEntity
  8
SLD-0_0
  6
SLD-Solid
 62
   179
370
    15
100
AcDbLine
 10
827.2594860246
 20
965.1683993881
 30
0.0
 11
827.2594860246
 21
965.3185434883
 31
0.0
  0
LINE
  5
122
330
1F
100
AcDbEntity
  8
SLD-0_0
  6
SLD-Solid
 62
   179
370
    15
100
AcDbLine
 10
840.9094861199
 20
965.3185434883
 30
0.0
 11
840.9094861199
 21
965.1683993881
 31
0.0
  0
LINE
  5
123
330
1F
100
AcDbEntity
  8
SLD-0_0
  6
SLD-Solid
 62
   179
370
    15
100
AcDbLine
 10
913.1094841383
 20
368.0684138622
 30
0.0
 11
913.109486406
 21
782.8067071979
 31
0.0
  0
LINE
  5
124
330
1F
100
AcDbEntity
  8
SLD-0_0
  6
SLD-Solid
 62
   179
370
    15
100
AcDbLine
 10
913.109486406
 20
782.8067071979
 30
0.0
 11
913.1094841383
 21
794.8067063147
 31
0.0
  0
LINE
  5
125
330
1F
100
AcDbEntity
  8
SLD-0_0
  6
SLD-Solid
 62
   179
370
    15
100
AcDbLine
 10
960.8621648003
 20
816.768420512
 30
0.0
 11
946.5263238599
 21
816.768420512
 31
0.0
  0
LINE
  5
126
330
1F
100
AcDbEntity
  8
SLD-0_0
  6
SLD-Solid
 62
   179
370
    15
100
AcDbLine
 10
946.5263238599
 20
818.7684245651
 30
0.0
 11
960.8621648003
 21
818.7684245651
 31
0.0
  0
LINE
  5
127
330
1F
100
AcDbEntity
  8
SLD-0_0
  6
SLD-Solid
 62
   179
370
    15
100
AcDbLine
 10
961.2152925183
 20
818.8328273838
 30
0.0
 11
962.5743678262
 21
819.345814759
 31
0.0
  0
LINE
  5
128
330
1F
100
AcDbEntity
  8
SLD-0_0
  6
SLD-Solid
 62
   179
370
    15
100
AcDbLine
 10
963.2806232621
 20
817.4746759479
 30
0.0
 11
961.9215532818
 21
816.9616953529
 31
0.0
  0
LINE
  5
129
330
1F
100
AcDbEntity
  8
SLD-0_0
  6
SLD-Solid
 62
   179
370
    15
100
AcDbLine
 10
907.9094877889
 20
825.3684170788
 30
0.0
 11
907.9094841383
 21
819.7684138607
 31
0.0
  0
LINE
  5
12A
330
1F
100
AcDbEntity
  8
SLD-0_0
  6
SLD-Solid
 62
   179
370
    15
100
AcDbLine
 10
908.9094749143
 20
818.7684245651
 30
0.0
 11
929.292654102
 21
818.7684245651
 31
0.0
  0
LINE
  5
12B
330
1F
100
AcDbEntity
  8
SLD-0_0
  6
SLD-Solid
 62
   179
370
    15
100
AcDbLine
 10
905.9094837357
 20
833.2684166973
 30
0.0
 11
906.1094871213
 21
833.2684166973
 31
0.0
  0
LINE
  5
12C
330
1F
100
AcDbEntity
  8
SLD-0_0
  6
SLD-Solid
 62
   179
370
    15
100
AcDbLine
 10
929.292654102
 20
816.768420512
 30
0.0
 11
908.9094841383
 21
816.7684138607
 31
0.0
  0
LINE
  5
12D
330
1F
100
AcDbEntity
  8
SLD-0_0
  6
SLD-Solid
 62
   179
370
    15
100
AcDbLine
 10
967.2522297551
 20
821.1114831512
 30
0.0
 11
967.958485191
 21
819.2403443401
 31
0.0
  0
LINE
  5
12E
330
1F
100
AcDbEntity
  8
SLD-0_0
  6
SLD-Solid
 62
   179
370
    15
100
AcDbLine
 10
967.958485191
 20
819.2403443401
 30
0.0
 11
967.8686013867
 21
819.2064292972
 31
0.0
  0
LINE
  5
12F
330
1F
100
AcDbEntity
  8
SLD-0_0
  6
SLD-Solid
 62
   179
370
    15
100
AcDbLine
 10
967.8686013867
 20
819.2064292972
 30
0.0
 11
967.6024070432
 21
819.1059358661
 31
0.0
  0
LINE
  5
130
330
1F
100
AcDbEntity
  8
SLD-0_0
  6
SLD-Solid
 62
   179
370
    15
100
AcDbLine
 10
967.6024070432
 20
819.1059358661
 30
0.0
 11
967.1701243569
 21
818.9427681511
 31
0.0
  0
LINE
  5
131
330
1F
100
AcDbEntity
  8
SLD-0_0
  6
SLD-Solid
 62
   179
370
    15
100
AcDbLine
 10
967.1701243569
 20
818.9427681511
 30
0.0
 11
966.5883830239
 21
818.7231846397
 31
0.0
  0
LINE
  5
132
330
1F
100
AcDbEntity
  8
SLD-0_0
  6
SLD-Solid
 62
   179
370
    15
100
AcDbLine
 10
966.5883830239
 20
818.7231846397
 30
0.0
 11
965.8795049836
 21
818.4556491916
 31
0.0
  0
LINE
  5
133
330
1F
100
AcDbEntity
  8
SLD-0_0
  6
SLD-Solid
 62
   179
370
    15
100
AcDbLine
 10
965.8795049836
 20
818.4556491916
 30
0.0
 11
965.070759361
 21
818.1503840034
 31
0.0
  0
LINE
  5
134
330
1F
100
AcDbEntity
  8
SLD-0_0
  6
SLD-Solid
 62
   179
370
    15
100
AcDbLine
 10
965.070759361
 20
818.1503840034
 30
0.0
 11
964.1932299783
 21
817.8191609924
 31
0.0
  0
LINE
  5
135
330
1F
100
AcDbEntity
  8
SLD-0_0
  6
SLD-Solid
 62
   179
370
    15
100
AcDbLine
 10
964.1932299783
 20
817.8191609924
 30
0.0
 11
963.2806232621
 21
817.4746759479
 31
0.0
  0
LINE
  5
136
330
1F
100
AcDbEntity
  8
SLD-0_0
  6
SLD-Solid
 62
   179
370
    15
100
AcDbLine
 10
962.5743678262
 20
819.345814759
 30
0.0
 11
963.4869745423
 21
819.6902998035
 31
0.0
  0
LINE
  5
137
330
1F
100
AcDbEntity
  8
SLD-0_0
  6
SLD-Solid
 62
   179
370
    15
100
AcDbLine
 10
963.4869745423
 20
819.6902998035
 30
0.0
 11
964.364503925
 21
820.0215228145
 31
0.0
  0
LINE
  5
138
330
1F
100
AcDbEntity
  8
SLD-0_0
  6
SLD-Solid
 62
   179
370
    15
100
AcDbLine
 10
964.364503925
 20
820.0215228145
 30
0.0
 11
965.1732495477
 21
820.3267880027
 31
0.0
  0
LINE
  5
139
330
1F
100
AcDbEntity
  8
SLD-0_0
  6
SLD-Solid
 62
   179
370
    15
100
AcDbLine
 10
965.1732495477
 20
820.3267880027
 30
0.0
 11
965.8820977857
 21
820.5943532531
 31
0.0
  0
LINE
  5
13A
330
1F
100
AcDbEntity
  8
SLD-0_0
  6
SLD-Solid
 62
   179
370
    15
100
AcDbLine
 10
965.8820977857
 20
820.5943532531
 30
0.0
 11
966.463868921
 21
820.8139367645
 31
0.0
  0
LINE
  5
13B
330
1F
100
AcDbEntity
  8
SLD-0_0
  6
SLD-Solid
 62
   179
370
    15
100
AcDbLine
 10
966.463868921
 20
820.8139367645
 30
0.0
 11
966.8961516072
 21
820.9771044796
 31
0.0
  0
LINE
  5
13C
330
1F
100
AcDbEntity
  8
SLD-0_0
  6
SLD-Solid
 62
   179
370
    15
100
AcDbLine
 10
966.8961516072
 20
820.9771044796
 30
0.0
 11
967.1623459508
 21
821.0775681083
 31
0.0
  0
LINE
  5
13D
330
1F
100
AcDbEntity
  8
SLD-0_0
  6
SLD-Solid
 62
   179
370
    15
100
AcDbLine
 10
967.1623459508
 20
821.0775681083
 30
0.0
 11
967.2522297551
 21
821.1114831512
 31
0.0
  0
LINE
  5
13E
330
1F
100
AcDbEntity
  8
SLD-0_0
  6
SLD-Solid
 62
   179
370
    15
100
AcDbLine
 10
908.6094847371
 20
821.2684221809
 30
0.0
 11
908.6094847371
 21
825.3684170788
 31
0.0
  0
LINE
  5
13F
330
1F
100
AcDbEntity
  8
SLD-0_0
  6
SLD-Solid
 62
   179
370
    15
100
AcDbLine
 10
911.6094759156
 20
815.7684035843
 30
0.0
 11
919.2897132089
 21
815.7684035843
 31
0.0
  0
LINE
  5
140
330
1F
100
AcDbEntity
  8
SLD-0_0
  6
SLD-Solid
 62
   179
370
    15
100
AcDbLine
 10
919.2897132089
 20
815.7684035843
 30
0.0
 11
923.1074801137
 21
815.7684035843
 31
0.0
  0
LINE
  5
141
330
1F
100
AcDbEntity
  8
SLD-0_0
  6
SLD-Solid
 62
   179
370
    15
100
AcDbLine
 10
923.1074801137
 20
815.7684035843
 30
0.0
 11
932.7408126046
 21
815.7684035843
 31
0.0
  0
LINE
  5
142
330
1F
100
AcDbEntity
  8
SLD-0_0
  6
SLD-Solid
 62
   179
370
    15
100
AcDbLine
 10
945.4781463792
 20
815.7684035843
 30
0.0
 11
961.2178853204
 21
815.7684035843
 31
0.0
  0
LINE
  5
143
330
1F
100
AcDbEntity
  8
SLD-0_0
  6
SLD-Solid
 62
   179
370
    15
100
AcDbLine
 10
931.8907311608
 20
818.2684012001
 30
0.0
 11
933.8359585454
 21
818.2684012001
 31
0.0
  0
LINE
  5
144
330
1F
100
AcDbEntity
  8
SLD-0_0
  6
SLD-Solid
 62
   179
370
    15
100
AcDbLine
 10
961.2178853204
 20
815.7684035843
 30
0.0
 11
963.109498327
 21
815.7684035843
 31
0.0
  0
LINE
  5
145
330
1F
100
AcDbEntity
  8
SLD-0_0
  6
SLD-Solid
 62
   179
370
    15
100
AcDbLine
 10
951.2094906022
 20
281.9684125726
 30
0.0
 11
959.0094736268
 21
281.9684125726
 31
0.0
  0
LINE
  5
146
330
1F
100
AcDbEntity
  8
SLD-0_0
  6
SLD-Solid
 62
   179
370
    15
100
AcDbLine
 10
906.1094871213
 20
302.9684141522
 30
0.0
 11
908.6094847371
 21
302.9684141522
 31
0.0
  0
LINE
  5
147
330
1F
100
AcDbEntity
  8
SLD-0_0
  6
SLD-Solid
 62
   179
370
    15
100
AcDbLine
 10
908.6094847371
 20
297.9684151952
 30
0.0
 11
908.6094847371
 21
302.9684141522
 31
0.0
  0
LINE
  5
148
330
1F
100
AcDbEntity
  8
SLD-0_0
  6
SLD-Solid
 62
   179
370
    15
100
AcDbLine
 10
908.6094841374
 20
287.9684138639
 30
0.0
 11
908.6094847371
 21
297.9684151952
 31
0.0
  0
LINE
  5
149
330
1F
100
AcDbEntity
  8
SLD-0_0
  6
SLD-Solid
 62
   179
370
    15
100
AcDbLine
 10
911.6094841374
 20
284.9684138639
 30
0.0
 11
919.2897132089
 21
284.9684112017
 31
0.0
  0
LINE
  5
14A
330
1F
100
AcDbEntity
  8
SLD-0_0
  6
SLD-Solid
 62
   179
370
    15
100
AcDbLine
 10
911.6094841374
 20
282.4684138639
 30
0.0
 11
919.2897132089
 21
282.4684135859
 31
0.0
  0
LINE
  5
14B
330
1F
100
AcDbEntity
  8
SLD-0_0
  6
SLD-Solid
 62
   179
370
    15
100
AcDbLine
 10
919.2897132089
 20
282.4684135859
 30
0.0
 11
923.1074801137
 21
282.4684135859
 31
0.0
  0
LINE
  5
14C
330
1F
100
AcDbEntity
  8
SLD-0_0
  6
SLD-Solid
 62
   179
370
    15
100
AcDbLine
 10
919.2897132089
 20
284.9684112017
 30
0.0
 11
923.1074801137
 21
284.9684112017
 31
0.0
  0
LINE
  5
14D
330
1F
100
AcDbEntity
  8
SLD-0_0
  6
SLD-Solid
 62
   179
370
    15
100
AcDbLine
 10
923.1074801137
 20
282.4684135859
 30
0.0
 11
961.2178853204
 21
282.4684135859
 31
0.0
  0
LINE
  5
14E
330
1F
100
AcDbEntity
  8
SLD-0_0
  6
SLD-Solid
 62
   179
370
    15
100
AcDbLine
 10
923.1074801137
 20
284.9684112017
 30
0.0
 11
961.2178853204
 21
284.9684112017
 31
0.0
  0
LINE
  5
14F
330
1F
100
AcDbEntity
  8
SLD-0_0
  6
SLD-Solid
 62
   179
370
    15
100
AcDbLine
 10
961.2178853204
 20
282.4684135859
 30
0.0
 11
963.109498327
 21
282.4684135859
 31
0.0
  0
LINE
  5
150
330
1F
100
AcDbEntity
  8
SLD-0_0
  6
SLD-Solid
 62
   179
370
    15
100
AcDbLine
 10
961.2178853204
 20
284.9684112017
 30
0.0
 11
963.109498327
 21
284.9684112017
 31
0.0
  0
LINE
  5
151
330
1F
100
AcDbEntity
  8
SLD-0_0
  6
SLD-Solid
 62
   179
370
    15
100
AcDbLine
 10
927.1094849755
 20
814.4684262817
 30
0.0
 11
928.1094721009
 21
814.4684262817
 31
0.0
  0
LINE
  5
152
330
1F
100
AcDbEntity
  8
SLD-0_0
  6
SLD-Solid
 62
   179
370
    15
100
AcDbLine
 10
928.1094721009
 20
814.4684262817
 30
0.0
 11
950.1094868829
 21
814.4684262817
 31
0.0
  0
LINE
  5
153
330
1F
100
AcDbEntity
  8
SLD-0_0
  6
SLD-Solid
 62
   179
370
    15
100
AcDbLine
 10
925.1094841374
 20
812.4684138639
 30
0.0
 11
925.1094809224
 21
811.4684053009
 31
0.0
  0
LINE
  5
154
330
1F
100
AcDbEntity
  8
SLD-0_0
  6
SLD-Solid
 62
   179
370
    15
100
AcDbLine
 10
950.1094868829
 20
814.4684262817
 30
0.0
 11
951.1094740083
 21
814.4684262817
 31
0.0
  0
LINE
  5
155
330
1F
100
AcDbEntity
  8
SLD-0_0
  6
SLD-Solid
 62
   179
370
    15
100
AcDbLine
 10
953.1094841374
 20
812.4684138639
 30
0.0
 11
953.1094780614
 21
811.4684053009
 31
0.0
  0
LINE
  5
156
330
1F
100
AcDbEntity
  8
SLD-0_0
  6
SLD-Solid
 62
   179
370
    15
100
AcDbLine
 10
963.6094918897
 20
811.9684286659
 30
0.0
 11
953.1094780614
 21
811.9684286659
 31
0.0
  0
LINE
  5
157
330
1F
100
AcDbEntity
  8
SLD-0_0
  6
SLD-Solid
 62
   179
370
    15
100
AcDbLine
 10
963.6094918897
 20
813.468409354
 30
0.0
 11
952.8415253808
 21
813.468409354
 31
0.0
  0
LINE
  5
158
330
1F
100
AcDbEntity
  8
SLD-0_0
  6
SLD-Solid
 62
   179
370
    15
100
AcDbLine
 10
963.109498327
 20
813.9684029167
 30
0.0
 11
952.4323692967
 21
813.9684029167
 31
0.0
  0
LINE
  5
159
330
1F
100
AcDbEntity
  8
SLD-0_0
  6
SLD-Solid
 62
   179
370
    15
100
AcDbLine
 10
963.109498327
 20
811.4684053009
 30
0.0
 11
963.05949003
 21
811.4684053009
 31
0.0
  0
LINE
  5
15A
330
1F
100
AcDbEntity
  8
SLD-0_0
  6
SLD-Solid
 62
   179
370
    15
100
AcDbLine
 10
962.2254124333
 20
286.9684152549
 30
0.0
 11
963.6094918897
 21
286.9684152549
 31
0.0
  0
LINE
  5
15B
330
1F
100
AcDbEntity
  8
SLD-0_0
  6
SLD-Solid
 62
   179
370
    15
100
AcDbLine
 10
946.6094723393
 20
286.9684152549
 30
0.0
 11
962.2254124333
 21
286.9684152549
 31
0.0
  0
LINE
  5
15C
330
1F
100
AcDbEntity
  8
SLD-0_0
  6
SLD-Solid
 62
   179
370
    15
100
AcDbLine
 10
962.2254124333
 20
285.468412215
 30
0.0
 11
963.6094918897
 21
285.468412215
 31
0.0
  0
LINE
  5
15D
330
1F
100
AcDbEntity
  8
SLD-0_0
  6
SLD-Solid
 62
   179
370
    15
100
AcDbLine
 10
946.6094723393
 20
285.468412215
 30
0.0
 11
962.2254124333
 21
285.468412215
 31
0.0
  0
LINE
  5
15E
330
1F
100
AcDbEntity
  8
SLD-0_0
  6
SLD-Solid
 62
   179
370
    15
100
AcDbLine
 10
963.0508473565
 20
287.4684125428
 30
0.0
 11
963.109498327
 21
287.4684125428
 31
0.0
  0
LINE
  5
15F
330
1F
100
AcDbEntity
  8
SLD-0_0
  6
SLD-Solid
 62
   179
370
    15
100
AcDbLine
 10
950.7933011701
 20
287.2684128826
 30
0.0
 11
950.4584422757
 21
287.2684128826
 31
0.0
  0
LINE
  5
160
330
1F
100
AcDbEntity
  8
SLD-0_0
  6
SLD-Solid
 62
   179
370
    15
100
AcDbLine
 10
950.5678764035
 20
287.2684128826
 30
0.0
 11
950.5678764035
 21
287.4684125428
 31
0.0
  0
LINE
  5
161
330
1F
100
AcDbEntity
  8
SLD-0_0
  6
SLD-Solid
 62
   179
370
    15
100
AcDbLine
 10
965.1094725778
 20
377.4684142565
 30
0.0
 11
966.7094698598
 21
377.4684142565
 31
0.0
  0
LINE
  5
162
330
1F
100
AcDbEntity
  8
SLD-0_0
  6
SLD-Solid
 62
   179
370
    15
100
AcDbLine
 10
965.1094725778
 20
317.4684137349
 30
0.0
 11
966.7094698598
 21
317.4684137349
 31
0.0
  0
LINE
  5
163
330
1F
100
AcDbEntity
  8
SLD-0_0
  6
SLD-Solid
 62
   179
370
    15
100
AcDbLine
 10
966.7094698598
 20
319.4623977189
 30
0.0
 11
966.7094698598
 21
375.4740353917
 31
0.0
  0
LINE
  5
164
330
1F
100
AcDbEntity
  8
SLD-0_0
  6
SLD-Solid
 62
   179
370
    15
100
AcDbLine
 10
968.1094935586
 20
374.9306980764
 30
0.0
 11
968.1094935586
 21
320.006129915
 31
0.0
  0
LINE
  5
165
330
1F
100
AcDbEntity
  8
SLD-0_0
  6
SLD-Solid
 62
   179
370
    15
100
AcDbLine
 10
1021.1956253697
 20
752.1497138088
 30
0.0
 11
1021.3745883157
 21
752.2993512695
 31
0.0
  0
LINE
  5
166
330
1F
100
AcDbEntity
  8
SLD-0_0
  6
SLD-Solid
 62
   179
370
    15
100
AcDbLine
 10
1021.3745883157
 20
770.637495095
 30
0.0
 11
1021.1955955674
 21
770.7871027534
 31
0.0
  0
LINE
  5
167
330
1F
100
AcDbEntity
  8
SLD-0_0
  6
SLD-Solid
 62
   179
370
    15
100
AcDbLine
 10
999.6941140344
 20
746.81071716
 30
0.0
 11
999.5898357083
 21
746.7698879783
 31
0.0
  0
LINE
  5
168
330
1F
100
AcDbEntity
  8
SLD-0_0
  6
SLD-Solid
 62
   179
370
    15
100
AcDbLine
 10
913.3094897916
 20
291.1184147244
 30
0.0
 11
913.3094897916
 21
807.8184254711
 31
0.0
  0
LINE
  5
169
330
1F
100
AcDbEntity
  8
SLD-0_0
  6
SLD-Solid
 62
   179
370
    15
100
AcDbLine
 10
915.1094904591
 20
810.6613286083
 30
0.0
 11
915.1094904591
 21
288.2754855101
 31
0.0
  0
LINE
  5
16A
330
1F
100
AcDbEntity
  8
SLD-0_0
  6
SLD-Solid
 62
   179
370
    15
100
AcDbLine
 10
963.05949003
 20
810.6613286083
 30
0.0
 11
915.1094904591
 21
810.6613286083
 31
0.0
  0
LINE
  5
16B
330
1F
100
AcDbEntity
  8
SLD-0_0
  6
SLD-Solid
 62
   179
370
    15
100
AcDbLine
 10
963.05949003
 20
288.2754855101
 30
0.0
 11
915.1094904591
 21
288.2754855101
 31
0.0
  0
LINE
  5
16C
330
1F
100
AcDbEntity
  8
SLD-0_0
  6
SLD-Solid
 62
   179
370
    15
100
AcDbLine
 10
965.1094725778
 20
809.4184227531
 30
0.0
 11
965.1094725778
 21
289.5184137171
 31
0.0
  0
LINE
  5
16D
330
1F
100
AcDbEntity
  8
SLD-0_0
  6
SLD-Solid
 62
   179
370
    15
100
AcDbLine
 10
963.05949003
 20
287.4684125428
 30
0.0
 11
963.05949003
 21
288.2684149091
 31
0.0
  0
LINE
  5
16E
330
1F
100
AcDbEntity
  8
SLD-0_0
  6
SLD-Solid
 62
   179
370
    15
100
AcDbLine
 10
963.05949003
 20
287.4684125428
 30
0.0
 11
915.1094904591
 21
287.4684125428
 31
0.0
  0
LINE
  5
16F
330
1F
100
AcDbEntity
  8
SLD-0_0
  6
SLD-Solid
 62
   179
370
    15
100
AcDbLine
 10
915.1094904591
 20
288.2684149091
 30
0.0
 11
915.1094904591
 21
287.4684125428
 31
0.0
  0
LINE
  5
170
330
1F
100
AcDbEntity
  8
SLD-0_0
  6
SLD-Solid
 62
   179
370
    15
100
AcDbLine
 10
915.1094904591
 20
288.2684149091
 30
0.0
 11
963.05949003
 21
288.2684149091
 31
0.0
  0
LINE
  5
171
330
1F
100
AcDbEntity
  8
SLD-0_0
  6
SLD-Solid
 62
   179
370
    15
100
AcDbLine
 10
915.1094904591
 20
810.668421561
 30
0.0
 11
963.05949003
 21
810.668421561
 31
0.0
  0
LINE
  5
172
330
1F
100
AcDbEntity
  8
SLD-0_0
  6
SLD-Solid
 62
   179
370
    15
100
AcDbLine
 10
915.1094904591
 20
810.668421561
 30
0.0
 11
915.1094904591
 21
811.4684053009
 31
0.0
  0
LINE
  5
173
330
1F
100
AcDbEntity
  8
SLD-0_0
  6
SLD-Solid
 62
   179
370
    15
100
AcDbLine
 10
963.05949003
 20
811.4684053009
 30
0.0
 11
915.1094904591
 21
811.4684053009
 31
0.0
  0
LINE
  5
174
330
1F
100
AcDbEntity
  8
SLD-0_0
  6
SLD-Solid
 62
   179
370
    15
100
AcDbLine
 10
963.05949003
 20
811.4684053009
 30
0.0
 11
963.05949003
 21
810.668421561
 31
0.0
  0
LINE
  5
175
330
1F
100
AcDbEntity
  8
SLD-0_0
  6
SLD-Solid
 62
   179
370
    15
100
AcDbLine
 10
200.1094868829
 20
965.768439347
 30
0.0
 11
200.1094868829
 21
964.768392617
 31
0.0
  0
LINE
  5
176
330
1F
100
AcDbEntity
  8
SLD-0_0
  6
SLD-Solid
 62
   179
370
    15
100
AcDbLine
 10
200.1094868829
 20
963.1242580955
 30
0.0
 11
200.1094868829
 21
962.872488076
 31
0.0
  0
LINE
  5
177
330
1F
100
AcDbEntity
  8
SLD-0_0
  6
SLD-Solid
 62
   179
370
    15
100
AcDbLine
 10
199.3094733407
 20
965.7886453216
 30
0.0
 11
199.3094733407
 21
964.886350209
 31
0.0
  0
LINE
  5
178
330
1F
100
AcDbEntity
  8
SLD-0_0
  6
SLD-Solid
 62
   179
370
    15
100
AcDbLine
 10
199.3094733407
 20
963.8504810875
 30
0.0
 11
199.3094733407
 21
963.488800103
 31
0.0
  0
LINE
  5
179
330
1F
100
AcDbEntity
  8
SLD-0_0
  6
SLD-Solid
 62
   179
370
    15
100
AcDbLine
 10
200.1094868829
 20
283.3684139197
 30
0.0
 11
199.8052349736
 21
283.3684139197
 31
0.0
  0
LINE
  5
17A
330
1F
100
AcDbEntity
  8
SLD-0_0
  6
SLD-Solid
 62
   179
370
    15
100
AcDbLine
 10
200.1094868829
 20
283.5483007376
 30
0.0
 11
200.1094868829
 21
283.3684139197
 31
0.0
  0
LINE
  5
17B
330
1F
100
AcDbEntity
  8
SLD-0_0
  6
SLD-Solid
 62
   179
370
    15
100
AcDbLine
 10
886.1094841377
 20
112.4684138655
 30
0.0
 11
833.109473293
 21
112.4684192484
 31
0.0
  0
LINE
  5
17C
330
1F
100
AcDbEntity
  8
SLD-0_0
  6
SLD-Solid
 62
   179
370
    15
100
AcDbLine
 10
888.1094804456
 20
118.4684165065
 30
0.0
 11
831.1094692399
 21
118.4684165065
 31
0.0
  0
LINE
  5
17D
330
1F
100
AcDbEntity
  8
SLD-0_0
  6
SLD-Solid
 62
   179
370
    15
100
AcDbLine
 10
297.1094841377
 20
112.4684138655
 30
0.0
 11
244.1094841377
 21
112.4684138655
 31
0.0
  0
LINE
  5
17E
330
1F
100
AcDbEntity
  8
SLD-0_0
  6
SLD-Solid
 62
   179
370
    15
100
AcDbLine
 10
299.1094788958
 20
118.4684165065
 30
0.0
 11
242.1094825913
 21
118.4684165065
 31
0.0
  0
LINE
  5
17F
330
1F
100
AcDbEntity
  8
SLD-0_0
  6
SLD-Solid
 62
   179
370
    15
100
AcDbLine
 10
894.6094861676
 20
280.4684169834
 30
0.0
 11
894.6094861676
 21
281.6684149449
 31
0.0
  0
LINE
  5
180
330
1F
100
AcDbEntity
  8
SLD-0_0
  6
SLD-Solid
 62
   179
370
    15
100
AcDbLine
 10
824.6094933202
 20
280.4684169834
 30
0.0
 11
894.6094861676
 21
280.4684169834
 31
0.0
  0
LINE
  5
181
330
1F
100
AcDbEntity
  8
SLD-0_0
  6
SLD-Solid
 62
   179
370
    15
100
AcDbLine
 10
824.6094933202
 20
280.4684169834
 30
0.0
 11
824.6094933202
 21
281.6684149449
 31
0.0
  0
LINE
  5
182
330
1F
100
AcDbEntity
  8
SLD-0_0
  6
SLD-Solid
 62
   179
370
    15
100
AcDbLine
 10
890.5691257169
 20
186.468420202
 30
0.0
 11
828.6498239686
 21
186.468420202
 31
0.0
  0
LINE
  5
183
330
1F
100
AcDbEntity
  8
SLD-0_0
  6
SLD-Solid
 62
   179
370
    15
100
AcDbLine
 10
305.6094846179
 20
280.4684169834
 30
0.0
 11
305.6094846179
 21
281.6684149449
 31
0.0
  0
LINE
  5
184
330
1F
100
AcDbEntity
  8
SLD-0_0
  6
SLD-Solid
 62
   179
370
    15
100
AcDbLine
 10
235.6094768693
 20
280.4684169834
 30
0.0
 11
305.6094846179
 21
280.4684169834
 31
0.0
  0
LINE
  5
185
330
1F
100
AcDbEntity
  8
SLD-0_0
  6
SLD-Solid
 62
   179
370
    15
100
AcDbLine
 10
235.6094768693
 20
280.4684169834
 30
0.0
 11
235.6094768693
 21
281.6684149449
 31
0.0
  0
LINE
  5
186
330
1F
100
AcDbEntity
  8
SLD-0_0
  6
SLD-Solid
 62
   179
370
    15
100
AcDbLine
 10
301.5691390683
 20
186.468420202
 30
0.0
 11
239.64983732
 21
186.468420202
 31
0.0
  0
LINE
  5
187
330
1F
100
AcDbEntity
  8
SLD-0_0
  6
SLD-Solid
 62
   179
370
    15
100
AcDbLine
 10
198.3094862153
 20
963.8976879661
 30
0.0
 11
198.3094862153
 21
282.5391270464
 31
0.0
  0
LINE
  5
188
330
1F
100
AcDbEntity
  8
SLD-0_0
  6
SLD-Solid
 62
   179
370
    15
100
AcDbLine
 10
905.0387790849
 20
964.768392617
 30
0.0
 11
199.1801908662
 21
964.768392617
 31
0.0
  0
LINE
  5
189
330
1F
100
AcDbEntity
  8
SLD-0_0
  6
SLD-Solid
 62
   179
370
    15
100
AcDbLine
 10
199.1801908662
 20
964.768392617
 30
0.0
 11
199.1801908662
 21
963.9684386795
 31
0.0
  0
LINE
  5
18A
330
1F
100
AcDbEntity
  8
SLD-0_0
  6
SLD-Solid
 62
   179
370
    15
100
AcDbLine
 10
199.1094699551
 20
963.8976879661
 30
0.0
 11
198.3094862153
 21
963.8976879661
 31
0.0
  0
LINE
  5
18B
330
1F
100
AcDbEntity
  8
SLD-0_0
  6
SLD-Solid
 62
   179
370
    15
100
AcDbLine
 10
199.1801908662
 20
281.6684149449
 30
0.0
 11
905.0387790849
 21
281.6684149449
 31
0.0
  0
LINE
  5
18C
330
1F
100
AcDbEntity
  8
SLD-0_0
  6
SLD-Solid
 62
   179
370
    15
100
AcDbLine
 10
199.1801908662
 20
281.6684149449
 30
0.0
 11
199.1801908662
 21
282.4684135859
 31
0.0
  0
LINE
  5
18D
330
1F
100
AcDbEntity
  8
SLD-0_0
  6
SLD-Solid
 62
   179
370
    15
100
AcDbLine
 10
199.1094699551
 20
282.5391270464
 30
0.0
 11
198.3094862153
 21
282.5391270464
 31
0.0
  0
LINE
  5
18E
330
1F
100
AcDbEntity
  8
SLD-0_0
  6
SLD-Solid
 62
   179
370
    15
100
AcDbLine
 10
905.9094837357
 20
282.5391270464
 30
0.0
 11
905.9094837357
 21
948.0013080185
 31
0.0
  0
LINE
  5
18F
330
1F
100
AcDbEntity
  8
SLD-0_0
  6
SLD-Solid
 62
   179
370
    15
100
AcDbLine
 10
905.0387790849
 20
963.9684386795
 30
0.0
 11
905.0387790849
 21
964.768392617
 31
0.0
  0
LINE
  5
190
330
1F
100
AcDbEntity
  8
SLD-0_0
  6
SLD-Solid
 62
   179
370
    15
100
AcDbLine
 10
905.1094701936
 20
963.8976879661
 30
0.0
 11
905.9094837357
 21
963.8976879661
 31
0.0
  0
LINE
  5
191
330
1F
100
AcDbEntity
  8
SLD-0_0
  6
SLD-Solid
 62
   179
370
    15
100
AcDbLine
 10
905.1094701936
 20
282.5391270464
 30
0.0
 11
905.9094837357
 21
282.5391270464
 31
0.0
  0
LINE
  5
192
330
1F
100
AcDbEntity
  8
SLD-0_0
  6
SLD-Solid
 62
   179
370
    15
100
AcDbLine
 10
905.0387790849
 20
282.4684135859
 30
0.0
 11
905.0387790849
 21
281.6684149449
 31
0.0
  0
LINE
  5
193
330
1F
100
AcDbEntity
  8
SLD-0_0
  6
SLD-Solid
 62
   179
370
    15
100
AcDbLine
 10
906.1094871213
 20
357.4684137722
 30
0.0
 11
906.0497632672
 21
357.4684137722
 31
0.0
  0
LINE
  5
194
330
1F
100
AcDbEntity
  8
SLD-0_0
  6
SLD-Solid
 62
   179
370
    15
100
AcDbLine
 10
906.1094871213
 20
359.2934493219
 30
0.0
 11
906.1094871213
 21
357.4684137722
 31
0.0
  0
LINE
  5
195
330
1F
100
AcDbEntity
  8
SLD-0_0
  6
SLD-Solid
 62
   179
370
    15
100
AcDbLine
 10
906.1094871213
 20
850.4684396332
 30
0.0
 11
905.9094837357
 21
850.4684396332
 31
0.0
  0
LINE
  5
196
330
1F
100
AcDbEntity
  8
SLD-0_0
  6
SLD-Solid
 62
   179
370
    15
100
AcDbLine
 10
906.1094871213
 20
818.6913855617
 30
0.0
 11
906.1094871213
 21
797.4524624889
 31
0.0
  0
LINE
  5
197
330
1F
100
AcDbEntity
  8
SLD-0_0
  6
SLD-Solid
 62
   179
370
    15
100
AcDbLine
 10
906.1094871213
 20
282.5391270464
 30
0.0
 11
905.9094837357
 21
282.5391270464
 31
0.0
  0
LINE
  5
198
330
1F
100
AcDbEntity
  8
SLD-0_0
  6
SLD-Solid
 62
   179
370
    15
100
AcDbLine
 10
906.1094871213
 20
341.9696857465
 30
0.0
 11
906.1094871213
 21
282.5391270464
 31
0.0
  0
LINE
  5
199
330
1F
100
AcDbEntity
  8
SLD-0_0
  6
SLD-Solid
 62
   179
370
    15
100
AcDbLine
 10
906.1094871213
 20
357.3748763894
 30
0.0
 11
906.1094871213
 21
357.4684137722
 31
0.0
  0
LINE
  5
19A
330
1F
100
AcDbEntity
  8
SLD-0_0
  6
SLD-Solid
 62
   179
370
    15
100
AcDbLine
 10
199.3094733407
 20
282.5391270464
 30
0.0
 11
199.3094733407
 21
282.9480298107
 31
0.0
  0
LINE
  5
19B
330
1F
100
AcDbEntity
  8
SLD-0_0
  6
SLD-Solid
 62
   179
370
    15
100
AcDbLine
 10
198.5094896008
 20
282.5391270464
 30
0.0
 11
199.3094733407
 21
282.5391270464
 31
0.0
  0
LINE
  5
19C
330
1F
100
AcDbEntity
  8
SLD-0_0
  6
SLD-Solid
 62
   179
370
    15
100
AcDbLine
 10
905.2387824704
 20
282.4684135859
 30
0.0
 11
905.0387790849
 21
282.4684135859
 31
0.0
  0
LINE
  5
19D
330
1F
100
AcDbEntity
  8
SLD-0_0
  6
SLD-Solid
 62
   179
370
    15
100
AcDbLine
 10
905.2387824704
 20
281.6684149449
 30
0.0
 11
905.2387824704
 21
282.4684135859
 31
0.0
  0
LINE
  5
19E
330
1F
100
AcDbEntity
  8
SLD-0_0
  6
SLD-Solid
 62
   179
370
    15
100
AcDbLine
 10
905.2387824704
 20
281.6684149449
 30
0.0
 11
905.0387790849
 21
281.6684149449
 31
0.0
  0
LINE
  5
19F
330
1F
100
AcDbEntity
  8
SLD-0_0
  6
SLD-Solid
 62
   179
370
    15
100
AcDbLine
 10
906.1094871213
 20
947.9684062545
 30
0.0
 11
906.1094871213
 21
947.6560779159
 31
0.0
  0
LINE
  5
1A0
330
1F
100
AcDbEntity
  8
SLD-0_0
  6
SLD-Solid
 62
   179
370
    15
100
AcDbLine
 10
906.1094871213
 20
946.8560643738
 30
0.0
 11
906.1094871213
 21
945.8560772484
 31
0.0
  0
LINE
  5
1A1
330
1F
100
AcDbEntity
  8
SLD-0_0
  6
SLD-Solid
 62
   179
370
    15
100
AcDbLine
 10
198.5094896008
 20
963.8976879661
 30
0.0
 11
199.2094865491
 21
963.8976879661
 31
0.0
  0
LINE
  5
1A2
330
1F
100
AcDbEntity
  8
SLD-0_0
  6
SLD-Solid
 62
   179
370
    15
100
AcDbLine
 10
265.1094844987
 20
965.1683993881
 30
0.0
 11
265.1094844987
 21
965.768439347
 31
0.0
  0
LINE
  5
1A3
330
1F
100
AcDbEntity
  8
SLD-0_0
  6
SLD-Solid
 62
   179
370
    15
100
AcDbLine
 10
197.4094858815
 20
936.5184135978
 30
0.0
 11
197.4094858815
 21
904.5184083526
 31
0.0
  0
LINE
  5
1A4
330
1F
100
AcDbEntity
  8
SLD-0_0
  6
SLD-Solid
 62
   179
370
    15
100
AcDbLine
 10
905.9094837357
 20
912.783724839
 30
0.0
 11
906.1094871213
 21
912.8486939018
 31
0.0
  0
LINE
  5
1A5
330
1F
100
AcDbEntity
  8
SLD-0_0
  6
SLD-Solid
 62
   179
370
    15
100
AcDbLine
 10
906.1094871213
 20
886.093360955
 30
0.0
 11
905.9094837357
 21
886.7088981216
 31
0.0
  0
LINE
  5
1A6
330
1F
100
AcDbEntity
  8
SLD-0_0
  6
SLD-Solid
 62
   179
370
    15
100
AcDbLine
 10
905.9094837357
 20
916.9895477836
 30
0.0
 11
906.091069286
 21
917.048556382
 31
0.0
  0
LINE
  5
1A7
330
1F
100
AcDbEntity
  8
SLD-0_0
  6
SLD-Solid
 62
   179
370
    15
100
AcDbLine
 10
906.091069286
 20
917.048556382
 30
0.0
 11
906.1094871213
 21
917.0545764511
 31
0.0
  0
LINE
  5
1A8
330
1F
100
AcDbEntity
  8
SLD-0_0
  6
SLD-Solid
 62
   179
370
    15
100
AcDbLine
 10
945.073043411
 20
913.4169049804
 30
0.0
 11
945.0871995141
 21
913.3733339851
 31
0.0
  0
LINE
  5
1A9
330
1F
100
AcDbEntity
  8
SLD-0_0
  6
SLD-Solid
 62
   179
370
    15
100
AcDbLine
 10
945.0871995141
 20
913.3733339851
 30
0.0
 11
945.1987198045
 21
913.0301900451
 31
0.0
  0
LINE
  5
1AA
330
1F
100
AcDbEntity
  8
SLD-0_0
  6
SLD-Solid
 62
   179
370
    15
100
AcDbLine
 10
945.1987198045
 20
913.0301900451
 30
0.0
 11
945.2275684525
 21
912.9413791244
 31
0.0
  0
LINE
  5
1AB
330
1F
100
AcDbEntity
  8
SLD-0_0
  6
SLD-Solid
 62
   179
370
    15
100
AcDbLine
 10
906.1094871213
 20
881.7101545875
 30
0.0
 11
905.950461929
 21
881.3697524612
 31
0.0
  0
LINE
  5
1AC
330
1F
100
AcDbEntity
  8
SLD-0_0
  6
SLD-Solid
 62
   179
370
    15
100
AcDbLine
 10
905.950461929
 20
881.3697524612
 30
0.0
 11
905.9094837357
 21
881.2909551208
 31
0.0
  0
LINE
  5
1AD
330
1F
100
AcDbEntity
  8
SLD-0_0
  6
SLD-Solid
 62
   179
370
    15
100
AcDbLine
 10
906.1089804818
 20
894.1851087158
 30
0.0
 11
906.1094871213
 21
894.1852279251
 31
0.0
  0
LINE
  5
1AE
330
1F
100
AcDbEntity
  8
SLD-0_0
  6
SLD-Solid
 62
   179
370
    15
100
AcDbLine
 10
905.9094837357
 20
897.80036884
 30
0.0
 11
906.1094871213
 21
897.8653379028
 31
0.0
  0
LINE
  5
1AF
330
1F
100
AcDbEntity
  8
SLD-0_0
  6
SLD-Solid
 62
   179
370
    15
100
AcDbLine
 10
906.1089804818
 20
894.1851087158
 30
0.0
 11
906.0678234746
 21
894.3117685859
 31
0.0
  0
LINE
  5
1B0
330
1F
100
AcDbEntity
  8
SLD-0_0
  6
SLD-Solid
 62
   179
370
    15
100
AcDbLine
 10
906.0678234746
 20
894.3117685859
 30
0.0
 11
905.9505811383
 21
894.6725555008
 31
0.0
  0
LINE
  5
1B1
330
1F
100
AcDbEntity
  8
SLD-0_0
  6
SLD-Solid
 62
   179
370
    15
100
AcDbLine
 10
905.9505811383
 20
894.6725555008
 30
0.0
 11
905.9094837357
 21
894.7990961616
 31
0.0
  0
LINE
  5
1B2
330
1F
100
AcDbEntity
  8
SLD-0_0
  6
SLD-Solid
 62
   179
370
    15
100
AcDbLine
 10
905.9094837357
 20
918.0410333221
 30
0.0
 11
906.1094871213
 21
918.1060023849
 31
0.0
  0
LINE
  5
1B3
330
1F
100
AcDbEntity
  8
SLD-0_0
  6
SLD-Solid
 62
   179
370
    15
100
AcDbLine
 10
946.0773518731
 20
910.3259869163
 30
0.0
 11
945.7673183133
 21
911.2801380699
 31
0.0
  0
LINE
  5
1B4
330
1F
100
AcDbEntity
  8
SLD-0_0
  6
SLD-Solid
 62
   179
370
    15
100
AcDbLine
 10
945.7673183133
 20
911.2801380699
 30
0.0
 11
945.4972198655
 21
912.1114440506
 31
0.0
  0
LINE
  5
1B5
330
1F
100
AcDbEntity
  8
SLD-0_0
  6
SLD-Solid
 62
   179
370
    15
100
AcDbLine
 10
945.4972198655
 20
912.1114440506
 30
0.0
 11
945.3130117108
 21
912.6784034317
 31
0.0
  0
LINE
  5
1B6
330
1F
100
AcDbEntity
  8
SLD-0_0
  6
SLD-Solid
 62
   179
370
    15
100
AcDbLine
 10
945.3130117108
 20
912.6784034317
 30
0.0
 11
945.2310255219
 21
912.9307694977
 31
0.0
  0
LINE
  5
1B7
330
1F
100
AcDbEntity
  8
SLD-0_0
  6
SLD-Solid
 62
   179
370
    15
100
AcDbLine
 10
945.2310255219
 20
912.9307694977
 30
0.0
 11
945.2275684525
 21
912.9413791244
 31
0.0
  0
LINE
  5
1B8
330
1F
100
AcDbEntity
  8
SLD-0_0
  6
SLD-Solid
 62
   179
370
    15
100
AcDbLine
 10
947.8249600579
 20
911.419553334
 30
0.0
 11
945.9228566338
 21
910.8015127723
 31
0.0
  0
LINE
  5
1B9
330
1F
100
AcDbEntity
  8
SLD-0_0
  6
SLD-Solid
 62
   179
370
    15
100
AcDbLine
 10
905.9094837357
 20
906.4749308174
 30
0.0
 11
906.1094871213
 21
906.5398998802
 31
0.0
  0
LINE
  5
1BA
330
1F
100
AcDbEntity
  8
SLD-0_0
  6
SLD-Solid
 62
   179
370
    15
100
AcDbLine
 10
281.1657837083
 20
984.5768042152
 30
0.0
 11
280.5943837811
 21
986.389023835
 31
0.0
  0
LINE
  5
1BB
330
1F
100
AcDbEntity
  8
SLD-0_0
  6
SLD-Solid
 62
   179
370
    15
100
AcDbLine
 10
281.9287529637
 20
984.8173685615
 30
0.0
 11
281.3573530366
 21
986.6295881813
 31
0.0
  0
LINE
  5
1BC
330
1F
100
AcDbEntity
  8
SLD-0_0
  6
SLD-Solid
 62
   179
370
    15
100
AcDbLine
 10
279.0908566167
 20
991.1575742309
 30
0.0
 11
279.8538258721
 21
991.3981385772
 31
0.0
  0
LINE
  5
1BD
330
1F
100
AcDbEntity
  8
SLD-0_0
  6
SLD-Solid
 62
   179
370
    15
100
AcDbLine
 10
280.5943837811
 20
986.389023835
 30
0.0
 11
280.3010693242
 21
987.3193331306
 31
0.0
  0
LINE
  5
1BE
330
1F
100
AcDbEntity
  8
SLD-0_0
  6
SLD-Solid
 62
   179
370
    15
100
AcDbLine
 10
280.3010693242
 20
987.3193331306
 30
0.0
 11
280.0190201451
 21
988.2138796394
 31
0.0
  0
LINE
  5
1BF
330
1F
100
AcDbEntity
  8
SLD-0_0
  6
SLD-Solid
 62
   179
370
    15
100
AcDbLine
 10
280.0190201451
 20
988.2138796394
 30
0.0
 11
279.7590842893
 21
989.0382714813
 31
0.0
  0
LINE
  5
1C0
330
1F
100
AcDbEntity
  8
SLD-0_0
  6
SLD-Solid
 62
   179
370
    15
100
AcDbLine
 10
279.7590842893
 20
989.0382714813
 30
0.0
 11
279.5312455346
 21
989.7609181946
 31
0.0
  0
LINE
  5
1C1
330
1F
100
AcDbEntity
  8
SLD-0_0
  6
SLD-Solid
 62
   179
370
    15
100
AcDbLine
 10
279.5312455346
 20
989.7609181946
 30
0.0
 11
279.3442657639
 21
990.3539248054
 31
0.0
  0
LINE
  5
1C2
330
1F
100
AcDbEntity
  8
SLD-0_0
  6
SLD-Solid
 62
   179
370
    15
100
AcDbLine
 10
279.3442657639
 20
990.3539248054
 30
0.0
 11
279.205327337
 21
990.7945819442
 31
0.0
  0
LINE
  5
1C3
330
1F
100
AcDbEntity
  8
SLD-0_0
  6
SLD-Solid
 62
   179
370
    15
100
AcDbLine
 10
279.205327337
 20
990.7945819442
 30
0.0
 11
279.1197648694
 21
991.0659618919
 31
0.0
  0
LINE
  5
1C4
330
1F
100
AcDbEntity
  8
SLD-0_0
  6
SLD-Solid
 62
   179
370
    15
100
AcDbLine
 10
279.1197648694
 20
991.0659618919
 30
0.0
 11
279.0908566167
 21
991.1575742309
 31
0.0
  0
LINE
  5
1C5
330
1F
100
AcDbEntity
  8
SLD-0_0
  6
SLD-Solid
 62
   179
370
    15
100
AcDbLine
 10
279.8538258721
 20
991.3981385772
 30
0.0
 11
279.8827341248
 21
991.3065262382
 31
0.0
  0
LINE
  5
1C6
330
1F
100
AcDbEntity
  8
SLD-0_0
  6
SLD-Solid
 62
   179
370
    15
100
AcDbLine
 10
279.8827341248
 20
991.3065262382
 30
0.0
 11
279.9682965924
 21
991.0351462906
 31
0.0
  0
LINE
  5
1C7
330
1F
100
AcDbEntity
  8
SLD-0_0
  6
SLD-Solid
 62
   179
370
    15
100
AcDbLine
 10
279.9682965924
 20
991.0351462906
 30
0.0
 11
280.1072350194
 21
990.5944891517
 31
0.0
  0
LINE
  5
1C8
330
1F
100
AcDbEntity
  8
SLD-0_0
  6
SLD-Solid
 62
   179
370
    15
100
AcDbLine
 10
280.1072350194
 20
990.5944891517
 30
0.0
 11
280.29421479
 21
990.0014825409
 31
0.0
  0
LINE
  5
1C9
330
1F
100
AcDbEntity
  8
SLD-0_0
  6
SLD-Solid
 62
   179
370
    15
100
AcDbLine
 10
280.29421479
 20
990.0014825409
 30
0.0
 11
280.5220535447
 21
989.2788358276
 31
0.0
  0
LINE
  5
1CA
330
1F
100
AcDbEntity
  8
SLD-0_0
  6
SLD-Solid
 62
   179
370
    15
100
AcDbLine
 10
280.5220535447
 20
989.2788358276
 30
0.0
 11
280.7819894006
 21
988.4544439857
 31
0.0
  0
LINE
  5
1CB
330
1F
100
AcDbEntity
  8
SLD-0_0
  6
SLD-Solid
 62
   179
370
    15
100
AcDbLine
 10
280.7819894006
 20
988.4544439857
 30
0.0
 11
281.0640385796
 21
987.5598974769
 31
0.0
  0
LINE
  5
1CC
330
1F
100
AcDbEntity
  8
SLD-0_0
  6
SLD-Solid
 62
   179
370
    15
100
AcDbLine
 10
281.0640385796
 20
987.5598974769
 30
0.0
 11
281.3573530366
 21
986.6295881813
 31
0.0
  0
LINE
  5
1CD
330
1F
100
AcDbEntity
  8
SLD-0_0
  6
SLD-Solid
 62
   179
370
    15
100
AcDbLine
 10
304.3593367984
 20
982.9684324806
 30
0.0
 11
304.3593367984
 21
983.7683864181
 31
0.0
  0
LINE
  5
1CE
330
1F
100
AcDbEntity
  8
SLD-0_0
  6
SLD-Solid
 62
   179
370
    15
100
AcDbLine
 10
283.359324043
 20
983.7683864181
 30
0.0
 11
304.3593367984
 21
983.7683864181
 31
0.0
  0
LINE
  5
1CF
330
1F
100
AcDbEntity
  8
SLD-0_0
  6
SLD-Solid
 62
   179
370
    15
100
AcDbLine
 10
283.359324043
 20
982.9684324806
 30
0.0
 11
304.3593367984
 21
982.9684324806
 31
0.0
  0
LINE
  5
1D0
330
1F
100
AcDbEntity
  8
SLD-0_0
  6
SLD-Solid
 62
   179
370
    15
100
AcDbLine
 10
304.7593286683
 20
971.9683952873
 30
0.0
 11
304.7593286683
 21
981.4684219902
 31
0.0
  0
LINE
  5
1D1
330
1F
100
AcDbEntity
  8
SLD-0_0
  6
SLD-Solid
 62
   179
370
    15
100
AcDbLine
 10
819.7593441655
 20
981.4684219902
 30
0.0
 11
819.7593441655
 21
971.9683952873
 31
0.0
  0
LINE
  5
1D2
330
1F
100
AcDbEntity
  8
SLD-0_0
  6
SLD-Solid
 62
   179
370
    15
100
AcDbLine
 10
814.7593191316
 20
966.9684000557
 30
0.0
 11
309.7593238999
 21
966.9684000557
 31
0.0
  0
LINE
  5
1D3
330
1F
100
AcDbEntity
  8
SLD-0_0
  6
SLD-Solid
 62
   179
370
    15
100
AcDbLine
 10
819.7593441655
 20
983.7683864181
 30
0.0
 11
819.7593441655
 21
981.4684219902
 31
0.0
  0
LINE
  5
1D4
330
1F
100
AcDbEntity
  8
SLD-0_0
  6
SLD-Solid
 62
   179
370
    15
100
AcDbLine
 10
304.7593286683
 20
981.4684219902
 30
0.0
 11
304.7593286683
 21
983.7683864181
 31
0.0
  0
LINE
  5
1D5
330
1F
100
AcDbEntity
  8
SLD-0_0
  6
SLD-Solid
 62
   179
370
    15
100
AcDbLine
 10
304.7593286683
 20
983.7683864181
 30
0.0
 11
819.7593441655
 21
983.7683864181
 31
0.0
  0
LINE
  5
1D6
330
1F
100
AcDbEntity
  8
SLD-0_0
  6
SLD-Solid
 62
   179
370
    15
100
AcDbLine
 10
820.1593211343
 20
982.9684324806
 30
0.0
 11
820.1593211343
 21
983.7683864181
 31
0.0
  0
LINE
  5
1D7
330
1F
100
AcDbEntity
  8
SLD-0_0
  6
SLD-Solid
 62
   179
370
    15
100
AcDbLine
 10
820.1593211343
 20
983.7683864181
 30
0.0
 11
841.159646814
 21
983.7683864181
 31
0.0
  0
LINE
  5
1D8
330
1F
100
AcDbEntity
  8
SLD-0_0
  6
SLD-Solid
 62
   179
370
    15
100
AcDbLine
 10
820.1593211343
 20
982.9684324806
 30
0.0
 11
841.159646814
 21
982.9684324806
 31
0.0
  0
LINE
  5
1D9
330
1F
100
AcDbEntity
  8
SLD-0_0
  6
SLD-Solid
 62
   179
370
    15
100
AcDbLine
 10
843.1615880181
 20
986.6295881813
 30
0.0
 11
842.5902178933
 21
984.8173685615
 31
0.0
  0
LINE
  5
1DA
330
1F
100
AcDbEntity
  8
SLD-0_0
  6
SLD-Solid
 62
   179
370
    15
100
AcDbLine
 10
843.9245870759
 20
986.389023835
 30
0.0
 11
843.3531871487
 21
984.5768042152
 31
0.0
  0
LINE
  5
1DB
330
1F
100
AcDbEntity
  8
SLD-0_0
  6
SLD-Solid
 62
   179
370
    15
100
AcDbLine
 10
844.6651449849
 20
991.3981385772
 30
0.0
 11
845.4281142403
 21
991.1575742309
 31
0.0
  0
LINE
  5
1DC
330
1F
100
AcDbEntity
  8
SLD-0_0
  6
SLD-Solid
 62
   179
370
    15
100
AcDbLine
 10
843.1615880181
 20
986.6295881813
 30
0.0
 11
843.4549322774
 21
987.5598974769
 31
0.0
  0
LINE
  5
1DD
330
1F
100
AcDbEntity
  8
SLD-0_0
  6
SLD-Solid
 62
   179
370
    15
100
AcDbLine
 10
843.4549322774
 20
987.5598974769
 30
0.0
 11
843.7369814565
 21
988.4544439857
 31
0.0
  0
LINE
  5
1DE
330
1F
100
AcDbEntity
  8
SLD-0_0
  6
SLD-Solid
 62
   179
370
    15
100
AcDbLine
 10
843.7369814565
 20
988.4544439857
 30
0.0
 11
843.9969173123
 21
989.2788358276
 31
0.0
  0
LINE
  5
1DF
330
1F
100
AcDbEntity
  8
SLD-0_0
  6
SLD-Solid
 62
   179
370
    15
100
AcDbLine
 10
843.9969173123
 20
989.2788358276
 30
0.0
 11
844.224756067
 21
990.0014825409
 31
0.0
  0
LINE
  5
1E0
330
1F
100
AcDbEntity
  8
SLD-0_0
  6
SLD-Solid
 62
   179
370
    15
100
AcDbLine
 10
844.224756067
 20
990.0014825409
 30
0.0
 11
844.4117358376
 21
990.5944891517
 31
0.0
  0
LINE
  5
1E1
330
1F
100
AcDbEntity
  8
SLD-0_0
  6
SLD-Solid
 62
   179
370
    15
100
AcDbLine
 10
844.4117358376
 20
990.5944891517
 30
0.0
 11
844.5506742646
 21
991.0351462906
 31
0.0
  0
LINE
  5
1E2
330
1F
100
AcDbEntity
  8
SLD-0_0
  6
SLD-Solid
 62
   179
370
    15
100
AcDbLine
 10
844.5506742646
 20
991.0351462906
 30
0.0
 11
844.6362367322
 21
991.3065262382
 31
0.0
  0
LINE
  5
1E3
330
1F
100
AcDbEntity
  8
SLD-0_0
  6
SLD-Solid
 62
   179
370
    15
100
AcDbLine
 10
844.6362367322
 20
991.3065262382
 30
0.0
 11
844.6651449849
 21
991.3981385772
 31
0.0
  0
LINE
  5
1E4
330
1F
100
AcDbEntity
  8
SLD-0_0
  6
SLD-Solid
 62
   179
370
    15
100
AcDbLine
 10
845.4281142403
 20
991.1575742309
 30
0.0
 11
845.3992059876
 21
991.0659618919
 31
0.0
  0
LINE
  5
1E5
330
1F
100
AcDbEntity
  8
SLD-0_0
  6
SLD-Solid
 62
   179
370
    15
100
AcDbLine
 10
845.3992059876
 20
991.0659618919
 30
0.0
 11
845.3136435201
 21
990.7945819442
 31
0.0
  0
LINE
  5
1E6
330
1F
100
AcDbEntity
  8
SLD-0_0
  6
SLD-Solid
 62
   179
370
    15
100
AcDbLine
 10
845.3136435201
 20
990.7945819442
 30
0.0
 11
845.1747050931
 21
990.3539248054
 31
0.0
  0
LINE
  5
1E7
330
1F
100
AcDbEntity
  8
SLD-0_0
  6
SLD-Solid
 62
   179
370
    15
100
AcDbLine
 10
845.1747050931
 20
990.3539248054
 30
0.0
 11
844.9877253224
 21
989.7609181946
 31
0.0
  0
LINE
  5
1E8
330
1F
100
AcDbEntity
  8
SLD-0_0
  6
SLD-Solid
 62
   179
370
    15
100
AcDbLine
 10
844.9877253224
 20
989.7609181946
 30
0.0
 11
844.7598865678
 21
989.0382714813
 31
0.0
  0
LINE
  5
1E9
330
1F
100
AcDbEntity
  8
SLD-0_0
  6
SLD-Solid
 62
   179
370
    15
100
AcDbLine
 10
844.7598865678
 20
989.0382714813
 30
0.0
 11
844.4999507119
 21
988.2138796394
 31
0.0
  0
LINE
  5
1EA
330
1F
100
AcDbEntity
  8
SLD-0_0
  6
SLD-Solid
 62
   179
370
    15
100
AcDbLine
 10
844.4999507119
 20
988.2138796394
 30
0.0
 11
844.2179015328
 21
987.3193331306
 31
0.0
  0
LINE
  5
1EB
330
1F
100
AcDbEntity
  8
SLD-0_0
  6
SLD-Solid
 62
   179
370
    15
100
AcDbLine
 10
844.2179015328
 20
987.3193331306
 30
0.0
 11
843.9245870759
 21
986.389023835
 31
0.0
  0
LINE
  5
1EC
330
1F
100
AcDbEntity
  8
SLD-0_0
  6
SLD-Solid
 62
   179
370
    15
100
AcDbLine
 10
304.3593367984
 20
983.7683864181
 30
0.0
 11
304.7593286683
 21
983.7683864181
 31
0.0
  0
LINE
  5
1ED
330
1F
100
AcDbEntity
  8
SLD-0_0
  6
SLD-Solid
 62
   179
370
    15
100
AcDbLine
 10
304.3593367984
 20
982.9684324806
 30
0.0
 11
304.7593286683
 21
982.9684324806
 31
0.0
  0
LINE
  5
1EE
330
1F
100
AcDbEntity
  8
SLD-0_0
  6
SLD-Solid
 62
   179
370
    15
100
AcDbLine
 10
819.7593441655
 20
983.7683864181
 30
0.0
 11
820.1593211343
 21
983.7683864181
 31
0.0
  0
LINE
  5
1EF
330
1F
100
AcDbEntity
  8
SLD-0_0
  6
SLD-Solid
 62
   179
370
    15
100
AcDbLine
 10
819.7593441655
 20
982.9684324806
 30
0.0
 11
820.1593211343
 21
982.9684324806
 31
0.0
  0
LINE
  5
1F0
330
1F
100
AcDbEntity
  8
SLD-0_0
  6
SLD-Solid
 62
   179
370
    15
100
AcDbLine
 10
313.4233704259
 20
966.9684000557
 30
0.0
 11
313.8511976649
 21
966.431064183
 31
0.0
  0
LINE
  5
1F1
330
1F
100
AcDbEntity
  8
SLD-0_0
  6
SLD-Solid
 62
   179
370
    15
100
AcDbLine
 10
313.8511976649
 20
966.431064183
 30
0.0
 11
314.9546584536
 21
965.1683993881
 31
0.0
  0
LINE
  5
1F2
330
1F
100
AcDbEntity
  8
SLD-0_0
  6
SLD-Solid
 62
   179
370
    15
100
AcDbLine
 10
811.0956004311
 20
966.9684000557
 30
0.0
 11
810.6677582909
 21
966.431064183
 31
0.0
  0
LINE
  5
1F3
330
1F
100
AcDbEntity
  8
SLD-0_0
  6
SLD-Solid
 62
   179
370
    15
100
AcDbLine
 10
810.6677582909
 20
966.431064183
 30
0.0
 11
809.5642975022
 21
965.1683993881
 31
0.0
  0
LINE
  5
1F4
330
1F
100
AcDbEntity
  8
SLD-0_0
  6
SLD-Solid
 62
   179
370
    15
100
AcDbLine
 10
819.7596421887
 20
981.4684219902
 30
0.0
 11
819.7596421887
 21
982.5951285904
 31
0.0
  0
LINE
  5
1F5
330
1F
100
AcDbEntity
  8
SLD-0_0
  6
SLD-Solid
 62
   179
370
    15
100
AcDbLine
 10
819.7596421887
 20
971.9683952873
 30
0.0
 11
819.7596421887
 21
981.4684219902
 31
0.0
  0
LINE
  5
1F6
330
1F
100
AcDbEntity
  8
SLD-0_0
  6
SLD-Solid
 62
   179
370
    15
100
AcDbLine
 10
904.2771509339
 20
283.0708302801
 30
0.0
 11
904.5040360143
 21
283.2738735025
 31
0.0
  0
LINE
  5
1F7
330
1F
100
AcDbEntity
  8
SLD-0_0
  6
SLD-Solid
 62
   179
370
    15
100
AcDbLine
 10
904.5040360143
 20
283.2738735025
 30
0.0
 11
904.5198312451
 21
283.2898028438
 31
0.0
  0
LINE
  5
1F8
330
1F
100
AcDbEntity
  8
SLD-0_0
  6
SLD-Solid
 62
   179
370
    15
100
AcDbLine
 10
906.507705753
 20
346.969828942
 30
0.0
 11
906.5080335786
 21
345.9943773934
 31
0.0
  0
LINE
  5
1F9
330
1F
100
AcDbEntity
  8
SLD-0_0
  6
SLD-Solid
 62
   179
370
    15
100
AcDbLine
 10
906.5080335786
 20
345.9943773934
 30
0.0
 11
906.5083912064
 21
345.0564119277
 31
0.0
  0
LINE
  5
1FA
330
1F
100
AcDbEntity
  8
SLD-0_0
  6
SLD-Solid
 62
   179
370
    15
100
AcDbLine
 10
906.5083912064
 20
345.0564119277
 30
0.0
 11
906.5086892297
 21
344.1919778717
 31
0.0
  0
LINE
  5
1FB
330
1F
100
AcDbEntity
  8
SLD-0_0
  6
SLD-Solid
 62
   179
370
    15
100
AcDbLine
 10
906.5086892297
 20
344.1919778717
 30
0.0
 11
906.5089574506
 21
343.4342952689
 31
0.0
  0
LINE
  5
1FC
330
1F
100
AcDbEntity
  8
SLD-0_0
  6
SLD-Solid
 62
   179
370
    15
100
AcDbLine
 10
906.5089574506
 20
343.4342952689
 30
0.0
 11
906.5091958691
 21
342.8124809881
 31
0.0
  0
LINE
  5
1FD
330
1F
100
AcDbEntity
  8
SLD-0_0
  6
SLD-Solid
 62
   179
370
    15
100
AcDbLine
 10
906.5091958691
 20
342.8124809881
 30
0.0
 11
906.5093448808
 21
342.3504313697
 31
0.0
  0
LINE
  5
1FE
330
1F
100
AcDbEntity
  8
SLD-0_0
  6
SLD-Solid
 62
   179
370
    15
100
AcDbLine
 10
906.5093448808
 20
342.3504313697
 30
0.0
 11
906.50946409
 21
342.06590301
 31
0.0
  0
LINE
  5
1FF
330
1F
100
AcDbEntity
  8
SLD-0_0
  6
SLD-Solid
 62
   179
370
    15
100
AcDbLine
 10
906.50946409
 20
342.06590301
 30
0.0
 11
906.5094938924
 21
341.9698291702
 31
0.0
  0
LINE
  5
200
330
1F
100
AcDbEntity
  8
SLD-0_0
  6
SLD-Solid
 62
   179
370
    15
100
AcDbLine
 10
906.5094938924
 20
341.9698291702
 30
0.0
 11
905.9094837357
 21
341.9696140346
 31
0.0
  0
LINE
  5
201
330
1F
100
AcDbEntity
  8
SLD-0_0
  6
SLD-Solid
 62
   179
370
    15
100
AcDbLine
 10
906.5044572999
 20
355.9698282053
 30
0.0
 11
906.507705753
 21
346.969828942
 31
0.0
  0
LINE
  5
202
330
1F
100
AcDbEntity
  8
SLD-0_0
  6
SLD-Solid
 62
   179
370
    15
100
AcDbLine
 10
263.9094939877
 20
965.1683993881
 30
0.0
 11
857.1594706227
 21
965.1683993881
 31
0.0
  0
LINE
  5
203
330
1F
100
AcDbEntity
  8
SLD-0_0
  6
SLD-Solid
 62
   179
370
    15
100
AcDbLine
 10
263.9094939877
 20
964.768392617
 30
0.0
 11
263.9094939877
 21
965.1683993881
 31
0.0
  0
LINE
  5
204
330
1F
100
AcDbEntity
  8
SLD-0_0
  6
SLD-Solid
 62
   179
370
    15
100
AcDbLine
 10
253.9094737222
 20
964.768392617
 30
0.0
 11
253.9094737222
 21
965.768439347
 31
0.0
  0
LINE
  5
205
330
1F
100
AcDbEntity
  8
SLD-0_0
  6
SLD-Solid
 62
   179
370
    15
100
AcDbLine
 10
203.9094916036
 20
965.768439347
 30
0.0
 11
203.9094916036
 21
964.768392617
 31
0.0
  0
LINE
  5
206
330
1F
100
AcDbEntity
  8
SLD-0_0
  6
SLD-Solid
 62
   179
370
    15
100
AcDbLine
 10
857.1594706227
 20
965.1683993881
 30
0.0
 11
905.9094837357
 21
965.1683993881
 31
0.0
  0
LINE
  5
207
330
1F
100
AcDbEntity
  8
SLD-0_0
  6
SLD-Solid
 62
   179
370
    15
100
AcDbLine
 10
857.1594706227
 20
965.1683993881
 30
0.0
 11
857.1594706227
 21
965.368432576
 31
0.0
  0
LINE
  5
208
330
1F
100
AcDbEntity
  8
SLD-0_0
  6
SLD-Solid
 62
   179
370
    15
100
AcDbLine
 10
846.2810567071
 20
981.7684121673
 30
0.0
 11
846.0594764401
 21
981.7684121673
 31
0.0
  0
LINE
  5
209
330
1F
100
AcDbEntity
  8
SLD-0_0
  6
SLD-Solid
 62
   179
370
    15
100
AcDbLine
 10
824.1094699551
 20
981.7492790764
 30
0.0
 11
824.1094699551
 21
981.7593522613
 31
0.0
  0
LINE
  5
20A
330
1F
100
AcDbEntity
  8
SLD-0_0
  6
SLD-Solid
 62
   179
370
    15
100
AcDbLine
 10
300.1094809224
 20
965.1683993881
 30
0.0
 11
300.1094809224
 21
965.768439347
 31
0.0
  0
LINE
  5
20B
330
1F
100
AcDbEntity
  8
SLD-0_0
  6
SLD-Solid
 62
   179
370
    15
100
AcDbLine
 10
822.1094957044
 20
972.9684420173
 30
0.0
 11
822.1094957044
 21
965.1683993881
 31
0.0
  0
LINE
  5
20C
330
1F
100
AcDbEntity
  8
SLD-0_0
  6
SLD-Solid
 62
   179
370
    15
100
AcDbLine
 10
906.1094871213
 20
827.1684177463
 30
0.0
 11
906.1094871213
 21
945.8560772484
 31
0.0
  0
LINE
  5
20D
330
1F
100
AcDbEntity
  8
SLD-0_0
  6
SLD-Solid
 62
   179
370
    15
100
AcDbLine
 10
906.1094871213
 20
826.1684008186
 30
0.0
 11
966.7535474946
 21
826.1684008186
 31
0.0
  0
LINE
  5
20E
330
1F
100
AcDbEntity
  8
SLD-0_0
  6
SLD-Solid
 62
   179
370
    15
100
AcDbLine
 10
906.1094871213
 20
825.3684170788
 30
0.0
 11
966.7535474946
 21
825.3684170788
 31
0.0
  0
LINE
  5
20F
330
1F
100
AcDbEntity
  8
SLD-0_0
  6
SLD-Solid
 62
   179
370
    15
100
AcDbLine
 10
906.1094871213
 20
826.1684008186
 30
0.0
 11
906.1094871213
 21
825.3684170788
 31
0.0
  0
LINE
  5
210
330
1F
100
AcDbEntity
  8
SLD-0_0
  6
SLD-Solid
 62
   179
370
    15
100
AcDbLine
 10
950.6224146535
 20
871.3776298111
 30
0.0
 11
926.2983253648
 21
946.2395735328
 31
0.0
  0
LINE
  5
211
330
1F
100
AcDbEntity
  8
SLD-0_0
  6
SLD-Solid
 62
   179
370
    15
100
AcDbLine
 10
949.8615911652
 20
871.1304493492
 30
0.0
 11
925.5374720742
 21
945.9923334663
 31
0.0
  0
LINE
  5
212
330
1F
100
AcDbEntity
  8
SLD-0_0
  6
SLD-Solid
 62
   179
370
    15
100
AcDbLine
 10
906.1094871213
 20
946.8560643738
 30
0.0
 11
924.3486574342
 21
946.8560643738
 31
0.0
  0
LINE
  5
213
330
1F
100
AcDbEntity
  8
SLD-0_0
  6
SLD-Solid
 62
   179
370
    15
100
AcDbLine
 10
906.1094871213
 20
947.6560779159
 30
0.0
 11
906.1094871213
 21
946.8560643738
 31
0.0
  0
LINE
  5
214
330
1F
100
AcDbEntity
  8
SLD-0_0
  6
SLD-Solid
 62
   179
370
    15
100
AcDbLine
 10
906.1094871213
 20
947.6560779159
 30
0.0
 11
924.3486574342
 21
947.6560779159
 31
0.0
  0
LINE
  5
215
330
1F
100
AcDbEntity
  8
SLD-0_0
  6
SLD-Solid
 62
   179
370
    15
100
AcDbLine
 10
975.8895686318
 20
857.2397656982
 30
0.0
 11
956.4391723325
 21
864.3191285675
 31
0.0
  0
LINE
  5
216
330
1F
100
AcDbEntity
  8
SLD-0_0
  6
SLD-Solid
 62
   179
370
    15
100
AcDbLine
 10
976.1631837537
 20
857.9914994781
 30
0.0
 11
956.7127874543
 21
865.0708623474
 31
0.0
  0
LINE
  5
217
330
1F
100
AcDbEntity
  8
SLD-0_0
  6
SLD-Solid
 62
   179
370
    15
100
AcDbLine
 10
967.7110961129
 20
826.6149290149
 30
0.0
 11
980.1298111386
 21
841.4149622501
 31
0.0
  0
LINE
  5
218
330
1F
100
AcDbEntity
  8
SLD-0_0
  6
SLD-Solid
 62
   179
370
    15
100
AcDbLine
 10
968.3239445466
 20
826.100699264
 30
0.0
 11
980.7426466931
 21
840.9007321624
 31
0.0
  0
LINE
  5
219
330
1F
100
AcDbEntity
  8
SLD-0_0
  6
SLD-Solid
 62
   179
370
    15
100
AcDbLine
 10
925.901954477
 20
947.4594421928
 30
0.0
 11
926.2983253648
 21
946.2395735328
 31
0.0
  0
LINE
  5
21A
330
1F
100
AcDbEntity
  8
SLD-0_0
  6
SLD-Solid
 62
   179
370
    15
100
AcDbLine
 10
926.5823414971
 20
948.9876456802
 30
0.0
 11
926.8189719369
 21
949.0930266922
 31
0.0
  0
LINE
  5
21B
330
1F
100
AcDbEntity
  8
SLD-0_0
  6
SLD-Solid
 62
   179
370
    15
100
AcDbLine
 10
926.2569597413
 20
949.7185178344
 30
0.0
 11
926.3536384751
 21
949.761552388
 31
0.0
  0
LINE
  5
21C
330
1F
100
AcDbEntity
  8
SLD-0_0
  6
SLD-Solid
 62
   179
370
    15
100
AcDbLine
 10
926.2569597413
 20
949.7185178344
 30
0.0
 11
926.1036267926
 21
949.6424027031
 31
0.0
  0
LINE
  5
21D
330
1F
100
AcDbEntity
  8
SLD-0_0
  6
SLD-Solid
 62
   179
370
    15
100
AcDbLine
 10
939.1615143468
 20
954.8461266105
 30
0.0
 11
939.2021945168
 21
954.7547526901
 31
0.0
  0
LINE
  5
21E
330
1F
100
AcDbEntity
  8
SLD-0_0
  6
SLD-Solid
 62
   179
370
    15
100
AcDbLine
 10
300.9094795634
 20
965.768439347
 30
0.0
 11
199.5094767262
 21
965.768439347
 31
0.0
  0
LINE
  5
21F
330
1F
100
AcDbEntity
  8
SLD-0_0
  6
SLD-Solid
 62
   179
370
    15
100
AcDbLine
 10
198.5094896008
 20
966.7684264724
 30
0.0
 11
198.5094896008
 21
1002.1683998649
 31
0.0
  0
LINE
  5
220
330
1F
100
AcDbEntity
  8
SLD-0_0
  6
SLD-Solid
 62
   179
370
    15
100
AcDbLine
 10
251.909469669
 20
1019.1025562828
 30
0.0
 11
251.909469669
 21
1019.0852113311
 31
0.0
  0
LINE
  5
221
330
1F
100
AcDbEntity
  8
SLD-0_0
  6
SLD-Solid
 62
   179
370
    15
100
AcDbLine
 10
301.90948159
 20
972.1684284752
 30
0.0
 11
301.90948159
 21
966.7684264724
 31
0.0
  0
LINE
  5
222
330
1F
100
AcDbEntity
  8
SLD-0_0
  6
SLD-Solid
 62
   179
370
    15
100
AcDbLine
 10
198.5094896008
 20
1002.1683998649
 30
0.0
 11
198.5094896008
 21
1050.9478874748
 31
0.0
  0
LINE
  5
223
330
1F
100
AcDbEntity
  8
SLD-0_0
  6
SLD-Solid
 62
   179
370
    15
100
AcDbLine
 10
197.7094760587
 20
1002.1683998649
 30
0.0
 11
198.5094896008
 21
1002.1683998649
 31
0.0
  0
LINE
  5
224
330
1F
100
AcDbEntity
  8
SLD-0_0
  6
SLD-Solid
 62
   179
370
    15
100
AcDbLine
 10
197.7094760587
 20
1002.1683998649
 30
0.0
 11
197.7094760587
 21
1050.9478874748
 31
0.0
  0
LINE
  5
225
330
1F
100
AcDbEntity
  8
SLD-0_0
  6
SLD-Solid
 62
   179
370
    15
100
AcDbLine
 10
200.2900631799
 20
1052.9280169642
 30
0.0
 11
233.5870018651
 21
1044.0061517303
 31
0.0
  0
LINE
  5
226
330
1F
100
AcDbEntity
  8
SLD-0_0
  6
SLD-Solid
 62
   179
370
    15
100
AcDbLine
 10
200.0830224206
 20
1052.155298764
 30
0.0
 11
233.3799651315
 21
1043.2333775108
 31
0.0
  0
LINE
  5
227
330
1F
100
AcDbEntity
  8
SLD-0_0
  6
SLD-Solid
 62
   179
370
    15
100
AcDbLine
 10
253.9594820191
 20
1002.1683998649
 30
0.0
 11
275.1594832589
 21
1002.1683998649
 31
0.0
  0
LINE
  5
228
330
1F
100
AcDbEntity
  8
SLD-0_0
  6
SLD-Solid
 62
   179
370
    15
100
AcDbLine
 10
253.9594820191
 20
1002.9684134071
 30
0.0
 11
275.1594832589
 21
1002.9684134071
 31
0.0
  0
LINE
  5
229
330
1F
100
AcDbEntity
  8
SLD-0_0
  6
SLD-Solid
 62
   179
370
    15
100
AcDbLine
 10
252.7094832112
 20
1019.0852113311
 30
0.0
 11
252.7094832112
 21
1004.2184420173
 31
0.0
  0
LINE
  5
22A
330
1F
100
AcDbEntity
  8
SLD-0_0
  6
SLD-Solid
 62
   179
370
    15
100
AcDbLine
 10
251.909469669
 20
1019.0852113311
 30
0.0
 11
251.909469669
 21
1004.2184420173
 31
0.0
  0
LINE
  5
22B
330
1F
100
AcDbEntity
  8
SLD-0_0
  6
SLD-Solid
 62
   179
370
    15
100
AcDbLine
 10
277.209495609
 20
1000.9184308593
 30
0.0
 11
277.209495609
 21
984.2184014862
 31
0.0
  0
LINE
  5
22C
330
1F
100
AcDbEntity
  8
SLD-0_0
  6
SLD-Solid
 62
   179
370
    15
100
AcDbLine
 10
276.4094820668
 20
1000.9184308593
 30
0.0
 11
276.4094820668
 21
984.2184014862
 31
0.0
  0
LINE
  5
22D
330
1F
100
AcDbEntity
  8
SLD-0_0
  6
SLD-Solid
 62
   179
370
    15
100
AcDbLine
 10
278.4594944169
 20
982.9684324806
 30
0.0
 11
300.6594827821
 21
982.9684324806
 31
0.0
  0
LINE
  5
22E
330
1F
100
AcDbEntity
  8
SLD-0_0
  6
SLD-Solid
 62
   179
370
    15
100
AcDbLine
 10
278.4594944169
 20
982.1684189384
 30
0.0
 11
300.6594827821
 21
982.1684189384
 31
0.0
  0
LINE
  5
22F
330
1F
100
AcDbEntity
  8
SLD-0_0
  6
SLD-Solid
 62
   179
370
    15
100
AcDbLine
 10
301.90948159
 20
980.9183903282
 30
0.0
 11
301.90948159
 21
972.1684284752
 31
0.0
  0
LINE
  5
230
330
1F
100
AcDbEntity
  8
SLD-0_0
  6
SLD-Solid
 62
   179
370
    15
100
AcDbLine
 10
302.709480231
 20
980.9183903282
 30
0.0
 11
302.709480231
 21
972.1684284752
 31
0.0
  0
LINE
  5
231
330
1F
100
AcDbEntity
  8
SLD-0_0
  6
SLD-Solid
 62
   179
370
    15
100
AcDbLine
 10
301.90948159
 20
972.1684284752
 30
0.0
 11
302.709480231
 21
972.1684284752
 31
0.0
  0
LINE
  5
232
330
1F
100
AcDbEntity
  8
SLD-0_0
  6
SLD-Solid
 62
   179
370
    15
100
AcDbLine
 10
823.0194798161
 20
980.5184431617
 30
0.0
 11
823.0194798161
 21
967.8184218948
 31
0.0
  0
LINE
  5
233
330
1F
100
AcDbEntity
  8
SLD-0_0
  6
SLD-Solid
 62
   179
370
    15
100
AcDbLine
 10
846.0594764401
 20
981.758398587
 30
0.0
 11
824.259494846
 21
981.758398587
 31
0.0
  0
LINE
  5
234
330
1F
100
AcDbEntity
  8
SLD-0_0
  6
SLD-Solid
 62
   179
370
    15
100
AcDbLine
 10
848.5194793393
 20
1000.4684157913
 30
0.0
 11
848.5194793393
 21
984.2184014862
 31
0.0
  0
LINE
  5
235
330
1F
100
AcDbEntity
  8
SLD-0_0
  6
SLD-Solid
 62
   179
370
    15
100
AcDbLine
 10
849.7594943692
 20
1000.4684157913
 30
0.0
 11
848.5194793393
 21
1000.4684157913
 31
0.0
  0
LINE
  5
236
330
1F
100
AcDbEntity
  8
SLD-0_0
  6
SLD-Solid
 62
   179
370
    15
100
AcDbLine
 10
849.7594943692
 20
1000.5184240883
 30
0.0
 11
849.7594943692
 21
1000.4684157913
 31
0.0
  0
LINE
  5
237
330
1F
100
AcDbEntity
  8
SLD-0_0
  6
SLD-Solid
 62
   179
370
    15
100
AcDbLine
 10
941.0762837579
 20
1000.4684157913
 30
0.0
 11
941.0762837579
 21
1000.5184240883
 31
0.0
  0
LINE
  5
238
330
1F
100
AcDbEntity
  8
SLD-0_0
  6
SLD-Solid
 62
   179
370
    15
100
AcDbLine
 10
941.5763071229
 20
1000.4684157913
 30
0.0
 11
941.0762837579
 21
1000.4684157913
 31
0.0
  0
LINE
  5
239
330
1F
100
AcDbEntity
  8
SLD-0_0
  6
SLD-Solid
 62
   179
370
    15
100
AcDbLine
 10
941.5763071229
 20
1001.6627140587
 30
0.0
 11
941.5763071229
 21
1000.4684157913
 31
0.0
  0
LINE
  5
23A
330
1F
100
AcDbEntity
  8
SLD-0_0
  6
SLD-Solid
 62
   179
370
    15
100
AcDbLine
 10
926.3536384751
 20
949.2771454399
 30
0.0
 11
949.8487721532
 21
959.493092223
 31
0.0
  0
LINE
  5
23B
330
1F
100
AcDbEntity
  8
SLD-0_0
  6
SLD-Solid
 62
   179
370
    15
100
AcDbLine
 10
926.3536384751
 20
949.2771454399
 30
0.0
 11
926.3536384751
 21
950.4183955734
 31
0.0
  0
LINE
  5
23C
330
1F
100
AcDbEntity
  8
SLD-0_0
  6
SLD-Solid
 62
   179
370
    15
100
AcDbLine
 10
905.9094837357
 20
967.8684301918
 30
0.0
 11
905.9094837357
 21
950.4183955734
 31
0.0
  0
LINE
  5
23D
330
1F
100
AcDbEntity
  8
SLD-0_0
  6
SLD-Solid
 62
   179
370
    15
100
AcDbLine
 10
905.8990529229
 20
967.8684301918
 30
0.0
 11
905.9094837357
 21
967.8684301918
 31
0.0
  0
LINE
  5
23E
330
1F
100
AcDbEntity
  8
SLD-0_0
  6
SLD-Solid
 62
   179
370
    15
100
AcDbLine
 10
905.6594720532
 20
967.8684301918
 30
0.0
 11
905.6699326684
 21
967.8684301918
 31
0.0
  0
LINE
  5
23F
330
1F
100
AcDbEntity
  8
SLD-0_0
  6
SLD-Solid
 62
   179
370
    15
100
AcDbLine
 10
905.6594720532
 20
967.8184218948
 30
0.0
 11
905.6594720532
 21
967.8684301918
 31
0.0
  0
LINE
  5
240
330
1F
100
AcDbEntity
  8
SLD-0_0
  6
SLD-Solid
 62
   179
370
    15
100
AcDbLine
 10
905.6594720532
 20
967.8184218948
 30
0.0
 11
905.6594720532
 21
965.368432576
 31
0.0
  0
LINE
  5
241
330
1F
100
AcDbEntity
  8
SLD-0_0
  6
SLD-Solid
 62
   179
370
    15
100
AcDbLine
 10
905.6594720532
 20
965.368432576
 30
0.0
 11
823.0194798161
 21
965.368432576
 31
0.0
  0
LINE
  5
242
330
1F
100
AcDbEntity
  8
SLD-0_0
  6
SLD-Solid
 62
   179
370
    15
100
AcDbLine
 10
823.0194798161
 20
965.368432576
 30
0.0
 11
823.0194798161
 21
967.8184218948
 31
0.0
  0
LINE
  5
243
330
1F
100
AcDbEntity
  8
SLD-0_0
  6
SLD-Solid
 62
   179
370
    15
100
AcDbLine
 10
926.1036267926
 20
950.4183955734
 30
0.0
 11
926.1036267926
 21
947.9684062545
 31
0.0
  0
LINE
  5
244
330
1F
100
AcDbEntity
  8
SLD-0_0
  6
SLD-Solid
 62
   179
370
    15
100
AcDbLine
 10
905.9094837357
 20
947.9684062545
 30
0.0
 11
926.1036267926
 21
947.9684062545
 31
0.0
  0
LINE
  5
245
330
1F
100
AcDbEntity
  8
SLD-0_0
  6
SLD-Solid
 62
   179
370
    15
100
AcDbLine
 10
905.9094837357
 20
948.0013080185
 30
0.0
 11
905.9094837357
 21
950.4183955734
 31
0.0
  0
LINE
  5
246
330
1F
100
AcDbEntity
  8
SLD-0_0
  6
SLD-Solid
 62
   179
370
    15
100
AcDbLine
 10
941.0762837579
 20
1002.9684134071
 30
0.0
 11
941.0762837579
 21
1000.5184240883
 31
0.0
  0
LINE
  5
247
330
1F
100
AcDbEntity
  8
SLD-0_0
  6
SLD-Solid
 62
   179
370
    15
100
AcDbLine
 10
849.7594943692
 20
1002.9684134071
 30
0.0
 11
941.0762837579
 21
1002.9684134071
 31
0.0
  0
LINE
  5
248
330
1F
100
AcDbEntity
  8
SLD-0_0
  6
SLD-Solid
 62
   179
370
    15
100
AcDbLine
 10
849.7594943692
 20
1000.5184240883
 30
0.0
 11
849.7594943692
 21
1002.9684134071
 31
0.0
  0
LINE
  5
249
330
1F
100
AcDbEntity
  8
SLD-0_0
  6
SLD-Solid
 62
   179
370
    15
100
AcDbLine
 10
846.0594764401
 20
981.7684121673
 30
0.0
 11
824.259494846
 21
981.7684121673
 31
0.0
  0
LINE
  5
24A
330
1F
100
AcDbEntity
  8
SLD-0_0
  6
SLD-Solid
 62
   179
370
    15
100
AcDbLine
 10
846.0594764401
 20
982.9684324806
 30
0.0
 11
841.159646814
 21
982.9684324806
 31
0.0
  0
LINE
  5
24B
330
1F
100
AcDbEntity
  8
SLD-0_0
  6
SLD-Solid
 62
   179
370
    15
100
AcDbLine
 10
823.0094960381
 20
972.9684420173
 30
0.0
 11
821.8094757249
 21
972.9684420173
 31
0.0
  0
LINE
  5
24C
330
1F
100
AcDbEntity
  8
SLD-0_0
  6
SLD-Solid
 62
   179
370
    15
100
AcDbLine
 10
823.0094960381
 20
973.9684291427
 30
0.0
 11
823.0094960381
 21
972.9684420173
 31
0.0
  0
LINE
  5
24D
330
1F
100
AcDbEntity
  8
SLD-0_0
  6
SLD-Solid
 62
   179
370
    15
100
AcDbLine
 10
821.8094757249
 20
972.9684420173
 30
0.0
 11
821.8094757249
 21
973.9684291427
 31
0.0
  0
LINE
  5
24E
330
1F
100
AcDbEntity
  8
SLD-0_0
  6
SLD-Solid
 62
   179
370
    15
100
AcDbLine
 10
848.5094955613
 20
1000.5184240883
 30
0.0
 11
848.5094955613
 21
984.2184014862
 31
0.0
  0
LINE
  5
24F
330
1F
100
AcDbEntity
  8
SLD-0_0
  6
SLD-Solid
 62
   179
370
    15
100
AcDbLine
 10
847.309475248
 20
1000.5184240883
 30
0.0
 11
847.309475248
 21
984.2184014862
 31
0.0
  0
LINE
  5
250
330
1F
100
AcDbEntity
  8
SLD-0_0
  6
SLD-Solid
 62
   179
370
    15
100
AcDbLine
 10
848.5094955613
 20
1000.5184240883
 30
0.0
 11
847.309475248
 21
1000.5184240883
 31
0.0
  0
LINE
  5
251
330
1F
100
AcDbEntity
  8
SLD-0_0
  6
SLD-Solid
 62
   179
370
    15
100
AcDbLine
 10
823.0094960381
 20
980.5184431617
 30
0.0
 11
823.0094960381
 21
973.9684291427
 31
0.0
  0
LINE
  5
252
330
1F
100
AcDbEntity
  8
SLD-0_0
  6
SLD-Solid
 62
   179
370
    15
100
AcDbLine
 10
821.8094757249
 20
980.5184431617
 30
0.0
 11
821.8094757249
 21
973.9684291427
 31
0.0
  0
LINE
  5
253
330
1F
100
AcDbEntity
  8
SLD-0_0
  6
SLD-Solid
 62
   179
370
    15
100
AcDbLine
 10
928.1131079842
 20
948.6245937889
 30
0.0
 11
927.934204643
 21
948.5468097274
 31
0.0
  0
LINE
  5
254
330
1F
100
AcDbEntity
  8
SLD-0_0
  6
SLD-Solid
 62
   179
370
    15
100
AcDbLine
 10
927.934204643
 20
948.5468097274
 30
0.0
 11
927.7621558358
 21
948.4720058983
 31
0.0
  0
LINE
  5
255
330
1F
100
AcDbEntity
  8
SLD-0_0
  6
SLD-Solid
 62
   179
370
    15
100
AcDbLine
 10
927.7621558358
 20
948.4720058983
 30
0.0
 11
927.6036074807
 21
948.4030433243
 31
0.0
  0
LINE
  5
256
330
1F
100
AcDbEntity
  8
SLD-0_0
  6
SLD-Solid
 62
   179
370
    15
100
AcDbLine
 10
927.6036074807
 20
948.4030433243
 30
0.0
 11
927.4646392514
 21
948.3426042144
 31
0.0
  0
LINE
  5
257
330
1F
100
AcDbEntity
  8
SLD-0_0
  6
SLD-Solid
 62
   179
370
    15
100
AcDbLine
 10
927.4646392514
 20
948.3426042144
 30
0.0
 11
927.3505857636
 21
948.29301315
 31
0.0
  0
LINE
  5
258
330
1F
100
AcDbEntity
  8
SLD-0_0
  6
SLD-Solid
 62
   179
370
    15
100
AcDbLine
 10
927.3505857636
 20
948.29301315
 30
0.0
 11
927.2658577611
 21
948.2561774795
 31
0.0
  0
LINE
  5
259
330
1F
100
AcDbEntity
  8
SLD-0_0
  6
SLD-Solid
 62
   179
370
    15
100
AcDbLine
 10
927.2658577611
 20
948.2561774795
 30
0.0
 11
927.2136738946
 21
948.2334681099
 31
0.0
  0
LINE
  5
25A
330
1F
100
AcDbEntity
  8
SLD-0_0
  6
SLD-Solid
 62
   179
370
    15
100
AcDbLine
 10
927.2136738946
 20
948.2334681099
 30
0.0
 11
927.1960309197
 21
948.2258387153
 31
0.0
  0
LINE
  5
25B
330
1F
100
AcDbEntity
  8
SLD-0_0
  6
SLD-Solid
 62
   179
370
    15
100
AcDbLine
 10
927.1960309197
 20
948.2258387153
 30
0.0
 11
926.7175546338
 21
949.3263192718
 31
0.0
  0
LINE
  5
25C
330
1F
100
AcDbEntity
  8
SLD-0_0
  6
SLD-Solid
 62
   179
370
    15
100
AcDbLine
 10
926.7175546338
 20
949.3263192718
 30
0.0
 11
926.7351678063
 21
949.3339486664
 31
0.0
  0
LINE
  5
25D
330
1F
100
AcDbEntity
  8
SLD-0_0
  6
SLD-Solid
 62
   179
370
    15
100
AcDbLine
 10
926.7351678063
 20
949.3339486664
 30
0.0
 11
926.7873516728
 21
949.356658036
 31
0.0
  0
LINE
  5
25E
330
1F
100
AcDbEntity
  8
SLD-0_0
  6
SLD-Solid
 62
   179
370
    15
100
AcDbLine
 10
926.7873516728
 20
949.356658036
 30
0.0
 11
926.8721094777
 21
949.3934937065
 31
0.0
  0
LINE
  5
25F
330
1F
100
AcDbEntity
  8
SLD-0_0
  6
SLD-Solid
 62
   179
370
    15
100
AcDbLine
 10
926.8721094777
 20
949.3934937065
 30
0.0
 11
926.9861331632
 21
949.4430847709
 31
0.0
  0
LINE
  5
260
330
1F
100
AcDbEntity
  8
SLD-0_0
  6
SLD-Solid
 62
   179
370
    15
100
AcDbLine
 10
926.9861331632
 20
949.4430847709
 30
0.0
 11
927.1251013924
 21
949.5035238807
 31
0.0
  0
LINE
  5
261
330
1F
100
AcDbEntity
  8
SLD-0_0
  6
SLD-Solid
 62
   179
370
    15
100
AcDbLine
 10
927.1251013924
 20
949.5035238807
 30
0.0
 11
927.2836497476
 21
949.5724864547
 31
0.0
  0
LINE
  5
262
330
1F
100
AcDbEntity
  8
SLD-0_0
  6
SLD-Solid
 62
   179
370
    15
100
AcDbLine
 10
927.2836497476
 20
949.5724864547
 30
0.0
 11
927.4556985547
 21
949.6472902839
 31
0.0
  0
LINE
  5
263
330
1F
100
AcDbEntity
  8
SLD-0_0
  6
SLD-Solid
 62
   179
370
    15
100
AcDbLine
 10
927.4556985547
 20
949.6472902839
 30
0.0
 11
927.634601896
 21
949.7250743454
 31
0.0
  0
LINE
  5
264
330
1F
100
AcDbEntity
  8
SLD-0_0
  6
SLD-Solid
 62
   179
370
    15
100
AcDbLine
 10
928.1131079842
 20
948.6245937889
 30
0.0
 11
950.3671577622
 21
958.300931031
 31
0.0
  0
LINE
  5
265
330
1F
100
AcDbEntity
  8
SLD-0_0
  6
SLD-Solid
 62
   179
370
    15
100
AcDbLine
 10
927.634601896
 20
949.7250743454
 30
0.0
 11
949.888651674
 21
959.4014115875
 31
0.0
  0
LINE
  5
266
330
1F
100
AcDbEntity
  8
SLD-0_0
  6
SLD-Solid
 62
   179
370
    15
100
AcDbLine
 10
941.5763071229
 20
1001.7627306526
 30
0.0
 11
941.5763071229
 21
1002.9630489891
 31
0.0
  0
LINE
  5
267
330
1F
100
AcDbEntity
  8
SLD-0_0
  6
SLD-Solid
 62
   179
370
    15
100
AcDbLine
 10
958.4088078191
 20
878.8458533828
 30
0.0
 11
958.3537927319
 21
879.0151901787
 31
0.0
  0
LINE
  5
268
330
1F
100
AcDbEntity
  8
SLD-0_0
  6
SLD-Solid
 62
   179
370
    15
100
AcDbLine
 10
958.3537927319
 20
879.0151901787
 30
0.0
 11
958.189343517
 21
879.5212932174
 31
0.0
  0
LINE
  5
269
330
1F
100
AcDbEntity
  8
SLD-0_0
  6
SLD-Solid
 62
   179
370
    15
100
AcDbLine
 10
958.189343517
 20
879.5212932174
 30
0.0
 11
957.9172483136
 21
880.3586788719
 31
0.0
  0
LINE
  5
26A
330
1F
100
AcDbEntity
  8
SLD-0_0
  6
SLD-Solid
 62
   179
370
    15
100
AcDbLine
 10
957.9172483136
 20
880.3586788719
 30
0.0
 11
957.5405171563
 21
881.5181084221
 31
0.0
  0
LINE
  5
26B
330
1F
100
AcDbEntity
  8
SLD-0_0
  6
SLD-Solid
 62
   179
370
    15
100
AcDbLine
 10
957.5405171563
 20
881.5181084221
 30
0.0
 11
957.0632925679
 21
882.9869456833
 31
0.0
  0
LINE
  5
26C
330
1F
100
AcDbEntity
  8
SLD-0_0
  6
SLD-Solid
 62
   179
370
    15
100
AcDbLine
 10
957.0632925679
 20
882.9869456833
 30
0.0
 11
956.4907303502
 21
884.7490377968
 31
0.0
  0
LINE
  5
26D
330
1F
100
AcDbEntity
  8
SLD-0_0
  6
SLD-Solid
 62
   179
370
    15
100
AcDbLine
 10
956.4907303502
 20
884.7490377968
 30
0.0
 11
955.8291783978
 21
886.7850728576
 31
0.0
  0
LINE
  5
26E
330
1F
100
AcDbEntity
  8
SLD-0_0
  6
SLD-Solid
 62
   179
370
    15
100
AcDbLine
 10
955.8291783978
 20
886.7850728576
 30
0.0
 11
955.0858488728
 21
889.0728183334
 31
0.0
  0
LINE
  5
26F
330
1F
100
AcDbEntity
  8
SLD-0_0
  6
SLD-Solid
 62
   179
370
    15
100
AcDbLine
 10
955.0858488728
 20
889.0728183334
 30
0.0
 11
954.2689076115
 21
891.587121064
 31
0.0
  0
LINE
  5
270
330
1F
100
AcDbEntity
  8
SLD-0_0
  6
SLD-Solid
 62
   179
370
    15
100
AcDbLine
 10
954.2689076115
 20
891.587121064
 30
0.0
 11
953.3872655084
 21
894.3005033081
 31
0.0
  0
LINE
  5
271
330
1F
100
AcDbEntity
  8
SLD-0_0
  6
SLD-Solid
 62
   179
370
    15
100
AcDbLine
 10
953.3872655084
 20
894.3005033081
 30
0.0
 11
952.450608318
 21
897.183222348
 31
0.0
  0
LINE
  5
272
330
1F
100
AcDbEntity
  8
SLD-0_0
  6
SLD-Solid
 62
   179
370
    15
100
AcDbLine
 10
952.450608318
 20
897.183222348
 30
0.0
 11
951.4692178418
 21
900.203687722
 31
0.0
  0
LINE
  5
273
330
1F
100
AcDbEntity
  8
SLD-0_0
  6
SLD-Solid
 62
   179
370
    15
100
AcDbLine
 10
951.4692178418
 20
900.203687722
 30
0.0
 11
950.4538229157
 21
903.3287592476
 31
0.0
  0
LINE
  5
274
330
1F
100
AcDbEntity
  8
SLD-0_0
  6
SLD-Solid
 62
   179
370
    15
100
AcDbLine
 10
950.4538229157
 20
903.3287592476
 30
0.0
 11
949.4155398061
 21
906.5242834633
 31
0.0
  0
LINE
  5
275
330
1F
100
AcDbEntity
  8
SLD-0_0
  6
SLD-Solid
 62
   179
370
    15
100
AcDbLine
 10
949.4155398061
 20
906.5242834633
 30
0.0
 11
948.365753
 21
909.755212838
 31
0.0
  0
LINE
  5
276
330
1F
100
AcDbEntity
  8
SLD-0_0
  6
SLD-Solid
 62
   179
370
    15
100
AcDbLine
 10
948.365753
 20
909.755212838
 30
0.0
 11
947.3159661939
 21
912.986082608
 31
0.0
  0
LINE
  5
277
330
1F
100
AcDbEntity
  8
SLD-0_0
  6
SLD-Solid
 62
   179
370
    15
100
AcDbLine
 10
947.3159661939
 20
912.986082608
 30
0.0
 11
946.2776830842
 21
916.1816068237
 31
0.0
  0
LINE
  5
278
330
1F
100
AcDbEntity
  8
SLD-0_0
  6
SLD-Solid
 62
   179
370
    15
100
AcDbLine
 10
946.2776830842
 20
916.1816068237
 30
0.0
 11
945.2622583558
 21
919.3066783493
 31
0.0
  0
LINE
  5
279
330
1F
100
AcDbEntity
  8
SLD-0_0
  6
SLD-Solid
 62
   179
370
    15
100
AcDbLine
 10
945.2622583558
 20
919.3066783493
 30
0.0
 11
944.2808678796
 21
922.3271437233
 31
0.0
  0
LINE
  5
27A
330
1F
100
AcDbEntity
  8
SLD-0_0
  6
SLD-Solid
 62
   179
370
    15
100
AcDbLine
 10
944.2808678796
 20
922.3271437233
 30
0.0
 11
943.3442106892
 21
925.2098627632
 31
0.0
  0
LINE
  5
27B
330
1F
100
AcDbEntity
  8
SLD-0_0
  6
SLD-Solid
 62
   179
370
    15
100
AcDbLine
 10
943.3442106892
 20
925.2098627632
 30
0.0
 11
942.4625983884
 21
927.9232450073
 31
0.0
  0
LINE
  5
27C
330
1F
100
AcDbEntity
  8
SLD-0_0
  6
SLD-Solid
 62
   179
370
    15
100
AcDbLine
 10
942.4625983884
 20
927.9232450073
 30
0.0
 11
941.6456273248
 21
930.4376073425
 31
0.0
  0
LINE
  5
27D
330
1F
100
AcDbEntity
  8
SLD-0_0
  6
SLD-Solid
 62
   179
370
    15
100
AcDbLine
 10
941.6456273248
 20
930.4376073425
 30
0.0
 11
940.9022977998
 21
932.7252932136
 31
0.0
  0
LINE
  5
27E
330
1F
100
AcDbEntity
  8
SLD-0_0
  6
SLD-Solid
 62
   179
370
    15
100
AcDbLine
 10
940.9022977998
 20
932.7252932136
 30
0.0
 11
940.2407458474
 21
934.7613878792
 31
0.0
  0
LINE
  5
27F
330
1F
100
AcDbEntity
  8
SLD-0_0
  6
SLD-Solid
 62
   179
370
    15
100
AcDbLine
 10
940.2407458474
 20
934.7613878792
 30
0.0
 11
939.668213432
 21
936.5234799926
 31
0.0
  0
LINE
  5
280
330
1F
100
AcDbEntity
  8
SLD-0_0
  6
SLD-Solid
 62
   179
370
    15
100
AcDbLine
 10
939.668213432
 20
936.5234799926
 30
0.0
 11
939.1909590413
 21
937.9922576492
 31
0.0
  0
LINE
  5
281
330
1F
100
AcDbEntity
  8
SLD-0_0
  6
SLD-Solid
 62
   179
370
    15
100
AcDbLine
 10
939.1909590413
 20
937.9922576492
 30
0.0
 11
938.814227884
 21
939.151746804
 31
0.0
  0
LINE
  5
282
330
1F
100
AcDbEntity
  8
SLD-0_0
  6
SLD-Solid
 62
   179
370
    15
100
AcDbLine
 10
938.814227884
 20
939.151746804
 30
0.0
 11
938.5421624829
 21
939.9890728538
 31
0.0
  0
LINE
  5
283
330
1F
100
AcDbEntity
  8
SLD-0_0
  6
SLD-Solid
 62
   179
370
    15
100
AcDbLine
 10
938.5421624829
 20
939.9890728538
 30
0.0
 11
938.377713268
 21
940.4952354973
 31
0.0
  0
LINE
  5
284
330
1F
100
AcDbEntity
  8
SLD-0_0
  6
SLD-Solid
 62
   179
370
    15
100
AcDbLine
 10
938.377713268
 20
940.4952354973
 30
0.0
 11
938.3226981809
 21
940.6645126884
 31
0.0
  0
LINE
  5
285
330
1F
100
AcDbEntity
  8
SLD-0_0
  6
SLD-Solid
 62
   179
370
    15
100
AcDbLine
 10
950.5526772191
 20
935.3852100914
 30
0.0
 11
950.0286331822
 21
936.9979925697
 31
0.0
  0
LINE
  5
286
330
1F
100
AcDbEntity
  8
SLD-0_0
  6
SLD-Solid
 62
   179
370
    15
100
AcDbLine
 10
950.0286331822
 20
936.9979925697
 30
0.0
 11
949.6133378198
 21
938.2761545723
 31
0.0
  0
LINE
  5
287
330
1F
100
AcDbEntity
  8
SLD-0_0
  6
SLD-Solid
 62
   179
370
    15
100
AcDbLine
 10
949.6133378198
 20
938.2761545723
 30
0.0
 11
949.3125131776
 21
939.2019935196
 31
0.0
  0
LINE
  5
288
330
1F
100
AcDbEntity
  8
SLD-0_0
  6
SLD-Solid
 62
   179
370
    15
100
AcDbLine
 10
949.3125131776
 20
939.2019935196
 30
0.0
 11
949.1303315808
 21
939.762694413
 31
0.0
  0
LINE
  5
289
330
1F
100
AcDbEntity
  8
SLD-0_0
  6
SLD-Solid
 62
   179
370
    15
100
AcDbLine
 10
949.1303315808
 20
939.762694413
 30
0.0
 11
949.0693262269
 21
939.950449044
 31
0.0
  0
LINE
  5
28A
330
1F
100
AcDbEntity
  8
SLD-0_0
  6
SLD-Solid
 62
   179
370
    15
100
AcDbLine
 10
966.6833034207
 20
885.7402630394
 30
0.0
 11
966.6222980668
 21
885.9280176704
 31
0.0
  0
LINE
  5
28B
330
1F
100
AcDbEntity
  8
SLD-0_0
  6
SLD-Solid
 62
   179
370
    15
100
AcDbLine
 10
966.6222980668
 20
885.9280176704
 30
0.0
 11
966.44011647
 21
886.4887185638
 31
0.0
  0
LINE
  5
28C
330
1F
100
AcDbEntity
  8
SLD-0_0
  6
SLD-Solid
 62
   179
370
    15
100
AcDbLine
 10
966.44011647
 20
886.4887185638
 30
0.0
 11
966.1392918279
 21
887.4145575111
 31
0.0
  0
LINE
  5
28D
330
1F
100
AcDbEntity
  8
SLD-0_0
  6
SLD-Solid
 62
   179
370
    15
100
AcDbLine
 10
966.1392918279
 20
887.4145575111
 30
0.0
 11
965.7239666631
 21
888.6927195137
 31
0.0
  0
LINE
  5
28E
330
1F
100
AcDbEntity
  8
SLD-0_0
  6
SLD-Solid
 62
   179
370
    15
100
AcDbLine
 10
965.7239666631
 20
888.6927195137
 30
0.0
 11
965.1999524285
 21
890.3055615967
 31
0.0
  0
LINE
  5
28F
330
1F
100
AcDbEntity
  8
SLD-0_0
  6
SLD-Solid
 62
   179
370
    15
100
AcDbLine
 10
951.1195173909
 20
933.6405821388
 30
0.0
 11
951.7622044732
 21
931.6626020019
 31
0.0
  0
LINE
  5
290
330
1F
100
AcDbEntity
  8
SLD-0_0
  6
SLD-Solid
 62
   179
370
    15
100
AcDbLine
 10
951.7622044732
 20
931.6626020019
 30
0.0
 11
952.4829140355
 21
929.4445343559
 31
0.0
  0
LINE
  5
291
330
1F
100
AcDbEntity
  8
SLD-0_0
  6
SLD-Solid
 62
   179
370
    15
100
AcDbLine
 10
952.4829140355
 20
929.4445343559
 30
0.0
 11
953.2724073579
 21
927.014691407
 31
0.0
  0
LINE
  5
292
330
1F
100
AcDbEntity
  8
SLD-0_0
  6
SLD-Solid
 62
   179
370
    15
100
AcDbLine
 10
953.2724073579
 20
927.014691407
 30
0.0
 11
954.12067086
 21
924.4040079658
 31
0.0
  0
LINE
  5
293
330
1F
100
AcDbEntity
  8
SLD-0_0
  6
SLD-Solid
 62
   179
370
    15
100
AcDbLine
 10
954.12067086
 20
924.4040079658
 30
0.0
 11
955.0168266942
 21
921.6459222381
 31
0.0
  0
LINE
  5
294
330
1F
100
AcDbEntity
  8
SLD-0_0
  6
SLD-Solid
 62
   179
370
    15
100
AcDbLine
 10
955.0168266942
 20
921.6459222381
 30
0.0
 11
955.9494903733
 21
918.7755413597
 31
0.0
  0
LINE
  5
295
330
1F
100
AcDbEntity
  8
SLD-0_0
  6
SLD-Solid
 62
   179
370
    15
100
AcDbLine
 10
955.9494903733
 20
918.7755413597
 30
0.0
 11
956.9067111661
 21
915.8294625824
 31
0.0
  0
LINE
  5
296
330
1F
100
AcDbEntity
  8
SLD-0_0
  6
SLD-Solid
 62
   179
370
    15
100
AcDbLine
 10
956.9067111661
 20
915.8294625824
 30
0.0
 11
957.8762999226
 21
912.8453560417
 31
0.0
  0
LINE
  5
297
330
1F
100
AcDbEntity
  8
SLD-0_0
  6
SLD-Solid
 62
   179
370
    15
100
AcDbLine
 10
957.8762999226
 20
912.8453560417
 30
0.0
 11
958.8459184815
 21
909.861249501
 31
0.0
  0
LINE
  5
298
330
1F
100
AcDbEntity
  8
SLD-0_0
  6
SLD-Solid
 62
   179
370
    15
100
AcDbLine
 10
958.8459184815
 20
909.861249501
 30
0.0
 11
959.8031392743
 21
906.9151707237
 31
0.0
  0
LINE
  5
299
330
1F
100
AcDbEntity
  8
SLD-0_0
  6
SLD-Solid
 62
   179
370
    15
100
AcDbLine
 10
959.8031392743
 20
906.9151707237
 30
0.0
 11
960.7357731511
 21
904.0447898452
 31
0.0
  0
LINE
  5
29A
330
1F
100
AcDbEntity
  8
SLD-0_0
  6
SLD-Solid
 62
   179
370
    15
100
AcDbLine
 10
960.7357731511
 20
904.0447898452
 30
0.0
 11
961.6319587876
 21
901.2867041176
 31
0.0
  0
LINE
  5
29B
330
1F
100
AcDbEntity
  8
SLD-0_0
  6
SLD-Solid
 62
   179
370
    15
100
AcDbLine
 10
961.6319587876
 20
901.2867041176
 30
0.0
 11
962.4801924874
 21
898.676080281
 31
0.0
  0
LINE
  5
29C
330
1F
100
AcDbEntity
  8
SLD-0_0
  6
SLD-Solid
 62
   179
370
    15
100
AcDbLine
 10
962.4801924874
 20
898.676080281
 30
0.0
 11
963.2697156121
 21
896.2461777275
 31
0.0
  0
LINE
  5
29D
330
1F
100
AcDbEntity
  8
SLD-0_0
  6
SLD-Solid
 62
   179
370
    15
100
AcDbLine
 10
963.2697156121
 20
896.2461777275
 30
0.0
 11
963.9903953721
 21
894.0281100815
 31
0.0
  0
LINE
  5
29E
330
1F
100
AcDbEntity
  8
SLD-0_0
  6
SLD-Solid
 62
   179
370
    15
100
AcDbLine
 10
963.9903953721
 20
894.0281100815
 30
0.0
 11
964.6330824544
 21
892.0501299446
 31
0.0
  0
LINE
  5
29F
330
1F
100
AcDbEntity
  8
SLD-0_0
  6
SLD-Solid
 62
   179
370
    15
100
AcDbLine
 10
949.7987380673
 20
939.869744355
 30
0.0
 11
968.7765887429
 21
937.7491899078
 31
0.0
  0
LINE
  5
2A0
330
1F
100
AcDbEntity
  8
SLD-0_0
  6
SLD-Solid
 62
   179
370
    15
100
AcDbLine
 10
968.7765887429
 20
937.7491899078
 30
0.0
 11
970.2464392831
 21
937.587244088
 31
0.0
  0
LINE
  5
2A1
330
1F
100
AcDbEntity
  8
SLD-0_0
  6
SLD-Solid
 62
   179
370
    15
100
AcDbLine
 10
972.0867624928
 20
933.8314362114
 30
0.0
 11
973.2726863076
 21
930.1815457885
 31
0.0
  0
LINE
  5
2A2
330
1F
100
AcDbEntity
  8
SLD-0_0
  6
SLD-Solid
 62
   179
370
    15
100
AcDbLine
 10
973.2726863076
 20
930.1815457885
 30
0.0
 11
974.4729450395
 21
926.4875479286
 31
0.0
  0
LINE
  5
2A3
330
1F
100
AcDbEntity
  8
SLD-0_0
  6
SLD-Solid
 62
   179
370
    15
100
AcDbLine
 10
974.4729450395
 20
926.4875479286
 30
0.0
 11
975.6828001191
 21
922.7639861648
 31
0.0
  0
LINE
  5
2A4
330
1F
100
AcDbEntity
  8
SLD-0_0
  6
SLD-Solid
 62
   179
370
    15
100
AcDbLine
 10
975.6828001191
 20
922.7639861648
 30
0.0
 11
976.8974533727
 21
919.0257020538
 31
0.0
  0
LINE
  5
2A5
330
1F
100
AcDbEntity
  8
SLD-0_0
  6
SLD-Solid
 62
   179
370
    15
100
AcDbLine
 10
976.8974533727
 20
919.0257020538
 30
0.0
 11
978.1120768239
 21
915.2874179428
 31
0.0
  0
LINE
  5
2A6
330
1F
100
AcDbEntity
  8
SLD-0_0
  6
SLD-Solid
 62
   179
370
    15
100
AcDbLine
 10
978.1120768239
 20
915.2874179428
 30
0.0
 11
979.3219319035
 21
911.563856179
 31
0.0
  0
LINE
  5
2A7
330
1F
100
AcDbEntity
  8
SLD-0_0
  6
SLD-Solid
 62
   179
370
    15
100
AcDbLine
 10
979.3219319035
 20
911.563856179
 30
0.0
 11
980.5221906354
 21
907.8698583191
 31
0.0
  0
LINE
  5
2A8
330
1F
100
AcDbEntity
  8
SLD-0_0
  6
SLD-Solid
 62
   179
370
    15
100
AcDbLine
 10
980.5221906354
 20
907.8698583191
 30
0.0
 11
981.7081144502
 21
904.2199678962
 31
0.0
  0
LINE
  5
2A9
330
1F
100
AcDbEntity
  8
SLD-0_0
  6
SLD-Solid
 62
   179
370
    15
100
AcDbLine
 10
971.089874809
 20
936.8995256965
 30
0.0
 11
971.1322239091
 21
936.7692299431
 31
0.0
  0
LINE
  5
2AA
330
1F
100
AcDbEntity
  8
SLD-0_0
  6
SLD-Solid
 62
   179
370
    15
100
AcDbLine
 10
971.1322239091
 20
936.7692299431
 30
0.0
 11
971.1988619019
 21
936.5640707557
 31
0.0
  0
LINE
  5
2AB
330
1F
100
AcDbEntity
  8
SLD-0_0
  6
SLD-Solid
 62
   179
370
    15
100
AcDbLine
 10
971.1988619019
 20
936.5640707557
 30
0.0
 11
971.2895801713
 21
936.2849422043
 31
0.0
  0
LINE
  5
2AC
330
1F
100
AcDbEntity
  8
SLD-0_0
  6
SLD-Solid
 62
   179
370
    15
100
AcDbLine
 10
971.2895801713
 20
936.2849422043
 30
0.0
 11
971.4039316823
 21
935.9330363815
 31
0.0
  0
LINE
  5
2AD
330
1F
100
AcDbEntity
  8
SLD-0_0
  6
SLD-Solid
 62
   179
370
    15
100
AcDbLine
 10
971.4039316823
 20
935.9330363815
 30
0.0
 11
971.5414395978
 21
935.509783799
 31
0.0
  0
LINE
  5
2AE
330
1F
100
AcDbEntity
  8
SLD-0_0
  6
SLD-Solid
 62
   179
370
    15
100
AcDbLine
 10
971.5414395978
 20
935.509783799
 30
0.0
 11
971.701567476
 21
935.0169725959
 31
0.0
  0
LINE
  5
2AF
330
1F
100
AcDbEntity
  8
SLD-0_0
  6
SLD-Solid
 62
   179
370
    15
100
AcDbLine
 10
971.701567476
 20
935.0169725959
 30
0.0
 11
971.8836000611
 21
934.4567485397
 31
0.0
  0
LINE
  5
2B0
330
1F
100
AcDbEntity
  8
SLD-0_0
  6
SLD-Solid
 62
   179
370
    15
100
AcDbLine
 10
971.8836000611
 20
934.4567485397
 30
0.0
 11
972.0867624928
 21
933.8314362114
 31
0.0
  0
LINE
  5
2B1
330
1F
100
AcDbEntity
  8
SLD-0_0
  6
SLD-Solid
 62
   179
370
    15
100
AcDbLine
 10
981.7081144502
 20
904.2199678962
 30
0.0
 11
982.1447780778
 21
902.8761215751
 31
0.0
  0
LINE
  5
2B2
330
1F
100
AcDbEntity
  8
SLD-0_0
  6
SLD-Solid
 62
   179
370
    15
100
AcDbLine
 10
982.1447780778
 20
902.8761215751
 30
0.0
 11
982.4638417413
 21
901.8940754478
 31
0.0
  0
LINE
  5
2B3
330
1F
100
AcDbEntity
  8
SLD-0_0
  6
SLD-Solid
 62
   179
370
    15
100
AcDbLine
 10
982.4638417413
 20
901.8940754478
 30
0.0
 11
982.6581826856
 21
901.2959428375
 31
0.0
  0
LINE
  5
2B4
330
1F
100
AcDbEntity
  8
SLD-0_0
  6
SLD-Solid
 62
   179
370
    15
100
AcDbLine
 10
982.6581826856
 20
901.2959428375
 30
0.0
 11
982.7234497716
 21
901.09501558
 31
0.0
  0
LINE
  5
2B5
330
1F
100
AcDbEntity
  8
SLD-0_0
  6
SLD-Solid
 62
   179
370
    15
100
AcDbLine
 10
946.0773518731
 20
910.3259869163
 30
0.0
 11
946.0795870473
 21
910.3191323822
 31
0.0
  0
LINE
  5
2B6
330
1F
100
AcDbEntity
  8
SLD-0_0
  6
SLD-Solid
 62
   179
370
    15
100
AcDbLine
 10
946.0795870473
 20
910.3191323822
 30
0.0
 11
946.0861733605
 21
910.2988668029
 31
0.0
  0
LINE
  5
2B7
330
1F
100
AcDbEntity
  8
SLD-0_0
  6
SLD-Solid
 62
   179
370
    15
100
AcDbLine
 10
946.0861733605
 20
910.2988668029
 30
0.0
 11
946.0969319989
 21
910.2657266205
 31
0.0
  0
LINE
  5
2B8
330
1F
100
AcDbEntity
  8
SLD-0_0
  6
SLD-Solid
 62
   179
370
    15
100
AcDbLine
 10
946.0969319989
 20
910.2657266205
 30
0.0
 11
946.1115947415
 21
910.220665509
 31
0.0
  0
LINE
  5
2B9
330
1F
100
AcDbEntity
  8
SLD-0_0
  6
SLD-Solid
 62
   179
370
    15
100
AcDbLine
 10
946.1115947415
 20
910.220665509
 30
0.0
 11
946.1296847512
 21
910.1649351661
 31
0.0
  0
LINE
  5
2BA
330
1F
100
AcDbEntity
  8
SLD-0_0
  6
SLD-Solid
 62
   179
370
    15
100
AcDbLine
 10
946.1296847512
 20
910.1649351661
 30
0.0
 11
946.1507251908
 21
910.1002045219
 31
0.0
  0
LINE
  5
2BB
330
1F
100
AcDbEntity
  8
SLD-0_0
  6
SLD-Solid
 62
   179
370
    15
100
AcDbLine
 10
946.1507251908
 20
910.1002045219
 30
0.0
 11
946.1740902116
 21
910.0282617157
 31
0.0
  0
LINE
  5
2BC
330
1F
100
AcDbEntity
  8
SLD-0_0
  6
SLD-Solid
 62
   179
370
    15
100
AcDbLine
 10
946.1740902116
 20
910.0282617157
 30
0.0
 11
946.1991241624
 21
909.9512525146
 31
0.0
  0
LINE
  5
2BD
330
1F
100
AcDbEntity
  8
SLD-0_0
  6
SLD-Solid
 62
   179
370
    15
100
AcDbLine
 10
946.1991241624
 20
909.9512525146
 30
0.0
 11
946.2603679349
 21
909.7627230232
 31
0.0
  0
LINE
  5
2BE
330
1F
100
AcDbEntity
  8
SLD-0_0
  6
SLD-Solid
 62
   179
370
    15
100
AcDbLine
 10
946.2603679349
 20
909.7627230232
 30
0.0
 11
946.3219395329
 21
909.5732398575
 31
0.0
  0
LINE
  5
2BF
330
1F
100
AcDbEntity
  8
SLD-0_0
  6
SLD-Solid
 62
   179
370
    15
100
AcDbLine
 10
946.3219395329
 20
909.5732398575
 30
0.0
 11
946.3837793519
 21
909.3829222267
 31
0.0
  0
LINE
  5
2C0
330
1F
100
AcDbEntity
  8
SLD-0_0
  6
SLD-Solid
 62
   179
370
    15
100
AcDbLine
 10
946.3837793519
 20
909.3829222267
 30
0.0
 11
946.4458277871
 21
909.1919489448
 31
0.0
  0
LINE
  5
2C1
330
1F
100
AcDbEntity
  8
SLD-0_0
  6
SLD-Solid
 62
   179
370
    15
100
AcDbLine
 10
946.4458277871
 20
909.1919489448
 30
0.0
 11
946.5080550362
 21
909.0003796165
 31
0.0
  0
LINE
  5
2C2
330
1F
100
AcDbEntity
  8
SLD-0_0
  6
SLD-Solid
 62
   179
370
    15
100
AcDbLine
 10
946.5080550362
 20
909.0003796165
 30
0.0
 11
946.570431297
 21
908.8084526603
 31
0.0
  0
LINE
  5
2C3
330
1F
100
AcDbEntity
  8
SLD-0_0
  6
SLD-Solid
 62
   179
370
    15
100
AcDbLine
 10
946.570431297
 20
908.8084526603
 30
0.0
 11
946.6328969647
 21
908.6162276809
 31
0.0
  0
LINE
  5
2C4
330
1F
100
AcDbEntity
  8
SLD-0_0
  6
SLD-Solid
 62
   179
370
    15
100
AcDbLine
 10
946.6328969647
 20
908.6162276809
 30
0.0
 11
946.6953924348
 21
908.4238834923
 31
0.0
  0
LINE
  5
2C5
330
1F
100
AcDbEntity
  8
SLD-0_0
  6
SLD-Solid
 62
   179
370
    15
100
AcDbLine
 10
946.6953924348
 20
908.4238834923
 30
0.0
 11
946.7255225827
 21
908.3310790603
 31
0.0
  0
LINE
  5
2C6
330
1F
100
AcDbEntity
  8
SLD-0_0
  6
SLD-Solid
 62
   179
370
    15
100
AcDbLine
 10
946.7255225827
 20
908.3310790603
 30
0.0
 11
946.7545202424
 21
908.2419105118
 31
0.0
  0
LINE
  5
2C7
330
1F
100
AcDbEntity
  8
SLD-0_0
  6
SLD-Solid
 62
   179
370
    15
100
AcDbLine
 10
946.7545202424
 20
908.2419105118
 30
0.0
 11
946.7812231233
 21
908.159656102
 31
0.0
  0
LINE
  5
2C8
330
1F
100
AcDbEntity
  8
SLD-0_0
  6
SLD-Solid
 62
   179
370
    15
100
AcDbLine
 10
946.7812231233
 20
908.159656102
 30
0.0
 11
946.8046477486
 21
908.0875940864
 31
0.0
  0
LINE
  5
2C9
330
1F
100
AcDbEntity
  8
SLD-0_0
  6
SLD-Solid
 62
   179
370
    15
100
AcDbLine
 10
946.8046477486
 20
908.0875940864
 30
0.0
 11
946.8238702466
 21
908.0284662788
 31
0.0
  0
LINE
  5
2CA
330
1F
100
AcDbEntity
  8
SLD-0_0
  6
SLD-Solid
 62
   179
370
    15
100
AcDbLine
 10
946.8238702466
 20
908.0284662788
 30
0.0
 11
946.838145559
 21
907.9845376556
 31
0.0
  0
LINE
  5
2CB
330
1F
100
AcDbEntity
  8
SLD-0_0
  6
SLD-Solid
 62
   179
370
    15
100
AcDbLine
 10
946.838145559
 20
907.9845376556
 30
0.0
 11
946.8469372441
 21
907.9574771469
 31
0.0
  0
LINE
  5
2CC
330
1F
100
AcDbEntity
  8
SLD-0_0
  6
SLD-Solid
 62
   179
370
    15
100
AcDbLine
 10
946.8469372441
 20
907.9574771469
 30
0.0
 11
946.849887674
 21
907.9483576362
 31
0.0
  0
LINE
  5
2CD
330
1F
100
AcDbEntity
  8
SLD-0_0
  6
SLD-Solid
 62
   179
370
    15
100
AcDbLine
 10
948.7628093411
 20
908.5331984108
 30
0.0
 11
946.849887674
 21
907.9483576362
 31
0.0
  0
LINE
  5
2CE
330
1F
100
AcDbEntity
  8
SLD-0_0
  6
SLD-Solid
 62
   179
370
    15
100
AcDbLine
 10
949.6824792077
 20
905.7026930397
 30
0.0
 11
947.779213493
 21
905.088169152
 31
0.0
  0
LINE
  5
2CF
330
1F
100
AcDbEntity
  8
SLD-0_0
  6
SLD-Solid
 62
   179
370
    15
100
AcDbLine
 10
946.849887674
 20
907.9483576362
 30
0.0
 11
946.9772627999
 21
907.5563378875
 31
0.0
  0
LINE
  5
2D0
330
1F
100
AcDbEntity
  8
SLD-0_0
  6
SLD-Solid
 62
   179
370
    15
100
AcDbLine
 10
946.9772627999
 20
907.5563378875
 30
0.0
 11
947.1024623563
 21
907.1709938591
 31
0.0
  0
LINE
  5
2D1
330
1F
100
AcDbEntity
  8
SLD-0_0
  6
SLD-Solid
 62
   179
370
    15
100
AcDbLine
 10
947.1024623563
 20
907.1709938591
 30
0.0
 11
947.2249499013
 21
906.7939944809
 31
0.0
  0
LINE
  5
2D2
330
1F
100
AcDbEntity
  8
SLD-0_0
  6
SLD-Solid
 62
   179
370
    15
100
AcDbLine
 10
947.2249499013
 20
906.7939944809
 30
0.0
 11
947.3442187955
 21
906.4269490783
 31
0.0
  0
LINE
  5
2D3
330
1F
100
AcDbEntity
  8
SLD-0_0
  6
SLD-Solid
 62
   179
370
    15
100
AcDbLine
 10
947.3442187955
 20
906.4269490783
 30
0.0
 11
947.4597623994
 21
906.0713477676
 31
0.0
  0
LINE
  5
2D4
330
1F
100
AcDbEntity
  8
SLD-0_0
  6
SLD-Solid
 62
   179
370
    15
100
AcDbLine
 10
947.4597623994
 20
906.0713477676
 30
0.0
 11
947.5711038758
 21
905.7287402694
 31
0.0
  0
LINE
  5
2D5
330
1F
100
AcDbEntity
  8
SLD-0_0
  6
SLD-Solid
 62
   179
370
    15
100
AcDbLine
 10
947.5711038758
 20
905.7287402694
 30
0.0
 11
947.6777365853
 21
905.4005570953
 31
0.0
  0
LINE
  5
2D6
330
1F
100
AcDbEntity
  8
SLD-0_0
  6
SLD-Solid
 62
   179
370
    15
100
AcDbLine
 10
947.6777365853
 20
905.4005570953
 30
0.0
 11
947.779213493
 21
905.088169152
 31
0.0
  0
LINE
  5
2D7
330
1F
100
AcDbEntity
  8
SLD-0_0
  6
SLD-Solid
 62
   179
370
    15
100
AcDbLine
 10
948.1252780606
 20
904.0230937545
 30
0.0
 11
948.1476596047
 21
903.9542503898
 31
0.0
  0
LINE
  5
2D8
330
1F
100
AcDbEntity
  8
SLD-0_0
  6
SLD-Solid
 62
   179
370
    15
100
AcDbLine
 10
948.1476596047
 20
903.9542503898
 30
0.0
 11
948.171441858
 21
903.8809962814
 31
0.0
  0
LINE
  5
2D9
330
1F
100
AcDbEntity
  8
SLD-0_0
  6
SLD-Solid
 62
   179
370
    15
100
AcDbLine
 10
948.171441858
 20
903.8809962814
 30
0.0
 11
948.1960585763
 21
903.8053579872
 31
0.0
  0
LINE
  5
2DA
330
1F
100
AcDbEntity
  8
SLD-0_0
  6
SLD-Solid
 62
   179
370
    15
100
AcDbLine
 10
948.1960585763
 20
903.8053579872
 30
0.0
 11
948.2207945039
 21
903.7291236465
 31
0.0
  0
LINE
  5
2DB
330
1F
100
AcDbEntity
  8
SLD-0_0
  6
SLD-Solid
 62
   179
370
    15
100
AcDbLine
 10
948.2207945039
 20
903.7291236465
 30
0.0
 11
948.2450833966
 21
903.654379422
 31
0.0
  0
LINE
  5
2DC
330
1F
100
AcDbEntity
  8
SLD-0_0
  6
SLD-Solid
 62
   179
370
    15
100
AcDbLine
 10
948.2450833966
 20
903.654379422
 30
0.0
 11
948.2682994058
 21
903.5829730575
 31
0.0
  0
LINE
  5
2DD
330
1F
100
AcDbEntity
  8
SLD-0_0
  6
SLD-Solid
 62
   179
370
    15
100
AcDbLine
 10
948.2682994058
 20
903.5829730575
 30
0.0
 11
948.2897868802
 21
903.5168119018
 31
0.0
  0
LINE
  5
2DE
330
1F
100
AcDbEntity
  8
SLD-0_0
  6
SLD-Solid
 62
   179
370
    15
100
AcDbLine
 10
948.2897868802
 20
903.5168119018
 30
0.0
 11
948.3090391805
 21
903.4575648849
 31
0.0
  0
LINE
  5
2DF
330
1F
100
AcDbEntity
  8
SLD-0_0
  6
SLD-Solid
 62
   179
370
    15
100
AcDbLine
 10
947.779213493
 20
905.088169152
 30
0.0
 11
948.1252780606
 21
904.0230937545
 31
0.0
  0
LINE
  5
2E0
330
1F
100
AcDbEntity
  8
SLD-0_0
  6
SLD-Solid
 62
   179
370
    15
100
AcDbLine
 10
948.3090391805
 20
903.4575648849
 30
0.0
 11
948.3542195012
 21
903.3185668533
 31
0.0
  0
LINE
  5
2E1
330
1F
100
AcDbEntity
  8
SLD-0_0
  6
SLD-Solid
 62
   179
370
    15
100
AcDbLine
 10
948.3542195012
 20
903.3185668533
 30
0.0
 11
948.3981779267
 21
903.1832643097
 31
0.0
  0
LINE
  5
2E2
330
1F
100
AcDbEntity
  8
SLD-0_0
  6
SLD-Solid
 62
   179
370
    15
100
AcDbLine
 10
948.3981779267
 20
903.1832643097
 30
0.0
 11
948.4408846547
 21
903.0518360679
 31
0.0
  0
LINE
  5
2E3
330
1F
100
AcDbEntity
  8
SLD-0_0
  6
SLD-Solid
 62
   179
370
    15
100
AcDbLine
 10
948.4408846547
 20
903.0518360679
 30
0.0
 11
948.4823396851
 21
902.9242821281
 31
0.0
  0
LINE
  5
2E4
330
1F
100
AcDbEntity
  8
SLD-0_0
  6
SLD-Solid
 62
   179
370
    15
100
AcDbLine
 10
948.4823396851
 20
902.9242821281
 30
0.0
 11
948.5224834134
 21
902.8007216995
 31
0.0
  0
LINE
  5
2E5
330
1F
100
AcDbEntity
  8
SLD-0_0
  6
SLD-Solid
 62
   179
370
    15
100
AcDbLine
 10
948.5224834134
 20
902.8007216995
 30
0.0
 11
948.5612860371
 21
902.6812739914
 31
0.0
  0
LINE
  5
2E6
330
1F
100
AcDbEntity
  8
SLD-0_0
  6
SLD-Solid
 62
   179
370
    15
100
AcDbLine
 10
948.5612860371
 20
902.6812739914
 30
0.0
 11
948.5987475564
 21
902.5659986084
 31
0.0
  0
LINE
  5
2E7
330
1F
100
AcDbEntity
  8
SLD-0_0
  6
SLD-Solid
 62
   179
370
    15
100
AcDbLine
 10
948.5987475564
 20
902.5659986084
 30
0.0
 11
948.6348083665
 21
902.4549551552
 31
0.0
  0
LINE
  5
2E8
330
1F
100
AcDbEntity
  8
SLD-0_0
  6
SLD-Solid
 62
   179
370
    15
100
AcDbLine
 10
948.6348083665
 20
902.4549551552
 30
0.0
 11
948.64973933
 21
902.408999974
 31
0.0
  0
LINE
  5
2E9
330
1F
100
AcDbEntity
  8
SLD-0_0
  6
SLD-Solid
 62
   179
370
    15
100
AcDbLine
 10
948.64973933
 20
902.408999974
 30
0.0
 11
948.6586800267
 21
902.3814626281
 31
0.0
  0
LINE
  5
2EA
330
1F
100
AcDbEntity
  8
SLD-0_0
  6
SLD-Solid
 62
   179
370
    15
100
AcDbLine
 10
948.6586800267
 20
902.3814626281
 30
0.0
 11
948.6613026311
 21
902.3734160011
 31
0.0
  0
LINE
  5
2EB
330
1F
100
AcDbEntity
  8
SLD-0_0
  6
SLD-Solid
 62
   179
370
    15
100
AcDbLine
 10
282.2594693353
 20
996.2684341018
 30
0.0
 11
282.8947654416
 21
1003.5298891609
 31
0.0
  0
LINE
  5
2EC
330
1F
100
AcDbEntity
  8
SLD-0_0
  6
SLD-Solid
 62
   179
370
    15
100
AcDbLine
 10
285.2480760266
 20
996.2684341018
 30
0.0
 11
282.2594693353
 21
996.2684341018
 31
0.0
  0
LINE
  5
2ED
330
1F
100
AcDbEntity
  8
SLD-0_0
  6
SLD-Solid
 62
   179
370
    15
100
AcDbLine
 10
285.2480760266
 20
996.2684341018
 30
0.0
 11
839.2708948304
 21
996.2684341018
 31
0.0
  0
LINE
  5
2EE
330
1F
100
AcDbEntity
  8
SLD-0_0
  6
SLD-Solid
 62
   179
370
    15
100
AcDbLine
 10
842.2594717194
 20
996.2684341018
 30
0.0
 11
841.6241756131
 21
1003.5298891609
 31
0.0
  0
LINE
  5
2EF
330
1F
100
AcDbEntity
  8
SLD-0_0
  6
SLD-Solid
 62
   179
370
    15
100
AcDbLine
 10
839.2708948304
 20
996.2684341018
 30
0.0
 11
842.2594717194
 21
996.2684341018
 31
0.0
  0
LINE
  5
2F0
330
1F
100
AcDbEntity
  8
SLD-0_0
  6
SLD-Solid
 62
   179
370
    15
100
AcDbLine
 10
285.883372133
 20
1006.2684245651
 30
0.0
 11
838.6355987241
 21
1006.2684245651
 31
0.0
  0
LINE
  5
2F1
330
1F
100
AcDbEntity
  8
SLD-0_0
  6
SLD-Solid
 62
   179
370
    15
100
AcDbLine
 10
290.0075367143
 20
984.4510980194
 30
0.0
 11
286.2819554486
 21
995.5857185159
 31
0.0
  0
LINE
  5
2F2
330
1F
100
AcDbEntity
  8
SLD-0_0
  6
SLD-Solid
 62
   179
370
    15
100
AcDbLine
 10
838.2370128271
 20
995.5857185159
 30
0.0
 11
834.5114341428
 21
984.4510980194
 31
0.0
  0
LINE
  5
2F3
330
1F
100
AcDbEntity
  8
SLD-0_0
  6
SLD-Solid
 62
   179
370
    15
100
AcDbLine
 10
294.2237159659
 20
995.3555889671
 30
0.0
 11
293.2898452927
 21
984.6812315529
 31
0.0
  0
LINE
  5
2F4
330
1F
100
AcDbEntity
  8
SLD-0_0
  6
SLD-Solid
 62
   179
370
    15
100
AcDbLine
 10
831.2291255643
 20
984.6812315529
 30
0.0
 11
830.2952399899
 21
995.3555889671
 31
0.0
  0
LINE
  5
2F5
330
1F
100
AcDbEntity
  8
SLD-0_0
  6
SLD-Solid
 62
   179
370
    15
100
AcDbLine
 10
552.2419963454
 20
986.1812420433
 30
0.0
 11
551.4393480917
 21
995.3555889671
 31
0.0
  0
LINE
  5
2F6
330
1F
100
AcDbEntity
  8
SLD-0_0
  6
SLD-Solid
 62
   179
370
    15
100
AcDbLine
 10
573.0796209027
 20
995.3555889671
 30
0.0
 11
572.2769735803
 21
986.1812420433
 31
0.0
  0
LINE
  5
2F7
330
1F
100
AcDbEntity
  8
SLD-0_0
  6
SLD-Solid
 62
   179
370
    15
100
AcDbLine
 10
571.2807788004
 20
985.2683969085
 30
0.0
 11
553.238190194
 21
985.2683969085
 31
0.0
  0
LINE
  5
2F8
330
1F
100
AcDbEntity
  8
SLD-0_0
  6
SLD-Solid
 62
   179
370
    15
100
AcDbLine
 10
367.501874869
 20
1009.5239110534
 30
0.0
 11
367.6548203875
 21
1010.2960296219
 31
0.0
  0
LINE
  5
2F9
330
1F
100
AcDbEntity
  8
SLD-0_0
  6
SLD-Solid
 62
   179
370
    15
100
AcDbLine
 10
417.6465770652
 20
1010.2236695831
 30
0.0
 11
417.9815477182
 21
1013.1636686866
 31
0.0
  0
LINE
  5
2FA
330
1F
100
AcDbEntity
  8
SLD-0_0
  6
SLD-Solid
 62
   179
370
    15
100
AcDbLine
 10
417.9815477182
 20
1013.1636686866
 30
0.0
 11
418.2921549727
 21
1015.8898659294
 31
0.0
  0
LINE
  5
2FB
330
1F
100
AcDbEntity
  8
SLD-0_0
  6
SLD-Solid
 62
   179
370
    15
100
AcDbLine
 10
418.2921549727
 20
1015.8898659294
 30
0.0
 11
418.5749417593
 21
1018.3718033378
 31
0.0
  0
LINE
  5
2FC
330
1F
100
AcDbEntity
  8
SLD-0_0
  6
SLD-Solid
 62
   179
370
    15
100
AcDbLine
 10
418.5749417593
 20
1018.3718033378
 30
0.0
 11
418.8267415811
 21
1020.5818243568
 31
0.0
  0
LINE
  5
2FD
330
1F
100
AcDbEntity
  8
SLD-0_0
  6
SLD-Solid
 62
   179
370
    15
100
AcDbLine
 10
418.8267415811
 20
1020.5818243568
 30
0.0
 11
419.04475302
 21
1022.4952526634
 31
0.0
  0
LINE
  5
2FE
330
1F
100
AcDbEntity
  8
SLD-0_0
  6
SLD-Solid
 62
   179
370
    15
100
AcDbLine
 10
419.04475302
 20
1022.4952526634
 30
0.0
 11
419.226539736
 21
1024.0908093994
 31
0.0
  0
LINE
  5
2FF
330
1F
100
AcDbEntity
  8
SLD-0_0
  6
SLD-Solid
 62
   179
370
    15
100
AcDbLine
 10
419.226539736
 20
1024.0908093994
 30
0.0
 11
419.3700751712
 21
1025.3506131714
 31
0.0
  0
LINE
  5
300
330
1F
100
AcDbEntity
  8
SLD-0_0
  6
SLD-Solid
 62
   179
370
    15
100
AcDbLine
 10
419.3700751712
 20
1025.3506131714
 30
0.0
 11
419.4737574508
 21
1026.2606568878
 31
0.0
  0
LINE
  5
301
330
1F
100
AcDbEntity
  8
SLD-0_0
  6
SLD-Solid
 62
   179
370
    15
100
AcDbLine
 10
419.4737574508
 20
1026.2606568878
 30
0.0
 11
419.5364391853
 21
1026.8107481544
 31
0.0
  0
LINE
  5
302
330
1F
100
AcDbEntity
  8
SLD-0_0
  6
SLD-Solid
 62
   179
370
    15
100
AcDbLine
 10
419.5364391853
 20
1026.8107481544
 30
0.0
 11
419.5574051191
 21
1026.9948072975
 31
0.0
  0
LINE
  5
303
330
1F
100
AcDbEntity
  8
SLD-0_0
  6
SLD-Solid
 62
   179
370
    15
100
AcDbLine
 10
706.8723937919
 20
1010.2236695831
 30
0.0
 11
706.5374156882
 21
1013.1636686866
 31
0.0
  0
LINE
  5
304
330
1F
100
AcDbEntity
  8
SLD-0_0
  6
SLD-Solid
 62
   179
370
    15
100
AcDbLine
 10
706.5374156882
 20
1013.1636686866
 30
0.0
 11
706.2268158843
 21
1015.8898659294
 31
0.0
  0
LINE
  5
305
330
1F
100
AcDbEntity
  8
SLD-0_0
  6
SLD-Solid
 62
   179
370
    15
100
AcDbLine
 10
706.2268158843
 20
1015.8898659294
 30
0.0
 11
705.9440365483
 21
1018.3718033378
 31
0.0
  0
LINE
  5
306
330
1F
100
AcDbEntity
  8
SLD-0_0
  6
SLD-Solid
 62
   179
370
    15
100
AcDbLine
 10
705.9440365483
 20
1018.3718033378
 30
0.0
 11
705.6922218253
 21
1020.5818243568
 31
0.0
  0
LINE
  5
307
330
1F
100
AcDbEntity
  8
SLD-0_0
  6
SLD-Solid
 62
   179
370
    15
100
AcDbLine
 10
705.6922218253
 20
1020.5818243568
 30
0.0
 11
705.474217837
 21
1022.4952526634
 31
0.0
  0
LINE
  5
308
330
1F
100
AcDbEntity
  8
SLD-0_0
  6
SLD-Solid
 62
   179
370
    15
100
AcDbLine
 10
705.474217837
 20
1022.4952526634
 30
0.0
 11
705.2924236705
 21
1024.0908093994
 31
0.0
  0
LINE
  5
309
330
1F
100
AcDbEntity
  8
SLD-0_0
  6
SLD-Solid
 62
   179
370
    15
100
AcDbLine
 10
705.2924236705
 20
1024.0908093994
 30
0.0
 11
705.1488956859
 21
1025.3506131714
 31
0.0
  0
LINE
  5
30A
330
1F
100
AcDbEntity
  8
SLD-0_0
  6
SLD-Solid
 62
   179
370
    15
100
AcDbLine
 10
705.1488956859
 20
1025.3506131714
 30
0.0
 11
705.0452134063
 21
1026.2606568878
 31
0.0
  0
LINE
  5
30B
330
1F
100
AcDbEntity
  8
SLD-0_0
  6
SLD-Solid
 62
   179
370
    15
100
AcDbLine
 10
705.0452134063
 20
1026.2606568878
 30
0.0
 11
704.9825242211
 21
1026.8107481544
 31
0.0
  0
LINE
  5
30C
330
1F
100
AcDbEntity
  8
SLD-0_0
  6
SLD-Solid
 62
   179
370
    15
100
AcDbLine
 10
704.9825242211
 20
1026.8107481544
 30
0.0
 11
704.9615582873
 21
1026.9948072975
 31
0.0
  0
LINE
  5
30D
330
1F
100
AcDbEntity
  8
SLD-0_0
  6
SLD-Solid
 62
   179
370
    15
100
AcDbLine
 10
424.9615570952
 20
1026.9948072975
 30
0.0
 11
424.9825528314
 21
1026.8105693405
 31
0.0
  0
LINE
  5
30E
330
1F
100
AcDbEntity
  8
SLD-0_0
  6
SLD-Solid
 62
   179
370
    15
100
AcDbLine
 10
424.9825528314
 20
1026.8105693405
 30
0.0
 11
425.0452941706
 21
1026.2598820274
 31
0.0
  0
LINE
  5
30F
330
1F
100
AcDbEntity
  8
SLD-0_0
  6
SLD-Solid
 62
   179
370
    15
100
AcDbLine
 10
425.0452941706
 20
1026.2598820274
 30
0.0
 11
425.1490807583
 21
1025.3489442413
 31
0.0
  0
LINE
  5
310
330
1F
100
AcDbEntity
  8
SLD-0_0
  6
SLD-Solid
 62
   179
370
    15
100
AcDbLine
 10
425.1490807583
 20
1025.3489442413
 30
0.0
 11
425.2927577545
 21
1024.0878887718
 31
0.0
  0
LINE
  5
311
330
1F
100
AcDbEntity
  8
SLD-0_0
  6
SLD-Solid
 62
   179
370
    15
100
AcDbLine
 10
425.2927577545
 20
1024.0878887718
 30
0.0
 11
425.4747232844
 21
1022.4908419197
 31
0.0
  0
LINE
  5
312
330
1F
100
AcDbEntity
  8
SLD-0_0
  6
SLD-Solid
 62
   179
370
    15
100
AcDbLine
 10
425.4747232844
 20
1022.4908419197
 30
0.0
 11
425.6929433395
 21
1020.5755658691
 31
0.0
  0
LINE
  5
313
330
1F
100
AcDbEntity
  8
SLD-0_0
  6
SLD-Solid
 62
   179
370
    15
100
AcDbLine
 10
425.6929433395
 20
1020.5755658691
 30
0.0
 11
425.9449741294
 21
1018.3634586876
 31
0.0
  0
LINE
  5
314
330
1F
100
AcDbEntity
  8
SLD-0_0
  6
SLD-Solid
 62
   179
370
    15
100
AcDbLine
 10
425.9449741294
 20
1018.3634586876
 30
0.0
 11
426.2280142357
 21
1015.8793159073
 31
0.0
  0
LINE
  5
315
330
1F
100
AcDbEntity
  8
SLD-0_0
  6
SLD-Solid
 62
   179
370
    15
100
AcDbLine
 10
426.2280142357
 20
1015.8793159073
 30
0.0
 11
426.5388971617
 21
1013.1507344787
 31
0.0
  0
LINE
  5
316
330
1F
100
AcDbEntity
  8
SLD-0_0
  6
SLD-Solid
 62
   179
370
    15
100
AcDbLine
 10
426.5388971617
 20
1013.1507344787
 30
0.0
 11
426.8741434862
 21
1010.2082915847
 31
0.0
  0
LINE
  5
317
330
1F
100
AcDbEntity
  8
SLD-0_0
  6
SLD-Solid
 62
   179
370
    15
100
AcDbLine
 10
699.5574137618
 20
1026.9948072975
 30
0.0
 11
699.5364180257
 21
1026.8105693405
 31
0.0
  0
LINE
  5
318
330
1F
100
AcDbEntity
  8
SLD-0_0
  6
SLD-Solid
 62
   179
370
    15
100
AcDbLine
 10
699.5364180257
 20
1026.8105693405
 30
0.0
 11
699.4736692359
 21
1026.2598820274
 31
0.0
  0
LINE
  5
319
330
1F
100
AcDbEntity
  8
SLD-0_0
  6
SLD-Solid
 62
   179
370
    15
100
AcDbLine
 10
699.4736692359
 20
1026.2598820274
 30
0.0
 11
699.3698826482
 21
1025.3489442413
 31
0.0
  0
LINE
  5
31A
330
1F
100
AcDbEntity
  8
SLD-0_0
  6
SLD-Solid
 62
   179
370
    15
100
AcDbLine
 10
699.3698826482
 20
1025.3489442413
 30
0.0
 11
699.2262056519
 21
1024.0878887718
 31
0.0
  0
LINE
  5
31B
330
1F
100
AcDbEntity
  8
SLD-0_0
  6
SLD-Solid
 62
   179
370
    15
100
AcDbLine
 10
699.2262056519
 20
1024.0878887718
 30
0.0
 11
699.0442475726
 21
1022.4908419197
 31
0.0
  0
LINE
  5
31C
330
1F
100
AcDbEntity
  8
SLD-0_0
  6
SLD-Solid
 62
   179
370
    15
100
AcDbLine
 10
699.0442475726
 20
1022.4908419197
 30
0.0
 11
698.8260200669
 21
1020.5755658691
 31
0.0
  0
LINE
  5
31D
330
1F
100
AcDbEntity
  8
SLD-0_0
  6
SLD-Solid
 62
   179
370
    15
100
AcDbLine
 10
698.8260200669
 20
1020.5755658691
 30
0.0
 11
698.5739967276
 21
1018.3634586876
 31
0.0
  0
LINE
  5
31E
330
1F
100
AcDbEntity
  8
SLD-0_0
  6
SLD-Solid
 62
   179
370
    15
100
AcDbLine
 10
698.5739967276
 20
1018.3634586876
 30
0.0
 11
698.2909491708
 21
1015.8793159073
 31
0.0
  0
LINE
  5
31F
330
1F
100
AcDbEntity
  8
SLD-0_0
  6
SLD-Solid
 62
   179
370
    15
100
AcDbLine
 10
698.2909491708
 20
1015.8793159073
 30
0.0
 11
697.9800811459
 21
1013.1507344787
 31
0.0
  0
LINE
  5
320
330
1F
100
AcDbEntity
  8
SLD-0_0
  6
SLD-Solid
 62
   179
370
    15
100
AcDbLine
 10
697.9800811459
 20
1013.1507344787
 30
0.0
 11
697.6448199202
 21
1010.2082915847
 31
0.0
  0
LINE
  5
321
330
1F
100
AcDbEntity
  8
SLD-0_0
  6
SLD-Solid
 62
   179
370
    15
100
AcDbLine
 10
422.9744127442
 20
1028.7684031074
 30
0.0
 11
421.5445494701
 21
1028.7684031074
 31
0.0
  0
LINE
  5
322
330
1F
100
AcDbEntity
  8
SLD-0_0
  6
SLD-Solid
 62
   179
370
    15
100
AcDbLine
 10
701.5445581128
 20
1028.7684031074
 30
0.0
 11
702.9744139363
 21
1028.7684031074
 31
0.0
  0
LINE
  5
323
330
1F
100
AcDbEntity
  8
SLD-0_0
  6
SLD-Solid
 62
   179
370
    15
100
AcDbLine
 10
367.6548203875
 20
1010.2960296219
 30
0.0
 11
369.5574155499
 21
1026.9948072975
 31
0.0
  0
LINE
  5
324
330
1F
100
AcDbEntity
  8
SLD-0_0
  6
SLD-Solid
 62
   179
370
    15
100
AcDbLine
 10
374.9615600755
 20
1026.9948072975
 30
0.0
 11
376.8658539702
 21
1010.2810092514
 31
0.0
  0
LINE
  5
325
330
1F
100
AcDbEntity
  8
SLD-0_0
  6
SLD-Solid
 62
   179
370
    15
100
AcDbLine
 10
467.6457694222
 20
1010.2165766304
 30
0.0
 11
469.5574095895
 21
1026.9948072975
 31
0.0
  0
LINE
  5
326
330
1F
100
AcDbEntity
  8
SLD-0_0
  6
SLD-Solid
 62
   179
370
    15
100
AcDbLine
 10
474.9615615656
 20
1026.9948072975
 30
0.0
 11
476.8750122239
 21
1010.2006621902
 31
0.0
  0
LINE
  5
327
330
1F
100
AcDbEntity
  8
SLD-0_0
  6
SLD-Solid
 62
   179
370
    15
100
AcDbLine
 10
656.8732014348
 20
1010.2165766304
 30
0.0
 11
654.9615612676
 21
1026.9948072975
 31
0.0
  0
LINE
  5
328
330
1F
100
AcDbEntity
  8
SLD-0_0
  6
SLD-Solid
 62
   179
370
    15
100
AcDbLine
 10
649.5574092914
 20
1026.9948072975
 30
0.0
 11
647.6439586331
 21
1010.2006621902
 31
0.0
  0
LINE
  5
329
330
1F
100
AcDbEntity
  8
SLD-0_0
  6
SLD-Solid
 62
   179
370
    15
100
AcDbLine
 10
756.8641504695
 20
1010.2960296219
 30
0.0
 11
754.9615553071
 21
1026.9948072975
 31
0.0
  0
LINE
  5
32A
330
1F
100
AcDbEntity
  8
SLD-0_0
  6
SLD-Solid
 62
   179
370
    15
100
AcDbLine
 10
749.5574107816
 20
1026.9948072975
 30
0.0
 11
747.6531019856
 21
1010.2810092514
 31
0.0
  0
LINE
  5
32B
330
1F
100
AcDbEntity
  8
SLD-0_0
  6
SLD-Solid
 62
   179
370
    15
100
AcDbLine
 10
371.5445449998
 20
1028.7684031074
 30
0.0
 11
372.9744157245
 21
1028.7684031074
 31
0.0
  0
LINE
  5
32C
330
1F
100
AcDbEntity
  8
SLD-0_0
  6
SLD-Solid
 62
   179
370
    15
100
AcDbLine
 10
471.5445539405
 20
1028.7684031074
 30
0.0
 11
472.9744172146
 21
1028.7684031074
 31
0.0
  0
LINE
  5
32D
330
1F
100
AcDbEntity
  8
SLD-0_0
  6
SLD-Solid
 62
   179
370
    15
100
AcDbLine
 10
652.9744169165
 20
1028.7684031074
 30
0.0
 11
651.5445536425
 21
1028.7684031074
 31
0.0
  0
LINE
  5
32E
330
1F
100
AcDbEntity
  8
SLD-0_0
  6
SLD-Solid
 62
   179
370
    15
100
AcDbLine
 10
752.9744109561
 20
1028.7684031074
 30
0.0
 11
751.5445551326
 21
1028.7684031074
 31
0.0
  0
LINE
  5
32F
330
1F
100
AcDbEntity
  8
SLD-0_0
  6
SLD-Solid
 62
   179
370
    15
100
AcDbLine
 10
319.7010657241
 20
1028.7684031074
 30
0.0
 11
318.6899921347
 21
1028.7684031074
 31
0.0
  0
LINE
  5
330
330
1F
100
AcDbEntity
  8
SLD-0_0
  6
SLD-Solid
 62
   179
370
    15
100
AcDbLine
 10
804.8179200341
 20
1028.7684031074
 30
0.0
 11
805.8289638211
 21
1028.7684031074
 31
0.0
  0
LINE
  5
331
330
1F
100
AcDbEntity
  8
SLD-0_0
  6
SLD-Solid
 62
   179
370
    15
100
AcDbLine
 10
523.757244875
 20
1028.7684031074
 30
0.0
 11
524.7683110138
 21
1028.7684031074
 31
0.0
  0
LINE
  5
332
330
1F
100
AcDbEntity
  8
SLD-0_0
  6
SLD-Solid
 62
   179
370
    15
100
AcDbLine
 10
600.7617241194
 20
1028.7684031074
 30
0.0
 11
599.7506579806
 21
1028.7684031074
 31
0.0
  0
LINE
  5
333
330
1F
100
AcDbEntity
  8
SLD-0_0
  6
SLD-Solid
 62
   179
370
    15
100
AcDbLine
 10
319.7010657241
 20
1028.7684031074
 30
0.0
 11
350.1398167064
 21
1028.7684031074
 31
0.0
  0
LINE
  5
334
330
1F
100
AcDbEntity
  8
SLD-0_0
  6
SLD-Solid
 62
   179
370
    15
100
AcDbLine
 10
804.8179200341
 20
1028.7684031074
 30
0.0
 11
774.3791541507
 21
1028.7684031074
 31
0.0
  0
LINE
  5
335
330
1F
100
AcDbEntity
  8
SLD-0_0
  6
SLD-Solid
 62
   179
370
    15
100
AcDbLine
 10
493.7605163504
 20
1028.7684031074
 30
0.0
 11
523.757244875
 21
1028.7684031074
 31
0.0
  0
LINE
  5
336
330
1F
100
AcDbEntity
  8
SLD-0_0
  6
SLD-Solid
 62
   179
370
    15
100
AcDbLine
 10
630.7584545066
 20
1028.7684031074
 30
0.0
 11
600.7617241194
 21
1028.7684031074
 31
0.0
  0
LINE
  5
337
330
1F
100
AcDbEntity
  8
SLD-0_0
  6
SLD-Solid
 62
   179
370
    15
100
AcDbLine
 10
293.5791811396
 20
1009.2377491539
 30
0.0
 11
301.7316064288
 21
1027.580661351
 31
0.0
  0
LINE
  5
338
330
1F
100
AcDbEntity
  8
SLD-0_0
  6
SLD-Solid
 62
   179
370
    15
100
AcDbLine
 10
830.9398046185
 20
1009.2377491539
 30
0.0
 11
822.7873495271
 21
1027.580661351
 31
0.0
  0
LINE
  5
339
330
1F
100
AcDbEntity
  8
SLD-0_0
  6
SLD-Solid
 62
   179
370
    15
100
AcDbLine
 10
303.5592338492
 20
1028.7684031074
 30
0.0
 11
304.2011609723
 21
1028.7684031074
 31
0.0
  0
LINE
  5
33A
330
1F
100
AcDbEntity
  8
SLD-0_0
  6
SLD-Solid
 62
   179
370
    15
100
AcDbLine
 10
820.959751909
 20
1028.7684031074
 30
0.0
 11
820.3178098847
 21
1028.7684031074
 31
0.0
  0
LINE
  5
33B
330
1F
100
AcDbEntity
  8
SLD-0_0
  6
SLD-Solid
 62
   179
370
    15
100
AcDbLine
 10
539.8680159924
 20
1028.7684031074
 30
0.0
 11
540.2196871946
 21
1028.7684031074
 31
0.0
  0
LINE
  5
33C
330
1F
100
AcDbEntity
  8
SLD-0_0
  6
SLD-Solid
 62
   179
370
    15
100
AcDbLine
 10
538.2747522744
 20
1027.3495145385
 30
0.0
 11
538.2726254829
 21
1027.3614354675
 31
0.0
  0
LINE
  5
33D
330
1F
100
AcDbEntity
  8
SLD-0_0
  6
SLD-Solid
 62
   179
370
    15
100
AcDbLine
 10
586.2442156722
 20
1027.3495145385
 30
0.0
 11
586.246342813
 21
1027.3613758629
 31
0.0
  0
LINE
  5
33E
330
1F
100
AcDbEntity
  8
SLD-0_0
  6
SLD-Solid
 62
   179
370
    15
100
AcDbLine
 10
584.650953715
 20
1028.7684031074
 30
0.0
 11
584.2992825856
 21
1028.7684031074
 31
0.0
  0
LINE
  5
33F
330
1F
100
AcDbEntity
  8
SLD-0_0
  6
SLD-Solid
 62
   179
370
    15
100
AcDbLine
 10
541.6817856676
 20
1027.8182454651
 30
0.0
 11
541.6948049751
 21
1027.7889199798
 31
0.0
  0
LINE
  5
340
330
1F
100
AcDbEntity
  8
SLD-0_0
  6
SLD-Solid
 62
   179
370
    15
100
AcDbLine
 10
582.8371843745
 20
1027.8182454651
 30
0.0
 11
582.8241644849
 21
1027.7889199798
 31
0.0
  0
LINE
  5
341
330
1F
100
AcDbEntity
  8
SLD-0_0
  6
SLD-Solid
 62
   179
370
    15
100
AcDbLine
 10
350.1398167064
 20
1028.7684031074
 30
0.0
 11
371.5445449998
 21
1028.7684031074
 31
0.0
  0
LINE
  5
342
330
1F
100
AcDbEntity
  8
SLD-0_0
  6
SLD-Solid
 62
   179
370
    15
100
AcDbLine
 10
372.9744157245
 20
1028.7684031074
 30
0.0
 11
379.551937287
 21
1028.7684031074
 31
0.0
  0
LINE
  5
343
330
1F
100
AcDbEntity
  8
SLD-0_0
  6
SLD-Solid
 62
   179
370
    15
100
AcDbLine
 10
464.9670323779
 20
1028.7684031074
 30
0.0
 11
471.5445539405
 21
1028.7684031074
 31
0.0
  0
LINE
  5
344
330
1F
100
AcDbEntity
  8
SLD-0_0
  6
SLD-Solid
 62
   179
370
    15
100
AcDbLine
 10
472.9744172146
 20
1028.7684031074
 30
0.0
 11
493.7605163504
 21
1028.7684031074
 31
0.0
  0
LINE
  5
345
330
1F
100
AcDbEntity
  8
SLD-0_0
  6
SLD-Solid
 62
   179
370
    15
100
AcDbLine
 10
659.5519384791
 20
1028.7684031074
 30
0.0
 11
652.9744169165
 21
1028.7684031074
 31
0.0
  0
LINE
  5
346
330
1F
100
AcDbEntity
  8
SLD-0_0
  6
SLD-Solid
 62
   179
370
    15
100
AcDbLine
 10
651.5445536425
 20
1028.7684031074
 30
0.0
 11
630.7584545066
 21
1028.7684031074
 31
0.0
  0
LINE
  5
347
330
1F
100
AcDbEntity
  8
SLD-0_0
  6
SLD-Solid
 62
   179
370
    15
100
AcDbLine
 10
774.3791541507
 20
1028.7684031074
 30
0.0
 11
752.9744109561
 21
1028.7684031074
 31
0.0
  0
LINE
  5
348
330
1F
100
AcDbEntity
  8
SLD-0_0
  6
SLD-Solid
 62
   179
370
    15
100
AcDbLine
 10
751.5445551326
 20
1028.7684031074
 30
0.0
 11
744.96703357
 21
1028.7684031074
 31
0.0
  0
LINE
  5
349
330
1F
100
AcDbEntity
  8
SLD-0_0
  6
SLD-Solid
 62
   179
370
    15
100
AcDbLine
 10
467.5941816022
 20
1009.7638197487
 30
0.0
 11
467.7023491313
 21
1010.713142926
 31
0.0
  0
LINE
  5
34A
330
1F
100
AcDbEntity
  8
SLD-0_0
  6
SLD-Solid
 62
   179
370
    15
100
AcDbLine
 10
656.8732014348
 20
1010.2165766304
 30
0.0
 11
656.8166217257
 21
1010.713142926
 31
0.0
  0
LINE
  5
34B
330
1F
100
AcDbEntity
  8
SLD-0_0
  6
SLD-Solid
 62
   179
370
    15
100
AcDbLine
 10
697.6448199202
 20
1010.2082915847
 30
0.0
 11
697.6324221541
 21
1010.108751828
 31
0.0
  0
LINE
  5
34C
330
1F
100
AcDbEntity
  8
SLD-0_0
  6
SLD-Solid
 62
   179
370
    15
100
AcDbLine
 10
367.6548203875
 20
1010.2960296219
 30
0.0
 11
367.4734136512
 21
1009.4278879707
 31
0.0
  0
LINE
  5
34D
330
1F
100
AcDbEntity
  8
SLD-0_0
  6
SLD-Center
 62
   179
370
     0
100
AcDbLine
 10
145.6675829201
 20
923.4684138655
 30
0.0
 11
292.482173585
 21
923.4684138655
 31
0.0
  0
LINE
  5
34E
330
1F
100
AcDbEntity
  8
SLD-0_0
  6
SLD-Center
 62
   179
370
     0
100
AcDbLine
 10
859.6094841377
 20
112.4684138655
 30
0.0
 11
859.6094841377
 21
308.4153797019
 31
0.0
  0
LINE
  5
34F
330
1F
100
AcDbEntity
  8
SLD-0_0
  6
SLD-Center
 62
   179
370
     0
100
AcDbLine
 10
270.6094841377
 20
112.4684138655
 30
0.0
 11
270.6094841377
 21
329.9442305383
 31
0.0
  0
ARC
  5
350
330
1F
100
AcDbEntity
  8
SLD-0_0
  6
SLD-Solid
 62
   179
370
    15
100
AcDbCircle
 10
753.0700243322
 20
988.0128538534
 30
0.0
 40
0.5249000000000039
100
AcDbArc
 50
290.140195206
 51
0.0
  0
ARC
  5
351
330
1F
100
AcDbEntity
  8
SLD-0_0
  6
SLD-Solid
 62
   179
370
    15
100
AcDbCircle
 10
649.1489439448
 20
988.0128538534
 30
0.0
 40
0.5249000000000039
100
AcDbArc
 50
180.0
 51
249.859804794
  0
ARC
  5
352
330
1F
100
AcDbEntity
  8
SLD-0_0
  6
SLD-Solid
 62
   179
370
    15
100
AcDbCircle
 10
751.4953243322
 20
989.1878326748
 30
0.0
 40
2.099600000000003
100
AcDbArc
 50
0.0
 51
87.0082842346
  0
ARC
  5
353
330
1F
100
AcDbEntity
  8
SLD-0_0
  6
SLD-Solid
 62
   179
370
    15
100
AcDbCircle
 10
650.7236439448
 20
989.1878326748
 30
0.0
 40
2.099600000000116
100
AcDbArc
 50
92.9917157654
 51
180.0
  0
ARC
  5
354
330
1F
100
AcDbEntity
  8
SLD-0_0
  6
SLD-Solid
 62
   179
370
    15
100
AcDbCircle
 10
750.6311022023
 20
986.7546248647
 30
0.0
 40
0.524900000000116
100
AcDbArc
 50
90.0
 51
180.0
  0
ARC
  5
355
330
1F
100
AcDbEntity
  8
SLD-0_0
  6
SLD-Solid
 62
   179
370
    15
100
AcDbCircle
 10
651.5878660747
 20
986.7546248647
 30
0.0
 40
0.5249000000000024
100
AcDbArc
 50
0.0
 51
90.0
  0
ARC
  5
356
330
1F
100
AcDbEntity
  8
SLD-0_0
  6
SLD-Solid
 62
   179
370
    15
100
AcDbCircle
 10
749.6862822023
 20
986.1838335056
 30
0.0
 40
0.4199199999999337
100
AcDbArc
 50
289.9336222061
 51
0.0
  0
ARC
  5
357
330
1F
100
AcDbEntity
  8
SLD-0_0
  6
SLD-Solid
 62
   179
370
    15
100
AcDbCircle
 10
652.5326860747
 20
986.1838335056
 30
0.0
 40
0.4199200000000474
100
AcDbArc
 50
180.0
 51
250.0663777939
  0
ARC
  5
358
330
1F
100
AcDbEntity
  8
SLD-0_0
  6
SLD-Solid
 62
   179
370
    15
100
AcDbCircle
 10
471.4953243322
 20
989.1878326748
 30
0.0
 40
2.099600000000116
100
AcDbArc
 50
0.0
 51
87.0082842346
  0
ARC
  5
359
330
1F
100
AcDbEntity
  8
SLD-0_0
  6
SLD-Solid
 62
   179
370
    15
100
AcDbCircle
 10
370.7236439448
 20
989.1878326748
 30
0.0
 40
2.099600000000116
100
AcDbArc
 50
92.9917157654
 51
180.0
  0
ARC
  5
35A
330
1F
100
AcDbEntity
  8
SLD-0_0
  6
SLD-Solid
 62
   179
370
    15
100
AcDbCircle
 10
473.0700243322
 20
988.0128538534
 30
0.0
 40
0.5249000000000024
100
AcDbArc
 50
290.140195206
 51
0.0
  0
ARC
  5
35B
330
1F
100
AcDbEntity
  8
SLD-0_0
  6
SLD-Solid
 62
   179
370
    15
100
AcDbCircle
 10
369.1489439448
 20
988.0128538534
 30
0.0
 40
0.5249000000000039
100
AcDbArc
 50
180.0
 51
249.859804794
  0
ARC
  5
35C
330
1F
100
AcDbEntity
  8
SLD-0_0
  6
SLD-Solid
 62
   179
370
    15
100
AcDbCircle
 10
470.6311022023
 20
986.7546248647
 30
0.0
 40
0.5249000000000024
100
AcDbArc
 50
90.0
 51
180.0
  0
ARC
  5
35D
330
1F
100
AcDbEntity
  8
SLD-0_0
  6
SLD-Solid
 62
   179
370
    15
100
AcDbCircle
 10
371.5878660747
 20
986.7546248647
 30
0.0
 40
0.524900000000116
100
AcDbArc
 50
0.0
 51
90.0
  0
ARC
  5
35E
330
1F
100
AcDbEntity
  8
SLD-0_0
  6
SLD-Solid
 62
   179
370
    15
100
AcDbCircle
 10
469.6862822023
 20
986.1838335056
 30
0.0
 40
0.4199199999999337
100
AcDbArc
 50
289.9336222061
 51
0.0
  0
ARC
  5
35F
330
1F
100
AcDbEntity
  8
SLD-0_0
  6
SLD-Solid
 62
   179
370
    15
100
AcDbCircle
 10
372.5326860747
 20
986.1838335056
 30
0.0
 40
0.4199199999999905
100
AcDbArc
 50
180.0
 51
250.0663777939
  0
ARC
  5
360
330
1F
100
AcDbEntity
  8
SLD-0_0
  6
SLD-Solid
 62
   179
370
    15
100
AcDbCircle
 10
372.3754401385
 20
985.4640447814
 30
0.0
 40
0.3000000000000682
100
AcDbArc
 50
90.0
 51
180.0
  0
ARC
  5
361
330
1F
100
AcDbEntity
  8
SLD-0_0
  6
SLD-Solid
 62
   179
370
    15
100
AcDbCircle
 10
469.8435281385
 20
985.4640447814
 30
0.0
 40
0.2999999999999545
100
AcDbArc
 50
0.0
 51
90.0
  0
ARC
  5
362
330
1F
100
AcDbEntity
  8
SLD-0_0
  6
SLD-Solid
 62
   179
370
    15
100
AcDbCircle
 10
652.3754401385
 20
985.4640447814
 30
0.0
 40
0.3000000000000682
100
AcDbArc
 50
90.0
 51
180.0
  0
ARC
  5
363
330
1F
100
AcDbEntity
  8
SLD-0_0
  6
SLD-Solid
 62
   179
370
    15
100
AcDbCircle
 10
749.8435281385
 20
985.4640447814
 30
0.0
 40
0.2999999999999545
100
AcDbArc
 50
0.0
 51
90.0
  0
ARC
  5
364
330
1F
100
AcDbEntity
  8
SLD-0_0
  6
SLD-Solid
 62
   179
370
    15
100
AcDbCircle
 10
943.8684858234
 20
914.816610693
 30
0.0
 40
0.4999999999999471
100
AcDbArc
 50
18.0
 51
108.0
  0
ARC
  5
365
330
1F
100
AcDbEntity
  8
SLD-0_0
  6
SLD-Solid
 62
   179
370
    15
100
AcDbCircle
 10
948.4419373401
 20
900.7409742519
 30
0.0
 40
0.5000000000001633
100
AcDbArc
 50
288.0
 51
18.0
  0
ARC
  5
366
330
1F
100
AcDbEntity
  8
SLD-0_0
  6
SLD-Solid
 62
   179
370
    15
100
AcDbCircle
 10
181.5594841374
 20
329.6257959685
 30
0.0
 40
0.250000716667073
100
AcDbArc
 50
90.0013269435
 51
180.0
  0
ARC
  5
367
330
1F
100
AcDbEntity
  8
SLD-0_0
  6
SLD-Solid
 62
   179
370
    15
100
AcDbCircle
 10
181.5594841374
 20
325.1879747538
 30
0.0
 40
0.25
100
AcDbArc
 50
180.0
 51
270.0
  0
ARC
  5
368
330
1F
100
AcDbEntity
  8
SLD-0_0
  6
SLD-Solid
 62
   179
370
    15
100
AcDbCircle
 10
187.8594841374
 20
325.9184138639
 30
0.0
 40
0.2500000000000462
100
AcDbArc
 50
301.0756875733
 51
0.0
  0
ARC
  5
369
330
1F
100
AcDbEntity
  8
SLD-0_0
  6
SLD-Solid
 62
   179
370
    15
100
AcDbCircle
 10
181.5594841374
 20
343.5488529739
 30
0.0
 40
0.2500001349670517
100
AcDbArc
 50
90.0013269466
 51
180.0
  0
ARC
  5
36A
330
1F
100
AcDbEntity
  8
SLD-0_0
  6
SLD-Solid
 62
   179
370
    15
100
AcDbCircle
 10
192.2594841374
 20
338.2928231998
 30
0.0
 40
0.2500000000000568
100
AcDbArc
 50
270.0
 51
0.0
  0
ARC
  5
36B
330
1F
100
AcDbEntity
  8
SLD-0_0
  6
SLD-Solid
 62
   179
370
    15
100
AcDbCircle
 10
192.2594841374
 20
343.1189901719
 30
0.0
 40
0.2500000000000284
100
AcDbArc
 50
0.0
 51
90.0
  0
ARC
  5
36C
330
1F
100
AcDbEntity
  8
SLD-0_0
  6
SLD-Solid
 62
   179
370
    15
100
AcDbCircle
 10
185.9594841374
 20
342.8184138639
 30
0.0
 40
0.2500000000000568
100
AcDbArc
 50
90.0
 51
180.0
  0
ARC
  5
36D
330
1F
100
AcDbEntity
  8
SLD-0_0
  6
SLD-Solid
 62
   179
370
    15
100
AcDbCircle
 10
192.2594841374
 20
325.6178375558
 30
0.0
 40
0.2500000000001137
100
AcDbArc
 50
270.0
 51
0.0
  0
ARC
  5
36E
330
1F
100
AcDbEntity
  8
SLD-0_0
  6
SLD-Solid
 62
   179
370
    15
100
AcDbCircle
 10
297.0094841379
 20
984.0184138595
 30
0.0
 40
0.2500000000000437
100
AcDbArc
 50
270.0
 51
52.629836736
  0
ARC
  5
36F
330
1F
100
AcDbEntity
  8
SLD-0_0
  6
SLD-Solid
 62
   179
370
    15
100
AcDbCircle
 10
285.5094841379
 20
984.0184138595
 30
0.0
 40
0.2500000000000092
100
AcDbArc
 50
127.370163264
 51
270.0
  0
ARC
  5
370
330
1F
100
AcDbEntity
  8
SLD-0_0
  6
SLD-Solid
 62
   179
370
    15
100
AcDbCircle
 10
291.4544764256
 20
977.3139590726
 30
0.0
 40
8.956577612210538
100
AcDbArc
 50
50.4198331666
 51
56.3345247097
  0
ARC
  5
371
330
1F
100
AcDbEntity
  8
SLD-0_0
  6
SLD-Solid
 62
   179
370
    15
100
AcDbCircle
 10
291.0644918502
 20
977.3139590726
 30
0.0
 40
8.956577612210538
100
AcDbArc
 50
123.6654752903
 51
129.5801668334
  0
ARC
  5
372
330
1F
100
AcDbEntity
  8
SLD-0_0
  6
SLD-Solid
 62
   179
370
    15
100
AcDbCircle
 10
840.0094841378
 20
984.0184138595
 30
0.0
 40
0.2500000000000092
100
AcDbArc
 50
270.0
 51
52.629836736
  0
ARC
  5
373
330
1F
100
AcDbEntity
  8
SLD-0_0
  6
SLD-Solid
 62
   179
370
    15
100
AcDbCircle
 10
828.5094841378
 20
984.0184138595
 30
0.0
 40
0.2500000000000092
100
AcDbArc
 50
127.370163264
 51
270.0
  0
ARC
  5
374
330
1F
100
AcDbEntity
  8
SLD-0_0
  6
SLD-Solid
 62
   179
370
    15
100
AcDbCircle
 10
834.4544764255
 20
977.3139590726
 30
0.0
 40
8.956577612210664
100
AcDbArc
 50
50.4198331666
 51
56.3345247097
  0
ARC
  5
375
330
1F
100
AcDbEntity
  8
SLD-0_0
  6
SLD-Solid
 62
   179
370
    15
100
AcDbCircle
 10
834.0644918501
 20
977.3139590726
 30
0.0
 40
8.95657761221057
100
AcDbArc
 50
123.6654752903
 51
129.5801668334
  0
ARC
  5
376
330
1F
100
AcDbEntity
  8
SLD-0_0
  6
SLD-Solid
 62
   179
370
    15
100
AcDbCircle
 10
976.0493187585
 20
761.4684138639
 30
0.0
 40
46.2499997094432
100
AcDbArc
 50
348.5111844164
 51
11.4945666253
  0
ARC
  5
377
330
1F
100
AcDbEntity
  8
SLD-0_0
  6
SLD-Solid
 62
   179
370
    15
100
AcDbCircle
 10
886.1094841377
 20
114.4684138655
 30
0.0
 40
2.0
100
AcDbArc
 50
270.0
 51
0.0
  0
ARC
  5
378
330
1F
100
AcDbEntity
  8
SLD-0_0
  6
SLD-Solid
 62
   179
370
    15
100
AcDbCircle
 10
833.1094841377
 20
114.4684138655
 30
0.0
 40
2.0
100
AcDbArc
 50
180.0
 51
270.0
  0
ARC
  5
379
330
1F
100
AcDbEntity
  8
SLD-0_0
  6
SLD-Solid
 62
   179
370
    15
100
AcDbCircle
 10
297.1094841377
 20
114.4684138655
 30
0.0
 40
2.0
100
AcDbArc
 50
270.0
 51
0.0
  0
ARC
  5
37A
330
1F
100
AcDbEntity
  8
SLD-0_0
  6
SLD-Solid
 62
   179
370
    15
100
AcDbCircle
 10
244.1094841377
 20
114.4684138655
 30
0.0
 40
2.0
100
AcDbArc
 50
180.0
 51
270.0
  0
ARC
  5
37B
330
1F
100
AcDbEntity
  8
SLD-0_0
  6
SLD-Solid
 62
   179
370
    15
100
AcDbCircle
 10
893.0094841377
 20
278.9684138655
 30
0.0
 40
1.499999999999943
100
AcDbArc
 50
90.0
 51
180.0
  0
ARC
  5
37C
330
1F
100
AcDbEntity
  8
SLD-0_0
  6
SLD-Solid
 62
   179
370
    15
100
AcDbCircle
 10
826.2094841377
 20
278.9684138655
 30
0.0
 40
1.500000000000171
100
AcDbArc
 50
0.0
 51
90.0
  0
ARC
  5
37D
330
1F
100
AcDbEntity
  8
SLD-0_0
  6
SLD-Solid
 62
   179
370
    15
100
AcDbCircle
 10
886.8094841377
 20
192.5009798111
 30
0.0
 40
4.700000000000057
100
AcDbArc
 50
350.5402980318
 51
359.999959604
  0
ARC
  5
37E
330
1F
100
AcDbEntity
  8
SLD-0_0
  6
SLD-Solid
 62
   179
370
    15
100
AcDbCircle
 10
832.4094841377
 20
192.5009798111
 30
0.0
 40
4.700000000000057
100
AcDbArc
 50
180.0
 51
189.4597019682
  0
ARC
  5
37F
330
1F
100
AcDbEntity
  8
SLD-0_0
  6
SLD-Solid
 62
   179
370
    15
100
AcDbCircle
 10
304.0094841377
 20
278.9684138655
 30
0.0
 40
1.500000000000057
100
AcDbArc
 50
90.0
 51
180.0
  0
ARC
  5
380
330
1F
100
AcDbEntity
  8
SLD-0_0
  6
SLD-Solid
 62
   179
370
    15
100
AcDbCircle
 10
237.2094841377
 20
278.9684138655
 30
0.0
 40
1.500000000000028
100
AcDbArc
 50
0.0
 51
90.0
  0
ARC
  5
381
330
1F
100
AcDbEntity
  8
SLD-0_0
  6
SLD-Solid
 62
   179
370
    15
100
AcDbCircle
 10
297.8094841377
 20
192.5009798112
 30
0.0
 40
4.700000000000053
100
AcDbArc
 50
350.5402980318
 51
359.9999596028
  0
ARC
  5
382
330
1F
100
AcDbEntity
  8
SLD-0_0
  6
SLD-Solid
 62
   179
370
    15
100
AcDbCircle
 10
243.4094841377
 20
192.5009798112
 30
0.0
 40
4.699999999999996
100
AcDbArc
 50
180.0000403972
 51
189.4597019682
  0
ARC
  5
383
330
1F
100
AcDbEntity
  8
SLD-0_0
  6
SLD-Solid
 62
   179
370
    15
100
AcDbCircle
 10
981.7724080776
 20
900.786025774
 30
0.0
 40
1.000000000000075
100
AcDbArc
 50
312.227745318
 51
18.0
  0
ARC
  5
384
330
1F
100
AcDbEntity
  8
SLD-0_0
  6
SLD-Solid
 62
   179
370
    15
100
AcDbCircle
 10
289.9085864706
 20
1011.2683027619
 30
0.0
 40
4.999878197233342
100
AcDbArc
 50
269.9992210741
 51
336.652333754
  0
ARC
  5
385
330
1F
100
AcDbEntity
  8
SLD-0_0
  6
SLD-Solid
 62
   179
370
    15
100
AcDbCircle
 10
834.6104171896
 20
1011.2683888989
 30
0.0
 40
4.999964333833952
100
AcDbArc
 50
203.4070998359
 51
270.000232258
  0
ARC
  5
386
330
1F
100
AcDbEntity
  8
SLD-0_0
  6
SLD-Solid
 62
   179
370
    15
100
AcDbCircle
 10
553.5497667135
 20
1011.268408868
 30
0.0
 40
4.999984418164563
100
AcDbArc
 50
203.2540181808
 51
269.9876977196
  0
ARC
  5
387
330
1F
100
AcDbEntity
  8
SLD-0_0
  6
SLD-Solid
 62
   179
370
    15
100
AcDbCircle
 10
570.9692175548
 20
1011.2683503214
 30
0.0
 40
4.999925868316494
100
AcDbArc
 50
270.0121273965
 51
336.8705171478
  0
ARC
  5
388
330
1F
100
AcDbEntity
  8
SLD-0_0
  6
SLD-Solid
 62
   179
370
    15
100
AcDbCircle
 10
350.1398128621
 20
1026.7684138595
 30
0.0
 40
2.000000000000227
100
AcDbArc
 50
8.1460564929
 51
90.0
  0
ARC
  5
389
330
1F
100
AcDbEntity
  8
SLD-0_0
  6
SLD-Solid
 62
   179
370
    15
100
AcDbCircle
 10
774.3791554136
 20
1026.7684138595
 30
0.0
 40
2.000000000000227
100
AcDbArc
 50
90.0
 51
171.8968628339
  0
ARC
  5
38A
330
1F
100
AcDbEntity
  8
SLD-0_0
  6
SLD-Solid
 62
   179
370
    15
100
AcDbCircle
 10
493.7605171411
 20
1026.7684138595
 30
0.0
 40
2.000000000000227
100
AcDbArc
 50
90.0
 51
171.8973955384
  0
ARC
  5
38B
330
1F
100
AcDbEntity
  8
SLD-0_0
  6
SLD-Solid
 62
   179
370
    15
100
AcDbCircle
 10
630.7584511347
 20
1026.7684138595
 30
0.0
 40
2.000000000000227
100
AcDbArc
 50
8.1447798754
 51
90.0
  0
ARC
  5
38C
330
1F
100
AcDbEntity
  8
SLD-0_0
  6
SLD-Solid
 62
   179
370
    15
100
AcDbCircle
 10
304.2011560978
 20
1026.7684138595
 30
0.0
 40
2.000000000000227
100
AcDbArc
 50
5.4535414403
 51
90.0
  0
ARC
  5
38D
330
1F
100
AcDbEntity
  8
SLD-0_0
  6
SLD-Solid
 62
   179
370
    15
100
AcDbCircle
 10
820.3178121779
 20
1026.7684138595
 30
0.0
 40
2.000000000000227
100
AcDbArc
 50
90.0
 51
174.5464585597
  0
ARC
  5
38E
330
1F
100
AcDbEntity
  8
SLD-0_0
  6
SLD-Solid
 62
   179
370
    15
100
AcDbCircle
 10
904.1094841383
 20
368.0684138622
 30
0.0
 40
8.999999999999973
100
AcDbArc
 50
281.5369590398
 51
0.0
  0
ARC
  5
38F
330
1F
100
AcDbEntity
  8
SLD-0_0
  6
SLD-Solid
 62
   179
370
    15
100
AcDbCircle
 10
909.1094841383
 20
794.8067063147
 30
0.0
 40
4.000000000000182
100
AcDbArc
 50
0.0
 51
143.1301023285
  0
ARC
  5
390
330
1F
100
AcDbEntity
  8
SLD-0_0
  6
SLD-Solid
 62
   179
370
    15
100
AcDbCircle
 10
960.862151933
 20
819.7684138607
 30
0.0
 40
3.0
100
AcDbArc
 50
270.0
 51
290.6791115231
  0
ARC
  5
391
330
1F
100
AcDbEntity
  8
SLD-0_0
  6
SLD-Solid
 62
   179
370
    15
100
AcDbCircle
 10
946.5263281081
 20
819.7684138607
 30
0.0
 40
2.999999999999955
100
AcDbArc
 50
204.9010623704
 51
269.9999188652
  0
ARC
  5
392
330
1F
100
AcDbEntity
  8
SLD-0_0
  6
SLD-Solid
 62
   179
370
    15
100
AcDbCircle
 10
937.9094841383
 20
815.7684138607
 30
0.0
 40
6.50000000000006
100
AcDbArc
 50
24.9010623704
 51
155.0989376296
  0
ARC
  5
393
330
1F
100
AcDbEntity
  8
SLD-0_0
  6
SLD-Solid
 62
   179
370
    15
100
AcDbCircle
 10
929.2926401685
 20
819.7684138607
 30
0.0
 40
3.0
100
AcDbArc
 50
270.0
 51
335.0989376296
  0
ARC
  5
394
330
1F
100
AcDbEntity
  8
SLD-0_0
  6
SLD-Solid
 62
   179
370
    15
100
AcDbCircle
 10
908.9094841383
 20
819.7684138607
 30
0.0
 40
1.0
100
AcDbArc
 50
180.0
 51
270.0
  0
ARC
  5
395
330
1F
100
AcDbEntity
  8
SLD-0_0
  6
SLD-Solid
 62
   179
370
    15
100
AcDbCircle
 10
929.2926401685
 20
819.7684138607
 30
0.0
 40
1.000000000000114
100
AcDbArc
 50
270.0
 51
335.0989376296
  0
ARC
  5
396
330
1F
100
AcDbEntity
  8
SLD-0_0
  6
SLD-Solid
 62
   179
370
    15
100
AcDbCircle
 10
937.9094841383
 20
815.7684138607
 30
0.0
 40
8.499999999999996
100
AcDbArc
 50
24.9010623704
 51
155.0989376296
  0
ARC
  5
397
330
1F
100
AcDbEntity
  8
SLD-0_0
  6
SLD-Solid
 62
   179
370
    15
100
AcDbCircle
 10
946.5263281081
 20
819.7684138607
 30
0.0
 40
1.0
100
AcDbArc
 50
204.9010623703
 51
270.0
  0
ARC
  5
398
330
1F
100
AcDbEntity
  8
SLD-0_0
  6
SLD-Solid
 62
   179
370
    15
100
AcDbCircle
 10
960.862151933
 20
819.7684138607
 30
0.0
 40
1.000000000000015
100
AcDbArc
 50
270.0
 51
290.6791115231
  0
ARC
  5
399
330
1F
100
AcDbEntity
  8
SLD-0_0
  6
SLD-Solid
 62
   179
370
    15
100
AcDbCircle
 10
908.9094841383
 20
819.7684138607
 30
0.0
 40
3.0
100
AcDbArc
 50
180.0
 51
270.0
  0
ARC
  5
39A
330
1F
100
AcDbEntity
  8
SLD-0_0
  6
SLD-Solid
 62
   179
370
    15
100
AcDbCircle
 10
911.6094841374
 20
821.2684138402
 30
0.0
 40
5.499999999999925
100
AcDbArc
 50
234.0639104805
 51
270.0
  0
ARC
  5
39B
330
1F
100
AcDbEntity
  8
SLD-0_0
  6
SLD-Solid
 62
   179
370
    15
100
AcDbCircle
 10
911.6094841374
 20
821.2684138402
 30
0.0
 40
2.999999999999895
100
AcDbArc
 50
179.9998407043
 51
236.4426895306
  0
ARC
  5
39C
330
1F
100
AcDbEntity
  8
SLD-0_0
  6
SLD-Solid
 62
   179
370
    15
100
AcDbCircle
 10
911.6094841374
 20
287.9684138639
 30
0.0
 40
5.500000000000114
100
AcDbArc
 50
180.0
 51
270.0
  0
ARC
  5
39D
330
1F
100
AcDbEntity
  8
SLD-0_0
  6
SLD-Solid
 62
   179
370
    15
100
AcDbCircle
 10
911.6094841374
 20
287.9684138639
 30
0.0
 40
3.000000000000114
100
AcDbArc
 50
180.0
 51
270.0
  0
ARC
  5
39E
330
1F
100
AcDbEntity
  8
SLD-0_0
  6
SLD-Solid
 62
   179
370
    15
100
AcDbCircle
 10
927.1094841374
 20
812.4684138639
 30
0.0
 40
2.0
100
AcDbArc
 50
90.0
 51
180.0
  0
ARC
  5
39F
330
1F
100
AcDbEntity
  8
SLD-0_0
  6
SLD-Solid
 62
   179
370
    15
100
AcDbCircle
 10
951.1094841374
 20
812.4684138639
 30
0.0
 40
2.0
100
AcDbArc
 50
0.0
 51
90.0
  0
ARC
  5
3A0
330
1F
100
AcDbEntity
  8
SLD-0_0
  6
SLD-Solid
 62
   179
370
    15
100
AcDbCircle
 10
939.1094841374
 20
811.9684138639
 30
0.0
 40
6.614378277661548
100
AcDbArc
 50
22.2076542986
 51
157.7923457014
  0
ARC
  5
3A1
330
1F
100
AcDbEntity
  8
SLD-0_0
  6
SLD-Solid
 62
   179
370
    15
100
AcDbCircle
 10
939.1094841374
 20
814.4684138639
 30
0.0
 40
1.000000000000114
100
AcDbArc
 50
0.0
 51
180.0
  0
ARC
  5
3A2
330
1F
100
AcDbEntity
  8
SLD-0_0
  6
SLD-Solid
 62
   179
370
    15
100
AcDbCircle
 10
939.1094841374
 20
814.4684138639
 30
0.0
 40
5.000000000000236
100
AcDbArc
 50
29.9999994986
 51
150.0000004802
  0
ARC
  5
3A3
330
1F
100
AcDbEntity
  8
SLD-0_0
  6
SLD-Solid
 62
   179
370
    15
100
AcDbCircle
 10
939.1094841374
 20
814.4684138639
 30
0.0
 40
6.500000000000025
100
AcDbArc
 50
50.5310861142
 51
180.0
  0
ARC
  5
3A4
330
1F
100
AcDbEntity
  8
SLD-0_0
  6
SLD-Solid
 62
   179
370
    15
100
AcDbCircle
 10
939.1094841374
 20
814.4684138639
 30
0.0
 40
6.500000000000025
100
AcDbArc
 50
0.0
 51
24.6005530033
  0
CIRCLE
  5
3A5
330
1F
100
AcDbEntity
  8
SLD-0_0
  6
SLD-Solid
 62
   179
370
    15
100
AcDbCircle
 10
935.1094841374
 20
549.4684138639
 30
0.0
 40
1.599999999999909
  0
CIRCLE
  5
3A6
330
1F
100
AcDbEntity
  8
SLD-0_0
  6
SLD-Solid
 62
   179
370
    15
100
AcDbCircle
 10
935.1094841374
 20
317.4684138639
 30
0.0
 40
1.600000000000023
  0
CIRCLE
  5
3A7
330
1F
100
AcDbEntity
  8
SLD-0_0
  6
SLD-Solid
 62
   179
370
    15
100
AcDbCircle
 10
935.1094841374
 20
781.4684138639
 30
0.0
 40
1.599999999999909
  0
ARC
  5
3A8
330
1F
100
AcDbEntity
  8
SLD-0_0
  6
SLD-Solid
 62
   179
370
    15
100
AcDbCircle
 10
283.3593296423
 20
985.2684138595
 30
0.0
 40
2.300000000000068
100
AcDbArc
 50
197.5
 51
270.0
  0
ARC
  5
3A9
330
1F
100
AcDbEntity
  8
SLD-0_0
  6
SLD-Solid
 62
   179
370
    15
100
AcDbCircle
 10
283.3593296423
 20
985.2684138595
 30
0.0
 40
1.500000000000021
100
AcDbArc
 50
197.5
 51
270.0
  0
ARC
  5
3AA
330
1F
100
AcDbEntity
  8
SLD-0_0
  6
SLD-Solid
 62
   179
370
    15
100
AcDbCircle
 10
309.7593296423
 20
971.9684138595
 30
0.0
 40
5.0
100
AcDbArc
 50
180.0
 51
270.0
  0
ARC
  5
3AB
330
1F
100
AcDbEntity
  8
SLD-0_0
  6
SLD-Solid
 62
   179
370
    15
100
AcDbCircle
 10
814.7593296423
 20
971.9684138595
 30
0.0
 40
5.000000000000114
100
AcDbArc
 50
270.0
 51
0.0
  0
ARC
  5
3AC
330
1F
100
AcDbEntity
  8
SLD-0_0
  6
SLD-Solid
 62
   179
370
    15
100
AcDbCircle
 10
841.1596386335
 20
985.2684138595
 30
0.0
 40
1.500000000000021
100
AcDbArc
 50
270.0
 51
342.5
  0
ARC
  5
3AD
330
1F
100
AcDbEntity
  8
SLD-0_0
  6
SLD-Solid
 62
   179
370
    15
100
AcDbCircle
 10
841.1596386335
 20
985.2684138595
 30
0.0
 40
2.300000000000177
100
AcDbArc
 50
270.0
 51
342.5
  0
ARC
  5
3AE
330
1F
100
AcDbEntity
  8
SLD-0_0
  6
SLD-Solid
 62
   179
370
    15
100
AcDbCircle
 10
303.2594841379
 20
979.7684138595
 30
0.0
 40
3.199999999999958
100
AcDbArc
 50
62.0436814777
 51
90.0
  0
ARC
  5
3AF
330
1F
100
AcDbEntity
  8
SLD-0_0
  6
SLD-Solid
 62
   179
370
    15
100
AcDbCircle
 10
821.2594841379
 20
979.7684138595
 30
0.0
 40
3.199999999999932
100
AcDbArc
 50
90.0
 51
117.9500553353
  0
ARC
  5
3B0
330
1F
100
AcDbEntity
  8
SLD-0_0
  6
SLD-Solid
 62
   179
370
    15
100
AcDbCircle
 10
814.7596386335
 20
971.9684138595
 30
0.0
 40
5.000000000000114
100
AcDbArc
 50
270.0
 51
0.0
  0
ARC
  5
3B1
330
1F
100
AcDbEntity
  8
SLD-0_0
  6
SLD-Solid
 62
   179
370
    15
100
AcDbCircle
 10
903.8044640974
 20
355.9688601941
 30
0.0
 40
2.700000000000024
100
AcDbArc
 50
0.0205418865
 51
38.7726437169
  0
ARC
  5
3B2
330
1F
100
AcDbEntity
  8
SLD-0_0
  6
SLD-Solid
 62
   179
370
    15
100
AcDbCircle
 10
907.1094841374
 20
945.856088391
 30
0.0
 40
1.000000000000114
100
AcDbArc
 50
90.0
 51
180.0
  0
ARC
  5
3B3
330
1F
100
AcDbEntity
  8
SLD-0_0
  6
SLD-Solid
 62
   179
370
    15
100
AcDbCircle
 10
907.1094841374
 20
827.1684138639
 30
0.0
 40
1.000000000000114
100
AcDbArc
 50
179.9997775542
 51
270.0
  0
ARC
  5
3B4
330
1F
100
AcDbEntity
  8
SLD-0_0
  6
SLD-Solid
 62
   179
370
    15
100
AcDbCircle
 10
924.3486449533
 20
945.606088391
 30
0.0
 40
1.249999999999815
100
AcDbArc
 50
18.0
 51
90.0
  0
ARC
  5
3B5
330
1F
100
AcDbEntity
  8
SLD-0_0
  6
SLD-Solid
 62
   179
370
    15
100
AcDbCircle
 10
924.3486449533
 20
945.606088391
 30
0.0
 40
2.049999999999955
100
AcDbArc
 50
18.0
 51
90.0
  0
ARC
  5
3B6
330
1F
100
AcDbEntity
  8
SLD-0_0
  6
SLD-Solid
 62
   179
370
    15
100
AcDbCircle
 10
960.1329929282
 20
874.467808869
 30
0.0
 40
10.80000103959587
100
AcDbArc
 50
198.0
 51
249.9999848007
  0
ARC
  5
3B7
330
1F
100
AcDbEntity
  8
SLD-0_0
  6
SLD-Solid
 62
   179
370
    15
100
AcDbCircle
 10
960.1329929282
 20
874.467808869
 30
0.0
 40
10.00000000000003
100
AcDbArc
 50
198.0
 51
250.0
  0
ARC
  5
3B8
330
1F
100
AcDbEntity
  8
SLD-0_0
  6
SLD-Solid
 62
   179
370
    15
100
AcDbCircle
 10
966.7535534382
 20
827.4184138639
 30
0.0
 40
1.250000000000161
100
AcDbArc
 50
270.0
 51
320.0
  0
ARC
  5
3B9
330
1F
100
AcDbEntity
  8
SLD-0_0
  6
SLD-Solid
 62
   179
370
    15
100
AcDbCircle
 10
966.7535534382
 20
827.4184138639
 30
0.0
 40
2.050000000000213
100
AcDbArc
 50
269.9998338811
 51
320.0
  0
ARC
  5
3BA
330
1F
100
AcDbEntity
  8
SLD-0_0
  6
SLD-Solid
 62
   179
370
    15
100
AcDbCircle
 10
972.4693667074
 20
847.842838347
 30
0.0
 40
10.00000124236994
100
AcDbArc
 50
320.0
 51
69.9999995962
  0
ARC
  5
3BB
330
1F
100
AcDbEntity
  8
SLD-0_0
  6
SLD-Solid
 62
   179
370
    15
100
AcDbCircle
 10
972.4693667074
 20
847.842838347
 30
0.0
 40
10.80000000000006
100
AcDbArc
 50
320.0
 51
70.0
  0
ARC
  5
3BC
330
1F
100
AcDbEntity
  8
SLD-0_0
  6
SLD-Solid
 62
   179
370
    15
100
AcDbCircle
 10
927.0907636695
 20
947.8457390869
 30
0.0
 40
1.250000000000155
100
AcDbArc
 50
114.0
 51
142.1575672972
  0
ARC
  5
3BD
330
1F
100
AcDbEntity
  8
SLD-0_0
  6
SLD-Solid
 62
   179
370
    15
100
AcDbCircle
 10
927.0907636695
 20
947.8457390869
 30
0.0
 40
1.250000000000076
100
AcDbArc
 50
174.3679370282
 51
198.0
  0
ARC
  5
3BE
330
1F
100
AcDbEntity
  8
SLD-0_0
  6
SLD-Solid
 62
   179
370
    15
100
AcDbCircle
 10
927.0907636695
 20
947.8457390869
 30
0.0
 40
2.049999999999961
100
AcDbArc
 50
176.5692934269
 51
188.95700712
  0
ARC
  5
3BF
330
1F
100
AcDbEntity
  8
SLD-0_0
  6
SLD-Solid
 62
   179
370
    15
100
AcDbCircle
 10
199.5094841374
 20
966.7684138605
 30
0.0
 40
1.0
100
AcDbArc
 50
180.0
 51
270.0
  0
ARC
  5
3C0
330
1F
100
AcDbEntity
  8
SLD-0_0
  6
SLD-Solid
 62
   179
370
    15
100
AcDbCircle
 10
300.9094841374
 20
966.7684138605
 30
0.0
 40
1.0
100
AcDbArc
 50
270.0
 51
0.0
  0
ARC
  5
3C1
330
1F
100
AcDbEntity
  8
SLD-0_0
  6
SLD-Solid
 62
   179
370
    15
100
AcDbCircle
 10
199.7594841374
 20
1050.9478690203
 30
0.0
 40
2.050000000000105
100
AcDbArc
 50
75.0
 51
180.0
  0
ARC
  5
3C2
330
1F
100
AcDbEntity
  8
SLD-0_0
  6
SLD-Solid
 62
   179
370
    15
100
AcDbCircle
 10
199.7594841374
 20
1050.9478690203
 30
0.0
 40
1.250000000000031
100
AcDbArc
 50
75.0
 51
180.0
  0
ARC
  5
3C3
330
1F
100
AcDbEntity
  8
SLD-0_0
  6
SLD-Solid
 62
   179
370
    15
100
AcDbCircle
 10
226.9094841374
 20
1019.085239161
 30
0.0
 40
25.80000000000004
100
AcDbArc
 50
0.0
 51
75.0
  0
ARC
  5
3C4
330
1F
100
AcDbEntity
  8
SLD-0_0
  6
SLD-Solid
 62
   179
370
    15
100
AcDbCircle
 10
226.9094841374
 20
1019.085239161
 30
0.0
 40
25.0
100
AcDbArc
 50
0.0
 51
74.9999848922
  0
ARC
  5
3C5
330
1F
100
AcDbEntity
  8
SLD-0_0
  6
SLD-Solid
 62
   179
370
    15
100
AcDbCircle
 10
253.9594841374
 20
1004.2184138605
 30
0.0
 40
2.050000000000068
100
AcDbArc
 50
180.0
 51
270.0
  0
ARC
  5
3C6
330
1F
100
AcDbEntity
  8
SLD-0_0
  6
SLD-Solid
 62
   179
370
    15
100
AcDbCircle
 10
253.9594841374
 20
1004.2184138605
 30
0.0
 40
1.250000453401957
100
AcDbArc
 50
180.0
 51
269.9999029043
  0
ARC
  5
3C7
330
1F
100
AcDbEntity
  8
SLD-0_0
  6
SLD-Solid
 62
   179
370
    15
100
AcDbCircle
 10
278.4594841374
 20
984.2184138605
 30
0.0
 40
2.050000000000068
100
AcDbArc
 50
180.0
 51
270.0
  0
ARC
  5
3C8
330
1F
100
AcDbEntity
  8
SLD-0_0
  6
SLD-Solid
 62
   179
370
    15
100
AcDbCircle
 10
278.4594841374
 20
984.2184138605
 30
0.0
 40
1.25
100
AcDbArc
 50
180.0
 51
270.0
  0
ARC
  5
3C9
330
1F
100
AcDbEntity
  8
SLD-0_0
  6
SLD-Solid
 62
   179
370
    15
100
AcDbCircle
 10
275.1594841374
 20
1000.9184138605
 30
0.0
 40
2.050000000000125
100
AcDbArc
 50
0.0
 51
90.0000245533
  0
ARC
  5
3CA
330
1F
100
AcDbEntity
  8
SLD-0_0
  6
SLD-Solid
 62
   179
370
    15
100
AcDbCircle
 10
275.1594841374
 20
1000.9184138605
 30
0.0
 40
1.250000000000057
100
AcDbArc
 50
0.0
 51
90.0
  0
ARC
  5
3CB
330
1F
100
AcDbEntity
  8
SLD-0_0
  6
SLD-Solid
 62
   179
370
    15
100
AcDbCircle
 10
300.6594841374
 20
980.9184138605
 30
0.0
 40
2.050000000000011
100
AcDbArc
 50
0.0
 51
90.0
  0
ARC
  5
3CC
330
1F
100
AcDbEntity
  8
SLD-0_0
  6
SLD-Solid
 62
   179
370
    15
100
AcDbCircle
 10
300.6594841374
 20
980.9184138605
 30
0.0
 40
1.250005077900649
100
AcDbArc
 50
0.0
 51
90.0000621221
  0
ARC
  5
3CD
330
1F
100
AcDbEntity
  8
SLD-0_0
  6
SLD-Solid
 62
   179
370
    15
100
AcDbCircle
 10
824.2594841383
 20
980.5184138595
 30
0.0
 40
1.240000000000009
100
AcDbArc
 50
90.0
 51
180.0
  0
ARC
  5
3CE
330
1F
100
AcDbEntity
  8
SLD-0_0
  6
SLD-Solid
 62
   179
370
    15
100
AcDbCircle
 10
846.0594841383
 20
984.2184138595
 30
0.0
 40
2.46000000000015
100
AcDbArc
 50
270.0
 51
0.0
  0
ARC
  5
3CF
330
1F
100
AcDbEntity
  8
SLD-0_0
  6
SLD-Solid
 62
   179
370
    15
100
AcDbCircle
 10
941.0762926368
 20
979.6684138595
 30
0.0
 40
22.00000000000101
100
AcDbArc
 50
293.5
 51
88.6977110648
  0
ARC
  5
3D0
330
1F
100
AcDbEntity
  8
SLD-0_0
  6
SLD-Solid
 62
   179
370
    15
100
AcDbCircle
 10
926.2286375662
 20
950.4184138595
 30
0.0
 40
0.125
100
AcDbArc
 50
0.0
 51
180.0
  0
ARC
  5
3D1
330
1F
100
AcDbEntity
  8
SLD-0_0
  6
SLD-Solid
 62
   179
370
    15
100
AcDbCircle
 10
905.7844841383
 20
967.8184138595
 30
0.0
 40
0.1250000000000767
100
AcDbArc
 50
23.5781784782
 51
156.4218215218
  0
ARC
  5
3D2
330
1F
100
AcDbEntity
  8
SLD-0_0
  6
SLD-Solid
 62
   179
370
    15
100
AcDbCircle
 10
928.5762926368
 20
967.1684138595
 30
0.0
 40
3.100000000000048
100
AcDbArc
 50
279.9421486627
 51
80.0578513373
  0
ARC
  5
3D3
330
1F
100
AcDbEntity
  8
SLD-0_0
  6
SLD-Solid
 62
   179
370
    15
100
AcDbCircle
 10
929.0683557746
 20
969.9756142208
 30
0.0
 40
0.2500000000000007
100
AcDbArc
 50
80.0578513357
 51
260.0578513374
  0
ARC
  5
3D4
330
1F
100
AcDbEntity
  8
SLD-0_0
  6
SLD-Solid
 62
   179
370
    15
100
AcDbCircle
 10
928.5762926368
 20
967.1684138595
 30
0.0
 40
2.600000000011349
100
AcDbArc
 50
279.9421486627
 51
80.0578513374
  0
ARC
  5
3D5
330
1F
100
AcDbEntity
  8
SLD-0_0
  6
SLD-Solid
 62
   179
370
    15
100
AcDbCircle
 10
929.0683557746
 20
964.3612134982
 30
0.0
 40
0.2500000000112367
100
AcDbArc
 50
99.9421486611
 51
279.9421486643
  0
ARC
  5
3D6
330
1F
100
AcDbEntity
  8
SLD-0_0
  6
SLD-Solid
 62
   179
370
    15
100
AcDbCircle
 10
928.084229499
 20
969.9756142208
 30
0.0
 40
0.2500000000000793
100
AcDbArc
 50
279.9421486627
 51
99.9421486626
  0
ARC
  5
3D7
330
1F
100
AcDbEntity
  8
SLD-0_0
  6
SLD-Solid
 62
   179
370
    15
100
AcDbCircle
 10
928.5762926368
 20
967.1684138595
 30
0.0
 40
3.100000000011331
100
AcDbArc
 50
99.9421486626
 51
260.0578513373
  0
ARC
  5
3D8
330
1F
100
AcDbEntity
  8
SLD-0_0
  6
SLD-Solid
 62
   179
370
    15
100
AcDbCircle
 10
928.084229499
 20
964.3612134982
 30
0.0
 40
0.2500000000000793
100
AcDbArc
 50
260.0578513357
 51
80.0578513373
  0
ARC
  5
3D9
330
1F
100
AcDbEntity
  8
SLD-0_0
  6
SLD-Solid
 62
   179
370
    15
100
AcDbCircle
 10
928.5762926368
 20
967.1684138595
 30
0.0
 40
2.600000000011251
100
AcDbArc
 50
99.9421486625
 51
260.0578513375
  0
ARC
  5
3DA
330
1F
100
AcDbEntity
  8
SLD-0_0
  6
SLD-Solid
 62
   179
370
    15
100
AcDbCircle
 10
824.2594841383
 20
980.5184138595
 30
0.0
 40
2.450000000000045
100
AcDbArc
 50
90.0
 51
180.0
  0
ARC
  5
3DB
330
1F
100
AcDbEntity
  8
SLD-0_0
  6
SLD-Solid
 62
   179
370
    15
100
AcDbCircle
 10
824.2594841383
 20
980.5184138595
 30
0.0
 40
1.250000000000114
100
AcDbArc
 50
90.0
 51
180.0
  0
ARC
  5
3DC
330
1F
100
AcDbEntity
  8
SLD-0_0
  6
SLD-Solid
 62
   179
370
    15
100
AcDbCircle
 10
846.0594841383
 20
984.2184138595
 30
0.0
 40
2.450001692211957
100
AcDbArc
 50
269.9998199698
 51
0.0
  0
ARC
  5
3DD
330
1F
100
AcDbEntity
  8
SLD-0_0
  6
SLD-Solid
 62
   179
370
    15
100
AcDbCircle
 10
846.0594841383
 20
984.2184138595
 30
0.0
 40
1.250000000000114
100
AcDbArc
 50
270.0
 51
0.0
  0
ARC
  5
3DE
330
1F
100
AcDbEntity
  8
SLD-0_0
  6
SLD-Solid
 62
   179
370
    15
100
AcDbCircle
 10
941.0762926368
 20
979.6684138595
 30
0.0
 40
23.30000000000016
100
AcDbArc
 50
293.5
 51
88.7703824493
  0
ARC
  5
3DF
330
1F
100
AcDbEntity
  8
SLD-0_0
  6
SLD-Solid
 62
   179
370
    15
100
AcDbCircle
 10
941.0762926368
 20
979.6684138595
 30
0.0
 40
22.10000000000021
100
AcDbArc
 50
293.5
 51
88.703604783
  0
ARC
  5
3E0
330
1F
100
AcDbEntity
  8
SLD-0_0
  6
SLD-Solid
 62
   179
370
    15
100
AcDbCircle
 10
849.7594841383
 20
1000.5184138595
 30
0.0
 40
1.250000000000227
100
AcDbArc
 50
90.0
 51
180.0
  0
ARC
  5
3E1
330
1F
100
AcDbEntity
  8
SLD-0_0
  6
SLD-Solid
 62
   179
370
    15
100
AcDbCircle
 10
849.7594841383
 20
1000.5184138595
 30
0.0
 40
2.450000000000045
100
AcDbArc
 50
90.0
 51
180.0
  0
ARC
  5
3E2
330
1F
100
AcDbEntity
  8
SLD-0_0
  6
SLD-Solid
 62
   179
370
    15
100
AcDbCircle
 10
941.0762926368
 20
979.6684138595
 30
0.0
 40
23.30000000000013
100
AcDbArc
 50
88.7703824493
 51
90.0000218336
  0
ARC
  5
3E3
330
1F
100
AcDbEntity
  8
SLD-0_0
  6
SLD-Solid
 62
   179
370
    15
100
AcDbCircle
 10
941.0762926368
 20
979.6684138595
 30
0.0
 40
22.10000000000025
100
AcDbArc
 50
88.703604783
 51
90.0
  0
ARC
  5
3E4
330
1F
100
AcDbEntity
  8
SLD-0_0
  6
SLD-Solid
 62
   179
370
    15
100
AcDbCircle
 10
285.8833642952
 20
1003.2684138595
 30
0.0
 40
3.000000000000114
100
AcDbArc
 50
90.0
 51
175.0
  0
ARC
  5
3E5
330
1F
100
AcDbEntity
  8
SLD-0_0
  6
SLD-Solid
 62
   179
370
    15
100
AcDbCircle
 10
838.6356039806
 20
1003.2684138595
 30
0.0
 40
3.000000000000114
100
AcDbArc
 50
5.0
 51
90.0
  0
ARC
  5
3E6
330
1F
100
AcDbEntity
  8
SLD-0_0
  6
SLD-Solid
 62
   179
370
    15
100
AcDbCircle
 10
285.3336317934
 20
995.2684138595
 30
0.0
 40
1.0
100
AcDbArc
 50
18.5
 51
90.0
  0
ARC
  5
3E7
330
1F
100
AcDbEntity
  8
SLD-0_0
  6
SLD-Solid
 62
   179
370
    15
100
AcDbCircle
 10
839.1853364823
 20
995.2684138595
 30
0.0
 40
1.0
100
AcDbArc
 50
90.0
 51
161.5
  0
ARC
  5
3E8
330
1F
100
AcDbEntity
  8
SLD-0_0
  6
SLD-Solid
 62
   179
370
    15
100
AcDbCircle
 10
574.0758153119
 20
995.2684138595
 30
0.0
 40
1.0
100
AcDbArc
 50
90.0
 51
175.0
  0
ARC
  5
3E9
330
1F
100
AcDbEntity
  8
SLD-0_0
  6
SLD-Solid
 62
   179
370
    15
100
AcDbCircle
 10
550.4431529638
 20
995.2684138595
 30
0.0
 40
1.000000000000114
100
AcDbArc
 50
5.0
 51
90.0
  0
ARC
  5
3EA
330
1F
100
AcDbEntity
  8
SLD-0_0
  6
SLD-Solid
 62
   179
370
    15
100
AcDbCircle
 10
290.9558672644
 20
984.7684138595
 30
0.0
 40
1.000000000000016
100
AcDbArc
 50
198.5
 51
270.0
  0
ARC
  5
3EB
330
1F
100
AcDbEntity
  8
SLD-0_0
  6
SLD-Solid
 62
   179
370
    15
100
AcDbCircle
 10
292.2936464836
 20
984.7684138595
 30
0.0
 40
1.00000000000001
100
AcDbArc
 50
270.0
 51
355.0
  0
ARC
  5
3EC
330
1F
100
AcDbEntity
  8
SLD-0_0
  6
SLD-Solid
 62
   179
370
    15
100
AcDbCircle
 10
832.2253217921
 20
984.7684138595
 30
0.0
 40
1.000000000000114
100
AcDbArc
 50
185.0
 51
270.0
  0
ARC
  5
3ED
330
1F
100
AcDbEntity
  8
SLD-0_0
  6
SLD-Solid
 62
   179
370
    15
100
AcDbCircle
 10
833.5631010113
 20
984.7684138595
 30
0.0
 40
0.9999999999998863
100
AcDbArc
 50
270.0
 51
341.5
  0
ARC
  5
3EE
330
1F
100
AcDbEntity
  8
SLD-0_0
  6
SLD-Solid
 62
   179
370
    15
100
AcDbCircle
 10
553.2381906107
 20
986.2684138595
 30
0.0
 40
1.0
100
AcDbArc
 50
185.0
 51
270.0
  0
ARC
  5
3EF
330
1F
100
AcDbEntity
  8
SLD-0_0
  6
SLD-Solid
 62
   179
370
    15
100
AcDbCircle
 10
571.2807776651
 20
986.2684138595
 30
0.0
 40
1.000000000000114
100
AcDbArc
 50
270.0
 51
355.0
  0
ARC
  5
3F0
330
1F
100
AcDbEntity
  8
SLD-0_0
  6
SLD-Solid
 62
   179
370
    15
100
AcDbCircle
 10
421.5445523867
 20
1026.7684138595
 30
0.0
 40
2.000000000000227
100
AcDbArc
 50
90.0
 51
173.5
  0
ARC
  5
3F1
330
1F
100
AcDbEntity
  8
SLD-0_0
  6
SLD-Solid
 62
   179
370
    15
100
AcDbCircle
 10
702.9744158891
 20
1026.7684138595
 30
0.0
 40
2.000000000000227
100
AcDbArc
 50
6.5
 51
90.0
  0
ARC
  5
3F2
330
1F
100
AcDbEntity
  8
SLD-0_0
  6
SLD-Solid
 62
   179
370
    15
100
AcDbCircle
 10
422.9744158891
 20
1026.7684138595
 30
0.0
 40
2.000000000000227
100
AcDbArc
 50
6.5
 51
90.0
  0
ARC
  5
3F3
330
1F
100
AcDbEntity
  8
SLD-0_0
  6
SLD-Solid
 62
   179
370
    15
100
AcDbCircle
 10
701.5445523867
 20
1026.7684138595
 30
0.0
 40
2.000000000000227
100
AcDbArc
 50
90.0
 51
173.5
  0
ARC
  5
3F4
330
1F
100
AcDbEntity
  8
SLD-0_0
  6
SLD-Solid
 62
   179
370
    15
100
AcDbCircle
 10
371.5445523867
 20
1026.7684138595
 30
0.0
 40
2.000000000000227
100
AcDbArc
 50
90.0
 51
173.5
  0
ARC
  5
3F5
330
1F
100
AcDbEntity
  8
SLD-0_0
  6
SLD-Solid
 62
   179
370
    15
100
AcDbCircle
 10
372.9744158891
 20
1026.7684138595
 30
0.0
 40
2.000000000000227
100
AcDbArc
 50
6.5
 51
90.0
  0
ARC
  5
3F6
330
1F
100
AcDbEntity
  8
SLD-0_0
  6
SLD-Solid
 62
   179
370
    15
100
AcDbCircle
 10
471.5445523867
 20
1026.7684138595
 30
0.0
 40
2.000000000000227
100
AcDbArc
 50
90.0
 51
173.5
  0
ARC
  5
3F7
330
1F
100
AcDbEntity
  8
SLD-0_0
  6
SLD-Solid
 62
   179
370
    15
100
AcDbCircle
 10
472.9744158891
 20
1026.7684138595
 30
0.0
 40
2.000000000000227
100
AcDbArc
 50
6.5
 51
90.0
  0
ARC
  5
3F8
330
1F
100
AcDbEntity
  8
SLD-0_0
  6
SLD-Solid
 62
   179
370
    15
100
AcDbCircle
 10
652.9744158891
 20
1026.7684138595
 30
0.0
 40
2.000000000000227
100
AcDbArc
 50
6.5
 51
90.0
  0
ARC
  5
3F9
330
1F
100
AcDbEntity
  8
SLD-0_0
  6
SLD-Solid
 62
   179
370
    15
100
AcDbCircle
 10
651.5445523867
 20
1026.7684138595
 30
0.0
 40
2.000000000000227
100
AcDbArc
 50
90.0
 51
173.5
  0
ARC
  5
3FA
330
1F
100
AcDbEntity
  8
SLD-0_0
  6
SLD-Solid
 62
   179
370
    15
100
AcDbCircle
 10
752.9744158891
 20
1026.7684138595
 30
0.0
 40
2.000000000000227
100
AcDbArc
 50
6.5
 51
90.0
  0
ARC
  5
3FB
330
1F
100
AcDbEntity
  8
SLD-0_0
  6
SLD-Solid
 62
   179
370
    15
100
AcDbCircle
 10
751.5445523867
 20
1026.7684138595
 30
0.0
 40
2.000000000000227
100
AcDbArc
 50
90.0
 51
173.5
  0
ARC
  5
3FC
330
1F
100
AcDbEntity
  8
SLD-0_0
  6
SLD-Solid
 62
   179
370
    15
100
AcDbCircle
 10
289.0101186924
 20
1011.2684138595
 30
0.0
 40
5.000000000000114
100
AcDbArc
 50
270.0
 51
336.0375110254
  0
ARC
  5
3FD
330
1F
100
AcDbEntity
  8
SLD-0_0
  6
SLD-Solid
 62
   179
370
    15
100
AcDbCircle
 10
835.5088495833
 20
1011.2684138595
 30
0.0
 40
5.000000000000154
100
AcDbArc
 50
203.9624889746
 51
270.0
  0
ARC
  5
3FE
330
1F
100
AcDbEntity
  8
SLD-0_0
  6
SLD-Solid
 62
   179
370
    15
100
AcDbCircle
 10
554.5088495833
 20
1011.2684138595
 30
0.0
 40
5.000000000000154
100
AcDbArc
 50
203.9624889746
 51
270.0
  0
ARC
  5
3FF
330
1F
100
AcDbEntity
  8
SLD-0_0
  6
SLD-Solid
 62
   179
370
    15
100
AcDbCircle
 10
570.0101186924
 20
1011.2684138595
 30
0.0
 40
5.000000000000154
100
AcDbArc
 50
270.0
 51
336.0375110254
  0
ARC
  5
400
330
1F
100
AcDbEntity
  8
SLD-0_0
  6
SLD-Solid
 62
   179
370
    15
100
AcDbCircle
 10
303.559230316
 20
1026.7684138595
 30
0.0
 40
2.000000000000227
100
AcDbArc
 50
90.0
 51
156.0375110254
  0
ARC
  5
401
330
1F
100
AcDbEntity
  8
SLD-0_0
  6
SLD-Solid
 62
   179
370
    15
100
AcDbCircle
 10
820.9597379597
 20
1026.7684138595
 30
0.0
 40
2.000000000000227
100
AcDbArc
 50
23.9624889746
 51
90.0
  0
ARC
  5
402
330
1F
100
AcDbEntity
  8
SLD-0_0
  6
SLD-Solid
 62
   179
370
    15
100
AcDbCircle
 10
540.2196871953
 20
1027.1684138595
 30
0.0
 40
1.600000000000136
100
AcDbArc
 50
23.9624889746
 51
90.0
  0
ARC
  5
403
330
1F
100
AcDbEntity
  8
SLD-0_0
  6
SLD-Solid
 62
   179
370
    15
100
AcDbCircle
 10
584.2992810804
 20
1027.1684138595
 30
0.0
 40
1.600000000000136
100
AcDbArc
 50
90.0
 51
156.0375110254
  0
ARC
  5
404
330
1F
100
AcDbEntity
  8
SLD-0_0
  6
SLD-Solid
 62
   179
370
    15
100
AcDbCircle
 10
387.0094023404
 20
883.8520016738
 30
0.0
 40
135.0000000000003
100
AcDbArc
 50
93.487847246
 51
94.7028122098
  0
ARC
  5
405
330
1F
100
AcDbEntity
  8
SLD-0_0
  6
SLD-Solid
 62
   179
370
    15
100
AcDbCircle
 10
387.0094023404
 20
883.8520016738
 30
0.0
 40
135.0000000000003
100
AcDbArc
 50
97.9001814258
 51
112.6591189244
  0
ARC
  5
406
330
1F
100
AcDbEntity
  8
SLD-0_0
  6
SLD-Solid
 62
   179
370
    15
100
AcDbCircle
 10
737.5095659353
 20
883.8520016738
 30
0.0
 40
135.0000000000003
100
AcDbArc
 50
85.2977570097
 51
86.512152754
  0
ARC
  5
407
330
1F
100
AcDbEntity
  8
SLD-0_0
  6
SLD-Solid
 62
   179
370
    15
100
AcDbCircle
 10
737.5095659353
 20
883.8520016738
 30
0.0
 40
135.0000000000002
100
AcDbArc
 50
67.3408810756
 51
82.0998185742
  0
ARC
  5
408
330
1F
100
AcDbEntity
  8
SLD-0_0
  6
SLD-Solid
 62
   179
370
    15
100
AcDbCircle
 10
457.5095659353
 20
883.8520016738
 30
0.0
 40
135.0000000000001
100
AcDbArc
 50
67.3515265346
 51
82.0946525468
  0
ARC
  5
409
330
1F
100
AcDbEntity
  8
SLD-0_0
  6
SLD-Solid
 62
   179
370
    15
100
AcDbCircle
 10
457.5095659353
 20
883.8520016738
 30
0.0
 40
135.0000000000001
100
AcDbArc
 50
85.2971832839
 51
86.512152754
  0
ARC
  5
40A
330
1F
100
AcDbEntity
  8
SLD-0_0
  6
SLD-Solid
 62
   179
370
    15
100
AcDbCircle
 10
667.0094023404
 20
883.8520016738
 30
0.0
 40
135.0000000000003
100
AcDbArc
 50
97.9053474532
 51
112.6484734654
  0
ARC
  5
40B
330
1F
100
AcDbEntity
  8
SLD-0_0
  6
SLD-Solid
 62
   179
370
    15
100
AcDbCircle
 10
667.0094023404
 20
883.8520016738
 30
0.0
 40
135.0000000000003
100
AcDbArc
 50
93.487847246
 51
94.7028167161
  0
ARC
  5
40C
330
1F
100
AcDbEntity
  8
SLD-0_0
  6
SLD-Solid
 62
   179
370
    15
100
AcDbCircle
 10
379.5519351546
 20
1026.7684138595
 30
0.0
 40
2.000000000000227
100
AcDbArc
 50
5.0
 51
90.0
  0
ARC
  5
40D
330
1F
100
AcDbEntity
  8
SLD-0_0
  6
SLD-Solid
 62
   179
370
    15
100
AcDbCircle
 10
464.9670331211
 20
1026.7684138595
 30
0.0
 40
2.000000000000227
100
AcDbArc
 50
90.0
 51
175.0
  0
ARC
  5
40E
330
1F
100
AcDbEntity
  8
SLD-0_0
  6
SLD-Solid
 62
   179
370
    15
100
AcDbCircle
 10
659.5519351546
 20
1026.7684138595
 30
0.0
 40
2.000000000000227
100
AcDbArc
 50
5.0
 51
90.0
  0
ARC
  5
40F
330
1F
100
AcDbEntity
  8
SLD-0_0
  6
SLD-Solid
 62
   179
370
    15
100
AcDbCircle
 10
744.9670331212
 20
1026.7684138595
 30
0.0
 40
2.000000000000227
100
AcDbArc
 50
90.0
 51
175.0
  0
SPLINE
  5
410
330
1F
100
AcDbEntity
  8
SLD-0_0
  6
SLD-Solid
 62
   179
370
    15
100
AcDbSpline
210
0.0
220
0.0
230
1.0
 70
     8
 71
     3
 72
    13
 73
     9
 74
     0
 42
0.00000001
 43
0.00000001
 40
0.0
 40
0.0
 40
0.0
 40
0.0
 40
0.1536936775306019
 40
0.4677862868712672
 40
0.6522726986141293
 40
0.8142350134332667
 40
0.9818147103213251
 40
1.0
 40
1.0
 40
1.0
 40
1.0
 10
186.9070878674385
 20
330.0304670130205
 30
0.0
 10
186.9074543830554
 20
330.0233885692343
 30
0.0
 10
186.9085699200268
 20
330.001844423835
 30
0.0
 10
186.8862984770186
 20
329.9612565377577
 30
0.0
 10
186.8241551707539
 20
329.9131579301525
 30
0.0
 10
186.75269577988
 20
329.8855361076048
 30
0.0
 10
186.6939839185725
 20
329.8743700668338
 30
0.0
 10
186.6628372684579
 20
329.8762497043978
 30
0.0
 10
186.6597881962655
 20
329.8764337097597
 30
0.0
  0
SPLINE
  5
411
330
1F
100
AcDbEntity
  8
SLD-0_0
  6
SLD-Solid
 62
   179
370
    15
100
AcDbSpline
210
0.0
220
0.0
230
1.0
 70
     8
 71
     3
 72
    13
 73
     9
 74
     0
 42
0.00000001
 43
0.00000001
 40
0.0
 40
0.0
 40
0.0
 40
0.0
 40
0.1560177924371059
 40
0.408680959511181
 40
0.5953441536185295
 40
0.7560981208636103
 40
0.9248963985761307
 40
1.0
 40
1.0
 40
1.0
 40
1.0
 10
186.9105449368355
 20
337.9244605322671
 30
0.0
 10
186.9102865293199
 20
337.9266786663847
 30
0.0
 10
186.9096096434994
 20
337.932488959976
 30
0.0
 10
186.9199469920634
 20
337.9555393019899
 30
0.0
 10
186.9656966576742
 20
337.9952941189498
 30
0.0
 10
187.0334516006806
 20
338.0258352973634
 30
0.0
 10
187.1023069966614
 20
338.0424311507153
 30
0.0
 10
187.1460225907623
 20
338.041284741919
 30
0.0
 10
187.1594837357399
 20
338.0409317334485
 30
0.0
  0
SPLINE
  5
412
330
1F
100
AcDbEntity
  8
SLD-0_0
  6
SLD-Solid
 62
   179
370
    15
100
AcDbSpline
210
0.0
220
0.0
230
1.0
 70
     8
 71
     3
 72
    11
 73
     7
 74
     0
 42
0.00000001
 43
0.00000001
 40
0.0
 40
0.0
 40
0.0
 40
0.0
 40
0.4803500898297909
 40
0.831513279927538
 40
0.9982614941609765
 40
1.0
 40
1.0
 40
1.0
 40
1.0
 10
965.1107242752907
 20
746.8716927116108
 30
0.0
 10
973.0131795127477
 20
746.8615093981183
 30
0.0
 10
986.6927782327292
 20
746.843881504251
 30
0.0
 10
1003.140265344372
 20
746.9336933569379
 30
0.0
 10
1011.660460875358
 20
746.8006599166656
 30
0.0
 10
1014.430348914384
 20
746.7099969312363
 30
0.0
 10
1014.458929603278
 20
746.7090614383411
 30
0.0
  0
SPLINE
  5
413
330
1F
100
AcDbEntity
  8
SLD-0_0
  6
SLD-Solid
 62
   179
370
    15
100
AcDbSpline
210
0.0
220
0.0
230
1.0
 70
     8
 71
     3
 72
    12
 73
     8
 74
     0
 42
0.00000001
 43
0.00000001
 40
0.0
 40
0.0
 40
0.0
 40
0.0
 40
0.00260763392857
 40
0.1688097927874593
 40
0.3396992395204355
 40
0.66013894271183
 40
1.0
 40
1.0
 40
1.0
 40
1.0
 10
1014.245097940147
 20
776.2199171130848
 30
0.0
 10
1014.20243046213
 20
776.2184424048153
 30
0.0
 10
1011.440275834576
 20
776.1229745576319
 30
0.0
 10
1005.89424574372
 20
776.0437099042078
 30
0.0
 10
995.1138351252517
 20
776.0760502919725
 30
0.0
 10
981.4978762584334
 20
776.0611608618266
 30
0.0
 10
970.6782926104178
 20
776.0637968782713
 30
0.0
 10
965.1093831707833
 20
776.0651536529255
 30
0.0
  0
SPLINE
  5
414
330
1F
100
AcDbEntity
  8
SLD-0_0
  6
SLD-Solid
 62
   179
370
    15
100
AcDbSpline
210
0.0
220
0.0
230
1.0
 70
     8
 71
     3
 72
    11
 73
     7
 74
     0
 42
0.00000001
 43
0.00000001
 40
0.0
 40
0.0
 40
0.0
 40
0.0
 40
0.2464082275598724
 40
0.496920809255841
 40
0.7482776820929585
 40
1.0
 40
1.0
 40
1.0
 40
1.0
 10
1014.161651437461
 20
746.7258401458454
 30
0.0
 10
1014.938980455143
 20
746.759011666553
 30
0.0
 10
1016.506586246352
 20
746.8259072368738
 30
0.0
 10
1018.694020128354
 20
747.9510480273746
 30
0.0
 10
1020.494451002111
 20
749.7340690543216
 30
0.0
 10
1021.019450885575
 20
751.3310587801542
 30
0.0
 10
1021.282141511619
 20
752.1301336829853
 30
0.0
  0
SPLINE
  5
415
330
1F
100
AcDbEntity
  8
SLD-0_0
  6
SLD-Solid
 62
   179
370
    15
100
AcDbSpline
210
0.0
220
0.0
230
1.0
 70
     8
 71
     3
 72
    11
 73
     7
 74
     0
 42
0.00000001
 43
0.00000001
 40
0.0
 40
0.0
 40
0.0
 40
0.0
 40
0.2517223161540333
 40
0.5030816551361514
 40
0.7535907579931155
 40
1.0
 40
1.0
 40
1.0
 40
1.0
 10
1021.282111709296
 20
770.8066828792286
 30
0.0
 10
1021.019418797183
 20
771.6057556377767
 30
0.0
 10
1020.494411769448
 20
773.2027489122961
 30
0.0
 10
1018.694012522395
 20
774.9857966323005
 30
0.0
 10
1016.50656857749
 20
776.1109066110931
 30
0.0
 10
1014.938979314496
 20
776.1778037946318
 30
0.0
 10
1014.161651437461
 20
776.2109764163685
 30
0.0
  0
SPLINE
  5
416
330
1F
100
AcDbEntity
  8
SLD-0_0
  6
SLD-Solid
 62
   179
370
    15
100
AcDbSpline
210
0.0
220
0.0
230
1.0
 70
     8
 71
     3
 72
    15
 73
    11
 74
     0
 42
0.00000001
 43
0.00000001
 40
0.0
 40
0.0
 40
0.0
 40
0.0
 40
0.0669662000892476
 40
0.1596957198382959
 40
0.2716986595528035
 40
0.4172481033822119
 40
0.5763882264833077
 40
0.7432807558757165
 40
0.9132543850153069
 40
1.0
 40
1.0
 40
1.0
 40
1.0
 10
480.423075561702
 20
1006.266874844332
 30
0.0
 10
480.4208739974855
 20
1006.266726193978
 30
0.0
 10
480.4156238805331
 20
1006.266371704321
 30
0.0
 10
480.1087878644188
 20
1006.316219311592
 30
0.0
 10
479.5253996936856
 20
1006.505487387123
 30
0.0
 10
478.76372181325
 20
1006.921274544721
 30
0.0
 10
477.9809920545018
 20
1007.611559332215
 30
0.0
 10
477.3495392523384
 20
1008.535248862309
 30
0.0
 10
476.9701740990045
 20
1009.437800884759
 30
0.0
 10
476.9254817174673
 20
1010.014498077271
 30
0.0
 10
476.9103801299927
 20
1010.209364468355
 30
0.0
  0
SPLINE
  5
417
330
1F
100
AcDbEntity
  8
SLD-0_0
  6
SLD-Solid
 62
   179
370
    15
100
AcDbSpline
210
0.0
220
0.0
230
1.0
 70
     8
 71
     3
 72
    15
 73
    11
 74
     0
 42
0.00000001
 43
0.00000001
 40
0.0
 40
0.0
 40
0.0
 40
0.0
 40
0.1406117206304858
 40
0.3206364880334444
 40
0.4810237824259322
 40
0.6253612957171691
 40
0.7542659210440906
 40
0.8626684925182168
 40
0.9533273856786953
 40
1.0
 40
1.0
 40
1.0
 40
1.0
 10
647.6157060315011
 20
1010.139567429323
 30
0.0
 10
647.5655356274207
 20
1009.82842434324
 30
0.0
 10
647.4511322043247
 20
1009.118925690138
 30
0.0
 10
646.9449207178524
 20
1008.147212240945
 30
0.0
 10
646.2500411608527
 20
1007.325699204535
 30
0.0
 10
645.5057958709099
 20
1006.766934747865
 30
0.0
 10
644.8150626943968
 20
1006.437766081859
 30
0.0
 10
644.3122259809444
 20
1006.295487830013
 30
0.0
 10
644.0818217158172
 20
1006.265079036398
 30
0.0
 10
644.092041936418
 20
1006.26606345046
 30
0.0
 10
644.0955153157113
 20
1006.266398007174
 30
0.0
  0
SPLINE
  5
418
330
1F
100
AcDbEntity
  8
SLD-0_0
  6
SLD-Solid
 62
   179
370
    15
100
AcDbSpline
210
0.0
220
0.0
230
1.0
 70
     8
 71
     3
 72
    15
 73
    11
 74
     0
 42
0.00000001
 43
0.00000001
 40
0.0
 40
0.0
 40
0.0
 40
0.0
 40
0.1129169056210733
 40
0.2961368439649937
 40
0.4591228727542171
 40
0.6055016594180762
 40
0.736248518350556
 40
0.8500103454655623
 40
0.9432515983479742
 40
1.0
 40
1.0
 40
1.0
 40
1.0
 10
467.5966849972603
 20
1010.084015900393
 30
0.0
 10
467.5615813894531
 20
1009.83543982855
 30
0.0
 10
467.469518366909
 20
1009.18352209315
 30
0.0
 10
467.0037888439405
 20
1008.251774774759
 30
0.0
 10
466.323119724746
 20
1007.404675973017
 30
0.0
 10
465.5786723742374
 20
1006.821649649356
 30
0.0
 10
464.8830209530662
 20
1006.470725886801
 30
0.0
 10
464.3375793354543
 20
1006.305942829764
 30
0.0
 10
464.0602061660118
 20
1006.265904089047
 30
0.0
 10
464.0586556365666
 20
1006.266305673017
 30
0.0
 10
464.0580689956543
 20
1006.266457611818
 30
0.0
  0
SPLINE
  5
419
330
1F
100
AcDbEntity
  8
SLD-0_0
  6
SLD-Solid
 62
   179
370
    15
100
AcDbSpline
210
0.0
220
0.0
230
1.0
 70
     8
 71
     3
 72
    16
 73
    12
 74
     0
 42
0.00000001
 43
0.00000001
 40
0.0
 40
0.0
 40
0.0
 40
0.0
 40
0.0013617369779093
 40
0.0878469326453951
 40
0.1823081016277397
 40
0.3121015462006972
 40
0.4594162060814675
 40
0.6200159630593121
 40
0.78706795777815
 40
0.9723652209907839
 40
1.0
 40
1.0
 40
1.0
 40
1.0
 10
660.478671496093
 20
1006.264669472475
 30
0.0
 10
660.4792406987297
 20
1006.264669288397
 30
0.0
 10
660.5159604959427
 20
1006.264657413348
 30
0.0
 10
660.3868134573543
 20
1006.269402230955
 30
0.0
 10
660.0082164802872
 20
1006.349216372088
 30
0.0
 10
659.3347123446125
 20
1006.595382828968
 30
0.0
 10
658.5481921080034
 20
1007.092773592458
 30
0.0
 10
657.7884891391245
 20
1007.849409513909
 30
0.0
 10
657.2015577799561
 20
1008.85489504586
 30
0.0
 10
656.8976960166499
 20
1009.697329291669
 30
0.0
 10
656.890154264435
 20
1010.176818446335
 30
0.0
 10
656.8891754795907
 20
1010.239047581453
 30
0.0
  0
SPLINE
  5
41A
330
1F
100
AcDbEntity
  8
SLD-0_0
  6
SLD-Solid
 62
   179
370
    15
100
AcDbSpline
210
0.0
220
0.0
230
1.0
 70
     8
 71
     3
 72
    15
 73
    11
 74
     0
 42
0.00000001
 43
0.00000001
 40
0.0
 40
0.0
 40
0.0
 40
0.0
 40
0.0204203357749421
 40
0.1289818071684686
 40
0.2366693662773855
 40
0.3640290692499935
 40
0.5130069878182262
 40
0.6761121474724762
 40
0.8429408404360909
 40
1.0
 40
1.0
 40
1.0
 40
1.0
 10
430.4784512569306
 20
1006.266636425753
 30
0.0
 10
430.4849011188213
 20
1006.266446354396
 30
0.0
 10
430.5256406468984
 20
1006.265245798863
 30
0.0
 10
430.2971063125493
 20
1006.282968808037
 30
0.0
 10
429.8036226682995
 20
1006.412001378875
 30
0.0
 10
429.0902326730983
 20
1006.727461309437
 30
0.0
 10
428.3009726633205
 20
1007.299769016399
 30
0.0
 10
427.5864120027858
 20
1008.135647057049
 30
0.0
 10
427.060501837388
 20
1009.144112931686
 30
0.0
 10
426.9407963115731
 20
1009.878071309143
 30
0.0
 10
426.8827489067909
 20
1010.233981186647
 30
0.0
  0
SPLINE
  5
41B
330
1F
100
AcDbEntity
  8
SLD-0_0
  6
SLD-Solid
 62
   179
370
    15
100
AcDbSpline
210
0.0
220
0.0
230
1.0
 70
     8
 71
     3
 72
    16
 73
    12
 74
     0
 42
0.00000001
 43
0.00000001
 40
0.0
 40
0.0
 40
0.0
 40
0.0
 40
0.0329342209450478
 40
0.2022252923277554
 40
0.3774392038006141
 40
0.5337444672785353
 40
0.6681390524528562
 40
0.7846305865229234
 40
0.8853745767567903
 40
0.9806328788472624
 40
1.0
 40
1.0
 40
1.0
 40
1.0
 10
697.6145109583733
 20
1010.130149895449
 30
0.0
 10
697.611571525742
 20
1010.056645425027
 30
0.0
 10
697.5935225904373
 20
1009.60530749773
 30
0.0
 10
697.2838305841458
 20
1008.782216077334
 30
0.0
 10
696.7017037681323
 20
1007.809531639371
 30
0.0
 10
695.9462775913679
 20
1007.078154320145
 30
0.0
 10
695.2123023162887
 20
1006.617149214843
 30
0.0
 10
694.5854031626861
 20
1006.373178513738
 30
0.0
 10
694.181990477223
 20
1006.279156803945
 30
0.0
 10
693.9960446502961
 20
1006.265335301444
 30
0.0
 10
694.0331033235504
 20
1006.266397373349
 30
0.0
 10
694.0393647601006
 20
1006.266576821108
 30
0.0
  0
SPLINE
  5
41C
330
1F
100
AcDbEntity
  8
SLD-0_0
  6
SLD-Solid
 62
   179
370
    15
100
AcDbSpline
210
0.0
220
0.0
230
1.0
 70
     8
 71
     3
 72
    16
 73
    12
 74
     0
 42
0.00000001
 43
0.00000001
 40
0.0
 40
0.0
 40
0.0
 40
0.0
 40
0.0187510986280025
 40
0.1864611689740024
 40
0.3603690006320122
 40
0.5161231912608656
 40
0.6559109102278593
 40
0.7730795626667062
 40
0.8725947359201489
 40
0.9652413341176873
 40
1.0
 40
1.0
 40
1.0
 40
1.0
 10
417.6261028696892
 20
1010.163051659365
 30
0.0
 10
417.6251525948172
 20
1010.120771071364
 30
0.0
 10
417.6157030491127
 20
1009.700332353612
 30
0.0
 10
417.3292261216025
 20
1008.899740211271
 30
0.0
 10
416.77184544921
 20
1007.909229195517
 30
0.0
 10
416.0232204541908
 20
1007.147690047839
 30
0.0
 10
415.2695752961721
 20
1006.653783065093
 30
0.0
 10
414.6165164263323
 20
1006.388924666949
 30
0.0
 10
414.1815978374535
 20
1006.284343181399
 30
0.0
 10
413.9865477814965
 20
1006.266382980997
 30
0.0
 10
414.0123435240976
 20
1006.267471849284
 30
0.0
 10
414.0193811108467
 20
1006.267768914003
 30
0.0
  0
SPLINE
  5
41D
330
1F
100
AcDbEntity
  8
SLD-0_0
  6
SLD-Solid
 62
   179
370
    15
100
AcDbSpline
210
0.0
220
0.0
230
1.0
 70
     8
 71
     3
 72
    15
 73
    11
 74
     0
 42
0.00000001
 43
0.00000001
 40
0.0
 40
0.0
 40
0.0
 40
0.0
 40
0.0911647666363647
 40
0.1923018688989816
 40
0.3082817328283139
 40
0.4497111132062748
 40
0.609577640987274
 40
0.7742765053784023
 40
0.9550163584913318
 40
0.9999999999999999
 40
0.9999999999999999
 40
0.9999999999999999
 40
0.9999999999999999
 10
710.5186781336663
 20
1006.26735168149
 30
0.0
 10
710.5009388905244
 20
1006.267944782519
 30
0.0
 10
710.4635199431075
 20
1006.269195862738
 30
0.0
 10
710.0628040308699
 20
1006.3405663865
 30
0.0
 10
709.4295287682019
 20
1006.56479296186
 30
0.0
 10
708.6432692945145
 20
1007.027446924033
 30
0.0
 10
707.8673125106508
 20
1007.759870509949
 30
0.0
 10
707.24947625016
 20
1008.749959436461
 30
0.0
 10
706.9188890920383
 20
1009.619580459658
 30
0.0
 10
706.9007454934068
 20
1010.135165886494
 30
0.0
 10
706.897129719436
 20
1010.237915093203
 30
0.0
  0
SPLINE
  5
41E
330
1F
100
AcDbEntity
  8
SLD-0_0
  6
SLD-Solid
 62
   179
370
    15
100
AcDbSpline
210
0.0
220
0.0
230
1.0
 70
     8
 71
     3
 72
    16
 73
    12
 74
     0
 42
0.00000001
 43
0.00000001
 40
0.0
 40
0.0
 40
0.0
 40
0.0
 40
0.0089160822086927
 40
0.0950918141162102
 40
0.1884876119733231
 40
0.3242473269511421
 40
0.4709811585687464
 40
0.6287424568614866
 40
0.7924129290376015
 40
0.973256802533614
 40
0.9999999999999999
 40
0.9999999999999999
 40
0.9999999999999999
 40
0.9999999999999999
 10
380.6100091387627
 20
1006.267292076845
 30
0.0
 10
380.613472269411
 20
1006.267262628662
 30
0.0
 10
380.6504072558952
 20
1006.266948557855
 30
0.0
 10
380.5078588373505
 20
1006.272805840651
 30
0.0
 10
380.0969921888924
 20
1006.351803278983
 30
0.0
 10
379.3743802890711
 20
1006.609716043558
 30
0.0
 10
378.55436357883
 20
1007.129551279222
 30
0.0
 10
377.7846350945546
 20
1007.899055661585
 30
0.0
 10
377.1961896445208
 20
1008.911181039951
 30
0.0
 10
376.8917491236687
 20
1009.754488200117
 30
0.0
 10
376.8835146954702
 20
1010.234964847244
 30
0.0
 10
376.8824538637993
 20
1010.296864086885
 30
0.0
  0
SPLINE
  5
41F
330
1F
100
AcDbEntity
  8
SLD-0_0
  6
SLD-Solid
 62
   179
370
    15
100
AcDbSpline
210
0.0
220
0.0
230
1.0
 70
     8
 71
     3
 72
    15
 73
    11
 74
     0
 42
0.00000001
 43
0.00000001
 40
0.0
 40
0.0
 40
0.0
 40
0.0
 40
0.0899065246944157
 40
0.2721979160128202
 40
0.4343494149034032
 40
0.5800833727145257
 40
0.7109448459885217
 40
0.8250649890962874
 40
0.9175198788570958
 40
1.0
 40
1.0
 40
1.0
 40
1.0
 10
747.5949129511712
 20
1010.108394200106
 30
0.0
 10
747.5697638731729
 20
1009.905796924224
 30
0.0
 10
747.4936233856603
 20
1009.292420348137
 30
0.0
 10
747.055479055814
 20
1008.382568857715
 30
0.0
 10
746.3797050316331
 20
1007.503966654616
 30
0.0
 10
745.6237231107576
 20
1006.890488815938
 30
0.0
 10
744.9012194219716
 20
1006.51140229472
 30
0.0
 10
744.3094100639604
 20
1006.325002473583
 30
0.0
 10
743.9522357131796
 20
1006.269331574743
 30
0.0
 10
743.9158603445752
 20
1006.267864553506
 30
0.0
 10
743.8987097193597
 20
1006.267172867556
 30
0.0
  0
SPLINE
  5
420
330
1F
100
AcDbEntity
  8
SLD-0_0
  6
SLD-Solid
 62
   179
370
    15
100
AcDbSpline
210
0.0
220
0.0
230
1.0
 70
     8
 71
     3
 72
    15
 73
    11
 74
     0
 42
0.00000001
 43
0.00000001
 40
0.0
 40
0.0
 40
0.0
 40
0.0
 40
0.197223208484035
 40
0.3744425332099703
 40
0.5335064960340381
 40
0.6761813878859922
 40
0.8012334289921302
 40
0.9096172947366858
 40
0.9983235985758645
 40
0.9999999999999999
 40
0.9999999999999999
 40
0.9999999999999999
 40
0.9999999999999999
 10
367.5028285433647
 20
1009.537739331026
 30
0.0
 10
367.3606488818675
 20
1009.149522336225
 30
0.0
 10
367.0907105057951
 20
1008.412464278575
 30
0.0
 10
366.3954337578414
 20
1007.535749271262
 30
0.0
 10
365.6464405628392
 20
1006.913850356294
 30
0.0
 10
364.923283360953
 20
1006.527629681579
 30
0.0
 10
364.3080558240442
 20
1006.331101573985
 30
0.0
 10
363.9472287389164
 20
1006.269563255496
 30
0.0
 10
363.8345835681752
 20
1006.267165960234
 30
0.0
 10
363.8631958657325
 20
1006.267172741773
 30
0.0
 10
363.863726561248
 20
1006.267172867556
 30
0.0
  0
SPLINE
  5
421
330
1F
100
AcDbEntity
  8
SLD-0_0
  6
SLD-Solid
 62
   179
370
    15
100
AcDbSpline
210
0.0
220
0.0
230
1.0
 70
     8
 71
     3
 72
    15
 73
    11
 74
     0
 42
0.00000001
 43
0.00000001
 40
0.0
 40
0.0
 40
0.0
 40
0.0
 40
0.0335868747277669
 40
0.115505459219252
 40
0.2251671691653565
 40
0.3554490797370473
 40
0.5033825806210831
 40
0.6616747063544193
 40
0.8249796303666707
 40
1.0
 40
1.0
 40
1.0
 40
1.0
 10
760.6291523625252
 20
1006.268245751162
 30
0.0
 10
760.6364672702573
 20
1006.267997100576
 30
0.0
 10
760.6616232808593
 20
1006.267141989755
 30
0.0
 10
760.4520783669841
 20
1006.284047272977
 30
0.0
 10
759.9377971502255
 20
1006.401232275606
 30
0.0
 10
759.1924478798627
 20
1006.715348695276
 30
0.0
 10
758.3809763299914
 20
1007.281520325058
 30
0.0
 10
757.6502920811025
 20
1008.10100877121
 30
0.0
 10
757.0785691294215
 20
1009.139544809368
 30
0.0
 10
756.9350251819831
 20
1009.926013911361
 30
0.0
 10
756.8607679058907
 20
1010.33286529233
 30
0.0
  0
SPLINE
  5
422
330
1F
100
AcDbEntity
  8
SLD-0_0
  6
SLD-Solid
 62
   179
370
    15
100
AcDbSpline
210
0.0
220
0.0
230
1.0
 70
     8
 71
     3
 72
     9
 73
     5
 74
     0
 42
0.00000001
 43
0.00000001
 40
0.0
 40
0.0
 40
0.0
 40
0.0
 40
0.1606367759300932
 40
1.0
 40
1.0
 40
1.0
 40
1.0
 10
292.9065725256798
 20
1006.329221302767
 30
0.0
 10
293.0506415040828
 20
1006.334428731218
 30
0.0
 10
293.9475032442959
 20
1006.366846142621
 30
0.0
 10
294.8750192022642
 20
1006.336669268059
 30
0.0
 10
295.6535419871208
 20
1006.311339909334
 30
0.0
  0
SPLINE
  5
423
330
1F
100
AcDbEntity
  8
SLD-0_0
  6
SLD-Solid
 62
   179
370
    15
100
AcDbSpline
210
0.0
220
0.0
230
1.0
 70
     8
 71
     3
 72
     9
 73
     5
 74
     0
 42
0.00000001
 43
0.00000001
 40
0.0
 40
0.0
 40
0.0
 40
0.0
 40
0.7175235264901587
 40
1.0
 40
1.0
 40
1.0
 40
1.0
 10
828.8638046433327
 20
1006.312830025454
 30
0.0
 10
829.4877638816793
 20
1006.334083487016
 30
0.0
 10
830.3573649683484
 20
1006.363704064986
 30
0.0
 10
831.1942720963981
 20
1006.335933379749
 30
0.0
 10
831.4306786705849
 20
1006.328088814516
 30
0.0
  0
SPLINE
  5
424
330
1F
100
AcDbEntity
  8
SLD-0_0
  6
SLD-Solid
 62
   179
370
    15
100
AcDbSpline
210
0.0
220
0.0
230
1.0
 70
     8
 71
     3
 72
    20
 73
    16
 74
     0
 42
0.00000001
 43
0.00000001
 40
0.0
 40
0.0
 40
0.0
 40
0.0
 40
0.0465868559531201
 40
0.1303858688136287
 40
0.2144068376550524
 40
0.2988500802503224
 40
0.3837755135053666
 40
0.4691690516399882
 40
0.5549693107993097
 40
0.6410921334007093
 40
0.7274514864082541
 40
0.8139788925359682
 40
0.9006210405591613
 40
0.9873413125729781
 40
1.0
 40
1.0
 40
1.0
 40
1.0
 10
318.6899921347496
 20
1028.768403107424
 30
0.0
 10
318.2425054656978
 20
1028.75866788573
 30
0.0
 10
316.9900934509104
 20
1028.731421244748
 30
0.0
 10
314.9242836152607
 20
1028.437856426709
 30
0.0
 10
312.5151893000235
 20
1027.800159104548
 30
0.0
 10
310.1379904592042
 20
1026.853093159396
 30
0.0
 10
307.8125242245335
 20
1025.608868630091
 30
0.0
 10
305.5591883944266
 20
1024.075683407869
 30
0.0
 10
303.3988544608957
 20
1022.26669145133
 30
0.0
 10
301.3517649425039
 20
1020.198009161205
 30
0.0
 10
299.4373924432379
 20
1017.888556323273
 30
0.0
 10
297.6719211660937
 20
1015.360891446816
 30
0.0
 10
296.0775396060076
 20
1012.634433227338
 30
0.0
 10
295.0530187299384
 20
1010.571622232079
 30
0.0
 10
294.5633146652018
 20
1009.428586606031
 30
0.0
 10
294.5009371687767
 20
1009.282989079256
 30
0.0
  0
SPLINE
  5
425
330
1F
100
AcDbEntity
  8
SLD-0_0
  6
SLD-Solid
 62
   179
370
    15
100
AcDbSpline
210
0.0
220
0.0
230
1.0
 70
     8
 71
     3
 72
    20
 73
    16
 74
     0
 42
0.00000001
 43
0.00000001
 40
0.0
 40
0.0
 40
0.0
 40
0.0
 40
0.0296689789472405
 40
0.1164968075314993
 40
0.2033419849721539
 40
0.29015672136119
 40
0.3769212275723432
 40
0.4635954265047095
 40
0.5501226743675439
 40
0.6364216126880341
 40
0.722396024576924
 40
0.807948641092306
 40
0.8930055917005055
 40
0.9775499665130967
 40
1.0
 40
1.0
 40
1.0
 40
1.0
 10
830.0135484387276
 20
1009.282393032808
 30
0.0
 10
829.8661731926311
 20
1009.622826721298
 30
0.0
 10
829.2874965313977
 20
1010.959557518665
 30
0.0
 10
828.1381035219534
 20
1013.189181643575
 30
0.0
 10
826.5056718434878
 20
1015.885580409374
 30
0.0
 10
824.7015799200399
 20
1018.379961855778
 30
0.0
 10
822.7482224785213
 20
1020.653364695821
 30
0.0
 10
820.6604072491222
 20
1022.682757367069
 30
0.0
 10
818.4572136414379
 20
1024.448530184699
 30
0.0
 10
816.1588861063573
 20
1025.933000429077
 30
0.0
 10
813.7876367985574
 20
1027.120719062665
 30
0.0
 10
811.3671964280367
 20
1028.001390604833
 30
0.0
 10
808.9226056502099
 20
1028.563345426872
 30
0.0
 10
807.0713723132799
 20
1028.754829030526
 30
0.0
 10
806.0444393708439
 20
1028.766048904519
 30
0.0
 10
805.8289638211129
 20
1028.768403107424
 30
0.0
  0
SPLINE
  5
426
330
1F
100
AcDbEntity
  8
SLD-0_0
  6
SLD-Solid
 62
   179
370
    15
100
AcDbSpline
210
0.0
220
0.0
230
1.0
 70
     8
 71
     3
 72
    20
 73
    16
 74
     0
 42
0.00000001
 43
0.00000001
 40
0.0
 40
0.0
 40
0.0
 40
0.0
 40
0.0292060458830047
 40
0.1160819386843921
 40
0.2029736459767939
 40
0.2898366702187685
 40
0.3766477280760578
 40
0.4633698321491743
 40
0.5499434631952437
 40
0.6362894079979581
 40
0.7223110816617673
 40
0.8079102769533351
 40
0.893013443815214
 40
0.9776040155446986
 40
1.0
 40
1.0
 40
1.0
 40
1.0
 10
548.9446385254262
 20
1009.301168495913
 30
0.0
 10
548.7996128598576
 20
1009.636083943803
 30
0.0
 10
548.2231958917534
 20
1010.967234166678
 30
0.0
 10
547.0761709053859
 20
1013.191329307258
 30
0.0
 10
545.4436420495707
 20
1015.887628127673
 30
0.0
 10
543.6394877630825
 20
1018.381874162865
 30
0.0
 10
541.6859499957209
 20
1020.655031973321
 30
0.0
 10
539.5980698386604
 20
1022.684245185284
 30
0.0
 10
537.394794407817
 20
1024.44979571155
 30
0.0
 10
535.0963971666115
 20
1025.9339881575
 30
0.0
 10
532.7251216988766
 20
1027.121602218727
 30
0.0
 10
530.3046186419009
 20
1028.001869832957
 30
0.0
 10
527.8600290983064
 20
1028.563765129823
 30
0.0
 10
526.0094178855426
 20
1028.754860982792
 30
0.0
 10
524.9831453342957
 20
1028.766058979605
 30
0.0
 10
524.768311013758
 20
1028.768403107424
 30
0.0
  0
SPLINE
  5
427
330
1F
100
AcDbEntity
  8
SLD-0_0
  6
SLD-Solid
 62
   179
370
    15
100
AcDbSpline
210
0.0
220
0.0
230
1.0
 70
     8
 71
     3
 72
    20
 73
    16
 74
     0
 42
0.00000001
 43
0.00000001
 40
0.0
 40
0.0
 40
0.0
 40
0.0
 40
0.0466115782147738
 40
0.1304549307368161
 40
0.214520428397862
 40
0.2990083515289484
 40
0.3839786519024418
 40
0.4694173733924373
 40
0.5552629680536711
 40
0.6414315384699363
 40
0.7278368122678031
 40
0.8144098061192779
 40
0.9010977981612341
 40
0.9878641652791171
 40
0.9999999999999999
 40
0.9999999999999999
 40
0.9999999999999999
 40
0.9999999999999999
 10
599.7506579806206
 20
1028.768403107424
 30
0.0
 10
599.3031699445063
 20
1028.7586679132
 30
0.0
 10
598.0507553515514
 20
1028.731421376249
 30
0.0
 10
595.984945888642
 20
1028.437856129097
 30
0.0
 10
593.5758478941837
 20
1027.800159428922
 30
0.0
 10
591.1986488673576
 20
1026.853093813675
 30
0.0
 10
588.8731868848421
 20
1025.608867675145
 30
0.0
 10
586.6198489536216
 20
1024.075684674381
 30
0.0
 10
584.459523489575
 20
1022.266688087651
 30
0.0
 10
582.4124096392724
 20
1020.198008705232
 30
0.0
 10
580.4980713290672
 20
1017.888560556122
 30
0.0
 10
578.7325529063307
 20
1015.360900213583
 30
0.0
 10
577.1382545613824
 20
1012.634381894858
 30
0.0
 10
576.1164434639857
 20
1010.577605195082
 30
0.0
 10
575.6292286426457
 20
1009.440728959367
 30
0.0
 10
575.569444750726
 20
1009.301228100557
 30
0.0
  0
SPLINE
  5
428
330
1F
100
AcDbEntity
  8
SLD-0_0
  6
SLD-Solid
 62
   179
370
    15
100
AcDbSpline
210
0.0
220
0.0
230
1.0
 70
     8
 71
     3
 72
     9
 73
     5
 74
     0
 42
0.00000001
 43
0.00000001
 40
0.0
 40
0.0
 40
0.0
 40
0.0
 40
0.4999892315981646
 40
1.0
 40
1.0
 40
1.0
 40
1.0
 10
352.7153334071037
 20
1018.53666978528
 30
0.0
 10
352.6152462176635
 20
1019.955538865533
 30
0.0
 10
352.4150675275738
 20
1022.793338143164
 30
0.0
 10
352.2182395229751
 20
1025.631371294375
 30
0.0
 10
352.1198234011528
 20
1027.050418431063
 30
0.0
  0
SPLINE
  5
429
330
1F
100
AcDbEntity
  8
SLD-0_0
  6
SLD-Solid
 62
   179
370
    15
100
AcDbSpline
210
0.0
220
0.0
230
1.0
 70
     8
 71
     3
 72
     9
 73
     5
 74
     0
 42
0.00000001
 43
0.00000001
 40
0.0
 40
0.0
 40
0.0
 40
0.0
 40
0.5000108296368625
 40
1.0
 40
1.0
 40
1.0
 40
1.0
 10
772.3991325547097
 20
1027.050418431063
 30
0.0
 10
772.3007151971894
 20
1025.631371381265
 30
0.0
 10
772.1038847453539
 20
1022.793338751394
 30
0.0
 10
771.9037184365789
 20
1019.955538952423
 30
0.0
 10
771.80363744992
 20
1018.53666978528
 30
0.0
  0
SPLINE
  5
42A
330
1F
100
AcDbEntity
  8
SLD-0_0
  6
SLD-Solid
 62
   179
370
    15
100
AcDbSpline
210
0.0
220
0.0
230
1.0
 70
     8
 71
     3
 72
     9
 73
     5
 74
     0
 42
0.00000001
 43
0.00000001
 40
0.0
 40
0.0
 40
0.0
 40
0.0
 40
0.4999857252613555
 40
1.0
 40
1.0
 40
1.0
 40
1.0
 10
491.7804984797833
 20
1027.050418431063
 30
0.0
 10
491.6818784214313
 20
1025.641940566831
 30
0.0
 10
491.4846326734645
 20
1022.824904413459
 30
0.0
 10
491.2907750619138
 20
1020.007632707745
 30
0.0
 10
491.1938434888718
 20
1018.59895663907
 30
0.0
  0
SPLINE
  5
42B
330
1F
100
AcDbEntity
  8
SLD-0_0
  6
SLD-Solid
 62
   179
370
    15
100
AcDbSpline
210
0.0
220
0.0
230
1.0
 70
     8
 71
     3
 72
     9
 73
     5
 74
     0
 42
0.00000001
 43
0.00000001
 40
0.0
 40
0.0
 40
0.0
 40
0.0
 40
0.5000142898701915
 40
1.0
 40
1.0
 40
1.0
 40
1.0
 10
633.3251273681519
 20
1018.59895663907
 30
0.0
 10
633.2281942443933
 20
1020.007632686431
 30
0.0
 10
633.0343335373649
 20
1022.824904264261
 30
0.0
 10
632.8370884013501
 20
1025.641940545517
 30
0.0
 10
632.7384686519501
 20
1027.050418431063
 30
0.0
  0
SPLINE
  5
42C
330
1F
100
AcDbEntity
  8
SLD-0_0
  6
SLD-Solid
 62
   179
370
    15
100
AcDbSpline
210
0.0
220
0.0
230
1.0
 70
     8
 71
     3
 72
    10
 73
     6
 74
     0
 42
0.00000001
 43
0.00000001
 40
0.0
 40
0.0
 40
0.0
 40
0.0
 40
0.6229893948635186
 40
0.9583528516940153
 40
1.0
 40
1.0
 40
1.0
 40
1.0
 10
948.9174535920022
 20
900.89545922925
 30
0.0
 10
948.8837513660964
 20
900.9992247056371
 30
0.0
 10
948.8319067848378
 20
901.1588485146823
 30
0.0
 10
948.631041156941
 20
901.7769985965198
 30
0.0
 10
948.5207761514791
 20
902.1163458866481
 30
0.0
 10
948.5085955311654
 20
902.1538324897481
 30
0.0
  0
SPLINE
  5
42D
330
1F
100
AcDbEntity
  8
SLD-0_0
  6
SLD-Solid
 62
   179
370
    15
100
AcDbSpline
210
0.0
220
0.0
230
1.0
 70
     8
 71
     3
 72
     9
 73
     5
 74
     0
 42
0.00000001
 43
0.00000001
 40
0.0
 40
0.0
 40
0.0
 40
0.0
 40
0.3375668699302422
 40
0.9999999999999999
 40
0.9999999999999999
 40
0.9999999999999999
 40
0.9999999999999999
 10
947.9880979706643
 20
903.7557669227314
 30
0.0
 10
947.9536118584257
 20
903.8619233209258
 30
0.0
 10
947.8514510265707
 20
904.1763984891091
 30
0.0
 10
947.7266636492967
 20
904.5604282286781
 30
0.0
 10
947.644000356376
 20
904.8148222511005
 30
0.0
  0
SPLINE
  5
42E
330
1F
100
AcDbEntity
  8
SLD-0_0
  6
SLD-Solid
 62
   179
370
    15
100
AcDbSpline
210
0.0
220
0.0
230
1.0
 70
     8
 71
     3
 72
    10
 73
     6
 74
     0
 42
0.00000001
 43
0.00000001
 40
0.0
 40
0.0
 40
0.0
 40
0.0
 40
0.1127871371923761
 40
0.4232568279218953
 40
1.0
 40
1.0
 40
1.0
 40
1.0
 10
944.8224058796761
 20
913.4987421577167
 30
0.0
 10
944.786213262638
 20
913.6101505647626
 30
0.0
 10
944.65039305598
 20
914.0282334254854
 30
0.0
 10
944.4269422442775
 20
914.7158158804478
 30
0.0
 10
944.3766876146528
 20
914.8705253681392
 30
0.0
 10
944.3440190007088
 20
914.9710960929584
 30
0.0
  0
SPLINE
  5
42F
330
1F
100
AcDbEntity
  8
SLD-0_0
  6
SLD-Solid
 62
   179
370
    15
100
AcDbSpline
210
0.0
220
0.0
230
1.0
 70
     8
 71
     3
 72
    13
 73
     9
 74
     0
 42
0.00000001
 43
0.00000001
 40
0.0
 40
0.0
 40
0.0
 40
0.0
 40
0.0075318869342392
 40
0.2722678190398182
 40
0.4815386096723315
 40
0.6613511456342518
 40
0.8304757326051738
 40
0.9999999999999999
 40
0.9999999999999999
 40
0.9999999999999999
 40
0.9999999999999999
 10
188.1094923664925
 20
330.2750937884045
 30
0.0
 10
188.1094839934404
 20
330.2752005529063
 30
0.0
 10
188.1091813186102
 20
330.2790599494054
 30
0.0
 10
188.0978227079349
 20
330.2860740225477
 30
0.0
 10
188.0550507692189
 20
330.2949410081774
 30
0.0
 10
187.9993818280464
 20
330.3012284418374
 30
0.0
 10
187.9332462222896
 20
330.3054468637701
 30
0.0
 10
187.884088535726
 20
330.3060070720127
 30
0.0
 10
187.8594806839821
 20
330.3062875067187
 30
0.0
  0
SPLINE
  5
430
330
1F
100
AcDbEntity
  8
SLD-0_0
  6
SLD-Solid
 62
   179
370
    15
100
AcDbSpline
210
0.0
220
0.0
230
1.0
 70
     8
 71
     3
 72
    13
 73
     9
 74
     0
 42
0.00000001
 43
0.00000001
 40
0.0
 40
0.0
 40
0.0
 40
0.0
 40
0.1695242673948261
 40
0.338648854365748
 40
0.5184613903276684
 40
0.7277321809601817
 40
0.9924681130657608
 40
0.9999999999999999
 40
0.9999999999999999
 40
0.9999999999999999
 40
0.9999999999999999
 10
187.1594837357399
 20
330.3062875067187
 30
0.0
 10
187.1348758839958
 20
330.3060070720127
 30
0.0
 10
187.0857181974322
 20
330.3054468637701
 30
0.0
 10
187.0195825916758
 20
330.3012284418374
 30
0.0
 10
186.9639136505032
 20
330.2949410081774
 30
0.0
 10
186.9211417117868
 20
330.2860740225477
 30
0.0
 10
186.9097831011124
 20
330.2790599494056
 30
0.0
 10
186.9094804262815
 20
330.2752005529063
 30
0.0
 10
186.9094720532296
 20
330.2750937884045
 30
0.0
  0
SPLINE
  5
431
330
1F
100
AcDbEntity
  8
SLD-0_0
  6
SLD-Solid
 62
   179
370
    15
100
AcDbSpline
210
0.0
220
0.0
230
1.0
 70
     8
 71
     3
 72
    12
 73
     8
 74
     0
 42
0.00000001
 43
0.00000001
 40
0.0
 40
0.0
 40
0.0
 40
0.0
 40
0.2028176214225538
 40
0.4049463532230716
 40
0.6098299889484433
 40
0.8226917266362341
 40
1.0
 40
1.0
 40
1.0
 40
1.0
 10
186.6594901730416
 20
324.9573108052206
 30
0.0
 10
186.8166290536305
 20
324.9695340077911
 30
0.0
 10
187.1303730774372
 20
324.9939388956452
 30
0.0
 10
187.5507715817691
 20
325.1835866588407
 30
0.0
 10
187.8778462014217
 20
325.4657198027899
 30
0.0
 10
188.0760526350607
 20
325.8053677332813
 30
0.0
 10
188.099044141063
 20
326.0461129896599
 30
0.0
 10
188.1094923664925
 20
326.1555169021082
 30
0.0
  0
SPLINE
  5
432
330
1F
100
AcDbEntity
  8
SLD-0_0
  6
SLD-Solid
 62
   179
370
    15
100
AcDbSpline
210
0.0
220
0.0
230
1.0
 70
     8
 71
     3
 72
    12
 73
     8
 74
     0
 42
0.00000001
 43
0.00000001
 40
0.0
 40
0.0
 40
0.0
 40
0.0
 40
0.2289429866381967
 40
0.4594187465244889
 40
0.6825390899314641
 40
0.8947204663979178
 40
1.0
 40
1.0
 40
1.0
 40
1.0
 10
188.1094923664925
 20
330.0306998436642
 30
0.0
 10
188.0921602373711
 20
329.9018206346577
 30
0.0
 10
188.0573799405273
 20
329.6431993703671
 30
0.0
 10
187.7835047459837
 20
329.3005799004134
 30
0.0
 10
187.3864616922437
 20
329.0535309840988
 30
0.0
 10
186.9855839640437
 20
328.9424424594202
 30
0.0
 10
186.7407007663057
 20
328.9329933905412
 30
0.0
 10
186.6594901730416
 20
328.9298597966624
 30
0.0
  0
SPLINE
  5
433
330
1F
100
AcDbEntity
  8
SLD-0_0
  6
SLD-Solid
 62
   179
370
    15
100
AcDbSpline
210
0.0
220
0.0
230
1.0
 70
     8
 71
     3
 72
    10
 73
     6
 74
     0
 42
0.00000001
 43
0.00000001
 40
0.0
 40
0.0
 40
0.0
 40
0.0
 40
0.3816803657569356
 40
0.76206421739513
 40
1.0
 40
1.0
 40
1.0
 40
1.0
 10
186.6594901730416
 20
343.7795174551499
 30
0.0
 10
186.8157390415997
 20
343.7666603790985
 30
0.0
 10
187.1277060234496
 20
343.7409899006611
 30
0.0
 10
187.5056593868573
 20
343.5840205710655
 30
0.0
 10
187.6683845488537
 20
343.4287425753845
 30
0.0
 10
187.7310028721688
 20
343.3689899985981
 30
0.0
  0
SPLINE
  5
434
330
1F
100
AcDbEntity
  8
SLD-0_0
  6
SLD-Solid
 62
   179
370
    15
100
AcDbSpline
210
0.0
220
0.0
230
1.0
 70
     8
 71
     3
 72
    13
 73
     9
 74
     0
 42
0.00000001
 43
0.00000001
 40
0.0
 40
0.0
 40
0.0
 40
0.0
 40
0.0075400737962953
 40
0.2722803793737486
 40
0.4815448867358995
 40
0.6613503701171507
 40
0.830418782919862
 40
1.0
 40
1.0
 40
1.0
 40
1.0
 10
185.709481542289
 20
337.7017291506124
 30
0.0
 10
185.7094899200841
 20
337.701514358853
 30
0.0
 10
185.709792451507
 20
337.6937579915668
 30
0.0
 10
185.7210951223846
 20
337.6798098783722
 30
0.0
 10
185.7639329549233
 20
337.6624575346469
 30
0.0
 10
185.8195884337177
 20
337.6502910078368
 30
0.0
 10
185.8857093894118
 20
337.6421814024533
 30
0.0
 10
185.9348737970715
 20
337.6411114851264
 30
0.0
 10
185.9594932247994
 20
337.6405757163954
 30
0.0
  0
SPLINE
  5
435
330
1F
100
AcDbEntity
  8
SLD-0_0
  6
SLD-Solid
 62
   179
370
    15
100
AcDbSpline
210
0.0
220
0.0
230
1.0
 70
     8
 71
     3
 72
    13
 73
     9
 74
     0
 42
0.00000001
 43
0.00000001
 40
0.0
 40
0.0
 40
0.0
 40
0.0
 40
0.1695182268772133
 40
0.3386512902429804
 40
0.5184617610366572
 40
0.7277009252663901
 40
0.9924600305931313
 40
1.0
 40
1.0
 40
1.0
 40
1.0
 10
186.6594901730416
 20
337.6405757163954
 30
0.0
 10
186.6840990333259
 20
337.6411121305874
 30
0.0
 10
186.7332608399366
 20
337.6421837401812
 30
0.0
 10
186.7993830570977
 20
337.650289043338
 30
0.0
 10
186.8550814915024
 20
337.6624562545041
 30
0.0
 10
186.8977146953829
 20
337.6798126464828
 30
0.0
 10
186.909536052377
 20
337.6937573329473
 30
0.0
 10
186.9094737776194
 20
337.7015143583503
 30
0.0
 10
186.9094720532296
 20
337.7017291506124
 30
0.0
  0
SPLINE
  5
436
330
1F
100
AcDbEntity
  8
SLD-0_0
  6
SLD-Solid
 62
   179
370
    15
100
AcDbSpline
210
0.0
220
0.0
230
1.0
 70
     8
 71
     3
 72
    12
 73
     8
 74
     0
 42
0.00000001
 43
0.00000001
 40
0.0
 40
0.0
 40
0.0
 40
0.0
 40
0.20281819392998
 40
0.4049472185470283
 40
0.6098318434369986
 40
0.8226941414298184
 40
1.0
 40
1.0
 40
1.0
 40
1.0
 10
187.1594837357399
 20
343.3388537970674
 30
0.0
 10
187.002344933725
 20
343.3276372694023
 30
0.0
 10
186.688601281991
 20
343.305242327451
 30
0.0
 10
186.2682014713239
 20
343.1311833513843
 30
0.0
 10
185.9411281954766
 20
342.8721390745553
 30
0.0
 10
185.7429222107528
 20
342.5601274781606
 30
0.0
 10
185.7199299967997
 20
342.3387713704705
 30
0.0
 10
185.709481542289
 20
342.2381795254839
 30
0.0
  0
SPLINE
  5
437
330
1F
100
AcDbEntity
  8
SLD-0_0
  6
SLD-Solid
 62
   179
370
    15
100
AcDbSpline
210
0.0
220
0.0
230
1.0
 70
     8
 71
     3
 72
    12
 73
     8
 74
     0
 42
0.00000001
 43
0.00000001
 40
0.0
 40
0.0
 40
0.0
 40
0.0
 40
0.2289461353262593
 40
0.4594226462970099
 40
0.6825384507774653
 40
0.8947204188453372
 40
1.0
 40
1.0
 40
1.0
 40
1.0
 10
185.709481542289
 20
337.92421559443
 30
0.0
 10
185.7268137219441
 20
338.0402631892485
 30
0.0
 10
185.7615939370891
 20
338.2731340915331
 30
0.0
 10
186.0354631824999
 20
338.5820274518729
 30
0.0
 10
186.4325191260979
 20
338.8048935260118
 30
0.0
 10
186.8333891108391
 20
338.905143468432
 30
0.0
 10
187.07827303004
 20
338.9136701799832
 30
0.0
 10
187.1594837357399
 20
338.9164978881669
 30
0.0
  0
SPLINE
  5
438
330
1F
100
AcDbEntity
  8
SLD-0_0
  6
SLD-Solid
 62
   179
370
    15
100
AcDbSpline
210
0.0
220
0.0
230
1.0
 70
     8
 71
     3
 72
     9
 73
     5
 74
     0
 42
0.00000001
 43
0.00000001
 40
0.0
 40
0.0
 40
0.0
 40
0.0
 40
0.0702009982684966
 40
1.0
 40
1.0
 40
1.0
 40
1.0
 10
193.5594728638527
 20
330.5803720151377
 30
0.0
 10
193.5599237066691
 20
330.5357046918224
 30
0.0
 10
193.566345877686
 20
329.899427082999
 30
0.0
 10
193.7942011034124
 20
329.2759092664257
 30
0.0
 10
194.0060606648323
 20
328.6961630230141
 30
0.0
  0
SPLINE
  5
439
330
1F
100
AcDbEntity
  8
SLD-0_0
  6
SLD-Solid
 62
   179
370
    15
100
AcDbSpline
210
0.0
220
0.0
230
1.0
 70
     8
 71
     3
 72
     9
 73
     5
 74
     0
 42
0.00000001
 43
0.00000001
 40
0.0
 40
0.0
 40
0.0
 40
0.0
 40
0.2575498942404276
 40
1.0
 40
1.0
 40
1.0
 40
1.0
 10
194.0060606648323
 20
332.4645810072613
 30
0.0
 10
193.9386527057533
 20
332.7026788334275
 30
0.0
 10
193.6769249373229
 20
333.6271514559784
 30
0.0
 10
193.6095186609068
 20
334.5876125036622
 30
0.0
 10
193.5594728638527
 20
335.3007069100929
 30
0.0
  0
SPLINE
  5
43A
330
1F
100
AcDbEntity
  8
SLD-0_0
  6
SLD-Solid
 62
   179
370
    15
100
AcDbSpline
210
0.0
220
0.0
230
1.0
 70
     8
 71
     3
 72
     9
 73
     5
 74
     0
 42
0.00000001
 43
0.00000001
 40
0.0
 40
0.0
 40
0.0
 40
0.0
 40
0.2686338728912773
 40
1.0
 40
1.0
 40
1.0
 40
1.0
 10
193.5594728638527
 20
335.3007069100929
 30
0.0
 10
193.5661095897877
 20
335.5585900930813
 30
0.0
 10
193.5908150592187
 20
336.5185702333849
 30
0.0
 10
193.8306520290612
 20
337.4532440462785
 30
0.0
 10
194.0060606648323
 20
338.1368328129244
 30
0.0
  0
SPLINE
  5
43B
330
1F
100
AcDbEntity
  8
SLD-0_0
  6
SLD-Solid
 62
   179
370
    15
100
AcDbSpline
210
0.0
220
0.0
230
1.0
 70
     8
 71
     3
 72
     9
 73
     5
 74
     0
 42
0.00000001
 43
0.00000001
 40
0.0
 40
0.0
 40
0.0
 40
0.0
 40
0.0702021069626508
 40
1.0
 40
1.0
 40
1.0
 40
1.0
 10
193.5594728638527
 20
339.0887487923098
 30
0.0
 10
193.55992369426
 20
339.066182835168
 30
0.0
 10
193.5663455870888
 20
338.7447401019219
 30
0.0
 10
193.7942010943054
 20
338.4297292444685
 30
0.0
 10
194.0060606648323
 20
338.1368328129244
 30
0.0
  0
SPLINE
  5
43C
330
1F
100
AcDbEntity
  8
SLD-0_0
  6
SLD-Solid
 62
   179
370
    15
100
AcDbSpline
210
0.0
220
0.0
230
1.0
 70
     8
 71
     3
 72
     9
 73
     5
 74
     0
 42
0.00000001
 43
0.00000001
 40
0.0
 40
0.0
 40
0.0
 40
0.0
 40
0.0702012315696889
 40
1.0
 40
1.0
 40
1.0
 40
1.0
 10
185.709481542289
 20
336.3176385184121
 30
0.0
 10
185.7090410112114
 20
336.2546199060328
 30
0.0
 10
185.7027657498275
 20
335.3569346237339
 30
0.0
 10
185.4748290262095
 20
334.477232351707
 30
0.0
 10
185.2628937413094
 20
333.6592862625909
 30
0.0
  0
SPLINE
  5
43D
330
1F
100
AcDbEntity
  8
SLD-0_0
  6
SLD-Solid
 62
   179
370
    15
100
AcDbSpline
210
0.0
220
0.0
230
1.0
 70
     8
 71
     3
 72
     9
 73
     5
 74
     0
 42
0.00000001
 43
0.00000001
 40
0.0
 40
0.0
 40
0.0
 40
0.0
 40
0.0702014607086068
 40
1.0
 40
1.0
 40
1.0
 40
1.0
 10
180.5094829251168
 20
336.3176385184121
 30
0.0
 10
180.5099337627573
 20
336.2546199135941
 30
0.0
 10
180.51635581774
 20
335.3569376690672
 30
0.0
 10
180.7442111608774
 20
334.4772337145292
 30
0.0
 10
180.9560707260964
 20
333.6592862625909
 30
0.0
  0
SPLINE
  5
43E
330
1F
100
AcDbEntity
  8
SLD-0_0
  6
SLD-Solid
 62
   179
370
    15
100
AcDbSpline
210
0.0
220
0.0
230
1.0
 70
     8
 71
     3
 72
     9
 73
     5
 74
     0
 42
0.00000001
 43
0.00000001
 40
0.0
 40
0.0
 40
0.0
 40
0.0
 40
0.2686338500423063
 40
1.0
 40
1.0
 40
1.0
 40
1.0
 10
185.709481542289
 20
331.355496892829
 30
0.0
 10
185.7028565736548
 20
331.5649758163148
 30
0.0
 10
185.678194869133
 20
332.3447692915335
 30
0.0
 10
185.4383258340165
 20
333.1040061352765
 30
0.0
 10
185.2628937413094
 20
333.6592862625909
 30
0.0
  0
SPLINE
  5
43F
330
1F
100
AcDbEntity
  8
SLD-0_0
  6
SLD-Solid
 62
   179
370
    15
100
AcDbSpline
210
0.0
220
0.0
230
1.0
 70
     8
 71
     3
 72
     9
 73
     5
 74
     0
 42
0.00000001
 43
0.00000001
 40
0.0
 40
0.0
 40
0.0
 40
0.0
 40
0.2686338500423063
 40
1.0
 40
1.0
 40
1.0
 40
1.0
 10
180.5094829251168
 20
331.355496892829
 30
0.0
 10
180.516107893751
 20
331.5649758163148
 30
0.0
 10
180.5407695982729
 20
332.3447692915335
 30
0.0
 10
180.7806386333892
 20
333.1040061352765
 30
0.0
 10
180.9560707260964
 20
333.6592862625909
 30
0.0
  0
SPLINE
  5
440
330
1F
100
AcDbEntity
  8
SLD-0_0
  6
SLD-Solid
 62
   179
370
    15
100
AcDbSpline
210
0.0
220
0.0
230
1.0
 70
     8
 71
     3
 72
     9
 73
     5
 74
     0
 42
0.00000001
 43
0.00000001
 40
0.0
 40
0.0
 40
0.0
 40
0.0
 40
0.2575524833490117
 40
1.0
 40
1.0
 40
1.0
 40
1.0
 10
180.9560707260964
 20
329.0517084543896
 30
0.0
 10
180.8886511185305
 20
329.2451151993361
 30
0.0
 10
180.626880753558
 20
329.9960562985312
 30
0.0
 10
180.5595055084964
 20
330.7762465661328
 30
0.0
 10
180.5094829251167
 20
331.355496892829
 30
0.0
  0
SPLINE
  5
441
330
1F
100
AcDbEntity
  8
SLD-0_0
  6
SLD-Solid
 62
   179
370
    15
100
AcDbSpline
210
0.0
220
0.0
230
1.0
 70
     8
 71
     3
 72
     9
 73
     5
 74
     0
 42
0.00000001
 43
0.00000001
 40
0.0
 40
0.0
 40
0.0
 40
0.0
 40
0.0702022363354797
 40
1.0
 40
1.0
 40
1.0
 40
1.0
 10
180.5094829251167
 20
339.3305555229378
 30
0.0
 10
180.5099337540759
 20
339.3221504427869
 30
0.0
 10
180.5163556144435
 20
339.2024237703963
 30
0.0
 10
180.7442111545068
 20
339.0850891620225
 30
0.0
 10
180.9560707260964
 20
338.9759917055559
 30
0.0
  0
SPLINE
  5
442
330
1F
100
AcDbEntity
  8
SLD-0_0
  6
SLD-Solid
 62
   179
370
    15
100
AcDbSpline
210
0.0
220
0.0
230
1.0
 70
     8
 71
     3
 72
     9
 73
     5
 74
     0
 42
0.00000001
 43
0.00000001
 40
0.0
 40
0.0
 40
0.0
 40
0.0
 40
0.0702020071965224
 40
1.0
 40
1.0
 40
1.0
 40
1.0
 10
185.709481542289
 20
339.3305555229378
 30
0.0
 10
185.7090410198972
 20
339.3221504417784
 30
0.0
 10
185.7027659515704
 20
339.202423364234
 30
0.0
 10
185.4748290317987
 20
339.0850889802609
 30
0.0
 10
185.2628937413093
 20
338.9759917055559
 30
0.0
  0
SPLINE
  5
443
330
1F
100
AcDbEntity
  8
SLD-0_0
  6
SLD-Solid
 62
   179
370
    15
100
AcDbSpline
210
0.0
220
0.0
230
1.0
 70
     8
 71
     3
 72
     9
 73
     5
 74
     0
 42
0.00000001
 43
0.00000001
 40
0.0
 40
0.0
 40
0.0
 40
0.0
 40
0.0702021880189333
 40
0.9999999999999999
 40
0.9999999999999999
 40
0.9999999999999999
 40
0.9999999999999999
 10
193.3094909836647
 20
337.7358472218108
 30
0.0
 10
193.3090401541647
 20
337.6852617251205
 30
0.0
 10
193.3026182816742
 20
336.9646930631199
 30
0.0
 10
193.074762753878
 20
336.2585412061568
 30
0.0
 10
192.8629031826851
 20
335.6019627546263
 30
0.0
  0
SPLINE
  5
444
330
1F
100
AcDbEntity
  8
SLD-0_0
  6
SLD-Solid
 62
   179
370
    15
100
AcDbSpline
210
0.0
220
0.0
230
1.0
 70
     8
 71
     3
 72
     9
 73
     5
 74
     0
 42
0.00000001
 43
0.00000001
 40
0.0
 40
0.0
 40
0.0
 40
0.0
 40
0.0702019588790077
 40
0.9999999999999999
 40
0.9999999999999999
 40
0.9999999999999999
 40
0.9999999999999999
 10
188.1094923664925
 20
337.7358472218108
 30
0.0
 10
188.1099328894255
 20
337.6852617190507
 30
0.0
 10
188.1162079697787
 20
336.9646906186447
 30
0.0
 10
188.3441448773309
 20
336.2585401122286
 30
0.0
 10
188.5560801674721
 20
335.6019627546263
 30
0.0
  0
SPLINE
  5
445
330
1F
100
AcDbEntity
  8
SLD-0_0
  6
SLD-Solid
 62
   179
370
    15
100
AcDbSpline
210
0.0
220
0.0
230
1.0
 70
     8
 71
     3
 72
     9
 73
     5
 74
     0
 42
0.00000001
 43
0.00000001
 40
0.0
 40
0.0
 40
0.0
 40
0.0
 40
0.2686324155855072
 40
1.0
 40
1.0
 40
1.0
 40
1.0
 10
188.1094923664925
 20
332.8513043244672
 30
0.0
 10
188.1161174121392
 20
333.1014161030426
 30
0.0
 10
188.1407795350342
 20
334.0324719401809
 30
0.0
 10
188.3806480852926
 20
334.93897546293
 30
0.0
 10
188.5560801674721
 20
335.6019627546263
 30
0.0
  0
SPLINE
  5
446
330
1F
100
AcDbEntity
  8
SLD-0_0
  6
SLD-Solid
 62
   179
370
    15
100
AcDbSpline
210
0.0
220
0.0
230
1.0
 70
     8
 71
     3
 72
     9
 73
     5
 74
     0
 42
0.00000001
 43
0.00000001
 40
0.0
 40
0.0
 40
0.0
 40
0.0
 40
0.2686332761524425
 40
1.0
 40
1.0
 40
1.0
 40
1.0
 10
193.3094909836647
 20
332.8513043244672
 30
0.0
 10
193.3028542256978
 20
333.1014159607207
 30
0.0
 10
193.2781485821457
 20
334.032468285421
 30
0.0
 10
193.0383118140358
 20
334.9389743696534
 30
0.0
 10
192.8629031826851
 20
335.6019627546263
 30
0.0
  0
SPLINE
  5
447
330
1F
100
AcDbEntity
  8
SLD-0_0
  6
SLD-Solid
 62
   179
370
    15
100
AcDbSpline
210
0.0
220
0.0
230
1.0
 70
     8
 71
     3
 72
     9
 73
     5
 74
     0
 42
0.00000001
 43
0.00000001
 40
0.0
 40
0.0
 40
0.0
 40
0.0
 40
0.257551290323066
 40
1.0
 40
1.0
 40
1.0
 40
1.0
 10
192.8629031826851
 20
330.100644031663
 30
0.0
 10
192.9303227942375
 20
330.3315671874507
 30
0.0
 10
193.1920943872581
 20
331.2281775499849
 30
0.0
 10
193.2594688791181
 20
332.1596980965974
 30
0.0
 10
193.3094909836647
 20
332.8513043244672
 30
0.0
  0
SPLINE
  5
448
330
1F
100
AcDbEntity
  8
SLD-0_0
  6
SLD-Solid
 62
   179
370
    15
100
AcDbSpline
210
0.0
220
0.0
230
1.0
 70
     8
 71
     3
 72
     9
 73
     5
 74
     0
 42
0.00000001
 43
0.00000001
 40
0.0
 40
0.0
 40
0.0
 40
0.0
 40
0.257551290323066
 40
1.0
 40
1.0
 40
1.0
 40
1.0
 10
188.5560801674721
 20
330.100644031663
 30
0.0
 10
188.4886605559198
 20
330.3315671874507
 30
0.0
 10
188.2268889628994
 20
331.2281775499849
 30
0.0
 10
188.1595144710392
 20
332.1596980965974
 30
0.0
 10
188.1094923664925
 20
332.8513043244672
 30
0.0
  0
SPLINE
  5
449
330
1F
100
AcDbEntity
  8
SLD-0_0
  6
SLD-Solid
 62
   179
370
    15
100
AcDbSpline
210
0.0
220
0.0
230
1.0
 70
     8
 71
     3
 72
     9
 73
     5
 74
     0
 42
0.00000001
 43
0.00000001
 40
0.0
 40
0.0
 40
0.0
 40
0.0
 40
0.0702009843920731
 40
1.0
 40
1.0
 40
1.0
 40
1.0
 10
193.3094909836647
 20
329.4838700686884
 30
0.0
 10
193.309040140693
 20
329.469248899307
 30
0.0
 10
193.3026179661948
 20
329.2609730537758
 30
0.0
 10
193.0747627439912
 20
329.0568704789085
 30
0.0
 10
192.8629031826851
 20
328.8670961057139
 30
0.0
  0
SPLINE
  5
44A
330
1F
100
AcDbEntity
  8
SLD-0_0
  6
SLD-Solid
 62
   179
370
    15
100
AcDbSpline
210
0.0
220
0.0
230
1.0
 70
     8
 71
     3
 72
     9
 73
     5
 74
     0
 42
0.00000001
 43
0.00000001
 40
0.0
 40
0.0
 40
0.0
 40
0.0
 40
0.0972150364289529
 40
1.0
 40
1.0
 40
1.0
 40
1.0
 10
296.3751456190941
 20
984.7684331481647
 30
0.0
 10
296.287365561139
 20
984.8253212591394
 30
0.0
 10
295.3844182272744
 20
985.4104993659851
 30
0.0
 10
294.3450218327096
 20
985.7290714929838
 30
0.0
 10
293.4066703965065
 20
986.016673619051
 30
0.0
  0
SPLINE
  5
44B
330
1F
100
AcDbEntity
  8
SLD-0_0
  6
SLD-Solid
 62
   179
370
    15
100
AcDbSpline
210
0.0
220
0.0
230
1.0
 70
     8
 71
     3
 72
     9
 73
     5
 74
     0
 42
0.00000001
 43
0.00000001
 40
0.0
 40
0.0
 40
0.0
 40
0.0
 40
0.4480405514593941
 40
1.0
 40
1.0
 40
1.0
 40
1.0
 10
289.4873967816231
 20
986.0057063644123
 30
0.0
 10
288.9514742606669
 20
985.9240882790706
 30
0.0
 10
287.7553269047846
 20
985.7419215419843
 30
0.0
 10
286.7169542346757
 20
985.1146574760741
 30
0.0
 10
286.1438146283027
 20
984.7684331481648
 30
0.0
  0
SPLINE
  5
44C
330
1F
100
AcDbEntity
  8
SLD-0_0
  6
SLD-Solid
 62
   179
370
    15
100
AcDbSpline
210
0.0
220
0.0
230
1.0
 70
     8
 71
     3
 72
    10
 73
     6
 74
     0
 42
0.00000001
 43
0.00000001
 40
0.0
 40
0.0
 40
0.0
 40
0.0
 40
0.0688132688326254
 40
0.7272171340597151
 40
1.0
 40
1.0
 40
1.0
 40
1.0
 10
839.3751433541177
 20
984.7684331481647
 30
0.0
 10
839.2872885385481
 20
984.8248913014406
 30
0.0
 10
838.3588407511413
 20
985.4215398419915
 30
0.0
 10
836.916239711968
 20
986.0531347301348
 30
0.0
 10
835.5021695396988
 20
986.1467309197461
 30
0.0
 10
835.0879302670357
 20
986.1741490905475
 30
0.0
  0
SPLINE
  5
44D
330
1F
100
AcDbEntity
  8
SLD-0_0
  6
SLD-Solid
 62
   179
370
    15
100
AcDbSpline
210
0.0
220
0.0
230
1.0
 70
     8
 71
     3
 72
     9
 73
     5
 74
     0
 42
0.00000001
 43
0.00000001
 40
0.0
 40
0.0
 40
0.0
 40
0.0
 40
0.1046732483726557
 40
1.0
 40
1.0
 40
1.0
 40
1.0
 10
831.1382880856393
 20
985.7196040694904
 30
0.0
 10
831.062264627495
 20
985.7045731472892
 30
0.0
 10
830.3359715265727
 20
985.5609746401734
 30
0.0
 10
829.7069801080419
 20
985.1428190417637
 30
0.0
 10
829.1438272644875
 20
984.7684331481648
 30
0.0
  0
SPLINE
  5
44E
330
1F
100
AcDbEntity
  8
SLD-0_0
  6
SLD-Solid
 62
   179
370
    15
100
AcDbSpline
210
0.0
220
0.0
230
1.0
 70
     8
 71
     3
 72
    17
 73
    13
 74
     0
 42
0.00000001
 43
0.00000001
 40
0.0
 40
0.0
 40
0.0
 40
0.0
 40
0.0933680938318836
 40
0.2094278306119869
 40
0.3229277058483792
 40
0.4304594887433871
 40
0.5318222991528555
 40
0.6300988425105709
 40
0.729557638563634
 40
0.8335838191020504
 40
0.9435450579266261
 40
0.9999999999999999
 40
0.9999999999999999
 40
0.9999999999999999
 40
0.9999999999999999
 10
940.6947842289803
 20
814.4684262817096
 30
0.0
 10
940.6879267996325
 20
814.6213525746723
 30
0.0
 10
940.6725453508637
 20
814.9643714847118
 30
0.0
 10
940.41514938536
 20
815.4465723557422
 30
0.0
 10
939.9996429224757
 20
815.838397041732
 30
0.0
 10
939.4825531349622
 20
816.0558073729098
 30
0.0
 10
938.9456785824341
 20
816.0882667854594
 30
0.0
 10
938.4433943357585
 20
815.9525996791353
 30
0.0
 10
938.009270575663
 20
815.6690573515108
 30
0.0
 10
937.6888903829246
 20
815.2558787273127
 30
0.0
 10
937.5147074282198
 20
814.8327619474071
 30
0.0
 10
937.5292314208081
 20
814.5607152630186
 30
0.0
 10
937.5341585327981
 20
814.4684262817096
 30
0.0
  0
SPLINE
  5
44F
330
1F
100
AcDbEntity
  8
SLD-0_0
  6
SLD-Solid
 62
   179
370
    15
100
AcDbSpline
210
0.0
220
0.0
230
1.0
 70
     8
 71
     3
 72
     9
 73
     5
 74
     0
 42
0.00000001
 43
0.00000001
 40
0.0
 40
0.0
 40
0.0
 40
0.0
 40
0.9544734450841562
 40
1.0
 40
1.0
 40
1.0
 40
1.0
 10
950.5678764035104
 20
287.4684125428391
 30
0.0
 10
950.5330392883769
 20
287.4047784621378
 30
0.0
 10
950.4965405095867
 20
287.3381091576862
 30
0.0
 10
950.4601012305411
 20
287.2714477469617
 30
0.0
 10
950.4584422757027
 20
287.2684128825856
 30
0.0
  0
SPLINE
  5
450
330
1F
100
AcDbEntity
  8
SLD-0_0
  6
SLD-Solid
 62
   179
370
    15
100
AcDbSpline
210
0.0
220
0.0
230
1.0
 70
     8
 71
     3
 72
     9
 73
     5
 74
     0
 42
0.00000001
 43
0.00000001
 40
0.0
 40
0.0
 40
0.0
 40
0.0
 40
0.0455265549158438
 40
1.0
 40
1.0
 40
1.0
 40
1.0
 10
950.7933011700509
 20
287.2684128825856
 30
0.0
 10
950.7949601248893
 20
287.2714477469617
 30
0.0
 10
950.8313994039339
 20
287.3381091576863
 30
0.0
 10
950.8678981827247
 20
287.4047784621379
 30
0.0
 10
950.9027352978585
 20
287.4684125428391
 30
0.0
  0
SPLINE
  5
451
330
1F
100
AcDbEntity
  8
SLD-0_0
  6
SLD-Solid
 62
   179
370
    15
100
AcDbSpline
210
0.0
220
0.0
230
1.0
 70
    24
 71
     3
 72
    11
 73
     7
 74
     0
 42
0.00000001
 43
0.00000001
 40
0.0
 40
0.0
 40
0.0
 40
0.0
 40
0.2833524095017568
 40
0.5581077166179585
 40
0.7754847321577144
 40
1.0
 40
1.0
 40
1.0
 40
1.0
 10
966.7094698597787
 20
375.4740353917074
 30
0.0
 10
966.7094698597786
 20
375.7710833934283
 30
0.0
 10
966.7094698597787
 20
376.3561667610196
 30
0.0
 10
966.7094698597787
 20
377.0042913774938
 30
0.0
 10
966.7094698597786
 20
377.3981804502533
 30
0.0
 10
966.7094698597787
 20
377.4447522169505
 30
0.0
 10
966.7094698597787
 20
377.4684142564726
 30
0.0
  0
SPLINE
  5
452
330
1F
100
AcDbEntity
  8
SLD-0_0
  6
SLD-Solid
 62
   179
370
    15
100
AcDbSpline
210
0.0
220
0.0
230
1.0
 70
    24
 71
     3
 72
    11
 73
     7
 74
     0
 42
0.00000001
 43
0.00000001
 40
0.0
 40
0.0
 40
0.0
 40
0.0
 40
0.283278752982335
 40
0.5580051710006968
 40
0.7754041139787697
 40
1.0
 40
1.0
 40
1.0
 40
1.0
 10
966.7094698597787
 20
317.468413734932
 30
0.0
 10
966.7094698597787
 20
317.5066975463657
 30
0.0
 10
966.7094698597787
 20
317.5821093607739
 30
0.0
 10
966.7094698597784
 20
318.115045721637
 30
0.0
 10
966.7094698597787
 20
318.7654721758594
 30
0.0
 10
966.7094698597786
 20
319.2275810521033
 30
0.0
 10
966.7094698597787
 20
319.4623977189255
 30
0.0
  0
SPLINE
  5
453
330
1F
100
AcDbEntity
  8
SLD-0_0
  6
SLD-Solid
 62
   179
370
    15
100
AcDbSpline
210
0.0
220
0.0
230
1.0
 70
     8
 71
     3
 72
    11
 73
     7
 74
     0
 42
0.00000001
 43
0.00000001
 40
0.0
 40
0.0
 40
0.0
 40
0.0
 40
0.2371975253866086
 40
0.4978651908859404
 40
0.7485807449358459
 40
1.0
 40
1.0
 40
1.0
 40
1.0
 10
966.7094698597787
 20
377.4684142564726
 30
0.0
 10
966.9044560342438
 20
377.3254958567558
 30
0.0
 10
967.3137218088847
 20
377.0255176160886
 30
0.0
 10
967.7573447340158
 20
376.4021473908743
 30
0.0
 10
968.0545996430558
 20
375.6864235877721
 30
0.0
 10
968.0911784993135
 20
375.1828418231165
 30
0.0
 10
968.1094935585854
 20
374.9306980763865
 30
0.0
  0
SPLINE
  5
454
330
1F
100
AcDbEntity
  8
SLD-0_0
  6
SLD-Solid
 62
   179
370
    15
100
AcDbSpline
210
0.0
220
0.0
230
1.0
 70
    24
 71
     3
 72
    13
 73
     9
 74
     0
 42
0.00000001
 43
0.00000001
 40
0.0
 40
0.0
 40
0.0
 40
0.0
 40
0.1275378194788204
 40
0.2545912646928695
 40
0.4999410089093996
 40
0.745330934904466
 40
0.8725057111622735
 40
1.0
 40
1.0
 40
1.0
 40
1.0
 10
966.7094698597787
 20
377.4684142564726
 30
0.0
 10
966.7094698597787
 20
377.461147218352
 30
0.0
 10
966.7094698597787
 20
377.4466407415025
 30
0.0
 10
966.7094698597784
 20
377.2861524113369
 30
0.0
 10
966.7094698597786
 20
376.9203607895042
 30
0.0
 10
966.7094698597787
 20
376.3727987104621
 30
0.0
 10
966.7094698597786
 20
375.872946613942
 30
0.0
 10
966.7094698597787
 20
375.6071169707357
 30
0.0
 10
966.7094698597787
 20
375.4740353917074
 30
0.0
  0
SPLINE
  5
455
330
1F
100
AcDbEntity
  8
SLD-0_0
  6
SLD-Solid
 62
   179
370
    15
100
AcDbSpline
210
0.0
220
0.0
230
1.0
 70
     8
 71
     3
 72
    11
 73
     7
 74
     0
 42
0.00000001
 43
0.00000001
 40
0.0
 40
0.0
 40
0.0
 40
0.0
 40
0.2514194344803834
 40
0.5021351674443474
 40
0.762799644455438
 40
1.0
 40
1.0
 40
1.0
 40
1.0
 10
968.1094935585854
 20
320.0061299150181
 30
0.0
 10
968.0911782637343
 20
319.753986373258
 30
0.0
 10
968.0545989369773
 20
319.2504050179685
 30
0.0
 10
967.7573489106428
 20
318.5346812769569
 30
0.0
 10
967.313713768035
 20
317.911322994788
 30
0.0
 10
966.9044551103311
 20
317.6113374315137
 30
0.0
 10
966.7094698597787
 20
317.468413734932
 30
0.0
  0
SPLINE
  5
456
330
1F
100
AcDbEntity
  8
SLD-0_0
  6
SLD-Solid
 62
   179
370
    15
100
AcDbSpline
210
0.0
220
0.0
230
1.0
 70
    24
 71
     3
 72
    13
 73
     9
 74
     0
 42
0.00000001
 43
0.00000001
 40
0.0
 40
0.0
 40
0.0
 40
0.0
 40
0.1275868244544103
 40
0.2546750396379399
 40
0.5000495758904809
 40
0.7453956418661714
 40
0.8725373525998517
 40
1.0
 40
1.0
 40
1.0
 40
1.0
 10
966.7094698597787
 20
319.4623977189255
 30
0.0
 10
966.7094698597787
 20
319.3292262192144
 30
0.0
 10
966.7094698597787
 20
319.0634036539723
 30
0.0
 10
966.7094698597787
 20
318.5636550419568
 30
0.0
 10
966.7094698597787
 20
318.0162642107765
 30
0.0
 10
966.7094698597787
 20
317.6505006723826
 30
0.0
 10
966.7094698597787
 20
317.4902417057032
 30
0.0
 10
966.7094698597786
 20
317.4756958370281
 30
0.0
 10
966.7094698597787
 20
317.468413734932
 30
0.0
  0
SPLINE
  5
457
330
1F
100
AcDbEntity
  8
SLD-0_0
  6
SLD-Solid
 62
   179
370
    15
100
AcDbSpline
210
0.0
220
0.0
230
1.0
 70
     8
 71
     3
 72
     8
 73
     4
 74
     0
 42
0.00000001
 43
0.00000001
 40
0.0000003989415141
 40
0.0000003989415141
 40
0.0000003989415141
 40
0.0000003989415141
 40
0.0275261991449306
 40
0.0275261991449306
 40
0.0275261991449306
 40
0.0275261991449306
 10
999.9140551735754
 20
746.919525439043
 30
0.0
 10
999.9140577836795
 20
746.9195254369957
 30
0.0
 10
1000.184385829734
 20
746.9194446575123
 30
0.0
 10
1000.411306922614
 20
746.9193764274313
 30
0.0
  0
SPLINE
  5
458
330
1F
100
AcDbEntity
  8
SLD-0_0
  6
SLD-Solid
 62
   179
370
    15
100
AcDbSpline
210
0.0
220
0.0
230
1.0
 70
     8
 71
     3
 72
     8
 73
     4
 74
     0
 42
0.00000001
 43
0.00000001
 40
0.0275261991449306
 40
0.0275261991449306
 40
0.0275261991449306
 40
0.0275261991449306
 40
0.0946892649993293
 40
0.0946892649993293
 40
0.0946892649993293
 40
0.0946892649993293
 10
1000.411306922614
 20
746.9193764274313
 30
0.0
 10
1000.964995323759
 20
746.9192099457525
 30
0.0
 10
1001.260255216129
 20
746.9191181784483
 30
0.0
 10
1001.592432563484
 20
746.9190187995625
 30
0.0
  0
SPLINE
  5
459
330
1F
100
AcDbEntity
  8
SLD-0_0
  6
SLD-Solid
 62
   179
370
    15
100
AcDbSpline
210
0.0
220
0.0
230
1.0
 70
     8
 71
     3
 72
     8
 73
     4
 74
     0
 42
0.00000001
 43
0.00000001
 40
0.0946892649993293
 40
0.0946892649993293
 40
0.0946892649993293
 40
0.0946892649993293
 40
0.2290033850968454
 40
0.2290033850968454
 40
0.2290033850968454
 40
0.2290033850968454
 10
1001.592432563484
 20
746.9190187995625
 30
0.0
 10
1002.256727850763
 20
746.918820059564
 30
0.0
 10
1003.068666549519
 20
746.9185908786844
 30
0.0
 10
1003.817622964561
 20
746.9183929507923
 30
0.0
  0
SPLINE
  5
45A
330
1F
100
AcDbEntity
  8
SLD-0_0
  6
SLD-Solid
 62
   179
370
    15
100
AcDbSpline
210
0.0
220
0.0
230
1.0
 70
     8
 71
     3
 72
     8
 73
     4
 74
     0
 42
0.00000001
 43
0.00000001
 40
0.2290033850968454
 40
0.2290033850968454
 40
0.2290033850968454
 40
0.2290033850968454
 40
0.4975467515909248
 40
0.4975467515909248
 40
0.4975467515909248
 40
0.4975467515909248
 10
1003.817622964561
 20
746.9183929507923
 30
0.0
 10
1005.315062525692
 20
746.9179972200793
 30
0.0
 10
1006.560732121973
 20
746.9177264223326
 30
0.0
 10
1007.71874696511
 20
746.9174988811207
 30
0.0
  0
SPLINE
  5
45B
330
1F
100
AcDbEntity
  8
SLD-0_0
  6
SLD-Solid
 62
   179
370
    15
100
AcDbSpline
210
0.0
220
0.0
230
1.0
 70
     8
 71
     3
 72
     8
 73
     4
 74
     0
 42
0.00000001
 43
0.00000001
 40
0.4975467515909248
 40
0.4975467515909248
 40
0.4975467515909248
 40
0.4975467515909248
 40
0.7280739987634568
 40
0.7280739987634568
 40
0.7280739987634568
 40
0.7280739987634568
 10
1007.71874696511
 20
746.9174988811207
 30
0.0
 10
1008.712828395825
 20
746.9173035515919
 30
0.0
 10
1009.642315980884
 20
746.917140098326
 30
0.0
 10
1010.484253471076
 20
746.9170220439623
 30
0.0
  0
SPLINE
  5
45C
330
1F
100
AcDbEntity
  8
SLD-0_0
  6
SLD-Solid
 62
   179
370
    15
100
AcDbSpline
210
0.0
220
0.0
230
1.0
 70
     8
 71
     3
 72
     8
 73
     4
 74
     0
 42
0.00000001
 43
0.00000001
 40
0.7280739987634568
 40
0.7280739987634568
 40
0.7280739987634568
 40
0.7280739987634568
 40
0.9586582631378623
 40
0.9586582631378623
 40
0.9586582631378623
 40
0.9586582631378623
 10
1010.484253471076
 20
746.9170220439623
 30
0.0
 10
1011.326399200947
 20
746.9169039604001
 30
0.0
 10
1012.080951522385
 20
746.9168312982005
 30
0.0
 10
1012.710576360405
 20
746.9168730323506
 30
0.0
  0
SPLINE
  5
45D
330
1F
100
AcDbEntity
  8
SLD-0_0
  6
SLD-Solid
 62
   179
370
    15
100
AcDbSpline
210
0.0
220
0.0
230
1.0
 70
     8
 71
     3
 72
     8
 73
     4
 74
     0
 42
0.00000001
 43
0.00000001
 40
0.9586582631378623
 40
0.9586582631378623
 40
0.9586582631378623
 40
0.9586582631378623
 40
1.0
 40
1.0
 40
1.0
 40
1.0
 10
1012.710576360405
 20
746.9168730323506
 30
0.0
 10
1012.823462573373
 20
746.9168805149178
 30
0.0
 10
1012.932332949173
 20
746.9168916747954
 30
0.0
 10
1013.041203324973
 20
746.9169028346729
 30
0.0
  0
SPLINE
  5
45E
330
1F
100
AcDbEntity
  8
SLD-0_0
  6
SLD-Solid
 62
   179
370
    15
100
AcDbSpline
210
0.0
220
0.0
230
1.0
 70
     8
 71
     3
 72
     8
 73
     4
 74
     0
 42
0.00000001
 43
0.00000001
 40
0.0
 40
0.0
 40
0.0
 40
0.0
 40
0.8369624606379122
 40
0.8369624606379122
 40
0.8369624606379122
 40
0.8369624606379122
 10
999.5898357083199
 20
746.7698879783344
 30
0.0
 10
999.6770244519182
 20
746.8246623665673
 30
0.0
 10
999.7642131955165
 20
746.8794367548
 30
0.0
 10
999.8714974572061
 20
746.9089754169179
 30
0.0
  0
SPLINE
  5
45F
330
1F
100
AcDbEntity
  8
SLD-0_0
  6
SLD-Solid
 62
   179
370
    15
100
AcDbSpline
210
0.0
220
0.0
230
1.0
 70
     8
 71
     3
 72
     8
 73
     4
 74
     0
 42
0.00000001
 43
0.00000001
 40
0.8369624606379122
 40
0.8369624606379122
 40
0.8369624606379122
 40
0.8369624606379122
 40
0.9999883359209791
 40
0.9999883359209791
 40
0.9999883359209791
 40
0.9999883359209791
 10
999.8714974572061
 20
746.9089754169179
 30
0.0
 10
999.8923945840052
 20
746.9147290396584
 30
0.0
 10
999.9140541414242
 20
746.919525210582
 30
0.0
 10
999.9140551735758
 20
746.9195254390431
 30
0.0
  0
SPLINE
  5
460
330
1F
100
AcDbEntity
  8
SLD-0_0
  6
SLD-Solid
 62
   179
370
    15
100
AcDbSpline
210
0.0
220
0.0
230
1.0
 70
     8
 71
     3
 72
     9
 73
     5
 74
     0
 42
0.00000001
 43
0.00000001
 40
0.0
 40
0.0
 40
0.0
 40
0.0
 40
0.0648055496372322
 40
1.0
 40
1.0
 40
1.0
 40
1.0
 10
1020.342623298347
 20
773.0588145797443
 30
0.0
 10
1020.381494335725
 20
773.01690293739
 30
0.0
 10
1020.98130465438
 20
772.3701737206941
 30
0.0
 10
1021.184531602045
 20
771.4748225453455
 30
0.0
 10
1021.374588315666
 20
770.6374950950336
 30
0.0
  0
SPLINE
  5
461
330
1F
100
AcDbEntity
  8
SLD-0_0
  6
SLD-Solid
 62
   179
370
    15
100
AcDbSpline
210
0.0
220
0.0
230
1.0
 70
     8
 71
     3
 72
    11
 73
     7
 74
     0
 42
0.00000001
 43
0.00000001
 40
0.0
 40
0.0
 40
0.0
 40
0.0
 40
0.271636393708778
 40
0.5432803465857547
 40
0.8149210151671915
 40
1.0
 40
1.0
 40
1.0
 40
1.0
 10
913.3094897915719
 20
807.8184254710865
 30
0.0
 10
913.3402076124765
 20
807.9166910330906
 30
0.0
 10
913.4016441091093
 20
808.1132248916584
 30
0.0
 10
913.8771587949216
 20
808.4080731823093
 30
0.0
 10
914.4778262622319
 20
808.6715505906777
 30
0.0
 10
914.9273339986081
 20
808.8367798824789
 30
0.0
 10
915.1094904591439
 20
808.9037366454792
 30
0.0
  0
SPLINE
  5
462
330
1F
100
AcDbEntity
  8
SLD-0_0
  6
SLD-Solid
 62
   179
370
    15
100
AcDbSpline
210
0.0
220
0.0
230
1.0
 70
     8
 71
     3
 72
    12
 73
     8
 74
     0
 42
0.00000001
 43
0.00000001
 40
0.0
 40
0.0
 40
0.0
 40
0.0
 40
0.1622296814324842
 40
0.4106808788203877
 40
0.6591244467019878
 40
0.9075747416290323
 40
0.9999999999999999
 40
0.9999999999999999
 40
0.9999999999999999
 40
0.9999999999999999
 10
915.1094904591439
 20
290.0326788668823
 30
0.0
 10
914.9498233782215
 20
290.0914133771843
 30
0.0
 10
914.5456296663625
 20
290.2400985012312
 30
0.0
 10
913.9807856834392
 20
290.4787592489163
 30
0.0
 10
913.5153677983054
 20
290.7484710500221
 30
0.0
 10
913.3269019805185
 20
290.9622647755
 30
0.0
 10
913.3132038996899
 20
291.0851071491692
 30
0.0
 10
913.3094897915719
 20
291.1184147243691
 30
0.0
  0
SPLINE
  5
463
330
1F
100
AcDbEntity
  8
SLD-0_0
  6
SLD-Solid
 62
   179
370
    15
100
AcDbSpline
210
0.0
220
0.0
230
1.0
 70
     8
 71
     3
 72
    10
 73
     6
 74
     0
 42
0.00000001
 43
0.00000001
 40
0.0
 40
0.0
 40
0.0
 40
0.0
 40
0.2943309414915838
 40
0.9095205765651353
 40
1.0
 40
1.0
 40
1.0
 40
1.0
 10
915.1094904591439
 20
809.0185351913166
 30
0.0
 10
915.032525933213
 20
809.0068463655354
 30
0.0
 10
914.7946956200121
 20
808.9707263860657
 30
0.0
 10
914.5468174451365
 20
808.8185719211001
 30
0.0
 10
914.4465756004687
 20
808.6605194707078
 30
0.0
 10
914.4337227990029
 20
808.6402543132496
 30
0.0
  0
SPLINE
  5
464
330
1F
100
AcDbEntity
  8
SLD-0_0
  6
SLD-Solid
 62
   179
370
    15
100
AcDbSpline
210
0.0
220
0.0
230
1.0
 70
     8
 71
     3
 72
    12
 73
     8
 74
     0
 42
0.00000001
 43
0.00000001
 40
0.0
 40
0.0
 40
0.0
 40
0.0
 40
0.162231694377321
 40
0.4106814186849509
 40
0.6591337498093406
 40
0.9075773825139513
 40
1.0
 40
1.0
 40
1.0
 40
1.0
 10
915.1094904591439
 20
809.82301908185
 30
0.0
 10
914.9498242017086
 20
809.8038892901734
 30
0.0
 10
914.5456370583067
 20
809.755463179511
 30
0.0
 10
913.9807691180858
 20
809.3882847703865
 30
0.0
 10
913.515384122167
 20
808.8111137395628
 30
0.0
 10
913.3269011404072
 20
808.2446511382088
 30
0.0
 10
913.313203716746
 20
807.9093414736287
 30
0.0
 10
913.3094897915719
 20
807.8184254710865
 30
0.0
  0
SPLINE
  5
465
330
1F
100
AcDbEntity
  8
SLD-0_0
  6
SLD-Solid
 62
   179
370
    15
100
AcDbSpline
210
0.0
220
0.0
230
1.0
 70
     8
 71
     3
 72
    10
 73
     6
 74
     0
 42
0.00000001
 43
0.00000001
 40
0.0
 40
0.0
 40
0.0
 40
0.0
 40
0.0939169815327622
 40
0.7071991075318415
 40
1.0
 40
1.0
 40
1.0
 40
1.0
 10
914.434110229194
 20
290.2966343109799
 30
0.0
 10
914.4475016279988
 20
290.2756346514865
 30
0.0
 10
914.5483394650844
 20
290.1175062682083
 30
0.0
 10
914.796010858026
 20
289.9656402304836
 30
0.0
 10
915.0329299964164
 20
289.9297417060694
 30
0.0
 10
915.1094904591439
 20
289.9181410913658
 30
0.0
  0
SPLINE
  5
466
330
1F
100
AcDbEntity
  8
SLD-0_0
  6
SLD-Solid
 62
   179
370
    15
100
AcDbSpline
210
0.0
220
0.0
230
1.0
 70
     8
 71
     3
 72
    11
 73
     7
 74
     0
 42
0.00000001
 43
0.00000001
 40
0.0
 40
0.0
 40
0.0
 40
0.0
 40
0.2716389203561014
 40
0.5432810301584633
 40
0.8149198556875689
 40
0.9999999999999999
 40
0.9999999999999999
 40
0.9999999999999999
 40
0.9999999999999999
 10
913.3094897915719
 20
291.1184147243691
 30
0.0
 10
913.3402069634169
 20
290.8494969548096
 30
0.0
 10
913.4016416677728
 20
290.3116582581948
 30
0.0
 10
913.8771579065908
 20
289.6384144285511
 30
0.0
 10
914.477831238617
 20
289.1998812333764
 30
0.0
 10
914.9273344275863
 20
289.1417140406274
 30
0.0
 10
915.1094904591439
 20
289.1181424503517
 30
0.0
  0
SPLINE
  5
467
330
1F
100
AcDbEntity
  8
SLD-0_0
  6
SLD-Solid
 62
   179
370
    15
100
AcDbSpline
210
0.0
220
0.0
230
1.0
 70
     8
 71
     3
 72
    12
 73
     8
 74
     0
 42
0.00000001
 43
0.00000001
 40
0.0
 40
0.0
 40
0.0
 40
0.0
 40
0.2353678380672214
 40
0.5035736278733383
 40
0.7398167285218912
 40
0.9425348321891335
 40
1.0
 40
1.0
 40
1.0
 40
1.0
 10
965.1094725777505
 20
289.5184137170506
 30
0.0
 10
965.0861971780415
 20
289.3767348125567
 30
0.0
 10
965.0363990511273
 20
289.0736103053387
 30
0.0
 10
964.6251246013553
 20
288.6628507325613
 30
0.0
 10
963.9861080383953
 20
288.4072627123178
 30
0.0
 10
963.4260897398763
 20
288.3058030629274
 30
0.0
 10
963.1258108779541
 20
288.2809702002579
 30
0.0
 10
963.0594900299905
 20
288.27548551013
 30
0.0
  0
SPLINE
  5
468
330
1F
100
AcDbEntity
  8
SLD-0_0
  6
SLD-Solid
 62
   179
370
    15
100
AcDbSpline
210
0.0
220
0.0
230
1.0
 70
     8
 71
     3
 72
    12
 73
     8
 74
     0
 42
0.00000001
 43
0.00000001
 40
0.0
 40
0.0
 40
0.0
 40
0.0
 40
0.196413509987569
 40
0.3931466875034956
 40
0.5915349648952087
 40
0.8446452407025613
 40
1.0
 40
1.0
 40
1.0
 40
1.0
 10
963.0594900299905
 20
810.6613286082935
 30
0.0
 10
963.2859692977031
 20
810.6305603724813
 30
0.0
 10
963.7392964333724
 20
810.5689738248418
 30
0.0
 10
964.3365552485636
 20
810.4028719547946
 30
0.0
 10
964.8151126450089
 20
810.1113464214975
 30
0.0
 10
965.0711347194731
 20
809.7514103982985
 30
0.0
 10
965.0989089742661
 20
809.5101740821387
 30
0.0
 10
965.1094725777505
 20
809.4184227531147
 30
0.0
  0
SPLINE
  5
469
330
1F
100
AcDbEntity
  8
SLD-0_0
  6
SLD-Solid
 62
   179
370
    15
100
AcDbSpline
210
0.0
220
0.0
230
1.0
 70
     8
 71
     3
 72
    11
 73
     7
 74
     0
 42
0.00000001
 43
0.00000001
 40
0.0
 40
0.0
 40
0.0
 40
0.0
 40
0.2499972725486963
 40
0.4999984279344617
 40
0.7500027274513037
 40
0.9999999999999999
 40
0.9999999999999999
 40
0.9999999999999999
 40
0.9999999999999999
 10
965.1094725777505
 20
809.4184227531147
 30
0.0
 10
965.0786580433978
 20
809.6870432222054
 30
0.0
 10
965.0170284960957
 20
810.2242883324706
 30
0.0
 10
964.5429668919103
 20
810.90190935034
 30
0.0
 10
963.8653620644023
 20
811.3759577011218
 30
0.0
 10
963.3281115246406
 20
811.4375897230136
 30
0.0
 10
963.0594900299905
 20
811.4684053008747
 30
0.0
  0
SPLINE
  5
46A
330
1F
100
AcDbEntity
  8
SLD-0_0
  6
SLD-Solid
 62
   179
370
    15
100
AcDbSpline
210
0.0
220
0.0
230
1.0
 70
     8
 71
     3
 72
    11
 73
     7
 74
     0
 42
0.00000001
 43
0.00000001
 40
0.0
 40
0.0
 40
0.0
 40
0.0
 40
0.2499964283507227
 40
0.4999996862688217
 40
0.7499998000689435
 40
1.0
 40
1.0
 40
1.0
 40
1.0
 10
963.0594900299905
 20
287.4684125428391
 30
0.0
 10
963.3281114803058
 20
287.4992296490445
 30
0.0
 10
963.865361719314
 20
287.560864703337
 30
0.0
 10
964.5429669058567
 20
288.0349120804722
 30
0.0
 10
965.0170311157812
 20
288.7125364150337
 30
0.0
 10
965.0786587535554
 20
289.2497879188623
 30
0.0
 10
965.1094725777505
 20
289.5184137170506
 30
0.0
  0
SPLINE
  5
46B
330
1F
100
AcDbEntity
  8
SLD-0_0
  6
SLD-Solid
 62
   179
370
    15
100
AcDbSpline
210
0.0
220
0.0
230
1.0
 70
     8
 71
     3
 72
    11
 73
     7
 74
     0
 42
0.00000001
 43
0.00000001
 40
0.0
 40
0.0
 40
0.0
 40
0.0
 40
0.2499946941838061
 40
0.4999933226068626
 40
0.7499972627829644
 40
1.0
 40
1.0
 40
1.0
 40
1.0
 10
198.3094862152931
 20
282.5391270463658
 30
0.0
 10
198.3403005528395
 20
282.6374006828362
 30
0.0
 10
198.4019297128664
 20
282.8339495023379
 30
0.0
 10
198.875995743667
 20
283.1287669815711
 30
0.0
 10
199.5535988867426
 20
283.4235942300429
 30
0.0
 10
200.0908657700322
 20
283.620139830188
 30
0.0
 10
200.3594985653756
 20
283.7184123938275
 30
0.0
  0
SPLINE
  5
46C
330
1F
100
AcDbEntity
  8
SLD-0_0
  6
SLD-Solid
 62
   179
370
    15
100
AcDbSpline
210
0.0
220
0.0
230
1.0
 70
     8
 71
     3
 72
    11
 73
     7
 74
     0
 42
0.00000001
 43
0.00000001
 40
0.0
 40
0.0
 40
0.0
 40
0.0
 40
0.2500014148018797
 40
0.5000093223060874
 40
0.7500066282860464
 40
0.9999999999999999
 40
0.9999999999999999
 40
0.9999999999999999
 40
0.9999999999999999
 10
200.3594985653756
 20
962.7184100692463
 30
0.0
 10
200.0908642785229
 20
962.8166724730893
 30
0.0
 10
199.5535887282073
 20
963.013199832715
 30
0.0
 10
198.876004536374
 20
963.3080921520866
 30
0.0
 10
198.4019283506824
 20
963.6028763120639
 30
0.0
 10
198.3403000987786
 20
963.7994179302805
 30
0.0
 10
198.3094862152932
 20
963.8976879661274
 30
0.0
  0
SPLINE
  5
46D
330
1F
100
AcDbEntity
  8
SLD-0_0
  6
SLD-Solid
 62
   179
370
    15
100
AcDbSpline
210
0.0
220
0.0
230
1.0
 70
     8
 71
     3
 72
    12
 73
     8
 74
     0
 42
0.00000001
 43
0.00000001
 40
0.0
 40
0.0
 40
0.0
 40
0.0
 40
0.2286702072167748
 40
0.4574122734465972
 40
0.686146747836819
 40
0.9148963453662461
 40
1.0
 40
1.0
 40
1.0
 40
1.0
 10
199.1801908661721
 20
964.7683926170063
 30
0.0
 10
199.2701150434063
 20
964.7426727238006
 30
0.0
 10
199.4499916563118
 20
964.6912248549804
 30
0.0
 10
199.7198062586396
 20
964.2915425040973
 30
0.0
 10
199.9895469094993
 20
963.7102462418459
 30
0.0
 10
200.2033519923998
 20
963.1447302950512
 30
0.0
 10
200.3261900957328
 20
962.8093507413897
 30
0.0
 10
200.3594985653756
 20
962.7184100692463
 30
0.0
  0
SPLINE
  5
46E
330
1F
100
AcDbEntity
  8
SLD-0_0
  6
SLD-Solid
 62
   179
370
    15
100
AcDbSpline
210
0.0
220
0.0
230
1.0
 70
     8
 71
     3
 72
    11
 73
     7
 74
     0
 42
0.00000001
 43
0.00000001
 40
0.0
 40
0.0
 40
0.0
 40
0.0
 40
0.2500048207529642
 40
0.5000100888156127
 40
0.7500032222500517
 40
1.0
 40
1.0
 40
1.0
 40
1.0
 10
903.8594713856576
 20
962.7184100692463
 30
0.0
 10
903.9577490371851
 20
962.9870420996305
 30
0.0
 10
904.1543045160789
 20
963.5243066410363
 30
0.0
 10
904.4491415768525
 20
964.201913922679
 30
0.0
 10
904.7439382133604
 20
964.675945341668
 30
0.0
 10
904.9404983167999
 20
964.737576708821
 30
0.0
 10
905.0387790848611
 20
964.7683926170063
 30
0.0
  0
SPLINE
  5
46F
330
1F
100
AcDbEntity
  8
SLD-0_0
  6
SLD-Solid
 62
   179
370
    15
100
AcDbSpline
210
0.0
220
0.0
230
1.0
 70
     8
 71
     3
 72
    11
 73
     7
 74
     0
 42
0.00000001
 43
0.00000001
 40
0.0
 40
0.0
 40
0.0
 40
0.0
 40
0.2506713724126878
 40
0.5014901308149764
 40
0.7522960898889224
 40
1.0
 40
1.0
 40
1.0
 40
1.0
 10
199.1801908661721
 20
963.9684386794758
 30
0.0
 10
199.2787400099718
 20
963.9495460873901
 30
0.0
 10
199.475896241017
 20
963.9117497950363
 30
0.0
 10
199.7716041337968
 20
963.6209681873505
 30
0.0
 10
200.0661981087882
 20
963.2072822039001
 30
0.0
 10
200.2621381681947
 20
962.880690025283
 30
0.0
 10
200.3594985653755
 20
962.7184100692464
 30
0.0
  0
SPLINE
  5
470
330
1F
100
AcDbEntity
  8
SLD-0_0
  6
SLD-Solid
 62
   179
370
    15
100
AcDbSpline
210
0.0
220
0.0
230
1.0
 70
     8
 71
     3
 72
    11
 73
     7
 74
     0
 42
0.00000001
 43
0.00000001
 40
0.0
 40
0.0
 40
0.0
 40
0.0
 40
0.2499968457402036
 40
0.5000114143847725
 40
0.7500031542597964
 40
0.9999999999999999
 40
0.9999999999999999
 40
0.9999999999999999
 40
0.9999999999999999
 10
200.3594985653756
 20
962.7184100692463
 30
0.0
 10
200.1957003975213
 20
962.8166740624958
 30
0.0
 10
199.8680924497492
 20
963.0132090151765
 30
0.0
 10
199.4549183297786
 20
963.3080815180011
 30
0.0
 10
199.1658462264877
 20
963.6028839874734
 30
0.0
 10
199.1282621735289
 20
963.7994193042391
 30
0.0
 10
199.1094699551461
 20
963.8976879661274
 30
0.0
  0
SPLINE
  5
471
330
1F
100
AcDbEntity
  8
SLD-0_0
  6
SLD-Solid
 62
   179
370
    15
100
AcDbSpline
210
0.0
220
0.0
230
1.0
 70
     8
 71
     3
 72
    11
 73
     7
 74
     0
 42
0.00000001
 43
0.00000001
 40
0.0
 40
0.0
 40
0.0
 40
0.0
 40
0.2499966441483819
 40
0.499994199901563
 40
0.7499993343581075
 40
1.0
 40
1.0
 40
1.0
 40
1.0
 10
905.0387790848611
 20
281.6684149449063
 30
0.0
 10
904.9404977374397
 20
281.6992286130715
 30
0.0
 10
904.7439346842172
 20
281.7608560617629
 30
0.0
 10
904.4491449479021
 20
282.2349274381151
 30
0.0
 10
904.1543068876539
 20
282.9125254601875
 30
0.0
 10
903.9577493007434
 20
283.4497850165378
 30
0.0
 10
903.8594713856576
 20
283.7184123938275
 30
0.0
  0
SPLINE
  5
472
330
1F
100
AcDbEntity
  8
SLD-0_0
  6
SLD-Solid
 62
   179
370
    15
100
AcDbSpline
210
0.0
220
0.0
230
1.0
 70
     8
 71
     3
 72
    12
 73
     8
 74
     0
 42
0.00000001
 43
0.00000001
 40
0.0
 40
0.0
 40
0.0
 40
0.0
 40
0.2286694588259313
 40
0.4574136538938046
 40
0.6861564566083369
 40
0.9149045962652723
 40
0.9999999999999999
 40
0.9999999999999999
 40
0.9999999999999999
 40
0.9999999999999999
 10
200.3594985653756
 20
283.7184123938275
 30
0.0
 10
200.2695785642823
 20
283.4729412039378
 30
0.0
 10
200.0897091734623
 20
282.9819185965918
 30
0.0
 10
199.8198272024223
 20
282.3387561622572
 30
0.0
 10
199.5501618392242
 20
281.8745799012583
 30
0.0
 10
199.3363462645655
 20
281.6858047400484
 30
0.0
 10
199.2134994883746
 20
281.6721242634602
 30
0.0
 10
199.1801908661721
 20
281.6684149449063
 30
0.0
  0
SPLINE
  5
473
330
1F
100
AcDbEntity
  8
SLD-0_0
  6
SLD-Solid
 62
   179
370
    15
100
AcDbSpline
210
0.0
220
0.0
230
1.0
 70
     8
 71
     3
 72
    11
 73
     7
 74
     0
 42
0.00000001
 43
0.00000001
 40
0.0
 40
0.0
 40
0.0
 40
0.0
 40
0.2506738542816726
 40
0.5014888641659629
 40
0.7523035334253609
 40
1.0
 40
1.0
 40
1.0
 40
1.0
 10
200.3594985653756
 20
283.7184123938275
 30
0.0
 10
200.2609505416141
 20
283.5541759239706
 30
0.0
 10
200.0637990012447
 20
283.2256105019438
 30
0.0
 10
199.7680742971987
 20
282.8115507064669
 30
0.0
 10
199.4735039337916
 20
282.5240004138717
 30
0.0
 10
199.2775533296675
 20
282.486865101058
 30
0.0
 10
199.1801908661721
 20
282.4684135859204
 30
0.0
  0
SPLINE
  5
474
330
1F
100
AcDbEntity
  8
SLD-0_0
  6
SLD-Solid
 62
   179
370
    15
100
AcDbSpline
210
0.0
220
0.0
230
1.0
 70
     8
 71
     3
 72
    11
 73
     7
 74
     0
 42
0.00000001
 43
0.00000001
 40
0.0
 40
0.0
 40
0.0
 40
0.0
 40
0.2499998045692243
 40
0.4999945033509595
 40
0.7500001954307757
 40
1.0
 40
1.0
 40
1.0
 40
1.0
 10
199.1094699551461
 20
282.5391270463658
 30
0.0
 10
199.128262793057
 20
282.6373995385651
 30
0.0
 10
199.1658480850699
 20
282.8339425159284
 30
0.0
 10
199.4549063339433
 20
283.1287722854374
 30
0.0
 10
199.8681063090021
 20
283.4235902398519
 30
0.0
 10
200.1957024323873
 20
283.6201391139494
 30
0.0
 10
200.3594985653756
 20
283.7184123938275
 30
0.0
  0
SPLINE
  5
475
330
1F
100
AcDbEntity
  8
SLD-0_0
  6
SLD-Solid
 62
   179
370
    15
100
AcDbSpline
210
0.0
220
0.0
230
1.0
 70
     8
 71
     3
 72
    12
 73
     8
 74
     0
 42
0.00000001
 43
0.00000001
 40
0.0
 40
0.0
 40
0.0
 40
0.0
 40
0.2286718356165671
 40
0.4574098618713639
 40
0.6861543020517307
 40
0.9148992873350307
 40
1.0
 40
1.0
 40
1.0
 40
1.0
 10
905.90948373574
 20
963.8976879661274
 30
0.0
 10
905.8837478717392
 20
963.8077662576758
 30
0.0
 10
905.8322686943145
 20
963.6278968123146
 30
0.0
 10
905.4326495622543
 20
963.358044115027
 30
0.0
 10
904.8512664599474
 20
963.0884055341438
 30
0.0
 10
904.2858003771552
 20
962.8745000061286
 30
0.0
 10
903.950413176437
 20
962.7517061824965
 30
0.0
 10
903.8594713856576
 20
962.7184100692463
 30
0.0
  0
SPLINE
  5
476
330
1F
100
AcDbEntity
  8
SLD-0_0
  6
SLD-Solid
 62
   179
370
    15
100
AcDbSpline
210
0.0
220
0.0
230
1.0
 70
     8
 71
     3
 72
    12
 73
     8
 74
     0
 42
0.00000001
 43
0.00000001
 40
0.0
 40
0.0
 40
0.0
 40
0.0
 40
0.2286705583794082
 40
0.4574165989858435
 40
0.6861569222448327
 40
0.9149054072509909
 40
0.9999999999999999
 40
0.9999999999999999
 40
0.9999999999999999
 40
0.9999999999999999
 10
903.8594713856576
 20
283.7184123938275
 30
0.0
 10
904.1049436279837
 20
283.6284931498294
 30
0.0
 10
904.5959691409575
 20
283.4486249802476
 30
0.0
 10
905.2391576941743
 20
283.1787774829216
 30
0.0
 10
905.7032919075023
 20
282.9090724940473
 30
0.0
 10
905.8920957739105
 20
282.6952717840828
 30
0.0
 10
905.9057748317181
 20
282.5724331837609
 30
0.0
 10
905.90948373574
 20
282.5391270463658
 30
0.0
  0
SPLINE
  5
477
330
1F
100
AcDbEntity
  8
SLD-0_0
  6
SLD-Solid
 62
   179
370
    15
100
AcDbSpline
210
0.0
220
0.0
230
1.0
 70
     8
 71
     3
 72
    11
 73
     7
 74
     0
 42
0.00000001
 43
0.00000001
 40
0.0
 40
0.0
 40
0.0
 40
0.0
 40
0.2500142531061255
 40
0.5000031253602635
 40
0.7499945367384985
 40
1.0
 40
1.0
 40
1.0
 40
1.0
 10
903.8594713856576
 20
962.7184100692463
 30
0.0
 10
903.9577459782437
 20
962.8822204595748
 30
0.0
 10
904.1542851868127
 20
963.2098246105908
 30
0.0
 10
904.4491535878607
 20
963.6229674381997
 30
0.0
 10
904.7439438118635
 20
963.9120294716363
 30
0.0
 10
904.9404988192049
 20
963.9496352579057
 30
0.0
 10
905.0387790848611
 20
963.9684386794758
 30
0.0
  0
SPLINE
  5
478
330
1F
100
AcDbEntity
  8
SLD-0_0
  6
SLD-Solid
 62
   179
370
    15
100
AcDbSpline
210
0.0
220
0.0
230
1.0
 70
     8
 71
     3
 72
    11
 73
     7
 74
     0
 42
0.00000001
 43
0.00000001
 40
0.0
 40
0.0
 40
0.0
 40
0.0
 40
0.2506571272697355
 40
0.5014778871769523
 40
0.7523014002598989
 40
1.0
 40
1.0
 40
1.0
 40
1.0
 10
905.1094701935647
 20
963.8976879661274
 30
0.0
 10
905.0905850587596
 20
963.799165198762
 30
0.0
 10
905.0528024606572
 20
963.6020553469277
 30
0.0
 10
904.762061685126
 20
963.3062904892786
 30
0.0
 10
904.348357563627
 20
963.0116834431852
 30
0.0
 10
904.0217510164379
 20
962.8157584848594
 30
0.0
 10
903.8594713856576
 20
962.7184100692463
 30
0.0
  0
SPLINE
  5
479
330
1F
100
AcDbEntity
  8
SLD-0_0
  6
SLD-Solid
 62
   179
370
    15
100
AcDbSpline
210
0.0
220
0.0
230
1.0
 70
     8
 71
     3
 72
    11
 73
     7
 74
     0
 42
0.00000001
 43
0.00000001
 40
0.0
 40
0.0
 40
0.0
 40
0.0
 40
0.2506695487637148
 40
0.5014870168475628
 40
0.7523072381823676
 40
1.0
 40
1.0
 40
1.0
 40
1.0
 10
903.8594713856576
 20
283.7184123938275
 30
0.0
 10
904.0237092860299
 20
283.6198737862615
 30
0.0
 10
904.3522820030485
 20
283.4227384238042
 30
0.0
 10
904.7663284120017
 20
283.1270000386827
 30
0.0
 10
905.0539034705223
 20
282.8324263937652
 30
0.0
 10
905.0910255820238
 20
282.6364837417361
 30
0.0
 10
905.1094701935647
 20
282.5391270463658
 30
0.0
  0
SPLINE
  5
47A
330
1F
100
AcDbEntity
  8
SLD-0_0
  6
SLD-Solid
 62
   179
370
    15
100
AcDbSpline
210
0.0
220
0.0
230
1.0
 70
     8
 71
     3
 72
    11
 73
     7
 74
     0
 42
0.00000001
 43
0.00000001
 40
0.0
 40
0.0
 40
0.0
 40
0.0
 40
0.2500033573637082
 40
0.499995391653693
 40
0.7499988401751978
 40
1.0
 40
1.0
 40
1.0
 40
1.0
 10
905.0387790848611
 20
282.4684135859204
 30
0.0
 10
904.9404991179691
 20
282.4872022201118
 30
0.0
 10
904.7439436354507
 20
282.5247786375259
 30
0.0
 10
904.4491413007228
 20
282.8138477144235
 30
0.0
 10
904.1543059226876
 20
283.2270282813201
 30
0.0
 10
903.9577492647647
 20
283.5546181894897
 30
0.0
 10
903.8594713856576
 20
283.7184123938275
 30
0.0
  0
SPLINE
  5
47B
330
1F
100
AcDbEntity
  8
SLD-0_0
  6
SLD-Solid
 62
   179
370
    15
100
AcDbSpline
210
0.0
220
0.0
230
1.0
 70
     8
 71
     3
 72
    10
 73
     6
 74
     0
 42
0.00000001
 43
0.00000001
 40
0.0
 40
0.0
 40
0.0
 40
0.0
 40
0.3454275345362773
 40
0.6910503352734709
 40
1.0
 40
1.0
 40
1.0
 40
1.0
 10
905.2387824704049
 20
282.4684135859204
 30
0.0
 10
905.140234418962
 20
282.4877156683529
 30
0.0
 10
904.9430826079993
 20
282.5263307444626
 30
0.0
 10
904.657819256896
 20
282.80085123735
 30
0.0
 10
904.4710852117428
 20
283.072708597741
 30
0.0
 10
904.3829491783974
 20
283.2010217254353
 30
0.0
  0
SPLINE
  5
47C
330
1F
100
AcDbEntity
  8
SLD-0_0
  6
SLD-Solid
 62
   179
370
    15
100
AcDbSpline
210
0.0
220
0.0
230
1.0
 70
     8
 71
     3
 72
    16
 73
    12
 74
     0
 42
0.00000001
 43
0.00000001
 40
0.0
 40
0.0
 40
0.0
 40
0.0
 40
0.0000602976546565
 40
0.1251216751377892
 40
0.2500913160394915
 40
0.3750592383834195
 40
0.5000251407260499
 40
0.6249874927872642
 40
0.7499530810734671
 40
0.8749138213599793
 40
1.0
 40
1.0
 40
1.0
 40
1.0
 10
940.8173611809609
 20
940.4987521712972
 30
0.0
 10
940.8173313653302
 20
940.4987521720153
 30
0.0
 10
940.7554619326756
 20
940.4987536621095
 30
0.0
 10
940.9754200601346
 20
940.4802149992029
 30
0.0
 10
941.491706419517
 20
940.4070790971497
 30
0.0
 10
942.329299160991
 20
940.315016738487
 30
0.0
 10
943.304313198202
 20
940.2335335601379
 30
0.0
 10
944.2865500468778
 20
940.1826784163657
 30
0.0
 10
945.1133138931259
 20
940.1643079783848
 30
0.0
 10
945.6923335535976
 20
940.1656233129811
 30
0.0
 10
945.76821885614
 20
940.1667347462742
 30
0.0
 10
945.806180541694
 20
940.1672907417011
 30
0.0
  0
SPLINE
  5
47D
330
1F
100
AcDbEntity
  8
SLD-0_0
  6
SLD-Solid
 62
   179
370
    15
100
AcDbSpline
210
0.0
220
0.0
230
1.0
 70
     8
 71
     3
 72
    12
 73
     8
 74
     0
 42
0.00000001
 43
0.00000001
 40
0.0
 40
0.0
 40
0.0
 40
0.0
 40
0.0304728997611197
 40
0.0888319552686727
 40
0.3925731023042398
 40
0.6962815936347994
 40
1.0
 40
1.0
 40
1.0
 40
1.0
 10
951.2909999539254
 20
934.5907993858052
 30
0.0
 10
951.2879534034392
 20
934.6009588621366
 30
0.0
 10
951.2790723636086
 20
934.6305748866735
 30
0.0
 10
951.2327464753354
 20
934.7606881342666
 30
0.0
 10
951.1120757365279
 20
934.9738048492823
 30
0.0
 10
950.8703945853471
 20
935.2204231404294
 30
0.0
 10
950.6725713075084
 20
935.3153794298731
 30
0.0
 10
950.5736580540536
 20
935.3628583495808
 30
0.0
  0
SPLINE
  5
47E
330
1F
100
AcDbEntity
  8
SLD-0_0
  6
SLD-Solid
 62
   179
370
    15
100
AcDbSpline
210
0.0
220
0.0
230
1.0
 70
     8
 71
     3
 72
    11
 73
     7
 74
     0
 42
0.00000001
 43
0.00000001
 40
0.0
 40
0.0
 40
0.0
 40
0.0
 40
0.3706291658721011
 40
0.7444646894634097
 40
0.9445831460740568
 40
1.0
 40
1.0
 40
1.0
 40
1.0
 10
950.5526772190926
 20
935.3852100913715
 30
0.0
 10
950.5538083055885
 20
935.3822458196306
 30
0.0
 10
950.5560802637465
 20
935.3762916318755
 30
0.0
 10
950.5624934688461
 20
935.3687969212534
 30
0.0
 10
950.5695432383893
 20
935.3644953002969
 30
0.0
 10
950.572924725379
 20
935.3631500814582
 30
0.0
 10
950.5736580540536
 20
935.3628583495807
 30
0.0
  0
SPLINE
  5
47F
330
1F
100
AcDbEntity
  8
SLD-0_0
  6
SLD-Solid
 62
   179
370
    15
100
AcDbSpline
210
0.0
220
0.0
230
1.0
 70
     8
 71
     3
 72
    12
 73
     8
 74
     0
 42
0.00000001
 43
0.00000001
 40
0.0
 40
0.0
 40
0.0
 40
0.0
 40
0.0304600051657303
 40
0.088771150384104
 40
0.3925432023478152
 40
0.6962549734620177
 40
1.0
 40
1.0
 40
1.0
 40
1.0
 10
965.3303375889657
 20
891.3821406905842
 30
0.0
 10
965.3338507622494
 20
891.3721390103879
 30
0.0
 10
965.3440893827684
 20
891.3429906024351
 30
0.0
 10
965.3830428326086
 20
891.2105178294291
 30
0.0
 10
965.4107038882204
 20
890.9671880571412
 30
0.0
 10
965.3601144300535
 20
890.6256203047118
 30
0.0
 10
965.2559046637558
 20
890.4325169357309
 30
0.0
 10
965.2037969281075
 20
890.3359599654865
 30
0.0
  0
SPLINE
  5
480
330
1F
100
AcDbEntity
  8
SLD-0_0
  6
SLD-Solid
 62
   179
370
    15
100
AcDbSpline
210
0.0
220
0.0
230
1.0
 70
     8
 71
     3
 72
    10
 73
     6
 74
     0
 42
0.00000001
 43
0.00000001
 40
0.0
 40
0.0
 40
0.0
 40
0.0
 40
0.2118347691863238
 40
0.4880401459743048
 40
1.0
 40
1.0
 40
1.0
 40
1.0
 10
965.2037969281075
 20
890.3359599654865
 30
0.0
 10
965.2023499338693
 20
890.3333820227908
 30
0.0
 10
965.1990162446835
 20
890.3274427733727
 30
0.0
 10
965.1972610016396
 20
890.3164089795257
 30
0.0
 10
965.1988926054851
 20
890.3098330506965
 30
0.0
 10
965.1999524285195
 20
890.305561596651
 30
0.0
  0
SPLINE
  5
481
330
1F
100
AcDbEntity
  8
SLD-0_0
  6
SLD-Solid
 62
   179
370
    15
100
AcDbSpline
210
0.0
220
0.0
230
1.0
 70
     8
 71
     3
 72
    12
 73
     8
 74
     0
 42
0.00000001
 43
0.00000001
 40
0.0
 40
0.0
 40
0.0
 40
0.0
 40
0.2239204079827161
 40
0.4478073778491646
 40
0.6716580748178252
 40
0.8955875267078576
 40
0.9999999999999999
 40
0.9999999999999999
 40
0.9999999999999999
 40
0.9999999999999999
 10
949.7987380673287
 20
939.8697443549825
 30
0.0
 10
949.7710325732278
 20
939.8727993226757
 30
0.0
 10
949.7156257222977
 20
939.8789088018631
 30
0.0
 10
949.6441290898781
 20
939.8870849127317
 30
0.0
 10
949.5921111560426
 20
939.8931392327431
 30
0.0
 10
949.5689112265446
 20
939.895913988303
 30
0.0
 10
949.56698264658
 20
939.8961376826401
 30
0.0
 10
949.5663693596719
 20
939.8962088172626
 30
0.0
  0
SPLINE
  5
482
330
1F
100
AcDbEntity
  8
SLD-0_0
  6
SLD-Solid
 62
   179
370
    15
100
AcDbSpline
210
0.0
220
0.0
230
1.0
 70
     8
 71
     3
 72
    11
 73
     7
 74
     0
 42
0.00000001
 43
0.00000001
 40
0.0
 40
0.0
 40
0.0
 40
0.0
 40
0.2933075229107153
 40
0.5866061602900463
 40
0.8804832094298076
 40
1.0
 40
1.0
 40
1.0
 40
1.0
 10
970.2464392830727
 20
937.5872440879535
 30
0.0
 10
970.3571271827246
 20
937.5639245684843
 30
0.0
 10
970.5784996288215
 20
937.5172862359929
 30
0.0
 10
970.8563442936111
 20
937.3126275552078
 30
0.0
 10
971.0189853624615
 20
937.0905873878096
 30
0.0
 10
971.0739763099501
 20
936.942375433141
 30
0.0
 10
971.0898748089669
 20
936.8995256965351
 30
0.0
  0
SPLINE
  5
483
330
1F
100
AcDbEntity
  8
SLD-0_0
  6
SLD-Solid
 62
   179
370
    15
100
AcDbSpline
210
0.0
220
0.0
230
1.0
 70
     8
 71
     3
 72
    15
 73
    11
 74
     0
 42
0.00000001
 43
0.00000001
 40
0.0
 40
0.0
 40
0.0
 40
0.0
 40
0.0013085430736308
 40
0.0031030129362258
 40
0.0059100794911989
 40
0.0102787181030853
 40
0.0184866589651456
 40
0.0492205109084157
 40
0.1106059192750328
 40
1.0
 40
1.0
 40
1.0
 40
1.0
 10
946.0773518730996
 20
910.3259869163227
 30
0.0
 10
946.0774371271942
 20
910.3260125079626
 30
0.0
 10
946.0776392944474
 20
910.3260731946842
 30
0.0
 10
946.0794345477501
 20
910.3266432642251
 30
0.0
 10
946.0834726970206
 20
910.3279875326035
 30
0.0
 10
946.0917371379393
 20
910.3305946825102
 30
0.0
 10
946.1171467571734
 20
910.3389739667163
 30
0.0
 10
946.1797203169122
 20
910.3591798903674
 30
0.0
 10
946.7991665193186
 20
910.560759125419
 30
0.0
 10
947.4090126311376
 20
910.7587859281226
 30
0.0
 10
947.9794850994942
 20
910.9440274779987
 30
0.0
  0
SPLINE
  5
484
330
1F
100
AcDbEntity
  8
SLD-0_0
  6
SLD-Solid
 62
   179
370
    15
100
AcDbSpline
210
0.0
220
0.0
230
1.0
 70
     8
 71
     3
 72
    15
 73
    11
 74
     0
 42
0.00000001
 43
0.00000001
 40
0.0
 40
0.0
 40
0.0
 40
0.0
 40
0.000009548318462
 40
0.125070738034513
 40
0.2501186678095352
 40
0.3751558746538028
 40
0.5001782934833672
 40
0.6252022938619303
 40
0.750223988517974
 40
0.9999999999999999
 40
0.9999999999999999
 40
0.9999999999999999
 40
0.9999999999999999
 10
940.8179274249601
 20
940.5087657516376
 30
0.0
 10
940.8179257721749
 20
940.5087659888165
 30
0.0
 10
940.9478056861647
 20
940.4901365672517
 30
0.0
 10
941.5006791324603
 20
940.4169840772876
 30
0.0
 10
942.3292102441839
 20
940.3248431939186
 30
0.0
 10
943.3074550705662
 20
940.2433531391189
 30
0.0
 10
944.2893166300465
 20
940.1925794299085
 30
0.0
 10
945.1162297256092
 20
940.1742486466022
 30
0.0
 10
945.6936651247245
 20
940.1756660620213
 30
0.0
 10
945.7691781668813
 20
940.1767191375686
 30
0.0
 10
945.8068659951089
 20
940.1772447173786
 30
0.0
  0
SPLINE
  5
485
330
1F
100
AcDbEntity
  8
SLD-0_0
  6
SLD-Solid
 62
   179
370
    15
100
AcDbSpline
210
0.0
220
0.0
230
1.0
 70
     8
 71
     3
 72
     9
 73
     5
 74
     0
 42
0.00000001
 43
0.00000001
 40
0.0
 40
0.0
 40
0.0
 40
0.0
 40
0.7433402745260027
 40
1.0
 40
1.0
 40
1.0
 40
1.0
 10
294.2891767670509
 20
996.1038060729694
 30
0.0
 10
294.3013324681239
 20
996.168814928666
 30
0.0
 10
294.3176852765072
 20
996.2562699716985
 30
0.0
 10
294.3655292521722
 20
996.2659497043214
 30
0.0
 10
294.377808873832
 20
996.268434101839
 30
0.0
  0
SPLINE
  5
486
330
1F
100
AcDbEntity
  8
SLD-0_0
  6
SLD-Solid
 62
   179
370
    15
100
AcDbSpline
210
0.0
220
0.0
230
1.0
 70
     8
 71
     3
 72
     9
 73
     5
 74
     0
 42
0.00000001
 43
0.00000001
 40
0.0
 40
0.0
 40
0.0
 40
0.0
 40
0.7522587009675934
 40
0.9999999999999999
 40
0.9999999999999999
 40
0.9999999999999999
 40
0.9999999999999999
 10
830.1411619831918
 20
996.268434101839
 30
0.0
 10
830.1734128837207
 20
996.2479537178197
 30
0.0
 10
830.2162849707934
 20
996.2207285305367
 30
0.0
 10
830.2271118298465
 20
996.127021239083
 30
0.0
 10
830.2297940899728
 20
996.1038060729695
 30
0.0
  0
SPLINE
  5
487
330
1F
100
AcDbEntity
  8
SLD-0_0
  6
SLD-Solid
 62
   179
370
    15
100
AcDbSpline
210
0.0
220
0.0
230
1.0
 70
     8
 71
     3
 72
    10
 73
     6
 74
     0
 42
0.00000001
 43
0.00000001
 40
0.0
 40
0.0
 40
0.0
 40
0.0
 40
0.3994128853960748
 40
0.994851676474831
 40
1.0
 40
1.0
 40
1.0
 40
1.0
 10
294.2891767670509
 20
996.1038060729694
 30
0.0
 10
294.2821208609369
 20
996.0235036728615
 30
0.0
 10
294.264546114895
 20
995.8234876486086
 30
0.0
 10
294.2394967124314
 20
995.5309058512078
 30
0.0
 10
294.2238500911291
 20
995.3570790368309
 30
0.0
 10
294.2237159659264
 20
995.3555889671039
 30
0.0
  0
SPLINE
  5
488
330
1F
100
AcDbEntity
  8
SLD-0_0
  6
SLD-Solid
 62
   179
370
    15
100
AcDbSpline
210
0.0
220
0.0
230
1.0
 70
     8
 71
     3
 72
    10
 73
     6
 74
     0
 42
0.00000001
 43
0.00000001
 40
0.0
 40
0.0
 40
0.0
 40
0.0
 40
0.0051475823741315
 40
0.60058681704673
 40
1.0
 40
1.0
 40
1.0
 40
1.0
 10
830.2952399899361
 20
995.3555889671039
 30
0.0
 10
830.2951108566876
 20
995.3570790379292
 30
0.0
 10
830.2800444194618
 20
995.5309309219931
 30
0.0
 10
830.2542681594992
 20
995.8234808248958
 30
0.0
 10
830.236805140095
 20
996.0235017180826
 30
0.0
 10
830.2297940899728
 20
996.1038060729694
 30
0.0
  0
SPLINE
  5
489
330
1F
100
AcDbEntity
  8
SLD-0_0
  6
SLD-Solid
 62
   179
370
    15
100
AcDbSpline
210
0.0
220
0.0
230
1.0
 70
     8
 71
     3
 72
    10
 73
     6
 74
     0
 42
0.00000001
 43
0.00000001
 40
0.0
 40
0.0
 40
0.0
 40
0.0
 40
0.2538648366441752
 40
0.6873558954907572
 40
1.0
 40
1.0
 40
1.0
 40
1.0
 10
352.6427051474449
 20
1018.707496697206
 30
0.0
 10
352.6495065987106
 20
1018.697200736979
 30
0.0
 10
352.6679219794589
 20
1018.669323741268
 30
0.0
 10
352.3126042400165
 20
1018.594573911228
 30
0.0
 10
351.8823945704692
 20
1018.520626867111
 30
0.0
 10
351.7021289517281
 20
1018.489641720552
 30
0.0
  0
SPLINE
  5
48A
330
1F
100
AcDbEntity
  8
SLD-0_0
  6
SLD-Solid
 62
   179
370
    15
100
AcDbSpline
210
0.0
220
0.0
230
1.0
 70
     8
 71
     3
 72
    10
 73
     6
 74
     0
 42
0.00000001
 43
0.00000001
 40
0.0
 40
0.0
 40
0.0
 40
0.0
 40
0.2538645784548365
 40
0.6873530667050658
 40
1.0
 40
1.0
 40
1.0
 40
1.0
 10
771.8762508084176
 20
1018.707496697206
 30
0.0
 10
771.8694561002177
 20
1018.697200779713
 30
0.0
 10
771.8510590337702
 20
1018.669323986082
 30
0.0
 10
772.2063456868642
 20
1018.594572986975
 30
0.0
 10
772.636569000663
 20
1018.5206267842
 30
0.0
 10
772.8168419052956
 20
1018.489641720552
 30
0.0
  0
SPLINE
  5
48B
330
1F
100
AcDbEntity
  8
SLD-0_0
  6
SLD-Solid
 62
   179
370
    15
100
AcDbSpline
210
0.0
220
0.0
230
1.0
 70
     8
 71
     3
 72
    10
 73
     6
 74
     0
 42
0.00000001
 43
0.00000001
 40
0.0
 40
0.0
 40
0.0
 40
0.0
 40
0.3720610675611988
 40
0.8045472241342976
 40
0.9999999999999999
 40
0.9999999999999999
 40
0.9999999999999999
 40
0.9999999999999999
 10
492.2067499210236
 20
1018.551570946474
 30
0.0
 10
491.9953308862903
 20
1018.582085025134
 30
0.0
 10
491.5381570179283
 20
1018.648068863335
 30
0.0
 10
491.2127405162353
 20
1018.703815575411
 30
0.0
 10
491.2494472651099
 20
1018.720986979838
 30
0.0
 10
491.260872637212
 20
1018.726331764955
 30
0.0
  0
SPLINE
  5
48C
330
1F
100
AcDbEntity
  8
SLD-0_0
  6
SLD-Solid
 62
   179
370
    15
100
AcDbSpline
210
0.0
220
0.0
230
1.0
 70
     8
 71
     3
 72
    10
 73
     6
 74
     0
 42
0.00000001
 43
0.00000001
 40
0.0
 40
0.0
 40
0.0
 40
0.0
 40
0.3720612258167451
 40
0.8045471409987898
 40
1.0
 40
1.0
 40
1.0
 40
1.0
 10
632.3122209360001
 20
1018.551570946474
 30
0.0
 10
632.5236403107536
 20
1018.582085019289
 30
0.0
 10
632.9808146726788
 20
1018.648068809967
 30
0.0
 10
633.3062261496591
 20
1018.703815598416
 30
0.0
 10
633.269519761947
 20
1018.720986982538
 30
0.0
 10
633.2580944945214
 20
1018.726331764955
 30
0.0
  0
SPLINE
  5
48D
330
1F
100
AcDbEntity
  8
SLD-0_0
  6
SLD-Solid
 62
   179
370
    15
100
AcDbSpline
210
0.0
220
0.0
230
1.0
 70
     8
 71
     3
 72
     9
 73
     5
 74
     0
 42
0.00000001
 43
0.00000001
 40
0.0
 40
0.0
 40
0.0
 40
0.0
 40
0.5599677956972555
 40
1.0
 40
1.0
 40
1.0
 40
1.0
 10
541.694804975122
 20
1027.78891997983
 30
0.0
 10
543.2332679868855
 20
1024.327394404419
 30
0.0
 10
545.9806813624136
 20
1018.145743241603
 30
0.0
 10
548.7300023237208
 20
1011.95977457985
 30
0.0
 10
549.9397920866606
 20
1009.237749153872
 30
0.0
  0
SPLINE
  5
48E
330
1F
100
AcDbEntity
  8
SLD-0_0
  6
SLD-Solid
 62
   179
370
    15
100
AcDbSpline
210
0.0
220
0.0
230
1.0
 70
     8
 71
     3
 72
     9
 73
     5
 74
     0
 42
0.00000001
 43
0.00000001
 40
0.0
 40
0.0
 40
0.0
 40
0.0
 40
0.5599678182774953
 40
1.0
 40
1.0
 40
1.0
 40
1.0
 10
582.8241644849179
 20
1027.78891997983
 30
0.0
 10
581.2857008060108
 20
1024.327394493304
 30
0.0
 10
578.5382863498738
 20
1018.145743738491
 30
0.0
 10
575.7889662357774
 20
1011.959774634687
 30
0.0
 10
574.579176907718
 20
1009.237749153872
 30
0.0
  0
SPLINE
  5
48F
330
1F
100
AcDbEntity
  8
SLD-0_0
  6
SLD-Solid
 62
   179
370
    15
100
AcDbSpline
210
0.0
220
0.0
230
1.0
 70
     8
 71
     3
 72
    14
 73
    10
 74
     0
 42
0.00000001
 43
0.00000001
 40
0.0
 40
0.0
 40
0.0
 40
0.0
 40
0.1883931234943587
 40
0.3596874365677866
 40
0.6003408605365261
 40
0.7898540517046583
 40
0.9055957134433943
 40
0.9965044580523404
 40
1.0
 40
1.0
 40
1.0
 40
1.0
 10
538.274752274446
 20
1027.349514538546
 30
0.0
 10
538.3030216026891
 20
1027.493887722687
 30
0.0
 10
538.3569944973505
 20
1027.769530588784
 30
0.0
 10
538.5946941886874
 20
1028.178267926406
 30
0.0
 10
538.9395290928779
 20
1028.505771679714
 30
0.0
 10
539.3277605835139
 20
1028.68920071205
 30
0.0
 10
539.6289008631463
 20
1028.756471427879
 30
0.0
 10
539.7920662895914
 20
1028.768472977853
 30
0.0
 10
539.8653041860925
 20
1028.768405602168
 30
0.0
 10
539.8680159923963
 20
1028.768403107424
 30
0.0
  0
SPLINE
  5
490
330
1F
100
AcDbEntity
  8
SLD-0_0
  6
SLD-Solid
 62
   179
370
    15
100
AcDbSpline
210
0.0
220
0.0
230
1.0
 70
     8
 71
     3
 72
    14
 73
    10
 74
     0
 42
0.00000001
 43
0.00000001
 40
0.0
 40
0.0
 40
0.0
 40
0.0
 40
0.1883930424918764
 40
0.3596873419127578
 40
0.6003419221985145
 40
0.7898551619130842
 40
0.9055960755894812
 40
0.9965058287321776
 40
0.9999999999999999
 40
0.9999999999999999
 40
0.9999999999999999
 40
0.9999999999999999
 10
586.2442156721947
 20
1027.349514538546
 30
0.0
 10
586.2159469462289
 20
1027.493887700209
 30
0.0
 10
586.161975192456
 20
1027.769530569368
 30
0.0
 10
585.924275796195
 20
1028.178269135642
 30
0.0
 10
585.5794378824048
 20
1028.505770812592
 30
0.0
 10
585.191206827174
 20
1028.689200309807
 30
0.0
 10
584.8900665611428
 20
1028.756471800148
 30
0.0
 10
584.7269020359179
 20
1028.768472947173
 30
0.0
 10
584.653664456628
 20
1028.768405600139
 30
0.0
 10
584.6509537150262
 20
1028.768403107424
 30
0.0
  0
SPLINE
  5
491
330
1F
100
AcDbEntity
  8
SLD-0_0
  6
SLD-Solid
 62
   179
370
    15
100
AcDbSpline
210
0.0
220
0.0
230
1.0
 70
     8
 71
     3
 72
    11
 73
     7
 74
     0
 42
0.00000001
 43
0.00000001
 40
0.0
 40
0.0
 40
0.0
 40
0.0
 40
0.2779918007502513
 40
0.5616516445943196
 40
0.7829876764945082
 40
1.0
 40
1.0
 40
1.0
 40
1.0
 10
462.2594839383957
 20
1018.768412644167
 30
0.0
 10
462.3261427232928
 20
1019.530354198948
 30
0.0
 10
462.4608194154218
 20
1021.069772721985
 30
0.0
 10
462.645797924067
 20
1023.18403937542
 30
0.0
 10
462.8176402447967
 20
1025.14813245505
 30
0.0
 10
462.92265389917
 20
1026.348465927598
 30
0.0
 10
462.9746428181526
 20
1026.942712837954
 30
0.0
  0
SPLINE
  5
492
330
1F
100
AcDbEntity
  8
SLD-0_0
  6
SLD-Solid
 62
   179
370
    15
100
AcDbSpline
210
0.0
220
0.0
230
1.0
 70
     8
 71
     3
 72
    12
 73
     8
 74
     0
 42
0.00000001
 43
0.00000001
 40
0.0
 40
0.0
 40
0.0
 40
0.0
 40
0.1949236489624313
 40
0.4099375286808934
 40
0.6250663289618579
 40
0.8407000624031783
 40
1.0
 40
1.0
 40
1.0
 40
1.0
 10
465.7225361515877
 20
1018.601936871309
 30
0.0
 10
465.3685704455382
 20
1018.622677916022
 30
0.0
 10
464.6241567864051
 20
1018.666297726429
 30
0.0
 10
463.5993983376749
 20
1018.715551525227
 30
0.0
 10
462.7892498001447
 20
1018.749252081055
 30
0.0
 10
462.330767429353
 20
1018.765937125053
 30
0.0
 10
462.2807395379642
 20
1018.767674483868
 30
0.0
 10
462.2594839383957
 20
1018.768412644167
 30
0.0
  0
SPLINE
  5
493
330
1F
100
AcDbEntity
  8
SLD-0_0
  6
SLD-Solid
 62
   179
370
    15
100
AcDbSpline
210
0.0
220
0.0
230
1.0
 70
     8
 71
     3
 72
    11
 73
     7
 74
     0
 42
0.00000001
 43
0.00000001
 40
0.0
 40
0.0
 40
0.0
 40
0.0
 40
0.2779918793334512
 40
0.5616516448886882
 40
0.7829876766402407
 40
0.9999999999999999
 40
0.9999999999999999
 40
0.9999999999999999
 40
0.9999999999999999
 10
662.259486918628
 20
1018.768412644167
 30
0.0
 10
662.1928241521191
 20
1019.530354070283
 30
0.0
 10
662.0581394535866
 20
1021.069771899009
 30
0.0
 10
661.8731753568564
 20
1023.18403979829
 30
0.0
 10
661.7013300782717
 20
1025.148132409051
 30
0.0
 10
661.5963167810428
 20
1026.348465912366
 30
0.0
 10
661.5443280388711
 20
1026.942712837954
 30
0.0
  0
SPLINE
  5
494
330
1F
100
AcDbEntity
  8
SLD-0_0
  6
SLD-Solid
 62
   179
370
    15
100
AcDbSpline
210
0.0
220
0.0
230
1.0
 70
     8
 71
     3
 72
    12
 73
     8
 74
     0
 42
0.00000001
 43
0.00000001
 40
0.0
 40
0.0
 40
0.0
 40
0.0
 40
0.1949247354348787
 40
0.4099383249862581
 40
0.6250668349450514
 40
0.8407002773827797
 40
1.0
 40
1.0
 40
1.0
 40
1.0
 10
658.7964272548554
 20
1018.601936871309
 30
0.0
 10
659.1503955186871
 20
1018.622677889602
 30
0.0
 10
659.894811853791
 20
1018.666297486049
 30
0.0
 10
660.9195725205652
 20
1018.715551562653
 30
0.0
 10
661.7297210565505
 20
1018.749252070945
 30
0.0
 10
662.1882034277285
 20
1018.765937126828
 30
0.0
 10
662.2382313190767
 20
1018.767674484397
 30
0.0
 10
662.259486918628
 20
1018.768412644167
 30
0.0
  0
SPLINE
  5
495
330
1F
100
AcDbEntity
  8
SLD-0_0
  6
SLD-Solid
 62
   179
370
    15
100
AcDbSpline
210
0.0
220
0.0
230
1.0
 70
     8
 71
     3
 72
    11
 73
     7
 74
     0
 42
0.00000001
 43
0.00000001
 40
0.0
 40
0.0
 40
0.0
 40
0.0
 40
0.2768027243861797
 40
0.5599811749369458
 40
0.7820949470117662
 40
1.0
 40
1.0
 40
1.0
 40
1.0
 10
381.5443268467781
 20
1026.942712837954
 30
0.0
 10
381.6107180297213
 20
1026.183871321733
 30
0.0
 10
381.7450296146686
 20
1024.648709538964
 30
0.0
 10
381.9302038712696
 20
1022.532142922884
 30
0.0
 10
382.1017702247077
 20
1020.571073051588
 30
0.0
 10
382.2072452100786
 20
1019.365455591996
 30
0.0
 10
382.2594782759545
 20
1018.768412644167
 30
0.0
  0
SPLINE
  5
496
330
1F
100
AcDbEntity
  8
SLD-0_0
  6
SLD-Solid
 62
   179
370
    15
100
AcDbSpline
210
0.0
220
0.0
230
1.0
 70
     8
 71
     3
 72
    12
 73
     8
 74
     0
 42
0.00000001
 43
0.00000001
 40
0.0
 40
0.0
 40
0.0
 40
0.0
 40
0.1857059964095418
 40
0.4017225107291766
 40
0.6178916421175688
 40
0.8334750122761656
 40
1.0
 40
1.0
 40
1.0
 40
1.0
 10
382.2594782759545
 20
1018.768412644167
 30
0.0
 10
382.2307535126997
 20
1018.767431180971
 30
0.0
 10
382.1686155944957
 20
1018.765308062349
 30
0.0
 10
381.6437161211575
 20
1018.745911156021
 30
0.0
 10
380.7947865414195
 20
1018.709996430078
 30
0.0
 10
379.7915565790871
 20
1018.660551420611
 30
0.0
 10
379.0984801491042
 20
1018.619727964725
 30
0.0
 10
378.7964335133431
 20
1018.601936871309
 30
0.0
  0
SPLINE
  5
497
330
1F
100
AcDbEntity
  8
SLD-0_0
  6
SLD-Solid
 62
   179
370
    15
100
AcDbSpline
210
0.0
220
0.0
230
1.0
 70
     8
 71
     3
 72
    11
 73
     7
 74
     0
 42
0.00000001
 43
0.00000001
 40
0.0
 40
0.0
 40
0.0
 40
0.0
 40
0.2768026807555435
 40
0.5599810866707086
 40
0.7820948237351611
 40
1.0
 40
1.0
 40
1.0
 40
1.0
 10
742.9746440102456
 20
1026.942712837954
 30
0.0
 10
742.9082529525754
 20
1026.183871310738
 30
0.0
 10
742.7739416210599
 20
1024.648709505727
 30
0.0
 10
742.588765570231
 20
1022.532143047118
 30
0.0
 10
742.4172046092215
 20
1020.57107227185
 30
0.0
 10
742.3117170109757
 20
1019.365455479547
 30
0.0
 10
742.2594776799081
 20
1018.768412644167
 30
0.0
  0
SPLINE
  5
498
330
1F
100
AcDbEntity
  8
SLD-0_0
  6
SLD-Solid
 62
   179
370
    15
100
AcDbSpline
210
0.0
220
0.0
230
1.0
 70
     8
 71
     3
 72
    12
 73
     8
 74
     0
 42
0.00000001
 43
0.00000001
 40
0.0
 40
0.0
 40
0.0
 40
0.0
 40
0.1857063181627279
 40
0.4017227471274399
 40
0.6178917931006056
 40
0.8334750780754286
 40
1.0
 40
1.0
 40
1.0
 40
1.0
 10
742.2594776799081
 20
1018.768412644167
 30
0.0
 10
742.2882085581253
 20
1018.767431184275
 30
0.0
 10
742.3503596332158
 20
1018.765308075227
 30
0.0
 10
742.8752533937601
 20
1018.745911155886
 30
0.0
 10
743.7241846756102
 20
1018.709996430114
 30
0.0
 10
744.7274142114685
 20
1018.660551420604
 30
0.0
 10
745.4204906877446
 20
1018.619727964723
 30
0.0
 10
745.7225373436806
 20
1018.601936871309
 30
0.0
  0
ELLIPSE
  5
499
330
1F
100
AcDbEntity
  8
SLD-0_0
  6
SLD-Solid
 62
   179
370
    15
100
AcDbEllipse
 10
316.0313636445
 20
993.7684138595
 30
0.0
 11
5.229180776432543
 21
34.80854219515572
 31
0.0
210
0.0
220
0.0
230
1.0
 40
0.6991287568
 41
0.1046443262353193
 42
1.222624058285283
  0
ELLIPSE
  5
49A
330
1F
100
AcDbEntity
  8
SLD-0_0
  6
SLD-Solid
 62
   179
370
    15
100
AcDbEllipse
 10
359.7674852147
 20
968.8210119385
 30
0.0
 11
-7.907130209246362
 21
49.69431533888201
 31
0.0
210
0.0
220
0.0
230
1.0
 40
0.6981570542
 41
0.0045629715855918
 42
0.6136893060893007
  0
ELLIPSE
  5
49B
330
1F
100
AcDbEntity
  8
SLD-0_0
  6
SLD-Solid
 62
   179
370
    15
100
AcDbEllipse
 10
764.7514830611
 20
968.8210119385
 30
0.0
 11
7.907130209246474
 21
49.69431533888201
 31
0.0
210
0.0
220
0.0
230
1.0
 40
0.6981570542
 41
5.669496001090323
 42
6.278622335594036
  0
ELLIPSE
  5
49C
330
1F
100
AcDbEntity
  8
SLD-0_0
  6
SLD-Solid
 62
   179
370
    15
100
AcDbEllipse
 10
597.0920238163
 20
993.7684138595
 30
0.0
 11
5.229180776432599
 21
34.80854219515618
 31
0.0
210
0.0
220
0.0
230
1.0
 40
0.6991287568
 41
0.1046443262353204
 42
1.222891578588129
  0
ELLIPSE
  5
49D
330
1F
100
AcDbEntity
  8
SLD-0_0
  6
SLD-Solid
 62
   179
370
    15
100
AcDbEllipse
 10
484.7642014395
 20
968.7879108285
 30
0.0
 11
7.907130209246362
 21
49.69431533888201
 31
0.0
210
0.0
220
0.0
230
1.0
 40
0.6981570542
 41
5.670495650654016
 42
6.296555982904388
  0
ELLIPSE
  5
49E
330
1F
100
AcDbEntity
  8
SLD-0_0
  6
SLD-Solid
 62
   179
370
    15
100
AcDbEllipse
 10
639.7547668362
 20
968.7879108285
 30
0.0
 11
-7.907130209246247
 21
49.69431533888201
 31
0.0
210
0.0
220
0.0
230
0.9999999999999999
 40
0.6981570542
 41
6.269814631454866
 42
6.895874963705224
  0
ENDSEC
  0
SECTION
  2
OBJECTS
  0
DICTIONARY
  5
C
330
0
100
AcDbDictionary
281
     1
  3
ACAD_GROUP
350
D
  3
ACAD_LAYOUT
350
1A
  3
ACAD_MLINESTYLE
350
17
  3
ACAD_PLOTSETTINGS
350
19
  3
ACAD_PLOTSTYLENAME
350
E
  0
DICTIONARY
  5
D
102
{ACAD_REACTORS
330
C
102
}
330
C
100
AcDbDictionary
281
     1
  0
DICTIONARY
  5
1A
102
{ACAD_REACTORS
330
C
102
}
330
C
100
AcDbDictionary
281
     1
  3
Layout1
350
1E
  3
Layout2
350
26
  3
Model
350
22
  0
DICTIONARY
  5
17
102
{ACAD_REACTORS
330
C
102
}
330
C
100
AcDbDictionary
281
     1
  3
Standard
350
18
  0
DICTIONARY
  5
19
102
{ACAD_REACTORS
330
C
102
}
330
C
100
AcDbDictionary
281
     1
  0
ACDBDICTIONARYWDFLT
  5
E
102
{ACAD_REACTORS
330
C
102
}
330
C
100
AcDbDictionary
281
     1
  3
Normal
350
F
100
AcDbDictionaryWithDefault
340
F
  0
LAYOUT
  5
1E
102
{ACAD_REACTORS
330
1A
102
}
330
1A
100
AcDbPlotSettings
  1

  2
none_device
  4

  6

 40
0.0
 41
0.0
 42
0.0
 43
0.0
 44
0.0
 45
0.0
 46
0.0
 47
0.0
 48
0.0
 49
0.0
140
0.0
141
0.0
142
1.0
143
1.0
 70
   688
 72
     0
 73
     0
 74
     5
  7

 75
    16
147
1.0
148
0.0
149
0.0
100
AcDbLayout
  1
Layout1
 70
     1
 71
     1
 10
0.0
 20
0.0
 11
420.0
 21
297.0
 12
0.0
 22
0.0
 32
0.0
 14
1.0000000000E+20
 24
1.0000000000E+20
 34
1.0000000000E+20
 15
-1.0000000000E+20
 25
-1.0000000000E+20
 35
-1.0000000000E+20
146
0.0
 13
0.0
 23
0.0
 33
0.0
 16
1.0
 26
0.0
 36
0.0
 17
0.0
 27
1.0
 37
0.0
 76
     0
330
1B
  0
LAYOUT
  5
26
102
{ACAD_REACTORS
330
1A
102
}
330
1A
100
AcDbPlotSettings
  1

  2
none_device
  4

  6

 40
0.0
 41
0.0
 42
0.0
 43
0.0
 44
0.0
 45
0.0
 46
0.0
 47
0.0
 48
0.0
 49
0.0
140
0.0
141
0.0
142
1.0
143
1.0
 70
   688
 72
     0
 73
     0
 74
     5
  7

 75
    16
147
1.0
148
0.0
149
0.0
100
AcDbLayout
  1
Layout2
 70
     1
 71
     2
 10
0.0
 20
0.0
 11
0.0
 21
0.0
 12
0.0
 22
0.0
 32
0.0
 14
0.0
 24
0.0
 34
0.0
 15
0.0
 25
0.0
 35
0.0
146
0.0
 13
0.0
 23
0.0
 33
0.0
 16
1.0
 26
0.0
 36
0.0
 17
0.0
 27
1.0
 37
0.0
 76
     0
330
23
  0
LAYOUT
  5
22
102
{ACAD_REACTORS
330
1A
102
}
330
1A
100
AcDbPlotSettings
  1

  2
none_device
  4

  6

 40
0.0
 41
0.0
 42
0.0
 43
0.0
 44
0.0
 45
0.0
 46
0.0
 47
0.0
 48
0.0
 49
0.0
140
0.0
141
0.0
142
1.0
143
1.0
 70
  1712
 72
     0
 73
     0
 74
     0
  7

 75
     0
147
1.0
148
0.0
149
0.0
100
AcDbLayout
  1
Model
 70
     1
 71
     0
 10
0.0
 20
0.0
 11
1200.0
 21
1200.0
 12
0.0
 22
0.0
 32
0.0
 14
0.0
 24
0.0
 34
0.0
 15
1200.0
 25
1200.0
 35
0.0
146
0.0
 13
0.0
 23
0.0
 33
0.0
 16
1.0
 26
0.0
 36
0.0
 17
0.0
 27
1.0
 37
0.0
 76
     0
330
1F
331
29
  0
MLINESTYLE
  5
18
102
{ACAD_REACTORS
330
17
102
}
330
17
100
AcDbMlineStyle
  2
Standard
 70
     0
  3

 62
   256
 51
90.0
 52
90.0
 71
     2
 49
0.5
 62
   256
  6
BYLAYER
 49
-0.5
 62
   256
  6
BYLAYER
  0
ACDBPLACEHOLDER
  5
F
102
{ACAD_REACTORS
330
E
102
}
330
E
  0
ENDSEC
  0
EOF
