  0
SECTION
  2
HEADER
  9
$ACADVER
  1
AC1015
  9
$ACADMAINTVER
 70
     6
  9
$DWGCODEPAGE
  3
ANSI_1252
  9
$INSBASE
 10
0.0
 20
0.0
 30
0.0
  9
$EXTMIN
 10
0.0
 20
0.0
 30
0.0
  9
$EXTMAX
 10
841.0
 20
594.0
 30
0.0
  9
$LIMMIN
 10
0.0
 20
0.0
  9
$LIMMAX
 10
841.0
 20
594.0
  9
$ORTHOMODE
 70
     0
  9
$REGENMODE
 70
     1
  9
$FILLMODE
 70
     1
  9
$QTEXTMODE
 70
     0
  9
$MIRRTEXT
 70
     1
  9
$LTSCALE
 40
1.0
  9
$ATTMODE
 70
     1
  9
$TEXTSIZE
 40
3.5
  9
$TRACEWID
 40
1.0
  9
$TEXTSTYLE
  7
Standard
  9
$CLAYER
  8
0
  9
$CELTYPE
  6
ByLayer
  9
$CECOLOR
 62
   256
  9
$CELTSCALE
 40
1.0
  9
$DISPSILH
 70
     0
  9
$DIMSCALE
 40
1.0
  9
$DIMASZ
 40
3.302
  9
$DIMEXO
 40
1.0
  9
$DIMDLI
 40
3.75
  9
$DIMRND
 40
0.0
  9
$DIMDLE
 40
0.0
  9
$DIMEXE
 40
1.0
  9
$DIMTP
 40
0.0
  9
$DIMTM
 40
0.0
  9
$DIMTXT
 40
3.5
  9
$DIMCEN
 40
2.5
  9
$DIMTSZ
 40
0.0
  9
$DIMTOL
 70
     0
  9
$DIMLIM
 70
     0
  9
$DIMTIH
 70
     1
  9
$DIMTOH
 70
     1
  9
$DIMSE1
 70
     0
  9
$DIMSE2
 70
     0
  9
$DIMTAD
 70
     1
  9
$DIMZIN
 70
     0
  9
$DIMBLK
  1

  9
$DIMASO
 70
     1
  9
$DIMSHO
 70
     1
  9
$DIMPOST
  1

  9
$DIMAPOST
  1

  9
$DIMALT
 70
     0
  9
$DIMALTD
 70
     3
  9
$DIMALTF
 40
0.0393700787
  9
$DIMLFAC
 40
1.0
  9
$DIMTOFL
 70
     1
  9
$DIMTVP
 40
0.0
  9
$DIMTIX
 70
     0
  9
$DIMSOXD
 70
     0
  9
$DIMSAH
 70
     0
  9
$DIMBLK1
  1

  9
$DIMBLK2
  1

  9
$DIMSTYLE
  2
ISO-25
  9
$DIMCLRD
 70
     0
  9
$DIMCLRE
 70
     0
  9
$DIMCLRT
 70
     0
  9
$DIMTFAC
 40
1.0
  9
$DIMGAP
 40
1.524
  9
$DIMJUST
 70
     0
  9
$DIMSD1
 70
     0
  9
$DIMSD2
 70
     0
  9
$DIMTOLJ
 70
     0
  9
$DIMTZIN
 70
     0
  9
$DIMALTZ
 70
     0
  9
$DIMALTTZ
 70
     0
  9
$DIMUPT
 70
     0
  9
$DIMDEC
 70
     1
  9
$DIMTDEC
 70
     1
  9
$DIMALTU
 70
     2
  9
$DIMALTTD
 70
     3
  9
$DIMTXSTY
  7
Standard
  9
$DIMAUNIT
 70
     0
  9
$DIMADEC
 70
     1
  9
$DIMALTRND
 40
0.0
  9
$DIMAZIN
 70
     0
  9
$DIMDSEP
 70
    44
  9
$DIMATFIT
 70
     3
  9
$DIMFRAC
 70
     0
  9
$DIMLDRBLK
  1

  9
$DIMLUNIT
 70
     2
  9
$DIMLWD
 70
    -2
  9
$DIMLWE
 70
    -2
  9
$DIMTMOVE
 70
     0
  9
$LUNITS
 70
     2
  9
$LUPREC
 70
     1
  9
$SKETCHINC
 40
1.0
  9
$FILLETRAD
 40
10.0
  9
$AUNITS
 70
     0
  9
$AUPREC
 70
     1
  9
$MENU
  1
.
  9
$ELEVATION
 40
0.0
  9
$PELEVATION
 40
0.0
  9
$THICKNESS
 40
0.0
  9
$LIMCHECK
 70
     0
  9
$CHAMFERA
 40
10.0
  9
$CHAMFERB
 40
10.0
  9
$CHAMFERC
 40
20.0
  9
$CHAMFERD
 40
0.0
  9
$SKPOLY
 70
     0
  9
$TDCREATE
 40
2456373.488911771
  9
$TDUCREATE
 40
2456373.488911771
  9
$TDUPDATE
 40
2456373.488913218
  9
$TDUUPDATE
 40
2456373.488913218
  9
$TDINDWG
 40
0.0000000116
  9
$TDUSRTIMER
 40
0.0000000116
  9
$USRTIMER
 70
     1
  9
$ANGBASE
 50
0.0
  9
$ANGDIR
 70
     0
  9
$PDMODE
 70
     0
  9
$PDSIZE
 40
-1.0
  9
$PLINEWID
 40
0.0
  9
$SPLFRAME
 70
     0
  9
$SPLINETYPE
 70
     6
  9
$SPLINESEGS
 70
     8
  9
$HANDSEED
  5
278
  9
$SURFTAB1
 70
     6
  9
$SURFTAB2
 70
     6
  9
$SURFTYPE
 70
     6
  9
$SURFU
 70
     6
  9
$SURFV
 70
     6
  9
$UCSBASE
  2

  9
$UCSNAME
  2

  9
$UCSORG
 10
0.0
 20
0.0
 30
0.0
  9
$UCSXDIR
 10
1.0
 20
0.0
 30
0.0
  9
$UCSYDIR
 10
0.0
 20
1.0
 30
0.0
  9
$UCSORTHOREF
  2

  9
$UCSORTHOVIEW
 70
     0
  9
$UCSORGTOP
 10
0.0
 20
0.0
 30
0.0
  9
$UCSORGBOTTOM
 10
0.0
 20
0.0
 30
0.0
  9
$UCSORGLEFT
 10
0.0
 20
0.0
 30
0.0
  9
$UCSORGRIGHT
 10
0.0
 20
0.0
 30
0.0
  9
$UCSORGFRONT
 10
0.0
 20
0.0
 30
0.0
  9
$UCSORGBACK
 10
0.0
 20
0.0
 30
0.0
  9
$PUCSBASE
  2

  9
$PUCSNAME
  2

  9
$PUCSORG
 10
0.0
 20
0.0
 30
0.0
  9
$PUCSXDIR
 10
1.0
 20
0.0
 30
0.0
  9
$PUCSYDIR
 10
0.0
 20
1.0
 30
0.0
  9
$PUCSORTHOREF
  2

  9
$PUCSORTHOVIEW
 70
     0
  9
$PUCSORGTOP
 10
0.0
 20
0.0
 30
0.0
  9
$PUCSORGBOTTOM
 10
0.0
 20
0.0
 30
0.0
  9
$PUCSORGLEFT
 10
0.0
 20
0.0
 30
0.0
  9
$PUCSORGRIGHT
 10
0.0
 20
0.0
 30
0.0
  9
$PUCSORGFRONT
 10
0.0
 20
0.0
 30
0.0
  9
$PUCSORGBACK
 10
0.0
 20
0.0
 30
0.0
  9
$USERI1
 70
     0
  9
$USERI2
 70
     0
  9
$USERI3
 70
     0
  9
$USERI4
 70
     0
  9
$USERI5
 70
     0
  9
$USERR1
 40
0.0
  9
$USERR2
 40
0.0
  9
$USERR3
 40
0.0
  9
$USERR4
 40
0.0
  9
$USERR5
 40
0.0
  9
$WORLDVIEW
 70
     1
  9
$SHADEDGE
 70
     3
  9
$SHADEDIF
 70
    70
  9
$TILEMODE
 70
     1
  9
$MAXACTVP
 70
    64
  9
$PINSBASE
 10
0.0
 20
0.0
 30
0.0
  9
$PLIMCHECK
 70
     0
  9
$PEXTMIN
 10
1.0000000000E+20
 20
1.0000000000E+20
 30
1.0000000000E+20
  9
$PEXTMAX
 10
-1.0000000000E+20
 20
-1.0000000000E+20
 30
-1.0000000000E+20
  9
$PLIMMIN
 10
0.0
 20
0.0
  9
$PLIMMAX
 10
420.0
 20
297.0
  9
$UNITMODE
 70
     0
  9
$VISRETAIN
 70
     1
  9
$PLINEGEN
 70
     0
  9
$PSLTSCALE
 70
     1
  9
$TREEDEPTH
 70
  3020
  9
$CMLSTYLE
  2
Standard
  9
$CMLJUST
 70
     0
  9
$CMLSCALE
 40
20.0
  9
$PROXYGRAPHICS
 70
     1
  9
$MEASUREMENT
 70
     1
  9
$CELWEIGHT
370
    -1
  9
$ENDCAPS
280
     0
  9
$JOINSTYLE
280
     0
  9
$LWDISPLAY
290
     1
  9
$INSUNITS
 70
     4
  9
$HYPERLINKBASE
  1

  9
$STYLESHEET
  1

  9
$XEDIT
290
     1
  9
$CEPSNTYPE
380
     0
  9
$PSTYLEMODE
290
     1
  9
$FINGERPRINTGUID
  2
{61FAF915-6B18-4718-8D29-B9199DBB209D}
  9
$VERSIONGUID
  2
{FAEB1C32-E019-11D5-929B-00C0DF256EC4}
  9
$EXTNAMES
290
     1
  9
$PSVPSCALE
 40
0.0
  9
$OLESTARTUP
290
     0
  0
ENDSEC
  0
SECTION
  2
CLASSES
  0
CLASS
  1
ACDBDICTIONARYWDFLT
  2
AcDbDictionaryWithDefault
  3
ObjectDBX Classes
 90
        0
280
     0
281
     0
  0
CLASS
  1
VISUALSTYLE
  2
AcDbVisualStyle
  3
ObjectDBX Classes
 90
     4095
280
     0
281
     0
  0
CLASS
  1
MATERIAL
  2
AcDbMaterial
  3
ObjectDBX Classes
 90
     1153
280
     0
281
     0
  0
CLASS
  1
ACDBPLACEHOLDER
  2
AcDbPlaceHolder
  3
ObjectDBX Classes
 90
        0
280
     0
281
     0
  0
CLASS
  1
LAYOUT
  2
AcDbLayout
  3
ObjectDBX Classes
 90
        0
280
     0
281
     0
  0
ENDSEC
  0
SECTION
  2
TABLES
  0
TABLE
  2
VPORT
  5
8
330
0
100
AcDbSymbolTable
 70
     1
  0
VPORT
  5
29
330
8
100
AcDbSymbolTableRecord
100
AcDbViewportTableRecord
  2
*Active
 70
     0
 10
0.0
 20
0.0
 11
1.0
 21
1.0
 12
420.5
 22
297.0
 13
0.0
 23
0.0
 14
10.0
 24
10.0
 15
10.0
 25
10.0
 16
0.0
 26
0.0
 36
1.0
 17
0.0
 27
0.0
 37
0.0
 40
594.0
 41
1.4158249158
 42
50.0
 43
0.0
 44
0.0
 50
0.0
 51
0.0
 71
     0
 72
  2000
 73
     1
 74
     3
 75
     0
 76
     0
 77
     0
 78
     0
281
     0
 65
     1
110
0.0
120
0.0
130
0.0
111
1.0
121
0.0
131
0.0
112
0.0
122
1.0
132
0.0
 79
     0
146
0.0
  0
ENDTAB
  0
TABLE
  2
LTYPE
  5
5
330
0
100
AcDbSymbolTable
 70
     6
  0
LTYPE
  5
14
330
5
100
AcDbSymbolTableRecord
100
AcDbLinetypeTableRecord
  2
ByBlock
 70
     0
  3

 72
    65
 73
     0
 40
0.0
  0
LTYPE
  5
15
330
5
100
AcDbSymbolTableRecord
100
AcDbLinetypeTableRecord
  2
ByLayer
 70
     0
  3

 72
    65
 73
     0
 40
0.0
  0
LTYPE
  5
16
330
5
100
AcDbSymbolTableRecord
100
AcDbLinetypeTableRecord
  2
Continuous
 70
     0
  3
Solid line
 72
    65
 73
     0
 40
0.0
  0
LTYPE
  5
3F
330
5
100
AcDbSymbolTableRecord
100
AcDbLinetypeTableRecord
  2
HIDDEN
 70
     0
  3
Hidden __ __ __ __ __ __ __ __ __ __ __ __ __ __
 72
    65
 73
     2
 40
1.905
 49
1.27
 74
     0
 49
-0.635
 74
     0
  0
LTYPE
  5
40
330
5
100
AcDbSymbolTableRecord
100
AcDbLinetypeTableRecord
  2
PHANTOM
 70
     0
  3
Phantom ______  __  __  ______  __  __  ______
 72
    65
 73
     6
 40
12.7
 49
6.35
 74
     0
 49
-1.27
 74
     0
 49
1.27
 74
     0
 49
-1.27
 74
     0
 49
1.27
 74
     0
 49
-1.27
 74
     0
  0
LTYPE
  5
41
330
5
100
AcDbSymbolTableRecord
100
AcDbLinetypeTableRecord
  2
CENTER
 70
     0
  3
Center ____ _ ____ _ ____ _ ____ _ ____ _ ____
 72
    65
 73
     4
 40
10.16
 49
6.35
 74
     0
 49
-1.27
 74
     0
 49
1.27
 74
     0
 49
-1.27
 74
     0
  0
LTYPE
  5
42
330
5
100
AcDbSymbolTableRecord
100
AcDbLinetypeTableRecord
  2
CENTERX2
 70
     0
  3
Center (2x) ________  __  ________  __  _____
 72
    65
 73
     4
 40
20.32
 49
12.7
 74
     0
 49
-2.54
 74
     0
 49
2.54
 74
     0
 49
-2.54
 74
     0
  0
LTYPE
  5
43
330
5
100
AcDbSymbolTableRecord
100
AcDbLinetypeTableRecord
  2
DOT2
 70
     0
  3
Dot (.5x) ........................................
 72
    65
 73
     2
 40
0.635
 49
0.0
 74
     0
 49
-0.635
 74
     0
  0
ENDTAB
  0
TABLE
  2
LAYER
  5
2
330
0
100
AcDbSymbolTable
 70
     4
  0
LAYER
  5
10
330
2
100
AcDbSymbolTableRecord
100
AcDbLayerTableRecord
  2
0
 70
     0
 62
     7
  6
Continuous
370
    -3
390
F
  0
LAYER
  5
44
330
2
100
AcDbSymbolTableRecord
100
AcDbLayerTableRecord
  2
FORMAT
 70
     0
 62
     7
  6
Continuous
370
    -3
390
F
  0
LAYER
  5
45
330
2
100
AcDbSymbolTableRecord
100
AcDbLayerTableRecord
  2
SLD-0
 70
     0
 62
     1
  6
Continuous
370
    -3
390
F
  0
LAYER
  5
46
330
2
100
AcDbSymbolTableRecord
100
AcDbLayerTableRecord
  2
WATERMARK
 70
     0
 62
     1
  6
Continuous
370
    -3
390
F
  0
ENDTAB
  0
TABLE
  2
STYLE
  5
3
330
0
100
AcDbSymbolTable
 70
     1
  0
STYLE
  5
11
330
3
100
AcDbSymbolTableRecord
100
AcDbTextStyleTableRecord
  2
Standard
 70
     0
 40
0.0
 41
1.0
 50
0.0
 71
     0
 42
3.5
  3
txt
  4

  0
ENDTAB
  0
TABLE
  2
VIEW
  5
6
330
0
100
AcDbSymbolTable
 70
     0
  0
ENDTAB
  0
TABLE
  2
UCS
  5
7
330
0
100
AcDbSymbolTable
 70
     0
  0
ENDTAB
  0
TABLE
  2
APPID
  5
9
330
0
100
AcDbSymbolTable
 70
     1
  0
APPID
  5
12
330
9
100
AcDbSymbolTableRecord
100
AcDbRegAppTableRecord
  2
ACAD
 70
     0
  0
ENDTAB
  0
TABLE
  2
DIMSTYLE
  5
A
330
0
100
AcDbSymbolTable
 70
     1
100
AcDbDimStyleTable
  0
DIMSTYLE
105
27
330
A
100
AcDbSymbolTableRecord
100
AcDbDimStyleTableRecord
  2
ISO-25
 70
     0
 41
2.5
 42
0.625
 43
3.75
 44
1.25
 73
     0
 74
     0
 77
     1
 78
     8
140
2.5
141
2.5
143
0.0393700787
147
0.625
171
     3
172
     1
178
     0
271
     2
272
     2
274
     3
278
    44
283
     0
284
     8
340
11
  0
ENDTAB
  0
TABLE
  2
BLOCK_RECORD
  5
1
330
0
100
AcDbSymbolTable
 70
     1
  0
BLOCK_RECORD
  5
1F
330
1
100
AcDbSymbolTableRecord
100
AcDbBlockTableRecord
  2
*Model_Space
340
22
  0
BLOCK_RECORD
  5
1B
330
1
100
AcDbSymbolTableRecord
100
AcDbBlockTableRecord
  2
*Paper_Space
340
1E
  0
BLOCK_RECORD
  5
23
330
1
100
AcDbSymbolTableRecord
100
AcDbBlockTableRecord
  2
*Paper_Space0
340
26
  0
ENDTAB
  0
ENDSEC
  0
SECTION
  2
BLOCKS
  0
BLOCK
  5
20
330
1F
100
AcDbEntity
  8
0
100
AcDbBlockBegin
  2
*Model_Space
 70
     0
 10
0.0
 20
0.0
 30
0.0
  3
*Model_Space
  1

  0
ENDBLK
  5
21
330
1F
100
AcDbEntity
  8
0
100
AcDbBlockEnd
  0
BLOCK
  5
1C
330
1B
100
AcDbEntity
 67
     1
  8
0
100
AcDbBlockBegin
  2
*Paper_Space
 70
     0
 10
0.0
 20
0.0
 30
0.0
  3
*Paper_Space
  1

  0
ENDBLK
  5
1D
330
1B
100
AcDbEntity
 67
     1
  8
0
100
AcDbBlockEnd
  0
BLOCK
  5
24
330
23
100
AcDbEntity
  8
0
100
AcDbBlockBegin
  2
*Paper_Space0
 70
     0
 10
0.0
 20
0.0
 30
0.0
  3
*Paper_Space0
  1

  0
ENDBLK
  5
25
330
23
100
AcDbEntity
  8
0
100
AcDbBlockEnd
  0
ENDSEC
  0
SECTION
  2
ENTITIES
  0
LINE
  5
47
330
1F
100
AcDbEntity
  8
0
  6
Continuous
 62
     7
370
    15
100
AcDbLine
 10
791.0970954809
 20
328.7128647969
 30
0.0
 11
791.0970954809
 21
329.2128647969
 31
0.0
  0
LINE
  5
48
330
1F
100
AcDbEntity
  8
0
  6
Continuous
 62
     7
370
    15
100
AcDbLine
 10
783.0970954809
 20
329.2128647969
 30
0.0
 11
783.0970954809
 21
328.7128647969
 31
0.0
  0
LINE
  5
49
330
1F
100
AcDbEntity
  8
0
  6
Continuous
 62
     7
370
    15
100
AcDbLine
 10
772.0970954809
 20
328.7128647969
 30
0.0
 11
772.0970954809
 21
329.2128647969
 31
0.0
  0
LINE
  5
4A
330
1F
100
AcDbEntity
  8
0
  6
Continuous
 62
     7
370
    15
100
AcDbLine
 10
764.0970954809
 20
329.2128647969
 30
0.0
 11
764.0970954809
 21
328.7128647969
 31
0.0
  0
LINE
  5
4B
330
1F
100
AcDbEntity
  8
0
  6
Continuous
 62
     7
370
    15
100
AcDbLine
 10
35.5970954809
 20
440.5517959848
 30
0.0
 11
35.0579752172
 21
440.5517959848
 31
0.0
  0
LINE
  5
4C
330
1F
100
AcDbEntity
  8
0
  6
Continuous
 62
     7
370
    15
100
AcDbLine
 10
35.0579752172
 20
408.5517959848
 30
0.0
 11
35.5970954809
 21
408.5517959848
 31
0.0
  0
LINE
  5
4D
330
1F
100
AcDbEntity
  8
0
  6
Continuous
 62
     7
370
    15
100
AcDbLine
 10
783.2382340703
 20
415.8600932638
 30
0.0
 11
775.2493593334
 21
413.2643505111
 31
0.0
  0
LINE
  5
4E
330
1F
100
AcDbEntity
  8
0
  6
Continuous
 62
     7
370
    15
100
AcDbLine
 10
777.7214952884
 20
405.6558983807
 30
0.0
 11
785.7103700253
 21
408.2516411334
 31
0.0
  0
LINE
  5
4F
330
1F
100
AcDbEntity
  8
0
  6
Continuous
 62
     7
370
    15
100
AcDbLine
 10
796.4194673975
 20
381.7645644078
 30
0.0
 11
804.693964583
 21
388.6589604167
 31
0.0
  0
LINE
  5
50
330
1F
100
AcDbEntity
  8
0
  6
Continuous
 62
     7
370
    15
100
AcDbLine
 10
778.8500490434
 20
443.4160176645
 30
0.0
 11
776.3333627632
 21
443.583237967
 31
0.0
  0
LINE
  5
51
330
1F
100
AcDbEntity
  8
0
  6
Continuous
 62
     7
370
    15
100
AcDbLine
 10
787.0799959036
 20
442.8691818455
 30
0.0
 11
783.7957808178
 21
443.0874003197
 31
0.0
  0
LINE
  5
52
330
1F
100
AcDbEntity
  8
0
  6
Continuous
 62
     7
370
    15
100
AcDbLine
 10
804.693964583
 20
388.6589604167
 30
0.0
 11
820.4551587445
 21
402.9642521835
 31
0.0
  0
LINE
  5
53
330
1F
100
AcDbEntity
  8
0
  6
Continuous
 62
     7
370
    15
100
AcDbLine
 10
787.5953762315
 20
442.812941095
 30
0.0
 11
787.0799959036
 21
442.8691818455
 31
0.0
  0
ARC
  5
54
330
1F
100
AcDbEntity
  8
0
  6
Continuous
 62
     7
370
    15
100
AcDbCircle
 10
819.7830795014
 20
403.7047314142
 30
0.0
 40
1.000000000000205
100
AcDbArc
 50
312.2277453179
 51
18.0
  0
LINE
  5
55
330
1F
100
AcDbEntity
  8
0
  6
Continuous
 62
     7
370
    15
100
AcDbLine
 10
786.667611829
 20
405.305553793
 30
0.0
 11
788.580512685
 21
405.8903862753
 31
0.0
  0
LINE
  5
56
330
1F
100
AcDbEntity
  8
0
  6
Continuous
 62
     7
370
    15
100
AcDbLine
 10
783.8203527416
 20
443.0957896973
 30
0.0
 11
778.8259051696
 21
443.4276439455
 31
0.0
  0
LINE
  5
57
330
1F
100
AcDbEntity
  8
0
  6
Continuous
 62
     7
370
    15
100
AcDbLine
 10
786.6763066643
 20
405.2787938415
 30
0.0
 11
788.5892075203
 21
405.8636263238
 31
0.0
  0
LINE
  5
58
330
1F
100
AcDbEntity
  8
0
  6
Continuous
 62
     7
370
    15
100
AcDbLine
 10
788.7314956009
 20
442.6889623494
 30
0.0
 11
787.5953762314
 21
442.812941094
 31
0.0
  0
LINE
  5
59
330
1F
100
AcDbEntity
  8
0
  6
Continuous
 62
     7
370
    15
100
AcDbLine
 10
786.686144573
 20
405.248515872
 30
0.0
 11
788.599045429
 21
405.8333483542
 31
0.0
  0
LINE
  5
5A
330
1F
100
AcDbEntity
  8
0
  6
Continuous
 62
     7
370
    15
100
AcDbLine
 10
89.4270954809
 20
519.500539324
 30
0.0
 11
89.3270954809
 21
519.500539324
 31
0.0
  0
LINE
  5
5B
330
1F
100
AcDbEntity
  8
0
  6
Continuous
 62
     7
370
    15
100
AcDbLine
 10
89.3270954809
 20
511.500539324
 30
0.0
 11
89.4270954809
 21
511.500539324
 31
0.0
  0
SPLINE
  5
5C
330
1F
100
AcDbEntity
  8
0
  6
Continuous
 62
     7
370
    15
100
AcDbSpline
210
0.0
220
0.0
230
1.0
 70
     8
 71
     3
 72
    13
 73
     9
 74
     0
 42
0.00000001
 43
0.00000001
 12
1.0
 22
0.0
 32
0.0
 13
1.0
 23
0.0
 33
0.0
 40
0.0
 40
0.0
 40
0.0
 40
0.0
 40
0.153700514605375
 40
0.4677837651258753
 40
0.6522647620224925
 40
0.8142558356547164
 40
0.981788083884642
 40
1.0
 40
1.0
 40
1.0
 40
1.0
 10
23.99470954361133
 20
235.162592582342
 30
0.0
 10
23.99507348374635
 20
235.1555138647156
 30
0.0
 10
23.9961811266653
 20
235.1339699603763
 30
0.0
 10
23.97391399797871
 20
235.0933823321863
 30
0.0
 10
23.91177655434218
 20
235.0452789128934
 30
0.0
 10
23.8403064208928
 20
235.0176673813534
 30
0.0
 10
23.78159510810779
 20
235.0064968207977
 30
0.0
 10
23.7504506592025
 20
235.0083756700266
 30
0.0
 10
23.74739699615519
 20
235.0085598881671
 30
0.0
  0
LINE
  5
5D
330
1F
100
AcDbEntity
  8
0
  6
Continuous
 62
     7
370
    15
100
AcDbLine
 10
23.7470954809
 20
235.0079214286
 30
0.0
 11
18.6470954809
 21
235.0079214286
 31
0.0
  0
ARC
  5
5E
330
1F
100
AcDbEntity
  8
0
  6
Continuous
 62
     7
370
    15
100
AcDbCircle
 10
18.6470954809
 20
234.7579214286
 30
0.0
 40
0.25
100
AcDbArc
 50
90.0
 51
180.0
  0
ARC
  5
5F
330
1F
100
AcDbEntity
  8
0
  6
Continuous
 62
     7
370
    15
100
AcDbCircle
 10
18.6470954809
 20
230.320100214
 30
0.0
 40
0.2500000000000249
100
AcDbArc
 50
180.0
 51
270.0
  0
LINE
  5
60
330
1F
100
AcDbEntity
  8
0
  6
Continuous
 62
     7
370
    15
100
AcDbLine
 10
18.6470954809
 20
230.070100214
 30
0.0
 11
23.7470954809
 21
230.070100214
 31
0.0
  0
ARC
  5
61
330
1F
100
AcDbEntity
  8
0
  6
Continuous
 62
     7
370
    15
100
AcDbCircle
 10
24.9470954809
 20
231.050539324
 30
0.0
 40
0.2500000000000115
100
AcDbArc
 50
301.0756875734
 51
0.0
  0
LINE
  5
62
330
1F
100
AcDbEntity
  8
0
  6
Continuous
 62
     7
370
    15
100
AcDbLine
 10
23.7470954809
 20
248.9309784341
 30
0.0
 11
18.6470954809
 21
248.9309784341
 31
0.0
  0
ARC
  5
63
330
1F
100
AcDbEntity
  8
0
  6
Continuous
 62
     7
370
    15
100
AcDbCircle
 10
18.6470954809
 20
248.6809784341
 30
0.0
 40
0.25
100
AcDbArc
 50
90.0
 51
180.0
  0
SPLINE
  5
64
330
1F
100
AcDbEntity
  8
0
  6
Continuous
 62
     7
370
    15
100
AcDbSpline
210
0.0
220
0.0
230
1.0
 70
     8
 71
     3
 72
    13
 73
     9
 74
     0
 42
0.00000001
 43
0.00000001
 12
1.0
 22
0.0
 32
0.0
 13
1.0
 23
0.0
 33
0.0
 40
0.0
 40
0.0
 40
0.0
 40
0.0
 40
0.1560186113409117
 40
0.4086735129021425
 40
0.5953335874232762
 40
0.7561090603058193
 40
0.9249103809613313
 40
1.0
 40
1.0
 40
1.0
 40
1.0
 10
23.99814153499946
 20
243.056585980539
 30
0.0
 10
23.99788509418083
 20
243.0588042495396
 30
0.0
 10
23.99721337579214
 20
243.0646147600757
 30
0.0
 10
24.00757221839833
 20
243.0876652717325
 30
0.0
 10
24.05329269552004
 20
243.1274217752977
 30
0.0
 10
24.12106717388668
 20
243.1579593757821
 30
0.0
 10
24.18992253453722
 20
243.1745565247746
 30
0.0
 10
24.23363645616305
 20
243.1734102191727
 30
0.0
 10
24.2470951837635
 20
243.1730572923642
 30
0.0
  0
LINE
  5
65
330
1F
100
AcDbEntity
  8
0
  6
Continuous
 62
     7
370
    15
100
AcDbLine
 10
24.2470954809
 20
243.17494866
 30
0.0
 11
29.3470954809
 21
243.17494866
 31
0.0
  0
ARC
  5
66
330
1F
100
AcDbEntity
  8
0
  6
Continuous
 62
     7
370
    15
100
AcDbCircle
 10
29.3470954809
 20
243.42494866
 30
0.0
 40
0.2500000000000284
100
AcDbArc
 50
270.0
 51
0.0
  0
ARC
  5
67
330
1F
100
AcDbEntity
  8
0
  6
Continuous
 62
     7
370
    15
100
AcDbCircle
 10
29.3470954809
 20
248.2511156321
 30
0.0
 40
0.2500000000000284
100
AcDbArc
 50
0.0
 51
90.0
  0
LINE
  5
68
330
1F
100
AcDbEntity
  8
0
  6
Continuous
 62
     7
370
    15
100
AcDbLine
 10
29.3470954809
 20
248.5011156321
 30
0.0
 11
24.2470954809
 21
248.5011156321
 31
0.0
  0
ARC
  5
69
330
1F
100
AcDbEntity
  8
0
  6
Continuous
 62
     7
370
    15
100
AcDbCircle
 10
23.0470954809
 20
247.950539324
 30
0.0
 40
0.25
100
AcDbArc
 50
90.0
 51
180.0
  0
LINE
  5
6A
330
1F
100
AcDbEntity
  8
0
  6
Continuous
 62
     7
370
    15
100
AcDbLine
 10
23.3103158936
 20
248.200539324
 30
0.0
 11
23.0470954809
 21
248.200539324
 31
0.0
  0
LINE
  5
6B
330
1F
100
AcDbEntity
  8
0
  6
Continuous
 62
     7
370
    15
100
AcDbLine
 10
24.8186164978
 20
230.4999630159
 30
0.0
 11
29.3470954809
 21
230.4999630159
 31
0.0
  0
ARC
  5
6C
330
1F
100
AcDbEntity
  8
0
  6
Continuous
 62
     7
370
    15
100
AcDbCircle
 10
29.3470954809
 20
230.7499630159
 30
0.0
 40
0.25
100
AcDbArc
 50
270.0
 51
0.0
  0
LINE
  5
6D
330
1F
100
AcDbEntity
  8
0
  6
Continuous
 62
     7
370
    15
100
AcDbLine
 10
30.6470954809
 20
234.500539324
 30
0.0
 11
30.8434524148
 21
234.1604391381
 31
0.0
  0
LINE
  5
6E
330
1F
100
AcDbEntity
  8
0
  6
Continuous
 62
     7
370
    15
100
AcDbLine
 10
30.8434524148
 20
244.84063951
 30
0.0
 11
30.6470954809
 21
244.500539324
 31
0.0
  0
LINE
  5
6F
330
1F
100
AcDbEntity
  8
0
  6
Continuous
 62
     7
370
    15
100
AcDbLine
 10
30.3970954809
 20
244.500539324
 30
0.0
 11
30.3088893639
 21
244.6533168001
 31
0.0
  0
LINE
  5
70
330
1F
100
AcDbEntity
  8
0
  6
Continuous
 62
     7
370
    15
100
AcDbLine
 10
25.1970954809
 20
234.500539324
 30
0.0
 11
25.2853015979
 21
234.3477618479
 31
0.0
  0
LINE
  5
71
330
1F
100
AcDbEntity
  8
0
  6
Continuous
 62
     7
370
    15
100
AcDbLine
 10
30.3088893639
 20
234.3477618479
 30
0.0
 11
30.3970954809
 21
234.500539324
 31
0.0
  0
LINE
  5
72
330
1F
100
AcDbEntity
  8
0
  6
Continuous
 62
     7
370
    15
100
AcDbLine
 10
30.6470954809
 20
242.500539324
 30
0.0
 11
30.3970954809
 21
242.500539324
 31
0.0
  0
LINE
  5
73
330
1F
100
AcDbEntity
  8
0
  6
Continuous
 62
     7
370
    15
100
AcDbLine
 10
30.3970954809
 20
236.500539324
 30
0.0
 11
30.6470954809
 21
236.500539324
 31
0.0
  0
SPLINE
  5
74
330
1F
100
AcDbEntity
  8
0
  6
Continuous
 62
     7
370
    15
100
AcDbSpline
210
0.0
220
0.0
230
1.0
 70
     8
 71
     3
 72
    15
 73
    11
 74
     0
 42
0.00000001
 43
0.00000001
 12
1.0
 22
0.0
 32
0.0
 13
1.0
 23
0.0
 33
0.0
 40
0.0
 40
0.0
 40
0.0
 40
0.0
 40
0.1406067393662267
 40
0.3206317628555119
 40
0.4810228084604526
 40
0.6253594512286555
 40
0.7542633327015879
 40
0.8626671817775708
 40
0.9533278545180837
 40
1.0
 40
1.0
 40
1.0
 40
1.0
 10
485.0865112087849
 20
513.6716639223451
 30
0.0
 10
485.0363380416006
 20
513.360537012739
 30
0.0
 10
484.9219259507233
 20
512.6510605683775
 30
0.0
 10
484.415713280589
 20
511.6793317885611
 30
0.0
 10
483.7208572075031
 20
510.8578154959702
 30
0.0
 10
482.976594197473
 20
510.2990216704286
 30
0.0
 10
482.2858646667427
 20
509.9699020788551
 30
0.0
 10
481.7830216280698
 20
509.8275846137357
 30
0.0
 10
481.5526281337484
 20
509.7971929650978
 30
0.0
 10
481.5628451566141
 20
509.7981909387024
 30
0.0
 10
481.566317381125
 20
509.7985300970323
 30
0.0
  0
SPLINE
  5
75
330
1F
100
AcDbEntity
  8
0
  6
Continuous
 62
     7
370
    15
100
AcDbSpline
210
0.0
220
0.0
230
1.0
 70
     8
 71
     3
 72
    15
 73
    11
 74
     0
 42
0.00000001
 43
0.00000001
 12
1.0
 22
0.0
 32
0.0
 13
1.0
 23
0.0
 33
0.0
 40
0.0
 40
0.0
 40
0.0
 40
0.0
 40
0.0669649299133114
 40
0.1596954388855609
 40
0.2716971635041224
 40
0.4172493750141743
 40
0.576388418597747
 40
0.7432793526490549
 40
0.9132543269730551
 40
1.0
 40
1.0
 40
1.0
 40
1.0
 10
317.893880077859
 20
509.7990241903914
 30
0.0
 10
317.8916763559182
 20
509.7988720020378
 30
0.0
 10
317.88642100296
 20
509.7985090689927
 30
0.0
 10
317.5795960681741
 20
509.8483542101452
 30
0.0
 10
316.9961882052329
 20
510.037607087333
 30
0.0
 10
316.2345383388548
 20
510.4534236053219
 30
0.0
 10
315.4517991714358
 20
511.1436898278644
 30
0.0
 10
314.8203282840077
 20
512.0673407425536
 30
0.0
 10
314.4409815726439
 20
512.9699128494817
 30
0.0
 10
314.3962847240505
 20
513.5465989272649
 30
0.0
 10
314.3811816996018
 20
513.7414606279451
 30
0.0
  0
SPLINE
  5
76
330
1F
100
AcDbEntity
  8
0
  6
Continuous
 62
     7
370
    15
100
AcDbSpline
210
0.0
220
0.0
230
1.0
 70
     8
 71
     3
 72
    15
 73
    11
 74
     0
 42
0.00000001
 43
0.00000001
 12
1.0
 22
0.0
 32
0.0
 13
1.0
 23
0.0
 33
0.0
 40
0.0
 40
0.0
 40
0.0
 40
0.0
 40
0.1129173009833982
 40
0.2961372825030393
 40
0.4591198900331524
 40
0.6054995994084686
 40
0.7362472457872402
 40
0.8500105417096206
 40
0.9432487829851506
 40
1.0
 40
1.0
 40
1.0
 40
1.0
 10
305.0674846436266
 20
513.6161374724618
 30
0.0
 10
305.0323826784696
 20
513.3675637096665
 30
0.0
 10
304.9403241499572
 20
512.7156533471738
 30
0.0
 10
304.4745948764533
 20
511.7838930869311
 30
0.0
 10
303.7939119467633
 20
510.9368341855456
 30
0.0
 10
303.0494796720436
 20
510.3537860005827
 30
0.0
 10
302.353825044069
 20
510.0028379895593
 30
0.0
 10
301.8083920774358
 20
509.8380368162148
 30
0.0
 10
301.5309993507617
 20
509.7980459973699
 30
0.0
 10
301.5294574258433
 20
509.7984515722497
 30
0.0
 10
301.5288740107376
 20
509.7986050288211
 30
0.0
  0
SPLINE
  5
77
330
1F
100
AcDbEntity
  8
0
  6
Continuous
 62
     7
370
    15
100
AcDbSpline
210
0.0
220
0.0
230
1.0
 70
     8
 71
     3
 72
    16
 73
    12
 74
     0
 42
0.00000001
 43
0.00000001
 12
1.0
 22
0.0
 32
0.0
 13
1.0
 23
0.0
 33
0.0
 40
0.0
 40
0.0
 40
0.0
 40
0.0
 40
0.0013621120609658
 40
0.0878918772788647
 40
0.1824024891023527
 40
0.3122624329361739
 40
0.4596551937654061
 40
0.6203374133868362
 40
0.787477111612133
 40
0.9728734304899408
 40
1.0
 40
1.0
 40
1.0
 40
1.0
 10
497.9494718525195
 20
509.7968211141488
 30
0.0
 10
497.9500423215502
 20
509.7968053294677
 30
0.0
 10
497.9868525044056
 20
509.7957868044159
 30
0.0
 10
497.8575753894646
 20
509.8020125272537
 30
0.0
 10
497.4790419418496
 20
509.8811490531697
 30
0.0
 10
496.8055022620373
 20
510.1275577039586
 30
0.0
 10
496.0190150723919
 20
510.6248516638059
 30
0.0
 10
495.2592633333487
 20
511.3815180402987
 30
0.0
 10
494.672441647373
 20
512.3869950987519
 30
0.0
 10
494.3687008532079
 20
513.2282815492474
 30
0.0
 10
494.3610622302709
 20
513.7065806223068
 30
0.0
 10
494.3600872311184
 20
513.767631049159
 30
0.0
  0
SPLINE
  5
78
330
1F
100
AcDbEntity
  8
0
  6
Continuous
 62
     7
370
    15
100
AcDbSpline
210
0.0
220
0.0
230
1.0
 70
     8
 71
     3
 72
    15
 73
    11
 74
     0
 42
0.00000001
 43
0.00000001
 12
1.0
 22
0.0
 32
0.0
 13
1.0
 23
0.0
 33
0.0
 40
0.0
 40
0.0
 40
0.0
 40
0.0
 40
0.020418183156964
 40
0.128978126842875
 40
0.2366653030213824
 40
0.3640259544737375
 40
0.5130022161705804
 40
0.6761085796175097
 40
0.8429387605132912
 40
1.0
 40
1.0
 40
1.0
 40
1.0
 10
267.9492547002594
 20
509.7987812868321
 30
0.0
 10
267.9557038069169
 20
509.7985781965092
 30
0.0
 10
267.9964416967721
 20
509.7972953101121
 30
0.0
 10
267.7679051792155
 20
509.8151346764133
 30
0.0
 10
267.2744232048342
 20
509.9440987162471
 30
0.0
 10
266.5610436931916
 20
510.259582818049
 30
0.0
 10
265.7717634912348
 20
510.8318770258468
 30
0.0
 10
265.0572111770533
 20
511.667762448518
 30
0.0
 10
264.5313031054201
 20
512.6762503685964
 30
0.0
 10
264.4115997590678
 20
513.410215666948
 30
0.0
 10
264.3535532818669
 20
513.7661296932077
 30
0.0
  0
SPLINE
  5
79
330
1F
100
AcDbEntity
  8
0
  6
Continuous
 62
     7
370
    15
100
AcDbSpline
210
0.0
220
0.0
230
1.0
 70
     8
 71
     3
 72
    16
 73
    12
 74
     0
 42
0.00000001
 43
0.00000001
 12
1.0
 22
0.0
 32
0.0
 13
1.0
 23
0.0
 33
0.0
 40
0.0
 40
0.0
 40
0.0
 40
0.0
 40
0.0329308133519768
 40
0.2022201126296916
 40
0.3774357540570818
 40
0.5337419716088665
 40
0.6681356047164674
 40
0.784627556017525
 40
0.8853729316018115
 40
0.9806309543540155
 40
1.0
 40
1.0
 40
1.0
 40
1.0
 10
535.0853211992205
 20
513.6622599225753
 30
0.0
 10
535.0823761520511
 20
513.5887665199801
 30
0.0
 10
535.0642913339227
 20
513.137461415806
 30
0.0
 10
534.7546542867669
 20
512.3143588842698
 30
0.0
 10
534.1724977727829
 20
511.3416686834946
 30
0.0
 10
533.417086421241
 20
510.610290924089
 30
0.0
 10
532.6831011857466
 20
510.1493118178961
 30
0.0
 10
532.0561983690554
 20
509.9052916983881
 30
0.0
 10
531.6527878170621
 20
509.8113211416897
 30
0.0
 10
531.4668478291876
 20
509.797386005278
 30
0.0
 10
531.5039000522469
 20
509.7985198935122
 30
0.0
 10
531.5101609311977
 20
509.798711491651
 30
0.0
  0
SPLINE
  5
7A
330
1F
100
AcDbEntity
  8
0
  6
Continuous
 62
     7
370
    15
100
AcDbSpline
210
0.0
220
0.0
230
1.0
 70
     8
 71
     3
 72
    15
 73
    11
 74
     0
 42
0.00000001
 43
0.00000001
 12
1.0
 22
0.0
 32
0.0
 13
1.0
 23
0.0
 33
0.0
 40
0.0
 40
0.0
 40
0.0
 40
0.0
 40
0.091164603041071
 40
0.1923032960493212
 40
0.3082835558438425
 40
0.4497101994033454
 40
0.6095756564777207
 40
0.7742796244370727
 40
0.9550182375077789
 40
1.0
 40
1.0
 40
1.0
 40
1.0
 10
547.9894836387533
 20
509.7994891149758
 30
0.0
 10
547.9717440046396
 20
509.8000877881006
 30
0.0
 10
547.9343238876537
 20
509.8013506336714
 30
0.0
 10
547.5336011889443
 20
509.8726689203835
 30
0.0
 10
546.9003567576166
 20
510.0969742013716
 30
0.0
 10
546.1140564295108
 20
510.5595235266487
 30
0.0
 10
545.3381069223573
 20
511.2919861779902
 30
0.0
 10
544.7203010776005
 20
512.2820882340344
 30
0.0
 10
544.3896934565627
 20
513.1517138359968
 30
0.0
 10
544.3715499024814
 20
513.6672874127187
 30
0.0
 10
544.3679342384618
 20
513.770031385732
 30
0.0
  0
SPLINE
  5
7B
330
1F
100
AcDbEntity
  8
0
  6
Continuous
 62
     7
370
    15
100
AcDbSpline
210
0.0
220
0.0
230
1.0
 70
     8
 71
     3
 72
    16
 73
    12
 74
     0
 42
0.00000001
 43
0.00000001
 12
1.0
 22
0.0
 32
0.0
 13
1.0
 23
0.0
 33
0.0
 40
0.0
 40
0.0
 40
0.0
 40
0.0
 40
0.0187506172056577
 40
0.1864609682414372
 40
0.3603724677030715
 40
0.5161230479816785
 40
0.6559116341402563
 40
0.7730820228644346
 40
0.8725942626193313
 40
0.9652409836291661
 40
0.9999999999999999
 40
0.9999999999999999
 40
0.9999999999999999
 40
0.9999999999999999
 10
255.0969056169018
 20
513.6951961842426
 30
0.0
 10
255.09595527013
 20
513.6529160132027
 30
0.0
 10
255.0865047769917
 20
513.2324710996811
 30
0.0
 10
254.8000182784604
 20
512.4318716967671
 30
0.0
 10
254.2426661733247
 20
511.4413476446362
 30
0.0
 10
253.4940119026674
 20
510.6798128860648
 30
0.0
 10
252.7403718151792
 20
510.185883022725
 30
0.0
 10
252.0873257436161
 20
509.9210409956033
 30
0.0
 10
251.6523989438323
 20
509.816485603022
 30
0.0
 10
251.457345288919
 20
509.798552554704
 30
0.0
 10
251.4831495380083
 20
509.7996036292224
 30
0.0
 10
251.4901894903289
 20
509.799890384883
 30
0.0
  0
SPLINE
  5
7C
330
1F
100
AcDbEntity
  8
0
  6
Continuous
 62
     7
370
    15
100
AcDbSpline
210
0.0
220
0.0
230
1.0
 70
     8
 71
     3
 72
    15
 73
    11
 74
     0
 42
0.00000001
 43
0.00000001
 12
1.0
 22
0.0
 32
0.0
 13
1.0
 23
0.0
 33
0.0
 40
0.0
 40
0.0
 40
0.0
 40
0.0
 40
0.0899064948371719
 40
0.2721958050970597
 40
0.4343472598485694
 40
0.5800827826062858
 40
0.7109425735631393
 40
0.8250654058325857
 40
0.9175203180424397
 40
1.0
 40
1.0
 40
1.0
 40
1.0
 10
585.0657167973421
 20
513.64050831627
 30
0.0
 10
585.0405659673731
 20
513.4379121609612
 30
0.0
 10
584.964420740884
 20
512.8245435305445
 30
0.0
 10
584.5262826501696
 20
511.9146861938842
 30
0.0
 10
583.8505098956517
 20
511.0360981872553
 30
0.0
 10
583.0945423214424
 20
510.4225951545585
 30
0.0
 10
582.3720140016749
 20
510.0435546298207
 30
0.0
 10
581.7802269418704
 20
509.8571189180328
 30
0.0
 10
581.4230443853482
 20
509.8014580273497
 30
0.0
 10
581.3866667750399
 20
509.7999941185511
 30
0.0
 10
581.3695151433523
 20
509.7993039021151
 30
0.0
  0
SPLINE
  5
7D
330
1F
100
AcDbEntity
  8
0
  6
Continuous
 62
     7
370
    15
100
AcDbSpline
210
0.0
220
0.0
230
1.0
 70
     8
 71
     3
 72
    16
 73
    12
 74
     0
 42
0.00000001
 43
0.00000001
 12
1.0
 22
0.0
 32
0.0
 13
1.0
 23
0.0
 33
0.0
 40
0.0
 40
0.0
 40
0.0
 40
0.0
 40
0.008916144475491
 40
0.0950894472930987
 40
0.1884886603453301
 40
0.3242457724826661
 40
0.4709793917781151
 40
0.6287428356090962
 40
0.7924077492465396
 40
0.9732548958682525
 40
1.0
 40
1.0
 40
1.0
 40
1.0
 10
218.080805136726
 20
509.7994184498265
 30
0.0
 10
218.0842706348714
 20
509.7993813388762
 30
0.0
 10
218.121229693145
 20
509.7989855557279
 30
0.0
 10
217.9786470602551
 20
509.8049250490993
 30
0.0
 10
217.5678085355395
 20
509.8839423682863
 30
0.0
 10
216.845184591419
 20
510.1418465330572
 30
0.0
 10
216.0251587223208
 20
510.6616777870506
 30
0.0
 10
215.255464618784
 20
511.4312026475765
 30
0.0
 10
214.6669647765798
 20
512.4432870780362
 30
0.0
 10
214.3625499594823
 20
513.2866306403006
 30
0.0
 10
214.3543207405492
 20
513.7671074317992
 30
0.0
 10
214.3532605308521
 20
513.8290095585639
 30
0.0
  0
SPLINE
  5
7E
330
1F
100
AcDbEntity
  8
0
  6
Continuous
 62
     7
370
    15
100
AcDbSpline
210
0.0
220
0.0
230
1.0
 70
     8
 71
     3
 72
    15
 73
    11
 74
     0
 42
0.00000001
 43
0.00000001
 12
1.0
 22
0.0
 32
0.0
 13
1.0
 23
0.0
 33
0.0
 40
0.0
 40
0.0
 40
0.0
 40
0.0
 40
0.033586426140588
 40
0.1155039979178311
 40
0.2251660332675387
 40
0.3554490467560558
 40
0.5033836788984977
 40
0.6616744657251994
 40
0.8249793358354554
 40
1.0
 40
1.0
 40
1.0
 40
1.0
 10
598.0999523791426
 20
509.8003758036029
 30
0.0
 10
598.1072684544358
 20
509.8001323455774
 30
0.0
 10
598.1324284980175
 20
509.7992950914094
 30
0.0
 10
597.9228877135372
 20
509.8161449709969
 30
0.0
 10
597.4085973566736
 20
509.9333706491226
 30
0.0
 10
596.6632560362306
 20
510.2474621878117
 30
0.0
 10
595.8517739049927
 20
510.8136835405618
 30
0.0
 10
595.1210959431123
 20
511.6331407848141
 30
0.0
 10
594.5493701141726
 20
512.6716927284576
 30
0.0
 10
594.4058317301124
 20
513.4581595342296
 30
0.0
 10
594.331577259887
 20
513.8650101226268
 30
0.0
  0
SPLINE
  5
7F
330
1F
100
AcDbEntity
  8
0
  6
Continuous
 62
     7
370
    15
100
AcDbSpline
210
0.0
220
0.0
230
1.0
 70
     8
 71
     3
 72
    15
 73
    11
 74
     0
 42
0.00000001
 43
0.00000001
 12
1.0
 22
0.0
 32
0.0
 13
1.0
 23
0.0
 33
0.0
 40
0.0
 40
0.0
 40
0.0
 40
0.0
 40
0.1972246671515006
 40
0.3744393895850091
 40
0.5335055472255407
 40
0.6761825856998651
 40
0.8012321447799147
 40
0.9096170056337228
 40
0.9983237116294514
 40
1.0
 40
1.0
 40
1.0
 40
1.0
 10
204.9736277470476
 20
513.0698604124611
 30
0.0
 10
204.8314552202915
 20
512.6816337324658
 30
0.0
 10
204.5615346525287
 20
511.9445689262343
 30
0.0
 10
203.8662232942935
 20
511.0678937250021
 30
0.0
 10
203.1172432113675
 20
510.4459923944089
 30
0.0
 10
202.3940792419095
 20
510.0597645624677
 30
0.0
 10
201.7788873616989
 20
509.8631846291813
 30
0.0
 10
201.417957602285
 20
509.801890563539
 30
0.0
 10
201.3055172556712
 20
509.7990104506649
 30
0.0
 10
201.3339964936158
 20
509.7993187434403
 30
0.0
 10
201.3345246838545
 20
509.7993244611929
 30
0.0
  0
SPLINE
  5
80
330
1F
100
AcDbEntity
  8
0
  6
Continuous
 62
     7
370
    15
100
AcDbSpline
210
0.0
220
0.0
230
1.0
 70
     8
 71
     3
 72
     9
 73
     5
 74
     0
 42
0.00000001
 43
0.00000001
 12
1.0
 22
0.0
 32
0.0
 13
1.0
 23
0.0
 33
0.0
 40
0.0
 40
0.0
 40
0.0
 40
0.0
 40
0.160638318814133
 40
1.0
 40
1.0
 40
1.0
 40
1.0
 10
130.3773745764926
 20
509.8613212421999
 30
0.0
 10
130.5214438926536
 20
509.8665483042379
 30
0.0
 10
131.4182991213717
 20
509.8990876265896
 30
0.0
 10
132.3458160406287
 20
509.868857829325
 30
0.0
 10
133.1243382013047
 20
509.8434840958711
 30
0.0
  0
SPLINE
  5
81
330
1F
100
AcDbEntity
  8
0
  6
Continuous
 62
     7
370
    15
100
AcDbSpline
210
0.0
220
0.0
230
1.0
 70
     8
 71
     3
 72
     9
 73
     5
 74
     0
 42
0.00000001
 43
0.00000001
 12
1.0
 22
0.0
 32
0.0
 13
1.0
 23
0.0
 33
0.0
 40
0.0
 40
0.0
 40
0.0
 40
0.0
 40
0.717528656415077
 40
0.9999999999999999
 40
0.9999999999999999
 40
0.9999999999999999
 40
0.9999999999999999
 10
666.3346164645551
 20
509.8449818783084
 30
0.0
 10
666.9585709101777
 20
509.8662179023295
 30
0.0
 10
667.8281591002022
 20
509.8958139663073
 30
0.0
 10
668.6650697207473
 20
509.8680760190006
 30
0.0
 10
668.9014729881931
 20
509.8602408437567
 30
0.0
  0
ARC
  5
82
330
1F
100
AcDbEntity
  8
0
  6
Continuous
 62
     7
370
    15
100
AcDbCircle
 10
672.0812566867
 20
514.8005391725
 30
0.0
 40
4.9999998484872
100
AcDbArc
 50
203.4071792443
 51
269.9999409964
  0
ARC
  5
83
330
1F
100
AcDbEntity
  8
0
  6
Continuous
 62
     7
370
    15
100
AcDbCircle
 10
127.3793172781
 20
514.8005391727
 30
0.0
 40
4.999999848688654
100
AcDbArc
 50
270.0000590045
 51
336.65132703
  0
ARC
  5
84
330
1F
100
AcDbEntity
  8
0
  6
Continuous
 62
     7
370
    15
100
AcDbCircle
 10
391.0205962398
 20
514.8005389194
 30
0.0
 40
4.999999595429753
100
AcDbArc
 50
203.2536477345
 51
269.9873896756
  0
ARC
  5
85
330
1F
100
AcDbEntity
  8
0
  6
Continuous
 62
     7
370
    15
100
AcDbCircle
 10
408.4399777246
 20
514.8005389206
 30
0.0
 40
4.999999596566274
100
AcDbArc
 50
270.0126103297
 51
336.8698176015
  0
SPLINE
  5
86
330
1F
100
AcDbEntity
  8
0
  6
Continuous
 62
     7
370
    15
100
AcDbSpline
210
0.0
220
0.0
230
1.0
 70
     8
 71
     3
 72
    20
 73
    16
 74
     0
 42
0.00000001
 43
0.00000001
 12
1.0
 22
0.0
 32
0.0
 13
1.0
 23
0.0
 33
0.0
 40
0.0
 40
0.0
 40
0.0
 40
0.0
 40
0.0296691240336871
 40
0.1164975448065813
 40
0.2033418079526378
 40
0.2901572954291462
 40
0.3769212842515928
 40
0.4635956032190845
 40
0.5501221340999072
 40
0.6364211177545895
 40
0.7223959883842856
 40
0.8079485979574577
 40
0.8930056203009669
 40
0.9775501674373901
 40
1.0
 40
1.0
 40
1.0
 40
1.0
 10
667.484340262022
 20
512.8145063207154
 30
0.0
 10
667.3369714752206
 20
513.1549456976318
 30
0.0
 10
666.7583193443394
 20
514.4917007538719
 30
0.0
 10
665.6089016642608
 20
516.7213023975795
 30
0.0
 10
663.9764420749614
 20
519.4176992731728
 30
0.0
 10
662.1724205046029
 20
521.9121062364641
 30
0.0
 10
660.2190103541998
 20
524.1854775195623
 30
0.0
 10
658.1312059517943
 20
526.2148590014243
 30
0.0
 10
655.9280252453914
 20
527.9806431835771
 30
0.0
 10
653.6296927897803
 20
529.465075839062
 30
0.0
 10
651.2584664874911
 20
530.6529163847125
 30
0.0
 10
648.8379869414582
 20
531.5334458678365
 30
0.0
 10
646.3934137258667
 20
532.0955154543739
 30
0.0
 10
644.5421511070089
 20
532.2869454258382
 30
0.0
 10
643.5152428201153
 20
532.2981817003605
 30
0.0
 10
643.2997743145474
 20
532.3005393240261
 30
0.0
  0
SPLINE
  5
87
330
1F
100
AcDbEntity
  8
0
  6
Continuous
 62
     7
370
    15
100
AcDbSpline
210
0.0
220
0.0
230
1.0
 70
     8
 71
     3
 72
    20
 73
    16
 74
     0
 42
0.00000001
 43
0.00000001
 12
1.0
 22
0.0
 32
0.0
 13
1.0
 23
0.0
 33
0.0
 40
0.0
 40
0.0
 40
0.0
 40
0.0
 40
0.0465868844696849
 40
0.1303859211133518
 40
0.2144070518007173
 40
0.2988504375686203
 40
0.383775509021805
 40
0.4691693649056752
 40
0.554969582585255
 40
0.6410917671182395
 40
0.7274519196378607
 40
0.8139793870553264
 40
0.9006212194071531
 40
0.987341076966702
 40
1.0
 40
1.0
 40
1.0
 40
1.0
 10
156.160799650304
 20
532.3005393240261
 30
0.0
 10
155.7133125065648
 20
532.2907997643366
 30
0.0
 10
154.4608994274982
 20
532.2635409880563
 30
0.0
 10
152.3950890944548
 20
531.9700211143427
 30
0.0
 10
149.9859863724465
 20
531.3322720489522
 30
0.0
 10
147.6088007330324
 20
530.3851846996124
 30
0.0
 10
145.2833198297857
 20
529.1409998425627
 30
0.0
 10
143.0299950707274
 20
527.6077885628729
 30
0.0
 10
140.8696769605077
 20
525.7987991465902
 30
0.0
 10
138.8225338808033
 20
523.7301468858345
 30
0.0
 10
136.9082177809684
 20
521.420662975968
 30
0.0
 10
135.1427121459385
 20
518.8929989004761
 30
0.0
 10
133.5483514550159
 20
516.1665451002109
 30
0.0
 10
132.5237875235781
 20
514.1037657862453
 30
0.0
 10
132.0341152203644
 20
512.9607136174471
 30
0.0
 10
131.9717404964954
 20
512.8151110115231
 30
0.0
  0
SPLINE
  5
88
330
1F
100
AcDbEntity
  8
0
  6
Continuous
 62
     7
370
    15
100
AcDbSpline
210
0.0
220
0.0
230
1.0
 70
     8
 71
     3
 72
    20
 73
    16
 74
     0
 42
0.00000001
 43
0.00000001
 12
1.0
 22
0.0
 32
0.0
 13
1.0
 23
0.0
 33
0.0
 40
0.0
 40
0.0
 40
0.0
 40
0.0
 40
0.0292059272608314
 40
0.1160818765489787
 40
0.202973673588659
 40
0.2898366661986632
 40
0.3766481087565333
 40
0.4633697951113849
 40
0.5499435583357047
 40
0.6362895794223549
 40
0.7223112309551868
 40
0.8079103189947615
 40
0.8930135090936908
 40
0.9776039596458
 40
1.0
 40
1.0
 40
1.0
 40
1.0
 10
386.4154409255699
 20
512.8332803685267
 30
0.0
 10
386.2704153354031
 20
513.1681945516419
 30
0.0
 10
385.6939966343688
 20
514.499344441583
 30
0.0
 10
384.5469735977655
 20
516.7234427733921
 30
0.0
 10
382.9144474986666
 20
519.4197454112697
 30
0.0
 10
381.1102831639234
 20
521.913973513457
 30
0.0
 10
379.1567662088916
 20
524.1871659073643
 30
0.0
 10
377.0688625511283
 20
526.2163474252652
 30
0.0
 10
374.865599487697
 20
527.9819181340267
 30
0.0
 10
372.5672009087564
 20
529.466123955132
 30
0.0
 10
370.1959266432665
 20
530.6537276794897
 30
0.0
 10
367.7754182445587
 20
531.5340110221355
 30
0.0
 10
365.3308355259315
 20
532.0958362332755
 30
0.0
 10
363.4802169900603
 20
532.2869974125252
 30
0.0
 10
362.4539483184515
 20
532.2981952270796
 30
0.0
 10
362.2391141427635
 20
532.3005393240261
 30
0.0
  0
SPLINE
  5
89
330
1F
100
AcDbEntity
  8
0
  6
Continuous
 62
     7
370
    15
100
AcDbSpline
210
0.0
220
0.0
230
1.0
 70
     8
 71
     3
 72
    20
 73
    16
 74
     0
 42
0.00000001
 43
0.00000001
 12
1.0
 22
0.0
 32
0.0
 13
1.0
 23
0.0
 33
0.0
 40
0.0
 40
0.0
 40
0.0
 40
0.0
 40
0.0466115332274649
 40
0.1304549072888402
 40
0.2145204929021424
 40
0.299008557007859
 40
0.3839785616550005
 40
0.4694175987630164
 40
0.5552632126696057
 40
0.6414309637797553
 40
0.7278368087835482
 40
0.814410057210195
 40
0.9010977310808044
 40
0.9878634714416542
 40
1.0
 40
1.0
 40
1.0
 40
1.0
 10
437.221459822088
 20
532.3005393240261
 30
0.0
 10
436.7739726783628
 20
532.2907997643267
 30
0.0
 10
435.521559599335
 20
532.2635409880186
 30
0.0
 10
433.4557492658183
 20
531.9700211146425
 30
0.0
 10
431.0466465457855
 20
531.332272047844
 30
0.0
 10
428.6694608989731
 20
530.3851847037773
 30
0.0
 10
426.3439800235615
 20
529.1409998268877
 30
0.0
 10
424.0906551597839
 20
527.6077886218385
 30
0.0
 10
421.930337443102
 20
525.7987989250547
 30
0.0
 10
419.8831928866221
 20
523.7301477168974
 30
0.0
 10
417.9688823205569
 20
521.4206598627372
 30
0.0
 10
416.2033559742312
 20
518.8930105495929
 30
0.0
 10
414.6090727301572
 20
516.166501547698
 30
0.0
 10
413.5872150161264
 20
514.109733322538
 30
0.0
 10
413.1000296255705
 20
512.9728477697843
 30
0.0
 10
413.0402459677202
 20
512.8333378866506
 30
0.0
  0
SPLINE
  5
8A
330
1F
100
AcDbEntity
  8
0
  6
Continuous
 62
     7
370
    15
100
AcDbSpline
210
0.0
220
0.0
230
1.0
 70
     8
 71
     3
 72
     9
 73
     5
 74
     0
 42
0.00000001
 43
0.00000001
 12
1.0
 22
0.0
 32
0.0
 13
1.0
 23
0.0
 33
0.0
 40
0.0
 40
0.0
 40
0.0
 40
0.0
 40
0.5000141221696565
 40
1.0
 40
1.0
 40
1.0
 40
1.0
 10
609.8699407593655
 20
530.5825512055354
 30
0.0
 10
609.7715249109198
 20
529.1634922086228
 30
0.0
 10
609.5746987732524
 20
526.325454373301
 30
0.0
 10
609.3745208542091
 20
523.4876507776021
 30
0.0
 10
609.274434721634
 20
522.0687890556965
 30
0.0
  0
SPLINE
  5
8B
330
1F
100
AcDbEntity
  8
0
  6
Continuous
 62
     7
370
    15
100
AcDbSpline
210
0.0
220
0.0
230
1.0
 70
     8
 71
     3
 72
     9
 73
     5
 74
     0
 42
0.00000001
 43
0.00000001
 12
1.0
 22
0.0
 32
0.0
 13
1.0
 23
0.0
 33
0.0
 40
0.0
 40
0.0
 40
0.0
 40
0.0
 40
0.4999858778303436
 40
1.0
 40
1.0
 40
1.0
 40
1.0
 10
190.1861392432175
 20
522.0687890556965
 30
0.0
 10
190.0860531106424
 20
523.4876507776021
 30
0.0
 10
189.885875191599
 20
526.3254543733011
 30
0.0
 10
189.6890490539317
 20
529.1634922086228
 30
0.0
 10
189.5906332054859
 20
530.5825512055354
 30
0.0
  0
SPLINE
  5
8C
330
1F
100
AcDbEntity
  8
0
  6
Continuous
 62
     7
370
    15
100
AcDbSpline
210
0.0
220
0.0
230
1.0
 70
     8
 71
     3
 72
     9
 73
     5
 74
     0
 42
0.00000001
 43
0.00000001
 12
1.0
 22
0.0
 32
0.0
 13
1.0
 23
0.0
 33
0.0
 40
0.0
 40
0.0
 40
0.0
 40
0.0
 40
0.5000144910863907
 40
1.0
 40
1.0
 40
1.0
 40
1.0
 10
470.7959282996138
 20
522.1311018485612
 30
0.0
 10
470.6989966226044
 20
523.5397764362928
 30
0.0
 10
470.5051388870039
 20
526.3570439612216
 30
0.0
 10
470.3078920421545
 20
529.174076005334
 30
0.0
 10
470.209271478051
 20
530.5825512055353
 30
0.0
  0
SPLINE
  5
8D
330
1F
100
AcDbEntity
  8
0
  6
Continuous
 62
     7
370
    15
100
AcDbSpline
210
0.0
220
0.0
230
1.0
 70
     8
 71
     3
 72
     9
 73
     5
 74
     0
 42
0.00000001
 43
0.00000001
 12
1.0
 22
0.0
 32
0.0
 13
1.0
 23
0.0
 33
0.0
 40
0.0
 40
0.0
 40
0.0
 40
0.0
 40
0.4999855089136093
 40
1.0
 40
1.0
 40
1.0
 40
1.0
 10
329.2513024868005
 20
530.5825512055353
 30
0.0
 10
329.1526819226969
 20
529.1740760053339
 30
0.0
 10
328.9554350778477
 20
526.3570439612215
 30
0.0
 10
328.7615773422471
 20
523.5397764362928
 30
0.0
 10
328.6646456652377
 20
522.1311018485612
 30
0.0
  0
ARC
  5
8E
330
1F
100
AcDbEntity
  8
0
  6
Continuous
 62
     7
370
    15
100
AcDbCircle
 10
611.8499582582
 20
530.300539324
 30
0.0
 40
2.0
100
AcDbArc
 50
90.0
 51
171.8968628339
  0
ARC
  5
8F
330
1F
100
AcDbEntity
  8
0
  6
Continuous
 62
     7
370
    15
100
AcDbCircle
 10
187.6106157066
 20
530.300539324
 30
0.0
 40
2.0
100
AcDbArc
 50
8.1460564929
 51
90.0
  0
ARC
  5
90
330
1F
100
AcDbEntity
  8
0
  6
Continuous
 62
     7
370
    15
100
AcDbCircle
 10
468.2292539792
 20
530.300539324
 30
0.0
 40
2.0
100
AcDbArc
 50
8.1447798754
 51
90.0
  0
ARC
  5
91
330
1F
100
AcDbEntity
  8
0
  6
Continuous
 62
     7
370
    15
100
AcDbCircle
 10
331.2313199856
 20
530.300539324
 30
0.0
 40
2.000000000000027
100
AcDbArc
 50
90.0
 51
171.8973955384
  0
LINE
  5
92
330
1F
100
AcDbEntity
  8
0
  6
Continuous
 62
     7
370
    15
100
AcDbLine
 10
143.9013289028
 20
528.1442724289
 30
0.0
 11
143.677104284
 21
530.4919558986
 31
0.0
  0
LINE
  5
93
330
1F
100
AcDbEntity
  8
0
  6
Continuous
 62
     7
370
    15
100
AcDbLine
 10
655.790672897
 20
530.4912874073
 30
0.0
 11
655.5665652705
 21
528.1570697527
 31
0.0
  0
LINE
  5
94
330
1F
100
AcDbEntity
  8
0
  6
Continuous
 62
     7
370
    15
100
AcDbLine
 10
375.7384744686
 20
530.8519696216
 30
0.0
 11
375.4162544183
 21
527.4809653378
 31
0.0
  0
LINE
  5
95
330
1F
100
AcDbEntity
  8
0
  6
Continuous
 62
     7
370
    15
100
AcDbLine
 10
424.0438862748
 20
527.5092661404
 30
0.0
 11
423.7234525722
 21
530.8521022799
 31
0.0
  0
ARC
  5
96
330
1F
100
AcDbEntity
  8
0
  6
Continuous
 62
     7
370
    15
100
AcDbCircle
 10
657.7886150225
 20
530.300539324
 30
0.0
 40
2.000000000000016
100
AcDbArc
 50
90.0
 51
174.5464585597
  0
ARC
  5
97
330
1F
100
AcDbEntity
  8
0
  6
Continuous
 62
     7
370
    15
100
AcDbCircle
 10
141.6719589424
 20
530.300539324
 30
0.0
 40
2.000000000000016
100
AcDbArc
 50
5.4535414403
 51
90.0
  0
LINE
  5
98
330
1F
100
AcDbEntity
  8
0
  6
Continuous
 62
     7
370
    15
100
AcDbLine
 10
424.0438848023
 20
527.5092649078
 30
0.0
 11
423.7234512027
 21
530.8521004262
 31
0.0
  0
LINE
  5
99
330
1F
100
AcDbEntity
  8
0
  6
Continuous
 62
     7
370
    15
100
AcDbLine
 10
204.9330447179
 20
512.978856571
 30
0.0
 11
204.6864934525
 21
512.4031146737
 31
0.0
  0
LINE
  5
9A
330
1F
100
AcDbEntity
  8
0
  6
Continuous
 62
     7
370
    15
100
AcDbLine
 10
494.4317677942
 20
513.3586200849
 30
0.0
 11
494.379347981
 21
513.7561714117
 31
0.0
  0
ARC
  5
9B
330
1F
100
AcDbEntity
  8
0
  6
Continuous
 62
     7
370
    15
100
AcDbCircle
 10
140.7970954809
 20
56.000539324
 30
0.0
 40
2.0
100
AcDbArc
 50
270.0
 51
0.0
  0
ARC
  5
9C
330
1F
100
AcDbEntity
  8
0
  6
Continuous
 62
     7
370
    15
100
AcDbCircle
 10
87.7970954809
 20
56.000539324
 30
0.0
 40
2.0
100
AcDbArc
 50
180.0
 51
270.0
  0
LINE
  5
9D
330
1F
100
AcDbEntity
  8
0
  6
Continuous
 62
     7
370
    15
100
AcDbLine
 10
142.7970954809
 20
56.000539324
 30
0.0
 11
142.7970954809
 21
60.000539324
 31
0.0
  0
LINE
  5
9E
330
1F
100
AcDbEntity
  8
0
  6
Continuous
 62
     7
370
    15
100
AcDbLine
 10
85.7970954809
 20
60.000539324
 30
0.0
 11
85.7970954809
 21
56.000539324
 31
0.0
  0
ARC
  5
9F
330
1F
100
AcDbEntity
  8
0
  6
Continuous
 62
     7
370
    15
100
AcDbCircle
 10
714.7970954809
 20
56.000539324
 30
0.0
 40
2.0
100
AcDbArc
 50
270.0
 51
0.0
  0
ARC
  5
A0
330
1F
100
AcDbEntity
  8
0
  6
Continuous
 62
     7
370
    15
100
AcDbCircle
 10
661.7970954809
 20
56.000539324
 30
0.0
 40
2.0
100
AcDbArc
 50
180.0
 51
270.0
  0
LINE
  5
A1
330
1F
100
AcDbEntity
  8
0
  6
Continuous
 62
     7
370
    15
100
AcDbLine
 10
716.7970954809
 20
56.000539324
 30
0.0
 11
716.7970954809
 21
60.000539324
 31
0.0
  0
LINE
  5
A2
330
1F
100
AcDbEntity
  8
0
  6
Continuous
 62
     7
370
    15
100
AcDbLine
 10
659.7970954809
 20
60.000539324
 30
0.0
 11
659.7970954809
 21
56.000539324
 31
0.0
  0
LINE
  5
A3
330
1F
100
AcDbEntity
  8
0
  6
Continuous
 62
     7
370
    15
100
AcDbLine
 10
142.5970954809
 20
60.000539324
 30
0.0
 11
142.5970954809
 21
108.000539324
 31
0.0
  0
LINE
  5
A4
330
1F
100
AcDbEntity
  8
0
  6
Continuous
 62
     7
370
    15
100
AcDbLine
 10
85.9970954809
 20
108.000539324
 30
0.0
 11
85.9970954809
 21
60.000539324
 31
0.0
  0
LINE
  5
A5
330
1F
100
AcDbEntity
  8
0
  6
Continuous
 62
     7
370
    15
100
AcDbLine
 10
716.5970954809
 20
60.000539324
 30
0.0
 11
716.5970954809
 21
108.000539324
 31
0.0
  0
LINE
  5
A6
330
1F
100
AcDbEntity
  8
0
  6
Continuous
 62
     7
370
    15
100
AcDbLine
 10
659.9970954809
 20
108.000539324
 30
0.0
 11
659.9970954809
 21
60.000539324
 31
0.0
  0
ARC
  5
A7
330
1F
100
AcDbEntity
  8
0
  6
Continuous
 62
     7
370
    15
100
AcDbCircle
 10
721.6970954809
 20
200.500539324
 30
0.0
 40
1.500000000000114
100
AcDbArc
 50
90.0
 51
180.0
  0
ARC
  5
A8
330
1F
100
AcDbEntity
  8
0
  6
Continuous
 62
     7
370
    15
100
AcDbCircle
 10
654.8970954809
 20
200.500539324
 30
0.0
 40
1.5
100
AcDbArc
 50
0.0
 51
90.0
  0
LINE
  5
A9
330
1F
100
AcDbEntity
  8
0
  6
Continuous
 62
     7
370
    15
100
AcDbLine
 10
720.1970954809
 20
114.0331052697
 30
0.0
 11
720.1970954809
 21
200.500539324
 31
0.0
  0
LINE
  5
AA
330
1F
100
AcDbEntity
  8
0
  6
Continuous
 62
     7
370
    15
100
AcDbLine
 10
656.3970954809
 20
200.500539324
 30
0.0
 11
656.3970954809
 21
114.0331052697
 31
0.0
  0
ARC
  5
AB
330
1F
100
AcDbEntity
  8
0
  6
Continuous
 62
     7
370
    15
100
AcDbCircle
 10
715.4970954809
 20
114.0331052697
 30
0.0
 40
4.700000000000045
100
AcDbArc
 50
350.5402980318
 51
0.0
  0
ARC
  5
AC
330
1F
100
AcDbEntity
  8
0
  6
Continuous
 62
     7
370
    15
100
AcDbCircle
 10
661.0970954809
 20
114.0331052697
 30
0.0
 40
4.700000000000045
100
AcDbArc
 50
180.0
 51
189.4597019682
  0
LINE
  5
AD
330
1F
100
AcDbEntity
  8
0
  6
Continuous
 62
     7
370
    15
100
AcDbLine
 10
656.4610087079
 20
113.2606420452
 30
0.0
 11
657.3374452606
 21
108.000539324
 31
0.0
  0
LINE
  5
AE
330
1F
100
AcDbEntity
  8
0
  6
Continuous
 62
     7
370
    15
100
AcDbLine
 10
719.2567457013
 20
108.000539324
 30
0.0
 11
720.1331822539
 21
113.2606420452
 31
0.0
  0
ARC
  5
AF
330
1F
100
AcDbEntity
  8
0
  6
Continuous
 62
     7
370
    15
100
AcDbCircle
 10
147.6970954809
 20
200.500539324
 30
0.0
 40
1.500000000000028
100
AcDbArc
 50
90.0
 51
180.0
  0
ARC
  5
B0
330
1F
100
AcDbEntity
  8
0
  6
Continuous
 62
     7
370
    15
100
AcDbCircle
 10
80.8970954809
 20
200.500539324
 30
0.0
 40
1.500000000000028
100
AcDbArc
 50
0.0
 51
90.0
  0
ARC
  5
B1
330
1F
100
AcDbEntity
  8
0
  6
Continuous
 62
     7
370
    15
100
AcDbCircle
 10
141.4970954809
 20
114.0331052697
 30
0.0
 40
4.700000000000045
100
AcDbArc
 50
350.5402980318
 51
0.0
  0
ARC
  5
B2
330
1F
100
AcDbEntity
  8
0
  6
Continuous
 62
     7
370
    15
100
AcDbCircle
 10
87.0970954809
 20
114.0331052697
 30
0.0
 40
4.700000000000045
100
AcDbArc
 50
180.0
 51
189.4597019682
  0
LINE
  5
B3
330
1F
100
AcDbEntity
  8
0
  6
Continuous
 62
     7
370
    15
100
AcDbLine
 10
146.1970954809
 20
114.0331052697
 30
0.0
 11
146.1970954809
 21
200.500539324
 31
0.0
  0
LINE
  5
B4
330
1F
100
AcDbEntity
  8
0
  6
Continuous
 62
     7
370
    15
100
AcDbLine
 10
82.3970954809
 20
200.500539324
 30
0.0
 11
82.3970954809
 21
114.0331052697
 31
0.0
  0
LINE
  5
B5
330
1F
100
AcDbEntity
  8
0
  6
Continuous
 62
     7
370
    15
100
AcDbLine
 10
82.4610087079
 20
113.2606420452
 30
0.0
 11
83.3374452606
 21
108.000539324
 31
0.0
  0
LINE
  5
B6
330
1F
100
AcDbEntity
  8
0
  6
Continuous
 62
     7
370
    15
100
AcDbLine
 10
145.2567457013
 20
108.000539324
 30
0.0
 11
146.1331822539
 21
113.2606420452
 31
0.0
  0
LINE
  5
B7
330
1F
100
AcDbEntity
  8
0
  6
Continuous
 62
     7
370
    15
100
AcDbLine
 10
37.7006192873
 20
554.4799944838
 30
0.0
 11
37.7006192873
 21
555.5570792294
 31
0.0
  0
LINE
  5
B8
330
1F
100
AcDbEntity
  8
0
  6
Continuous
 62
     7
370
    15
100
AcDbLine
 10
37.7006192873
 20
555.5570792294
 30
0.0
 11
70.8716897039
 21
546.6689176992
 31
0.0
  0
ARC
  5
B9
330
1F
100
AcDbEntity
  8
0
  6
Continuous
 62
     7
370
    15
100
AcDbCircle
 10
64.4270954809
 20
522.6173646246
 30
0.0
 40
24.90000000000013
100
AcDbArc
 50
0.0
 51
75.0
  0
LINE
  5
BA
330
1F
100
AcDbEntity
  8
0
  6
Continuous
 62
     7
370
    15
100
AcDbLine
 10
37.2770954809
 20
554.4799944838
 30
0.0
 11
37.7006192873
 21
554.4799944838
 31
0.0
  0
LINE
  5
BB
330
1F
100
AcDbEntity
  8
0
  6
Continuous
 62
     7
370
    15
100
AcDbLine
 10
89.3270954809
 20
506.6090261999
 30
0.0
 11
37.2770954809
 21
506.6090261999
 31
0.0
  0
LINE
  5
BC
330
1F
100
AcDbEntity
  8
0
  6
Continuous
 62
     7
370
    15
100
AcDbLine
 10
89.3270954809
 20
522.6173646246
 30
0.0
 11
89.3270954809
 21
506.6090261999
 31
0.0
  0
LINE
  5
BD
330
1F
100
AcDbEntity
  8
0
  6
Continuous
 62
     7
370
    15
100
AcDbLine
 10
35.2270954809
 20
554.4799944838
 30
0.0
 11
37.2770954809
 21
554.4799944838
 31
0.0
  0
LINE
  5
BE
330
1F
100
AcDbEntity
  8
0
  6
Continuous
 62
     7
370
    15
100
AcDbLine
 10
37.2770954809
 20
506.6090261999
 30
0.0
 11
35.2270954809
 21
506.6090261999
 31
0.0
  0
LINE
  5
BF
330
1F
100
AcDbEntity
  8
0
  6
Continuous
 62
     7
370
    15
100
AcDbLine
 10
35.2270954809
 20
506.6090261999
 30
0.0
 11
35.2270954809
 21
554.4799944838
 31
0.0
  0
LINE
  5
C0
330
1F
100
AcDbEntity
  8
0
  6
Continuous
 62
     7
370
    15
100
AcDbLine
 10
89.4270954809
 20
506.500539324
 30
0.0
 11
90.2270954809
 21
506.500539324
 31
0.0
  0
LINE
  5
C1
330
1F
100
AcDbEntity
  8
0
  6
Continuous
 62
     7
370
    15
100
AcDbLine
 10
89.4270954809
 20
522.6173646246
 30
0.0
 11
89.4270954809
 21
506.500539324
 31
0.0
  0
LINE
  5
C2
330
1F
100
AcDbEntity
  8
0
  6
Continuous
 62
     7
370
    15
100
AcDbLine
 10
90.2270954809
 20
522.6173646246
 30
0.0
 11
90.2270954809
 21
506.500539324
 31
0.0
  0
ARC
  5
C3
330
1F
100
AcDbEntity
  8
0
  6
Continuous
 62
     7
370
    15
100
AcDbCircle
 10
64.4270954809
 20
522.6173646246
 30
0.0
 40
25.80000000000006
100
AcDbArc
 50
0.0
 51
75.0
  0
ARC
  5
C4
330
1F
100
AcDbEntity
  8
0
  6
Continuous
 62
     7
370
    15
100
AcDbCircle
 10
64.4270954809
 20
522.6173646246
 30
0.0
 40
25.00000000000003
100
AcDbArc
 50
0.0
 51
75.0
  0
LINE
  5
C5
330
1F
100
AcDbEntity
  8
0
  6
Continuous
 62
     7
370
    15
100
AcDbLine
 10
37.8076745234
 20
556.4601424277
 30
0.0
 11
37.6006192873
 21
555.6874017667
 31
0.0
  0
LINE
  5
C6
330
1F
100
AcDbEntity
  8
0
  6
Continuous
 62
     7
370
    15
100
AcDbLine
 10
37.8076745234
 20
556.4601424277
 30
0.0
 11
71.1046268445
 21
547.5382509428
 31
0.0
  0
LINE
  5
C7
330
1F
100
AcDbEntity
  8
0
  6
Continuous
 62
     7
370
    15
100
AcDbLine
 10
37.6006192873
 20
555.6874017667
 30
0.0
 11
70.8975716085
 21
546.7655102818
 31
0.0
  0
ARC
  5
C8
330
1F
100
AcDbEntity
  8
0
  6
Continuous
 62
     7
370
    15
100
AcDbCircle
 10
37.2770954809
 20
554.4799944838
 30
0.0
 40
2.049999999999997
100
AcDbArc
 50
75.0
 51
180.0
  0
ARC
  5
C9
330
1F
100
AcDbEntity
  8
0
  6
Continuous
 62
     7
370
    15
100
AcDbCircle
 10
37.2770954809
 20
554.4799944838
 30
0.0
 40
1.250000000000028
100
AcDbArc
 50
75.0
 51
180.0
  0
LINE
  5
CA
330
1F
100
AcDbEntity
  8
0
  6
Continuous
 62
     7
370
    15
100
AcDbLine
 10
36.0270954809
 20
506.6090261999
 30
0.0
 11
36.0270954809
 21
505.2335070544
 31
0.0
  0
LINE
  5
CB
330
1F
100
AcDbEntity
  8
0
  6
Continuous
 62
     7
370
    15
100
AcDbLine
 10
35.2270954809
 20
506.6090261999
 30
0.0
 11
35.2270954809
 21
505.2335070544
 31
0.0
  0
SPLINE
  5
CC
330
1F
100
AcDbEntity
  8
0
  6
Continuous
 62
     7
370
    15
100
AcDbSpline
210
0.0
220
0.0
230
1.0
 70
     8
 71
     3
 72
    12
 73
     8
 74
     0
 42
0.00000001
 43
0.00000001
 12
1.0
 22
0.0
 32
0.0
 13
1.0
 23
0.0
 33
0.0
 40
0.0
 40
0.0
 40
0.0
 40
0.0
 40
0.2301693782020206
 40
0.4604221642956666
 40
0.6906753391241343
 40
0.9209283614222017
 40
1.0
 40
1.0
 40
1.0
 40
1.0
 10
743.9041665487093
 20
328.7128647968978
 30
0.0
 10
743.9995561134631
 20
328.6867874886037
 30
0.0
 10
744.1903698098731
 20
328.6346234222211
 30
0.0
 10
744.4766615524713
 20
328.229913437512
 30
0.0
 10
744.7627766825071
 20
327.6418855817554
 30
0.0
 10
744.986891489916
 20
327.0778609359232
 30
0.0
 10
745.1144803604866
 20
326.747351762305
 30
0.0
 10
745.1470954808967
 20
326.6628647968979
 30
0.0
  0
LINE
  5
CD
330
1F
100
AcDbEntity
  8
0
  6
Continuous
 62
     7
370
    15
100
AcDbLine
 10
743.9041665487
 20
328.7128647969
 30
0.0
 11
799.7763848027
 21
328.7128647969
 31
0.0
  0
SPLINE
  5
CE
330
1F
100
AcDbEntity
  8
0
  6
Continuous
 62
     7
370
    15
100
AcDbSpline
210
0.0
220
0.0
230
1.0
 70
     8
 71
     3
 72
    11
 73
     7
 74
     0
 42
0.00000001
 43
0.00000001
 12
1.0
 22
0.0
 32
0.0
 13
1.0
 23
0.0
 33
0.0
 40
0.0
 40
0.0
 40
0.0
 40
0.0
 40
0.2499999999999978
 40
0.5000000000000016
 40
0.7500000000000034
 40
0.9999999999999999
 40
0.9999999999999999
 40
0.9999999999999999
 40
0.9999999999999999
 10
799.8470954808947
 20
326.6628647968992
 30
0.0
 10
799.8412029243799
 20
326.931490736702
 30
0.0
 10
799.8294178113503
 20
327.4687426163076
 30
0.0
 10
799.8117401418061
 20
328.1463597373563
 30
0.0
 10
799.7940624722615
 20
328.6204206242572
 30
0.0
 10
799.782277359232
 20
328.6820500726852
 30
0.0
 10
799.7763848027173
 20
328.7128647968992
 30
0.0
  0
SPLINE
  5
CF
330
1F
100
AcDbEntity
  8
0
  6
Continuous
 62
     7
370
    15
100
AcDbSpline
210
0.0
220
0.0
230
1.0
 70
     8
 71
     3
 72
    11
 73
     7
 74
     0
 42
0.00000001
 43
0.00000001
 12
1.0
 22
0.0
 32
0.0
 13
1.0
 23
0.0
 33
0.0
 40
0.0
 40
0.0
 40
0.0
 40
0.0
 40
0.2499999999999935
 40
0.4999999999999972
 40
0.7499999999999932
 40
0.9999999999999999
 40
0.9999999999999999
 40
0.9999999999999999
 40
0.9999999999999999
 10
745.147095480899
 20
205.7628647968997
 30
0.0
 10
745.043518069883
 20
205.4942388570967
 30
0.0
 10
744.8363632478513
 20
204.9569869774908
 30
0.0
 10
744.5256310148036
 20
204.2793698564415
 30
0.0
 10
744.2148987817559
 20
203.8053089695401
 30
0.0
 10
744.0077439597243
 20
203.7436795211119
 30
0.0
 10
743.9041665487084
 20
203.7128647968978
 30
0.0
  0
LINE
  5
D0
330
1F
100
AcDbEntity
  8
0
  6
Continuous
 62
     7
370
    15
100
AcDbLine
 10
743.9041665487
 20
204.5128647969
 30
0.0
 11
743.9041665487
 21
203.7128647969
 31
0.0
  0
SPLINE
  5
D1
330
1F
100
AcDbEntity
  8
0
  6
Continuous
 62
     7
370
    15
100
AcDbSpline
210
0.0
220
0.0
230
1.0
 70
     8
 71
     3
 72
    11
 73
     7
 74
     0
 42
0.00000001
 43
0.00000001
 12
1.0
 22
0.0
 32
0.0
 13
1.0
 23
0.0
 33
0.0
 40
0.0
 40
0.0
 40
0.0
 40
0.0
 40
0.2499999999999964
 40
0.499999999999997
 40
0.7499999999999849
 40
1.0
 40
1.0
 40
1.0
 40
1.0
 10
745.147095480899
 20
205.762864796899
 30
0.0
 10
745.043518069883
 20
205.599068492141
 30
0.0
 10
744.8363632478512
 20
205.2714758826252
 30
0.0
 10
744.5256310148036
 20
204.8582947112537
 30
0.0
 10
744.214898781756
 20
204.5692331948504
 30
0.0
 10
744.0077439597242
 20
204.531654262882
 30
0.0
 10
743.9041665487083
 20
204.5128647968978
 30
0.0
  0
LWPOLYLINE
  5
D2
330
1F
100
AcDbEntity
  8
0
  6
Continuous
 62
     7
370
    15
100
AcDbPolyline
 90
        2
 70
   128
 43
0.0
 10
745.1470954809
 20
205.7628647969
 10
745.1470954809
 20
205.7628647969
  0
SPLINE
  5
D3
330
1F
100
AcDbEntity
  8
0
  6
Continuous
 62
     7
370
    15
100
AcDbSpline
210
0.0
220
0.0
230
1.0
 70
     8
 71
     3
 72
    12
 73
     8
 74
     0
 42
0.00000001
 43
0.00000001
 12
1.0
 22
0.0
 32
0.0
 13
1.0
 23
0.0
 33
0.0
 40
0.0
 40
0.0
 40
0.0
 40
0.0
 40
0.1888376486350332
 40
0.3778471311091174
 40
0.5698173518504515
 40
0.7755812037609133
 40
1.0
 40
1.0
 40
1.0
 40
1.0
 10
743.0970954808951
 20
204.5199358647097
 30
0.0
 10
743.1176962743938
 20
204.5416079427147
 30
0.0
 10
743.1589166071946
 20
204.5849718193492
 30
0.0
 10
743.4744234036068
 20
204.7486700386492
 30
0.0
 10
743.924262759196
 20
205.0179673037991
 30
0.0
 10
744.4940587812982
 20
205.3704932455115
 30
0.0
 10
744.9232131303751
 20
205.6283469891619
 30
0.0
 10
745.1470954808952
 20
205.7628647968992
 30
0.0
  0
SPLINE
  5
D4
330
1F
100
AcDbEntity
  8
0
  6
Continuous
 62
     7
370
    15
100
AcDbSpline
210
0.0
220
0.0
230
1.0
 70
     8
 71
     3
 72
    12
 73
     8
 74
     0
 42
0.00000001
 43
0.00000001
 12
1.0
 22
0.0
 32
0.0
 13
1.0
 23
0.0
 33
0.0
 40
0.0
 40
0.0
 40
0.0
 40
0.0
 40
0.1759421544988087
 40
0.3356061294321468
 40
0.5051414427432515
 40
0.7914130039456181
 40
1.0
 40
1.0
 40
1.0
 40
1.0
 10
743.8970954808951
 20
204.5199358647097
 30
0.0
 10
743.9106502820748
 20
204.5425966848582
 30
0.0
 10
743.9365057933485
 20
204.5858217446028
 30
0.0
 10
744.1175301615084
 20
204.7413810099191
 30
0.0
 10
744.3979416322617
 20
205.0118841045041
 30
0.0
 10
744.7515325548293
 20
205.3729197284722
 30
0.0
 10
745.0298024194631
 20
205.6472375531608
 30
0.0
 10
745.147095480895
 20
205.7628647968992
 30
0.0
  0
LINE
  5
D5
330
1F
100
AcDbEntity
  8
0
  6
Continuous
 62
     7
370
    15
100
AcDbLine
 10
743.0970954809
 20
204.5199358647
 30
0.0
 11
743.8970954809
 21
204.5199358647
 31
0.0
  0
SPLINE
  5
D6
330
1F
100
AcDbEntity
  8
0
  6
Continuous
 62
     7
370
    15
100
AcDbSpline
210
0.0
220
0.0
230
1.0
 70
     8
 71
     3
 72
    11
 73
     7
 74
     0
 42
0.00000001
 43
0.00000001
 12
1.0
 22
0.0
 32
0.0
 13
1.0
 23
0.0
 33
0.0
 40
0.0
 40
0.0
 40
0.0
 40
0.0
 40
0.2543030279683814
 40
0.5087793961832129
 40
0.7632567853902584
 40
1.0
 40
1.0
 40
1.0
 40
1.0
 10
743.9041665487094
 20
327.9128647968978
 30
0.0
 10
744.0095433772501
 20
327.8934061253077
 30
0.0
 10
744.2203688622039
 20
327.8544755185381
 30
0.0
 10
744.5366240978948
 20
327.555504185511
 30
0.0
 10
744.8456913373001
 20
327.1395328968666
 30
0.0
 10
745.0490749693746
 20
326.8178834055595
 30
0.0
 10
745.1470954808967
 20
326.6628647968979
 30
0.0
  0
LINE
  5
D7
330
1F
100
AcDbEntity
  8
0
  6
Continuous
 62
     7
370
    15
100
AcDbLine
 10
743.9041665487
 20
327.9128647969
 30
0.0
 11
743.9041665487
 21
328.7128647969
 31
0.0
  0
LINE
  5
D8
330
1F
100
AcDbEntity
  8
0
  6
Continuous
 62
     7
370
    15
100
AcDbLine
 10
743.0970954809
 20
327.9057937291
 30
0.0
 11
743.0970954809
 21
204.5199358647
 31
0.0
  0
SPLINE
  5
D9
330
1F
100
AcDbEntity
  8
0
  6
Continuous
 62
     7
370
    15
100
AcDbSpline
210
0.0
220
0.0
230
1.0
 70
     8
 71
     3
 72
    12
 73
     8
 74
     0
 42
0.00000001
 43
0.00000001
 12
1.0
 22
0.0
 32
0.0
 13
1.0
 23
0.0
 33
0.0
 40
0.0
 40
0.0
 40
0.0
 40
0.0
 40
0.2905041471428724
 40
0.5021702361753417
 40
0.7241740504074513
 40
0.8552184028189044
 40
1.0
 40
1.0
 40
1.0
 40
1.0
 10
745.1470954808892
 20
326.662864796898
 30
0.0
 10
744.857940547373
 20
326.8388775319111
 30
0.0
 10
744.3581025840145
 20
327.1431360341758
 30
0.0
 10
743.723766050463
 20
327.537301786771
 30
0.0
 10
743.3358184142595
 20
327.7304220515829
 30
0.0
 10
743.1315580391271
 20
327.8424566433362
 30
0.0
 10
743.1089581882146
 20
327.8839918272752
 30
0.0
 10
743.0970954808951
 20
327.9057937290861
 30
0.0
  0
LINE
  5
DA
330
1F
100
AcDbEntity
  8
0
  6
Continuous
 62
     7
370
    15
100
AcDbLine
 10
743.0970954809
 20
327.9057937291
 30
0.0
 11
743.8970954809
 21
327.9057937291
 31
0.0
  0
SPLINE
  5
DB
330
1F
100
AcDbEntity
  8
0
  6
Continuous
 62
     7
370
    15
100
AcDbSpline
210
0.0
220
0.0
230
1.0
 70
     8
 71
     3
 72
    13
 73
     9
 74
     0
 42
0.00000001
 43
0.00000001
 12
1.0
 22
0.0
 32
0.0
 13
1.0
 23
0.0
 33
0.0
 40
0.0
 40
0.0
 40
0.0
 40
0.0
 40
0.3126722597400384
 40
0.5321566197534993
 40
0.6354859263325113
 40
0.7470179128252395
 40
0.8681586160258713
 40
1.0
 40
1.0
 40
1.0
 40
1.0
 10
745.1470954808914
 20
326.662864796898
 30
0.0
 10
744.9718674393105
 20
326.8377624884221
 30
0.0
 10
744.6736357945479
 20
327.1354318896076
 30
0.0
 10
744.3485542603862
 20
327.4666672208531
 30
0.0
 10
744.1481992180703
 20
327.6452192955989
 30
0.0
 10
744.0184249244357
 20
327.7520497042703
 30
0.0
 10
743.9183531337699
 20
327.8421031343566
 30
0.0
 10
743.9043784004289
 20
327.88397318854
 30
0.0
 10
743.8970954808951
 20
327.9057937290861
 30
0.0
  0
LINE
  5
DC
330
1F
100
AcDbEntity
  8
0
  6
Continuous
 62
     7
370
    15
100
AcDbLine
 10
799.7056741247
 20
203.7128647969
 30
0.0
 11
743.9041665487
 21
203.7128647969
 31
0.0
  0
SPLINE
  5
DD
330
1F
100
AcDbEntity
  8
0
  6
Continuous
 62
     7
370
    15
100
AcDbSpline
210
0.0
220
0.0
230
1.0
 70
     8
 71
     3
 72
    11
 73
     7
 74
     0
 42
0.00000001
 43
0.00000001
 12
1.0
 22
0.0
 32
0.0
 13
1.0
 23
0.0
 33
0.0
 40
0.0
 40
0.0
 40
0.0
 40
0.0
 40
0.2500000000000035
 40
0.4999999999999996
 40
0.7499999999999969
 40
1.0
 40
1.0
 40
1.0
 40
1.0
 10
799.7056741246604
 20
203.7128647968992
 30
0.0
 10
799.7174592376801
 20
203.743679521113
 30
0.0
 10
799.7410294637197
 20
203.8053089695408
 30
0.0
 10
799.7763848027789
 20
204.2793698564416
 30
0.0
 10
799.8117401418382
 20
204.9569869774904
 30
0.0
 10
799.8353103678776
 20
205.4942388570963
 30
0.0
 10
799.8470954808973
 20
205.7628647968992
 30
0.0
  0
LINE
  5
DE
330
1F
100
AcDbEntity
  8
0
  6
Continuous
 62
     7
370
    15
100
AcDbLine
 10
799.8470954809
 20
326.6628647969
 30
0.0
 11
801.8970954809
 21
326.6628647969
 31
0.0
  0
LINE
  5
DF
330
1F
100
AcDbEntity
  8
0
  6
Continuous
 62
     7
370
    15
100
AcDbLine
 10
801.8970954809
 20
326.6628647969
 30
0.0
 11
801.8970954809
 21
205.7628647969
 31
0.0
  0
LINE
  5
E0
330
1F
100
AcDbEntity
  8
0
  6
Continuous
 62
     7
370
    15
100
AcDbLine
 10
801.8970954809
 20
205.7628647969
 30
0.0
 11
799.8470954809
 21
205.7628647969
 31
0.0
  0
ARC
  5
E1
330
1F
100
AcDbEntity
  8
0
  6
Continuous
 62
     7
370
    15
100
AcDbCircle
 10
799.8470954809
 20
326.6628647969
 30
0.0
 40
1.25
100
AcDbArc
 50
0.0
 51
90.0
  0
LINE
  5
E2
330
1F
100
AcDbEntity
  8
0
  6
Continuous
 62
     7
370
    15
100
AcDbLine
 10
799.8470954809
 20
327.9128647969
 30
0.0
 11
799.8470954809
 21
328.7128647969
 31
0.0
  0
ARC
  5
E3
330
1F
100
AcDbEntity
  8
0
  6
Continuous
 62
     7
370
    15
100
AcDbCircle
 10
799.8470954809
 20
326.6628647969
 30
0.0
 40
2.050000000000011
100
AcDbArc
 50
0.0
 51
90.0
  0
LINE
  5
E4
330
1F
100
AcDbEntity
  8
0
  6
Continuous
 62
     7
370
    15
100
AcDbLine
 10
799.8470954809
 20
204.5128647969
 30
0.0
 11
799.8470954809
 21
203.7128647969
 31
0.0
  0
ARC
  5
E5
330
1F
100
AcDbEntity
  8
0
  6
Continuous
 62
     7
370
    15
100
AcDbCircle
 10
799.8470954809
 20
205.7628647969
 30
0.0
 40
1.250000000000028
100
AcDbArc
 50
270.0
 51
0.0
  0
ARC
  5
E6
330
1F
100
AcDbEntity
  8
0
  6
Continuous
 62
     7
370
    15
100
AcDbCircle
 10
799.8470954809
 20
205.7628647969
 30
0.0
 40
2.050000000000068
100
AcDbArc
 50
270.0
 51
0.0
  0
LINE
  5
E7
330
1F
100
AcDbEntity
  8
0
  6
Continuous
 62
     7
370
    15
100
AcDbLine
 10
799.8470954809
 20
203.7128647969
 30
0.0
 11
799.7056741247
 21
203.7128647969
 31
0.0
  0
LINE
  5
E8
330
1F
100
AcDbEntity
  8
0
  6
Continuous
 62
     7
370
    15
100
AcDbLine
 10
799.7763848028
 20
328.7128647969
 30
0.0
 11
799.8470954809
 21
328.7128647969
 31
0.0
  0
LINE
  5
E9
330
1F
100
AcDbEntity
  8
0
  6
Continuous
 62
     7
370
    15
100
AcDbLine
 10
803.4970954809
 20
235.7068481268
 30
0.0
 11
803.4970954809
 21
291.7184869172
 31
0.0
  0
LINE
  5
EA
330
1F
100
AcDbEntity
  8
0
  6
Continuous
 62
     7
370
    15
100
AcDbLine
 10
801.8970954809
 20
293.7128647969
 30
0.0
 11
803.4970954809
 21
293.7128647969
 31
0.0
  0
SPLINE
  5
EB
330
1F
100
AcDbEntity
  8
0
  6
Continuous
 62
     7
370
    15
100
AcDbSpline
210
0.0
220
0.0
230
1.0
 70
    24
 71
     3
 72
    11
 73
     7
 74
     0
 42
0.00000001
 43
0.00000001
 12
1.0
 22
0.0
 32
0.0
 13
1.0
 23
0.0
 33
0.0
 40
0.0
 40
0.0
 40
0.0
 40
0.0
 40
0.2833534124411238
 40
0.5581116990962655
 40
0.7754835424211791
 40
1.0
 40
1.0
 40
1.0
 40
1.0
 10
803.497095480895
 20
291.7184869171621
 30
0.0
 10
803.497095480895
 20
292.0155354919687
 30
0.0
 10
803.497095480895
 20
292.6006220923775
 30
0.0
 10
803.4970954808949
 20
293.2487318627849
 30
0.0
 10
803.4970954808952
 20
293.6426372648971
 30
0.0
 10
803.497095480895
 20
293.6892046466473
 30
0.0
 10
803.497095480895
 20
293.7128647968887
 30
0.0
  0
LINE
  5
EC
330
1F
100
AcDbEntity
  8
0
  6
Continuous
 62
     7
370
    15
100
AcDbLine
 10
801.8970954809
 20
233.7128647969
 30
0.0
 11
803.4970954809
 21
233.7128647969
 31
0.0
  0
SPLINE
  5
ED
330
1F
100
AcDbEntity
  8
0
  6
Continuous
 62
     7
370
    15
100
AcDbSpline
210
0.0
220
0.0
230
1.0
 70
    24
 71
     3
 72
    11
 73
     7
 74
     0
 42
0.00000001
 43
0.00000001
 12
1.0
 22
0.0
 32
0.0
 13
1.0
 23
0.0
 33
0.0
 40
0.0
 40
0.0
 40
0.0
 40
0.0
 40
0.2832771686238263
 40
0.5580022489005091
 40
0.7754022428539195
 40
1.0
 40
1.0
 40
1.0
 40
1.0
 10
803.497095480895
 20
233.7128647968886
 30
0.0
 10
803.497095480895
 20
233.7511486290655
 30
0.0
 10
803.497095480895
 20
233.8265605111985
 30
0.0
 10
803.497095480895
 20
234.3594991773192
 30
0.0
 10
803.497095480895
 20
235.0099236072165
 30
0.0
 10
803.497095480895
 20
235.4720315370326
 30
0.0
 10
803.497095480895
 20
235.7068481267956
 30
0.0
  0
LINE
  5
EE
330
1F
100
AcDbEntity
  8
0
  6
Continuous
 62
     7
370
    15
100
AcDbLine
 10
804.8970954809
 20
291.1751492888
 30
0.0
 11
804.8970954809
 21
236.250580305
 31
0.0
  0
SPLINE
  5
EF
330
1F
100
AcDbEntity
  8
0
  6
Continuous
 62
     7
370
    15
100
AcDbSpline
210
0.0
220
0.0
230
1.0
 70
     8
 71
     3
 72
    11
 73
     7
 74
     0
 42
0.00000001
 43
0.00000001
 12
1.0
 22
0.0
 32
0.0
 13
1.0
 23
0.0
 33
0.0
 40
0.0
 40
0.0
 40
0.0
 40
0.0
 40
0.2371941589275936
 40
0.4978619749471087
 40
0.7485798819786941
 40
1.0
 40
1.0
 40
1.0
 40
1.0
 10
803.497095480895
 20
293.7128647968887
 30
0.0
 10
803.6920747219493
 20
293.5699462931515
 30
0.0
 10
804.1013291085831
 20
293.26996551433
 30
0.0
 10
804.544944121627
 20
292.6465943690049
 30
0.0
 10
804.8422124813641
 20
291.9308778970932
 30
0.0
 10
804.8787840999534
 20
291.427293569417
 30
0.0
 10
804.897095480895
 20
291.1751492887987
 30
0.0
  0
SPLINE
  5
F0
330
1F
100
AcDbEntity
  8
0
  6
Continuous
 62
     7
370
    15
100
AcDbSpline
210
0.0
220
0.0
230
1.0
 70
    24
 71
     3
 72
    13
 73
     9
 74
     0
 42
0.00000001
 43
0.00000001
 12
1.0
 22
0.0
 32
0.0
 13
1.0
 23
0.0
 33
0.0
 40
0.0
 40
0.0
 40
0.0
 40
0.0
 40
0.1275360740474336
 40
0.25458871985924
 40
0.4999418984797871
 40
0.7453299828649763
 40
0.87250556057712
 40
1.0
 40
1.0
 40
1.0
 40
1.0
 10
803.497095480895
 20
293.7128647968887
 30
0.0
 10
803.497095480895
 20
293.7055975530175
 30
0.0
 10
803.497095480895
 20
293.6910906119195
 30
0.0
 10
803.497095480895
 20
293.5305994869429
 30
0.0
 10
803.4970954808953
 20
293.1648200815725
 30
0.0
 10
803.4970954808949
 20
292.6172450913329
 30
0.0
 10
803.497095480895
 20
292.1173981073966
 30
0.0
 10
803.497095480895
 20
291.8515682587304
 30
0.0
 10
803.497095480895
 20
291.7184869171621
 30
0.0
  0
SPLINE
  5
F1
330
1F
100
AcDbEntity
  8
0
  6
Continuous
 62
     7
370
    15
100
AcDbSpline
210
0.0
220
0.0
230
1.0
 70
     8
 71
     3
 72
    11
 73
     7
 74
     0
 42
0.00000001
 43
0.00000001
 12
1.0
 22
0.0
 32
0.0
 13
1.0
 23
0.0
 33
0.0
 40
0.0
 40
0.0
 40
0.0
 40
0.0
 40
0.2514201137491424
 40
0.502138016520487
 40
0.7627995894819225
 40
1.0
 40
1.0
 40
1.0
 40
1.0
 10
804.897095480895
 20
236.2505803049785
 30
0.0
 10
804.8787841092426
 20
235.9984360277513
 30
0.0
 10
804.842212509206
 20
235.4948517068477
 30
0.0
 10
804.5449464400067
 20
234.7791410370876
 30
0.0
 10
804.1013338078221
 20
234.1557691102646
 30
0.0
 10
803.6920797167479
 20
233.8557874736721
 30
0.0
 10
803.497095480895
 20
233.7128647968886
 30
0.0
  0
SPLINE
  5
F2
330
1F
100
AcDbEntity
  8
0
  6
Continuous
 62
     7
370
    15
100
AcDbSpline
210
0.0
220
0.0
230
1.0
 70
    24
 71
     3
 72
    13
 73
     9
 74
     0
 42
0.00000001
 43
0.00000001
 12
1.0
 22
0.0
 32
0.0
 13
1.0
 23
0.0
 33
0.0
 40
0.0
 40
0.0
 40
0.0
 40
0.0
 40
0.1275872441294441
 40
0.2546759233236621
 40
0.5000487292309062
 40
0.7453982611490046
 40
0.8725397565424704
 40
1.0
 40
1.0
 40
1.0
 40
1.0
 10
803.497095480895
 20
235.7068481267955
 30
0.0
 10
803.4970954808949
 20
235.5736766253437
 30
0.0
 10
803.4970954808949
 20
235.3078540086389
 30
0.0
 10
803.497095480895
 20
234.8081101754998
 30
0.0
 10
803.4970954808949
 20
234.2607068002784
 30
0.0
 10
803.4970954808952
 20
233.8949540240999
 30
0.0
 10
803.497095480895
 20
233.7346936859188
 30
0.0
 10
803.497095480895
 20
233.7201471637271
 30
0.0
 10
803.497095480895
 20
233.7128647968886
 30
0.0
  0
LINE
  5
F3
330
1F
100
AcDbEntity
  8
0
  6
Continuous
 62
     7
370
    15
100
AcDbLine
 10
802.0970954809
 20
209.7128647969
 30
0.0
 11
802.0970954809
 21
208.7128647969
 31
0.0
  0
LINE
  5
F4
330
1F
100
AcDbEntity
  8
0
  6
Continuous
 62
     7
370
    15
100
AcDbLine
 10
802.0970954809
 20
208.7128647969
 30
0.0
 11
801.8970954809
 21
208.7128647969
 31
0.0
  0
LINE
  5
F5
330
1F
100
AcDbEntity
  8
0
  6
Continuous
 62
     7
370
    15
100
AcDbLine
 10
802.0970954809
 20
218.7128647969
 30
0.0
 11
801.8970954809
 21
218.7128647969
 31
0.0
  0
LINE
  5
F6
330
1F
100
AcDbEntity
  8
0
  6
Continuous
 62
     7
370
    15
100
AcDbLine
 10
802.0970954809
 20
218.7128647969
 30
0.0
 11
802.0970954809
 21
217.7128647969
 31
0.0
  0
LINE
  5
F7
330
1F
100
AcDbEntity
  8
0
  6
Continuous
 62
     7
370
    15
100
AcDbLine
 10
802.0970954809
 20
217.7128647969
 30
0.0
 11
802.0970954809
 21
209.7128647969
 31
0.0
  0
ARC
  5
F8
330
1F
100
AcDbEntity
  8
0
  6
Continuous
 62
     7
370
    15
100
AcDbCircle
 10
744.0970954809
 20
331.0128647969
 30
0.0
 40
1.000000000000114
100
AcDbArc
 50
180.0
 51
270.0
  0
LINE
  5
F9
330
1F
100
AcDbEntity
  8
0
  6
Continuous
 62
     7
370
    15
100
AcDbLine
 10
743.0970954809
 20
331.0128647969
 30
0.0
 11
743.0970954809
 21
449.700539324
 31
0.0
  0
ARC
  5
FA
330
1F
100
AcDbEntity
  8
0
  6
Continuous
 62
     7
370
    15
100
AcDbCircle
 10
744.0970954809
 20
449.700539324
 30
0.0
 40
1.000000000000114
100
AcDbArc
 50
90.0
 51
180.0
  0
ARC
  5
FB
330
1F
100
AcDbEntity
  8
0
  6
Continuous
 62
     7
370
    15
100
AcDbCircle
 10
797.1206042717
 20
378.312259802
 30
0.0
 40
10.79999999999996
100
AcDbArc
 50
198.0
 51
250.0
  0
ARC
  5
FC
330
1F
100
AcDbEntity
  8
0
  6
Continuous
 62
     7
370
    15
100
AcDbCircle
 10
797.1206042717
 20
378.312259802
 30
0.0
 40
9.999999999999977
100
AcDbArc
 50
198.0
 51
250.0
  0
LINE
  5
FD
330
1F
100
AcDbEntity
  8
0
  6
Continuous
 62
     7
370
    15
100
AcDbLine
 10
787.6100391087
 20
375.2220898582
 30
0.0
 11
763.2859221552
 21
450.0840241625
 31
0.0
  0
LINE
  5
FE
330
1F
100
AcDbEntity
  8
0
  6
Continuous
 62
     7
370
    15
100
AcDbLine
 10
786.8491938957
 20
374.9748762627
 30
0.0
 11
762.5250769421
 21
449.836810567
 31
0.0
  0
LINE
  5
FF
330
1F
100
AcDbEntity
  8
0
  6
Continuous
 62
     7
370
    15
100
AcDbLine
 10
743.0970954809
 20
329.2128647969
 30
0.0
 11
743.0970954809
 21
330.0128647969
 31
0.0
  0
LINE
  5
100
330
1F
100
AcDbEntity
  8
0
  6
Continuous
 62
     7
370
    15
100
AcDbLine
 10
743.0970954809
 20
330.0128647969
 30
0.0
 11
745.0970954809
 21
330.0128647969
 31
0.0
  0
LINE
  5
101
330
1F
100
AcDbEntity
  8
0
  6
Continuous
 62
     7
370
    15
100
AcDbLine
 10
745.0970954809
 20
329.2128647969
 30
0.0
 11
743.0970954809
 21
329.2128647969
 31
0.0
  0
LINE
  5
102
330
1F
100
AcDbEntity
  8
0
  6
Continuous
 62
     7
370
    15
100
AcDbLine
 10
805.3115558901
 20
329.945150197
 30
0.0
 11
817.7302580366
 21
344.7451830955
 31
0.0
  0
LINE
  5
103
330
1F
100
AcDbEntity
  8
0
  6
Continuous
 62
     7
370
    15
100
AcDbLine
 10
804.6987203356
 20
330.4593802848
 30
0.0
 11
817.1174224821
 21
345.2594131832
 31
0.0
  0
LINE
  5
104
330
1F
100
AcDbEntity
  8
0
  6
Continuous
 62
     7
370
    15
100
AcDbLine
 10
745.0970954809
 20
330.0128647969
 30
0.0
 11
803.7411647817
 21
330.0128647969
 31
0.0
  0
LINE
  5
105
330
1F
100
AcDbEntity
  8
0
  6
Continuous
 62
     7
370
    15
100
AcDbLine
 10
745.0970954809
 20
329.2128647969
 30
0.0
 11
803.7411647817
 21
329.2128647969
 31
0.0
  0
LINE
  5
106
330
1F
100
AcDbEntity
  8
0
  6
Continuous
 62
     7
370
    15
100
AcDbLine
 10
812.8771794841
 20
361.0842154879
 30
0.0
 11
793.4267867237
 21
368.1635794975
 31
0.0
  0
LINE
  5
107
330
1F
100
AcDbEntity
  8
0
  6
Continuous
 62
     7
370
    15
100
AcDbLine
 10
813.1507955988
 20
361.8359695846
 30
0.0
 11
793.7004028384
 21
368.9153335941
 31
0.0
  0
ARC
  5
108
330
1F
100
AcDbEntity
  8
0
  6
Continuous
 62
     7
370
    15
100
AcDbCircle
 10
809.4569780509
 20
351.6872892801
 30
0.0
 40
10.80000000000011
100
AcDbArc
 50
320.0
 51
70.0
  0
ARC
  5
109
330
1F
100
AcDbEntity
  8
0
  6
Continuous
 62
     7
370
    15
100
AcDbCircle
 10
809.4569780509
 20
351.6872892801
 30
0.0
 40
9.999999999999988
100
AcDbArc
 50
320.0
 51
70.0
  0
ARC
  5
10A
330
1F
100
AcDbEntity
  8
0
  6
Continuous
 62
     7
370
    15
100
AcDbCircle
 10
803.7411647817
 20
331.2628647969
 30
0.0
 40
2.050000000000011
100
AcDbArc
 50
270.0
 51
320.0
  0
ARC
  5
10B
330
1F
100
AcDbEntity
  8
0
  6
Continuous
 62
     7
370
    15
100
AcDbCircle
 10
803.7411647817
 20
331.2628647969
 30
0.0
 40
1.250000000000057
100
AcDbArc
 50
270.0
 51
320.0
  0
LINE
  5
10C
330
1F
100
AcDbEntity
  8
0
  6
Continuous
 62
     7
370
    15
100
AcDbLine
 10
743.1444344568
 20
450.700539324
 30
0.0
 11
743.1444344568
 21
451.500539324
 31
0.0
  0
LINE
  5
10D
330
1F
100
AcDbEntity
  8
0
  6
Continuous
 62
     7
370
    15
100
AcDbLine
 10
745.1444344568
 20
450.700539324
 30
0.0
 11
743.1444344568
 21
450.700539324
 31
0.0
  0
LINE
  5
10E
330
1F
100
AcDbEntity
  8
0
  6
Continuous
 62
     7
370
    15
100
AcDbLine
 10
743.1444344568
 20
451.500539324
 30
0.0
 11
744.3310954809
 21
451.500539324
 31
0.0
  0
LINE
  5
10F
330
1F
100
AcDbEntity
  8
0
  6
Continuous
 62
     7
370
    15
100
AcDbLine
 10
745.1444344568
 20
450.700539324
 30
0.0
 11
761.3362562968
 21
450.700539324
 31
0.0
  0
LINE
  5
110
330
1F
100
AcDbEntity
  8
0
  6
Continuous
 62
     7
370
    15
100
AcDbLine
 10
745.1444344568
 20
451.500539324
 30
0.0
 11
761.3362562968
 21
451.500539324
 31
0.0
  0
ARC
  5
111
330
1F
100
AcDbEntity
  8
0
  6
Continuous
 62
     7
370
    15
100
AcDbCircle
 10
761.3362562968
 20
449.450539324
 30
0.0
 40
1.249999999999943
100
AcDbArc
 50
18.0
 51
90.0
  0
ARC
  5
112
330
1F
100
AcDbEntity
  8
0
  6
Continuous
 62
     7
370
    15
100
AcDbCircle
 10
761.3362562968
 20
449.450539324
 30
0.0
 40
2.050000000000011
100
AcDbArc
 50
18.0
 51
90.0
  0
LINE
  5
113
330
1F
100
AcDbEntity
  8
0
  6
Continuous
 62
     7
370
    15
100
AcDbLine
 10
776.7848043777
 20
456.5689421525
 30
0.0
 11
777.0792819277
 21
455.9075347461
 31
0.0
  0
LINE
  5
114
330
1F
100
AcDbEntity
  8
0
  6
Continuous
 62
     7
370
    15
100
AcDbLine
 10
772.5115546395
 20
453.8738515307
 30
0.0
 11
777.0792819277
 21
455.9075347461
 31
0.0
  0
LINE
  5
115
330
1F
100
AcDbEntity
  8
0
  6
Continuous
 62
     7
370
    15
100
AcDbLine
 10
772.186165325
 20
454.6046878968
 30
0.0
 11
775.7700124222
 21
456.2003194283
 31
0.0
  0
ARC
  5
116
330
1F
100
AcDbEntity
  8
0
  6
Continuous
 62
     7
370
    15
100
AcDbCircle
 10
764.9127208978
 20
449.1223374259
 30
0.0
 40
1.249999999999999
100
AcDbArc
 50
114.0
 51
198.0
  0
ARC
  5
117
330
1F
100
AcDbEntity
  8
0
  6
Continuous
 62
     7
370
    15
100
AcDbCircle
 10
764.9127208978
 20
449.1223374259
 30
0.0
 40
2.050000000000002
100
AcDbArc
 50
114.0
 51
145.9172365773
  0
LINE
  5
118
330
1F
100
AcDbEntity
  8
0
  6
Continuous
 62
     7
370
    15
100
AcDbLine
 10
764.4043000939
 20
450.264269248
 30
0.0
 11
772.5115546395
 21
453.8738515307
 31
0.0
  0
LINE
  5
119
330
1F
100
AcDbEntity
  8
0
  6
Continuous
 62
     7
370
    15
100
AcDbLine
 10
764.0789107795
 20
450.9951056141
 30
0.0
 11
772.186165325
 21
454.6046878968
 31
0.0
  0
LINE
  5
11A
330
1F
100
AcDbEntity
  8
0
  6
Continuous
 62
     7
370
    15
100
AcDbLine
 10
764.7157853635
 20
451.3211833315
 30
0.0
 11
768.798121837
 21
453.0962337489
 31
0.0
  0
LINE
  5
11B
330
1F
100
AcDbEntity
  8
0
  6
Continuous
 62
     7
370
    15
100
AcDbLine
 10
775.7971013675
 20
456.1394766609
 30
0.0
 11
778.4716864793
 21
457.3024193654
 31
0.0
  0
ARC
  5
11C
330
1F
100
AcDbEntity
  8
0
  6
Continuous
 62
     7
370
    15
100
AcDbCircle
 10
764.3010863318
 20
452.2749258088
 30
0.0
 40
1.039999999999936
100
AcDbArc
 50
161.1950102928
 51
293.5
  0
LINE
  5
11D
330
1F
100
AcDbEntity
  8
0
  6
Continuous
 62
     7
370
    15
100
AcDbLine
 10
775.5250878203
 20
457.809525215
 30
0.0
 11
775.6440523776
 21
457.9702965872
 31
0.0
  0
ARC
  5
11E
330
1F
100
AcDbEntity
  8
0
  6
Continuous
 62
     7
370
    15
100
AcDbCircle
 10
764.3010863318
 20
452.2749258088
 30
0.0
 40
0.5999999999999687
100
AcDbArc
 50
113.5
 51
293.5
  0
LINE
  5
11F
330
1F
100
AcDbEntity
  8
0
  6
Continuous
 62
     7
370
    15
100
AcDbLine
 10
778.4716864793
 20
457.3024193654
 30
0.0
 11
778.2962368889
 21
457.7059257981
 31
0.0
  0
LINE
  5
120
330
1F
100
AcDbEntity
  8
0
  6
Continuous
 62
     7
370
    15
100
AcDbLine
 10
35.0579752172
 20
440.5517959848
 30
0.0
 11
35.0579752172
 21
408.5517959848
 31
0.0
  0
LINE
  5
121
330
1F
100
AcDbEntity
  8
0
  6
Continuous
 62
     7
370
    15
100
AcDbLine
 10
784.1001186123
 20
413.2074853979
 30
0.0
 11
783.2382340703
 21
415.8600932638
 31
0.0
  0
LINE
  5
122
330
1F
100
AcDbEntity
  8
0
  6
Continuous
 62
     7
370
    15
100
AcDbLine
 10
785.8356353402
 20
414.3382500909
 30
0.0
 11
783.9335223076
 21
413.7202161021
 31
0.0
  0
LINE
  5
123
330
1F
100
AcDbEntity
  8
0
  6
Continuous
 62
     7
370
    15
100
AcDbLine
 10
788.5460214207
 20
438.3572192466
 30
0.0
 11
787.0799959036
 21
442.8691818455
 31
0.0
  0
LINE
  5
124
330
1F
100
AcDbEntity
  8
0
  6
Continuous
 62
     7
370
    15
100
AcDbLine
 10
804.693964583
 20
388.6589604167
 30
0.0
 11
803.1931975879
 21
393.2778462905
 31
0.0
  0
SPLINE
  5
125
330
1F
100
AcDbEntity
  8
0
  6
Continuous
 62
     7
370
    15
100
AcDbSpline
210
0.0
220
0.0
230
1.0
 70
     8
 71
     3
 72
    15
 73
    11
 74
     0
 42
0.00000001
 43
0.00000001
 12
1.0
 22
0.0
 32
0.0
 13
1.0
 23
0.0
 33
0.0
 40
0.0
 40
0.0
 40
0.0
 40
0.0
 40
0.1121175432580781
 40
0.2389446380187567
 40
0.3657695691793643
 40
0.4925927531154696
 40
0.6194140547211271
 40
0.7462351750487024
 40
0.8730555728772411
 40
1.0
 40
1.0
 40
1.0
 40
1.0
 10
778.8499568166066
 20
443.4146296401977
 30
0.0
 10
778.8839938755002
 20
443.4106970029983
 30
0.0
 10
778.9565335733945
 20
443.4023157760753
 30
0.0
 10
779.5141543537752
 20
443.3309257948354
 30
0.0
 10
780.3337537917006
 20
443.2417301010852
 30
0.0
 10
781.3132139386265
 20
443.1606431397807
 30
0.0
 10
782.2944160069623
 20
443.1092253257354
 30
0.0
 10
783.1221185991564
 20
443.0889457923959
 30
0.0
 10
783.7019820354649
 20
443.0875079232674
 30
0.0
 10
783.7785944926512
 20
443.0863837749415
 30
0.0
 10
783.8169194436753
 20
443.0858214260609
 30
0.0
  0
LINE
  5
126
330
1F
100
AcDbEntity
  8
0
  6
Continuous
 62
     7
370
    15
100
AcDbLine
 10
796.4194673975
 20
381.7645644078
 30
0.0
 11
776.3334260887
 21
443.5830430709
 31
0.0
  0
LINE
  5
127
330
1F
100
AcDbEntity
  8
0
  6
Continuous
 62
     7
370
    15
100
AcDbLine
 10
789.1113623168
 20
436.6172788777
 30
0.0
 11
802.6248370236
 21
395.0270802427
 31
0.0
  0
SPLINE
  5
128
330
1F
100
AcDbEntity
  8
0
  6
Continuous
 62
     7
370
    15
100
AcDbSpline
210
0.0
220
0.0
230
1.0
 70
     8
 71
     3
 72
    12
 73
     8
 74
     0
 42
0.00000001
 43
0.00000001
 12
1.0
 22
0.0
 32
0.0
 13
1.0
 23
0.0
 33
0.0
 40
0.0
 40
0.0
 40
0.0
 40
0.0
 40
0.0304717459457108
 40
0.0888135668589571
 40
0.3925556175486983
 40
0.6962774394171637
 40
1.0
 40
1.0
 40
1.0
 40
1.0
 10
803.3235896160653
 20
394.3544863777622
 30
0.0
 10
803.3270946498443
 20
394.3444906473843
 30
0.0
 10
803.3373104921668
 20
394.3153568895157
 30
0.0
 10
803.3762368771522
 20
394.1830223331145
 30
0.0
 10
803.4038265683008
 20
393.9398559100806
 30
0.0
 10
803.353261041281
 20
393.5982973470965
 30
0.0
 10
803.2490905477474
 20
393.4050223517655
 30
0.0
 10
803.1970052376395
 20
393.3083847365789
 30
0.0
  0
SPLINE
  5
129
330
1F
100
AcDbEntity
  8
0
  6
Continuous
 62
     7
370
    15
100
AcDbSpline
210
0.0
220
0.0
230
1.0
 70
     8
 71
     3
 72
    10
 73
     6
 74
     0
 42
0.00000001
 43
0.00000001
 12
1.0
 22
0.0
 32
0.0
 13
1.0
 23
0.0
 33
0.0
 40
0.0
 40
0.0
 40
0.0
 40
0.0
 40
0.2117958997042118
 40
0.4880069094685098
 40
1.0
 40
1.0
 40
1.0
 40
1.0
 10
803.1970052376394
 20
393.3083847365789
 30
0.0
 10
803.1955659643749
 20
393.3057966169184
 30
0.0
 10
803.1922496806379
 20
393.2998332329312
 30
0.0
 10
803.1904996272399
 20
393.2887628989118
 30
0.0
 10
803.1921351819782
 20
393.2821450446873
 30
0.0
 10
803.193197587927
 20
393.2778462905501
 30
0.0
  0
SPLINE
  5
12A
330
1F
100
AcDbEntity
  8
0
  6
Continuous
 62
     7
370
    15
100
AcDbSpline
210
0.0
220
0.0
230
1.0
 70
     8
 71
     3
 72
    12
 73
     8
 74
     0
 42
0.00000001
 43
0.00000001
 12
1.0
 22
0.0
 32
0.0
 13
1.0
 23
0.0
 33
0.0
 40
0.0
 40
0.0
 40
0.0
 40
0.0
 40
0.0304717459518956
 40
0.0888135668591023
 40
0.3925556175488318
 40
0.6962774394173866
 40
1.0
 40
1.0
 40
1.0
 40
1.0
 10
789.284334257248
 20
437.5628714697934
 30
0.0
 10
789.281286443012
 20
437.5730433318698
 30
0.0
 10
789.2724032220167
 20
437.6026904467423
 30
0.0
 10
789.2260157177276
 20
437.7329250428893
 30
0.0
 10
789.1053018085269
 20
437.9461901691167
 30
0.0
 10
788.8636261324832
 20
438.1928081655867
 30
0.0
 10
788.6658648237918
 20
438.2875760812947
 30
0.0
 10
788.5669840491971
 20
438.3349600967723
 30
0.0
  0
SPLINE
  5
12B
330
1F
100
AcDbEntity
  8
0
  6
Continuous
 62
     7
370
    15
100
AcDbSpline
210
0.0
220
0.0
230
1.0
 70
     8
 71
     3
 72
    11
 73
     7
 74
     0
 42
0.00000001
 43
0.00000001
 12
1.0
 22
0.0
 32
0.0
 13
1.0
 23
0.0
 33
0.0
 40
0.0
 40
0.0
 40
0.0
 40
0.0
 40
0.3704320937821093
 40
0.7442498469287
 40
0.9442480537631572
 40
1.0
 40
1.0
 40
1.0
 40
1.0
 10
788.5460214206907
 20
438.3572192465591
 30
0.0
 10
788.547155190626
 20
438.3542869229415
 30
0.0
 10
788.5494330928784
 20
438.3483954749807
 30
0.0
 10
788.5558176696222
 20
438.3408938391483
 30
0.0
 10
788.5628629752113
 20
438.3366045623494
 30
0.0
 10
788.5662464686292
 20
438.3352544195286
 30
0.0
 10
788.5669840491971
 20
438.3349600967723
 30
0.0
  0
ELLIPSE
  5
12C
330
1F
100
AcDbEntity
  8
0
  6
Continuous
 62
     7
370
    15
100
AcDbEllipse
 10
783.356457748
 20
404.1383933364
 30
0.0
 11
4.220514648650692
 21
38.67655607246979
 31
0.0
210
0.0
220
0.0
230
1.0
 40
0.0013013892
 41
6.279843051055757
 42
6.280743605815647
  0
SPLINE
  5
12D
330
1F
100
AcDbEntity
  8
0
  6
Continuous
 62
     7
370
    15
100
AcDbSpline
210
0.0
220
0.0
230
1.0
 70
     8
 71
     3
 72
    11
 73
     7
 74
     0
 42
0.00000001
 43
0.00000001
 12
1.0
 22
0.0
 32
0.0
 13
1.0
 23
0.0
 33
0.0
 40
0.0
 40
0.0
 40
0.0
 40
0.0
 40
0.2920169756755425
 40
0.5840336696940582
 40
0.8760572066428708
 40
1.0
 40
1.0
 40
1.0
 40
1.0
 10
787.8091726542484
 20
442.7891678566244
 30
0.0
 10
787.7813899446464
 20
442.7922257119907
 30
0.0
 10
787.7258245522393
 20
442.798341419774
 30
0.0
 10
787.6556808567401
 20
442.8061986633714
 30
0.0
 10
787.6096835849185
 20
442.8113788575262
 30
0.0
 10
787.5986585768679
 20
442.8125633674831
 30
0.0
 10
787.5953735266246
 20
442.8129163082431
 30
0.0
  0
LINE
  5
12E
330
1F
100
AcDbEntity
  8
0
  6
Continuous
 62
     7
370
    15
100
AcDbLine
 10
787.8091726542
 20
442.7891678566
 30
0.0
 11
806.7856622275
 21
440.6728477707
 31
0.0
  0
LINE
  5
12F
330
1F
100
AcDbEntity
  8
0
  6
Continuous
 62
     7
370
    15
100
AcDbLine
 10
806.7856622275
 20
440.6728477707
 30
0.0
 11
808.2555156818
 21
440.510892797
 31
0.0
  0
LINE
  5
130
330
1F
100
AcDbEntity
  8
0
  6
Continuous
 62
     7
370
    15
100
AcDbLine
 10
810.0857975322
 20
436.7859644638
 30
0.0
 11
819.7070829655
 21
407.1746926791
 31
0.0
  0
LINE
  5
131
330
1F
100
AcDbEntity
  8
0
  6
Continuous
 62
     7
370
    15
100
AcDbLine
 10
819.7070829655
 20
407.1746926791
 30
0.0
 11
820.7341360177
 21
404.0137484086
 31
0.0
  0
LINE
  5
132
330
1F
100
AcDbEntity
  8
0
  6
Continuous
 62
     7
370
    15
100
AcDbLine
 10
809.0989442755
 20
439.8231864855
 30
0.0
 11
810.0857975322
 21
436.7859644638
 31
0.0
  0
SPLINE
  5
133
330
1F
100
AcDbEntity
  8
0
  6
Continuous
 62
     7
370
    15
100
AcDbSpline
210
0.0
220
0.0
230
1.0
 70
     8
 71
     3
 72
    11
 73
     7
 74
     0
 42
0.00000001
 43
0.00000001
 12
1.0
 22
0.0
 32
0.0
 13
1.0
 23
0.0
 33
0.0
 40
0.0
 40
0.0
 40
0.0
 40
0.0
 40
0.2933118760923933
 40
0.5865991201415311
 40
0.8805021461501578
 40
1.0
 40
1.0
 40
1.0
 40
1.0
 10
808.255515681807
 20
440.5108927969679
 30
0.0
 10
808.3661978571574
 20
440.4875600117974
 30
0.0
 10
808.5875529128782
 20
440.4408964009209
 30
0.0
 10
808.8654462271116
 20
440.2363019389704
 30
0.0
 10
809.0280420655931
 20
440.0142322339702
 30
0.0
 10
809.0830450785623
 20
439.8660268141946
 30
0.0
 10
809.0989442755048
 20
439.8231864854605
 30
0.0
  0
LINE
  5
134
330
1F
100
AcDbEntity
  8
0
  6
Continuous
 62
     7
370
    15
100
AcDbLine
 10
784.0804458432
 20
413.2680319554
 30
0.0
 11
784.2016593756
 21
412.8949750622
 31
0.0
  0
SPLINE
  5
135
330
1F
100
AcDbEntity
  8
0
  6
Continuous
 62
     7
370
    15
100
AcDbSpline
210
0.0
220
0.0
230
1.0
 70
     8
 71
     3
 72
    15
 73
    11
 74
     0
 42
0.00000001
 43
0.00000001
 12
1.0
 22
0.0
 32
0.0
 13
1.0
 23
0.0
 33
0.0
 40
0.0
 40
0.0
 40
0.0
 40
0.0
 40
0.0013085590449913
 40
0.0031123972377853
 40
0.0059032470887207
 40
0.010279170759675
 40
0.0184846044874536
 40
0.049218149433299
 40
0.1106093070873713
 40
1.0
 40
1.0
 40
1.0
 40
1.0
 10
784.0804458432187
 20
413.268031955359
 30
0.0
 10
784.0805225754084
 20
413.2680601815644
 30
0.0
 10
784.0807050823087
 20
413.2681273173685
 30
0.0
 10
784.0825331118438
 20
413.2687346653352
 30
0.0
 10
784.0865341394818
 20
413.2700510060321
 30
0.0
 10
784.0947964927177
 20
413.2727569457431
 30
0.0
 10
784.1201969244631
 20
413.2810540016455
 30
0.0
 10
784.1827514217803
 20
413.3014398346051
 30
0.0
 10
784.8020772374251
 20
413.5030601377329
 30
0.0
 10
785.4119142570166
 20
413.7012448736178
 30
0.0
 10
785.9823746303347
 20
413.8866329933725
 30
0.0
  0
LINE
  5
136
330
1F
100
AcDbEntity
  8
0
  6
Continuous
 62
     7
370
    15
100
AcDbLine
 10
784.2016593756
 20
412.8949750622
 30
0.0
 11
784.6977507499
 21
411.3681628065
 31
0.0
  0
LINE
  5
137
330
1F
100
AcDbEntity
  8
0
  6
Continuous
 62
     7
370
    15
100
AcDbLine
 10
784.6977507499
 20
411.3681628065
 30
0.0
 11
784.8528069582
 21
410.8909488671
 31
0.0
  0
LINE
  5
138
330
1F
100
AcDbEntity
  8
0
  6
Continuous
 62
     7
370
    15
100
AcDbLine
 10
786.7657077462
 20
411.4757815587
 30
0.0
 11
784.8528069582
 21
410.8909488671
 31
0.0
  0
LINE
  5
139
330
1F
100
AcDbEntity
  8
0
  6
Continuous
 62
     7
370
    15
100
AcDbLine
 10
786.7664409621
 20
411.473524952
 30
0.0
 11
784.8535710843
 21
410.8885971287
 31
0.0
  0
LINE
  5
13A
330
1F
100
AcDbEntity
  8
0
  6
Continuous
 62
     7
370
    15
100
AcDbLine
 10
784.8528069582
 20
410.8909488671
 30
0.0
 11
784.8535710843
 21
410.8885971287
 31
0.0
  0
LINE
  5
13B
330
1F
100
AcDbEntity
  8
0
  6
Continuous
 62
     7
370
    15
100
AcDbLine
 10
787.6877048931
 20
408.6381661182
 30
0.0
 11
785.7844966154
 21
408.0235029474
 31
0.0
  0
LINE
  5
13C
330
1F
100
AcDbEntity
  8
0
  6
Continuous
 62
     7
370
    15
100
AcDbLine
 10
784.8535710843
 20
410.8885971287
 30
0.0
 11
785.7844966154
 21
408.0235029474
 31
0.0
  0
LINE
  5
13D
330
1F
100
AcDbEntity
  8
0
  6
Continuous
 62
     7
370
    15
100
AcDbLine
 10
786.1298445422
 20
406.9606313183
 30
0.0
 11
786.3136872704
 21
406.3948215804
 31
0.0
  0
LINE
  5
13E
330
1F
100
AcDbEntity
  8
0
  6
Continuous
 62
     7
370
    15
100
AcDbLine
 10
785.7844966154
 20
408.0235029474
 30
0.0
 11
786.1298445422
 21
406.9606313183
 31
0.0
  0
LINE
  5
13F
330
1F
100
AcDbEntity
  8
0
  6
Continuous
 62
     7
370
    15
100
AcDbLine
 10
786.3136872704
 20
406.3948215804
 30
0.0
 11
786.6408093388
 21
405.3880433757
 31
0.0
  0
LINE
  5
140
330
1F
100
AcDbEntity
  8
0
  6
Continuous
 62
     7
370
    15
100
AcDbLine
 10
786.6408093388
 20
405.3880433757
 30
0.0
 11
786.667611829
 21
405.305553793
 31
0.0
  0
SPLINE
  5
141
330
1F
100
AcDbEntity
  8
0
  6
Continuous
 62
     7
370
    15
100
AcDbSpline
210
0.0
220
0.0
230
1.0
 70
     8
 71
     3
 72
    15
 73
    11
 74
     0
 42
0.00000001
 43
0.00000001
 12
1.0
 22
0.0
 32
0.0
 13
1.0
 23
0.0
 33
0.0
 40
0.0
 40
0.0
 40
0.0
 40
0.0
 40
0.125061091109104
 40
0.2501121704253398
 40
0.3751485330611806
 40
0.5001745136450286
 40
0.6251989279695526
 40
0.7502216384937063
 40
0.8753383306906455
 40
1.0
 40
1.0
 40
1.0
 40
1.0
 10
778.8286571100234
 20
443.4272802058399
 30
0.0
 10
778.8657943373111
 20
443.4230095017314
 30
0.0
 10
778.9400658188578
 20
443.4144684354064
 30
0.0
 10
779.51408904299
 20
443.340992270677
 30
0.0
 10
780.3360851105388
 20
443.2515069984397
 30
0.0
 10
781.3157087342757
 20
443.1704704728139
 30
0.0
 10
782.2973543807011
 20
443.119087792125
 30
0.0
 10
783.1250003777246
 20
443.0988826018698
 30
0.0
 10
783.7033225957301
 20
443.0974887851518
 30
0.0
 10
783.779542112596
 20
443.096361823225
 30
0.0
 10
783.8175824462307
 20
443.0957993687586
 30
0.0
  0
LINE
  5
142
330
1F
100
AcDbEntity
  8
0
  6
Continuous
 62
     7
370
    15
100
AcDbLine
 10
786.667611829
 20
405.305553793
 30
0.0
 11
786.6763066643
 21
405.2787938415
 31
0.0
  0
LINE
  5
143
330
1F
100
AcDbEntity
  8
0
  6
Continuous
 62
     7
370
    15
100
AcDbLine
 10
786.6763066643
 20
405.2787938415
 30
0.0
 11
786.686144573
 21
405.248515872
 31
0.0
  0
SPLINE
  5
144
330
1F
100
AcDbEntity
  8
0
  6
Continuous
 62
     7
370
    15
100
AcDbSpline
210
0.0
220
0.0
230
1.0
 70
     8
 71
     3
 72
    11
 73
     7
 74
     0
 42
0.00000001
 43
0.00000001
 12
1.0
 22
0.0
 32
0.0
 13
1.0
 23
0.0
 33
0.0
 40
0.0
 40
0.0
 40
0.0
 40
0.0
 40
0.2499999999999936
 40
0.4999999999999953
 40
0.7499999999999942
 40
1.0
 40
1.0
 40
1.0
 40
1.0
 10
37.64709548089507
 20
504.0505393240335
 30
0.0
 10
37.54882137073828
 20
504.2143356287914
 30
0.0
 10
37.35227315042472
 20
504.5419282383069
 30
0.0
 10
37.05745081995443
 20
504.955109409678
 30
0.0
 10
36.76262848948409
 20
505.244170926081
 30
0.0
 10
36.56608026917068
 20
505.2817498580493
 30
0.0
 10
36.4678061590139
 20
505.3005393240335
 30
0.0
  0
LINE
  5
145
330
1F
100
AcDbEntity
  8
0
  6
Continuous
 62
     7
370
    15
100
AcDbLine
 10
36.467806159
 20
505.300539324
 30
0.0
 11
36.467806159
 21
506.500539324
 31
0.0
  0
SPLINE
  5
146
330
1F
100
AcDbEntity
  8
0
  6
Continuous
 62
     7
370
    15
100
AcDbSpline
210
0.0
220
0.0
230
1.0
 70
     8
 71
     3
 72
    11
 73
     7
 74
     0
 42
0.00000001
 43
0.00000001
 12
1.0
 22
0.0
 32
0.0
 13
1.0
 23
0.0
 33
0.0
 40
0.0
 40
0.0
 40
0.0
 40
0.0
 40
0.2499999999999991
 40
0.5000000000000002
 40
0.7499999999999994
 40
1.0
 40
1.0
 40
1.0
 40
1.0
 10
37.64709548089507
 20
504.0505393240337
 30
0.0
 10
37.54882137073828
 20
504.371580081359
 30
0.0
 10
37.35227315042483
 20
505.0136615960095
 30
0.0
 10
37.05745081995443
 20
505.8234966918969
 30
0.0
 10
36.76262848948419
 20
506.3900572640465
 30
0.0
 10
36.56608026917068
 20
506.4637119707045
 30
0.0
 10
36.4678061590139
 20
506.5005393240335
 30
0.0
  0
SPLINE
  5
147
330
1F
100
AcDbEntity
  8
0
  6
Continuous
 62
     7
370
    15
100
AcDbSpline
210
0.0
220
0.0
230
1.0
 70
     8
 71
     3
 72
    14
 73
    10
 74
     0
 42
0.00000001
 43
0.00000001
 12
1.0
 22
0.0
 32
0.0
 13
1.0
 23
0.0
 33
0.0
 40
0.0
 40
0.0
 40
0.0
 40
0.0
 40
0.1591418488896846
 40
0.3179779066457218
 40
0.4850967224534016
 40
0.6078078369027449
 40
0.7340006023197764
 40
0.8658472476484006
 40
1.0
 40
1.0
 40
1.0
 40
1.0
 10
36.3970954808957
 20
505.2298286459149
 30
0.0
 10
36.40808666076678
 20
505.2150446389762
 30
0.0
 10
36.430047900952
 20
505.1855050325744
 30
0.0
 10
36.5931633753866
 20
505.0526344052134
 30
0.0
 10
36.79729365890899
 20
504.8789008221119
 30
0.0
 10
37.00936589754
 20
504.6815308215795
 30
0.0
 10
37.20934112562995
 20
504.4815364903918
 30
0.0
 10
37.42489000993382
 20
504.2707267332317
 30
0.0
 10
37.5726001282784
 20
504.1243581126488
 30
0.0
 10
37.64709548089545
 20
504.0505393240337
 30
0.0
  0
SPLINE
  5
148
330
1F
100
AcDbEntity
  8
0
  6
Continuous
 62
     7
370
    15
100
AcDbSpline
210
0.0
220
0.0
230
1.0
 70
     8
 71
     3
 72
    17
 73
    13
 74
     0
 42
0.00000001
 43
0.00000001
 12
1.0
 22
0.0
 32
0.0
 13
1.0
 23
0.0
 33
0.0
 40
0.0
 40
0.0
 40
0.0
 40
0.0
 40
0.0958138575256314
 40
0.1944049548504833
 40
0.2903226472226597
 40
0.3889211927798111
 40
0.4868185239402147
 40
0.5873066667633576
 40
0.6900822198476042
 40
0.7952416778356614
 40
0.8966544257060096
 40
1.0
 40
1.0
 40
1.0
 40
1.0
 10
35.19709548089573
 20
505.2298286459149
 30
0.0
 10
35.20307853193832
 20
505.2236529053805
 30
0.0
 10
35.21521805744992
 20
505.2111224156292
 30
0.0
 10
35.31235443710562
 20
505.1664177187715
 30
0.0
 10
35.46470223195092
 20
505.1011542058562
 30
0.0
 10
35.67078616239006
 20
505.0136099291041
 30
0.0
 10
35.92579846855293
 20
504.902110888056
 30
0.0
 10
36.22219494643208
 20
504.766283834153
 30
0.0
 10
36.55306657176715
 20
504.6018193305254
 30
0.0
 10
36.90600163199742
 20
504.423229757696
 30
0.0
 10
37.27456571147175
 20
504.2389454576887
 30
0.0
 10
37.52213989479175
 20
504.1137353442947
 30
0.0
 10
37.64709548089517
 20
504.0505393240337
 30
0.0
  0
LINE
  5
149
330
1F
100
AcDbEntity
  8
0
  6
Continuous
 62
     7
370
    15
100
AcDbLine
 10
35.1970954809
 20
505.2298286459
 30
0.0
 11
36.3970954809
 21
505.2298286459
 31
0.0
  0
LINE
  5
14A
330
1F
100
AcDbEntity
  8
0
  6
Continuous
 62
     7
370
    15
100
AcDbLine
 10
684.7270954809
 20
506.500539324
 30
0.0
 11
684.7270954809
 21
504.050539324
 31
0.0
  0
LINE
  5
14B
330
1F
100
AcDbEntity
  8
0
  6
Continuous
 62
     7
370
    15
100
AcDbLine
 10
36.467806159
 20
506.500539324
 30
0.0
 11
89.4270954809
 21
506.500539324
 31
0.0
  0
LINE
  5
14C
330
1F
100
AcDbEntity
  8
0
  6
Continuous
 62
     7
370
    15
100
AcDbLine
 10
90.2270954809
 20
506.500539324
 30
0.0
 11
684.7270954809
 21
506.500539324
 31
0.0
  0
LINE
  5
14D
330
1F
100
AcDbEntity
  8
0
  6
Continuous
 62
     7
370
    15
100
AcDbLine
 10
37.6470954809
 20
468.900539324
 30
0.0
 11
35.1970954809
 21
468.900539324
 31
0.0
  0
LINE
  5
14E
330
1F
100
AcDbEntity
  8
0
  6
Continuous
 62
     7
370
    15
100
AcDbLine
 10
35.1970954809
 20
505.2298286459
 30
0.0
 11
35.1970954809
 21
468.900539324
 31
0.0
  0
LINE
  5
14F
330
1F
100
AcDbEntity
  8
0
  6
Continuous
 62
     7
370
    15
100
AcDbLine
 10
684.7270954809
 20
504.050539324
 30
0.0
 11
684.7270954809
 21
468.900539324
 31
0.0
  0
LINE
  5
150
330
1F
100
AcDbEntity
  8
0
  6
Continuous
 62
     7
370
    15
100
AcDbLine
 10
684.7270954809
 20
468.900539324
 30
0.0
 11
37.6470954809
 21
468.900539324
 31
0.0
  0
LINE
  5
151
330
1F
100
AcDbEntity
  8
0
  6
Continuous
 62
     7
370
    15
100
AcDbLine
 10
684.9270954809
 20
468.900539324
 30
0.0
 11
743.3310954809
 21
468.900539324
 31
0.0
  0
LINE
  5
152
330
1F
100
AcDbEntity
  8
0
  6
Continuous
 62
     7
370
    15
100
AcDbLine
 10
684.9270954809
 20
504.050539324
 30
0.0
 11
684.9270954809
 21
468.900539324
 31
0.0
  0
LINE
  5
153
330
1F
100
AcDbEntity
  8
0
  6
Continuous
 62
     7
370
    15
100
AcDbLine
 10
778.4970954809
 20
503.700539324
 30
0.0
 11
778.4970954809
 21
504.050539324
 31
0.0
  0
LINE
  5
154
330
1F
100
AcDbEntity
  8
0
  6
Continuous
 62
     7
370
    15
100
AcDbLine
 10
778.9970954809
 20
503.700539324
 30
0.0
 11
778.4970954809
 21
503.700539324
 31
0.0
  0
LINE
  5
155
330
1F
100
AcDbEntity
  8
0
  6
Continuous
 62
     7
370
    15
100
AcDbLine
 10
778.9970954809
 20
505.194856772
 30
0.0
 11
778.9970954809
 21
503.700539324
 31
0.0
  0
ARC
  5
156
330
1F
100
AcDbEntity
  8
0
  6
Continuous
 62
     7
370
    15
100
AcDbCircle
 10
778.4970954809
 20
483.200539324
 30
0.0
 40
22.00000000000017
100
AcDbArc
 50
293.5
 51
88.6977110648
  0
LINE
  5
157
330
1F
100
AcDbEntity
  8
0
  6
Continuous
 62
     7
370
    15
100
AcDbLine
 10
760.7646293536
 20
451.500539324
 30
0.0
 11
787.2695749973
 21
463.0252176876
 31
0.0
  0
ARC
  5
158
330
1F
100
AcDbEntity
  8
0
  6
Continuous
 62
     7
370
    15
100
AcDbCircle
 10
744.3310954809
 20
452.500539324
 30
0.0
 40
1.0
100
AcDbArc
 50
180.0
 51
270.0
  0
ARC
  5
159
330
1F
100
AcDbEntity
  8
0
  6
Continuous
 62
     7
370
    15
100
AcDbCircle
 10
766.3690218986
 20
473.5259898945
 30
0.0
 40
0.2519916941389007
100
AcDbArc
 50
89.6815405099
 51
269.6815405099
  0
ARC
  5
15A
330
1F
100
AcDbEntity
  8
0
  6
Continuous
 62
     7
370
    15
100
AcDbCircle
 10
765.9970954809
 20
470.700539324
 30
0.0
 40
2.600000000000034
100
AcDbArc
 50
278.1931111105
 51
81.8068888895
  0
ARC
  5
15B
330
1F
100
AcDbEntity
  8
0
  6
Continuous
 62
     7
370
    15
100
AcDbCircle
 10
766.3690218986
 20
467.8750887536
 30
0.0
 40
0.2519916941389013
100
AcDbArc
 50
90.3184594902
 51
270.3184594901
  0
ARC
  5
15C
330
1F
100
AcDbEntity
  8
0
  6
Continuous
 62
     7
370
    15
100
AcDbCircle
 10
765.9970954809
 20
470.700539324
 30
0.0
 40
3.099999999999979
100
AcDbArc
 50
276.9168084494
 51
83.0831915506
  0
ARC
  5
15D
330
1F
100
AcDbEntity
  8
0
  6
Continuous
 62
     7
370
    15
100
AcDbCircle
 10
765.6251690632
 20
467.8750887536
 30
0.0
 40
0.2519916941389007
100
AcDbArc
 50
269.6815405099
 51
89.6815405099
  0
ARC
  5
15E
330
1F
100
AcDbEntity
  8
0
  6
Continuous
 62
     7
370
    15
100
AcDbCircle
 10
765.9970954809
 20
470.700539324
 30
0.0
 40
2.600000000000034
100
AcDbArc
 50
98.1931111105
 51
261.8068888895
  0
ARC
  5
15F
330
1F
100
AcDbEntity
  8
0
  6
Continuous
 62
     7
370
    15
100
AcDbCircle
 10
765.6251690632
 20
473.5259898945
 30
0.0
 40
0.2519916941389013
100
AcDbArc
 50
270.3184594901
 51
90.3184594902
  0
ARC
  5
160
330
1F
100
AcDbEntity
  8
0
  6
Continuous
 62
     7
370
    15
100
AcDbCircle
 10
765.9970954809
 20
470.700539324
 30
0.0
 40
3.099999999999979
100
AcDbArc
 50
96.9168084494
 51
263.0831915506
  0
LINE
  5
161
330
1F
100
AcDbEntity
  8
0
  6
Continuous
 62
     7
370
    15
100
AcDbLine
 10
744.3310954809
 20
451.500539324
 30
0.0
 11
760.7646293536
 21
451.500539324
 31
0.0
  0
LINE
  5
162
330
1F
100
AcDbEntity
  8
0
  6
Continuous
 62
     7
370
    15
100
AcDbLine
 10
743.3310954809
 20
468.900539324
 30
0.0
 11
743.3310954809
 21
452.500539324
 31
0.0
  0
LINE
  5
163
330
1F
100
AcDbEntity
  8
0
  6
Continuous
 62
     7
370
    15
100
AcDbLine
 10
778.4970954809
 20
506.1576700746
 30
0.0
 11
778.4970954809
 21
504.050539324
 31
0.0
  0
LINE
  5
164
330
1F
100
AcDbEntity
  8
0
  6
Continuous
 62
     7
370
    15
100
AcDbLine
 10
684.9270954809
 20
506.500539324
 30
0.0
 11
778.4970954809
 21
506.500539324
 31
0.0
  0
LINE
  5
165
330
1F
100
AcDbEntity
  8
0
  6
Continuous
 62
     7
370
    15
100
AcDbLine
 10
684.9270954809
 20
504.050539324
 30
0.0
 11
684.9270954809
 21
506.500539324
 31
0.0
  0
LINE
  5
166
330
1F
100
AcDbEntity
  8
0
  6
Continuous
 62
     7
370
    15
100
AcDbLine
 10
778.4970954809
 20
506.500539324
 30
0.0
 11
778.4970954809
 21
506.1576700746
 31
0.0
  0
ARC
  5
167
330
1F
100
AcDbEntity
  8
0
  6
Continuous
 62
     7
370
    15
100
AcDbCircle
 10
778.4970954809
 20
483.200539324
 30
0.0
 40
23.30000000000018
100
AcDbArc
 50
293.5
 51
90.0
  0
ARC
  5
168
330
1F
100
AcDbEntity
  8
0
  6
Continuous
 62
     7
370
    15
100
AcDbCircle
 10
778.4970954809
 20
483.200539324
 30
0.0
 40
22.10000000000025
100
AcDbArc
 50
293.5
 51
90.0
  0
LINE
  5
169
330
1F
100
AcDbEntity
  8
0
  6
Continuous
 62
     7
370
    15
100
AcDbLine
 10
764.5403357732
 20
451.7246897642
 30
0.0
 11
764.0618368905
 21
452.8251618535
 31
0.0
  0
LINE
  5
16A
330
1F
100
AcDbEntity
  8
0
  6
Continuous
 62
     7
370
    15
100
AcDbLine
 10
787.3094499041
 20
462.9335116801
 30
0.0
 11
764.0618368905
 21
452.8251618535
 31
0.0
  0
LINE
  5
16B
330
1F
100
AcDbEntity
  8
0
  6
Continuous
 62
     7
370
    15
100
AcDbLine
 10
787.7879487869
 20
461.8330395909
 30
0.0
 11
764.5403357732
 21
451.7246897642
 31
0.0
  0
SPLINE
  5
16C
330
1F
100
AcDbEntity
  8
0
  6
Continuous
 62
     7
370
    15
100
AcDbSpline
210
0.0
220
0.0
230
1.0
 70
     8
 71
     3
 72
     9
 73
     5
 74
     0
 42
0.00000001
 43
0.00000001
 12
1.0
 22
0.0
 32
0.0
 13
1.0
 23
0.0
 33
0.0
 40
0.0
 40
0.0
 40
0.0
 40
0.0
 40
0.4353319132407447
 40
1.0
 40
1.0
 40
1.0
 40
1.0
 10
684.927095480895
 20
485.793742213285
 30
0.0
 10
684.9019779673188
 20
485.7671457091731
 30
0.0
 10
684.8442805809973
 20
485.706050936879
 30
0.0
 10
684.7693860387658
 20
485.6785497265043
 30
0.0
 10
684.727095480895
 20
485.6630206706585
 30
0.0
  0
LINE
  5
16D
330
1F
100
AcDbEntity
  8
0
  6
Continuous
 62
     7
370
    15
100
AcDbLine
 10
684.9270954809
 20
487.750539324
 30
0.0
 11
684.7270954809
 21
487.750539324
 31
0.0
  0
LINE
  5
16E
330
1F
100
AcDbEntity
  8
0
  6
Continuous
 62
     7
370
    15
100
AcDbLine
 10
89.3270954809
 20
506.834024185
 30
0.0
 11
89.4270954809
 21
506.750539324
 31
0.0
  0
LINE
  5
16F
330
1F
100
AcDbEntity
  8
0
  6
Continuous
 62
     7
370
    15
100
AcDbLine
 10
88.0092745041
 20
506.6090261999
 30
0.0
 11
88.0699647303
 21
506.500539324
 31
0.0
  0
ARC
  5
170
330
1F
100
AcDbEntity
  8
0
  6
Continuous
 62
     7
370
    15
100
AcDbCircle
 10
687.1770954809
 20
504.050539324
 30
0.0
 40
2.449999999999973
100
AcDbArc
 50
156.6885543185
 51
180.0
  0
LINE
  5
171
330
1F
100
AcDbEntity
  8
0
  6
Continuous
 62
     7
370
    15
100
AcDbLine
 10
684.7302869824
 20
482.850539324
 30
0.0
 11
684.7302869824
 21
471.400539324
 31
0.0
  0
LINE
  5
172
330
1F
100
AcDbEntity
  8
0
  6
Continuous
 62
     7
370
    15
100
AcDbLine
 10
684.7302869824
 20
469.400539324
 30
0.0
 11
684.9270954809
 21
469.400539324
 31
0.0
  0
LINE
  5
173
330
1F
100
AcDbEntity
  8
0
  6
Continuous
 62
     7
370
    15
100
AcDbLine
 10
684.7302869824
 20
471.400539324
 30
0.0
 11
684.7302869824
 21
469.400539324
 31
0.0
  0
LWPOLYLINE
  5
174
330
1F
100
AcDbEntity
  8
0
  6
Continuous
 62
     7
370
    15
100
AcDbPolyline
 90
        3
 70
   128
 43
0.0
 10
684.9270954809
 20
484.8277204409
 10
684.8414340533
 20
484.8876398742
 10
684.7270954809
 20
484.9595600845
  0
LINE
  5
175
330
1F
100
AcDbEntity
  8
0
  6
Continuous
 62
     7
370
    15
100
AcDbLine
 10
684.7302869824
 20
482.850539324
 30
0.0
 11
684.7270954809
 21
482.9398061608
 31
0.0
  0
SPLINE
  5
176
330
1F
100
AcDbEntity
  8
0
  6
Continuous
 62
     7
370
    15
100
AcDbSpline
210
0.0
220
0.0
230
1.0
 70
     8
 71
     3
 72
    12
 73
     8
 74
     0
 42
0.00000001
 43
0.00000001
 12
1.0
 22
0.0
 32
0.0
 13
1.0
 23
0.0
 33
0.0
 40
0.0
 40
0.0
 40
0.0
 40
0.0
 40
0.145440497256449
 40
0.276679633359282
 40
0.4978135062082749
 40
0.7087259377059261
 40
1.0
 40
1.0
 40
1.0
 40
1.0
 10
743.0970954808934
 20
467.8298286459075
 30
0.0
 10
743.0851712869804
 20
467.8129416600102
 30
0.0
 10
743.062487222623
 20
467.7808165974947
 30
0.0
 10
742.8579099988943
 20
467.6848501419235
 30
0.0
 10
742.4695492945963
 20
467.5090060946838
 30
0.0
 10
741.8350690319683
 20
467.1252330087439
 30
0.0
 10
741.3363553003531
 20
466.8247962002283
 30
0.0
 10
741.0470954808933
 20
466.6505393240263
 30
0.0
  0
LINE
  5
177
330
1F
100
AcDbEntity
  8
0
  6
Continuous
 62
     7
370
    15
100
AcDbLine
 10
743.0970954809
 20
467.8298286459
 30
0.0
 11
743.0970954809
 21
449.700539324
 31
0.0
  0
LINE
  5
178
330
1F
100
AcDbEntity
  8
0
  6
Continuous
 62
     7
370
    15
100
AcDbLine
 10
743.0970954809
 20
331.0128647969
 30
0.0
 11
743.0970954809
 21
330.0128647969
 31
0.0
  0
LINE
  5
179
330
1F
100
AcDbEntity
  8
0
  6
Continuous
 62
     7
370
    15
100
AcDbLine
 10
743.0970954809
 20
329.2128647969
 30
0.0
 11
743.0970954809
 21
204.5712500021
 31
0.0
  0
SPLINE
  5
17A
330
1F
100
AcDbEntity
  8
0
  6
Continuous
 62
     7
370
    15
100
AcDbSpline
210
0.0
220
0.0
230
1.0
 70
     8
 71
     3
 72
    12
 73
     8
 74
     0
 42
0.00000001
 43
0.00000001
 12
1.0
 22
0.0
 32
0.0
 13
1.0
 23
0.0
 33
0.0
 40
0.0
 40
0.0
 40
0.0
 40
0.0
 40
0.2392221065563825
 40
0.5048677062729094
 40
0.6979820493799491
 40
0.8912964653955665
 40
1.0
 40
1.0
 40
1.0
 40
1.0
 10
741.0470954808943
 20
205.7505393240264
 30
0.0
 10
741.2849460974583
 20
205.609175115478
 30
0.0
 10
741.7869193345842
 20
205.3108321874504
 30
0.0
 10
742.4153951678052
 20
204.9250785404783
 30
0.0
 10
742.8666062828182
 20
204.6918809439362
 30
0.0
 10
743.0710173499808
 20
204.5972366565206
 30
0.0
 10
743.0901935166479
 20
204.5781277557682
 30
0.0
 10
743.0970954808942
 20
204.5712500021449
 30
0.0
  0
SPLINE
  5
17B
330
1F
100
AcDbEntity
  8
0
  6
Continuous
 62
     7
370
    15
100
AcDbSpline
210
0.0
220
0.0
230
1.0
 70
     8
 71
     3
 72
    12
 73
     8
 74
     0
 42
0.00000001
 43
0.00000001
 12
1.0
 22
0.0
 32
0.0
 13
1.0
 23
0.0
 33
0.0
 40
0.0
 40
0.0
 40
0.0
 40
0.0
 40
0.2286702771455651
 40
0.457413952636022
 40
0.6861579520287443
 40
0.9149017666625995
 40
1.0
 40
1.0
 40
1.0
 40
1.0
 10
741.0470954808932
 20
466.6505393240263
 30
0.0
 10
741.1370131822207
 20
466.8960117435969
 30
0.0
 10
741.3168774465647
 20
467.387035374217
 30
0.0
 10
741.5867366149627
 20
468.030201075556
 30
0.0
 10
741.8564347105046
 20
468.4943687396328
 30
0.0
 10
742.0702428136374
 20
468.6831486135399
 30
0.0
 10
742.1930780447262
 20
468.6968296992824
 30
0.0
 10
742.2263848027748
 20
468.7005393240264
 30
0.0
  0
LINE
  5
17C
330
1F
100
AcDbEntity
  8
0
  6
Continuous
 62
     7
370
    15
100
AcDbLine
 10
742.2263848028
 20
467.900539324
 30
0.0
 11
742.2263848028
 21
468.700539324
 31
0.0
  0
SPLINE
  5
17D
330
1F
100
AcDbEntity
  8
0
  6
Continuous
 62
     7
370
    15
100
AcDbSpline
210
0.0
220
0.0
230
1.0
 70
     8
 71
     3
 72
    11
 73
     7
 74
     0
 42
0.00000001
 43
0.00000001
 12
1.0
 22
0.0
 32
0.0
 13
1.0
 23
0.0
 33
0.0
 40
0.0
 40
0.0
 40
0.0
 40
0.0
 40
0.2506688637244626
 40
0.5014856490565276
 40
0.7523028878589597
 40
1.0
 40
1.0
 40
1.0
 40
1.0
 10
741.0470954808932
 20
466.6505393240262
 30
0.0
 10
741.145635054425
 20
466.8147768652652
 30
0.0
 10
741.3427723504419
 20
467.1433488655684
 30
0.0
 10
741.6385064527146
 20
467.5573982554268
 30
0.0
 10
741.9330867080281
 20
467.8449584899666
 30
0.0
 10
742.1290275593404
 20
467.8820898458716
 30
0.0
 10
742.2263848027749
 20
467.9005393240263
 30
0.0
  0
SPLINE
  5
17E
330
1F
100
AcDbEntity
  8
0
  6
Continuous
 62
     7
370
    15
100
AcDbSpline
210
0.0
220
0.0
230
1.0
 70
     8
 71
     3
 72
    13
 73
     9
 74
     0
 42
0.00000001
 43
0.00000001
 12
1.0
 22
0.0
 32
0.0
 13
1.0
 23
0.0
 33
0.0
 40
0.0
 40
0.0
 40
0.0
 40
0.0
 40
0.1324496571138507
 40
0.2535502158970049
 40
0.3645036189801212
 40
0.466879623637851
 40
0.6855382790611638
 40
1.0
 40
1.0
 40
1.0
 40
1.0
 10
742.2970954808934
 20
467.8298286459076
 30
0.0
 10
742.2897936510778
 20
467.8129432833535
 30
0.0
 10
742.2758156569741
 20
467.7806193995897
 30
0.0
 10
742.1754194846266
 20
467.7032458737939
 30
0.0
 10
742.0454768155422
 20
467.6071285486532
 30
0.0
 10
741.844687643183
 20
467.4401303217091
 30
0.0
 10
741.5192677650708
 20
467.1168627523119
 30
0.0
 10
741.2222762799393
 20
466.823550137067
 30
0.0
 10
741.0470954808933
 20
466.6505393240263
 30
0.0
  0
LINE
  5
17F
330
1F
100
AcDbEntity
  8
0
  6
Continuous
 62
     7
370
    15
100
AcDbLine
 10
743.0970954809
 20
467.8298286459
 30
0.0
 11
742.2970954809
 21
467.8298286459
 31
0.0
  0
SPLINE
  5
180
330
1F
100
AcDbEntity
  8
0
  6
Continuous
 62
     7
370
    15
100
AcDbSpline
210
0.0
220
0.0
230
1.0
 70
     8
 71
     3
 72
    12
 73
     8
 74
     0
 42
0.00000001
 43
0.00000001
 12
1.0
 22
0.0
 32
0.0
 13
1.0
 23
0.0
 33
0.0
 40
0.0
 40
0.0
 40
0.0
 40
0.0
 40
0.1883674158592322
 40
0.3766352028814696
 40
0.5661514649945568
 40
0.812147592377165
 40
1.0
 40
1.0
 40
1.0
 40
1.0
 10
36.46780615901196
 20
468.7005393240237
 30
0.0
 10
36.48254819702529
 20
468.6801933096442
 30
0.0
 10
36.51202447588548
 20
468.6395120420337
 30
0.0
 10
36.65642909353184
 20
468.3269417804069
 30
0.0
 10
36.927213940883
 20
467.8489835196349
 30
0.0
 10
37.27861174346481
 20
467.2674401737041
 30
0.0
 10
37.53575487884575
 20
466.8369413413459
 30
0.0
 10
37.64709548089334
 20
466.6505393240237
 30
0.0
  0
LINE
  5
181
330
1F
100
AcDbEntity
  8
0
  6
Continuous
 62
     7
370
    15
100
AcDbLine
 10
36.467806159
 20
468.700539324
 30
0.0
 11
742.2263848028
 21
468.700539324
 31
0.0
  0
SPLINE
  5
182
330
1F
100
AcDbEntity
  8
0
  6
Continuous
 62
     7
370
    15
100
AcDbSpline
210
0.0
220
0.0
230
1.0
 70
     8
 71
     3
 72
    11
 73
     7
 74
     0
 42
0.00000001
 43
0.00000001
 12
1.0
 22
0.0
 32
0.0
 13
1.0
 23
0.0
 33
0.0
 40
0.0
 40
0.0
 40
0.0
 40
0.0
 40
0.2499999999999991
 40
0.500000000000001
 40
0.7500000000000008
 40
0.9999999999999999
 40
0.9999999999999999
 40
0.9999999999999999
 40
0.9999999999999999
 10
742.2263848027757
 20
203.7005393240263
 30
0.0
 10
742.128110692619
 20
203.7313540482403
 30
0.0
 10
741.9315624723055
 20
203.7929834966683
 30
0.0
 10
741.6367401418352
 20
204.2670443835692
 30
0.0
 10
741.3419178113647
 20
204.9446615046178
 30
0.0
 10
741.1453695910511
 20
205.4819133842234
 30
0.0
 10
741.0470954808943
 20
205.7505393240262
 30
0.0
  0
SPLINE
  5
183
330
1F
100
AcDbEntity
  8
0
  6
Continuous
 62
     7
370
    15
100
AcDbSpline
210
0.0
220
0.0
230
1.0
 70
     8
 71
     3
 72
    11
 73
     7
 74
     0
 42
0.00000001
 43
0.00000001
 12
1.0
 22
0.0
 32
0.0
 13
1.0
 23
0.0
 33
0.0
 40
0.0
 40
0.0
 40
0.0
 40
0.0
 40
0.2499999999999945
 40
0.4999999999999991
 40
0.7500000000000037
 40
1.0
 40
1.0
 40
1.0
 40
1.0
 10
742.2263848027757
 20
204.5005393240262
 30
0.0
 10
742.128110692619
 20
204.5193287900104
 30
0.0
 10
741.9315624723052
 20
204.5569077219787
 30
0.0
 10
741.6367401418352
 20
204.8459692383816
 30
0.0
 10
741.3419178113646
 20
205.2591504097529
 30
0.0
 10
741.1453695910511
 20
205.5867430192684
 30
0.0
 10
741.0470954808943
 20
205.7505393240262
 30
0.0
  0
LINE
  5
184
330
1F
100
AcDbEntity
  8
0
  6
Continuous
 62
     7
370
    15
100
AcDbLine
 10
742.2263848028
 20
204.500539324
 30
0.0
 11
742.2263848028
 21
203.700539324
 31
0.0
  0
LINE
  5
185
330
1F
100
AcDbEntity
  8
0
  6
Continuous
 62
     7
370
    15
100
AcDbLine
 10
743.0970954809
 20
204.5712500021
 30
0.0
 11
742.2970954809
 21
204.5712500021
 31
0.0
  0
SPLINE
  5
186
330
1F
100
AcDbEntity
  8
0
  6
Continuous
 62
     7
370
    15
100
AcDbSpline
210
0.0
220
0.0
230
1.0
 70
     8
 71
     3
 72
    12
 73
     8
 74
     0
 42
0.00000001
 43
0.00000001
 12
1.0
 22
0.0
 32
0.0
 13
1.0
 23
0.0
 33
0.0
 40
0.0
 40
0.0
 40
0.0
 40
0.0
 40
0.3456810195503193
 40
0.5630701323915058
 40
0.7357942570615462
 40
0.909116009742533
 40
1.0
 40
1.0
 40
1.0
 40
1.0
 10
741.0470954808943
 20
205.7505393240264
 30
0.0
 10
741.2413934834238
 20
205.5613149318785
 30
0.0
 10
741.5578800586779
 20
205.2530926184955
 30
0.0
 10
741.9269774461361
 20
204.8838437609255
 30
0.0
 10
742.1672796262449
 20
204.6842100543608
 30
0.0
 10
742.2829222908041
 20
204.5954843339806
 30
0.0
 10
742.2934679018638
 20
204.5774526956405
 30
0.0
 10
742.2970954808943
 20
204.5712500021449
 30
0.0
  0
LINE
  5
187
330
1F
100
AcDbEntity
  8
0
  6
Continuous
 62
     7
370
    15
100
AcDbLine
 10
36.467806159
 20
203.700539324
 30
0.0
 11
742.2263848028
 21
203.700539324
 31
0.0
  0
SPLINE
  5
188
330
1F
100
AcDbEntity
  8
0
  6
Continuous
 62
     7
370
    15
100
AcDbSpline
210
0.0
220
0.0
230
1.0
 70
     8
 71
     3
 72
    17
 73
    13
 74
     0
 42
0.00000001
 43
0.00000001
 12
1.0
 22
0.0
 32
0.0
 13
1.0
 23
0.0
 33
0.0
 40
0.0
 40
0.0
 40
0.0
 40
0.0
 40
0.1181762159793625
 40
0.2391029798537601
 40
0.3697817957509413
 40
0.5050118157663648
 40
0.6002248826479406
 40
0.6981536440259806
 40
0.7933935159003892
 40
0.8915368069799858
 40
0.9455126902465097
 40
1.0
 40
1.0
 40
1.0
 40
1.0
 10
37.64709548089423
 20
205.7505393240237
 30
0.0
 10
37.5764272756508
 20
205.6332317054825
 30
0.0
 10
37.4334460647987
 20
205.3958861370845
 30
0.0
 10
37.2202703326796
 20
205.0351085745569
 30
0.0
 10
37.00691183199828
 20
204.677657482379
 30
0.0
 10
36.82343015183637
 20
204.3746933387721
 30
0.0
 10
36.69156763032183
 20
204.1317930366243
 30
0.0
 10
36.60127865649104
 20
203.9524647271115
 30
0.0
 10
36.5343537668637
 20
203.8142177208241
 30
0.0
 10
36.49680410309786
 20
203.7395364325675
 30
0.0
 10
36.47635044113745
 20
203.7055852229065
 30
0.0
 10
36.47066319190828
 20
203.7022265692346
 30
0.0
 10
36.46780615901285
 20
203.7005393240237
 30
0.0
  0
LINE
  5
189
330
1F
100
AcDbEntity
  8
0
  6
Continuous
 62
     7
370
    15
100
AcDbLine
 10
36.467806159
 20
468.700539324
 30
0.0
 11
36.467806159
 21
467.900539324
 31
0.0
  0
LWPOLYLINE
  5
18A
330
1F
100
AcDbEntity
  8
0
  6
Continuous
 62
     7
370
    15
100
AcDbPolyline
 90
        2
 70
   128
 43
0.0
 10
37.6470954809
 20
466.650539324
 10
37.6470954809
 20
466.650539324
  0
SPLINE
  5
18B
330
1F
100
AcDbEntity
  8
0
  6
Continuous
 62
     7
370
    15
100
AcDbSpline
210
0.0
220
0.0
230
1.0
 70
     8
 71
     3
 72
    12
 73
     8
 74
     0
 42
0.00000001
 43
0.00000001
 12
1.0
 22
0.0
 32
0.0
 13
1.0
 23
0.0
 33
0.0
 40
0.0
 40
0.0
 40
0.0
 40
0.0
 40
0.1779530337825763
 40
0.3355033292119108
 40
0.4996134486686088
 40
0.7742146412149855
 40
0.9999999999999999
 40
0.9999999999999999
 40
0.9999999999999999
 40
0.9999999999999999
 10
36.46780615901196
 20
467.9005393240237
 30
0.0
 10
36.48356283271353
 20
467.8868396611546
 30
0.0
 10
36.51326964001994
 20
467.8610110343313
 30
0.0
 10
36.6514507100778
 20
467.6810212906472
 30
0.0
 10
36.89897712627249
 20
467.4078956298478
 30
0.0
 10
37.25065596885263
 20
467.056348645324
 30
0.0
 10
37.52383233036976
 20
466.7767157871058
 30
0.0
 10
37.64709548089334
 20
466.6505393240237
 30
0.0
  0
SPLINE
  5
18C
330
1F
100
AcDbEntity
  8
0
  6
Continuous
 62
     7
370
    15
100
AcDbSpline
210
0.0
220
0.0
230
1.0
 70
     8
 71
     3
 72
    11
 73
     7
 74
     0
 42
0.00000001
 43
0.00000001
 12
1.0
 22
0.0
 32
0.0
 13
1.0
 23
0.0
 33
0.0
 40
0.0
 40
0.0
 40
0.0
 40
0.0
 40
0.2500000000000008
 40
0.4999999999999951
 40
0.7500000000000022
 40
0.9999999999999999
 40
0.9999999999999999
 40
0.9999999999999999
 40
0.9999999999999999
 10
37.6470954808934
 20
466.6505393240237
 30
0.0
 10
37.37846954109059
 20
466.7488134341805
 30
0.0
 10
36.84121766148507
 20
466.945361654494
 30
0.0
 10
36.16360054043633
 20
467.2401839849644
 30
0.0
 10
35.68953965353544
 20
467.5350063154347
 30
0.0
 10
35.62791020510736
 20
467.7315545357482
 30
0.0
 10
35.59709548089335
 20
467.829828645905
 30
0.0
  0
LINE
  5
18D
330
1F
100
AcDbEntity
  8
0
  6
Continuous
 62
     7
370
    15
100
AcDbLine
 10
36.3970954809
 20
467.8298286459
 30
0.0
 11
35.5970954809
 21
467.8298286459
 31
0.0
  0
SPLINE
  5
18E
330
1F
100
AcDbEntity
  8
0
  6
Continuous
 62
     7
370
    15
100
AcDbSpline
210
0.0
220
0.0
230
1.0
 70
     8
 71
     3
 72
    11
 73
     7
 74
     0
 42
0.00000001
 43
0.00000001
 12
1.0
 22
0.0
 32
0.0
 13
1.0
 23
0.0
 33
0.0
 40
0.0
 40
0.0
 40
0.0
 40
0.0
 40
0.2500000000000139
 40
0.5000000000000117
 40
0.7500000000000066
 40
1.0
 40
1.0
 40
1.0
 40
1.0
 10
37.6470954808934
 20
466.6505393240237
 30
0.0
 10
37.48329917613563
 20
466.7488134341805
 30
0.0
 10
37.15570656661998
 20
466.945361654494
 30
0.0
 10
36.7425253952488
 20
467.2401839849643
 30
0.0
 10
36.45346387884585
 20
467.5350063154347
 30
0.0
 10
36.41588494687758
 20
467.7315545357482
 30
0.0
 10
36.39709548089337
 20
467.829828645905
 30
0.0
  0
SPLINE
  5
18F
330
1F
100
AcDbEntity
  8
0
  6
Continuous
 62
     7
370
    15
100
AcDbSpline
210
0.0
220
0.0
230
1.0
 70
     8
 71
     3
 72
    11
 73
     7
 74
     0
 42
0.00000001
 43
0.00000001
 12
1.0
 22
0.0
 32
0.0
 13
1.0
 23
0.0
 33
0.0
 40
0.0
 40
0.0
 40
0.0
 40
0.0
 40
0.2499999999999991
 40
0.5000000000000117
 40
0.7499999999999994
 40
1.0
 40
1.0
 40
1.0
 40
1.0
 10
35.59709548089435
 20
204.5712500021426
 30
0.0
 10
35.62791020510841
 20
204.6695241122994
 30
0.0
 10
35.68953965353644
 20
204.8660723326129
 30
0.0
 10
36.16360054043727
 20
205.1608946630832
 30
0.0
 10
36.84121766148601
 20
205.4557169935534
 30
0.0
 10
37.37846954109153
 20
205.652265213867
 30
0.0
 10
37.64709548089423
 20
205.7505393240237
 30
0.0
  0
LINE
  5
190
330
1F
100
AcDbEntity
  8
0
  6
Continuous
 62
     7
370
    15
100
AcDbLine
 10
35.5970954809
 20
204.5712500021
 30
0.0
 11
35.5970954809
 21
467.8298286459
 31
0.0
  0
SPLINE
  5
191
330
1F
100
AcDbEntity
  8
0
  6
Continuous
 62
     7
370
    15
100
AcDbSpline
210
0.0
220
0.0
230
1.0
 70
     8
 71
     3
 72
    11
 73
     7
 74
     0
 42
0.00000001
 43
0.00000001
 12
1.0
 22
0.0
 32
0.0
 13
1.0
 23
0.0
 33
0.0
 40
0.0
 40
0.0
 40
0.0
 40
0.0
 40
0.2499999999999979
 40
0.5000000000000074
 40
0.7499999999999899
 40
1.0
 40
1.0
 40
1.0
 40
1.0
 10
36.39709548089437
 20
204.5712500021426
 30
0.0
 10
36.41588494687853
 20
204.6695241122993
 30
0.0
 10
36.45346387884679
 20
204.8660723326129
 30
0.0
 10
36.74252539524997
 20
205.1608946630832
 30
0.0
 10
37.15570656662081
 20
205.4557169935534
 30
0.0
 10
37.48329917613646
 20
205.6522652138669
 30
0.0
 10
37.64709548089429
 20
205.7505393240237
 30
0.0
  0
LINE
  5
192
330
1F
100
AcDbEntity
  8
0
  6
Continuous
 62
     7
370
    15
100
AcDbLine
 10
36.3970954809
 20
204.5712500021
 30
0.0
 11
35.5970954809
 21
204.5712500021
 31
0.0
  0
LINE
  5
193
330
1F
100
AcDbEntity
  8
0
  6
Continuous
 62
     7
370
    15
100
AcDbLine
 10
36.467806159
 20
203.700539324
 30
0.0
 11
36.467806159
 21
204.500539324
 31
0.0
  0
SPLINE
  5
194
330
1F
100
AcDbEntity
  8
0
  6
Continuous
 62
     7
370
    15
100
AcDbSpline
210
0.0
220
0.0
230
1.0
 70
     8
 71
     3
 72
    17
 73
    13
 74
     0
 42
0.00000001
 43
0.00000001
 12
1.0
 22
0.0
 32
0.0
 13
1.0
 23
0.0
 33
0.0
 40
0.0
 40
0.0
 40
0.0
 40
0.0
 40
0.1703303206960062
 40
0.3458493939570841
 40
0.4533941137315236
 40
0.5630904059635772
 40
0.6482977066402689
 40
0.7358353060962219
 40
0.8211192383413022
 40
0.9093097397110547
 40
0.9544405237534872
 40
1.0
 40
1.0
 40
1.0
 40
1.0
 10
37.64709548089423
 20
205.7505393240237
 30
0.0
 10
37.55336241150842
 20
205.6554166506179
 30
0.0
 10
37.36304089324688
 20
205.4622735929724
 30
0.0
 10
37.1224893534739
 20
205.2138010203143
 30
0.0
 10
36.92374574989022
 20
205.0127229382241
 30
0.0
 10
36.7824077298411
 20
204.8669181879561
 30
0.0
 10
36.67281142221973
 20
204.7410246939928
 30
0.0
 10
36.59127295731091
 20
204.6416654932889
 30
0.0
 10
36.52915013604713
 20
204.5633235291118
 30
0.0
 10
36.49428349145795
 20
204.5214999433075
 30
0.0
 10
36.47560842975523
 20
204.5031830799455
 30
0.0
 10
36.47041509887278
 20
204.5014233487432
 30
0.0
 10
36.46780615901285
 20
204.5005393240237
 30
0.0
  0
LINE
  5
195
330
1F
100
AcDbEntity
  8
0
  6
Continuous
 62
     7
370
    15
100
AcDbLine
 10
46.3970954809
 20
468.900539324
 30
0.0
 11
46.3970954809
 21
468.700539324
 31
0.0
  0
LINE
  5
196
330
1F
100
AcDbEntity
  8
0
  6
Continuous
 62
     7
370
    15
100
AcDbLine
 10
732.2970954809
 20
468.700539324
 30
0.0
 11
732.2970954809
 21
468.900539324
 31
0.0
  0
LINE
  5
197
330
1F
100
AcDbEntity
  8
0
  6
Continuous
 62
     7
370
    15
100
AcDbLine
 10
684.7270954809
 20
474.700539324
 30
0.0
 11
684.7302869824
 21
474.700539324
 31
0.0
  0
LWPOLYLINE
  5
198
330
1F
100
AcDbEntity
  8
0
  6
Continuous
 62
     7
370
    15
100
AcDbPolyline
 90
        3
 70
   128
 43
0.0
 10
37.00448425
 20
205.3358307275
 10
37.114683867
 20
205.2181277101
 10
37.1197408172
 20
205.2130854784
  0
LWPOLYLINE
  5
199
330
1F
100
AcDbEntity
  8
0
  6
Continuous
 62
     7
370
    15
100
AcDbPolyline
 90
        3
 70
   128
 43
0.0
 10
799.8808007326
 20
205.5843244986
 10
799.884196031
 20
205.5893922531
 10
799.989974203
 20
205.7628647969
  0
LINE
  5
19A
330
1F
100
AcDbEntity
  8
0
  6
Continuous
 62
     7
370
    15
100
AcDbLine
 10
743.9970954809
 20
204.500539324
 30
0.0
 11
743.9970954809
 21
204.6349256796
 31
0.0
  0
LINE
  5
19B
330
1F
100
AcDbEntity
  8
0
  6
Continuous
 62
     7
370
    15
100
AcDbLine
 10
36.3970954809
 20
468.8606283621
 30
0.0
 11
36.3970954809
 21
468.900539324
 31
0.0
  0
LINE
  5
19C
330
1F
100
AcDbEntity
  8
0
  6
Continuous
 62
     7
370
    15
100
AcDbLine
 10
37.5970954809
 20
468.700539324
 30
0.0
 11
37.5970954809
 21
468.900539324
 31
0.0
  0
LINE
  5
19D
330
1F
100
AcDbEntity
  8
0
  6
Continuous
 62
     7
370
    15
100
AcDbLine
 10
37.5970954809
 20
506.500539324
 30
0.0
 11
37.5970954809
 21
506.6090261999
 31
0.0
  0
LINE
  5
19E
330
1F
100
AcDbEntity
  8
0
  6
Continuous
 62
     7
370
    15
100
AcDbLine
 10
36.1970954809
 20
468.900539324
 30
0.0
 11
36.1970954809
 21
467.8298286459
 31
0.0
  0
SPLINE
  5
19F
330
1F
100
AcDbEntity
  8
0
  6
Continuous
 62
     7
370
    15
100
AcDbSpline
210
0.0
220
0.0
230
1.0
 70
     8
 71
     3
 72
    13
 73
     9
 74
     0
 42
0.00000001
 43
0.00000001
 12
1.0
 22
0.0
 32
0.0
 13
1.0
 23
0.0
 33
0.0
 40
0.0
 40
0.0
 40
0.0
 40
0.0
 40
0.0075462231153377
 40
0.2722763788511308
 40
0.4815195415732628
 40
0.6613541616921739
 40
0.8304588949397571
 40
1.0
 40
1.0
 40
1.0
 40
1.0
 10
25.19709548089344
 20
235.4072184946313
 30
0.0
 10
25.19709229685091
 20
235.4073254439006
 30
0.0
 10
25.19697741294807
 20
235.4111842961121
 30
0.0
 10
25.18539175333551
 20
235.4181994491717
 30
0.0
 10
25.14267297406347
 20
235.4270687160019
 30
0.0
 10
25.08700137095909
 20
235.4333529258665
 30
0.0
 10
25.0208655775786
 20
235.4375725741367
 30
0.0
 10
24.97170662818016
 20
235.4381320538812
 30
0.0
 10
24.94709548089352
 20
235.4384121542204
 30
0.0
  0
LINE
  5
1A0
330
1F
100
AcDbEntity
  8
0
  6
Continuous
 62
     7
370
    15
100
AcDbLine
 10
25.1970954809
 20
243.17494866
 30
0.0
 11
25.1970954809
 21
235.4072184946
 31
0.0
  0
SPLINE
  5
1A1
330
1F
100
AcDbEntity
  8
0
  6
Continuous
 62
     7
370
    15
100
AcDbSpline
210
0.0
220
0.0
230
1.0
 70
     8
 71
     3
 72
    13
 73
     9
 74
     0
 42
0.00000001
 43
0.00000001
 12
1.0
 22
0.0
 32
0.0
 13
1.0
 23
0.0
 33
0.0
 40
0.0
 40
0.0
 40
0.0
 40
0.0
 40
0.1695411050602501
 40
0.3386458383075769
 40
0.5184804584264412
 40
0.7277236211482683
 40
0.9924537768849832
 40
1.0
 40
1.0
 40
1.0
 40
1.0
 10
24.24709548089354
 20
235.4384121542205
 30
0.0
 10
24.22248433360691
 20
235.4381320538814
 30
0.0
 10
24.17332538420858
 20
235.4375725741368
 30
0.0
 10
24.10718959082791
 20
235.4333529258665
 30
0.0
 10
24.05151798772381
 20
235.4270687160019
 30
0.0
 10
24.00879920845112
 20
235.4181994491717
 30
0.0
 10
23.99721354883988
 20
235.4111842961123
 30
0.0
 10
23.99709866493605
 20
235.4073254439006
 30
0.0
 10
23.99709548089352
 20
235.4072184946313
 30
0.0
  0
LINE
  5
1A2
330
1F
100
AcDbEntity
  8
0
  6
Continuous
 62
     7
370
    15
100
AcDbLine
 10
23.9970954809
 20
235.4072184946
 30
0.0
 11
23.9970954809
 21
242.8972773426
 31
0.0
  0
LINE
  5
1A3
330
1F
100
AcDbEntity
  8
0
  6
Continuous
 62
     7
370
    15
100
AcDbLine
 10
24.2470954809
 20
235.4384121542
 30
0.0
 11
24.9470954809
 21
235.4384121542
 31
0.0
  0
SPLINE
  5
1A4
330
1F
100
AcDbEntity
  8
0
  6
Continuous
 62
     7
370
    15
100
AcDbSpline
210
0.0
220
0.0
230
1.0
 70
     8
 71
     3
 72
    12
 73
     8
 74
     0
 42
0.00000001
 43
0.00000001
 12
1.0
 22
0.0
 32
0.0
 13
1.0
 23
0.0
 33
0.0
 40
0.0
 40
0.0
 40
0.0
 40
0.0
 40
0.2028202020467118
 40
0.4049472449427063
 40
0.6098312030740992
 40
0.8226939241827185
 40
0.9999999999999999
 40
0.9999999999999999
 40
0.9999999999999999
 40
0.9999999999999999
 10
23.74709548089415
 20
230.0894359147306
 30
0.0
 10
23.90423632142963
 20
230.1016589339186
 30
0.0
 10
24.21798095732214
 20
230.1260631988544
 30
0.0
 10
24.6383772077915
 20
230.3157144051859
 30
0.0
 10
24.96545574323128
 20
230.5978445609555
 30
0.0
 10
25.16366500949707
 20
230.9374900234829
 30
0.0
 10
25.18665021541899
 20
231.1782376711585
 30
0.0
 10
25.19709548089377
 20
231.287641654788
 30
0.0
  0
SPLINE
  5
1A5
330
1F
100
AcDbEntity
  8
0
  6
Continuous
 62
     7
370
    15
100
AcDbSpline
210
0.0
220
0.0
230
1.0
 70
     8
 71
     3
 72
    12
 73
     8
 74
     0
 42
0.00000001
 43
0.00000001
 12
1.0
 22
0.0
 32
0.0
 13
1.0
 23
0.0
 33
0.0
 40
0.0
 40
0.0
 40
0.0
 40
0.0
 40
0.2289440738515571
 40
0.4594214300241258
 40
0.6825355698157537
 40
0.8947175231628786
 40
1.0
 40
1.0
 40
1.0
 40
1.0
 10
25.19709548089372
 20
235.1628252678522
 30
0.0
 10
25.17976099631614
 20
235.0339456915244
 30
0.0
 10
25.14497593479697
 20
234.7753234076567
 30
0.0
 10
24.87110608898469
 20
234.4327125541625
 30
0.0
 10
24.47406955450165
 20
234.1856522472188
 30
0.0
 10
24.07319356514909
 20
234.0745678914658
 30
0.0
 10
23.82830817206194
 20
234.0651194041144
 30
0.0
 10
23.74709548089377
 20
234.0619859502338
 30
0.0
  0
LINE
  5
1A6
330
1F
100
AcDbEntity
  8
0
  6
Continuous
 62
     7
370
    15
100
AcDbLine
 10
25.1970954809
 20
235.1628252679
 30
0.0
 11
25.1970954809
 21
231.2876416548
 31
0.0
  0
LINE
  5
1A7
330
1F
100
AcDbEntity
  8
0
  6
Continuous
 62
     7
370
    15
100
AcDbLine
 10
18.3970954809
 20
230.320100214
 30
0.0
 11
18.3970954809
 21
234.195283827
 31
0.0
  0
LINE
  5
1A8
330
1F
100
AcDbEntity
  8
0
  6
Continuous
 62
     7
370
    15
100
AcDbLine
 10
18.3970954809
 20
234.195283827
 30
0.0
 11
18.3970954809
 21
234.7579214286
 31
0.0
  0
LINE
  5
1A9
330
1F
100
AcDbEntity
  8
0
  6
Continuous
 62
     7
370
    15
100
AcDbLine
 10
25.1970954809
 20
235.4072184946
 30
0.0
 11
25.1970954809
 21
235.1628252679
 31
0.0
  0
LINE
  5
1AA
330
1F
100
AcDbEntity
  8
0
  6
Continuous
 62
     7
370
    15
100
AcDbLine
 10
23.9970954809
 20
235.1628252679
 30
0.0
 11
23.9970954809
 21
235.4072184946
 31
0.0
  0
LINE
  5
1AB
330
1F
100
AcDbEntity
  8
0
  6
Continuous
 62
     7
370
    15
100
AcDbLine
 10
23.7470954809
 20
230.070100214
 30
0.0
 11
23.7470954809
 21
230.0894359147
 31
0.0
  0
LINE
  5
1AC
330
1F
100
AcDbEntity
  8
0
  6
Continuous
 62
     7
370
    15
100
AcDbLine
 10
25.1970954809
 20
231.2876416548
 30
0.0
 11
25.1970954809
 21
231.050539324
 31
0.0
  0
SPLINE
  5
1AD
330
1F
100
AcDbEntity
  8
0
  6
Continuous
 62
     7
370
    15
100
AcDbSpline
210
0.0
220
0.0
230
1.0
 70
     8
 71
     3
 72
    10
 73
     6
 74
     0
 42
0.00000001
 43
0.00000001
 12
1.0
 22
0.0
 32
0.0
 13
1.0
 23
0.0
 33
0.0
 40
0.0
 40
0.0
 40
0.0
 40
0.0
 40
0.3816828359346137
 40
0.762061231050407
 40
1.0
 40
1.0
 40
1.0
 40
1.0
 10
23.74709548089338
 20
248.9116427333194
 30
0.0
 10
23.90334645353892
 20
248.8987863530002
 30
0.0
 10
24.21531439486774
 20
248.8731175303797
 30
0.0
 10
24.59326524450517
 20
248.7161424958317
 30
0.0
 10
24.75599526768746
 20
248.5608678922447
 30
0.0
 10
24.81861649775735
 20
248.5011156321203
 30
0.0
  0
LINE
  5
1AE
330
1F
100
AcDbEntity
  8
0
  6
Continuous
 62
     7
370
    15
100
AcDbLine
 10
18.3970954809
 20
248.1183408325
 30
0.0
 11
18.3970954809
 21
248.6809784341
 31
0.0
  0
LINE
  5
1AF
330
1F
100
AcDbEntity
  8
0
  6
Continuous
 62
     7
370
    15
100
AcDbLine
 10
18.3970954809
 20
244.8172452763
 30
0.0
 11
18.3970954809
 21
248.1183408325
 31
0.0
  0
SPLINE
  5
1B0
330
1F
100
AcDbEntity
  8
0
  6
Continuous
 62
     7
370
    15
100
AcDbSpline
210
0.0
220
0.0
230
1.0
 70
     8
 71
     3
 72
    13
 73
     9
 74
     0
 42
0.00000001
 43
0.00000001
 12
1.0
 22
0.0
 32
0.0
 13
1.0
 23
0.0
 33
0.0
 40
0.0
 40
0.0
 40
0.0
 40
0.0
 40
0.0075462231153161
 40
0.27227637885113
 40
0.4815195415732765
 40
0.6613541616921925
 40
0.830458894939754
 40
1.0
 40
1.0
 40
1.0
 40
1.0
 10
22.79709548089404
 20
242.8338549808315
 30
0.0
 10
22.79709866493657
 20
242.8336400458364
 30
0.0
 10
22.79721354883996
 20
242.8258849448702
 30
0.0
 10
22.8087992084518
 20
242.8119352893981
 30
0.0
 10
22.85151798772406
 20
242.7945815621636
 30
0.0
 10
22.90718959082832
 20
242.7824161852762
 30
0.0
 10
22.97332538420888
 20
242.7743082695075
 30
0.0
 10
23.02248433360732
 20
242.7732372773434
 30
0.0
 10
23.04709548089395
 20
242.7727010912324
 30
0.0
  0
LINE
  5
1B1
330
1F
100
AcDbEntity
  8
0
  6
Continuous
 62
     7
370
    15
100
AcDbLine
 10
22.7970954809
 20
235.0079214286
 30
0.0
 11
22.7970954809
 21
242.8338549808
 31
0.0
  0
SPLINE
  5
1B2
330
1F
100
AcDbEntity
  8
0
  6
Continuous
 62
     7
370
    15
100
AcDbSpline
210
0.0
220
0.0
230
1.0
 70
     8
 71
     3
 72
    13
 73
     9
 74
     0
 42
0.00000001
 43
0.00000001
 12
1.0
 22
0.0
 32
0.0
 13
1.0
 23
0.0
 33
0.0
 40
0.0
 40
0.0
 40
0.0
 40
0.0
 40
0.1695411050602521
 40
0.338645838307563
 40
0.5184804584264318
 40
0.727723621148254
 40
0.9924537768850127
 40
1.0
 40
1.0
 40
1.0
 40
1.0
 10
23.74709548089399
 20
242.7727010912324
 30
0.0
 10
23.77170662818068
 20
242.7732372773433
 30
0.0
 10
23.82086557757895
 20
242.7743082695074
 30
0.0
 10
23.88700137095956
 20
242.7824161852763
 30
0.0
 10
23.94267297406388
 20
242.7945815621637
 30
0.0
 10
23.98539175333597
 20
242.811935289398
 30
0.0
 10
23.99697741294804
 20
242.82588494487
 30
0.0
 10
23.99709229685154
 20
242.8336400458364
 30
0.0
 10
23.99709548089396
 20
242.8338549808315
 30
0.0
  0
LINE
  5
1B3
330
1F
100
AcDbEntity
  8
0
  6
Continuous
 62
     7
370
    15
100
AcDbLine
 10
23.9970954809
 20
242.8338549808
 30
0.0
 11
23.9970954809
 21
235.4072184946
 31
0.0
  0
LINE
  5
1B4
330
1F
100
AcDbEntity
  8
0
  6
Continuous
 62
     7
370
    15
100
AcDbLine
 10
23.7470954809
 20
242.7727010912
 30
0.0
 11
23.0470954809
 21
242.7727010912
 31
0.0
  0
SPLINE
  5
1B5
330
1F
100
AcDbEntity
  8
0
  6
Continuous
 62
     7
370
    15
100
AcDbSpline
210
0.0
220
0.0
230
1.0
 70
     8
 71
     3
 72
    12
 73
     8
 74
     0
 42
0.00000001
 43
0.00000001
 12
1.0
 22
0.0
 32
0.0
 13
1.0
 23
0.0
 33
0.0
 40
0.0
 40
0.0
 40
0.0
 40
0.0
 40
0.202820202046712
 40
0.4049472449427091
 40
0.6098312030741007
 40
0.8226939241827202
 40
1.0
 40
1.0
 40
1.0
 40
1.0
 10
24.24709548089338
 20
248.470979358454
 30
0.0
 10
24.08995464035796
 20
248.4597631159216
 30
0.0
 10
23.77621000446534
 20
248.437368963533
 30
0.0
 10
23.35581375399615
 20
248.2633082957597
 30
0.0
 10
23.02873521855631
 20
248.0042638324746
 30
0.0
 10
22.83052595229051
 20
247.6922530509193
 30
0.0
 10
22.80754074636854
 20
247.4708969836873
 30
0.0
 10
22.79709548089376
 20
247.3703051989303
 30
0.0
  0
SPLINE
  5
1B6
330
1F
100
AcDbEntity
  8
0
  6
Continuous
 62
     7
370
    15
100
AcDbSpline
210
0.0
220
0.0
230
1.0
 70
     8
 71
     3
 72
    12
 73
     8
 74
     0
 42
0.00000001
 43
0.00000001
 12
1.0
 22
0.0
 32
0.0
 13
1.0
 23
0.0
 33
0.0
 40
0.0
 40
0.0
 40
0.0
 40
0.0
 40
0.2289440738515686
 40
0.4594214300241288
 40
0.6825355698157559
 40
0.8947175231628782
 40
1.0
 40
1.0
 40
1.0
 40
1.0
 10
22.79709548089376
 20
243.0563406490089
 30
0.0
 10
22.81442996547128
 20
243.1723888076829
 30
0.0
 10
22.84921502699044
 20
243.4052623217807
 30
0.0
 10
23.12308487280301
 20
243.7141505091632
 30
0.0
 10
23.52012140728576
 20
243.9370196309143
 30
0.0
 10
23.92099739663861
 20
244.03726890598
 30
0.0
 10
24.16588278972554
 20
244.045795889085
 30
0.0
 10
24.24709548089377
 20
244.0486237394389
 30
0.0
  0
LINE
  5
1B7
330
1F
100
AcDbEntity
  8
0
  6
Continuous
 62
     7
370
    15
100
AcDbLine
 10
22.7970954809
 20
243.056340649
 30
0.0
 11
22.7970954809
 21
247.3703051989
 31
0.0
  0
LINE
  5
1B8
330
1F
100
AcDbEntity
  8
0
  6
Continuous
 62
     7
370
    15
100
AcDbLine
 10
29.5970954809
 20
248.2511156321
 30
0.0
 11
29.5970954809
 21
243.9371510822
 31
0.0
  0
LINE
  5
1B9
330
1F
100
AcDbEntity
  8
0
  6
Continuous
 62
     7
370
    15
100
AcDbLine
 10
29.5970954809
 20
243.9371510822
 30
0.0
 11
29.5970954809
 21
243.42494866
 31
0.0
  0
LINE
  5
1BA
330
1F
100
AcDbEntity
  8
0
  6
Continuous
 62
     7
370
    15
100
AcDbLine
 10
22.7970954809
 20
242.8338549808
 30
0.0
 11
22.7970954809
 21
243.056340649
 31
0.0
  0
LINE
  5
1BB
330
1F
100
AcDbEntity
  8
0
  6
Continuous
 62
     7
370
    15
100
AcDbLine
 10
23.9970954809
 20
243.056340649
 30
0.0
 11
23.9970954809
 21
242.8338549808
 31
0.0
  0
LINE
  5
1BC
330
1F
100
AcDbEntity
  8
0
  6
Continuous
 62
     7
370
    15
100
AcDbLine
 10
24.2470954809
 20
248.5011156321
 30
0.0
 11
24.2470954809
 21
248.4709793585
 31
0.0
  0
LINE
  5
1BD
330
1F
100
AcDbEntity
  8
0
  6
Continuous
 62
     7
370
    15
100
AcDbLine
 10
22.7970954809
 20
247.3703051989
 30
0.0
 11
22.7970954809
 21
247.950539324
 31
0.0
  0
LINE
  5
1BE
330
1F
100
AcDbEntity
  8
0
  6
Continuous
 62
     7
370
    15
100
AcDbLine
 10
29.5970954809
 20
231.2621654381
 30
0.0
 11
29.5970954809
 21
230.7499630159
 31
0.0
  0
LINE
  5
1BF
330
1F
100
AcDbEntity
  8
0
  6
Continuous
 62
     7
370
    15
100
AcDbLine
 10
29.5970954809
 20
233.9992210159
 30
0.0
 11
29.5970954809
 21
231.2621654381
 31
0.0
  0
LINE
  5
1C0
330
1F
100
AcDbEntity
  8
0
  6
Continuous
 62
     7
370
    15
100
AcDbLine
 10
35.4005134935
 20
237.5967066352
 30
0.0
 11
35.5970954809
 21
236.7672919718
 31
0.0
  0
LINE
  5
1C1
330
1F
100
AcDbEntity
  8
0
  6
Continuous
 62
     7
370
    15
100
AcDbLine
 10
35.5970954809
 20
234.6029592743
 30
0.0
 11
35.4005134935
 21
233.8282876293
 31
0.0
  0
LINE
  5
1C2
330
1F
100
AcDbEntity
  8
0
  6
Continuous
 62
     7
370
    15
100
AcDbLine
 10
35.4005134935
 20
233.8282876293
 30
0.0
 11
31.0936774683
 21
233.8282876293
 31
0.0
  0
SPLINE
  5
1C3
330
1F
100
AcDbEntity
  8
0
  6
Continuous
 62
     7
370
    15
100
AcDbSpline
210
0.0
220
0.0
230
1.0
 70
     8
 71
     3
 72
     9
 73
     5
 74
     0
 42
0.00000001
 43
0.00000001
 12
1.0
 22
0.0
 32
0.0
 13
1.0
 23
0.0
 33
0.0
 40
0.0
 40
0.0
 40
0.0
 40
0.0
 40
0.0702005767034287
 40
1.0
 40
1.0
 40
1.0
 40
1.0
 10
30.64709548089378
 20
235.7124971322068
 30
0.0
 10
30.64754159716137
 20
235.6678302182362
 30
0.0
 10
30.65389647754202
 20
235.0315546195419
 30
0.0
 10
30.88178595943741
 20
234.4080354207289
 30
0.0
 10
31.09367746827901
 20
233.8282876292581
 30
0.0
  0
LINE
  5
1C4
330
1F
100
AcDbEntity
  8
0
  6
Continuous
 62
     7
370
    15
100
AcDbLine
 10
31.0936774683
 20
237.5967066352
 30
0.0
 11
30.6470954809
 21
235.7124971322
 31
0.0
  0
LINE
  5
1C5
330
1F
100
AcDbEntity
  8
0
  6
Continuous
 62
     7
370
    15
100
AcDbLine
 10
35.4005134935
 20
237.5967066352
 30
0.0
 11
31.0936774683
 21
237.5967066352
 31
0.0
  0
SPLINE
  5
1C6
330
1F
100
AcDbEntity
  8
0
  6
Continuous
 62
     7
370
    15
100
AcDbSpline
210
0.0
220
0.0
230
1.0
 70
     8
 71
     3
 72
     9
 73
     5
 74
     0
 42
0.00000001
 43
0.00000001
 12
1.0
 22
0.0
 32
0.0
 13
1.0
 23
0.0
 33
0.0
 40
0.0
 40
0.0
 40
0.0
 40
0.0
 40
0.2575513451038131
 40
1.0
 40
1.0
 40
1.0
 40
1.0
 10
31.09367746827901
 20
237.5967066351554
 30
0.0
 10
31.0262622455042
 20
237.8348043276061
 30
0.0
 10
30.7645077485601
 20
238.7592712231476
 30
0.0
 10
30.69712426076748
 20
239.719736402244
 30
0.0
 10
30.64709548089378
 20
240.4328324825388
 30
0.0
  0
LINE
  5
1C7
330
1F
100
AcDbEntity
  8
0
  6
Continuous
 62
     7
370
    15
100
AcDbLine
 10
30.6470954809
 20
235.7124971322
 30
0.0
 11
30.6470954809
 21
240.4328324825
 31
0.0
  0
SPLINE
  5
1C8
330
1F
100
AcDbEntity
  8
0
  6
Continuous
 62
     7
370
    15
100
AcDbSpline
210
0.0
220
0.0
230
1.0
 70
     8
 71
     3
 72
     9
 73
     5
 74
     0
 42
0.00000001
 43
0.00000001
 12
1.0
 22
0.0
 32
0.0
 13
1.0
 23
0.0
 33
0.0
 40
0.0
 40
0.0
 40
0.0
 40
0.0
 40
0.9250528693351249
 40
0.9999999999999999
 40
0.9999999999999999
 40
0.9999999999999999
 40
0.9999999999999999
 10
35.40051349350859
 20
237.5967066351554
 30
0.0
 10
35.47906720627358
 20
237.8327414349826
 30
0.0
 10
35.5639852854116
 20
238.0878996077222
 30
0.0
 10
35.59478698210733
 20
238.3530803496121
 30
0.0
 10
35.59709548089424
 20
238.3729548853244
 30
0.0
  0
SPLINE
  5
1C9
330
1F
100
AcDbEntity
  8
0
  6
Continuous
 62
     7
370
    15
100
AcDbSpline
210
0.0
220
0.0
230
1.0
 70
     8
 71
     3
 72
     9
 73
     5
 74
     0
 42
0.00000001
 43
0.00000001
 12
1.0
 22
0.0
 32
0.0
 13
1.0
 23
0.0
 33
0.0
 40
0.0
 40
0.0
 40
0.0
 40
0.0
 40
0.2686336050555626
 40
1.0
 40
1.0
 40
1.0
 40
1.0
 10
30.64709548089378
 20
240.4328324825388
 30
0.0
 10
30.65372443347825
 20
240.6907156820843
 30
0.0
 10
30.67840099091451
 20
241.6506968411509
 30
0.0
 10
30.91825575451462
 20
242.5853698794498
 30
0.0
 10
31.09367746827907
 20
243.2689583299222
 30
0.0
  0
LINE
  5
1CA
330
1F
100
AcDbEntity
  8
0
  6
Continuous
 62
     7
370
    15
100
AcDbLine
 10
35.4005134935
 20
243.2689583299
 30
0.0
 11
31.0936774683
 21
243.2689583299
 31
0.0
  0
LINE
  5
1CB
330
1F
100
AcDbEntity
  8
0
  6
Continuous
 62
     7
370
    15
100
AcDbLine
 10
35.5970954809
 20
242.2819999941
 30
0.0
 11
35.4005134935
 21
243.2689583299
 31
0.0
  0
SPLINE
  5
1CC
330
1F
100
AcDbEntity
  8
0
  6
Continuous
 62
     7
370
    15
100
AcDbSpline
210
0.0
220
0.0
230
1.0
 70
     8
 71
     3
 72
     9
 73
     5
 74
     0
 42
0.00000001
 43
0.00000001
 12
1.0
 22
0.0
 32
0.0
 13
1.0
 23
0.0
 33
0.0
 40
0.0
 40
0.0
 40
0.0
 40
0.0
 40
0.0702005767033954
 40
1.0
 40
1.0
 40
1.0
 40
1.0
 10
30.64709548089389
 20
244.2208746743569
 30
0.0
 10
30.64754159716149
 20
244.1983086245638
 30
0.0
 10
30.65389647754158
 20
243.8768575645759
 30
0.0
 10
30.88178595943713
 20
243.5618511305832
 30
0.0
 10
31.09367746827907
 20
243.2689583299222
 30
0.0
  0
LINE
  5
1CD
330
1F
100
AcDbEntity
  8
0
  6
Continuous
 62
     7
370
    15
100
AcDbLine
 10
30.6470954809
 20
240.4328324825
 30
0.0
 11
30.6470954809
 21
244.2208746744
 31
0.0
  0
LINE
  5
1CE
330
1F
100
AcDbEntity
  8
0
  6
Continuous
 62
     7
370
    15
100
AcDbLine
 10
35.5970954809
 20
243.6603280791
 30
0.0
 11
35.4005134935
 21
243.2689583299
 31
0.0
  0
LINE
  5
1CF
330
1F
100
AcDbEntity
  8
0
  6
Continuous
 62
     7
370
    15
100
AcDbLine
 10
35.4005134935
 20
245.1727910188
 30
0.0
 11
35.576458411
 21
244.7977538535
 31
0.0
  0
LINE
  5
1D0
330
1F
100
AcDbEntity
  8
0
  6
Continuous
 62
     7
370
    15
100
AcDbLine
 10
31.0936774683
 20
245.1727910188
 30
0.0
 11
30.6470954809
 21
244.2208746744
 31
0.0
  0
LINE
  5
1D1
330
1F
100
AcDbEntity
  8
0
  6
Continuous
 62
     7
370
    15
100
AcDbLine
 10
35.4005134935
 20
245.1727910188
 30
0.0
 11
31.0936774683
 21
245.1727910188
 31
0.0
  0
LINE
  5
1D2
330
1F
100
AcDbEntity
  8
0
  6
Continuous
 62
     7
370
    15
100
AcDbLine
 10
31.0936774683
 20
233.8282876293
 30
0.0
 11
30.9177325508
 21
234.2033247946
 31
0.0
  0
LINE
  5
1D3
330
1F
100
AcDbEntity
  8
0
  6
Continuous
 62
     7
370
    15
100
AcDbLine
 10
30.6470954809
 20
234.500539324
 30
0.0
 11
30.6470954809
 21
235.7124971322
 31
0.0
  0
LINE
  5
1D4
330
1F
100
AcDbEntity
  8
0
  6
Continuous
 62
     7
370
    15
100
AcDbLine
 10
35.4005134935
 20
233.8282876293
 30
0.0
 11
35.576458411
 21
234.2033247946
 31
0.0
  0
LINE
  5
1D5
330
1F
100
AcDbEntity
  8
0
  6
Continuous
 62
     7
370
    15
100
AcDbLine
 10
30.6470954809
 20
244.2208746744
 30
0.0
 11
30.6470954809
 21
244.500539324
 31
0.0
  0
LINE
  5
1D6
330
1F
100
AcDbEntity
  8
0
  6
Continuous
 62
     7
370
    15
100
AcDbLine
 10
22.3505134935
 20
244.1081173674
 30
0.0
 11
22.7970954809
 21
241.4497643913
 31
0.0
  0
SPLINE
  5
1D7
330
1F
100
AcDbEntity
  8
0
  6
Continuous
 62
     7
370
    15
100
AcDbSpline
210
0.0
220
0.0
230
1.0
 70
     8
 71
     3
 72
     9
 73
     5
 74
     0
 42
0.00000001
 43
0.00000001
 12
1.0
 22
0.0
 32
0.0
 13
1.0
 23
0.0
 33
0.0
 40
0.0
 40
0.0
 40
0.0
 40
0.0
 40
0.0702005767034186
 40
1.0
 40
1.0
 40
1.0
 40
1.0
 10
22.79709548089387
 20
241.4497643912769
 30
0.0
 10
22.79664936462628
 20
241.3867456964328
 30
0.0
 10
22.79029448424569
 20
240.4890508653729
 30
0.0
 10
22.5624050023503
 20
239.6093535093999
 30
0.0
 10
22.35051349350858
 20
238.7914114151407
 30
0.0
  0
LINE
  5
1D8
330
1F
100
AcDbEntity
  8
0
  6
Continuous
 62
     7
370
    15
100
AcDbLine
 10
22.3505134935
 20
238.7914114151
 30
0.0
 11
18.0436774683
 21
238.7914114151
 31
0.0
  0
SPLINE
  5
1D9
330
1F
100
AcDbEntity
  8
0
  6
Continuous
 62
     7
370
    15
100
AcDbSpline
210
0.0
220
0.0
230
1.0
 70
     8
 71
     3
 72
     9
 73
     5
 74
     0
 42
0.00000001
 43
0.00000001
 12
1.0
 22
0.0
 32
0.0
 13
1.0
 23
0.0
 33
0.0
 40
0.0
 40
0.0
 40
0.0
 40
0.0
 40
0.0702005767033989
 40
1.0
 40
1.0
 40
1.0
 40
1.0
 10
17.59709548089389
 20
241.4497643912769
 30
0.0
 10
17.59754159716148
 20
241.3867456964328
 30
0.0
 10
17.60389647754151
 20
240.4890508653728
 30
0.0
 10
17.83178595943713
 20
239.6093535093999
 30
0.0
 10
18.04367746827901
 20
238.7914114151407
 30
0.0
  0
LINE
  5
1DA
330
1F
100
AcDbEntity
  8
0
  6
Continuous
 62
     7
370
    15
100
AcDbLine
 10
18.0436774683
 20
244.1081173674
 30
0.0
 11
17.5970954809
 21
241.4497643913
 31
0.0
  0
LINE
  5
1DB
330
1F
100
AcDbEntity
  8
0
  6
Continuous
 62
     7
370
    15
100
AcDbLine
 10
22.3505134935
 20
244.1081173674
 30
0.0
 11
18.0436774683
 21
244.1081173674
 31
0.0
  0
SPLINE
  5
1DC
330
1F
100
AcDbEntity
  8
0
  6
Continuous
 62
     7
370
    15
100
AcDbSpline
210
0.0
220
0.0
230
1.0
 70
     8
 71
     3
 72
     9
 73
     5
 74
     0
 42
0.00000001
 43
0.00000001
 12
1.0
 22
0.0
 32
0.0
 13
1.0
 23
0.0
 33
0.0
 40
0.0
 40
0.0
 40
0.0
 40
0.0
 40
0.2686336050555628
 40
0.9999999999999999
 40
0.9999999999999999
 40
0.9999999999999999
 40
0.9999999999999999
 10
17.59709548089378
 20
236.4876223934466
 30
0.0
 10
17.60372443347829
 20
236.6971012797733
 30
0.0
 10
17.62840099091467
 20
237.4768953278164
 30
0.0
 10
17.86825575451467
 20
238.2361315537029
 30
0.0
 10
18.04367746827906
 20
238.7914114151407
 30
0.0
  0
LINE
  5
1DD
330
1F
100
AcDbEntity
  8
0
  6
Continuous
 62
     7
370
    15
100
AcDbLine
 10
17.5970954809
 20
236.4876223934
 30
0.0
 11
17.5970954809
 21
241.4497643913
 31
0.0
  0
SPLINE
  5
1DE
330
1F
100
AcDbEntity
  8
0
  6
Continuous
 62
     7
370
    15
100
AcDbSpline
210
0.0
220
0.0
230
1.0
 70
     8
 71
     3
 72
     9
 73
     5
 74
     0
 42
0.00000001
 43
0.00000001
 12
1.0
 22
0.0
 32
0.0
 13
1.0
 23
0.0
 33
0.0
 40
0.0
 40
0.0
 40
0.0
 40
0.0
 40
0.2686336050555703
 40
1.0
 40
1.0
 40
1.0
 40
1.0
 10
22.79709548089376
 20
236.4876223934466
 30
0.0
 10
22.7904665283093
 20
236.6971012797733
 30
0.0
 10
22.76578997087309
 20
237.4768953278165
 30
0.0
 10
22.52593520727303
 20
238.2361315537029
 30
0.0
 10
22.35051349350864
 20
238.7914114151407
 30
0.0
  0
LINE
  5
1DF
330
1F
100
AcDbEntity
  8
0
  6
Continuous
 62
     7
370
    15
100
AcDbLine
 10
22.5760124831
 20
235.0079214286
 30
0.0
 11
22.7970954809
 21
236.4876223934
 31
0.0
  0
LINE
  5
1E0
330
1F
100
AcDbEntity
  8
0
  6
Continuous
 62
     7
370
    15
100
AcDbLine
 10
18.3970954809
 20
234.1838333718
 30
0.0
 11
18.0436774683
 21
234.1838333718
 31
0.0
  0
SPLINE
  5
1E1
330
1F
100
AcDbEntity
  8
0
  6
Continuous
 62
     7
370
    15
100
AcDbSpline
210
0.0
220
0.0
230
1.0
 70
     8
 71
     3
 72
     9
 73
     5
 74
     0
 42
0.00000001
 43
0.00000001
 12
1.0
 22
0.0
 32
0.0
 13
1.0
 23
0.0
 33
0.0
 40
0.0
 40
0.0
 40
0.0
 40
0.0
 40
0.2575513451038203
 40
1.0
 40
1.0
 40
1.0
 40
1.0
 10
18.04367746827901
 20
234.1838333717524
 30
0.0
 10
17.97626224550408
 20
234.3772404627899
 30
0.0
 10
17.71450774856032
 20
235.128186224535
 30
0.0
 10
17.64712426076764
 20
235.9083734427303
 30
0.0
 10
17.59709548089378
 20
236.4876223934466
 30
0.0
  0
SPLINE
  5
1E2
330
1F
100
AcDbEntity
  8
0
  6
Continuous
 62
     7
370
    15
100
AcDbSpline
210
0.0
220
0.0
230
1.0
 70
     8
 71
     3
 72
     9
 73
     5
 74
     0
 42
0.00000001
 43
0.00000001
 12
1.0
 22
0.0
 32
0.0
 13
1.0
 23
0.0
 33
0.0
 40
0.0
 40
0.0
 40
0.0
 40
0.0
 40
0.0702005767034406
 40
1.0
 40
1.0
 40
1.0
 40
1.0
 10
17.59709548089394
 20
244.4626813218551
 30
0.0
 10
17.59754159716154
 20
244.4542760582019
 30
0.0
 10
17.60389647754229
 20
244.334543941346
 30
0.0
 10
17.83178595943752
 20
244.2172122792056
 30
0.0
 10
18.04367746827912
 20
244.1081173674131
 30
0.0
  0
LINE
  5
1E3
330
1F
100
AcDbEntity
  8
0
  6
Continuous
 62
     7
370
    15
100
AcDbLine
 10
17.5970954809
 20
241.4497643913
 30
0.0
 11
17.5970954809
 21
244.4626813219
 31
0.0
  0
SPLINE
  5
1E4
330
1F
100
AcDbEntity
  8
0
  6
Continuous
 62
     7
370
    15
100
AcDbSpline
210
0.0
220
0.0
230
1.0
 70
     8
 71
     3
 72
     9
 73
     5
 74
     0
 42
0.00000001
 43
0.00000001
 12
1.0
 22
0.0
 32
0.0
 13
1.0
 23
0.0
 33
0.0
 40
0.0
 40
0.0
 40
0.0
 40
0.0
 40
0.0702005767034134
 40
0.9999999999999999
 40
0.9999999999999999
 40
0.9999999999999999
 40
0.9999999999999999
 10
22.79709548089393
 20
244.4626813218552
 30
0.0
 10
22.79664936462639
 20
244.4542760582019
 30
0.0
 10
22.79029448424569
 20
244.3345439413459
 30
0.0
 10
22.56240500235035
 20
244.2172122792056
 30
0.0
 10
22.35051349350869
 20
244.1081173674131
 30
0.0
  0
LINE
  5
1E5
330
1F
100
AcDbEntity
  8
0
  6
Continuous
 62
     7
370
    15
100
AcDbLine
 10
18.0436774683
 20
234.1838333718
 30
0.0
 11
17.5970954809
 21
234.5383973262
 31
0.0
  0
LINE
  5
1E6
330
1F
100
AcDbEntity
  8
0
  6
Continuous
 62
     7
370
    15
100
AcDbLine
 10
17.5970954809
 20
236.4876223934
 30
0.0
 11
17.5970954809
 21
234.5006900304
 31
0.0
  0
LINE
  5
1E7
330
1F
100
AcDbEntity
  8
0
  6
Continuous
 62
     7
370
    15
100
AcDbLine
 10
22.3505134935
 20
244.8172452763
 30
0.0
 11
22.7970954809
 21
244.4626813219
 31
0.0
  0
LINE
  5
1E8
330
1F
100
AcDbEntity
  8
0
  6
Continuous
 62
     7
370
    15
100
AcDbLine
 10
18.0436774683
 20
244.8172452763
 30
0.0
 11
17.5970954809
 21
244.4626813219
 31
0.0
  0
LINE
  5
1E9
330
1F
100
AcDbEntity
  8
0
  6
Continuous
 62
     7
370
    15
100
AcDbLine
 10
22.3505134935
 20
244.8172452763
 30
0.0
 11
18.0436774683
 21
244.8172452763
 31
0.0
  0
LINE
  5
1EA
330
1F
100
AcDbEntity
  8
0
  6
Continuous
 62
     7
370
    15
100
AcDbLine
 10
29.9505134935
 20
245.0018576322
 30
0.0
 11
30.3970954809
 21
242.8679730713
 31
0.0
  0
SPLINE
  5
1EB
330
1F
100
AcDbEntity
  8
0
  6
Continuous
 62
     7
370
    15
100
AcDbSpline
210
0.0
220
0.0
230
1.0
 70
     8
 71
     3
 72
     9
 73
     5
 74
     0
 42
0.00000001
 43
0.00000001
 12
1.0
 22
0.0
 32
0.0
 13
1.0
 23
0.0
 33
0.0
 40
0.0
 40
0.0
 40
0.0
 40
0.0
 40
0.070200576703419
 40
0.9999999999999999
 40
0.9999999999999999
 40
0.9999999999999999
 40
0.9999999999999999
 10
30.39709548089387
 20
242.8679730712948
 30
0.0
 10
30.39664936462627
 20
242.8173873811389
 30
0.0
 10
30.39029448424585
 20
242.0967994240111
 30
0.0
 10
30.16240500235035
 20
241.3906582068638
 30
0.0
 10
29.95051349350863
 20
240.7340885103943
 30
0.0
  0
LINE
  5
1EC
330
1F
100
AcDbEntity
  8
0
  6
Continuous
 62
     7
370
    15
100
AcDbLine
 10
29.9505134935
 20
240.7340885104
 30
0.0
 11
25.6436774683
 21
240.7340885104
 31
0.0
  0
SPLINE
  5
1ED
330
1F
100
AcDbEntity
  8
0
  6
Continuous
 62
     7
370
    15
100
AcDbSpline
210
0.0
220
0.0
230
1.0
 70
     8
 71
     3
 72
     9
 73
     5
 74
     0
 42
0.00000001
 43
0.00000001
 12
1.0
 22
0.0
 32
0.0
 13
1.0
 23
0.0
 33
0.0
 40
0.0
 40
0.0
 40
0.0
 40
0.0
 40
0.0702005767034067
 40
1.0
 40
1.0
 40
1.0
 40
1.0
 10
25.19709548089388
 20
242.8679730712948
 30
0.0
 10
25.19754159716148
 20
242.8173873811388
 30
0.0
 10
25.20389647754184
 20
242.0967994240109
 30
0.0
 10
25.43178595943729
 20
241.3906582068637
 30
0.0
 10
25.64367746827906
 20
240.7340885103943
 30
0.0
  0
LINE
  5
1EE
330
1F
100
AcDbEntity
  8
0
  6
Continuous
 62
     7
370
    15
100
AcDbLine
 10
25.2613397099
 20
243.17494866
 30
0.0
 11
25.1970954809
 21
242.8679730713
 31
0.0
  0
LINE
  5
1EF
330
1F
100
AcDbEntity
  8
0
  6
Continuous
 62
     7
370
    15
100
AcDbLine
 10
29.9505134935
 20
245.0018576322
 30
0.0
 11
29.5970954809
 21
245.0018576322
 31
0.0
  0
SPLINE
  5
1F0
330
1F
100
AcDbEntity
  8
0
  6
Continuous
 62
     7
370
    15
100
AcDbSpline
210
0.0
220
0.0
230
1.0
 70
     8
 71
     3
 72
     9
 73
     5
 74
     0
 42
0.00000001
 43
0.00000001
 12
1.0
 22
0.0
 32
0.0
 13
1.0
 23
0.0
 33
0.0
 40
0.0
 40
0.0
 40
0.0
 40
0.0
 40
0.2686336050555737
 40
0.9999999999999999
 40
0.9999999999999999
 40
0.9999999999999999
 40
0.9999999999999999
 10
30.39709548089375
 20
237.9834293563092
 30
0.0
 10
30.39046652830929
 20
238.2335412419185
 30
0.0
 10
30.36578997087308
 20
239.164593354917
 30
0.0
 10
30.12593520727302
 20
240.071100007732
 30
0.0
 10
29.95051349350863
 20
240.7340885103943
 30
0.0
  0
LINE
  5
1F1
330
1F
100
AcDbEntity
  8
0
  6
Continuous
 62
     7
370
    15
100
AcDbLine
 10
30.3970954809
 20
237.9834293563
 30
0.0
 11
30.3970954809
 21
242.8679730713
 31
0.0
  0
SPLINE
  5
1F2
330
1F
100
AcDbEntity
  8
0
  6
Continuous
 62
     7
370
    15
100
AcDbSpline
210
0.0
220
0.0
230
1.0
 70
     8
 71
     3
 72
     9
 73
     5
 74
     0
 42
0.00000001
 43
0.00000001
 12
1.0
 22
0.0
 32
0.0
 13
1.0
 23
0.0
 33
0.0
 40
0.0
 40
0.0
 40
0.0
 40
0.0
 40
0.2686336050555605
 40
1.0
 40
1.0
 40
1.0
 40
1.0
 10
25.19709548089377
 20
237.9834293563092
 30
0.0
 10
25.20372443347829
 20
238.2335412419186
 30
0.0
 10
25.2284009909145
 20
239.164593354917
 30
0.0
 10
25.46825575451456
 20
240.0711000077319
 30
0.0
 10
25.643677468279
 20
240.7340885103943
 30
0.0
  0
SPLINE
  5
1F3
330
1F
100
AcDbEntity
  8
0
  6
Continuous
 62
     7
370
    15
100
AcDbSpline
210
0.0
220
0.0
230
1.0
 70
     8
 71
     3
 72
     9
 73
     5
 74
     0
 42
0.00000001
 43
0.00000001
 12
1.0
 22
0.0
 32
0.0
 13
1.0
 23
0.0
 33
0.0
 40
0.0
 40
0.0
 40
0.0
 40
0.0
 40
0.257551345103821
 40
1.0
 40
1.0
 40
1.0
 40
1.0
 10
29.95051349350858
 20
235.232770202224
 30
0.0
 10
30.0179287162835
 20
235.4636928172801
 30
0.0
 10
30.27968321322733
 20
236.3603008895967
 30
0.0
 10
30.34706670101989
 20
237.2918224366745
 30
0.0
 10
30.39709548089375
 20
237.9834293563092
 30
0.0
  0
LINE
  5
1F4
330
1F
100
AcDbEntity
  8
0
  6
Continuous
 62
     7
370
    15
100
AcDbLine
 10
29.9505134935
 20
235.2327702022
 30
0.0
 11
25.6436774683
 21
235.2327702022
 31
0.0
  0
SPLINE
  5
1F5
330
1F
100
AcDbEntity
  8
0
  6
Continuous
 62
     7
370
    15
100
AcDbSpline
210
0.0
220
0.0
230
1.0
 70
     8
 71
     3
 72
     9
 73
     5
 74
     0
 42
0.00000001
 43
0.00000001
 12
1.0
 22
0.0
 32
0.0
 13
1.0
 23
0.0
 33
0.0
 40
0.0
 40
0.0
 40
0.0
 40
0.0
 40
0.2575513451038098
 40
1.0
 40
1.0
 40
1.0
 40
1.0
 10
25.643677468279
 20
235.2327702022239
 30
0.0
 10
25.57626224550408
 20
235.46369281728
 30
0.0
 10
25.31450774856009
 20
236.3603008895967
 30
0.0
 10
25.24712426076747
 20
237.2918224366745
 30
0.0
 10
25.19709548089377
 20
237.9834293563092
 30
0.0
  0
LINE
  5
1F6
330
1F
100
AcDbEntity
  8
0
  6
Continuous
 62
     7
370
    15
100
AcDbLine
 10
25.6436774683
 20
235.2327702022
 30
0.0
 11
25.1970954809
 21
234.615995609
 31
0.0
  0
LINE
  5
1F7
330
1F
100
AcDbEntity
  8
0
  6
Continuous
 62
     7
370
    15
100
AcDbLine
 10
29.9505134935
 20
235.2327702022
 30
0.0
 11
30.3970954809
 21
234.615995609
 31
0.0
  0
LINE
  5
1F8
330
1F
100
AcDbEntity
  8
0
  6
Continuous
 62
     7
370
    15
100
AcDbLine
 10
30.3970954809
 20
237.9834293563
 30
0.0
 11
30.3970954809
 21
234.615995609
 31
0.0
  0
LINE
  5
1F9
330
1F
100
AcDbEntity
  8
0
  6
Continuous
 62
     7
370
    15
100
AcDbLine
 10
30.2479753996
 20
244.6181481064
 30
0.0
 11
29.9505134935
 21
245.0018576322
 31
0.0
  0
LINE
  5
1FA
330
1F
100
AcDbEntity
  8
0
  6
Continuous
 62
     7
370
    15
100
AcDbLine
 10
30.3970954809
 20
244.500539324
 30
0.0
 11
30.3970954809
 21
242.8679730713
 31
0.0
  0
SPLINE
  5
1FB
330
1F
100
AcDbEntity
  8
0
  6
Continuous
 62
     7
370
    15
100
AcDbSpline
210
0.0
220
0.0
230
1.0
 70
     8
 71
     3
 72
     9
 73
     5
 74
     0
 42
0.00000001
 43
0.00000001
 12
1.0
 22
0.0
 32
0.0
 13
1.0
 23
0.0
 33
0.0
 40
0.0
 40
0.0
 40
0.0
 40
0.0
 40
0.0702005767034453
 40
1.0
 40
1.0
 40
1.0
 40
1.0
 10
30.39709548089381
 20
234.6159956090393
 30
0.0
 10
30.39664936462627
 20
234.6013744017638
 30
0.0
 10
30.39029448424591
 20
234.3930968068763
 30
0.0
 10
30.1624050023504
 20
234.1889948746926
 30
0.0
 10
29.95051349350858
 20
233.9992210158545
 30
0.0
  0
LINE
  5
1FC
330
1F
100
AcDbEntity
  8
0
  6
Continuous
 62
     7
370
    15
100
AcDbLine
 10
29.9505134935
 20
233.9992210159
 30
0.0
 11
25.6436774683
 21
233.9992210159
 31
0.0
  0
LINE
  5
1FD
330
1F
100
AcDbEntity
  8
0
  6
Continuous
 62
     7
370
    15
100
AcDbLine
 10
25.3462155622
 20
234.3829305416
 30
0.0
 11
25.6436774683
 21
233.9992210159
 31
0.0
  0
LINE
  5
1FE
330
1F
100
AcDbEntity
  8
0
  6
Continuous
 62
     7
370
    15
100
AcDbLine
 10
30.3970954809
 20
234.615995609
 30
0.0
 11
30.3970954809
 21
234.500539324
 31
0.0
  0
LINE
  5
1FF
330
1F
100
AcDbEntity
  8
0
  6
Continuous
 62
     7
370
    15
100
AcDbLine
 10
679.1441129368
 20
506.500539324
 30
0.0
 11
679.0949909194
 21
507.0620065523
 31
0.0
  0
LINE
  5
200
330
1F
100
AcDbEntity
  8
0
  6
Continuous
 62
     7
370
    15
100
AcDbLine
 10
120.316461028
 20
506.500539324
 30
0.0
 11
120.3655830455
 21
507.0620065523
 31
0.0
  0
LINE
  5
201
330
1F
100
AcDbEntity
  8
0
  6
Continuous
 62
     7
370
    15
100
AcDbLine
 10
123.3541671397
 20
509.800539324
 30
0.0
 11
676.1064068251
 21
509.800539324
 31
0.0
  0
ARC
  5
202
330
1F
100
AcDbEntity
  8
0
  6
Continuous
 62
     7
370
    15
100
AcDbCircle
 10
676.1064068251
 20
506.800539324
 30
0.0
 40
3.0
100
AcDbArc
 50
5.0
 51
90.0
  0
ARC
  5
203
330
1F
100
AcDbEntity
  8
0
  6
Continuous
 62
     7
370
    15
100
AcDbCircle
 10
123.3541671397
 20
506.800539324
 30
0.0
 40
3.0
100
AcDbArc
 50
90.0
 51
175.0
  0
LINE
  5
204
330
1F
100
AcDbEntity
  8
0
  6
Continuous
 62
     7
370
    15
100
AcDbLine
 10
204.9726722666
 20
513.0560561673
 30
0.0
 11
205.1256247159
 21
513.8281556862
 31
0.0
  0
ARC
  5
205
330
1F
100
AcDbEntity
  8
0
  6
Continuous
 62
     7
370
    15
100
AcDbCircle
 10
540.4452187336
 20
530.300539324
 30
0.0
 40
2.0
100
AcDbArc
 50
6.5
 51
90.0
  0
LINE
  5
206
330
1F
100
AcDbEntity
  8
0
  6
Continuous
 62
     7
370
    15
100
AcDbLine
 10
544.3431963318
 20
513.755771969
 30
0.0
 11
542.432362445
 21
530.5269457516
 31
0.0
  0
ARC
  5
207
330
1F
100
AcDbEntity
  8
0
  6
Continuous
 62
     7
370
    15
100
AcDbCircle
 10
259.0153552312
 20
530.300539324
 30
0.0
 40
2.0
100
AcDbArc
 50
90.0
 51
173.5
  0
LINE
  5
208
330
1F
100
AcDbEntity
  8
0
  6
Continuous
 62
     7
370
    15
100
AcDbLine
 10
255.117377633
 20
513.755771969
 30
0.0
 11
257.0282115199
 21
530.5269457516
 31
0.0
  0
LINE
  5
209
330
1F
100
AcDbEntity
  8
0
  6
Continuous
 62
     7
370
    15
100
AcDbLine
 10
537.0282115199
 20
530.5269457516
 30
0.0
 11
535.1156276275
 21
513.7404123678
 31
0.0
  0
ARC
  5
20A
330
1F
100
AcDbEntity
  8
0
  6
Continuous
 62
     7
370
    15
100
AcDbCircle
 10
539.0153552312
 20
530.300539324
 30
0.0
 40
2.0
100
AcDbArc
 50
90.0
 51
173.5
  0
ARC
  5
20B
330
1F
100
AcDbEntity
  8
0
  6
Continuous
 62
     7
370
    15
100
AcDbCircle
 10
260.4452187336
 20
530.300539324
 30
0.0
 40
2.0
100
AcDbArc
 50
6.5
 51
90.0
  0
LINE
  5
20C
330
1F
100
AcDbEntity
  8
0
  6
Continuous
 62
     7
370
    15
100
AcDbLine
 10
262.432362445
 20
530.5269457516
 30
0.0
 11
264.3449463373
 21
513.7404123678
 31
0.0
  0
LINE
  5
20D
330
1F
100
AcDbEntity
  8
0
  6
Continuous
 62
     7
370
    15
100
AcDbLine
 10
539.0153552312
 20
532.300539324
 30
0.0
 11
540.4452187336
 21
532.300539324
 31
0.0
  0
LINE
  5
20E
330
1F
100
AcDbEntity
  8
0
  6
Continuous
 62
     7
370
    15
100
AcDbLine
 10
260.4452187336
 20
532.300539324
 30
0.0
 11
259.0153552312
 21
532.300539324
 31
0.0
  0
LINE
  5
20F
330
1F
100
AcDbEntity
  8
0
  6
Continuous
 62
     7
370
    15
100
AcDbLine
 10
212.432362445
 20
530.5269457516
 30
0.0
 11
214.336663638
 21
513.8131086867
 31
0.0
  0
LINE
  5
210
330
1F
100
AcDbEntity
  8
0
  6
Continuous
 62
     7
370
    15
100
AcDbLine
 10
594.334949249
 20
513.8281556862
 30
0.0
 11
592.432362445
 21
530.5269457516
 31
0.0
  0
LINE
  5
211
330
1F
100
AcDbEntity
  8
0
  6
Continuous
 62
     7
370
    15
100
AcDbLine
 10
312.432362445
 20
530.5269457516
 30
0.0
 11
314.3458132804
 21
513.7328033058
 31
0.0
  0
LINE
  5
212
330
1F
100
AcDbEntity
  8
0
  6
Continuous
 62
     7
370
    15
100
AcDbLine
 10
494.3440044937
 20
513.7486788237
 30
0.0
 11
492.432362445
 21
530.5269457516
 31
0.0
  0
LINE
  5
213
330
1F
100
AcDbEntity
  8
0
  6
Continuous
 62
     7
370
    15
100
AcDbLine
 10
487.0282115199
 20
530.5269457516
 30
0.0
 11
485.1147606844
 21
513.7328033058
 31
0.0
  0
LINE
  5
214
330
1F
100
AcDbEntity
  8
0
  6
Continuous
 62
     7
370
    15
100
AcDbLine
 10
305.1165694712
 20
513.7486788237
 30
0.0
 11
307.0282115199
 21
530.5269457516
 31
0.0
  0
LINE
  5
215
330
1F
100
AcDbEntity
  8
0
  6
Continuous
 62
     7
370
    15
100
AcDbLine
 10
587.0282115199
 20
530.5269457516
 30
0.0
 11
585.1239103268
 21
513.8131086867
 31
0.0
  0
LINE
  5
216
330
1F
100
AcDbEntity
  8
0
  6
Continuous
 62
     7
370
    15
100
AcDbLine
 10
205.1256247159
 20
513.8281556862
 30
0.0
 11
207.0282115199
 21
530.5269457516
 31
0.0
  0
LINE
  5
217
330
1F
100
AcDbEntity
  8
0
  6
Continuous
 62
     7
370
    15
100
AcDbLine
 10
585.1239103268
 20
513.8131086867
 30
0.0
 11
585.0937656603
 21
513.5485323445
 31
0.0
  0
LINE
  5
218
330
1F
100
AcDbEntity
  8
0
  6
Continuous
 62
     7
370
    15
100
AcDbLine
 10
209.0153552312
 20
532.300539324
 30
0.0
 11
210.4452187336
 21
532.300539324
 31
0.0
  0
ARC
  5
219
330
1F
100
AcDbEntity
  8
0
  6
Continuous
 62
     7
370
    15
100
AcDbCircle
 10
590.4452187336
 20
530.300539324
 30
0.0
 40
2.0
100
AcDbArc
 50
6.5
 51
90.0
  0
ARC
  5
21A
330
1F
100
AcDbEntity
  8
0
  6
Continuous
 62
     7
370
    15
100
AcDbCircle
 10
209.0153552312
 20
530.300539324
 30
0.0
 40
2.00000000000004
100
AcDbArc
 50
90.0
 51
173.5
  0
LINE
  5
21B
330
1F
100
AcDbEntity
  8
0
  6
Continuous
 62
     7
370
    15
100
AcDbLine
 10
590.4452187336
 20
532.300539324
 30
0.0
 11
589.0153552312
 21
532.300539324
 31
0.0
  0
ARC
  5
21C
330
1F
100
AcDbEntity
  8
0
  6
Continuous
 62
     7
370
    15
100
AcDbCircle
 10
489.0153552312
 20
530.300539324
 30
0.0
 40
2.000000000000096
100
AcDbArc
 50
90.0
 51
173.5
  0
LINE
  5
21D
330
1F
100
AcDbEntity
  8
0
  6
Continuous
 62
     7
370
    15
100
AcDbLine
 10
490.4452187336
 20
532.300539324
 30
0.0
 11
489.0153552312
 21
532.300539324
 31
0.0
  0
ARC
  5
21E
330
1F
100
AcDbEntity
  8
0
  6
Continuous
 62
     7
370
    15
100
AcDbCircle
 10
309.0153552312
 20
530.300539324
 30
0.0
 40
2.000000000000152
100
AcDbArc
 50
90.0
 51
173.5
  0
ARC
  5
21F
330
1F
100
AcDbEntity
  8
0
  6
Continuous
 62
     7
370
    15
100
AcDbCircle
 10
490.4452187336
 20
530.300539324
 30
0.0
 40
2.00000000000004
100
AcDbArc
 50
6.5
 51
90.0
  0
ARC
  5
220
330
1F
100
AcDbEntity
  8
0
  6
Continuous
 62
     7
370
    15
100
AcDbCircle
 10
589.0153552312
 20
530.300539324
 30
0.0
 40
2.0
100
AcDbArc
 50
90.0
 51
173.5
  0
ARC
  5
221
330
1F
100
AcDbEntity
  8
0
  6
Continuous
 62
     7
370
    15
100
AcDbCircle
 10
210.4452187336
 20
530.300539324
 30
0.0
 40
2.00000000000004
100
AcDbArc
 50
6.5
 51
90.0
  0
LINE
  5
222
330
1F
100
AcDbEntity
  8
0
  6
Continuous
 62
     7
370
    15
100
AcDbLine
 10
309.0153552312
 20
532.300539324
 30
0.0
 11
310.4452187336
 21
532.300539324
 31
0.0
  0
ARC
  5
223
330
1F
100
AcDbEntity
  8
0
  6
Continuous
 62
     7
370
    15
100
AcDbCircle
 10
310.4452187336
 20
530.300539324
 30
0.0
 40
2.00000000000004
100
AcDbArc
 50
6.5
 51
90.0
  0
ELLIPSE
  5
224
330
1F
100
AcDbEntity
  8
0
  6
Continuous
 62
     7
370
    15
100
AcDbEllipse
 10
153.5021664891
 20
497.300539324
 30
0.0
 11
5.229180776432513
 21
34.80854219515595
 31
0.0
210
0.0
220
0.0
230
1.0
 40
0.6991287568
 41
0.1046443262353225
 42
1.222624058285292
  0
LINE
  5
225
330
1F
100
AcDbEntity
  8
0
  6
Continuous
 62
     7
370
    15
100
AcDbLine
 10
157.171865829
 20
532.300539324
 30
0.0
 11
156.1607996503
 21
532.300539324
 31
0.0
  0
LINE
  5
226
330
1F
100
AcDbEntity
  8
0
  6
Continuous
 62
     7
370
    15
100
AcDbLine
 10
642.2887081358
 20
532.300539324
 30
0.0
 11
643.2997743145
 21
532.300539324
 31
0.0
  0
ELLIPSE
  5
227
330
1F
100
AcDbEntity
  8
0
  6
Continuous
 62
     7
370
    15
100
AcDbEllipse
 10
602.2222859056
 20
472.353137403
 30
0.0
 11
7.907130209246362
 21
49.69431533888189
 31
0.0
210
0.0
220
0.0
230
1.0
 40
0.6981570542
 41
5.669496001090302
 42
6.278622335594014
  0
ELLIPSE
  5
228
330
1F
100
AcDbEntity
  8
0
  6
Continuous
 62
     7
370
    15
100
AcDbEllipse
 10
197.2382880592
 20
472.353137403
 30
0.0
 11
-7.907130209246362
 21
49.69431533888189
 31
0.0
210
0.0
220
0.0
230
1.0
 40
0.6981570542
 41
0.0045629715855917
 42
0.6136893060892995
  0
ELLIPSE
  5
229
330
1F
100
AcDbEntity
  8
0
  6
Continuous
 62
     7
370
    15
100
AcDbEllipse
 10
434.5628266609
 20
497.300539324
 30
0.0
 11
5.22918077643243
 21
34.80854219515595
 31
0.0
210
0.0
220
0.0
230
1.0
 40
0.6991287568
 41
0.1046443262353161
 42
1.222891578588119
  0
LINE
  5
22A
330
1F
100
AcDbEntity
  8
0
  6
Continuous
 62
     7
370
    15
100
AcDbLine
 10
438.2325260008
 20
532.300539324
 30
0.0
 11
437.2214598221
 21
532.300539324
 31
0.0
  0
LINE
  5
22B
330
1F
100
AcDbEntity
  8
0
  6
Continuous
 62
     7
370
    15
100
AcDbLine
 10
361.228047964
 20
532.300539324
 30
0.0
 11
362.2391141428
 21
532.300539324
 31
0.0
  0
ELLIPSE
  5
22C
330
1F
100
AcDbEntity
  8
0
  6
Continuous
 62
     7
370
    15
100
AcDbEllipse
 10
477.2255696808
 20
472.320036293
 30
0.0
 11
-7.907130209246246
 21
49.69431533888189
 31
0.0
210
0.0
220
0.0
230
1.0
 40
0.6981570542
 41
6.269814631454848
 42
6.895874963705194
  0
ELLIPSE
  5
22D
330
1F
100
AcDbEntity
  8
0
  6
Continuous
 62
     7
370
    15
100
AcDbEllipse
 10
322.2350042841
 20
472.320036293
 30
0.0
 11
7.907130209246303
 21
49.69431533888189
 31
0.0
210
0.0
220
0.0
230
1.0
 40
0.6981570542
 41
5.670495650653996
 42
6.296555982904343
  0
LINE
  5
22E
330
1F
100
AcDbEntity
  8
0
  6
Continuous
 62
     7
370
    15
100
AcDbLine
 10
642.2887081358
 20
532.300539324
 30
0.0
 11
611.8499582582
 21
532.300539324
 31
0.0
  0
LINE
  5
22F
330
1F
100
AcDbEntity
  8
0
  6
Continuous
 62
     7
370
    15
100
AcDbLine
 10
157.171865829
 20
532.300539324
 30
0.0
 11
187.6106157066
 21
532.300539324
 31
0.0
  0
LINE
  5
230
330
1F
100
AcDbEntity
  8
0
  6
Continuous
 62
     7
370
    15
100
AcDbLine
 10
468.2292539792
 20
532.300539324
 30
0.0
 11
438.2325260008
 21
532.300539324
 31
0.0
  0
LINE
  5
231
330
1F
100
AcDbEntity
  8
0
  6
Continuous
 62
     7
370
    15
100
AcDbLine
 10
331.2313199856
 20
532.300539324
 30
0.0
 11
361.228047964
 21
532.300539324
 31
0.0
  0
SPLINE
  5
232
330
1F
100
AcDbEntity
  8
0
  6
Continuous
 62
     7
370
    15
100
AcDbSpline
210
0.0
220
0.0
230
1.0
 70
     8
 71
     3
 72
    10
 73
     6
 74
     0
 42
0.00000001
 43
0.00000001
 12
1.0
 22
0.0
 32
0.0
 13
1.0
 23
0.0
 33
0.0
 40
0.0
 40
0.0
 40
0.0
 40
0.0
 40
0.253862933273856
 40
0.687354115975717
 40
1.0
 40
1.0
 40
1.0
 40
1.0
 10
609.3470585664876
 20
522.2396460540855
 30
0.0
 10
609.3402597424764
 20
522.2293443244256
 30
0.0
 10
609.3218513848335
 20
522.2014515706783
 30
0.0
 10
609.6771565265146
 20
522.1267309713622
 30
0.0
 10
610.1073736645692
 20
522.0527467871963
 30
0.0
 10
610.2876429789457
 20
522.0217459809184
 30
0.0
  0
SPLINE
  5
233
330
1F
100
AcDbEntity
  8
0
  6
Continuous
 62
     7
370
    15
100
AcDbSpline
210
0.0
220
0.0
230
1.0
 70
     8
 71
     3
 72
    10
 73
     6
 74
     0
 42
0.00000001
 43
0.00000001
 12
1.0
 22
0.0
 32
0.0
 13
1.0
 23
0.0
 33
0.0
 40
0.0
 40
0.0
 40
0.0
 40
0.0
 40
0.2538629332738461
 40
0.6873541159757224
 40
1.0
 40
1.0
 40
1.0
 40
1.0
 10
190.1135153983639
 20
522.2396460540855
 30
0.0
 10
190.1203142223752
 20
522.2293443244256
 30
0.0
 10
190.138722580018
 20
522.2014515706783
 30
0.0
 10
189.7834174383368
 20
522.1267309713622
 30
0.0
 10
189.3532003002821
 20
522.0527467871963
 30
0.0
 10
189.1729309859058
 20
522.0217459809184
 30
0.0
  0
SPLINE
  5
234
330
1F
100
AcDbEntity
  8
0
  6
Continuous
 62
     7
370
    15
100
AcDbSpline
210
0.0
220
0.0
230
1.0
 70
     8
 71
     3
 72
    10
 73
     6
 74
     0
 42
0.00000001
 43
0.00000001
 12
1.0
 22
0.0
 32
0.0
 13
1.0
 23
0.0
 33
0.0
 40
0.0
 40
0.0
 40
0.0
 40
0.0
 40
0.3720608602732787
 40
0.8045487224112559
 40
1.0
 40
1.0
 40
1.0
 40
1.0
 10
469.7830205017088
 20
522.0837191776944
 30
0.0
 10
469.9944406477888
 20
522.1142326028146
 30
0.0
 10
470.4516180254246
 20
522.1802151874344
 30
0.0
 10
470.7770277497532
 20
522.2359966069603
 30
0.0
 10
470.7403235598268
 20
522.253112577699
 30
0.0
 10
470.7288990755732
 20
522.2584400658845
 30
0.0
  0
SPLINE
  5
235
330
1F
100
AcDbEntity
  8
0
  6
Continuous
 62
     7
370
    15
100
AcDbSpline
210
0.0
220
0.0
230
1.0
 70
     8
 71
     3
 72
    10
 73
     6
 74
     0
 42
0.00000001
 43
0.00000001
 12
1.0
 22
0.0
 32
0.0
 13
1.0
 23
0.0
 33
0.0
 40
0.0
 40
0.0
 40
0.0
 40
0.0
 40
0.3720608602732806
 40
0.80454872241126
 40
1.0
 40
1.0
 40
1.0
 40
1.0
 10
329.6775534631427
 20
522.0837191776944
 30
0.0
 10
329.4661333170627
 20
522.1142326028146
 30
0.0
 10
329.0089559394269
 20
522.1802151874346
 30
0.0
 10
328.6835462150983
 20
522.2359966069602
 30
0.0
 10
328.7202504050247
 20
522.253112577699
 30
0.0
 10
328.7316748892782
 20
522.2584400658845
 30
0.0
  0
ARC
  5
236
330
1F
100
AcDbEntity
  8
0
  6
Continuous
 62
     7
370
    15
100
AcDbCircle
 10
672.9796524279
 20
514.800539324
 30
0.0
 40
5.000000000000038
100
AcDbArc
 50
203.9624889746
 51
270.0
  0
ARC
  5
237
330
1F
100
AcDbEntity
  8
0
  6
Continuous
 62
     7
370
    15
100
AcDbCircle
 10
126.480921537
 20
514.800539324
 30
0.0
 40
4.99999999999996
100
AcDbArc
 50
270.0
 51
336.0375110254
  0
ARC
  5
238
330
1F
100
AcDbEntity
  8
0
  6
Continuous
 62
     7
370
    15
100
AcDbCircle
 10
391.9796524279
 20
514.800539324
 30
0.0
 40
4.999999999999986
100
AcDbArc
 50
203.9624889746
 51
270.0
  0
ARC
  5
239
330
1F
100
AcDbEntity
  8
0
  6
Continuous
 62
     7
370
    15
100
AcDbCircle
 10
407.480921537
 20
514.800539324
 30
0.0
 40
5.000000000000038
100
AcDbArc
 50
270.0
 51
336.0375110254
  0
SPLINE
  5
23A
330
1F
100
AcDbEntity
  8
0
  6
Continuous
 62
     7
370
    15
100
AcDbSpline
210
0.0
220
0.0
230
1.0
 70
    24
 71
     3
 72
     9
 73
     5
 74
     0
 42
0.00000001
 43
0.00000001
 12
1.0
 22
0.0
 32
0.0
 13
1.0
 23
0.0
 33
0.0
 40
0.0
 40
0.0
 40
0.0
 40
0.0
 40
0.5599684211443205
 40
1.0
 40
1.0
 40
1.0
 40
1.0
 10
420.2949661026288
 20
531.3210673444831
 30
0.0
 10
418.7565040943635
 20
527.8595278258861
 30
0.0
 10
416.0090955795736
 20
521.6778586676089
 30
0.0
 10
413.2597695525465
 20
515.4918751067978
 30
0.0
 10
412.0499792800847
 20
512.7698469937588
 30
0.0
  0
SPLINE
  5
23B
330
1F
100
AcDbEntity
  8
0
  6
Continuous
 62
     7
370
    15
100
AcDbSpline
210
0.0
220
0.0
230
1.0
 70
    24
 71
     3
 72
     9
 73
     5
 74
     0
 42
0.00000001
 43
0.00000001
 12
1.0
 22
0.0
 32
0.0
 13
1.0
 23
0.0
 33
0.0
 40
0.0
 40
0.0
 40
0.0
 40
0.0
 40
0.5599684211443204
 40
1.0
 40
1.0
 40
1.0
 40
1.0
 10
379.1656078622227
 20
531.3210673444831
 30
0.0
 10
380.704069870488
 20
527.8595278258861
 30
0.0
 10
383.4514783852779
 20
521.6778586676089
 30
0.0
 10
386.200804412305
 20
515.4918751067978
 30
0.0
 10
387.4105946847668
 20
512.7698469937588
 30
0.0
  0
LINE
  5
23C
330
1F
100
AcDbEntity
  8
0
  6
Continuous
 62
     7
370
    15
100
AcDbLine
 10
131.0499792801
 20
512.7698469938
 30
0.0
 11
139.2024100634
 21
531.1128162561
 31
0.0
  0
LINE
  5
23D
330
1F
100
AcDbEntity
  8
0
  6
Continuous
 62
     7
370
    15
100
AcDbLine
 10
668.4105946848
 20
512.7698469938
 30
0.0
 11
660.2581639015
 21
531.1128162561
 31
0.0
  0
ARC
  5
23E
330
1F
100
AcDbEntity
  8
0
  6
Continuous
 62
     7
370
    15
100
AcDbCircle
 10
658.4305408042
 20
530.300539324
 30
0.0
 40
2.0
100
AcDbArc
 50
23.9624889746
 51
90.0
  0
LINE
  5
23F
330
1F
100
AcDbEntity
  8
0
  6
Continuous
 62
     7
370
    15
100
AcDbLine
 10
658.4305408042
 20
532.300539324
 30
0.0
 11
657.7886150225
 21
532.300539324
 31
0.0
  0
ARC
  5
240
330
1F
100
AcDbEntity
  8
0
  6
Continuous
 62
     7
370
    15
100
AcDbCircle
 10
141.0300331606
 20
530.300539324
 30
0.0
 40
2.000000000000025
100
AcDbArc
 50
90.0
 51
156.0375110254
  0
LINE
  5
241
330
1F
100
AcDbEntity
  8
0
  6
Continuous
 62
     7
370
    15
100
AcDbLine
 10
141.0300331606
 20
532.300539324
 30
0.0
 11
141.6719589424
 21
532.300539324
 31
0.0
  0
LINE
  5
242
330
1F
100
AcDbEntity
  8
0
  6
Continuous
 62
     7
370
    15
100
AcDbLine
 10
422.1217551292
 20
532.300539324
 30
0.0
 11
421.770083925
 21
532.300539324
 31
0.0
  0
LINE
  5
243
330
1F
100
AcDbEntity
  8
0
  6
Continuous
 62
     7
370
    15
100
AcDbLine
 10
377.3388188356
 20
532.300539324
 30
0.0
 11
377.6904900399
 21
532.300539324
 31
0.0
  0
SPLINE
  5
244
330
1F
100
AcDbEntity
  8
0
  6
Continuous
 62
     7
370
    15
100
AcDbSpline
210
0.0
220
0.0
230
1.0
 70
     8
 71
     3
 72
    14
 73
    10
 74
     0
 42
0.00000001
 43
0.00000001
 12
1.0
 22
0.0
 32
0.0
 13
1.0
 23
0.0
 33
0.0
 40
0.0
 40
0.0
 40
0.0
 40
0.0
 40
0.1883847816317232
 40
0.3596802553594184
 40
0.6003421773647472
 40
0.7898499004772009
 40
0.9055956218147745
 40
0.9965044171559082
 40
1.0
 40
1.0
 40
1.0
 40
1.0
 10
375.7455551110381
 20
530.881664466055
 30
0.0
 10
375.7738251505649
 20
531.0260303912197
 30
0.0
 10
375.8278007156182
 20
531.3016661001062
 30
0.0
 10
376.0655046659815
 20
531.7103843504301
 30
0.0
 10
376.4103102720958
 20
532.0379648341599
 30
0.0
 10
376.798579577394
 20
532.2212260031067
 30
0.0
 10
377.0996971090572
 20
532.2887357835133
 30
0.0
 10
377.2628699753241
 20
532.3004126709936
 30
0.0
 10
377.3361070313673
 20
532.3005348017958
 30
0.0
 10
377.3388188356457
 20
532.3005393240262
 30
0.0
  0
LINE
  5
245
330
1F
100
AcDbEntity
  8
0
  6
Continuous
 62
     7
370
    15
100
AcDbLine
 10
375.745555111
 20
530.8816644661
 30
0.0
 11
375.743428367
 21
530.8935349313
 31
0.0
  0
SPLINE
  5
246
330
1F
100
AcDbEntity
  8
0
  6
Continuous
 62
     7
370
    15
100
AcDbSpline
210
0.0
220
0.0
230
1.0
 70
     8
 71
     3
 72
    14
 73
    10
 74
     0
 42
0.00000001
 43
0.00000001
 12
1.0
 22
0.0
 32
0.0
 13
1.0
 23
0.0
 33
0.0
 40
0.0
 40
0.0
 40
0.0
 40
0.0
 40
0.1883847816317232
 40
0.3596802553594184
 40
0.6003421773647472
 40
0.7898499004772009
 40
0.9055956218147745
 40
0.9965044171559082
 40
1.0
 40
1.0
 40
1.0
 40
1.0
 10
423.7150188538134
 20
530.881664466055
 30
0.0
 10
423.6867488142866
 20
531.0260303912197
 30
0.0
 10
423.6327732492333
 20
531.3016661001062
 30
0.0
 10
423.3950692988701
 20
531.7103843504301
 30
0.0
 10
423.0502636927557
 20
532.0379648341599
 30
0.0
 10
422.6619943874575
 20
532.2212260031067
 30
0.0
 10
422.3608768557943
 20
532.2887357835133
 30
0.0
 10
422.1977039895274
 20
532.3004126709936
 30
0.0
 10
422.1244669334841
 20
532.3005348017958
 30
0.0
 10
422.1217551292058
 20
532.3005393240262
 30
0.0
  0
LINE
  5
247
330
1F
100
AcDbEntity
  8
0
  6
Continuous
 62
     7
370
    15
100
AcDbLine
 10
423.7150188538
 20
530.8816644661
 30
0.0
 11
423.717146617
 21
530.8935263226
 31
0.0
  0
LINE
  5
248
330
1F
100
AcDbEntity
  8
0
  6
Continuous
 62
     7
370
    15
100
AcDbLine
 10
379.1525885177
 20
531.3503608697
 30
0.0
 11
379.1656078622
 21
531.3210673445
 31
0.0
  0
LINE
  5
249
330
1F
100
AcDbEntity
  8
0
  6
Continuous
 62
     7
370
    15
100
AcDbLine
 10
420.3079854472
 20
531.3503608697
 30
0.0
 11
420.2949661026
 21
531.3210673445
 31
0.0
  0
ARC
  5
24A
330
1F
100
AcDbEntity
  8
0
  6
Continuous
 62
     7
370
    15
100
AcDbCircle
 10
421.770083925
 20
530.700539324
 30
0.0
 40
1.600000000000023
100
AcDbArc
 50
90.0
 51
156.0375110254
  0
ARC
  5
24B
330
1F
100
AcDbEntity
  8
0
  6
Continuous
 62
     7
370
    15
100
AcDbCircle
 10
377.6904900399
 20
530.700539324
 30
0.0
 40
1.600000000000023
100
AcDbArc
 50
23.9624889746
 51
90.0
  0
ARC
  5
24C
330
1F
100
AcDbEntity
  8
0
  6
Continuous
 62
     7
370
    15
100
AcDbCircle
 10
224.480205185
 20
387.3841271383
 30
0.0
 40
135.0
100
AcDbArc
 50
93.487847246
 51
94.7022429903
  0
ARC
  5
24D
330
1F
100
AcDbEntity
  8
0
  6
Continuous
 62
     7
370
    15
100
AcDbCircle
 10
224.480205185
 20
387.3841271383
 30
0.0
 40
135.0000000000001
100
AcDbArc
 50
97.9001814258
 51
112.6591189244
  0
ARC
  5
24E
330
1F
100
AcDbEntity
  8
0
  6
Continuous
 62
     7
370
    15
100
AcDbCircle
 10
574.9803687799
 20
387.3841271383
 30
0.0
 40
135.0
100
AcDbArc
 50
85.2977570097
 51
86.512152754
  0
ARC
  5
24F
330
1F
100
AcDbEntity
  8
0
  6
Continuous
 62
     7
370
    15
100
AcDbCircle
 10
574.9803687799
 20
387.3841271383
 30
0.0
 40
135.0000000000001
100
AcDbArc
 50
67.3408810756
 51
82.0998185742
  0
ARC
  5
250
330
1F
100
AcDbEntity
  8
0
  6
Continuous
 62
     7
370
    15
100
AcDbCircle
 10
504.480205185
 20
387.3841271383
 30
0.0
 40
135.0
100
AcDbArc
 50
97.9053474532
 51
112.6484734654
  0
ARC
  5
251
330
1F
100
AcDbEntity
  8
0
  6
Continuous
 62
     7
370
    15
100
AcDbCircle
 10
504.480205185
 20
387.3841271383
 30
0.0
 40
135.0
100
AcDbArc
 50
93.487847246
 51
94.7028167161
  0
ARC
  5
252
330
1F
100
AcDbEntity
  8
0
  6
Continuous
 62
     7
370
    15
100
AcDbCircle
 10
294.9803687799
 20
387.3841271383
 30
0.0
 40
135.0000000000001
100
AcDbArc
 50
67.3515265346
 51
82.0946525468
  0
ARC
  5
253
330
1F
100
AcDbEntity
  8
0
  6
Continuous
 62
     7
370
    15
100
AcDbCircle
 10
294.9803687799
 20
387.3841271383
 30
0.0
 40
135.0
100
AcDbArc
 50
85.2971832839
 51
86.512152754
  0
SPLINE
  5
254
330
1F
100
AcDbEntity
  8
0
  6
Continuous
 62
     7
370
    15
100
AcDbSpline
210
0.0
220
0.0
230
1.0
 70
    24
 71
     3
 72
    11
 73
     7
 74
     0
 42
0.00000001
 43
0.00000001
 12
1.0
 22
0.0
 32
0.0
 13
1.0
 23
0.0
 33
0.0
 40
0.0
 40
0.0
 40
0.0
 40
0.0
 40
0.2779885514217502
 40
0.5616472137281916
 40
0.7829861327419676
 40
1.0
 40
1.0
 40
1.0
 40
1.0
 10
499.7302869824417
 20
522.3005393240261
 30
0.0
 10
499.6636264599849
 20
523.0624725822374
 30
0.0
 10
499.5289457455738
 20
524.6018801921289
 30
0.0
 10
499.3439713480383
 20
526.7161472306318
 30
0.0
 10
499.1721344444884
 20
528.6802520257503
 30
0.0
 10
499.0671176922754
 20
529.8805989962119
 30
0.0
 10
499.015127395331
 20
530.4748508095214
 30
0.0
  0
SPLINE
  5
255
330
1F
100
AcDbEntity
  8
0
  6
Continuous
 62
     7
370
    15
100
AcDbSpline
210
0.0
220
0.0
230
1.0
 70
     8
 71
     3
 72
    12
 73
     8
 74
     0
 42
0.00000001
 43
0.00000001
 12
1.0
 22
0.0
 32
0.0
 13
1.0
 23
0.0
 33
0.0
 40
0.0
 40
0.0
 40
0.0
 40
0.0
 40
0.1949242463861328
 40
0.4099385120109
 40
0.6250663629368378
 40
0.8407019596851003
 40
1.0
 40
1.0
 40
1.0
 40
1.0
 10
496.2672333764274
 20
522.1340699734325
 30
0.0
 10
496.6212012961916
 20
522.1548070377348
 30
0.0
 10
497.3656191150002
 20
522.1984184480197
 30
0.0
 10
498.3903652487978
 20
522.2476853228494
 30
0.0
 10
499.2005321513292
 20
522.2814128412288
 30
0.0
 10
499.6590044780539
 20
522.2980478333636
 30
0.0
 10
499.7090318533683
 20
522.2997964074286
 30
0.0
 10
499.7302869824417
 20
522.3005393240261
 30
0.0
  0
SPLINE
  5
256
330
1F
100
AcDbEntity
  8
0
  6
Continuous
 62
     7
370
    15
100
AcDbSpline
210
0.0
220
0.0
230
1.0
 70
    24
 71
     3
 72
    11
 73
     7
 74
     0
 42
0.00000001
 43
0.00000001
 12
1.0
 22
0.0
 32
0.0
 13
1.0
 23
0.0
 33
0.0
 40
0.0
 40
0.0
 40
0.0
 40
0.0
 40
0.2779885514217482
 40
0.5616472137281905
 40
0.7829861327419699
 40
1.0
 40
1.0
 40
1.0
 40
1.0
 10
299.7302869824097
 20
522.3005393240261
 30
0.0
 10
299.7969475048666
 20
523.0624725822374
 30
0.0
 10
299.9316282192776
 20
524.6018801921289
 30
0.0
 10
300.1166026168132
 20
526.7161472306318
 30
0.0
 10
300.2884395203629
 20
528.6802520257503
 30
0.0
 10
300.393456272576
 20
529.8805989962119
 30
0.0
 10
300.4454465695202
 20
530.4748508095214
 30
0.0
  0
SPLINE
  5
257
330
1F
100
AcDbEntity
  8
0
  6
Continuous
 62
     7
370
    15
100
AcDbSpline
210
0.0
220
0.0
230
1.0
 70
     8
 71
     3
 72
    12
 73
     8
 74
     0
 42
0.00000001
 43
0.00000001
 12
1.0
 22
0.0
 32
0.0
 13
1.0
 23
0.0
 33
0.0
 40
0.0
 40
0.0
 40
0.0
 40
0.0
 40
0.1949242463861378
 40
0.4099385120109176
 40
0.6250663629368499
 40
0.8407019596851069
 40
1.0
 40
1.0
 40
1.0
 40
1.0
 10
303.1933405884241
 20
522.1340699734325
 30
0.0
 10
302.83937266866
 20
522.1548070377348
 30
0.0
 10
302.0949548498512
 20
522.1984184480197
 30
0.0
 10
301.0702087160536
 20
522.2476853228494
 30
0.0
 10
300.2600418135222
 20
522.2814128412288
 30
0.0
 10
299.8015694867973
 20
522.2980478333636
 30
0.0
 10
299.751542111483
 20
522.2997964074286
 30
0.0
 10
299.7302869824098
 20
522.3005393240261
 30
0.0
  0
SPLINE
  5
258
330
1F
100
AcDbEntity
  8
0
  6
Continuous
 62
     7
370
    15
100
AcDbSpline
210
0.0
220
0.0
230
1.0
 70
    24
 71
     3
 72
    11
 73
     7
 74
     0
 42
0.00000001
 43
0.00000001
 12
1.0
 22
0.0
 32
0.0
 13
1.0
 23
0.0
 33
0.0
 40
0.0
 40
0.0
 40
0.0
 40
0.0
 40
0.2768032429862501
 40
0.5599832085138459
 40
0.7820988278563608
 40
1.0
 40
1.0
 40
1.0
 40
1.0
 10
580.4454465695507
 20
530.4748508095214
 30
0.0
 10
580.3790562952488
 20
529.7160065018559
 30
0.0
 10
580.2447463124009
 20
528.1808363731226
 30
0.0
 10
580.0595696587828
 20
526.0642575370164
 30
0.0
 10
579.8879981205178
 20
524.1031858809813
 30
0.0
 10
579.7825206099545
 20
522.8975724184778
 30
0.0
 10
579.7302869824401
 20
522.3005393240261
 30
0.0
  0
SPLINE
  5
259
330
1F
100
AcDbEntity
  8
0
  6
Continuous
 62
     7
370
    15
100
AcDbSpline
210
0.0
220
0.0
230
1.0
 70
     8
 71
     3
 72
    12
 73
     8
 74
     0
 42
0.00000001
 43
0.00000001
 12
1.0
 22
0.0
 32
0.0
 13
1.0
 23
0.0
 33
0.0
 40
0.0
 40
0.0
 40
0.0
 40
0.0
 40
0.1857061433232767
 40
0.4017214544205541
 40
0.6178907781413707
 40
0.8334746541485187
 40
0.9999999999999999
 40
0.9999999999999999
 40
0.9999999999999999
 40
0.9999999999999999
 10
579.7302869824401
 20
522.3005393240261
 30
0.0
 10
579.7590173758845
 20
522.2995408087977
 30
0.0
 10
579.8211672608263
 20
522.2973808103044
 30
0.0
 10
580.3460538532073
 20
522.2780963789687
 30
0.0
 10
581.1949889089107
 20
522.2420881236776
 30
0.0
 10
582.1982186794395
 20
522.1927155576169
 30
0.0
 10
582.8912943270335
 20
522.1518704854007
 30
0.0
 10
583.1933405884544
 20
522.1340699734317
 30
0.0
  0
SPLINE
  5
25A
330
1F
100
AcDbEntity
  8
0
  6
Continuous
 62
     7
370
    15
100
AcDbSpline
210
0.0
220
0.0
230
1.0
 70
    24
 71
     3
 72
    11
 73
     7
 74
     0
 42
0.00000001
 43
0.00000001
 12
1.0
 22
0.0
 32
0.0
 13
1.0
 23
0.0
 33
0.0
 40
0.0
 40
0.0
 40
0.0
 40
0.0
 40
0.2768032429862508
 40
0.5599832085138456
 40
0.7820988278563612
 40
1.0
 40
1.0
 40
1.0
 40
1.0
 10
219.0151273953009
 20
530.4748508095214
 30
0.0
 10
219.0815176696028
 20
529.7160065018559
 30
0.0
 10
219.2158276524506
 20
528.1808363731225
 30
0.0
 10
219.4010043060687
 20
526.0642575370163
 30
0.0
 10
219.5725758443336
 20
524.1031858809813
 30
0.0
 10
219.6780533548969
 20
522.8975724184778
 30
0.0
 10
219.7302869824112
 20
522.3005393240261
 30
0.0
  0
SPLINE
  5
25B
330
1F
100
AcDbEntity
  8
0
  6
Continuous
 62
     7
370
    15
100
AcDbSpline
210
0.0
220
0.0
230
1.0
 70
     8
 71
     3
 72
    12
 73
     8
 74
     0
 42
0.00000001
 43
0.00000001
 12
1.0
 22
0.0
 32
0.0
 13
1.0
 23
0.0
 33
0.0
 40
0.0
 40
0.0
 40
0.0
 40
0.0
 40
0.1857061433232757
 40
0.4017214544205397
 40
0.6178907781413796
 40
0.8334746541485256
 40
1.0
 40
1.0
 40
1.0
 40
1.0
 10
219.7302869824113
 20
522.3005393240261
 30
0.0
 10
219.7015565889669
 20
522.2995408087978
 30
0.0
 10
219.6394067040249
 20
522.2973808103044
 30
0.0
 10
219.1145201116444
 20
522.2780963789686
 30
0.0
 10
218.2655850559407
 20
522.2420881236777
 30
0.0
 10
217.2623552854119
 20
522.1927155576169
 30
0.0
 10
216.5692796378179
 20
522.1518704854007
 30
0.0
 10
216.267233376397
 20
522.1340699734317
 30
0.0
  0
ARC
  5
25C
330
1F
100
AcDbEntity
  8
0
  6
Continuous
 62
     7
370
    15
100
AcDbCircle
 10
582.4378359657
 20
530.300539324
 30
0.0
 40
2.00000000000002
100
AcDbArc
 50
90.0
 51
175.0
  0
LINE
  5
25D
330
1F
100
AcDbEntity
  8
0
  6
Continuous
 62
     7
370
    15
100
AcDbLine
 10
302.4378359657
 20
532.300539324
 30
0.0
 11
309.0140831759
 21
532.300539324
 31
0.0
  0
LINE
  5
25E
330
1F
100
AcDbEntity
  8
0
  6
Continuous
 62
     7
370
    15
100
AcDbLine
 10
310.4464907889
 20
532.300539324
 30
0.0
 11
331.2313199856
 21
532.300539324
 31
0.0
  0
ARC
  5
25F
330
1F
100
AcDbEntity
  8
0
  6
Continuous
 62
     7
370
    15
100
AcDbCircle
 10
217.0227379991
 20
530.300539324
 30
0.0
 40
2.00000000000002
100
AcDbArc
 50
5.0
 51
90.0
  0
ARC
  5
260
330
1F
100
AcDbEntity
  8
0
  6
Continuous
 62
     7
370
    15
100
AcDbCircle
 10
302.4378359657
 20
530.300539324
 30
0.0
 40
2.00000000000002
100
AcDbArc
 50
90.0
 51
175.0
  0
LINE
  5
261
330
1F
100
AcDbEntity
  8
0
  6
Continuous
 62
     7
370
    15
100
AcDbLine
 10
187.6106157066
 20
532.300539324
 30
0.0
 11
209.0140073861
 21
532.300539324
 31
0.0
  0
LINE
  5
262
330
1F
100
AcDbEntity
  8
0
  6
Continuous
 62
     7
370
    15
100
AcDbLine
 10
210.4465665788
 20
532.300539324
 30
0.0
 11
217.0227379991
 21
532.300539324
 31
0.0
  0
LINE
  5
263
330
1F
100
AcDbEntity
  8
0
  6
Continuous
 62
     7
370
    15
100
AcDbLine
 10
611.8499582582
 20
532.300539324
 30
0.0
 11
590.4465665788
 21
532.300539324
 31
0.0
  0
LINE
  5
264
330
1F
100
AcDbEntity
  8
0
  6
Continuous
 62
     7
370
    15
100
AcDbLine
 10
589.0140073861
 20
532.300539324
 30
0.0
 11
582.4378359657
 21
532.300539324
 31
0.0
  0
ARC
  5
265
330
1F
100
AcDbEntity
  8
0
  6
Continuous
 62
     7
370
    15
100
AcDbCircle
 10
497.0227379991
 20
530.300539324
 30
0.0
 40
2.00000000000002
100
AcDbArc
 50
5.0
 51
90.0
  0
LINE
  5
266
330
1F
100
AcDbEntity
  8
0
  6
Continuous
 62
     7
370
    15
100
AcDbLine
 10
497.0227379991
 20
532.300539324
 30
0.0
 11
490.4464907889
 21
532.300539324
 31
0.0
  0
LINE
  5
267
330
1F
100
AcDbEntity
  8
0
  6
Continuous
 62
     7
370
    15
100
AcDbLine
 10
489.0140831759
 20
532.300539324
 30
0.0
 11
468.2292539792
 21
532.300539324
 31
0.0
  0
LINE
  5
268
330
1F
100
AcDbEntity
  8
0
  6
Continuous
 62
     7
370
    15
100
AcDbLine
 10
305.1449366597
 20
513.9976544417
 30
0.0
 11
305.1731493446
 21
514.2452739992
 31
0.0
  0
LINE
  5
269
330
1F
100
AcDbEntity
  8
0
  6
Continuous
 62
     7
370
    15
100
AcDbLine
 10
494.3156373052
 20
513.9976544417
 30
0.0
 11
494.2874246203
 21
514.2452739992
 31
0.0
  0
LINE
  5
26A
330
1F
100
AcDbEntity
  8
0
  6
Continuous
 62
     7
370
    15
100
AcDbLine
 10
535.1156276275
 20
513.7404123678
 30
0.0
 11
535.1032183963
 21
513.6408522627
 31
0.0
  0
LINE
  5
26B
330
1F
100
AcDbEntity
  8
0
  6
Continuous
 62
     7
370
    15
100
AcDbLine
 10
205.1256247159
 20
513.8281556862
 30
0.0
 11
204.9442220043
 21
512.960039762
 31
0.0
  0
LINE
  5
26C
330
1F
100
AcDbEntity
  8
0
  6
Continuous
 62
     7
370
    15
100
AcDbLine
 10
140.7970954809
 20
54.000539324
 30
0.0
 11
87.7970954809
 21
54.000539324
 31
0.0
  0
LINE
  5
26D
330
1F
100
AcDbEntity
  8
0
  6
Continuous
 62
     7
370
    15
100
AcDbLine
 10
142.7970954809
 20
60.000539324
 30
0.0
 11
85.7970954809
 21
60.000539324
 31
0.0
  0
LINE
  5
26E
330
1F
100
AcDbEntity
  8
0
  6
Continuous
 62
     7
370
    15
100
AcDbLine
 10
714.7970954809
 20
54.000539324
 30
0.0
 11
661.7970954809
 21
54.000539324
 31
0.0
  0
LINE
  5
26F
330
1F
100
AcDbEntity
  8
0
  6
Continuous
 62
     7
370
    15
100
AcDbLine
 10
716.7970954809
 20
60.000539324
 30
0.0
 11
659.7970954809
 21
60.000539324
 31
0.0
  0
LINE
  5
270
330
1F
100
AcDbEntity
  8
0
  6
Continuous
 62
     7
370
    15
100
AcDbLine
 10
733.2970954809
 20
202.000539324
 30
0.0
 11
733.2970954809
 21
203.700539324
 31
0.0
  0
LINE
  5
271
330
1F
100
AcDbEntity
  8
0
  6
Continuous
 62
     7
370
    15
100
AcDbLine
 10
643.2970954809
 20
202.000539324
 30
0.0
 11
643.2970954809
 21
203.700539324
 31
0.0
  0
LINE
  5
272
330
1F
100
AcDbEntity
  8
0
  6
Continuous
 62
     7
370
    15
100
AcDbLine
 10
643.2970954809
 20
202.000539324
 30
0.0
 11
733.2970954809
 21
202.000539324
 31
0.0
  0
LINE
  5
273
330
1F
100
AcDbEntity
  8
0
  6
Continuous
 62
     7
370
    15
100
AcDbLine
 10
719.2567457013
 20
108.000539324
 30
0.0
 11
657.3374452606
 21
108.000539324
 31
0.0
  0
LINE
  5
274
330
1F
100
AcDbEntity
  8
0
  6
Continuous
 62
     7
370
    15
100
AcDbLine
 10
159.2970954809
 20
202.000539324
 30
0.0
 11
159.2970954809
 21
203.700539324
 31
0.0
  0
LINE
  5
275
330
1F
100
AcDbEntity
  8
0
  6
Continuous
 62
     7
370
    15
100
AcDbLine
 10
69.2970954809
 20
202.000539324
 30
0.0
 11
159.2970954809
 21
202.000539324
 31
0.0
  0
LINE
  5
276
330
1F
100
AcDbEntity
  8
0
  6
Continuous
 62
     7
370
    15
100
AcDbLine
 10
69.2970954809
 20
202.000539324
 30
0.0
 11
69.2970954809
 21
203.700539324
 31
0.0
  0
LINE
  5
277
330
1F
100
AcDbEntity
  8
0
  6
Continuous
 62
     7
370
    15
100
AcDbLine
 10
145.2567457013
 20
108.000539324
 30
0.0
 11
83.3374452606
 21
108.000539324
 31
0.0
  0
ENDSEC
  0
SECTION
  2
OBJECTS
  0
DICTIONARY
  5
C
330
0
100
AcDbDictionary
281
     1
  3
ACAD_GROUP
350
D
  3
ACAD_LAYOUT
350
1A
  3
ACAD_MLINESTYLE
350
17
  3
ACAD_PLOTSETTINGS
350
19
  3
ACAD_PLOTSTYLENAME
350
E
  0
DICTIONARY
  5
D
102
{ACAD_REACTORS
330
C
102
}
330
C
100
AcDbDictionary
281
     1
  0
DICTIONARY
  5
1A
102
{ACAD_REACTORS
330
C
102
}
330
C
100
AcDbDictionary
281
     1
  3
Layout1
350
1E
  3
Layout2
350
26
  3
Model
350
22
  0
DICTIONARY
  5
17
102
{ACAD_REACTORS
330
C
102
}
330
C
100
AcDbDictionary
281
     1
  3
Standard
350
18
  0
DICTIONARY
  5
19
102
{ACAD_REACTORS
330
C
102
}
330
C
100
AcDbDictionary
281
     1
  0
ACDBDICTIONARYWDFLT
  5
E
102
{ACAD_REACTORS
330
C
102
}
330
C
100
AcDbDictionary
281
     1
  3
Normal
350
F
100
AcDbDictionaryWithDefault
340
F
  0
LAYOUT
  5
1E
102
{ACAD_REACTORS
330
1A
102
}
330
1A
100
AcDbPlotSettings
  1

  2
none_device
  4

  6

 40
0.0
 41
0.0
 42
0.0
 43
0.0
 44
0.0
 45
0.0
 46
0.0
 47
0.0
 48
0.0
 49
0.0
140
0.0
141
0.0
142
1.0
143
1.0
 70
   688
 72
     0
 73
     0
 74
     5
  7

 75
    16
147
1.0
148
0.0
149
0.0
100
AcDbLayout
  1
Layout1
 70
     1
 71
     1
 10
0.0
 20
0.0
 11
420.0
 21
297.0
 12
0.0
 22
0.0
 32
0.0
 14
1.0000000000E+20
 24
1.0000000000E+20
 34
1.0000000000E+20
 15
-1.0000000000E+20
 25
-1.0000000000E+20
 35
-1.0000000000E+20
146
0.0
 13
0.0
 23
0.0
 33
0.0
 16
1.0
 26
0.0
 36
0.0
 17
0.0
 27
1.0
 37
0.0
 76
     0
330
1B
  0
LAYOUT
  5
26
102
{ACAD_REACTORS
330
1A
102
}
330
1A
100
AcDbPlotSettings
  1

  2
none_device
  4

  6

 40
0.0
 41
0.0
 42
0.0
 43
0.0
 44
0.0
 45
0.0
 46
0.0
 47
0.0
 48
0.0
 49
0.0
140
0.0
141
0.0
142
1.0
143
1.0
 70
   688
 72
     0
 73
     0
 74
     5
  7

 75
    16
147
1.0
148
0.0
149
0.0
100
AcDbLayout
  1
Layout2
 70
     1
 71
     2
 10
0.0
 20
0.0
 11
0.0
 21
0.0
 12
0.0
 22
0.0
 32
0.0
 14
0.0
 24
0.0
 34
0.0
 15
0.0
 25
0.0
 35
0.0
146
0.0
 13
0.0
 23
0.0
 33
0.0
 16
1.0
 26
0.0
 36
0.0
 17
0.0
 27
1.0
 37
0.0
 76
     0
330
23
  0
LAYOUT
  5
22
102
{ACAD_REACTORS
330
1A
102
}
330
1A
100
AcDbPlotSettings
  1

  2
none_device
  4

  6

 40
0.0
 41
0.0
 42
0.0
 43
0.0
 44
0.0
 45
0.0
 46
0.0
 47
0.0
 48
0.0
 49
0.0
140
0.0
141
0.0
142
1.0
143
1.0
 70
  1712
 72
     0
 73
     0
 74
     0
  7

 75
     0
147
1.0
148
0.0
149
0.0
100
AcDbLayout
  1
Model
 70
     1
 71
     0
 10
0.0
 20
0.0
 11
841.0
 21
594.0
 12
0.0
 22
0.0
 32
0.0
 14
0.0
 24
0.0
 34
0.0
 15
841.0
 25
594.0
 35
0.0
146
0.0
 13
0.0
 23
0.0
 33
0.0
 16
1.0
 26
0.0
 36
0.0
 17
0.0
 27
1.0
 37
0.0
 76
     0
330
1F
331
29
  0
MLINESTYLE
  5
18
102
{ACAD_REACTORS
330
17
102
}
330
17
100
AcDbMlineStyle
  2
Standard
 70
     0
  3

 62
   256
 51
90.0
 52
90.0
 71
     2
 49
0.5
 62
   256
  6
BYLAYER
 49
-0.5
 62
   256
  6
BYLAYER
  0
ACDBPLACEHOLDER
  5
F
102
{ACAD_REACTORS
330
E
102
}
330
E
  0
ENDSEC
  0
EOF
