  0
SECTION
  2
HEADER
  9
$ACADVER
  1
AC1015
  9
$ACADMAINTVER
 70
     6
  9
$DWGCODEPAGE
  3
ANSI_1252
  9
$INSBASE
 10
0.0
 20
0.0
 30
0.0
  9
$EXTMIN
 10
0.0
 20
0.0
 30
0.0
  9
$EXTMAX
 10
2000.0
 20
2000.0
 30
0.0
  9
$LIMMIN
 10
0.0
 20
0.0
  9
$LIMMAX
 10
2000.0
 20
2000.0
  9
$ORTHOMODE
 70
     0
  9
$REGENMODE
 70
     1
  9
$FILLMODE
 70
     1
  9
$QTEXTMODE
 70
     0
  9
$MIRRTEXT
 70
     1
  9
$LTSCALE
 40
1.0
  9
$ATTMODE
 70
     1
  9
$TEXTSIZE
 40
3.5
  9
$TRACEWID
 40
1.0
  9
$TEXTSTYLE
  7
STANDARD
  9
$CLAYER
  8
0
  9
$CELTYPE
  6
ByLayer
  9
$CECOLOR
 62
   256
  9
$CELTSCALE
 40
1.0
  9
$DISPSILH
 70
     0
  9
$DIMSCALE
 40
1.0
  9
$DIMASZ
 40
3.302
  9
$DIMEXO
 40
1.0
  9
$DIMDLI
 40
3.75
  9
$DIMRND
 40
0.0
  9
$DIMDLE
 40
0.0
  9
$DIMEXE
 40
1.0
  9
$DIMTP
 40
0.0
  9
$DIMTM
 40
0.0
  9
$DIMTXT
 40
3.5
  9
$DIMCEN
 40
2.5
  9
$DIMTSZ
 40
0.0
  9
$DIMTOL
 70
     0
  9
$DIMLIM
 70
     0
  9
$DIMTIH
 70
     1
  9
$DIMTOH
 70
     1
  9
$DIMSE1
 70
     0
  9
$DIMSE2
 70
     0
  9
$DIMTAD
 70
     1
  9
$DIMZIN
 70
     0
  9
$DIMBLK
  1

  9
$DIMASO
 70
     1
  9
$DIMSHO
 70
     1
  9
$DIMPOST
  1

  9
$DIMAPOST
  1

  9
$DIMALT
 70
     0
  9
$DIMALTD
 70
     3
  9
$DIMALTF
 40
0.0393700787
  9
$DIMLFAC
 40
1.0
  9
$DIMTOFL
 70
     1
  9
$DIMTVP
 40
0.0
  9
$DIMTIX
 70
     0
  9
$DIMSOXD
 70
     0
  9
$DIMSAH
 70
     0
  9
$DIMBLK1
  1

  9
$DIMBLK2
  1

  9
$DIMSTYLE
  2
ISO-25
  9
$DIMCLRD
 70
     0
  9
$DIMCLRE
 70
     0
  9
$DIMCLRT
 70
     0
  9
$DIMTFAC
 40
1.0
  9
$DIMGAP
 40
1.524
  9
$DIMJUST
 70
     0
  9
$DIMSD1
 70
     0
  9
$DIMSD2
 70
     0
  9
$DIMTOLJ
 70
     0
  9
$DIMTZIN
 70
     0
  9
$DIMALTZ
 70
     0
  9
$DIMALTTZ
 70
     0
  9
$DIMUPT
 70
     0
  9
$DIMDEC
 70
     1
  9
$DIMTDEC
 70
     1
  9
$DIMALTU
 70
     2
  9
$DIMALTTD
 70
     3
  9
$DIMTXSTY
  7
STANDARD
  9
$DIMAUNIT
 70
     0
  9
$DIMADEC
 70
     1
  9
$DIMALTRND
 40
0.0
  9
$DIMAZIN
 70
     0
  9
$DIMDSEP
 70
    44
  9
$DIMATFIT
 70
     3
  9
$DIMFRAC
 70
     0
  9
$DIMLDRBLK
  1

  9
$DIMLUNIT
 70
     2
  9
$DIMLWD
 70
    -2
  9
$DIMLWE
 70
    -2
  9
$DIMTMOVE
 70
     0
  9
$LUNITS
 70
     2
  9
$LUPREC
 70
     1
  9
$SKETCHINC
 40
1.0
  9
$FILLETRAD
 40
10.0
  9
$AUNITS
 70
     0
  9
$AUPREC
 70
     1
  9
$MENU
  1
.
  9
$ELEVATION
 40
0.0
  9
$PELEVATION
 40
0.0
  9
$THICKNESS
 40
0.0
  9
$LIMCHECK
 70
     0
  9
$CHAMFERA
 40
10.0
  9
$CHAMFERB
 40
10.0
  9
$CHAMFERC
 40
20.0
  9
$CHAMFERD
 40
0.0
  9
$SKPOLY
 70
     0
  9
$TDCREATE
 40
2455671.284899676
  9
$TDUCREATE
 40
2455671.243233009
  9
$TDUPDATE
 40
2455671.284899687
  9
$TDUUPDATE
 40
2455671.243233021
  9
$TDINDWG
 40
0.0000000116
  9
$TDUSRTIMER
 40
0.0000000116
  9
$USRTIMER
 70
     1
  9
$ANGBASE
 50
0.0
  9
$ANGDIR
 70
     0
  9
$PDMODE
 70
     0
  9
$PDSIZE
 40
-1.0
  9
$PLINEWID
 40
0.0
  9
$SPLFRAME
 70
     0
  9
$SPLINETYPE
 70
     6
  9
$SPLINESEGS
 70
     8
  9
$HANDSEED
  5
5A3
  9
$SURFTAB1
 70
     6
  9
$SURFTAB2
 70
     6
  9
$SURFTYPE
 70
     6
  9
$SURFU
 70
     6
  9
$SURFV
 70
     6
  9
$UCSBASE
  2

  9
$UCSNAME
  2

  9
$UCSORG
 10
0.0
 20
0.0
 30
0.0
  9
$UCSXDIR
 10
1.0
 20
0.0
 30
0.0
  9
$UCSYDIR
 10
0.0
 20
1.0
 30
0.0
  9
$UCSORTHOREF
  2

  9
$UCSORTHOVIEW
 70
     0
  9
$UCSORGTOP
 10
0.0
 20
0.0
 30
0.0
  9
$UCSORGBOTTOM
 10
0.0
 20
0.0
 30
0.0
  9
$UCSORGLEFT
 10
0.0
 20
0.0
 30
0.0
  9
$UCSORGRIGHT
 10
0.0
 20
0.0
 30
0.0
  9
$UCSORGFRONT
 10
0.0
 20
0.0
 30
0.0
  9
$UCSORGBACK
 10
0.0
 20
0.0
 30
0.0
  9
$PUCSBASE
  2

  9
$PUCSNAME
  2

  9
$PUCSORG
 10
0.0
 20
0.0
 30
0.0
  9
$PUCSXDIR
 10
1.0
 20
0.0
 30
0.0
  9
$PUCSYDIR
 10
0.0
 20
1.0
 30
0.0
  9
$PUCSORTHOREF
  2

  9
$PUCSORTHOVIEW
 70
     0
  9
$PUCSORGTOP
 10
0.0
 20
0.0
 30
0.0
  9
$PUCSORGBOTTOM
 10
0.0
 20
0.0
 30
0.0
  9
$PUCSORGLEFT
 10
0.0
 20
0.0
 30
0.0
  9
$PUCSORGRIGHT
 10
0.0
 20
0.0
 30
0.0
  9
$PUCSORGFRONT
 10
0.0
 20
0.0
 30
0.0
  9
$PUCSORGBACK
 10
0.0
 20
0.0
 30
0.0
  9
$USERI1
 70
     0
  9
$USERI2
 70
     0
  9
$USERI3
 70
     0
  9
$USERI4
 70
     0
  9
$USERI5
 70
     0
  9
$USERR1
 40
0.0
  9
$USERR2
 40
0.0
  9
$USERR3
 40
0.0
  9
$USERR4
 40
0.0
  9
$USERR5
 40
0.0
  9
$WORLDVIEW
 70
     1
  9
$SHADEDGE
 70
     3
  9
$SHADEDIF
 70
    70
  9
$TILEMODE
 70
     1
  9
$MAXACTVP
 70
    64
  9
$PINSBASE
 10
0.0
 20
0.0
 30
0.0
  9
$PLIMCHECK
 70
     0
  9
$PEXTMIN
 10
1.0000000000E+20
 20
1.0000000000E+20
 30
1.0000000000E+20
  9
$PEXTMAX
 10
-1.0000000000E+20
 20
-1.0000000000E+20
 30
-1.0000000000E+20
  9
$PLIMMIN
 10
0.0
 20
0.0
  9
$PLIMMAX
 10
420.0
 20
297.0
  9
$UNITMODE
 70
     0
  9
$VISRETAIN
 70
     1
  9
$PLINEGEN
 70
     0
  9
$PSLTSCALE
 70
     1
  9
$TREEDEPTH
 70
  3020
  9
$CMLSTYLE
  2
Standard
  9
$CMLJUST
 70
     0
  9
$CMLSCALE
 40
20.0
  9
$PROXYGRAPHICS
 70
     1
  9
$MEASUREMENT
 70
     1
  9
$CELWEIGHT
370
    -1
  9
$ENDCAPS
280
     0
  9
$JOINSTYLE
280
     0
  9
$LWDISPLAY
290
     1
  9
$INSUNITS
 70
     4
  9
$HYPERLINKBASE
  1

  9
$STYLESHEET
  1

  9
$XEDIT
290
     1
  9
$CEPSNTYPE
380
     0
  9
$PSTYLEMODE
290
     1
  9
$FINGERPRINTGUID
  2
{7B5AE3C3-6D1C-496D-9E6A-2598FFCF2A5E}
  9
$VERSIONGUID
  2
{FAEB1C32-E019-11D5-929B-00C0DF256EC4}
  9
$EXTNAMES
290
     1
  9
$PSVPSCALE
 40
0.0
  9
$OLESTARTUP
290
     0
  0
ENDSEC
  0
SECTION
  2
CLASSES
  0
CLASS
  1
ACDBDICTIONARYWDFLT
  2
AcDbDictionaryWithDefault
  3
ObjectDBX Classes
 90
        0
280
     0
281
     0
  0
CLASS
  1
VISUALSTYLE
  2
AcDbVisualStyle
  3
ObjectDBX Classes
 90
     4095
280
     0
281
     0
  0
CLASS
  1
MATERIAL
  2
AcDbMaterial
  3
ObjectDBX Classes
 90
     1153
280
     0
281
     0
  0
CLASS
  1
ACDBPLACEHOLDER
  2
AcDbPlaceHolder
  3
ObjectDBX Classes
 90
        0
280
     0
281
     0
  0
CLASS
  1
LAYOUT
  2
AcDbLayout
  3
ObjectDBX Classes
 90
        0
280
     0
281
     0
  0
ENDSEC
  0
SECTION
  2
TABLES
  0
TABLE
  2
VPORT
  5
8
330
0
100
AcDbSymbolTable
 70
     1
  0
VPORT
  5
29
330
8
100
AcDbSymbolTableRecord
100
AcDbViewportTableRecord
  2
*Active
 70
     0
 10
0.0
 20
0.0
 11
1.0
 21
1.0
 12
1000.0
 22
1000.0
 13
0.0
 23
0.0
 14
10.0
 24
10.0
 15
10.0
 25
10.0
 16
0.0
 26
0.0
 36
1.0
 17
0.0
 27
0.0
 37
0.0
 40
2000.0
 41
1.0
 42
50.0
 43
0.0
 44
0.0
 50
0.0
 51
0.0
 71
     0
 72
  2000
 73
     1
 74
     3
 75
     0
 76
     0
 77
     0
 78
     0
281
     0
 65
     1
110
0.0
120
0.0
130
0.0
111
1.0
121
0.0
131
0.0
112
0.0
122
1.0
132
0.0
 79
     0
146
0.0
  0
ENDTAB
  0
TABLE
  2
LTYPE
  5
5
330
0
100
AcDbSymbolTable
 70
     8
  0
LTYPE
  5
14
330
5
100
AcDbSymbolTableRecord
100
AcDbLinetypeTableRecord
  2
ByBlock
 70
     0
  3

 72
    65
 73
     0
 40
0.0
  0
LTYPE
  5
15
330
5
100
AcDbSymbolTableRecord
100
AcDbLinetypeTableRecord
  2
ByLayer
 70
     0
  3

 72
    65
 73
     0
 40
0.0
  0
LTYPE
  5
16
330
5
100
AcDbSymbolTableRecord
100
AcDbLinetypeTableRecord
  2
Continuous
 70
     0
  3
Solid line
 72
    65
 73
     0
 40
0.0
  0
LTYPE
  5
3F
330
5
100
AcDbSymbolTableRecord
100
AcDbLinetypeTableRecord
  2
SLD-Solid
 70
     0
  3
SolidWorks Line Style
 72
    65
 73
     0
 40
0.0
  0
LTYPE
  5
40
330
5
100
AcDbSymbolTableRecord
100
AcDbLinetypeTableRecord
  2
SLD-Dashed
 70
     0
  3
SolidWorks Line Style
 72
    65
 73
     2
 40
1.905
 49
1.27
 74
     0
 49
-0.635
 74
     0
  0
LTYPE
  5
41
330
5
100
AcDbSymbolTableRecord
100
AcDbLinetypeTableRecord
  2
SLD-Phantom
 70
     0
  3
SolidWorks Line Style
 72
    65
 73
     6
 40
12.7
 49
6.35
 74
     0
 49
-1.27
 74
     0
 49
1.27
 74
     0
 49
-1.27
 74
     0
 49
1.27
 74
     0
 49
-1.27
 74
     0
  0
LTYPE
  5
42
330
5
100
AcDbSymbolTableRecord
100
AcDbLinetypeTableRecord
  2
SLD-Chain
 70
     0
  3
SolidWorks Line Style
 72
    65
 73
     4
 40
10.16
 49
6.35
 74
     0
 49
-1.27
 74
     0
 49
1.27
 74
     0
 49
-1.27
 74
     0
  0
LTYPE
  5
43
330
5
100
AcDbSymbolTableRecord
100
AcDbLinetypeTableRecord
  2
SLD-Center
 70
     0
  3
SolidWorks Line Style
 72
    65
 73
     4
 40
19.05
 49
15.24
 74
     0
 49
-1.27
 74
     0
 49
1.27
 74
     0
 49
-1.27
 74
     0
  0
LTYPE
  5
44
330
5
100
AcDbSymbolTableRecord
100
AcDbLinetypeTableRecord
  2
SLD-Stitch
 70
     0
  3
SolidWorks Line Style
 72
    65
 73
     2
 40
0.635
 49
0.0
 74
     0
 49
-0.635
 74
     0
  0
LTYPE
  5
45
330
5
100
AcDbSymbolTableRecord
100
AcDbLinetypeTableRecord
  2
SLD-Thin-Thick-Chain
 70
     0
  3
SolidWorks Line Style
 72
    65
 73
     4
 40
10.16
 49
6.35
 74
     0
 49
-1.27
 74
     0
 49
1.27
 74
     0
 49
-1.27
 74
     0
  0
ENDTAB
  0
TABLE
  2
LAYER
  5
2
330
0
100
AcDbSymbolTable
 70
     4
  0
LAYER
  5
10
330
2
100
AcDbSymbolTableRecord
100
AcDbLayerTableRecord
  2
0
 70
     0
 62
     7
  6
Continuous
370
    -3
390
F
  0
LAYER
  5
46
330
2
100
AcDbSymbolTableRecord
100
AcDbLayerTableRecord
  2
FORMAT
 70
     0
 62
     7
  6
SLD-Solid
370
    -3
390
F
  0
LAYER
  5
47
330
2
100
AcDbSymbolTableRecord
100
AcDbLayerTableRecord
  2
SLD-0
 70
     0
 62
     1
  6
SLD-Solid
370
    -3
390
F
  0
LAYER
  5
48
330
2
100
AcDbSymbolTableRecord
100
AcDbLayerTableRecord
  2
WATERMARK
 70
     0
 62
    20
  6
SLD-Solid
370
    -3
390
F
  0
ENDTAB
  0
TABLE
  2
STYLE
  5
3
330
0
100
AcDbSymbolTable
 70
     1
  0
STYLE
  5
11
330
3
100
AcDbSymbolTableRecord
100
AcDbTextStyleTableRecord
  2
STANDARD
 70
     0
 40
0.0
 41
1.0
 50
0.0
 71
     0
 42
2.5
  3
GOTHIC.TTF
  4

1001
ACAD
1000
CENTURY GOTHIC
1071
       34
  0
ENDTAB
  0
TABLE
  2
VIEW
  5
6
330
0
100
AcDbSymbolTable
 70
     0
  0
ENDTAB
  0
TABLE
  2
UCS
  5
7
330
0
100
AcDbSymbolTable
 70
     0
  0
ENDTAB
  0
TABLE
  2
APPID
  5
9
330
0
100
AcDbSymbolTable
 70
     1
  0
APPID
  5
12
330
9
100
AcDbSymbolTableRecord
100
AcDbRegAppTableRecord
  2
ACAD
 70
     0
  0
ENDTAB
  0
TABLE
  2
DIMSTYLE
  5
A
330
0
100
AcDbSymbolTable
 70
     1
100
AcDbDimStyleTable
  0
DIMSTYLE
105
27
330
A
100
AcDbSymbolTableRecord
100
AcDbDimStyleTableRecord
  2
ISO-25
 70
     0
 41
2.5
 42
0.625
 43
3.75
 44
1.25
 73
     0
 74
     0
 77
     1
 78
     8
140
2.5
141
2.5
143
0.0393700787
147
0.625
171
     3
172
     1
271
     2
272
     2
274
     3
278
    44
283
     0
284
     8
340
11
  0
ENDTAB
  0
TABLE
  2
BLOCK_RECORD
  5
1
330
0
100
AcDbSymbolTable
 70
     1
  0
BLOCK_RECORD
  5
1F
330
1
100
AcDbSymbolTableRecord
100
AcDbBlockTableRecord
  2
*Model_Space
340
22
  0
BLOCK_RECORD
  5
1B
330
1
100
AcDbSymbolTableRecord
100
AcDbBlockTableRecord
  2
*Paper_Space
340
1E
  0
BLOCK_RECORD
  5
23
330
1
100
AcDbSymbolTableRecord
100
AcDbBlockTableRecord
  2
*Paper_Space0
340
26
  0
ENDTAB
  0
ENDSEC
  0
SECTION
  2
BLOCKS
  0
BLOCK
  5
20
330
1F
100
AcDbEntity
  8
0
100
AcDbBlockBegin
  2
*Model_Space
 70
     0
 10
0.0
 20
0.0
 30
0.0
  3
*Model_Space
  1

  0
ENDBLK
  5
21
330
1F
100
AcDbEntity
  8
0
100
AcDbBlockEnd
  0
BLOCK
  5
1C
330
1B
100
AcDbEntity
 67
     1
  8
0
100
AcDbBlockBegin
  2
*Paper_Space
 70
     0
 10
0.0
 20
0.0
 30
0.0
  3
*Paper_Space
  1

  0
ENDBLK
  5
1D
330
1B
100
AcDbEntity
 67
     1
  8
0
100
AcDbBlockEnd
  0
BLOCK
  5
24
330
23
100
AcDbEntity
  8
0
100
AcDbBlockBegin
  2
*Paper_Space0
 70
     0
 10
0.0
 20
0.0
 30
0.0
  3
*Paper_Space0
  1

  0
ENDBLK
  5
25
330
23
100
AcDbEntity
  8
0
100
AcDbBlockEnd
  0
ENDSEC
  0
SECTION
  2
ENTITIES
  0
LINE
  5
49
330
1F
100
AcDbEntity
  8
0
  6
SLD-Solid
 62
     7
370
    15
100
AcDbLine
 10
505.0450987383
 20
534.6616110926
 30
0.0
 11
504.5451051756
 21
534.6616110926
 31
0.0
  0
LINE
  5
4A
330
1F
100
AcDbEntity
  8
0
  6
SLD-Solid
 62
     7
370
    15
100
AcDbLine
 10
504.5451051756
 20
524.2616138583
 30
0.0
 11
505.0450987383
 21
524.2616138583
 31
0.0
  0
LINE
  5
4B
330
1F
100
AcDbEntity
  8
0
  6
SLD-Solid
 62
     7
370
    15
100
AcDbLine
 10
1282.0451087518
 20
524.2616138583
 30
0.0
 11
1282.5451023145
 21
524.2616138583
 31
0.0
  0
LINE
  5
4C
330
1F
100
AcDbEntity
  8
0
  6
SLD-Solid
 62
     7
370
    15
100
AcDbLine
 10
1282.5451023145
 20
534.6616110926
 30
0.0
 11
1282.0451087518
 21
534.6616110926
 31
0.0
  0
LINE
  5
4D
330
1F
100
AcDbEntity
  8
0
  6
SLD-Solid
 62
     7
370
    15
100
AcDbLine
 10
624.2451197668
 20
773.4616189425
 30
0.0
 11
624.2451197668
 21
773.9616180932
 31
0.0
  0
LINE
  5
4E
330
1F
100
AcDbEntity
  8
0
  6
SLD-Solid
 62
     7
370
    15
100
AcDbLine
 10
613.8451225324
 20
773.9616180932
 30
0.0
 11
613.8451225324
 21
773.4616189425
 31
0.0
  0
LINE
  5
4F
330
1F
100
AcDbEntity
  8
0
  6
SLD-Solid
 62
     7
370
    15
100
AcDbLine
 10
1173.24511476
 20
773.4616189425
 30
0.0
 11
1173.24511476
 21
773.9616180932
 31
0.0
  0
LINE
  5
50
330
1F
100
AcDbEntity
  8
0
  6
SLD-Solid
 62
     7
370
    15
100
AcDbLine
 10
1162.8451175256
 20
773.9616180932
 30
0.0
 11
1162.8451175256
 21
773.4616189425
 31
0.0
  0
LINE
  5
51
330
1F
100
AcDbEntity
  8
0
  6
SLD-Solid
 62
     7
370
    15
100
AcDbLine
 10
1304.1201061769
 20
1504.5753619795
 30
0.0
 11
1304.1201061769
 21
1500.7126233702
 31
0.0
  0
LINE
  5
52
330
1F
100
AcDbEntity
  8
0
  6
SLD-Solid
 62
     7
370
    15
100
AcDbLine
 10
1315.8701188131
 20
1500.7126233702
 30
0.0
 11
1315.8701188131
 21
1504.5753619795
 31
0.0
  0
LINE
  5
53
330
1F
100
AcDbEntity
  8
0
  6
SLD-Solid
 62
     7
370
    15
100
AcDbLine
 10
1302.0950979753
 20
1500.5581281309
 30
0.0
 11
1302.0950979753
 21
1499.3220470076
 31
0.0
  0
LINE
  5
54
330
1F
100
AcDbEntity
  8
0
  6
SLD-Solid
 62
     7
370
    15
100
AcDbLine
 10
1317.8950972124
 20
1499.3220470076
 30
0.0
 11
1317.8950972124
 21
1500.5581281309
 31
0.0
  0
LINE
  5
55
330
1F
100
AcDbEntity
  8
0
  6
SLD-Solid
 62
     7
370
    15
100
AcDbLine
 10
1300.0201112791
 20
1499.3220470076
 30
0.0
 11
1300.0201112791
 21
1498.3950159674
 31
0.0
  0
LINE
  5
56
330
1F
100
AcDbEntity
  8
0
  6
SLD-Solid
 62
     7
370
    15
100
AcDbLine
 10
1319.9701137109
 20
1498.3950159674
 30
0.0
 11
1319.9701137109
 21
1499.3220470076
 31
0.0
  0
LINE
  5
57
330
1F
100
AcDbEntity
  8
0
  6
SLD-Solid
 62
     7
370
    15
100
AcDbLine
 10
1017.995109336
 20
1452.9426596289
 30
0.0
 11
1017.995109336
 21
1452.933242095
 31
0.0
  0
LINE
  5
58
330
1F
100
AcDbEntity
  8
0
  6
SLD-Solid
 62
     7
370
    15
100
AcDbLine
 10
1022.9951120182
 20
1452.933242095
 30
0.0
 11
1022.9951120182
 21
1452.9426596289
 31
0.0
  0
ARC
  5
59
330
1F
100
AcDbEntity
  8
0
  6
SLD-Solid
 62
     7
370
    15
100
AcDbCircle
 10
1006.1299151901
 20
1499.0541633099
 30
0.0
 40
0.9999999999998461
100
AcDbArc
 50
10.3016237991
 51
15.1243958777
  0
ARC
  5
5A
330
1F
100
AcDbEntity
  8
0
  6
SLD-Solid
 62
     7
370
    15
100
AcDbCircle
 10
984.8603086693
 20
1499.0541633099
 30
0.0
 40
0.999999999999958
100
AcDbArc
 50
164.8756041223
 51
169.6983762009
  0
ARC
  5
5B
330
1F
100
AcDbEntity
  8
0
  6
SLD-Solid
 62
     7
370
    15
100
AcDbCircle
 10
994.9951119297
 20
1532.4374165509
 30
0.0
 40
1.0
100
AcDbArc
 50
180.0
 51
229.7562252182
  0
ARC
  5
5C
330
1F
100
AcDbEntity
  8
0
  6
SLD-Solid
 62
     7
370
    15
100
AcDbCircle
 10
995.9951119297
 20
1532.4374165509
 30
0.0
 40
1.0
100
AcDbArc
 50
306.6480530193
 51
0.0
  0
ARC
  5
5D
330
1F
100
AcDbEntity
  8
0
  6
SLD-Solid
 62
     7
370
    15
100
AcDbCircle
 10
1295.1696560399
 20
1542.636162144
 30
0.0
 40
0.9745441101795222
100
AcDbArc
 50
180.0
 51
270.0
  0
LINE
  5
5E
330
1F
100
AcDbEntity
  8
0
  6
SLD-Solid
 62
     7
370
    15
100
AcDbLine
 10
1295.6899530454
 20
1541.6616103773
 30
0.0
 11
1295.1696641012
 21
1541.6616103773
 31
0.0
  0
LINE
  5
5F
330
1F
100
AcDbEntity
  8
0
  6
SLD-Solid
 62
     7
370
    15
100
AcDbLine
 10
1343.4951133295
 20
1644.9910900717
 30
0.0
 11
443.495107369
 21
1644.9910900717
 31
0.0
  0
ARC
  5
60
330
1F
100
AcDbEntity
  8
0
  6
SLD-Solid
 62
     7
370
    15
100
AcDbCircle
 10
546.0451119297
 20
290.1616180338
 30
0.0
 40
2.0
100
AcDbArc
 50
270.0
 51
0.0
  0
ARC
  5
61
330
1F
100
AcDbEntity
  8
0
  6
SLD-Solid
 62
     7
370
    15
100
AcDbCircle
 10
493.0451119297
 20
290.1616180338
 30
0.0
 40
2.0
100
AcDbArc
 50
180.0
 51
270.0
  0
LINE
  5
62
330
1F
100
AcDbEntity
  8
0
  6
SLD-Solid
 62
     7
370
    15
100
AcDbLine
 10
548.0451113744
 20
290.1615998869
 30
0.0
 11
548.0451113744
 21
294.1616079932
 31
0.0
  0
LINE
  5
63
330
1F
100
AcDbEntity
  8
0
  6
SLD-Solid
 62
     7
370
    15
100
AcDbLine
 10
491.0451001688
 20
294.1616079932
 30
0.0
 11
491.0451001688
 21
290.1615998869
 31
0.0
  0
LINE
  5
64
330
1F
100
AcDbEntity
  8
0
  6
SLD-Solid
 62
     7
370
    15
100
AcDbLine
 10
1296.0451073213
 20
290.1615998869
 30
0.0
 11
1296.0451073213
 21
294.1616079932
 31
0.0
  0
LINE
  5
65
330
1F
100
AcDbEntity
  8
0
  6
SLD-Solid
 62
     7
370
    15
100
AcDbLine
 10
1239.045125918
 20
294.1616079932
 30
0.0
 11
1239.045125918
 21
290.1615998869
 31
0.0
  0
ARC
  5
66
330
1F
100
AcDbEntity
  8
0
  6
SLD-Solid
 62
     7
370
    15
100
AcDbCircle
 10
1294.0451119297
 20
290.1616180338
 30
0.0
 40
2.0
100
AcDbArc
 50
270.0
 51
0.0
  0
ARC
  5
67
330
1F
100
AcDbEntity
  8
0
  6
SLD-Solid
 62
     7
370
    15
100
AcDbCircle
 10
1241.0451119297
 20
290.1616180338
 30
0.0
 40
2.0
100
AcDbArc
 50
180.0
 51
270.0
  0
LINE
  5
68
330
1F
100
AcDbEntity
  8
0
  6
SLD-Solid
 62
     7
370
    15
100
AcDbLine
 10
547.8451079889
 20
294.1616079932
 30
0.0
 11
547.8451079889
 21
362.1616265898
 31
0.0
  0
LINE
  5
69
330
1F
100
AcDbEntity
  8
0
  6
SLD-Solid
 62
     7
370
    15
100
AcDbLine
 10
491.2451035543
 20
362.1616265898
 30
0.0
 11
491.2451035543
 21
294.1616079932
 31
0.0
  0
LINE
  5
6A
330
1F
100
AcDbEntity
  8
0
  6
SLD-Solid
 62
     7
370
    15
100
AcDbLine
 10
1295.8451039358
 20
294.1616079932
 30
0.0
 11
1295.8451039358
 21
362.1616265898
 31
0.0
  0
LINE
  5
6B
330
1F
100
AcDbEntity
  8
0
  6
SLD-Solid
 62
     7
370
    15
100
AcDbLine
 10
1239.2450995012
 20
362.1616265898
 30
0.0
 11
1239.2450995012
 21
294.1616079932
 31
0.0
  0
ARC
  5
6C
330
1F
100
AcDbEntity
  8
0
  6
SLD-Solid
 62
     7
370
    15
100
AcDbCircle
 10
1300.9451119297
 20
454.6616180338
 30
0.0
 40
1.500000000000057
100
AcDbArc
 50
90.0
 51
180.0
  0
ARC
  5
6D
330
1F
100
AcDbEntity
  8
0
  6
SLD-Solid
 62
     7
370
    15
100
AcDbCircle
 10
1234.1451119297
 20
454.6616180338
 30
0.0
 40
1.500000000000057
100
AcDbArc
 50
0.0
 51
90.0
  0
ARC
  5
6E
330
1F
100
AcDbEntity
  8
0
  6
SLD-Solid
 62
     7
370
    15
100
AcDbCircle
 10
1294.7451119297
 20
368.1941839795
 30
0.0
 40
4.700000000000045
100
AcDbArc
 50
350.5402980318
 51
0.0
  0
ARC
  5
6F
330
1F
100
AcDbEntity
  8
0
  6
SLD-Solid
 62
     7
370
    15
100
AcDbCircle
 10
1240.3451119297
 20
368.1941839795
 30
0.0
 40
4.700000000000045
100
AcDbArc
 50
180.0
 51
189.4597019682
  0
LINE
  5
70
330
1F
100
AcDbEntity
  8
0
  6
SLD-Solid
 62
     7
370
    15
100
AcDbLine
 10
1299.4451052709
 20
368.1941828852
 30
0.0
 11
1299.4451052709
 21
454.6616277819
 31
0.0
  0
LINE
  5
71
330
1F
100
AcDbEntity
  8
0
  6
SLD-Solid
 62
     7
370
    15
100
AcDbLine
 10
1235.6450981661
 20
454.6616277819
 30
0.0
 11
1235.6450981661
 21
368.1941828852
 31
0.0
  0
LINE
  5
72
330
1F
100
AcDbEntity
  8
0
  6
SLD-Solid
 62
     7
370
    15
100
AcDbLine
 10
1235.7090241476
 20
367.4217066889
 30
0.0
 11
1236.5854508444
 21
362.1616265898
 31
0.0
  0
LINE
  5
73
330
1F
100
AcDbEntity
  8
0
  6
SLD-Solid
 62
     7
370
    15
100
AcDbLine
 10
1298.5047525926
 20
362.1616265898
 30
0.0
 11
1299.3812090917
 21
367.4217066889
 31
0.0
  0
ARC
  5
74
330
1F
100
AcDbEntity
  8
0
  6
SLD-Solid
 62
     7
370
    15
100
AcDbCircle
 10
552.9451119297
 20
454.6616180338
 30
0.0
 40
1.5
100
AcDbArc
 50
90.0
 51
180.0
  0
ARC
  5
75
330
1F
100
AcDbEntity
  8
0
  6
SLD-Solid
 62
     7
370
    15
100
AcDbCircle
 10
486.1451119297
 20
454.6616180338
 30
0.0
 40
1.5
100
AcDbArc
 50
0.0
 51
90.0
  0
LINE
  5
76
330
1F
100
AcDbEntity
  8
0
  6
SLD-Solid
 62
     7
370
    15
100
AcDbLine
 10
551.445109324
 20
368.1941828852
 30
0.0
 11
551.445109324
 21
454.6616277819
 31
0.0
  0
LINE
  5
77
330
1F
100
AcDbEntity
  8
0
  6
SLD-Solid
 62
     7
370
    15
100
AcDbLine
 10
487.6451022192
 20
454.6616277819
 30
0.0
 11
487.6451022192
 21
368.1941828852
 31
0.0
  0
ARC
  5
78
330
1F
100
AcDbEntity
  8
0
  6
SLD-Solid
 62
     7
370
    15
100
AcDbCircle
 10
546.7451119297
 20
368.1941839795
 30
0.0
 40
4.700000000000045
100
AcDbArc
 50
350.5402980318
 51
0.0
  0
ARC
  5
79
330
1F
100
AcDbEntity
  8
0
  6
SLD-Solid
 62
     7
370
    15
100
AcDbCircle
 10
492.3451119297
 20
368.1941839795
 30
0.0
 40
4.7
100
AcDbArc
 50
180.0
 51
189.4597019682
  0
LINE
  5
7A
330
1F
100
AcDbEntity
  8
0
  6
SLD-Solid
 62
     7
370
    15
100
AcDbLine
 10
487.7090282007
 20
367.4217066889
 30
0.0
 11
488.5854548975
 21
362.1616265898
 31
0.0
  0
LINE
  5
7B
330
1F
100
AcDbEntity
  8
0
  6
SLD-Solid
 62
     7
370
    15
100
AcDbLine
 10
550.5047566457
 20
362.1616265898
 30
0.0
 11
551.3812131448
 21
367.4217066889
 31
0.0
  0
LINE
  5
7C
330
1F
100
AcDbEntity
  8
0
  6
SLD-Solid
 62
     7
370
    15
100
AcDbLine
 10
948.4951137765
 20
1415.7616398459
 30
0.0
 11
838.4951106473
 21
1415.7616398459
 31
0.0
  0
LWPOLYLINE
  5
7D
330
1F
100
AcDbEntity
  8
0
  6
SLD-Solid
 62
     7
370
    15
100
AcDbPolyline
 90
       12
 70
   128
 43
0.0
 10
1106.4246869846
 20
1368.6720631247
 10
1105.511484222
 20
1368.6378500586
 10
1098.3962691589
 20
1368.5192368155
 10
1090.84890552
 20
1368.5347936278
 10
1077.5736547275
 20
1368.5499928122
 10
1055.5579043193
 20
1368.5504696493
 10
1029.3369419141
 20
1368.5509464865
 10
1003.087607698
 20
1368.5512445097
 10
976.8151617809
 20
1368.5514829283
 10
950.5212134882
 20
1368.551542533
 10
942.8740642234
 20
1368.5657880431
 10
938.0490011736
 20
1368.7277934676
  0
LWPOLYLINE
  5
7E
330
1F
100
AcDbEntity
  8
0
  6
SLD-Solid
 62
     7
370
    15
100
AcDbPolyline
 90
       12
 70
   128
 43
0.0
 10
938.0481629832
 20
1339.2106197005
 10
940.9570261105
 20
1339.3127820616
 10
949.3230856224
 20
1339.4071362143
 10
957.8983462616
 20
1339.3722674971
 10
978.7495336695
 20
1339.3717310553
 10
1003.5220734044
 20
1339.3719694739
 10
1029.7711617513
 20
1339.3723271017
 10
1055.9912151857
 20
1339.3728039389
 10
1082.1794844433
 20
1339.3733999853
 10
1095.2605135008
 20
1339.3737576132
 10
1102.3679352565
 20
1339.3671414976
 10
1106.4234650894
 20
1339.2265341406
  0
ARC
  5
7F
330
1F
100
AcDbEntity
  8
0
  6
SLD-Solid
 62
     7
370
    15
100
AcDbCircle
 10
931.0504028781
 20
1489.0758412529
 30
0.0
 40
120.5798904631693
100
AcDbArc
 50
268.1568324045
 51
272.6769932836
  0
ARC
  5
80
330
1F
100
AcDbEntity
  8
0
  6
SLD-Solid
 62
     7
370
    15
100
AcDbCircle
 10
931.3038346169
 20
1251.3046268997
 30
0.0
 40
88.15711269471366
100
AcDbArc
 50
86.5124582449
 51
92.6861350688
  0
LWPOLYLINE
  5
81
330
1F
100
AcDbEntity
  8
0
  6
SLD-Solid
 62
     7
370
    15
100
AcDbPolyline
 90
        8
 70
   128
 43
0.0
 10
1107.8880555196
 20
1339.3495581274
 10
1108.0010808273
 20
1339.3709561949
 10
1108.2308567329
 20
1339.4061229353
 10
1109.2199511095
 20
1339.483370555
 10
1110.4017622038
 20
1339.4822976714
 10
1111.9682020708
 20
1339.4272825842
 10
1113.8284630342
 20
1339.3836519842
 10
1114.2940647169
 20
1339.383532775
  0
ARC
  5
82
330
1F
100
AcDbEntity
  8
0
  6
SLD-Solid
 62
     7
370
    15
100
AcDbCircle
 10
1111.2648861439
 20
1401.7066380139
 30
0.0
 40
33.3046933529468
100
AcDbArc
 50
264.1823907974
 51
275.1490674345
  0
LWPOLYLINE
  5
83
330
1F
100
AcDbEntity
  8
0
  6
SLD-Solid
 62
     7
370
    15
100
AcDbPolyline
 90
       12
 70
   128
 43
0.0
 10
680.5519885584
 20
1339.2512104636
 10
681.465191321
 20
1339.285363925
 10
688.5804063841
 20
1339.4040367728
 10
696.1277700229
 20
1339.3884203558
 10
709.4030208154
 20
1339.3732807761
 10
731.4187712236
 20
1339.3728039389
 10
757.6397336288
 20
1339.3723271017
 10
783.8890752955
 20
1339.3719694739
 10
810.1615137621
 20
1339.3717310553
 10
836.4554657801
 20
1339.3716714506
 10
844.1026113196
 20
1339.3574259405
 10
848.9276780947
 20
1339.1954801207
  0
LWPOLYLINE
  5
84
330
1F
100
AcDbEntity
  8
0
  6
SLD-Solid
 62
     7
370
    15
100
AcDbPolyline
 90
       12
 70
   128
 43
0.0
 10
848.9285125597
 20
1368.7125942831
 10
846.0196531578
 20
1368.6104915266
 10
837.6535936459
 20
1368.516137374
 10
829.078336732
 20
1368.5510060912
 10
808.227149324
 20
1368.5514829283
 10
783.4546095892
 20
1368.5512445097
 10
757.2055286928
 20
1368.5508868819
 10
730.9854603573
 20
1368.5504696493
 10
704.7971910997
 20
1368.5498736029
 10
691.7161620422
 20
1368.549515975
 10
684.6087402864
 20
1368.5561320906
 10
680.5532104536
 20
1368.696679843
  0
ARC
  5
85
330
1F
100
AcDbEntity
  8
0
  6
SLD-Solid
 62
     7
370
    15
100
AcDbCircle
 10
855.9258007847
 20
1218.9127334001
 30
0.0
 40
120.5145789355499
100
AcDbArc
 50
88.1556069431
 51
92.6782187451
  0
ARC
  5
86
330
1F
100
AcDbEntity
  8
0
  6
SLD-Solid
 62
     7
370
    15
100
AcDbCircle
 10
855.6728972105
 20
1456.5474779419
 30
0.0
 40
88.08607928217073
100
AcDbArc
 50
266.5096056984
 51
272.6882685578
  0
LWPOLYLINE
  5
87
330
1F
100
AcDbEntity
  8
0
  6
SLD-Solid
 62
     7
370
    15
100
AcDbPolyline
 90
        8
 70
   128
 43
0.0
 10
679.0886200233
 20
1368.5736558562
 10
678.9755947157
 20
1368.5523173933
 10
678.74581881
 20
1368.5170910483
 10
677.7567244335
 20
1368.4399030333
 10
676.5749133392
 20
1368.4409163123
 10
675.0084883733
 20
1368.495991004
 10
673.1482125087
 20
1368.539621604
 10
672.6826108261
 20
1368.5396812086
  0
ARC
  5
88
330
1F
100
AcDbEntity
  8
0
  6
SLD-Solid
 62
     7
370
    15
100
AcDbCircle
 10
675.7116063925
 20
1306.238415881
 30
0.0
 40
33.28298456199504
100
AcDbArc
 50
84.1782664869
 51
95.1521186687
  0
LINE
  5
89
330
1F
100
AcDbEntity
  8
0
  6
SLD-Solid
 62
     7
370
    15
100
AcDbLine
 10
1335.995120482
 20
1404.4616124754
 30
0.0
 11
1335.995120482
 21
1405.9616229658
 31
0.0
  0
LINE
  5
8A
330
1F
100
AcDbEntity
  8
0
  6
SLD-Solid
 62
     7
370
    15
100
AcDbLine
 10
1318.9951009317
 20
1405.9616229658
 30
0.0
 11
1318.9951009317
 21
1404.4616124754
 31
0.0
  0
LINE
  5
8B
330
1F
100
AcDbEntity
  8
0
  6
SLD-Solid
 62
     7
370
    15
100
AcDbLine
 10
1318.9951009317
 20
1404.4616124754
 30
0.0
 11
1319.2951209112
 21
1404.1616222983
 31
0.0
  0
LINE
  5
8C
330
1F
100
AcDbEntity
  8
0
  6
SLD-Solid
 62
     7
370
    15
100
AcDbLine
 10
1335.495097117
 20
1403.9615891104
 30
0.0
 11
1335.995120482
 21
1404.4616124754
 31
0.0
  0
LINE
  5
8D
330
1F
100
AcDbEntity
  8
0
  6
SLD-Solid
 62
     7
370
    15
100
AcDbLine
 10
1335.995120482
 20
1405.9616229658
 30
0.0
 11
1335.495097117
 21
1406.4616463309
 31
0.0
  0
LINE
  5
8E
330
1F
100
AcDbEntity
  8
0
  6
SLD-Solid
 62
     7
370
    15
100
AcDbLine
 10
1319.4951242967
 20
1406.4616463309
 30
0.0
 11
1318.9951009317
 21
1405.9616229658
 31
0.0
  0
LINE
  5
8F
330
1F
100
AcDbEntity
  8
0
  6
SLD-Solid
 62
     7
370
    15
100
AcDbLine
 10
1335.995120482
 20
879.4616214161
 30
0.0
 11
1335.495097117
 21
879.9616149788
 31
0.0
  0
LINE
  5
90
330
1F
100
AcDbEntity
  8
0
  6
SLD-Solid
 62
     7
370
    15
100
AcDbLine
 10
1319.4951242967
 20
879.9616149788
 30
0.0
 11
1318.9951009317
 21
879.4616214161
 31
0.0
  0
LINE
  5
91
330
1F
100
AcDbEntity
  8
0
  6
SLD-Solid
 62
     7
370
    15
100
AcDbLine
 10
1318.9951009317
 20
877.9616183763
 30
0.0
 11
1319.4951242967
 21
877.461617363
 31
0.0
  0
LINE
  5
92
330
1F
100
AcDbEntity
  8
0
  6
SLD-Solid
 62
     7
370
    15
100
AcDbLine
 10
1335.495097117
 20
877.461617363
 30
0.0
 11
1335.995120482
 21
877.9616183763
 31
0.0
  0
LINE
  5
93
330
1F
100
AcDbEntity
  8
0
  6
SLD-Solid
 62
     7
370
    15
100
AcDbLine
 10
1318.9951009317
 20
879.4616214161
 30
0.0
 11
1318.9951009317
 21
877.9616183763
 31
0.0
  0
LINE
  5
94
330
1F
100
AcDbEntity
  8
0
  6
SLD-Solid
 62
     7
370
    15
100
AcDbLine
 10
1335.995120482
 20
877.9616183763
 30
0.0
 11
1335.995120482
 21
879.4616214161
 31
0.0
  0
LINE
  5
95
330
1F
100
AcDbEntity
  8
0
  6
SLD-Solid
 62
     7
370
    15
100
AcDbLine
 10
467.9951197668
 20
879.4616214161
 30
0.0
 11
467.4951262041
 21
879.9616149788
 31
0.0
  0
LINE
  5
96
330
1F
100
AcDbEntity
  8
0
  6
SLD-Solid
 62
     7
370
    15
100
AcDbLine
 10
451.4951235815
 20
879.9616149788
 30
0.0
 11
450.9951002165
 21
879.4616214161
 31
0.0
  0
LINE
  5
97
330
1F
100
AcDbEntity
  8
0
  6
SLD-Solid
 62
     7
370
    15
100
AcDbLine
 10
450.9951002165
 20
877.9616183763
 30
0.0
 11
451.4951235815
 21
877.461617363
 31
0.0
  0
LINE
  5
98
330
1F
100
AcDbEntity
  8
0
  6
SLD-Solid
 62
     7
370
    15
100
AcDbLine
 10
467.4951262041
 20
877.461617363
 30
0.0
 11
467.9951197668
 21
877.9616183763
 31
0.0
  0
LINE
  5
99
330
1F
100
AcDbEntity
  8
0
  6
SLD-Solid
 62
     7
370
    15
100
AcDbLine
 10
450.9951002165
 20
879.4616214161
 30
0.0
 11
450.9951002165
 21
877.9616183763
 31
0.0
  0
LINE
  5
9A
330
1F
100
AcDbEntity
  8
0
  6
SLD-Solid
 62
     7
370
    15
100
AcDbLine
 10
467.9951197668
 20
877.9616183763
 30
0.0
 11
467.9951197668
 21
879.4616214161
 31
0.0
  0
LINE
  5
9B
330
1F
100
AcDbEntity
  8
0
  6
SLD-Solid
 62
     7
370
    15
100
AcDbLine
 10
467.9951197668
 20
1405.9616229658
 30
0.0
 11
467.4951262041
 21
1406.4616463309
 31
0.0
  0
LINE
  5
9C
330
1F
100
AcDbEntity
  8
0
  6
SLD-Solid
 62
     7
370
    15
100
AcDbLine
 10
451.4951235815
 20
1406.4616463309
 30
0.0
 11
450.9951002165
 21
1405.9616229658
 31
0.0
  0
LINE
  5
9D
330
1F
100
AcDbEntity
  8
0
  6
SLD-Solid
 62
     7
370
    15
100
AcDbLine
 10
450.9951002165
 20
1404.4616124754
 30
0.0
 11
451.4951235815
 21
1403.9615891104
 31
0.0
  0
LINE
  5
9E
330
1F
100
AcDbEntity
  8
0
  6
SLD-Solid
 62
     7
370
    15
100
AcDbLine
 10
467.4951262041
 20
1403.9615891104
 30
0.0
 11
467.9951197668
 21
1404.4616124754
 31
0.0
  0
LINE
  5
9F
330
1F
100
AcDbEntity
  8
0
  6
SLD-Solid
 62
     7
370
    15
100
AcDbLine
 10
467.9951197668
 20
1404.4616124754
 30
0.0
 11
467.9951197668
 21
1405.9616229658
 31
0.0
  0
LINE
  5
A0
330
1F
100
AcDbEntity
  8
0
  6
SLD-Solid
 62
     7
370
    15
100
AcDbLine
 10
450.9951002165
 20
1405.9616229658
 30
0.0
 11
450.9951002165
 21
1404.4616124754
 31
0.0
  0
LINE
  5
A1
330
1F
100
AcDbEntity
  8
0
  6
SLD-Solid
 62
     7
370
    15
100
AcDbLine
 10
463.3951015039
 20
874.4616187339
 30
0.0
 11
463.3951015039
 21
874.9616197472
 31
0.0
  0
LINE
  5
A2
330
1F
100
AcDbEntity
  8
0
  6
SLD-Solid
 62
     7
370
    15
100
AcDbLine
 10
455.5951184793
 20
874.9616197472
 30
0.0
 11
455.5951184793
 21
874.4616187339
 31
0.0
  0
LINE
  5
A3
330
1F
100
AcDbEntity
  8
0
  6
SLD-Solid
 62
     7
370
    15
100
AcDbLine
 10
1331.3951022192
 20
874.4616187339
 30
0.0
 11
1331.3951022192
 21
874.9616197472
 31
0.0
  0
LINE
  5
A4
330
1F
100
AcDbEntity
  8
0
  6
SLD-Solid
 62
     7
370
    15
100
AcDbLine
 10
1323.5951191946
 20
874.9616197472
 30
0.0
 11
1323.5951191946
 21
874.4616187339
 31
0.0
  0
LINE
  5
A5
330
1F
100
AcDbEntity
  8
0
  6
SLD-Solid
 62
     7
370
    15
100
AcDbLine
 10
454.49511476
 20
1407.2616002684
 30
0.0
 11
454.49511476
 21
1406.4616463309
 31
0.0
  0
LINE
  5
A6
330
1F
100
AcDbEntity
  8
0
  6
SLD-Solid
 62
     7
370
    15
100
AcDbLine
 10
464.4951052232
 20
1406.4616463309
 30
0.0
 11
464.4951052232
 21
1407.2616002684
 31
0.0
  0
LINE
  5
A7
330
1F
100
AcDbEntity
  8
0
  6
SLD-Solid
 62
     7
370
    15
100
AcDbLine
 10
455.5951184793
 20
1410.2616212492
 30
0.0
 11
455.5951184793
 21
1409.7615978842
 31
0.0
  0
LINE
  5
A8
330
1F
100
AcDbEntity
  8
0
  6
SLD-Solid
 62
     7
370
    15
100
AcDbLine
 10
463.3951015039
 20
1409.7615978842
 30
0.0
 11
463.3951015039
 21
1410.2616212492
 31
0.0
  0
LINE
  5
A9
330
1F
100
AcDbEntity
  8
0
  6
SLD-Solid
 62
     7
370
    15
100
AcDbLine
 10
1322.4951154752
 20
1407.2616002684
 30
0.0
 11
1322.4951154752
 21
1406.4616463309
 31
0.0
  0
LINE
  5
AA
330
1F
100
AcDbEntity
  8
0
  6
SLD-Solid
 62
     7
370
    15
100
AcDbLine
 10
1332.4951059385
 20
1406.4616463309
 30
0.0
 11
1332.4951059385
 21
1407.2616002684
 31
0.0
  0
LINE
  5
AB
330
1F
100
AcDbEntity
  8
0
  6
SLD-Solid
 62
     7
370
    15
100
AcDbLine
 10
1323.5951191946
 20
1410.2616212492
 30
0.0
 11
1323.5951191946
 21
1409.7615978842
 31
0.0
  0
LINE
  5
AC
330
1F
100
AcDbEntity
  8
0
  6
SLD-Solid
 62
     7
370
    15
100
AcDbLine
 10
1331.3951022192
 20
1409.7615978842
 30
0.0
 11
1331.3951022192
 21
1410.2616212492
 31
0.0
  0
LINE
  5
AD
330
1F
100
AcDbEntity
  8
0
  6
SLD-Solid
 62
     7
370
    15
100
AcDbLine
 10
489.7451228662
 20
458.1616125231
 30
0.0
 11
489.7451228662
 21
458.6616060858
 31
0.0
  0
LINE
  5
AE
330
1F
100
AcDbEntity
  8
0
  6
SLD-Solid
 62
     7
370
    15
100
AcDbLine
 10
479.3451256319
 20
458.6616060858
 30
0.0
 11
479.3451256319
 21
458.1616125231
 31
0.0
  0
LINE
  5
AF
330
1F
100
AcDbEntity
  8
0
  6
SLD-Solid
 62
     7
370
    15
100
AcDbLine
 10
559.7451157137
 20
458.1616125231
 30
0.0
 11
559.7451157137
 21
458.6616060858
 31
0.0
  0
LINE
  5
B0
330
1F
100
AcDbEntity
  8
0
  6
SLD-Solid
 62
     7
370
    15
100
AcDbLine
 10
549.3451184793
 20
458.6616060858
 30
0.0
 11
549.3451184793
 21
458.1616125231
 31
0.0
  0
LINE
  5
B1
330
1F
100
AcDbEntity
  8
0
  6
SLD-Solid
 62
     7
370
    15
100
AcDbLine
 10
1307.7451116605
 20
458.1616125231
 30
0.0
 11
1307.7451116605
 21
458.6616060858
 31
0.0
  0
LINE
  5
B2
330
1F
100
AcDbEntity
  8
0
  6
SLD-Solid
 62
     7
370
    15
100
AcDbLine
 10
1297.3451144262
 20
458.6616060858
 30
0.0
 11
1297.3451144262
 21
458.1616125231
 31
0.0
  0
LINE
  5
B3
330
1F
100
AcDbEntity
  8
0
  6
SLD-Solid
 62
     7
370
    15
100
AcDbLine
 10
1237.7451188131
 20
458.1616125231
 30
0.0
 11
1237.7451188131
 21
458.6616060858
 31
0.0
  0
LINE
  5
B4
330
1F
100
AcDbEntity
  8
0
  6
SLD-Solid
 62
     7
370
    15
100
AcDbLine
 10
1227.3451215788
 20
458.6616060858
 30
0.0
 11
1227.3451215788
 21
458.1616125231
 31
0.0
  0
LINE
  5
B5
330
1F
100
AcDbEntity
  8
0
  6
SLD-Solid
 62
     7
370
    15
100
AcDbLine
 10
505.0450987383
 20
534.6616110926
 30
0.0
 11
505.0450987383
 21
524.2616138583
 31
0.0
  0
LINE
  5
B6
330
1F
100
AcDbEntity
  8
0
  6
SLD-Solid
 62
     7
370
    15
100
AcDbLine
 10
1282.0451087518
 20
524.2616138583
 30
0.0
 11
1282.0451087518
 21
534.6616110926
 31
0.0
  0
LINE
  5
B7
330
1F
100
AcDbEntity
  8
0
  6
SLD-Solid
 62
     7
370
    15
100
AcDbLine
 10
1321.5451068445
 20
872.4616146808
 30
0.0
 11
1321.5451068445
 21
874.9616197472
 31
0.0
  0
LINE
  5
B8
330
1F
100
AcDbEntity
  8
0
  6
SLD-Solid
 62
     7
370
    15
100
AcDbLine
 10
1319.0451092287
 20
872.4616146808
 30
0.0
 11
1321.5451068445
 21
872.4616146808
 31
0.0
  0
LINE
  5
B9
330
1F
100
AcDbEntity
  8
0
  6
SLD-Solid
 62
     7
370
    15
100
AcDbLine
 10
1283.5451192423
 20
872.4616146808
 30
0.0
 11
1283.5451192423
 21
874.9616197472
 31
0.0
  0
LINE
  5
BA
330
1F
100
AcDbEntity
  8
0
  6
SLD-Solid
 62
     7
370
    15
100
AcDbLine
 10
1283.5451192423
 20
872.4616146808
 30
0.0
 11
1286.0451168581
 21
872.4616146808
 31
0.0
  0
LINE
  5
BB
330
1F
100
AcDbEntity
  8
0
  6
SLD-Solid
 62
     7
370
    15
100
AcDbLine
 10
1286.0451168581
 20
872.4616146808
 30
0.0
 11
1319.0451092287
 21
872.4616146808
 31
0.0
  0
LINE
  5
BC
330
1F
100
AcDbEntity
  8
0
  6
SLD-Solid
 62
     7
370
    15
100
AcDbLine
 10
465.5451006456
 20
872.4616146808
 30
0.0
 11
468.0450982614
 21
872.4616146808
 31
0.0
  0
LINE
  5
BD
330
1F
100
AcDbEntity
  8
0
  6
SLD-Solid
 62
     7
370
    15
100
AcDbLine
 10
465.5451006456
 20
872.4616146808
 30
0.0
 11
465.5451006456
 21
874.9616197472
 31
0.0
  0
LINE
  5
BE
330
1F
100
AcDbEntity
  8
0
  6
SLD-Solid
 62
     7
370
    15
100
AcDbLine
 10
468.0450982614
 20
872.4616146808
 30
0.0
 11
501.0451204343
 21
872.4616146808
 31
0.0
  0
LINE
  5
BF
330
1F
100
AcDbEntity
  8
0
  6
SLD-Solid
 62
     7
370
    15
100
AcDbLine
 10
503.5451180502
 20
872.4616146808
 30
0.0
 11
503.5451180502
 21
874.9616197472
 31
0.0
  0
LINE
  5
C0
330
1F
100
AcDbEntity
  8
0
  6
SLD-Solid
 62
     7
370
    15
100
AcDbLine
 10
501.0451204343
 20
872.4616146808
 30
0.0
 11
503.5451180502
 21
872.4616146808
 31
0.0
  0
LINE
  5
C1
330
1F
100
AcDbEntity
  8
0
  6
SLD-Solid
 62
     7
370
    15
100
AcDbLine
 10
464.5451135202
 20
872.4616146808
 30
0.0
 11
464.5451135202
 21
499.4616112833
 31
0.0
  0
LINE
  5
C2
330
1F
100
AcDbEntity
  8
0
  6
SLD-Solid
 62
     7
370
    15
100
AcDbLine
 10
464.5451135202
 20
872.4616146808
 30
0.0
 11
465.5451006456
 21
872.4616146808
 31
0.0
  0
LINE
  5
C3
330
1F
100
AcDbEntity
  8
0
  6
SLD-Solid
 62
     7
370
    15
100
AcDbLine
 10
503.5451180502
 20
872.4616146808
 30
0.0
 11
504.5451051756
 21
872.4616146808
 31
0.0
  0
LINE
  5
C4
330
1F
100
AcDbEntity
  8
0
  6
SLD-Solid
 62
     7
370
    15
100
AcDbLine
 10
504.5451051756
 20
872.4616146808
 30
0.0
 11
504.5451051756
 21
499.4616112833
 31
0.0
  0
LINE
  5
C5
330
1F
100
AcDbEntity
  8
0
  6
SLD-Solid
 62
     7
370
    15
100
AcDbLine
 10
1282.5451023145
 20
872.4616146808
 30
0.0
 11
1282.5451023145
 21
499.4616112833
 31
0.0
  0
LINE
  5
C6
330
1F
100
AcDbEntity
  8
0
  6
SLD-Solid
 62
     7
370
    15
100
AcDbLine
 10
1282.5451023145
 20
872.4616146808
 30
0.0
 11
1283.5451192423
 21
872.4616146808
 31
0.0
  0
LINE
  5
C7
330
1F
100
AcDbEntity
  8
0
  6
SLD-Solid
 62
     7
370
    15
100
AcDbLine
 10
1321.5451068445
 20
872.4616146808
 30
0.0
 11
1322.5451237722
 21
872.4616146808
 31
0.0
  0
LINE
  5
C8
330
1F
100
AcDbEntity
  8
0
  6
SLD-Solid
 62
     7
370
    15
100
AcDbLine
 10
1322.5451237722
 20
872.4616146808
 30
0.0
 11
1322.5451237722
 21
499.4616112833
 31
0.0
  0
LINE
  5
C9
330
1F
100
AcDbEntity
  8
0
  6
SLD-Solid
 62
     7
370
    15
100
AcDbLine
 10
624.2451197668
 20
773.4616189425
 30
0.0
 11
613.8451225324
 21
773.4616189425
 31
0.0
  0
LINE
  5
CA
330
1F
100
AcDbEntity
  8
0
  6
SLD-Solid
 62
     7
370
    15
100
AcDbLine
 10
1173.24511476
 20
773.4616189425
 30
0.0
 11
1162.8451175256
 21
773.4616189425
 31
0.0
  0
LINE
  5
CB
330
1F
100
AcDbEntity
  8
0
  6
SLD-Solid
 62
     7
370
    15
100
AcDbLine
 10
507.2951144739
 20
811.9616187339
 30
0.0
 11
507.2951144739
 21
809.2116178175
 31
0.0
  0
LINE
  5
CC
330
1F
100
AcDbEntity
  8
0
  6
SLD-Solid
 62
     7
370
    15
100
AcDbLine
 10
1279.7951228185
 20
811.9616187339
 30
0.0
 11
507.2951144739
 21
811.9616187339
 31
0.0
  0
LINE
  5
CD
330
1F
100
AcDbEntity
  8
0
  6
SLD-Solid
 62
     7
370
    15
100
AcDbLine
 10
1279.7951228185
 20
809.2116178175
 30
0.0
 11
1279.7951228185
 21
811.9616187339
 31
0.0
  0
LINE
  5
CE
330
1F
100
AcDbEntity
  8
0
  6
SLD-Solid
 62
     7
370
    15
100
AcDbLine
 10
507.2951144739
 20
809.2116178175
 30
0.0
 11
506.045115666
 21
809.2116178175
 31
0.0
  0
LINE
  5
CF
330
1F
100
AcDbEntity
  8
0
  6
SLD-Solid
 62
     7
370
    15
100
AcDbLine
 10
1281.0451216264
 20
776.7116180783
 30
0.0
 11
1279.7951228185
 21
776.7116180783
 31
0.0
  0
LINE
  5
D0
330
1F
100
AcDbEntity
  8
0
  6
SLD-Solid
 62
     7
370
    15
100
AcDbLine
 10
1281.0451216264
 20
776.7116180783
 30
0.0
 11
1281.0451216264
 21
809.2116178175
 31
0.0
  0
LINE
  5
D1
330
1F
100
AcDbEntity
  8
0
  6
SLD-Solid
 62
     7
370
    15
100
AcDbLine
 10
506.045115666
 20
776.7116180783
 30
0.0
 11
506.045115666
 21
809.2116178175
 31
0.0
  0
LINE
  5
D2
330
1F
100
AcDbEntity
  8
0
  6
SLD-Solid
 62
     7
370
    15
100
AcDbLine
 10
507.2951144739
 20
776.7116180783
 30
0.0
 11
506.045115666
 21
776.7116180783
 31
0.0
  0
LINE
  5
D3
330
1F
100
AcDbEntity
  8
0
  6
SLD-Solid
 62
     7
370
    15
100
AcDbLine
 10
1281.0451216264
 20
809.2116178175
 30
0.0
 11
1279.7951228185
 21
809.2116178175
 31
0.0
  0
LINE
  5
D4
330
1F
100
AcDbEntity
  8
0
  6
SLD-Solid
 62
     7
370
    15
100
AcDbLine
 10
507.2951144739
 20
776.7116180783
 30
0.0
 11
507.2951144739
 21
773.9616180932
 31
0.0
  0
LINE
  5
D5
330
1F
100
AcDbEntity
  8
0
  6
SLD-Solid
 62
     7
370
    15
100
AcDbLine
 10
1279.7951228185
 20
773.9616180932
 30
0.0
 11
507.2951144739
 21
773.9616180932
 31
0.0
  0
LINE
  5
D6
330
1F
100
AcDbEntity
  8
0
  6
SLD-Solid
 62
     7
370
    15
100
AcDbLine
 10
1279.7951228185
 20
773.9616180932
 30
0.0
 11
1279.7951228185
 21
776.7116180783
 31
0.0
  0
LINE
  5
D7
330
1F
100
AcDbEntity
  8
0
  6
SLD-Solid
 62
     7
370
    15
100
AcDbLine
 10
506.045115666
 20
772.7116174226
 30
0.0
 11
504.5451051756
 21
772.7116174226
 31
0.0
  0
LINE
  5
D8
330
1F
100
AcDbEntity
  8
0
  6
SLD-Solid
 62
     7
370
    15
100
AcDbLine
 10
506.045115666
 20
748.9616177206
 30
0.0
 11
506.045115666
 21
772.7116174226
 31
0.0
  0
LINE
  5
D9
330
1F
100
AcDbEntity
  8
0
  6
SLD-Solid
 62
     7
370
    15
100
AcDbLine
 10
504.5451051756
 20
841.9616162007
 30
0.0
 11
506.045115666
 21
841.9616162007
 31
0.0
  0
LINE
  5
DA
330
1F
100
AcDbEntity
  8
0
  6
SLD-Solid
 62
     7
370
    15
100
AcDbLine
 10
506.045115666
 20
841.9616162007
 30
0.0
 11
506.045115666
 21
836.9616172438
 31
0.0
  0
LINE
  5
DB
330
1F
100
AcDbEntity
  8
0
  6
SLD-Solid
 62
     7
370
    15
100
AcDbLine
 10
1281.0451216264
 20
836.9616172438
 30
0.0
 11
1281.0451216264
 21
813.2116175418
 31
0.0
  0
LINE
  5
DC
330
1F
100
AcDbEntity
  8
0
  6
SLD-Solid
 62
     7
370
    15
100
AcDbLine
 10
1281.0451216264
 20
813.2116175418
 30
0.0
 11
1282.5451023145
 21
813.2116175418
 31
0.0
  0
LINE
  5
DD
330
1F
100
AcDbEntity
  8
0
  6
SLD-Solid
 62
     7
370
    15
100
AcDbLine
 10
506.045115666
 20
813.2116175418
 30
0.0
 11
506.045115666
 21
836.9616172438
 31
0.0
  0
LINE
  5
DE
330
1F
100
AcDbEntity
  8
0
  6
SLD-Solid
 62
     7
370
    15
100
AcDbLine
 10
506.045115666
 20
813.2116175418
 30
0.0
 11
504.5451051756
 21
813.2116175418
 31
0.0
  0
LINE
  5
DF
330
1F
100
AcDbEntity
  8
0
  6
SLD-Solid
 62
     7
370
    15
100
AcDbLine
 10
1281.0451216264
 20
772.7116174226
 30
0.0
 11
1282.5451023145
 21
772.7116174226
 31
0.0
  0
LINE
  5
E0
330
1F
100
AcDbEntity
  8
0
  6
SLD-Solid
 62
     7
370
    15
100
AcDbLine
 10
1281.0451216264
 20
772.7116174226
 30
0.0
 11
1281.0451216264
 21
748.9616177206
 31
0.0
  0
LINE
  5
E1
330
1F
100
AcDbEntity
  8
0
  6
SLD-Solid
 62
     7
370
    15
100
AcDbLine
 10
1281.0451216264
 20
841.9616162007
 30
0.0
 11
1282.5451023145
 21
841.9616162007
 31
0.0
  0
LINE
  5
E2
330
1F
100
AcDbEntity
  8
0
  6
SLD-Solid
 62
     7
370
    15
100
AcDbLine
 10
1281.0451216264
 20
836.9616172438
 30
0.0
 11
1281.0451216264
 21
841.9616162007
 31
0.0
  0
LINE
  5
E3
330
1F
100
AcDbEntity
  8
0
  6
SLD-Solid
 62
     7
370
    15
100
AcDbLine
 10
506.045115666
 20
743.9616187637
 30
0.0
 11
504.5451051756
 21
743.9616187637
 31
0.0
  0
LINE
  5
E4
330
1F
100
AcDbEntity
  8
0
  6
SLD-Solid
 62
     7
370
    15
100
AcDbLine
 10
506.045115666
 20
748.9616177206
 30
0.0
 11
506.045115666
 21
743.9616187637
 31
0.0
  0
LINE
  5
E5
330
1F
100
AcDbEntity
  8
0
  6
SLD-Solid
 62
     7
370
    15
100
AcDbLine
 10
1282.5451023145
 20
743.9616187637
 30
0.0
 11
1281.0451216264
 21
743.9616187637
 31
0.0
  0
LINE
  5
E6
330
1F
100
AcDbEntity
  8
0
  6
SLD-Solid
 62
     7
370
    15
100
AcDbLine
 10
1281.0451216264
 20
743.9616187637
 30
0.0
 11
1281.0451216264
 21
748.9616177206
 31
0.0
  0
ARC
  5
E7
330
1F
100
AcDbEntity
  8
0
  6
SLD-Solid
 62
     7
370
    15
100
AcDbCircle
 10
1279.7951119297
 20
813.2116180338
 30
0.0
 40
1.25
100
AcDbArc
 50
270.0
 51
0.0
  0
ARC
  5
E8
330
1F
100
AcDbEntity
  8
0
  6
SLD-Solid
 62
     7
370
    15
100
AcDbCircle
 10
1279.7951119297
 20
813.2116180338
 30
0.0
 40
2.75
100
AcDbArc
 50
270.0
 51
0.0
  0
ARC
  5
E9
330
1F
100
AcDbEntity
  8
0
  6
SLD-Solid
 62
     7
370
    15
100
AcDbCircle
 10
507.2951119297
 20
813.2116180338
 30
0.0
 40
1.25
100
AcDbArc
 50
180.0
 51
270.0
  0
ARC
  5
EA
330
1F
100
AcDbEntity
  8
0
  6
SLD-Solid
 62
     7
370
    15
100
AcDbCircle
 10
507.2951119297
 20
813.2116180338
 30
0.0
 40
2.750000000000057
100
AcDbArc
 50
180.0
 51
270.0
  0
ARC
  5
EB
330
1F
100
AcDbEntity
  8
0
  6
SLD-Solid
 62
     7
370
    15
100
AcDbCircle
 10
507.2951119297
 20
772.7116180338
 30
0.0
 40
2.750000000000057
100
AcDbArc
 50
90.0
 51
180.0
  0
ARC
  5
EC
330
1F
100
AcDbEntity
  8
0
  6
SLD-Solid
 62
     7
370
    15
100
AcDbCircle
 10
507.2951119297
 20
772.7116180338
 30
0.0
 40
1.25
100
AcDbArc
 50
90.0
 51
180.0
  0
ARC
  5
ED
330
1F
100
AcDbEntity
  8
0
  6
SLD-Solid
 62
     7
370
    15
100
AcDbCircle
 10
1279.7951119297
 20
772.7116180338
 30
0.0
 40
1.25
100
AcDbArc
 50
0.0
 51
90.0
  0
ARC
  5
EE
330
1F
100
AcDbEntity
  8
0
  6
SLD-Solid
 62
     7
370
    15
100
AcDbCircle
 10
1279.7951119297
 20
772.7116180338
 30
0.0
 40
2.75
100
AcDbArc
 50
0.0
 51
90.0
  0
LINE
  5
EF
330
1F
100
AcDbEntity
  8
0
  6
SLD-Solid
 62
     7
370
    15
100
AcDbLine
 10
445.352179484
 20
497.4116287356
 30
0.0
 11
445.352179484
 21
464.4616148596
 31
0.0
  0
LINE
  5
F0
330
1F
100
AcDbEntity
  8
0
  6
SLD-Solid
 62
     7
370
    15
100
AcDbLine
 10
1341.7380280061
 20
497.4116287356
 30
0.0
 11
1341.7380280061
 21
464.4616148596
 31
0.0
  0
LINE
  5
F1
330
1F
100
AcDbEntity
  8
0
  6
SLD-Solid
 62
     7
370
    15
100
AcDbLine
 10
445.352179484
 20
464.4616148596
 30
0.0
 11
1341.7380280061
 21
464.4616148596
 31
0.0
  0
LINE
  5
F2
330
1F
100
AcDbEntity
  8
0
  6
SLD-Solid
 62
     7
370
    15
100
AcDbLine
 10
446.5951151415
 20
499.4616112833
 30
0.0
 11
1340.495122151
 21
499.4616112833
 31
0.0
  0
LWPOLYLINE
  5
F3
330
1F
100
AcDbEntity
  8
0
  6
SLD-Solid
 62
     7
370
    15
100
AcDbPolyline
 90
        6
 70
   128
 43
0.0
 10
1340.495122151
 20
499.4616112833
 10
1340.7812840505
 20
499.3289909487
 10
1341.0675651594
 20
498.9481172686
 10
1341.3538462682
 20
498.3683130865
 10
1341.6401273771
 20
497.6646206503
 10
1341.7380280061
 20
497.4116287356
  0
LWPOLYLINE
  5
F4
330
1F
100
AcDbEntity
  8
0
  6
SLD-Solid
 62
     7
370
    15
100
AcDbPolyline
 90
        6
 70
   128
 43
0.0
 10
445.352179484
 20
497.4116287356
 10
445.6383711858
 20
498.1369874602
 10
445.9246522947
 20
498.7687072878
 10
446.2109334036
 20
499.2247126227
 10
446.4972145124
 20
499.4459352618
 10
446.5951151415
 20
499.4616112833
  0
LINE
  5
F5
330
1F
100
AcDbEntity
  8
0
  6
SLD-Solid
 62
     7
370
    15
100
AcDbLine
 10
1342.5451046987
 20
497.4116287356
 30
0.0
 11
1341.7451209589
 21
497.4116287356
 31
0.0
  0
LWPOLYLINE
  5
F6
330
1F
100
AcDbEntity
  8
0
  6
SLD-Solid
 62
     7
370
    15
100
AcDbPolyline
 90
        3
 70
   128
 43
0.0
 10
1341.7451209589
 20
497.4116287356
 10
1341.646683888
 20
497.897823823
 10
1341.3959867521
 20
498.2646904116
  0
ARC
  5
F7
330
1F
100
AcDbEntity
  8
0
  6
SLD-Solid
 62
     7
370
    15
100
AcDbCircle
 10
1340.4951270305
 20
497.4116336151
 30
0.0
 40
2.049977668251027
100
AcDbArc
 50
359.9998636202
 51
90.0001363798
  0
ARC
  5
F8
330
1F
100
AcDbEntity
  8
0
  6
SLD-Solid
 62
     7
370
    15
100
AcDbCircle
 10
446.3847895289
 20
497.4957033446
 30
0.0
 40
1.043067060643023
100
AcDbArc
 50
130.5199637957
 51
184.6232421653
  0
LINE
  5
F9
330
1F
100
AcDbEntity
  8
0
  6
SLD-Solid
 62
     7
370
    15
100
AcDbLine
 10
444.5451027914
 20
497.4116287356
 30
0.0
 11
445.3451163335
 21
497.4116287356
 31
0.0
  0
ARC
  5
FA
330
1F
100
AcDbEntity
  8
0
  6
SLD-Solid
 62
     7
370
    15
100
AcDbCircle
 10
446.5951176395
 20
497.4115964349
 30
0.0
 40
2.050014848388388
100
AcDbArc
 50
90.0000698179
 51
179.9990972311
  0
LINE
  5
FB
330
1F
100
AcDbEntity
  8
0
  6
SLD-Solid
 62
     7
370
    15
100
AcDbLine
 10
1341.7451209589
 20
497.4116287356
 30
0.0
 11
1341.7451209589
 21
464.4616148596
 31
0.0
  0
LINE
  5
FC
330
1F
100
AcDbEntity
  8
0
  6
SLD-Solid
 62
     7
370
    15
100
AcDbLine
 10
1342.5451046987
 20
497.4116287356
 30
0.0
 11
1342.5451046987
 21
464.4616148596
 31
0.0
  0
LINE
  5
FD
330
1F
100
AcDbEntity
  8
0
  6
SLD-Solid
 62
     7
370
    15
100
AcDbLine
 10
1342.5451046987
 20
464.4616148596
 30
0.0
 11
1341.7451209589
 21
464.4616148596
 31
0.0
  0
LINE
  5
FE
330
1F
100
AcDbEntity
  8
0
  6
SLD-Solid
 62
     7
370
    15
100
AcDbLine
 10
444.5451027914
 20
464.4616148596
 30
0.0
 11
445.3451163335
 21
464.4616148596
 31
0.0
  0
LINE
  5
FF
330
1F
100
AcDbEntity
  8
0
  6
SLD-Solid
 62
     7
370
    15
100
AcDbLine
 10
445.3451163335
 20
497.4116287356
 30
0.0
 11
445.3451163335
 21
464.4616148596
 31
0.0
  0
LINE
  5
100
330
1F
100
AcDbEntity
  8
0
  6
SLD-Solid
 62
     7
370
    15
100
AcDbLine
 10
444.5451027914
 20
497.4116287356
 30
0.0
 11
444.5451027914
 21
464.4616148596
 31
0.0
  0
LINE
  5
101
330
1F
100
AcDbEntity
  8
0
  6
SLD-Solid
 62
     7
370
    15
100
AcDbLine
 10
463.5521895452
 20
460.1616165762
 30
0.0
 11
463.5521895452
 21
464.4616148596
 31
0.0
  0
LINE
  5
102
330
1F
100
AcDbEntity
  8
0
  6
SLD-Solid
 62
     7
370
    15
100
AcDbLine
 10
1323.5380477472
 20
460.1616165762
 30
0.0
 11
1323.5380477472
 21
464.4616148596
 31
0.0
  0
LINE
  5
103
330
1F
100
AcDbEntity
  8
0
  6
SLD-Solid
 62
     7
370
    15
100
AcDbLine
 10
1323.5380477472
 20
460.1616165762
 30
0.0
 11
1280.2951163812
 21
460.1616165762
 31
0.0
  0
LINE
  5
104
330
1F
100
AcDbEntity
  8
0
  6
SLD-Solid
 62
     7
370
    15
100
AcDbLine
 10
1280.2951163812
 20
462.1616206293
 30
0.0
 11
1280.2951163812
 21
460.1616165762
 31
0.0
  0
LINE
  5
105
330
1F
100
AcDbEntity
  8
0
  6
SLD-Solid
 62
     7
370
    15
100
AcDbLine
 10
1279.545111136
 20
462.1616206293
 30
0.0
 11
1280.2951163812
 21
462.1616206293
 31
0.0
  0
LINE
  5
106
330
1F
100
AcDbEntity
  8
0
  6
SLD-Solid
 62
     7
370
    15
100
AcDbLine
 10
1279.545111136
 20
461.4116153841
 30
0.0
 11
1279.545111136
 21
462.1616206293
 31
0.0
  0
LINE
  5
107
330
1F
100
AcDbEntity
  8
0
  6
SLD-Solid
 62
     7
370
    15
100
AcDbLine
 10
507.5451261564
 20
462.1616206293
 30
0.0
 11
507.5451261564
 21
461.4116153841
 31
0.0
  0
LINE
  5
108
330
1F
100
AcDbEntity
  8
0
  6
SLD-Solid
 62
     7
370
    15
100
AcDbLine
 10
506.7951209112
 20
462.1616206293
 30
0.0
 11
507.5451261564
 21
462.1616206293
 31
0.0
  0
LINE
  5
109
330
1F
100
AcDbEntity
  8
0
  6
SLD-Solid
 62
     7
370
    15
100
AcDbLine
 10
506.7951209112
 20
460.1616165762
 30
0.0
 11
506.7951209112
 21
462.1616206293
 31
0.0
  0
LINE
  5
10A
330
1F
100
AcDbEntity
  8
0
  6
SLD-Solid
 62
     7
370
    15
100
AcDbLine
 10
506.7951209112
 20
460.1616165762
 30
0.0
 11
463.5521895452
 21
460.1616165762
 31
0.0
  0
LINE
  5
10B
330
1F
100
AcDbEntity
  8
0
  6
SLD-Solid
 62
     7
370
    15
100
AcDbLine
 10
1279.545111136
 20
458.6616060858
 30
0.0
 11
507.5451261564
 21
458.6616060858
 31
0.0
  0
LINE
  5
10C
330
1F
100
AcDbEntity
  8
0
  6
SLD-Solid
 62
     7
370
    15
100
AcDbLine
 10
507.5451261564
 20
458.6616060858
 30
0.0
 11
507.5451261564
 21
461.4116153841
 31
0.0
  0
LINE
  5
10D
330
1F
100
AcDbEntity
  8
0
  6
SLD-Solid
 62
     7
370
    15
100
AcDbLine
 10
1279.545111136
 20
461.4116153841
 30
0.0
 11
1279.545111136
 21
458.6616060858
 31
0.0
  0
LINE
  5
10E
330
1F
100
AcDbEntity
  8
0
  6
SLD-Solid
 62
     7
370
    15
100
AcDbLine
 10
1323.5451108976
 20
464.4616148596
 30
0.0
 11
1323.5451108976
 21
461.4116153841
 31
0.0
  0
LINE
  5
10F
330
1F
100
AcDbEntity
  8
0
  6
SLD-Solid
 62
     7
370
    15
100
AcDbLine
 10
1325.045121388
 20
464.4616148596
 30
0.0
 11
1325.045121388
 21
461.4116153841
 31
0.0
  0
LINE
  5
110
330
1F
100
AcDbEntity
  8
0
  6
SLD-Solid
 62
     7
370
    15
100
AcDbLine
 10
507.0451027914
 20
458.6616060858
 30
0.0
 11
507.0451027914
 21
460.1616165762
 31
0.0
  0
LINE
  5
111
330
1F
100
AcDbEntity
  8
0
  6
SLD-Solid
 62
     7
370
    15
100
AcDbLine
 10
506.7951209112
 20
460.1616165762
 30
0.0
 11
507.0451027914
 21
460.1616165762
 31
0.0
  0
LINE
  5
112
330
1F
100
AcDbEntity
  8
0
  6
SLD-Solid
 62
     7
370
    15
100
AcDbLine
 10
464.7951252027
 20
458.6616060858
 30
0.0
 11
507.0451027914
 21
458.6616060858
 31
0.0
  0
LINE
  5
113
330
1F
100
AcDbEntity
  8
0
  6
SLD-Solid
 62
     7
370
    15
100
AcDbLine
 10
463.5451263948
 20
461.4116153841
 30
0.0
 11
463.5521895452
 21
461.2788460379
 31
0.0
  0
ARC
  5
114
330
1F
100
AcDbEntity
  8
0
  6
SLD-Solid
 62
     7
370
    15
100
AcDbCircle
 10
464.7951119297
 20
461.4116180338
 30
0.0
 40
2.750000000000114
100
AcDbArc
 50
180.0
 51
270.0
  0
LINE
  5
115
330
1F
100
AcDbEntity
  8
0
  6
SLD-Solid
 62
     7
370
    15
100
AcDbLine
 10
1322.2951120897
 20
458.6616060858
 30
0.0
 11
1280.0451046987
 21
458.6616060858
 31
0.0
  0
LINE
  5
116
330
1F
100
AcDbEntity
  8
0
  6
SLD-Solid
 62
     7
370
    15
100
AcDbLine
 10
1280.0451046987
 20
458.6616060858
 30
0.0
 11
1280.0451046987
 21
460.1616165762
 31
0.0
  0
LINE
  5
117
330
1F
100
AcDbEntity
  8
0
  6
SLD-Solid
 62
     7
370
    15
100
AcDbLine
 10
1280.2951163812
 20
460.1616165762
 30
0.0
 11
1280.0451046987
 21
460.1616165762
 31
0.0
  0
LINE
  5
118
330
1F
100
AcDbEntity
  8
0
  6
SLD-Solid
 62
     7
370
    15
100
AcDbLine
 10
1323.5380477472
 20
461.2788460379
 30
0.0
 11
1323.5451108976
 21
461.4116153841
 31
0.0
  0
ARC
  5
119
330
1F
100
AcDbEntity
  8
0
  6
SLD-Solid
 62
     7
370
    15
100
AcDbCircle
 10
1322.2951119297
 20
461.4116180338
 30
0.0
 40
2.750000000000227
100
AcDbArc
 50
270.0
 51
0.0
  0
LINE
  5
11A
330
1F
100
AcDbEntity
  8
0
  6
SLD-Solid
 62
     7
370
    15
100
AcDbLine
 10
463.5451263948
 20
464.4616148596
 30
0.0
 11
463.5451263948
 21
461.4116153841
 31
0.0
  0
LINE
  5
11B
330
1F
100
AcDbEntity
  8
0
  6
SLD-Solid
 62
     7
370
    15
100
AcDbLine
 10
462.0451159044
 20
464.4616148596
 30
0.0
 11
462.0451159044
 21
461.4116153841
 31
0.0
  0
LINE
  5
11C
330
1F
100
AcDbEntity
  8
0
  6
SLD-Solid
 62
     7
370
    15
100
AcDbLine
 10
897.2951118103
 20
1333.0908916121
 30
0.0
 11
897.4951119362
 21
1333.0908916121
 31
0.0
  0
LINE
  5
11D
330
1F
100
AcDbEntity
  8
0
  6
SLD-Solid
 62
     7
370
    15
100
AcDbLine
 10
897.2951118103
 20
1393.0908939963
 30
0.0
 11
897.4951119362
 21
1393.0908939963
 31
0.0
  0
LINE
  5
11E
330
1F
100
AcDbEntity
  8
0
  6
SLD-Solid
 62
     7
370
    15
100
AcDbLine
 10
897.2951118103
 20
1333.0908916121
 30
0.0
 11
897.2951118103
 21
1393.0908939963
 31
0.0
  0
LWPOLYLINE
  5
11F
330
1F
100
AcDbEntity
  8
0
  6
SLD-Solid
 62
     7
370
    15
100
AcDbPolyline
 90
       26
 70
   128
 43
0.0
 10
1304.1201061769
 20
1504.5753619795
 10
1304.3046719595
 20
1505.9648654585
 10
1304.846806006
 20
1507.2671077376
 10
1305.7124144598
 20
1508.4001920348
 10
1306.8471378847
 20
1509.2929504042
 10
1308.179629521
 20
1509.8892948752
 10
1309.6262044473
 20
1510.1517937308
 10
1311.0959655805
 20
1510.0638172751
 10
1312.4965555235
 20
1509.6310279494
 10
1313.7399680181
 20
1508.880545867
 10
1314.7480911775
 20
1507.8595779066
 10
1315.457535462
 20
1506.6321990614
 10
1315.8237762018
 20
1505.275656951
 10
1315.8237762018
 20
1503.8750670081
 10
1315.457535462
 20
1502.518465293
 10
1314.7480911775
 20
1501.2910864477
 10
1313.7399680181
 20
1500.2701184874
 10
1312.4965555235
 20
1499.519636405
 10
1311.0959655805
 20
1499.0868470793
 10
1309.6262044473
 20
1498.9989302283
 10
1308.179629521
 20
1499.2613694792
 10
1306.8471378847
 20
1499.8577139502
 10
1305.7124144598
 20
1500.7504723196
 10
1304.846806006
 20
1501.8835566168
 10
1304.3046719595
 20
1503.1857988959
 10
1304.1201061769
 20
1504.5753619795
  0
ARC
  5
120
330
1F
100
AcDbEntity
  8
0
  6
SLD-Solid
 62
     7
370
    15
100
AcDbCircle
 10
1309.995112495
 20
1500.9158926712
 30
0.0
 40
5.87852172287935
100
AcDbArc
 50
181.9815858
 51
358.0184142
  0
ARC
  5
121
330
1F
100
AcDbEntity
  8
0
  6
SLD-Solid
 62
     7
370
    15
100
AcDbCircle
 10
1309.4312093591
 20
1500.5213890063
 30
0.0
 40
7.336203377703312
100
AcDbArc
 50
135.0204561065
 51
179.7130660814
  0
LWPOLYLINE
  5
122
330
1F
100
AcDbEntity
  8
0
  6
SLD-Solid
 62
     7
370
    15
100
AcDbPolyline
 90
       20
 70
   128
 43
0.0
 10
1315.7483465238
 20
1505.7070157652
 10
1316.7642778917
 20
1504.431655181
 10
1317.4815601869
 20
1502.9571554785
 10
1317.8488142057
 20
1501.3704202299
 10
1317.8488142057
 20
1499.7457764273
 10
1317.4815601869
 20
1498.1591007834
 10
1316.7642778917
 20
1496.6846010809
 10
1315.7304651304
 20
1495.3911802893
 10
1314.4284910722
 20
1494.3393967276
 10
1312.9192120596
 20
1493.5783646231
 10
1311.2731999918
 20
1493.1437275534
 10
1309.5674044653
 20
1493.0558107024
 10
1307.8816360994
 20
1493.3186075812
 10
1306.2946922346
 20
1493.9199588423
 10
1304.8807508512
 20
1494.8317310934
 10
1303.705973105
 20
1496.0112474089
 10
1302.8252548738
 20
1497.4033138876
 10
1302.2798127695
 20
1498.9429614668
 10
1302.0950979753
 20
1500.5581281309
 10
1302.0950979753
 20
1500.5581281309
  0
ARC
  5
123
330
1F
100
AcDbEntity
  8
0
  6
SLD-Solid
 62
     7
370
    15
100
AcDbCircle
 10
1309.9950975938
 20
1499.6249725569
 30
0.0
 40
7.905805326541691
100
AcDbArc
 50
182.1959312955
 51
357.8040687045
  0
LWPOLYLINE
  5
124
330
1F
100
AcDbEntity
  8
0
  6
SLD-Solid
 62
     7
370
    15
100
AcDbPolyline
 90
       19
 70
   128
 43
0.0
 10
1319.9701137109
 20
1498.3950159674
 10
1319.9249333902
 20
1497.493197692
 10
1319.566053824
 20
1495.722284091
 10
1318.8612587019
 20
1494.04787041
 10
1317.8359992071
 20
1492.5306341772
 10
1316.5273494287
 20
1491.2253520613
 10
1314.9826056524
 20
1490.1791713362
 10
1313.2576174303
 20
1489.4299409514
 10
1311.4147014185
 20
1489.0047810202
 10
1309.5204956098
 20
1488.9189503317
 10
1307.6434261366
 20
1489.1756079321
 10
1305.8513528867
 20
1489.7655151015
 10
1304.2090363069
 20
1490.6672737723
 10
1302.7758724256
 20
1491.8483398085
 10
1301.6035980745
 20
1493.2660362845
 10
1300.7346517606
 20
1494.8691032057
 10
1300.2003855272
 20
1496.5996048575
 10
1300.0201112791
 20
1498.3950159674
 10
1300.0201112791
 20
1498.3950159674
  0
ARC
  5
125
330
1F
100
AcDbEntity
  8
0
  6
SLD-Solid
 62
     7
370
    15
100
AcDbCircle
 10
1309.4587820471
 20
1499.214120728
 30
0.0
 40
9.439287788226697
100
AcDbArc
 50
118.0679464706
 51
179.3448811816
  0
LWPOLYLINE
  5
126
330
1F
100
AcDbEntity
  8
0
  6
SLD-Solid
 62
     7
370
    15
100
AcDbPolyline
 90
       25
 70
   128
 43
0.0
 10
1314.9728006883
 20
1507.5432560568
 10
1314.9826056524
 20
1507.5378320341
 10
1316.5273494287
 20
1506.4917109137
 10
1317.8359992071
 20
1505.1863691931
 10
1318.8612587019
 20
1503.6691329604
 10
1319.566053824
 20
1501.994778884
 10
1319.9249333902
 20
1500.2238056784
 10
1319.9249333902
 20
1498.4202883368
 10
1319.566053824
 20
1496.6493151312
 10
1318.8612587019
 20
1494.9749610548
 10
1317.8359992071
 20
1493.4577248221
 10
1316.5273494287
 20
1492.1523831015
 10
1314.9826056524
 20
1491.106261981
 10
1313.2576174303
 20
1490.3570315962
 10
1311.4147014185
 20
1489.9318120604
 10
1309.5204956098
 20
1489.8459813719
 10
1307.6434261366
 20
1490.102698577
 10
1305.8513528867
 20
1490.6925461417
 10
1304.2090363069
 20
1491.5943644171
 10
1302.7758724256
 20
1492.7754304533
 10
1301.6035980745
 20
1494.1931269293
 10
1300.7346517606
 20
1495.7961342459
 10
1300.2003855272
 20
1497.5266358977
 10
1300.0201112791
 20
1499.3220470076
 10
1300.0201112791
 20
1499.3220470076
  0
LINE
  5
127
330
1F
100
AcDbEntity
  8
0
  6
SLD-Solid
 62
     7
370
    15
100
AcDbLine
 10
1343.4951133295
 20
1433.6800477629
 30
0.0
 11
1343.4951133295
 21
1450.7708451872
 31
0.0
  0
LINE
  5
128
330
1F
100
AcDbEntity
  8
0
  6
SLD-Solid
 62
     7
370
    15
100
AcDbLine
 10
443.495107369
 20
1433.6800477629
 30
0.0
 11
443.495107369
 21
1450.7708451872
 31
0.0
  0
LINE
  5
129
330
1F
100
AcDbEntity
  8
0
  6
SLD-Solid
 62
     7
370
    15
100
AcDbLine
 10
443.495107369
 20
1418.8800356512
 30
0.0
 11
443.495107369
 21
1433.6800477629
 31
0.0
  0
LINE
  5
12A
330
1F
100
AcDbEntity
  8
0
  6
SLD-Solid
 62
     7
370
    15
100
AcDbLine
 10
1343.4951133295
 20
1418.8800356512
 30
0.0
 11
1343.4951133295
 21
1433.6800477629
 31
0.0
  0
LWPOLYLINE
  5
12B
330
1F
100
AcDbEntity
  8
0
  6
SLD-Solid
 62
     7
370
    15
100
AcDbPolyline
 90
       17
 70
   128
 43
0.0
 10
1021.9951099916
 20
1454.024245513
 10
1022.9572034641
 20
1453.7934563284
 10
1023.6417628093
 20
1453.4668228751
 10
1023.9716447158
 20
1453.0810616141
 10
1023.9096409841
 20
1452.6797435408
 10
1023.4627551599
 20
1452.308048976
 10
1022.6813531681
 20
1452.0078799849
 10
1021.6535157724
 20
1451.8130920058
 10
1020.4951144024
 20
1451.7456195479
 10
1019.3366981311
 20
1451.8130920058
 10
1018.3088756366
 20
1452.0078799849
 10
1017.5274736448
 20
1452.308048976
 10
1017.0805878206
 20
1452.6797435408
 10
1017.0185840889
 20
1453.0810616141
 10
1017.3484585448
 20
1453.4668228751
 10
1018.0330253406
 20
1453.7934563284
 10
1018.9951188131
 20
1454.024245513
  0
LINE
  5
12C
330
1F
100
AcDbEntity
  8
0
  6
SLD-Solid
 62
     7
370
    15
100
AcDbLine
 10
1021.9951099916
 20
1454.024245513
 30
0.0
 11
1021.9951099916
 21
1456.3628337508
 31
0.0
  0
LWPOLYLINE
  5
12D
330
1F
100
AcDbEntity
  8
0
  6
SLD-Solid
 62
     7
370
    15
100
AcDbPolyline
 90
        9
 70
   128
 43
0.0
 10
1018.9951188131
 20
1456.3688538199
 10
1019.1151476665
 20
1456.5640590315
 10
1019.4437182708
 20
1456.7288062697
 10
1019.9311650558
 20
1456.8382403975
 10
1020.5038464828
 20
1456.875910533
 10
1021.0751868053
 20
1456.835975421
 10
1021.5588635965
 20
1456.7245743399
 10
1021.8817717596
 20
1456.5585157996
 10
1021.9951099916
 20
1456.3628337508
  0
LINE
  5
12E
330
1F
100
AcDbEntity
  8
0
  6
SLD-Solid
 62
     7
370
    15
100
AcDbLine
 10
1018.9951188131
 20
1454.024245513
 30
0.0
 11
1018.9951188131
 21
1456.3688538199
 31
0.0
  0
LINE
  5
12F
330
1F
100
AcDbEntity
  8
0
  6
SLD-Solid
 62
     7
370
    15
100
AcDbLine
 10
443.495107369
 20
1450.7708451872
 30
0.0
 11
443.495107369
 21
1457.8502080565
 31
0.0
  0
LINE
  5
130
330
1F
100
AcDbEntity
  8
0
  6
SLD-Solid
 62
     7
370
    15
100
AcDbLine
 10
1316.436601357
 20
1453.1643889075
 30
0.0
 11
1314.1227788492
 21
1454.3105266219
 31
0.0
  0
LINE
  5
131
330
1F
100
AcDbEntity
  8
0
  6
SLD-Solid
 62
     7
370
    15
100
AcDbLine
 10
1316.9951266809
 20
1455.7568333273
 30
0.0
 11
1314.1227788492
 21
1454.3105266219
 31
0.0
  0
LINE
  5
132
330
1F
100
AcDbEntity
  8
0
  6
SLD-Solid
 62
     7
370
    15
100
AcDbLine
 10
1312.5270432993
 20
1455.2656314497
 30
0.0
 11
1316.9951266809
 21
1455.7568333273
 31
0.0
  0
LINE
  5
133
330
1F
100
AcDbEntity
  8
0
  6
SLD-Solid
 62
     7
370
    15
100
AcDbLine
 10
1312.5270432993
 20
1455.2656314497
 30
0.0
 11
1309.8940379186
 21
1456.8483731871
 31
0.0
  0
LINE
  5
134
330
1F
100
AcDbEntity
  8
0
  6
SLD-Solid
 62
     7
370
    15
100
AcDbLine
 10
1308.2983023687
 20
1455.1018974905
 30
0.0
 11
1309.8940379186
 21
1456.8483731871
 31
0.0
  0
LINE
  5
135
330
1F
100
AcDbEntity
  8
0
  6
SLD-Solid
 62
     7
370
    15
100
AcDbLine
 10
1308.2983023687
 20
1455.1018974905
 30
0.0
 11
1304.468525128
 21
1455.2656314497
 31
0.0
  0
LINE
  5
136
330
1F
100
AcDbEntity
  8
0
  6
SLD-Solid
 62
     7
370
    15
100
AcDbLine
 10
1307.1812815233
 20
1454.3105266219
 30
0.0
 11
1304.468525128
 21
1455.2656314497
 31
0.0
  0
LINE
  5
137
330
1F
100
AcDbEntity
  8
0
  6
SLD-Solid
 62
     7
370
    15
100
AcDbLine
 10
1300.3993756338
 20
1452.100147975
 30
0.0
 11
1307.1812815233
 21
1454.3105266219
 31
0.0
  0
LINE
  5
138
330
1F
100
AcDbEntity
  8
0
  6
SLD-Solid
 62
     7
370
    15
100
AcDbLine
 10
1300.3993756338
 20
1452.100147975
 30
0.0
 11
1309.175980763
 21
1453.4918568259
 31
0.0
  0
LINE
  5
139
330
1F
100
AcDbEntity
  8
0
  6
SLD-Solid
 62
     7
370
    15
100
AcDbLine
 10
1309.175980763
 20
1453.4918568259
 30
0.0
 11
1311.4100224538
 21
1451.718082202
 31
0.0
  0
LINE
  5
13A
330
1F
100
AcDbEntity
  8
0
  6
SLD-Solid
 62
     7
370
    15
100
AcDbLine
 10
1311.729145722
 20
1453.4918568259
 30
0.0
 11
1311.4100224538
 21
1451.718082202
 31
0.0
  0
LINE
  5
13B
330
1F
100
AcDbEntity
  8
0
  6
SLD-Solid
 62
     7
370
    15
100
AcDbLine
 10
1311.729145722
 20
1453.4918568259
 30
0.0
 11
1316.436601357
 21
1453.1643889075
 31
0.0
  0
LINE
  5
13C
330
1F
100
AcDbEntity
  8
0
  6
SLD-Solid
 62
     7
370
    15
100
AcDbLine
 10
1343.4951133295
 20
1450.7708451872
 30
0.0
 11
1343.4951133295
 21
1457.8502080565
 31
0.0
  0
LINE
  5
13D
330
1F
100
AcDbEntity
  8
0
  6
SLD-Solid
 62
     7
370
    15
100
AcDbLine
 10
1300.4555232092
 20
1452.1090290671
 30
0.0
 11
1307.1812815233
 21
1454.301109088
 31
0.0
  0
LINE
  5
13E
330
1F
100
AcDbEntity
  8
0
  6
SLD-Solid
 62
     7
370
    15
100
AcDbLine
 10
1308.2983023687
 20
1455.0924799567
 30
0.0
 11
1304.4988936945
 21
1455.2549622183
 31
0.0
  0
LINE
  5
13F
330
1F
100
AcDbEntity
  8
0
  6
SLD-Solid
 62
     7
370
    15
100
AcDbLine
 10
1308.2983023687
 20
1455.0924799567
 30
0.0
 11
1309.8940379186
 21
1456.8389556532
 31
0.0
  0
LINE
  5
140
330
1F
100
AcDbEntity
  8
0
  6
SLD-Solid
 62
     7
370
    15
100
AcDbLine
 10
1312.5270432993
 20
1455.2562139159
 30
0.0
 11
1309.8940379186
 21
1456.8389556532
 31
0.0
  0
LINE
  5
141
330
1F
100
AcDbEntity
  8
0
  6
SLD-Solid
 62
     7
370
    15
100
AcDbLine
 10
1312.5270432993
 20
1455.2562139159
 30
0.0
 11
1316.9712252184
 21
1455.7447931891
 31
0.0
  0
LINE
  5
142
330
1F
100
AcDbEntity
  8
0
  6
SLD-Solid
 62
     7
370
    15
100
AcDbLine
 10
1316.4145178362
 20
1453.1659386282
 30
0.0
 11
1314.1227788492
 21
1454.301109088
 31
0.0
  0
LINE
  5
143
330
1F
100
AcDbEntity
  8
0
  6
SLD-Solid
 62
     7
370
    15
100
AcDbLine
 10
1314.5358390375
 20
1455.1178119307
 30
0.0
 11
1312.9201657339
 21
1454.3042681342
 31
0.0
  0
LINE
  5
144
330
1F
100
AcDbEntity
  8
0
  6
SLD-Solid
 62
     7
370
    15
100
AcDbLine
 10
1308.5882193609
 20
1454.2966387396
 30
0.0
 11
1307.1696586176
 21
1454.7960660582
 31
0.0
  0
LINE
  5
145
330
1F
100
AcDbEntity
  8
0
  6
SLD-Solid
 62
     7
370
    15
100
AcDbLine
 10
1305.4751283689
 20
1453.2725713377
 30
0.0
 11
1309.6877760454
 21
1453.9406201964
 31
0.0
  0
LINE
  5
146
330
1F
100
AcDbEntity
  8
0
  6
SLD-Solid
 62
     7
370
    15
100
AcDbLine
 10
1309.6877760454
 20
1453.9406201964
 30
0.0
 11
1310.6694645448
 21
1453.1611702566
 31
0.0
  0
LINE
  5
147
330
1F
100
AcDbEntity
  8
0
  6
SLD-Solid
 62
     7
370
    15
100
AcDbLine
 10
1310.8016676469
 20
1453.8959763174
 30
0.0
 11
1310.6694645448
 21
1453.1611702566
 31
0.0
  0
LINE
  5
148
330
1F
100
AcDbEntity
  8
0
  6
SLD-Solid
 62
     7
370
    15
100
AcDbLine
 10
1310.8016676469
 20
1453.8959763174
 30
0.0
 11
1314.203096108
 21
1453.6594054823
 31
0.0
  0
LINE
  5
149
330
1F
100
AcDbEntity
  8
0
  6
SLD-Solid
 62
     7
370
    15
100
AcDbLine
 10
1018.9951188131
 20
1454.0148279791
 30
0.0
 11
1018.9951188131
 21
1454.024245513
 31
0.0
  0
LWPOLYLINE
  5
14A
330
1F
100
AcDbEntity
  8
0
  6
SLD-Solid
 62
     7
370
    15
100
AcDbPolyline
 90
        5
 70
   128
 43
0.0
 10
1021.9951099916
 20
1454.0148279791
 10
1022.9572034641
 20
1453.7840983992
 10
1023.6417628093
 20
1453.4574053412
 10
1023.9716447158
 20
1453.0717036848
 10
1023.9951140447
 20
1452.933242095
  0
LWPOLYLINE
  5
14B
330
1F
100
AcDbEntity
  8
0
  6
SLD-Solid
 62
     7
370
    15
100
AcDbPolyline
 90
        5
 70
   128
 43
0.0
 10
1016.99511476
 20
1452.933242095
 10
1017.0185840889
 20
1453.0717036848
 10
1017.3484585448
 20
1453.4574053412
 10
1018.0330253406
 20
1453.7840983992
 10
1018.9951188131
 20
1454.0148279791
  0
LINE
  5
14C
330
1F
100
AcDbEntity
  8
0
  6
SLD-Solid
 62
     7
370
    15
100
AcDbLine
 10
1021.9951099916
 20
1454.0148279791
 30
0.0
 11
1021.9951099916
 21
1454.024245513
 31
0.0
  0
LWPOLYLINE
  5
14D
330
1F
100
AcDbEntity
  8
0
  6
SLD-Solid
 62
     7
370
    15
100
AcDbPolyline
 90
        9
 70
   128
 43
0.0
 10
1018.9951188131
 20
1456.359436286
 10
1019.1151476665
 20
1456.5546414976
 10
1019.4437182708
 20
1456.7193887358
 10
1019.9311650558
 20
1456.8288824683
 10
1020.5038464828
 20
1456.8664929991
 10
1021.0751868053
 20
1456.8265578871
 10
1021.5588635965
 20
1456.715156806
 10
1021.8817717596
 20
1456.5490982657
 10
1021.9951099916
 20
1456.3534758215
  0
LINE
  5
14E
330
1F
100
AcDbEntity
  8
0
  6
SLD-Solid
 62
     7
370
    15
100
AcDbLine
 10
1019.5951140686
 20
1454.8476836806
 30
0.0
 11
1019.9951059385
 21
1454.8476836806
 31
0.0
  0
LWPOLYLINE
  5
14F
330
1F
100
AcDbEntity
  8
0
  6
SLD-Solid
 62
     7
370
    15
100
AcDbPolyline
 90
       10
 70
   128
 43
0.0
 10
1022.9951120182
 20
1452.933242095
 10
1022.9459232851
 20
1452.7645013457
 10
1022.5714720054
 20
1452.4570605879
 10
1021.8819505735
 20
1452.2218606596
 10
1020.9820247455
 20
1452.094604743
 10
1020.0082040592
 20
1452.094604743
 10
1019.10826333
 20
1452.2218606596
 10
1018.4187567993
 20
1452.4570605879
 10
1018.0442980691
 20
1452.7645013457
 10
1017.995109336
 20
1452.933242095
  0
LINE
  5
150
330
1F
100
AcDbEntity
  8
0
  6
SLD-Solid
 62
     7
370
    15
100
AcDbLine
 10
1020.9951079651
 20
1454.8476836806
 30
0.0
 11
1021.3951147361
 21
1454.8476836806
 31
0.0
  0
LWPOLYLINE
  5
151
330
1F
100
AcDbEntity
  8
0
  6
SLD-Solid
 62
     7
370
    15
100
AcDbPolyline
 90
       16
 70
   128
 43
0.0
 10
1020.9951079651
 20
1453.7804625159
 10
1021.8930519386
 20
1453.6515376692
 10
1022.5788778825
 20
1453.4150860434
 10
1022.9485309883
 20
1453.1069300299
 10
1022.9459232851
 20
1452.7739188795
 10
1022.5714720054
 20
1452.4664185171
 10
1021.8819505735
 20
1452.2312185889
 10
1020.9820247455
 20
1452.1039626723
 10
1020.0082040592
 20
1452.1039626723
 10
1019.10826333
 20
1452.2312185889
 10
1018.4187567993
 20
1452.4664185171
 10
1018.0442980691
 20
1452.7739188795
 10
1018.0416978164
 20
1453.1069300299
 10
1018.4113509222
 20
1453.4150860434
 10
1019.0971768661
 20
1453.6515376692
 10
1019.9951059385
 20
1453.7804625159
  0
LWPOLYLINE
  5
152
330
1F
100
AcDbEntity
  8
0
  6
SLD-Solid
 62
     7
370
    15
100
AcDbPolyline
 90
        9
 70
   128
 43
0.0
 10
1019.5951140686
 20
1456.3674829131
 10
1019.6681446596
 20
1456.4844272261
 10
1019.8658830686
 20
1456.5829537039
 10
1020.158497171
 20
1456.6483399992
 10
1020.5018646284
 20
1456.670691741
 10
1020.8442039056
 20
1456.6466114645
 10
1021.1338973804
 20
1456.5796754485
 10
1021.3272548481
 20
1456.4801356917
 10
1021.3951147361
 20
1456.3628337508
  0
LINE
  5
153
330
1F
100
AcDbEntity
  8
0
  6
SLD-Solid
 62
     7
370
    15
100
AcDbLine
 10
1021.3951147361
 20
1454.8570416098
 30
0.0
 11
1021.3951147361
 21
1456.3628337508
 31
0.0
  0
LINE
  5
154
330
1F
100
AcDbEntity
  8
0
  6
SLD-Solid
 62
     7
370
    15
100
AcDbLine
 10
1020.9951079651
 20
1454.8570416098
 30
0.0
 11
1021.3951147361
 21
1454.8570416098
 31
0.0
  0
LINE
  5
155
330
1F
100
AcDbEntity
  8
0
  6
SLD-Solid
 62
     7
370
    15
100
AcDbLine
 10
1020.9951079651
 20
1453.7804625159
 30
0.0
 11
1020.9951079651
 21
1454.8570416098
 31
0.0
  0
LINE
  5
156
330
1F
100
AcDbEntity
  8
0
  6
SLD-Solid
 62
     7
370
    15
100
AcDbLine
 10
1019.9951059385
 20
1453.7804625159
 30
0.0
 11
1019.9951059385
 21
1454.8570416098
 31
0.0
  0
LINE
  5
157
330
1F
100
AcDbEntity
  8
0
  6
SLD-Solid
 62
     7
370
    15
100
AcDbLine
 10
1019.5951140686
 20
1454.8570416098
 30
0.0
 11
1019.9951059385
 21
1454.8570416098
 31
0.0
  0
LINE
  5
158
330
1F
100
AcDbEntity
  8
0
  6
SLD-Solid
 62
     7
370
    15
100
AcDbLine
 10
1019.5951140686
 20
1454.8570416098
 30
0.0
 11
1019.5951140686
 21
1456.3674829131
 31
0.0
  0
LINE
  5
159
330
1F
100
AcDbEntity
  8
0
  6
SLD-Solid
 62
     7
370
    15
100
AcDbLine
 10
1307.1812815233
 20
1454.301109088
 30
0.0
 11
1307.1812815233
 21
1454.3105266219
 31
0.0
  0
LINE
  5
15A
330
1F
100
AcDbEntity
  8
0
  6
SLD-Solid
 62
     7
370
    15
100
AcDbLine
 10
1314.1227788492
 20
1454.301109088
 30
0.0
 11
1314.1227788492
 21
1454.3105266219
 31
0.0
  0
LINE
  5
15B
330
1F
100
AcDbEntity
  8
0
  6
SLD-Solid
 62
     7
370
    15
100
AcDbLine
 10
1310.8016676469
 20
1453.8959763174
 30
0.0
 11
1310.8016676469
 21
1453.9053938513
 31
0.0
  0
LINE
  5
15C
330
1F
100
AcDbEntity
  8
0
  6
SLD-Solid
 62
     7
370
    15
100
AcDbLine
 10
1310.6694645448
 20
1453.1611702566
 30
0.0
 11
1310.6694645448
 21
1453.1705877905
 31
0.0
  0
LINE
  5
15D
330
1F
100
AcDbEntity
  8
0
  6
SLD-Solid
 62
     7
370
    15
100
AcDbLine
 10
1310.8016676469
 20
1453.9053938513
 30
0.0
 11
1310.6694645448
 21
1453.1705877905
 31
0.0
  0
LINE
  5
15E
330
1F
100
AcDbEntity
  8
0
  6
SLD-Solid
 62
     7
370
    15
100
AcDbLine
 10
1309.6877760454
 20
1453.9499781256
 30
0.0
 11
1310.6694645448
 21
1453.1705877905
 31
0.0
  0
LINE
  5
15F
330
1F
100
AcDbEntity
  8
0
  6
SLD-Solid
 62
     7
370
    15
100
AcDbLine
 10
1305.4751283689
 20
1453.2819888716
 30
0.0
 11
1309.6877760454
 21
1453.9499781256
 31
0.0
  0
LINE
  5
160
330
1F
100
AcDbEntity
  8
0
  6
SLD-Solid
 62
     7
370
    15
100
AcDbLine
 10
1305.4751283689
 20
1453.2819888716
 30
0.0
 11
1308.6020774408
 21
1454.3011686926
 31
0.0
  0
LINE
  5
161
330
1F
100
AcDbEntity
  8
0
  6
SLD-Solid
 62
     7
370
    15
100
AcDbLine
 10
1308.6020774408
 20
1454.3011686926
 30
0.0
 11
1307.1696586176
 21
1454.8054835921
 31
0.0
  0
LINE
  5
162
330
1F
100
AcDbEntity
  8
0
  6
SLD-Solid
 62
     7
370
    15
100
AcDbLine
 10
1309.0035147234
 20
1454.7270438795
 30
0.0
 11
1307.1696586176
 21
1454.8054835921
 31
0.0
  0
LINE
  5
163
330
1F
100
AcDbEntity
  8
0
  6
SLD-Solid
 62
     7
370
    15
100
AcDbLine
 10
1309.0035147234
 20
1454.7270438795
 30
0.0
 11
1310.1624078317
 21
1455.9954307204
 31
0.0
  0
LINE
  5
164
330
1F
100
AcDbEntity
  8
0
  6
SLD-Solid
 62
     7
370
    15
100
AcDbLine
 10
1312.0596236749
 20
1454.8550150519
 30
0.0
 11
1310.1624078317
 21
1455.9954307204
 31
0.0
  0
LINE
  5
165
330
1F
100
AcDbEntity
  8
0
  6
SLD-Solid
 62
     7
370
    15
100
AcDbLine
 10
1312.0596236749
 20
1454.8550150519
 30
0.0
 11
1314.5358390375
 21
1455.1272294646
 31
0.0
  0
LINE
  5
166
330
1F
100
AcDbEntity
  8
0
  6
SLD-Solid
 62
     7
370
    15
100
AcDbLine
 10
1314.5358390375
 20
1455.1272294646
 30
0.0
 11
1312.9107482
 21
1454.3089172964
 31
0.0
  0
LINE
  5
167
330
1F
100
AcDbEntity
  8
0
  6
SLD-Solid
 62
     7
370
    15
100
AcDbLine
 10
1314.203096108
 20
1453.6687634116
 30
0.0
 11
1312.9107482
 21
1454.3089172964
 31
0.0
  0
LINE
  5
168
330
1F
100
AcDbEntity
  8
0
  6
SLD-Solid
 62
     7
370
    15
100
AcDbLine
 10
1310.8016676469
 20
1453.9053938513
 30
0.0
 11
1314.203096108
 21
1453.6687634116
 31
0.0
  0
LINE
  5
169
330
1F
100
AcDbEntity
  8
0
  6
SLD-Solid
 62
     7
370
    15
100
AcDbLine
 10
1309.6877760454
 20
1453.9406201964
 30
0.0
 11
1309.6877760454
 21
1453.9499781256
 31
0.0
  0
LINE
  5
16A
330
1F
100
AcDbEntity
  8
0
  6
SLD-Solid
 62
     7
370
    15
100
AcDbLine
 10
1305.4751283689
 20
1453.2725713377
 30
0.0
 11
1305.4751283689
 21
1453.2819888716
 31
0.0
  0
LINE
  5
16B
330
1F
100
AcDbEntity
  8
0
  6
SLD-Solid
 62
     7
370
    15
100
AcDbLine
 10
1343.4951133295
 20
1418.1477329855
 30
0.0
 11
443.495107369
 21
1418.1477329855
 31
0.0
  0
LINE
  5
16C
330
1F
100
AcDbEntity
  8
0
  6
SLD-Solid
 62
     7
370
    15
100
AcDbLine
 10
443.495107369
 20
1418.1477329855
 30
0.0
 11
443.495107369
 21
1418.8800356512
 31
0.0
  0
LINE
  5
16D
330
1F
100
AcDbEntity
  8
0
  6
SLD-Solid
 62
     7
370
    15
100
AcDbLine
 10
1343.4951133295
 20
1418.1477329855
 30
0.0
 11
1343.4951133295
 21
1418.8800356512
 31
0.0
  0
LINE
  5
16E
330
1F
100
AcDbEntity
  8
0
  6
SLD-Solid
 62
     7
370
    15
100
AcDbLine
 10
1314.203096108
 20
1453.6594054823
 30
0.0
 11
1314.203096108
 21
1453.6687634116
 31
0.0
  0
LINE
  5
16F
330
1F
100
AcDbEntity
  8
0
  6
SLD-Solid
 62
     7
370
    15
100
AcDbLine
 10
1307.1696586176
 20
1454.7960660582
 30
0.0
 11
1307.1696586176
 21
1454.8054835921
 31
0.0
  0
LINE
  5
170
330
1F
100
AcDbEntity
  8
0
  6
SLD-Solid
 62
     7
370
    15
100
AcDbLine
 10
1314.5358390375
 20
1455.1178119307
 30
0.0
 11
1314.5358390375
 21
1455.1272294646
 31
0.0
  0
LINE
  5
171
330
1F
100
AcDbEntity
  8
0
  6
SLD-Solid
 62
     7
370
    15
100
AcDbLine
 10
1019.5951140686
 20
1454.8476836806
 30
0.0
 11
1019.5951140686
 21
1454.8570416098
 31
0.0
  0
LINE
  5
172
330
1F
100
AcDbEntity
  8
0
  6
SLD-Solid
 62
     7
370
    15
100
AcDbLine
 10
1021.3951147361
 20
1454.8476836806
 30
0.0
 11
1021.3951147361
 21
1454.8570416098
 31
0.0
  0
LINE
  5
173
330
1F
100
AcDbEntity
  8
0
  6
SLD-Solid
 62
     7
370
    15
100
AcDbLine
 10
1308.2983023687
 20
1455.0924799567
 30
0.0
 11
1308.2983023687
 21
1455.1018974905
 31
0.0
  0
LINE
  5
174
330
1F
100
AcDbEntity
  8
0
  6
SLD-Solid
 62
     7
370
    15
100
AcDbLine
 10
1309.8940379186
 20
1456.8389556532
 30
0.0
 11
1309.8940379186
 21
1456.8483731871
 31
0.0
  0
LINE
  5
175
330
1F
100
AcDbEntity
  8
0
  6
SLD-Solid
 62
     7
370
    15
100
AcDbLine
 10
1312.5270432993
 20
1455.2562139159
 30
0.0
 11
1312.5270432993
 21
1455.2656314497
 31
0.0
  0
LINE
  5
176
330
1F
100
AcDbEntity
  8
0
  6
SLD-Solid
 62
     7
370
    15
100
AcDbLine
 10
1343.4951133295
 20
1457.8502080565
 30
0.0
 11
1343.4951133295
 21
1464.1569755202
 31
0.0
  0
LINE
  5
177
330
1F
100
AcDbEntity
  8
0
  6
SLD-Solid
 62
     7
370
    15
100
AcDbLine
 10
443.495107369
 20
1457.8502080565
 30
0.0
 11
443.495107369
 21
1464.1569755202
 31
0.0
  0
LINE
  5
178
330
1F
100
AcDbEntity
  8
0
  6
SLD-Solid
 62
     7
370
    15
100
AcDbLine
 10
443.495107369
 20
1464.1569755202
 30
0.0
 11
443.495107369
 21
1539.0189192419
 31
0.0
  0
LINE
  5
179
330
1F
100
AcDbEntity
  8
0
  6
SLD-Solid
 62
     7
370
    15
100
AcDbLine
 10
458.9951164289
 20
1539.0189192419
 30
0.0
 11
458.4951228662
 21
1539.0189192419
 31
0.0
  0
LINE
  5
17A
330
1F
100
AcDbEntity
  8
0
  6
SLD-Solid
 62
     7
370
    15
100
AcDbLine
 10
458.9951164289
 20
1540.2190587645
 30
0.0
 11
458.9951164289
 21
1539.0189192419
 31
0.0
  0
LINE
  5
17B
330
1F
100
AcDbEntity
  8
0
  6
SLD-Solid
 62
     7
370
    15
100
AcDbLine
 10
473.9951021238
 20
1540.2190587645
 30
0.0
 11
473.9951021238
 21
1539.8826501494
 31
0.0
  0
LINE
  5
17C
330
1F
100
AcDbEntity
  8
0
  6
SLD-Solid
 62
     7
370
    15
100
AcDbLine
 10
493.4951192899
 20
1539.8826501494
 30
0.0
 11
473.9951021238
 21
1539.8826501494
 31
0.0
  0
LINE
  5
17D
330
1F
100
AcDbEntity
  8
0
  6
SLD-Solid
 62
     7
370
    15
100
AcDbLine
 10
493.4951192899
 20
1539.0189192419
 30
0.0
 11
493.4951192899
 21
1539.8826501494
 31
0.0
  0
LINE
  5
17E
330
1F
100
AcDbEntity
  8
0
  6
SLD-Solid
 62
     7
370
    15
100
AcDbLine
 10
493.9951128526
 20
1539.0189192419
 30
0.0
 11
493.4951192899
 21
1539.0189192419
 31
0.0
  0
LINE
  5
17F
330
1F
100
AcDbEntity
  8
0
  6
SLD-Solid
 62
     7
370
    15
100
AcDbLine
 10
1293.4951014085
 20
1539.0189192419
 30
0.0
 11
1292.9951078458
 21
1539.0189192419
 31
0.0
  0
LINE
  5
180
330
1F
100
AcDbEntity
  8
0
  6
SLD-Solid
 62
     7
370
    15
100
AcDbLine
 10
1293.4951014085
 20
1539.8826501494
 30
0.0
 11
1293.4951014085
 21
1539.0189192419
 31
0.0
  0
LINE
  5
181
330
1F
100
AcDbEntity
  8
0
  6
SLD-Solid
 62
     7
370
    15
100
AcDbLine
 10
1312.9951185747
 20
1539.8826501494
 30
0.0
 11
1293.4951014085
 21
1539.8826501494
 31
0.0
  0
LINE
  5
182
330
1F
100
AcDbEntity
  8
0
  6
SLD-Solid
 62
     7
370
    15
100
AcDbLine
 10
1312.9951185747
 20
1540.2190587645
 30
0.0
 11
1312.9951185747
 21
1539.8826501494
 31
0.0
  0
LINE
  5
183
330
1F
100
AcDbEntity
  8
0
  6
SLD-Solid
 62
     7
370
    15
100
AcDbLine
 10
1327.9951042696
 20
1540.2190587645
 30
0.0
 11
1327.9951042696
 21
1539.0189192419
 31
0.0
  0
LINE
  5
184
330
1F
100
AcDbEntity
  8
0
  6
SLD-Solid
 62
     7
370
    15
100
AcDbLine
 10
1328.4950978323
 20
1539.0189192419
 30
0.0
 11
1327.9951042696
 21
1539.0189192419
 31
0.0
  0
LINE
  5
185
330
1F
100
AcDbEntity
  8
0
  6
SLD-Solid
 62
     7
370
    15
100
AcDbLine
 10
1343.4951133295
 20
1464.1569755202
 30
0.0
 11
1343.4951133295
 21
1539.0189192419
 31
0.0
  0
LWPOLYLINE
  5
186
330
1F
100
AcDbEntity
  8
0
  6
SLD-Solid
 62
     7
370
    15
100
AcDbPolyline
 90
        3
 70
   128
 43
0.0
 10
466.4951092764
 20
1544.0750024443
 10
465.6531936689
 20
1544.1431305533
 10
465.3600580259
 20
1544.2033312445
  0
LWPOLYLINE
  5
187
330
1F
100
AcDbEntity
  8
0
  6
SLD-Solid
 62
     7
370
    15
100
AcDbPolyline
 90
        3
 70
   128
 43
0.0
 10
467.6301605268
 20
1544.2033312445
 10
467.3370248838
 20
1544.1431305533
 10
466.4951092764
 20
1544.0750024443
  0
LWPOLYLINE
  5
188
330
1F
100
AcDbEntity
  8
0
  6
SLD-Solid
 62
     7
370
    15
100
AcDbPolyline
 90
        3
 70
   128
 43
0.0
 10
1320.4951114221
 20
1544.0750024443
 10
1319.6531958147
 20
1544.1431305533
 10
1319.3600601717
 20
1544.2033312445
  0
LWPOLYLINE
  5
189
330
1F
100
AcDbEntity
  8
0
  6
SLD-Solid
 62
     7
370
    15
100
AcDbPolyline
 90
        3
 70
   128
 43
0.0
 10
1321.6301626726
 20
1544.2033312445
 10
1321.3370270296
 20
1544.1431305533
 10
1320.4951114221
 20
1544.0750024443
  0
LINE
  5
18A
330
1F
100
AcDbEntity
  8
0
  6
SLD-Solid
 62
     7
370
    15
100
AcDbLine
 10
1328.4950978323
 20
1539.0189192419
 30
0.0
 11
1328.4950978323
 21
1540.2190587645
 31
0.0
  0
LINE
  5
18B
330
1F
100
AcDbEntity
  8
0
  6
SLD-Solid
 62
     7
370
    15
100
AcDbLine
 10
1343.4951133295
 20
1540.435423625
 30
0.0
 11
1342.4932486578
 21
1540.435423625
 31
0.0
  0
LINE
  5
18C
330
1F
100
AcDbEntity
  8
0
  6
SLD-Solid
 62
     7
370
    15
100
AcDbLine
 10
1343.4951133295
 20
1540.435423625
 30
0.0
 11
1343.4951133295
 21
1539.0189192419
 31
0.0
  0
LINE
  5
18D
330
1F
100
AcDbEntity
  8
0
  6
SLD-Solid
 62
     7
370
    15
100
AcDbLine
 10
444.4969720407
 20
1540.435423625
 30
0.0
 11
443.495107369
 21
1540.435423625
 31
0.0
  0
LINE
  5
18E
330
1F
100
AcDbEntity
  8
0
  6
SLD-Solid
 62
     7
370
    15
100
AcDbLine
 10
458.4951228662
 20
1540.2190587645
 30
0.0
 11
458.4951228662
 21
1539.0189192419
 31
0.0
  0
LINE
  5
18F
330
1F
100
AcDbEntity
  8
0
  6
SLD-Solid
 62
     7
370
    15
100
AcDbLine
 10
443.495107369
 20
1539.0189192419
 30
0.0
 11
443.495107369
 21
1540.435423625
 31
0.0
  0
LINE
  5
190
330
1F
100
AcDbEntity
  8
0
  6
SLD-Solid
 62
     7
370
    15
100
AcDbLine
 10
1292.9951078458
 20
1540.435423625
 30
0.0
 11
954.2604699
 21
1540.435423625
 31
0.0
  0
LINE
  5
191
330
1F
100
AcDbEntity
  8
0
  6
SLD-Solid
 62
     7
370
    15
100
AcDbLine
 10
934.7297563418
 20
1540.435423625
 30
0.0
 11
493.9951128526
 21
1540.435423625
 31
0.0
  0
LINE
  5
192
330
1F
100
AcDbEntity
  8
0
  6
SLD-Solid
 62
     7
370
    15
100
AcDbLine
 10
1292.9951078458
 20
1540.435423625
 30
0.0
 11
1292.9951078458
 21
1539.0189192419
 31
0.0
  0
LINE
  5
193
330
1F
100
AcDbEntity
  8
0
  6
SLD-Solid
 62
     7
370
    15
100
AcDbLine
 10
493.9951128526
 20
1539.0189192419
 30
0.0
 11
493.9951128526
 21
1540.435423625
 31
0.0
  0
LINE
  5
194
330
1F
100
AcDbEntity
  8
0
  6
SLD-Solid
 62
     7
370
    15
100
AcDbLine
 10
444.69509788
 20
1594.9562690382
 30
0.0
 11
445.9451264902
 21
1594.9562690382
 31
0.0
  0
LINE
  5
195
330
1F
100
AcDbEntity
  8
0
  6
SLD-Solid
 62
     7
370
    15
100
AcDbLine
 10
445.9451264902
 20
1594.9562690382
 30
0.0
 11
445.9451264902
 21
1594.9616334563
 31
0.0
  0
LINE
  5
196
330
1F
100
AcDbEntity
  8
0
  6
SLD-Solid
 62
     7
370
    15
100
AcDbLine
 10
1341.0451240106
 20
1594.9616334563
 30
0.0
 11
445.9451264902
 21
1594.9616334563
 31
0.0
  0
LINE
  5
197
330
1F
100
AcDbEntity
  8
0
  6
SLD-Solid
 62
     7
370
    15
100
AcDbLine
 10
1341.0451240106
 20
1594.9616334563
 30
0.0
 11
1341.0451240106
 21
1594.9562690382
 31
0.0
  0
LINE
  5
198
330
1F
100
AcDbEntity
  8
0
  6
SLD-Solid
 62
     7
370
    15
100
AcDbLine
 10
1341.0451240106
 20
1594.9562690382
 30
0.0
 11
1342.2951228185
 21
1594.9562690382
 31
0.0
  0
LINE
  5
199
330
1F
100
AcDbEntity
  8
0
  6
SLD-Solid
 62
     7
370
    15
100
AcDbLine
 10
444.69509788
 20
1550.2940914755
 30
0.0
 11
444.69509788
 21
1594.9562690382
 31
0.0
  0
LINE
  5
19A
330
1F
100
AcDbEntity
  8
0
  6
SLD-Solid
 62
     7
370
    15
100
AcDbLine
 10
1342.2951228185
 20
1550.2940914755
 30
0.0
 11
1342.2951228185
 21
1594.9562690382
 31
0.0
  0
LINE
  5
19B
330
1F
100
AcDbEntity
  8
0
  6
SLD-Solid
 62
     7
370
    15
100
AcDbLine
 10
443.495107369
 20
1593.6559341078
 30
0.0
 11
444.69509788
 21
1593.6559341078
 31
0.0
  0
LINE
  5
19C
330
1F
100
AcDbEntity
  8
0
  6
SLD-Solid
 62
     7
370
    15
100
AcDbLine
 10
443.495107369
 20
1551.4863035803
 30
0.0
 11
443.495107369
 21
1593.6559341078
 31
0.0
  0
LINE
  5
19D
330
1F
100
AcDbEntity
  8
0
  6
SLD-Solid
 62
     7
370
    15
100
AcDbLine
 10
1343.4951133295
 20
1593.6559341078
 30
0.0
 11
1342.2951228185
 21
1593.6559341078
 31
0.0
  0
LINE
  5
19E
330
1F
100
AcDbEntity
  8
0
  6
SLD-Solid
 62
     7
370
    15
100
AcDbLine
 10
1343.4951133295
 20
1551.4863035803
 30
0.0
 11
1343.4951133295
 21
1593.6559341078
 31
0.0
  0
LWPOLYLINE
  5
19F
330
1F
100
AcDbEntity
  8
0
  6
SLD-Solid
 62
     7
370
    15
100
AcDbPolyline
 90
        9
 70
   128
 43
0.0
 10
1295.4951054617
 20
1544.2065498953
 10
1295.3990525766
 20
1544.5954702025
 10
1295.1145000024
 20
1544.9694893484
 10
1294.6524745985
 20
1545.3141830092
 10
1294.0306491419
 20
1545.6163189535
 10
1293.2729548975
 20
1545.8642742758
 10
1292.4085385366
 20
1546.0485122328
 10
1291.4705700441
 20
1546.1619398718
 10
1290.49511023
 20
1546.2002656584
  0
LINE
  5
1A0
330
1F
100
AcDbEntity
  8
0
  6
SLD-Solid
 62
     7
370
    15
100
AcDbLine
 10
1290.49511023
 20
1546.2002656584
 30
0.0
 11
961.995115058
 21
1546.2002656584
 31
0.0
  0
LWPOLYLINE
  5
1A1
330
1F
100
AcDbEntity
  8
0
  6
SLD-Solid
 62
     7
370
    15
100
AcDbPolyline
 90
        9
 70
   128
 43
0.0
 10
961.995115058
 20
1546.2002656584
 10
961.0196626945
 20
1546.1619398718
 10
960.081694202
 20
1546.0485122328
 10
959.21726294
 20
1545.8642742758
 10
958.4595761462
 20
1545.6163189535
 10
957.8377655907
 20
1545.3141830092
 10
957.375717835
 20
1544.9694893484
 10
957.0911876126
 20
1544.5954702025
 10
956.9951123758
 20
1544.2065498953
  0
LINE
  5
1A2
330
1F
100
AcDbEntity
  8
0
  6
SLD-Solid
 62
     7
370
    15
100
AcDbLine
 10
956.9951123758
 20
1544.2065498953
 30
0.0
 11
956.9951123758
 21
1542.2127745276
 31
0.0
  0
LWPOLYLINE
  5
1A3
330
1F
100
AcDbEntity
  8
0
  6
SLD-Solid
 62
     7
370
    15
100
AcDbPolyline
 90
        9
 70
   128
 43
0.0
 10
951.9951134189
 20
1540.2190587645
 10
952.9705620571
 20
1540.2573249464
 10
953.9085305496
 20
1540.3708121901
 10
954.7729618116
 20
1540.5550501471
 10
955.5306448801
 20
1540.8030054694
 10
956.1524591609
 20
1541.1051414137
 10
956.6145069166
 20
1541.4498350745
 10
956.899037139
 20
1541.8237946158
 10
956.9951123758
 20
1542.2127745276
  0
LINE
  5
1A4
330
1F
100
AcDbEntity
  8
0
  6
SLD-Solid
 62
     7
370
    15
100
AcDbLine
 10
951.9951134189
 20
1540.2190587645
 30
0.0
 11
936.9951128228
 21
1540.2190587645
 31
0.0
  0
LWPOLYLINE
  5
1A5
330
1F
100
AcDbEntity
  8
0
  6
SLD-Solid
 62
     7
370
    15
100
AcDbPolyline
 90
        9
 70
   128
 43
0.0
 10
931.9951101406
 20
1542.2127745276
 10
932.0911853774
 20
1541.8237946158
 10
932.3757155998
 20
1541.4498350745
 10
932.8377633556
 20
1541.1051414137
 10
933.4595776363
 20
1540.8030054694
 10
934.2172607048
 20
1540.5550501471
 10
935.0816956921
 20
1540.3708121901
 10
936.0196604593
 20
1540.2573249464
 10
936.9951128228
 20
1540.2190587645
  0
LINE
  5
1A6
330
1F
100
AcDbEntity
  8
0
  6
SLD-Solid
 62
     7
370
    15
100
AcDbLine
 10
931.9951101406
 20
1542.2127745276
 30
0.0
 11
931.9951101406
 21
1544.2065498953
 31
0.0
  0
LWPOLYLINE
  5
1A7
330
1F
100
AcDbEntity
  8
0
  6
SLD-Solid
 62
     7
370
    15
100
AcDbPolyline
 90
        9
 70
   128
 43
0.0
 10
931.9951101406
 20
1544.2065498953
 10
931.8990386291
 20
1544.5954702025
 10
931.6145084067
 20
1544.9694893484
 10
931.152460651
 20
1545.3141830092
 10
930.5306463702
 20
1545.6163189535
 10
929.7729633017
 20
1545.8642742758
 10
928.9085283144
 20
1546.0485122328
 10
927.9705635472
 20
1546.1619398718
 10
926.9951111837
 20
1546.2002656584
  0
LINE
  5
1A8
330
1F
100
AcDbEntity
  8
0
  6
SLD-Solid
 62
     7
370
    15
100
AcDbLine
 10
926.9951111837
 20
1546.2002656584
 30
0.0
 11
496.4951104685
 21
1546.2002656584
 31
0.0
  0
LWPOLYLINE
  5
1A9
330
1F
100
AcDbEntity
  8
0
  6
SLD-Solid
 62
     7
370
    15
100
AcDbPolyline
 90
        9
 70
   128
 43
0.0
 10
496.4951104685
 20
1546.2002656584
 10
495.5196506544
 20
1546.1619398718
 10
494.5816821619
 20
1546.0485122328
 10
493.717265801
 20
1545.8642742758
 10
492.9595715566
 20
1545.6163189535
 10
492.3377759023
 20
1545.3141830092
 10
491.875720696
 20
1544.9694893484
 10
491.5911979242
 20
1544.5954702025
 10
491.4951152368
 20
1544.2065498953
  0
LINE
  5
1AA
330
1F
100
AcDbEntity
  8
0
  6
SLD-Solid
 62
     7
370
    15
100
AcDbLine
 10
491.4951152368
 20
1544.2065498953
 30
0.0
 11
491.4951152368
 21
1542.2127745276
 31
0.0
  0
LWPOLYLINE
  5
1AB
330
1F
100
AcDbEntity
  8
0
  6
SLD-Solid
 62
     7
370
    15
100
AcDbPolyline
 90
        9
 70
   128
 43
0.0
 10
486.4951200052
 20
1540.2190587645
 10
487.4705500169
 20
1540.2573249464
 10
488.4085185095
 20
1540.3708121901
 10
489.2729646726
 20
1540.5550501471
 10
490.030658917
 20
1540.8030054694
 10
490.6524545713
 20
1541.1051414137
 10
491.1145097776
 20
1541.4498350745
 10
491.3990325494
 20
1541.8237946158
 10
491.4951152368
 20
1542.2127745276
  0
LINE
  5
1AC
330
1F
100
AcDbEntity
  8
0
  6
SLD-Solid
 62
     7
370
    15
100
AcDbLine
 10
486.4951200052
 20
1540.2190587645
 30
0.0
 11
445.6951148077
 21
1540.2190587645
 31
0.0
  0
LWPOLYLINE
  5
1AD
330
1F
100
AcDbEntity
  8
0
  6
SLD-Solid
 62
     7
370
    15
100
AcDbPolyline
 90
        9
 70
   128
 43
0.0
 10
444.69509788
 20
1540.617813838
 10
444.7143203779
 20
1540.539970172
 10
444.7712428137
 20
1540.4651663428
 10
444.8636300131
 20
1540.3962633734
 10
444.9879951044
 20
1540.3358242636
 10
445.1395399137
 20
1540.2862331992
 10
445.3124231859
 20
1540.2493975287
 10
445.5000288053
 20
1540.226688159
 10
445.6951148077
 20
1540.2190587645
  0
LINE
  5
1AE
330
1F
100
AcDbEntity
  8
0
  6
SLD-Solid
 62
     7
370
    15
100
AcDbLine
 10
444.69509788
 20
1540.617813838
 30
0.0
 11
444.69509788
 21
1550.2940914755
 31
0.0
  0
LINE
  5
1AF
330
1F
100
AcDbEntity
  8
0
  6
SLD-Solid
 62
     7
370
    15
100
AcDbLine
 10
1342.2951228185
 20
1540.617813838
 30
0.0
 11
1342.2951228185
 21
1550.2940914755
 31
0.0
  0
LWPOLYLINE
  5
1B0
330
1F
100
AcDbEntity
  8
0
  6
SLD-Solid
 62
     7
370
    15
100
AcDbPolyline
 90
        9
 70
   128
 43
0.0
 10
1341.2951058908
 20
1540.2190587645
 10
1341.4901918932
 20
1540.226688159
 10
1341.6777975126
 20
1540.2493975287
 10
1341.8506807848
 20
1540.2862331992
 10
1342.0022255941
 20
1540.3358242636
 10
1342.1265906854
 20
1540.3962633734
 10
1342.2189778848
 20
1540.4651663428
 10
1342.2759003206
 20
1540.539970172
 10
1342.2951228185
 20
1540.617813838
  0
LINE
  5
1B1
330
1F
100
AcDbEntity
  8
0
  6
SLD-Solid
 62
     7
370
    15
100
AcDbLine
 10
1341.2951058908
 20
1540.2190587645
 30
0.0
 11
1300.4951006933
 21
1540.2190587645
 31
0.0
  0
LWPOLYLINE
  5
1B2
330
1F
100
AcDbEntity
  8
0
  6
SLD-Solid
 62
     7
370
    15
100
AcDbPolyline
 90
        9
 70
   128
 43
0.0
 10
1295.4951054617
 20
1542.2127745276
 10
1295.591188149
 20
1541.8237946158
 10
1295.8757109209
 20
1541.4498350745
 10
1296.3377661272
 20
1541.1051414137
 10
1296.9595915838
 20
1540.8030054694
 10
1297.7172560259
 20
1540.5550501471
 10
1298.581702189
 20
1540.3708121901
 10
1299.5196706815
 20
1540.2573249464
 10
1300.4951006933
 20
1540.2190587645
  0
LINE
  5
1B3
330
1F
100
AcDbEntity
  8
0
  6
SLD-Solid
 62
     7
370
    15
100
AcDbLine
 10
1295.4951054617
 20
1542.2127745276
 30
0.0
 11
1295.4951054617
 21
1544.2065498953
 31
0.0
  0
LWPOLYLINE
  5
1B4
330
1F
100
AcDbEntity
  8
0
  6
SLD-Solid
 62
     7
370
    15
100
AcDbPolyline
 90
       19
 70
   128
 43
0.0
 10
1320.4951114221
 20
1541.7342684393
 10
1321.5895719095
 20
1541.8112180357
 10
1322.552037911
 20
1542.032828105
 10
1323.2663995786
 20
1542.372276557
 10
1323.6464983984
 20
1542.78873421
 10
1323.6464983984
 20
1543.2318351393
 10
1323.2663995786
 20
1543.6482927924
 10
1322.552037911
 20
1543.9877412443
 10
1321.5895719095
 20
1544.2093513136
 10
1320.4951114221
 20
1544.28630091
 10
1319.4006509348
 20
1544.2093513136
 10
1318.4381849332
 20
1543.9877412443
 10
1317.7238232656
 20
1543.6482927924
 10
1317.3437244459
 20
1543.2318351393
 10
1317.3437244459
 20
1542.78873421
 10
1317.7238232656
 20
1542.372276557
 10
1318.4381849332
 20
1542.032828105
 10
1319.4006509348
 20
1541.8112180357
 10
1320.4951114221
 20
1541.7342684393
  0
LWPOLYLINE
  5
1B5
330
1F
100
AcDbEntity
  8
0
  6
SLD-Solid
 62
     7
370
    15
100
AcDbPolyline
 90
       19
 70
   128
 43
0.0
 10
466.4951092764
 20
1541.7342684393
 10
467.5895697637
 20
1541.8112180357
 10
468.5520357652
 20
1542.032828105
 10
469.2663974329
 20
1542.372276557
 10
469.6464962526
 20
1542.78873421
 10
469.6464962526
 20
1543.2318351393
 10
469.2663974329
 20
1543.6482927924
 10
468.5520357652
 20
1543.9877412443
 10
467.5895697637
 20
1544.2093513136
 10
466.4951092764
 20
1544.28630091
 10
465.400648789
 20
1544.2093513136
 10
464.4381827875
 20
1543.9877412443
 10
463.7238211198
 20
1543.6482927924
 10
463.3437223001
 20
1543.2318351393
 10
463.3437223001
 20
1542.78873421
 10
463.7238211198
 20
1542.372276557
 10
464.4381827875
 20
1542.032828105
 10
465.400648789
 20
1541.8112180357
 10
466.4951092764
 20
1541.7342684393
  0
LWPOLYLINE
  5
1B6
330
1F
100
AcDbEntity
  8
0
  6
SLD-Solid
 62
     7
370
    15
100
AcDbPolyline
 90
       19
 70
   128
 43
0.0
 10
944.4951131209
 20
1541.7342684393
 10
945.5895773335
 20
1541.8112180357
 10
946.5520321592
 20
1542.032828105
 10
947.2663938268
 20
1542.372276557
 10
947.6464963718
 20
1542.78873421
 10
947.6464963718
 20
1543.2318351393
 10
947.2663938268
 20
1543.6482927924
 10
946.5520321592
 20
1543.9877412443
 10
945.5895773335
 20
1544.2093513136
 10
944.4951131209
 20
1544.28630091
 10
943.4006489082
 20
1544.2093513136
 10
942.4381903573
 20
1543.9877412443
 10
941.7238324149
 20
1543.6482927924
 10
941.3437261446
 20
1543.2318351393
 10
941.3437261446
 20
1542.78873421
 10
941.7238324149
 20
1542.372276557
 10
942.4381903573
 20
1542.032828105
 10
943.4006489082
 20
1541.8112180357
 10
944.4951131209
 20
1541.7342684393
  0
LINE
  5
1B7
330
1F
100
AcDbEntity
  8
0
  6
SLD-Solid
 62
     7
370
    15
100
AcDbLine
 10
444.69509788
 20
1541.2703058844
 30
0.0
 11
443.495107369
 21
1541.2703058844
 31
0.0
  0
LINE
  5
1B8
330
1F
100
AcDbEntity
  8
0
  6
SLD-Solid
 62
     7
370
    15
100
AcDbLine
 10
443.495107369
 20
1541.2703058844
 30
0.0
 11
443.495107369
 21
1551.4863035803
 31
0.0
  0
LINE
  5
1B9
330
1F
100
AcDbEntity
  8
0
  6
SLD-Solid
 62
     7
370
    15
100
AcDbLine
 10
1342.2951228185
 20
1541.2703058844
 30
0.0
 11
1343.4951133295
 21
1541.2703058844
 31
0.0
  0
LINE
  5
1BA
330
1F
100
AcDbEntity
  8
0
  6
SLD-Solid
 62
     7
370
    15
100
AcDbLine
 10
1343.4951133295
 20
1541.2703058844
 30
0.0
 11
1343.4951133295
 21
1551.4863035803
 31
0.0
  0
LINE
  5
1BB
330
1F
100
AcDbEntity
  8
0
  6
SLD-Solid
 62
     7
370
    15
100
AcDbLine
 10
445.9451264902
 20
1594.9616334563
 30
0.0
 11
445.783061461
 21
1594.9562690382
 31
0.0
  0
ARC
  5
1BC
330
1F
100
AcDbEntity
  8
0
  6
SLD-Solid
 62
     7
370
    15
100
AcDbCircle
 10
445.9451119297
 20
1592.5116180339
 30
0.0
 40
2.449999999999967
100
AcDbArc
 50
120.6774244726
 51
152.1558358072
  0
ARC
  5
1BD
330
1F
100
AcDbEntity
  8
0
  6
SLD-Solid
 62
     7
370
    15
100
AcDbCircle
 10
1341.0451119297
 20
1592.5116180339
 30
0.0
 40
2.449999999999917
100
AcDbArc
 50
27.8441641928
 51
59.3225755274
  0
LINE
  5
1BE
330
1F
100
AcDbEntity
  8
0
  6
SLD-Solid
 62
     7
370
    15
100
AcDbLine
 10
1341.2071592374
 20
1594.9562690382
 30
0.0
 11
1341.0451240106
 21
1594.9616334563
 31
0.0
  0
ARC
  5
1BF
330
1F
100
AcDbEntity
  8
0
  6
SLD-Solid
 62
     7
370
    15
100
AcDbCircle
 10
944.8917580305
 20
1547.3626352639
 30
0.0
 40
4.545226203472138
100
AcDbArc
 50
264.9936433808
 51
303.2263036214
  0
ARC
  5
1C0
330
1F
100
AcDbEntity
  8
0
  6
SLD-Solid
 62
     7
370
    15
100
AcDbCircle
 10
944.0984658266
 20
1547.3626257774
 30
0.0
 40
4.545216961275072
100
AcDbArc
 50
236.773655998
 51
275.0063969998
  0
ARC
  5
1C1
330
1F
100
AcDbEntity
  8
0
  6
SLD-Solid
 62
     7
370
    15
100
AcDbCircle
 10
466.8917802557
 20
1547.3625315527
 30
0.0
 40
4.545125163129318
100
AcDbArc
 50
264.9932019109
 51
303.2267450913
  0
ARC
  5
1C2
330
1F
100
AcDbEntity
  8
0
  6
SLD-Solid
 62
     7
370
    15
100
AcDbCircle
 10
466.0984382971
 20
1547.3625315527
 30
0.0
 40
4.545125163129349
100
AcDbArc
 50
236.7732549087
 51
275.0067980891
  0
ARC
  5
1C3
330
1F
100
AcDbEntity
  8
0
  6
SLD-Solid
 62
     7
370
    15
100
AcDbCircle
 10
1320.8917824014
 20
1547.3625315527
 30
0.0
 40
4.545125163129298
100
AcDbArc
 50
264.9932019109
 51
303.2267450913
  0
ARC
  5
1C4
330
1F
100
AcDbEntity
  8
0
  6
SLD-Solid
 62
     7
370
    15
100
AcDbCircle
 10
1320.0984404428
 20
1547.3625315527
 30
0.0
 40
4.545125163129298
100
AcDbArc
 50
236.7732549087
 51
275.0067980891
  0
ARC
  5
1C5
330
1F
100
AcDbEntity
  8
0
  6
SLD-Solid
 62
     7
370
    15
100
AcDbCircle
 10
1341.0451119297
 20
1542.4116180339
 30
0.0
 40
2.449999999999799
100
AcDbArc
 50
300.0682714757
 51
332.2356942331
  0
ARC
  5
1C6
330
1F
100
AcDbEntity
  8
0
  6
SLD-Solid
 62
     7
370
    15
100
AcDbCircle
 10
445.9451119297
 20
1542.4116180339
 30
0.0
 40
2.450000000000045
100
AcDbArc
 50
207.7643057669
 51
270.0
  0
ARC
  5
1C7
330
1F
100
AcDbEntity
  8
0
  6
SLD-Solid
 62
     7
370
    15
100
AcDbCircle
 10
1011.2960803232
 20
1485.5086446547
 30
0.0
 40
0.066291851376314
100
AcDbArc
 50
295.4141558554
 51
333.5974103081
  0
ARC
  5
1C8
330
1F
100
AcDbEntity
  8
0
  6
SLD-Solid
 62
     7
370
    15
100
AcDbCircle
 10
995.4951121672
 20
1510.5500531016
 30
0.0
 40
29.67566322321571
100
AcDbArc
 50
237.7635751065
 51
302.2364248935
  0
ARC
  5
1C9
330
1F
100
AcDbEntity
  8
0
  6
SLD-Solid
 62
     7
370
    15
100
AcDbCircle
 10
979.6958977364
 20
1485.5104288982
 30
0.0
 40
0.0686609344087077
100
AcDbArc
 50
207.085450332
 51
243.9029835043
  0
LINE
  5
1CA
330
1F
100
AcDbEntity
  8
0
  6
SLD-Solid
 62
     7
370
    15
100
AcDbLine
 10
981.4002341791
 20
1487.8254435187
 30
0.0
 11
983.8919392987
 21
1499.2962978011
 31
0.0
  0
LINE
  5
1CB
330
1F
100
AcDbEntity
  8
0
  6
SLD-Solid
 62
     7
370
    15
100
AcDbLine
 10
983.8764271899
 20
1499.2329976683
 30
0.0
 11
983.881292419
 21
1499.2567203169
 31
0.0
  0
LINE
  5
1CC
330
1F
100
AcDbEntity
  8
0
  6
SLD-Solid
 62
     7
370
    15
100
AcDbLine
 10
1007.1137971445
 20
1499.2329976683
 30
0.0
 11
1007.1089319153
 21
1499.2567203169
 31
0.0
  0
LINE
  5
1CD
330
1F
100
AcDbEntity
  8
0
  6
SLD-Solid
 62
     7
370
    15
100
AcDbLine
 10
1007.0982850357
 20
1499.2962978011
 30
0.0
 11
1009.5899901553
 21
1487.8254435187
 31
0.0
  0
ARC
  5
1CE
330
1F
100
AcDbEntity
  8
0
  6
SLD-Solid
 62
     7
370
    15
100
AcDbCircle
 10
930.0652519385
 20
1513.8652823096
 30
0.0
 40
55.76349685756372
100
AcDbArc
 50
344.8549337107
 51
15.1450662893
  0
ARC
  5
1CF
330
1F
100
AcDbEntity
  8
0
  6
SLD-Solid
 62
     7
370
    15
100
AcDbCircle
 10
929.961006125
 20
1508.8893199315
 30
0.0
 40
55.58765197422337
100
AcDbArc
 50
359.3366458795
 51
16.8658549072
  0
ARC
  5
1D0
330
1F
100
AcDbEntity
  8
0
  6
SLD-Solid
 62
     7
370
    15
100
AcDbCircle
 10
1060.9249723959
 20
1513.8652823096
 30
0.0
 40
55.76349685756383
100
AcDbArc
 50
164.8549337107
 51
195.1450662893
  0
ARC
  5
1D1
330
1F
100
AcDbEntity
  8
0
  6
SLD-Solid
 62
     7
370
    15
100
AcDbCircle
 10
1061.0983391574
 20
1508.8801653411
 30
0.0
 40
55.65666319297276
100
AcDbArc
 50
162.321170039
 51
180.6531067421
  0
ARC
  5
1D2
330
1F
100
AcDbEntity
  8
0
  6
SLD-Solid
 62
     7
370
    15
100
AcDbCircle
 10
995.4951121672
 20
1498.0615700745
 30
0.0
 40
1.501222952724394
100
AcDbArc
 50
182.3135082113
 51
357.6864917887
  0
LINE
  5
1D3
330
1F
100
AcDbEntity
  8
0
  6
SLD-Solid
 62
     7
370
    15
100
AcDbLine
 10
996.9951114817
 20
1498.0009696608
 30
0.0
 11
996.9951114817
 21
1532.0427320128
 31
0.0
  0
LINE
  5
1D4
330
1F
100
AcDbEntity
  8
0
  6
SLD-Solid
 62
     7
370
    15
100
AcDbLine
 10
993.9951128526
 20
1532.0427320128
 30
0.0
 11
993.9951128526
 21
1498.0009696608
 31
0.0
  0
ARC
  5
1D5
330
1F
100
AcDbEntity
  8
0
  6
SLD-Solid
 62
     7
370
    15
100
AcDbCircle
 10
995.5543960793
 20
1512.3554699279
 30
0.0
 40
20.42585347744794
100
AcDbArc
 50
57.1163156368
 51
85.9553459333
  0
LINE
  5
1D6
330
1F
100
AcDbEntity
  8
0
  6
SLD-Solid
 62
     7
370
    15
100
AcDbLine
 10
996.9951114817
 20
1532.0427320128
 30
0.0
 11
996.9951114817
 21
1532.7304504042
 31
0.0
  0
ARC
  5
1D7
330
1F
100
AcDbEntity
  8
0
  6
SLD-Solid
 62
     7
370
    15
100
AcDbCircle
 10
995.4358282551
 20
1512.3554699279
 30
0.0
 40
20.42585347744793
100
AcDbArc
 50
94.0446540667
 51
122.8836843632
  0
LINE
  5
1D8
330
1F
100
AcDbEntity
  8
0
  6
SLD-Solid
 62
     7
370
    15
100
AcDbLine
 10
993.9951128526
 20
1532.7304504042
 30
0.0
 11
993.9951128526
 21
1532.0427320128
 31
0.0
  0
ARC
  5
1D9
330
1F
100
AcDbEntity
  8
0
  6
SLD-Solid
 62
     7
370
    15
100
AcDbCircle
 10
1011.2457973016
 20
1530.3872209548
 30
0.0
 40
0.1616632212327727
100
AcDbArc
 50
47.2871691103
 51
60.8553013804
  0
LINE
  5
1DA
330
1F
100
AcDbEntity
  8
0
  6
SLD-Solid
 62
     7
370
    15
100
AcDbLine
 10
995.7602373524
 20
1535.0129506712
 30
0.0
 11
996.9951114817
 21
1532.8923962241
 31
0.0
  0
ARC
  5
1DB
330
1F
100
AcDbEntity
  8
0
  6
SLD-Solid
 62
     7
370
    15
100
AcDbCircle
 10
995.5779770579
 20
1534.4839469781
 30
0.0
 40
0.559520975737721
100
AcDbArc
 50
70.9893770757
 51
96.9003419877
  0
ELLIPSE
  5
1DC
330
1F
100
AcDbEntity
  8
0
  6
SLD-Solid
 62
     7
370
    15
100
AcDbEllipse
 10
995.4951119297
 20
1496.3628487861
 30
0.0
 11
0.0
 21
38.67659121471888
 31
0.0
210
0.0
220
0.0
230
1.0
 40
0.8983300055
 41
6.28273502979974
 42
6.283635584559461
  0
ARC
  5
1DD
330
1F
100
AcDbEntity
  8
0
  6
SLD-Solid
 62
     7
370
    15
100
AcDbCircle
 10
995.4353758505
 20
1534.265911983
 30
0.0
 40
0.7747589231588122
100
AcDbArc
 50
86.7373647141
 51
105.3729162226
  0
LINE
  5
1DE
330
1F
100
AcDbEntity
  8
0
  6
SLD-Solid
 62
     7
370
    15
100
AcDbLine
 10
995.2299869819
 20
1535.0129506712
 30
0.0
 11
993.9951128526
 21
1532.8923962241
 31
0.0
  0
ARC
  5
1DF
330
1F
100
AcDbEntity
  8
0
  6
SLD-Solid
 62
     7
370
    15
100
AcDbCircle
 10
979.7385448185
 20
1530.3953383322
 30
0.0
 40
0.1517134481883567
100
AcDbArc
 50
118.6974783657
 51
133.1600511435
  0
ARC
  5
1E0
330
1F
100
AcDbEntity
  8
0
  6
SLD-Solid
 62
     7
370
    15
100
AcDbCircle
 10
995.4951121672
 20
1505.4266174994
 30
0.0
 40
29.67609775627902
100
AcDbArc
 50
57.7641041683
 51
122.2358958317
  0
LINE
  5
1E1
330
1F
100
AcDbEntity
  8
0
  6
SLD-Solid
 62
     7
370
    15
100
AcDbLine
 10
996.9951114817
 20
1532.7304504042
 30
0.0
 11
996.9951114817
 21
1532.8923962241
 31
0.0
  0
ARC
  5
1E2
330
1F
100
AcDbEntity
  8
0
  6
SLD-Solid
 62
     7
370
    15
100
AcDbCircle
 10
995.0011963913
 20
1532.3955761588
 30
0.0
 40
0.9661755629206843
100
AcDbArc
 50
227.8763323399
 51
267.7057304772
  0
LWPOLYLINE
  5
1E3
330
1F
100
AcDbEntity
  8
0
  6
SLD-Solid
 62
     7
370
    15
100
AcDbPolyline
 90
        3
 70
   128
 43
0.0
 10
994.9625185891
 20
1531.4301750784
 10
994.9906370803
 20
1531.4257643347
 10
994.9951148792
 20
1531.425049079
  0
LWPOLYLINE
  5
1E4
330
1F
100
AcDbEntity
  8
0
  6
SLD-Solid
 62
     7
370
    15
100
AcDbPolyline
 90
        3
 70
   128
 43
0.0
 10
995.9951094552
 20
1531.425049079
 10
995.9995872541
 20
1531.4257643347
 10
996.0277057453
 20
1531.4301750784
  0
ARC
  5
1E5
330
1F
100
AcDbEntity
  8
0
  6
SLD-Solid
 62
     7
370
    15
100
AcDbCircle
 10
995.9490552185
 20
1532.4771872356
 30
0.0
 40
1.049962076788502
100
AcDbArc
 50
274.295934445
 51
307.3840087853
  0
LINE
  5
1E6
330
1F
100
AcDbEntity
  8
0
  6
SLD-Solid
 62
     7
370
    15
100
AcDbLine
 10
995.2299869819
 20
1534.7540280943
 30
0.0
 11
995.2299869819
 21
1535.0129506712
 31
0.0
  0
ARC
  5
1E7
330
1F
100
AcDbEntity
  8
0
  6
SLD-Solid
 62
     7
370
    15
100
AcDbCircle
 10
1009.851738039
 20
1485.9644897686
 30
0.0
 40
1.58009833516459
100
AcDbArc
 50
342.1125817019
 51
20.7904317756
  0
ARC
  5
1E8
330
1F
100
AcDbEntity
  8
0
  6
SLD-Solid
 62
     7
370
    15
100
AcDbCircle
 10
981.137859191
 20
1485.9645056588
 30
0.0
 40
1.57950643812902
100
AcDbArc
 50
159.2020327183
 51
197.8949538042
  0
LWPOLYLINE
  5
1E9
330
1F
100
AcDbEntity
  8
0
  6
SLD-Solid
 62
     7
370
    15
100
AcDbPolyline
 90
       61
 70
   128
 43
0.0
 10
995.4951084419
 20
1535.8077190047
 10
998.892290072
 20
1535.6383822089
 10
1002.2522411509
 20
1535.1322791701
 10
1005.538163261
 20
1534.2949531203
 10
1008.7140551968
 20
1533.1354639654
 10
1011.7451152964
 20
1531.6666863089
 10
1014.5981363221
 20
1529.9045941954
 10
1017.2418556376
 20
1527.8684995299
 10
1019.6473128362
 20
1525.5807540541
 10
1021.788162665
 20
1523.0664513235
 10
1023.6409432455
 20
1520.3530690794
 10
1025.1853442951
 20
1517.4703500395
 10
1026.4044529958
 20
1514.4498846655
 10
1027.2849030061
 20
1511.3248131399
 10
1027.8170681759
 20
1508.1292889243
 10
1027.9951072498
 20
1504.8984191542
 10
1027.8170681759
 20
1501.6674897795
 10
1027.2849030061
 20
1498.4719655638
 10
1026.4044529958
 20
1495.3468940382
 10
1025.1853442951
 20
1492.3264286642
 10
1023.6409432455
 20
1489.4437096243
 10
1021.788162665
 20
1486.7303273802
 10
1019.6473128362
 20
1484.2160246497
 10
1017.2418556376
 20
1481.9282791739
 10
1014.5981363221
 20
1479.892244113
 10
1011.7451152964
 20
1478.1301519995
 10
1008.7140551968
 20
1476.6613147383
 10
1005.538163261
 20
1475.5018851881
 10
1002.2522411509
 20
1474.6644995337
 10
998.892290072
 20
1474.1583964949
 10
995.4951084419
 20
1473.9890596991
 10
992.0979342623
 20
1474.1583964949
 10
988.7379831834
 20
1474.6644995337
 10
985.4520610734
 20
1475.5018851881
 10
982.2761691375
 20
1476.6613147383
 10
979.2451090379
 20
1478.1301519995
 10
976.3920880123
 20
1479.892244113
 10
973.7483686968
 20
1481.9282791739
 10
971.3429040476
 20
1484.2160246497
 10
969.2020616694
 20
1486.7303273802
 10
967.3492885395
 20
1489.4437096243
 10
965.8048874899
 20
1492.3264286642
 10
964.5857787891
 20
1495.3468940382
 10
963.7053138776
 20
1498.4719655638
 10
963.1731487079
 20
1501.6674897795
 10
962.995109634
 20
1504.8984191542
 10
963.1731487079
 20
1508.1292889243
 10
963.7053138776
 20
1511.3248131399
 10
964.5857787891
 20
1514.4498846655
 10
965.8048874899
 20
1517.4703500395
 10
967.3492885395
 20
1520.3530690794
 10
969.2020616694
 20
1523.0664513235
 10
971.3429040476
 20
1525.5807540541
 10
973.7483686968
 20
1527.8684995299
 10
976.3920880123
 20
1529.9045941954
 10
979.2451090379
 20
1531.6666863089
 10
982.2761691375
 20
1533.1354639654
 10
985.4520610734
 20
1534.2949531203
 10
988.7379831834
 20
1535.1322791701
 10
992.0979342623
 20
1535.6383822089
 10
995.4951084419
 20
1535.8077190047
  0
ARC
  5
1EA
330
1F
100
AcDbEntity
  8
0
  6
SLD-Solid
 62
     7
370
    15
100
AcDbCircle
 10
997.2075895118
 20
1507.4819975306
 30
0.0
 40
27.08234241591622
100
AcDbArc
 50
12.3490378426
 51
53.6110777248
  0
ARC
  5
1EB
330
1F
100
AcDbEntity
  8
0
  6
SLD-Solid
 62
     7
370
    15
100
AcDbCircle
 10
993.8608799434
 20
1507.4422269439
 30
0.0
 40
27.16081102869479
100
AcDbArc
 50
126.4720357439
 51
170.1534939891
  0
LWPOLYLINE
  5
1EC
330
1F
100
AcDbEntity
  8
0
  6
SLD-Solid
 62
     7
370
    15
100
AcDbPolyline
 90
        3
 70
   128
 43
0.0
 10
1024.9979770942
 20
1499.7563264494
 10
1024.8028016849
 20
1499.7947118407
 10
1024.6246583028
 20
1499.9379418021
  0
LWPOLYLINE
  5
1ED
330
1F
100
AcDbEntity
  8
0
  6
SLD-Solid
 62
     7
370
    15
100
AcDbPolyline
 90
        6
 70
   128
 43
0.0
 10
1024.3299133344
 20
1501.2878677969
 10
1024.3868953748
 20
1501.494576705
 10
1024.4608498378
 20
1501.6665957098
 10
1024.5487964912
 20
1501.7820499068
 10
1024.6441639229
 20
1501.8362305289
 10
1024.7094161077
 20
1501.8246076231
  0
ARC
  5
1EE
330
1F
100
AcDbEntity
  8
0
  6
SLD-Solid
 62
     7
370
    15
100
AcDbCircle
 10
1025.6491458042
 20
1500.8687705549
 30
0.0
 40
1.384202589063171
100
AcDbArc
 50
162.375851449
 51
222.2576545686
  0
LINE
  5
1EF
330
1F
100
AcDbEntity
  8
0
  6
SLD-Solid
 62
     7
370
    15
100
AcDbLine
 10
1024.8854435249
 20
1502.8013489371
 30
0.0
 11
1025.0382996364
 21
1503.8850209837
 31
0.0
  0
LINE
  5
1F0
330
1F
100
AcDbEntity
  8
0
  6
SLD-Solid
 62
     7
370
    15
100
AcDbLine
 10
1024.6097720428
 20
1502.5223395949
 30
0.0
 11
1024.6864683195
 21
1502.9844544058
 31
0.0
  0
LINE
  5
1F1
330
1F
100
AcDbEntity
  8
0
  6
SLD-Solid
 62
     7
370
    15
100
AcDbLine
 10
1024.8087770506
 20
1502.3392341261
 30
0.0
 11
1024.6097720428
 21
1502.5223395949
 31
0.0
  0
LINE
  5
1F2
330
1F
100
AcDbEntity
  8
0
  6
SLD-Solid
 62
     7
370
    15
100
AcDbLine
 10
1024.7697807117
 20
1502.1185181265
 30
0.0
 11
1024.8087770506
 21
1502.3392341261
 31
0.0
  0
LINE
  5
1F3
330
1F
100
AcDbEntity
  8
0
  6
SLD-Solid
 62
     7
370
    15
100
AcDbLine
 10
1024.9404437109
 20
1501.9616983061
 30
0.0
 11
1024.7697807117
 21
1502.1185181265
 31
0.0
  0
LINE
  5
1F4
330
1F
100
AcDbEntity
  8
0
  6
SLD-Solid
 62
     7
370
    15
100
AcDbLine
 10
1025.6035006805
 20
1501.6091368323
 30
0.0
 11
1024.9794102474
 21
1502.1824143057
 31
0.0
  0
LINE
  5
1F5
330
1F
100
AcDbEntity
  8
0
  6
SLD-Solid
 62
     7
370
    15
100
AcDbLine
 10
1025.6241238876
 20
1504.9431226378
 30
0.0
 11
1025.6511843963
 21
1505.4034493094
 31
0.0
  0
ARC
  5
1F6
330
1F
100
AcDbEntity
  8
0
  6
SLD-Solid
 62
     7
370
    15
100
AcDbCircle
 10
1025.1086644963
 20
1504.5315206682
 30
0.0
 40
0.6596321440532089
100
AcDbArc
 50
352.3278568103
 51
38.6078841784
  0
LWPOLYLINE
  5
1F7
330
1F
100
AcDbEntity
  8
0
  6
SLD-Solid
 62
     7
370
    15
100
AcDbPolyline
 90
        8
 70
   128
 43
0.0
 10
1025.6050653024
 20
1504.2111775999
 10
1025.6314701601
 20
1504.1950247412
 10
1025.6580240293
 20
1504.1919849043
 10
1025.6836093231
 20
1504.203786624
 10
1025.7071233555
 20
1504.2301914816
 10
1025.7274485393
 20
1504.2692921286
 10
1025.7437206073
 20
1504.3195984488
 10
1025.7623917623
 20
1504.4434569006
  0
LINE
  5
1F8
330
1F
100
AcDbEntity
  8
0
  6
SLD-Solid
 62
     7
370
    15
100
AcDbLine
 10
1024.8657739921
 20
1504.3070218687
 30
0.0
 11
1024.9971873327
 21
1506.026198638
 31
0.0
  0
LINE
  5
1F9
330
1F
100
AcDbEntity
  8
0
  6
SLD-Solid
 62
     7
370
    15
100
AcDbLine
 10
1025.0364965959
 20
1504.1625998144
 30
0.0
 11
1024.8657739921
 21
1504.3070218687
 31
0.0
  0
LINE
  5
1FA
330
1F
100
AcDbEntity
  8
0
  6
SLD-Solid
 62
     7
370
    15
100
AcDbLine
 10
1025.2083814903
 20
1504.6719215041
 30
0.0
 11
1025.1159793897
 21
1505.0473711615
 31
0.0
  0
ARC
  5
1FB
330
1F
100
AcDbEntity
  8
0
  6
SLD-Solid
 62
     7
370
    15
100
AcDbCircle
 10
1027.091966694
 20
1504.8619128249
 30
0.0
 40
1.893142868812803
100
AcDbArc
 50
185.7597644417
 51
216.7269016133
  0
LINE
  5
1FC
330
1F
100
AcDbEntity
  8
0
  6
SLD-Solid
 62
     7
370
    15
100
AcDbLine
 10
1025.6941593452
 20
1503.6988756781
 30
0.0
 11
1025.5746222301
 21
1503.7298104887
 31
0.0
  0
LWPOLYLINE
  5
1FD
330
1F
100
AcDbEntity
  8
0
  6
SLD-Solid
 62
     7
370
    15
100
AcDbPolyline
 90
        3
 70
   128
 43
0.0
 10
1023.4241313501
 20
1517.7315375929
 10
1023.372260408
 20
1517.703165782
 10
1023.2245749994
 20
1517.7435777312
  0
LWPOLYLINE
  5
1FE
330
1F
100
AcDbEntity
  8
0
  6
SLD-Solid
 62
     7
370
    15
100
AcDbPolyline
 90
        6
 70
   128
 43
0.0
 10
1022.3943121
 20
1518.7370679503
 10
1022.3067826791
 20
1518.9338228827
 10
1022.2437507673
 20
1519.1090605383
 10
1022.2161240144
 20
1519.2438266402
 10
1022.2240812345
 20
1519.3300149565
 10
1022.2657895847
 20
1519.3545124655
  0
ARC
  5
1FF
330
1F
100
AcDbEntity
  8
0
  6
SLD-Solid
 62
     7
370
    15
100
AcDbCircle
 10
1024.1973833751
 20
1519.4002285161
 30
0.0
 40
1.921157973489861
100
AcDbArc
 50
200.1932688233
 51
239.5779517661
  0
LINE
  5
200
330
1F
100
AcDbEntity
  8
0
  6
SLD-Solid
 62
     7
370
    15
100
AcDbLine
 10
1022.3389542862
 20
1519.9954412108
 30
0.0
 11
1021.8126303716
 21
1520.908882392
 31
0.0
  0
LINE
  5
201
330
1F
100
AcDbEntity
  8
0
  6
SLD-Solid
 62
     7
370
    15
100
AcDbLine
 10
1021.349248962
 20
1520.7292935973
 30
0.0
 11
1021.2109959884
 21
1521.0547349577
 31
0.0
  0
LINE
  5
202
330
1F
100
AcDbEntity
  8
0
  6
SLD-Solid
 62
     7
370
    15
100
AcDbLine
 10
1022.6916200681
 20
1519.4441578513
 30
0.0
 11
1021.349248962
 21
1520.7292935973
 31
0.0
  0
LINE
  5
203
330
1F
100
AcDbEntity
  8
0
  6
SLD-Solid
 62
     7
370
    15
100
AcDbLine
 10
1022.7771825357
 20
1519.4130442267
 30
0.0
 11
1022.6916349693
 21
1519.4441578513
 31
0.0
  0
LINE
  5
204
330
1F
100
AcDbEntity
  8
0
  6
SLD-Solid
 62
     7
370
    15
100
AcDbLine
 10
1020.8124048277
 20
1522.3259232169
 30
0.0
 11
1020.5428130193
 21
1522.714843524
 31
0.0
  0
ARC
  5
205
330
1F
100
AcDbEntity
  8
0
  6
SLD-Solid
 62
     7
370
    15
100
AcDbCircle
 10
1020.2907525782
 20
1521.4625669964
 30
0.0
 40
1.008714544748582
100
AcDbArc
 50
30.5056111854
 51
58.8590245726
  0
LWPOLYLINE
  5
206
330
1F
100
AcDbEntity
  8
0
  6
SLD-Solid
 62
     7
370
    15
100
AcDbPolyline
 90
        8
 70
   128
 43
0.0
 10
1021.2416625782
 20
1521.7159888869
 10
1021.2606168552
 20
1521.7140219336
 10
1021.2718523307
 20
1521.7229626303
 10
1021.2740129991
 20
1521.7437050467
 10
1021.2668604417
 20
1521.7753551131
 10
1021.2510205074
 20
1521.8160054808
 10
1021.2267167135
 20
1521.8647620802
 10
1021.1598403021
 20
1521.9746134405
  0
LINE
  5
207
330
1F
100
AcDbEntity
  8
0
  6
SLD-Solid
 62
     7
370
    15
100
AcDbLine
 10
1020.9200210138
 20
1521.4757225638
 30
0.0
 11
1019.940612392
 21
1522.9466459875
 31
0.0
  0
LINE
  5
208
330
1F
100
AcDbEntity
  8
0
  6
SLD-Solid
 62
     7
370
    15
100
AcDbLine
 10
1021.0659033819
 20
1521.4303634291
 30
0.0
 11
1020.9200210138
 21
1521.4757225638
 31
0.0
  0
LINE
  5
209
330
1F
100
AcDbEntity
  8
0
  6
SLD-Solid
 62
     7
370
    15
100
AcDbLine
 10
1020.8285874887
 20
1521.9247839575
 30
0.0
 11
1020.5724216266
 21
1522.1944949751
 31
0.0
  0
ARC
  5
20A
330
1F
100
AcDbEntity
  8
0
  6
SLD-Solid
 62
     7
370
    15
100
AcDbCircle
 10
1022.8271664394
 20
1523.4459931056
 30
0.0
 40
2.511651865651682
100
AcDbArc
 50
217.2764095496
 51
238.4600898874
  0
LINE
  5
20B
330
1F
100
AcDbEntity
  8
0
  6
SLD-Solid
 62
     7
370
    15
100
AcDbLine
 10
1021.5747631355
 20
1521.3313601141
 30
0.0
 11
1021.5133405491
 21
1521.305372489
 31
0.0
  0
LINE
  5
20C
330
1F
100
AcDbEntity
  8
0
  6
SLD-Solid
 62
     7
370
    15
100
AcDbLine
 10
1014.6846226617
 20
1484.5124981528
 30
0.0
 11
1014.5459301038
 21
1484.7566387778
 31
0.0
  0
LWPOLYLINE
  5
20D
330
1F
100
AcDbEntity
  8
0
  6
SLD-Solid
 62
     7
370
    15
100
AcDbPolyline
 90
        6
 70
   128
 43
0.0
 10
1014.9091533585
 20
1486.0923192625
 10
1015.0901130601
 20
1486.2253568297
 10
1015.2736655636
 20
1486.3173267966
 10
1015.4396048947
 20
1486.3517186766
 10
1015.590404646
 20
1486.3303802138
 10
1015.7064325376
 20
1486.2424633627
  0
ARC
  5
20E
330
1F
100
AcDbEntity
  8
0
  6
SLD-Solid
 62
     7
370
    15
100
AcDbCircle
 10
1015.5191418364
 20
1485.2092122929
 30
0.0
 40
1.073295794744783
100
AcDbArc
 50
124.6340013403
 51
204.9398827043
  0
LINE
  5
20F
330
1F
100
AcDbEntity
  8
0
  6
SLD-Solid
 62
     7
370
    15
100
AcDbLine
 10
1017.1301565333
 20
1486.3620302801
 30
0.0
 11
1017.5080574318
 21
1486.7318174963
 31
0.0
  0
LINE
  5
210
330
1F
100
AcDbEntity
  8
0
  6
SLD-Solid
 62
     7
370
    15
100
AcDbLine
 10
1016.2091083093
 20
1487.1878526335
 30
0.0
 11
1016.5609321757
 21
1487.5227711325
 31
0.0
  0
LINE
  5
211
330
1F
100
AcDbEntity
  8
0
  6
SLD-Solid
 62
     7
370
    15
100
AcDbLine
 10
1016.9022060199
 20
1485.7743880873
 30
0.0
 11
1016.2091083093
 21
1487.1878526335
 31
0.0
  0
LINE
  5
212
330
1F
100
AcDbEntity
  8
0
  6
SLD-Solid
 62
     7
370
    15
100
AcDbLine
 10
1018.599820809
 20
1488.2076881056
 30
0.0
 11
1018.9121342464
 21
1488.563349021
 31
0.0
  0
ARC
  5
213
330
1F
100
AcDbEntity
  8
0
  6
SLD-Solid
 62
     7
370
    15
100
AcDbCircle
 10
1018.1397422045
 20
1488.051194568
 30
0.0
 40
0.4859655847917985
100
AcDbArc
 50
313.8724963931
 51
18.7854911434
  0
LWPOLYLINE
  5
214
330
1F
100
AcDbEntity
  8
0
  6
SLD-Solid
 62
     7
370
    15
100
AcDbPolyline
 90
        8
 70
   128
 43
0.0
 10
1018.140477614
 20
1487.6231453543
 10
1018.1642151638
 20
1487.5910184508
 10
1018.1958056255
 20
1487.5693819647
 10
1018.2348019643
 20
1487.5608585005
 10
1018.2802952095
 20
1487.5656268721
 10
1018.3292157217
 20
1487.5830314284
 10
1018.3793432279
 20
1487.6126549368
 10
1018.4765435024
 20
1487.7008698111
  0
LINE
  5
215
330
1F
100
AcDbEntity
  8
0
  6
SLD-Solid
 62
     7
370
    15
100
AcDbLine
 10
1017.2671578093
 20
1488.2274768477
 30
0.0
 11
1018.4566951557
 21
1489.5401499396
 31
0.0
  0
LINE
  5
216
330
1F
100
AcDbEntity
  8
0
  6
SLD-Solid
 62
     7
370
    15
100
AcDbLine
 10
1017.3972747489
 20
1487.9873297339
 30
0.0
 11
1017.2671578093
 21
1488.2274768477
 31
0.0
  0
LINE
  5
217
330
1F
100
AcDbEntity
  8
0
  6
SLD-Solid
 62
     7
370
    15
100
AcDbLine
 10
1017.9120428129
 20
1488.2832071905
 30
0.0
 11
1018.0182880922
 21
1488.6566898947
 31
0.0
  0
ARC
  5
218
330
1F
100
AcDbEntity
  8
0
  6
SLD-Solid
 62
     7
370
    15
100
AcDbCircle
 10
1019.2318738294
 20
1487.6457297871
 30
0.0
 40
1.465718715156527
100
AcDbArc
 50
154.2194917962
 51
195.689484352
  0
LINE
  5
219
330
1F
100
AcDbEntity
  8
0
  6
SLD-Solid
 62
     7
370
    15
100
AcDbLine
 10
1017.9527602358
 20
1487.1391556387
 30
0.0
 11
1017.82076575
 21
1487.2493646269
 31
0.0
  0
ARC
  5
21A
330
1F
100
AcDbEntity
  8
0
  6
SLD-Solid
 62
     7
370
    15
100
AcDbCircle
 10
998.2213587134
 20
1478.5294407048
 30
0.0
 40
0.7604109918509296
100
AcDbArc
 50
7.9616120202
 51
104.7873194579
  0
ARC
  5
21B
330
1F
100
AcDbEntity
  8
0
  6
SLD-Solid
 62
     7
370
    15
100
AcDbCircle
 10
997.9965066055
 20
1478.4181610095
 30
0.0
 40
0.8470648884111367
100
AcDbArc
 50
87.918176235
 51
186.8946305722
  0
ARC
  5
21C
330
1F
100
AcDbEntity
  8
0
  6
SLD-Solid
 62
     7
370
    15
100
AcDbCircle
 10
999.8351580431
 20
1478.1123790285
 30
0.0
 40
0.4125095125025132
100
AcDbArc
 50
118.9119881917
 51
181.5965218175
  0
ARC
  5
21D
330
1F
100
AcDbEntity
  8
0
  6
SLD-Solid
 62
     7
370
    15
100
AcDbCircle
 10
1000.6103353869
 20
1478.2738638507
 30
0.0
 40
0.378034356206581
100
AcDbArc
 50
8.6868770485
 51
73.5232804359
  0
LWPOLYLINE
  5
21E
330
1F
100
AcDbEntity
  8
0
  6
SLD-Solid
 62
     7
370
    15
100
AcDbPolyline
 90
        7
 70
   128
 43
0.0
 10
1000.077304916
 20
1479.5014760619
 10
1000.4206649228
 20
1479.5310399657
 10
1000.589301364
 20
1479.5186421995
 10
1000.7335073515
 20
1479.4817469244
 10
1000.8559799953
 20
1479.4191620474
 10
1000.9488738342
 20
1479.3371460562
 10
1001.0340116187
 20
1479.1324041014
  0
LWPOLYLINE
  5
21F
330
1F
100
AcDbEntity
  8
0
  6
SLD-Solid
 62
     7
370
    15
100
AcDbPolyline
 90
        7
 70
   128
 43
0.0
 10
999.2234534784
 20
1478.8604281073
 10
999.2725528045
 20
1479.0816209441
 10
999.3485561772
 20
1479.188015235
 10
999.4542203112
 20
1479.2839787131
 10
999.5863489075
 20
1479.3637893324
 10
999.7430718704
 20
1479.4266722327
 10
1000.077304916
 20
1479.5014760619
  0
LINE
  5
220
330
1F
100
AcDbEntity
  8
0
  6
SLD-Solid
 62
     7
370
    15
100
AcDbLine
 10
1002.4356520935
 20
1478.5078070288
 30
0.0
 11
1002.9596514269
 21
1478.6275527602
 31
0.0
  0
LINE
  5
221
330
1F
100
AcDbEntity
  8
0
  6
SLD-Solid
 62
     7
370
    15
100
AcDbLine
 10
1001.7761043473
 20
1479.7615907317
 30
0.0
 11
1002.2586784526
 21
1479.8656604414
 31
0.0
  0
LINE
  5
222
330
1F
100
AcDbEntity
  8
0
  6
SLD-Solid
 62
     7
370
    15
100
AcDbLine
 10
1001.9913516207
 20
1478.1080386763
 30
0.0
 11
1001.7761043473
 21
1479.7615907317
 31
0.0
  0
LWPOLYLINE
  5
223
330
1F
100
AcDbEntity
  8
0
  6
SLD-Solid
 62
     7
370
    15
100
AcDbPolyline
 90
        3
 70
   128
 43
0.0
 10
980.4661399885
 20
1482.1233651762
 10
980.326463954
 20
1481.8223021155
 10
980.3076437874
 20
1481.8068645125
  0
ARC
  5
224
330
1F
100
AcDbEntity
  8
0
  6
SLD-Solid
 62
     7
370
    15
100
AcDbCircle
 10
979.5063283258
 20
1482.4578831681
 30
0.0
 40
1.016435297888126
100
AcDbArc
 50
340.7852964016
 51
65.3883587723
  0
LWPOLYLINE
  5
225
330
1F
100
AcDbEntity
  8
0
  6
SLD-Solid
 62
     7
370
    15
100
AcDbPolyline
 90
        6
 70
   128
 43
0.0
 10
979.0009386106
 20
1483.2972786551
 10
979.1990719004
 20
1483.4946892386
 10
979.3466604515
 20
1483.5460684424
 10
979.5243940516
 20
1483.5448167448
 10
979.7259322568
 20
1483.4850928908
 10
979.9296385809
 20
1483.3819768553
  0
LINE
  5
226
330
1F
100
AcDbEntity
  8
0
  6
SLD-Solid
 62
     7
370
    15
100
AcDbLine
 10
981.8269065781
 20
1481.5701148634
 30
0.0
 11
982.1746475263
 21
1481.3401601439
 31
0.0
  0
ARC
  5
227
330
1F
100
AcDbEntity
  8
0
  6
SLD-Solid
 62
     7
370
    15
100
AcDbCircle
 10
981.7296136157
 20
1482.0313060774
 30
0.0
 40
0.4713419739404985
100
AcDbArc
 50
243.2822174125
 51
281.9124572623
  0
ARC
  5
228
330
1F
100
AcDbEntity
  8
0
  6
SLD-Solid
 62
     7
370
    15
100
AcDbCircle
 10
981.663653731
 20
1481.9854907092
 30
0.0
 40
0.4025906845969925
100
AcDbArc
 50
174.4507928496
 51
248.7439651343
  0
ARC
  5
229
330
1F
100
AcDbEntity
  8
0
  6
SLD-Solid
 62
     7
370
    15
100
AcDbCircle
 10
981.3928076893
 20
1481.3754950677
 30
0.0
 40
1.072095514151818
100
AcDbArc
 50
10.1352567397
 51
69.116524213
  0
ARC
  5
22A
330
1F
100
AcDbEntity
  8
0
  6
SLD-Solid
 62
     7
370
    15
100
AcDbCircle
 10
981.3307425064
 20
1481.749588096
 30
0.0
 40
0.7688901875489584
100
AcDbArc
 50
54.7068961825
 51
120.0767285516
  0
LINE
  5
22B
330
1F
100
AcDbEntity
  8
0
  6
SLD-Solid
 62
     7
370
    15
100
AcDbLine
 10
981.3899747296
 20
1481.0403487807
 30
0.0
 11
981.5663672252
 21
1481.2804362898
 31
0.0
  0
LINE
  5
22C
330
1F
100
AcDbEntity
  8
0
  6
SLD-Solid
 62
     7
370
    15
100
AcDbLine
 10
980.6366316243
 20
1481.425215972
 30
0.0
 11
981.3899747296
 21
1481.0403487807
 31
0.0
  0
LINE
  5
22D
330
1F
100
AcDbEntity
  8
0
  6
SLD-Solid
 62
     7
370
    15
100
AcDbLine
 10
983.4191701575
 20
1480.1148078566
 30
0.0
 11
983.9191637202
 21
1479.9126885062
 31
0.0
  0
LINE
  5
22E
330
1F
100
AcDbEntity
  8
0
  6
SLD-Solid
 62
     7
370
    15
100
AcDbLine
 10
983.7375334664
 20
1481.4389250403
 30
0.0
 11
983.4191701575
 21
1480.1148078566
 31
0.0
  0
LINE
  5
22F
330
1F
100
AcDbEntity
  8
0
  6
SLD-Solid
 62
     7
370
    15
100
AcDbLine
 10
983.2812822624
 20
1481.6301963454
 30
0.0
 11
983.7375334664
 21
1481.4389250403
 31
0.0
  0
LWPOLYLINE
  5
230
330
1F
100
AcDbEntity
  8
0
  6
SLD-Solid
 62
     7
370
    15
100
AcDbPolyline
 90
        3
 70
   128
 43
0.0
 10
967.9983458682
 20
1495.3986308699
 10
967.7950344248
 20
1495.206823123
 10
967.6769278212
 20
1495.1826236372
  0
ARC
  5
231
330
1F
100
AcDbEntity
  8
0
  6
SLD-Solid
 62
     7
370
    15
100
AcDbCircle
 10
966.9646739462
 20
1496.1791208472
 30
0.0
 40
1.295238297353625
100
AcDbArc
 50
322.9448062386
 51
27.9543289641
  0
ARC
  5
232
330
1F
100
AcDbEntity
  8
0
  6
SLD-Solid
 62
     7
370
    15
100
AcDbCircle
 10
967.4911634122
 20
1496.6614412776
 30
0.0
 40
0.630114116490757
100
AcDbArc
 50
11.4277036122
 51
72.9615457854
  0
LINE
  5
233
330
1F
100
AcDbEntity
  8
0
  6
SLD-Solid
 62
     7
370
    15
100
AcDbLine
 10
968.499971108
 20
1493.8351414328
 30
0.0
 11
968.7206200524
 21
1493.4196970587
 31
0.0
  0
LWPOLYLINE
  5
234
330
1F
100
AcDbEntity
  8
0
  6
SLD-Solid
 62
     7
370
    15
100
AcDbPolyline
 90
        7
 70
   128
 43
0.0
 10
968.1817121072
 20
1493.9662120467
 10
968.2198516293
 20
1493.9006469374
 10
968.2630202933
 20
1493.8456914549
 10
968.3074183031
 20
1493.8074848776
 10
968.3531350656
 20
1493.7844774847
 10
968.4347859784
 20
1493.7849543219
 10
968.499971108
 20
1493.8351414328
  0
ARC
  5
235
330
1F
100
AcDbEntity
  8
0
  6
SLD-Solid
 62
     7
370
    15
100
AcDbCircle
 10
968.5889689057
 20
1494.2332776248
 30
0.0
 40
0.4870134729932873
100
AcDbArc
 50
156.1760601481
 51
213.2555412365
  0
LINE
  5
236
330
1F
100
AcDbEntity
  8
0
  6
SLD-Solid
 62
     7
370
    15
100
AcDbLine
 10
968.2445130511
 20
1494.4882295256
 30
0.0
 11
968.1434533759
 21
1494.4299957877
 31
0.0
  0
LINE
  5
237
330
1F
100
AcDbEntity
  8
0
  6
SLD-Solid
 62
     7
370
    15
100
AcDbLine
 10
969.349888639
 20
1494.1449067717
 30
0.0
 11
969.2696533366
 21
1494.0390489226
 31
0.0
  0
LINE
  5
238
330
1F
100
AcDbEntity
  8
0
  6
SLD-Solid
 62
     7
370
    15
100
AcDbLine
 10
968.5541219278
 20
1495.7042238837
 30
0.0
 11
969.349888639
 21
1494.1449067717
 31
0.0
  0
LINE
  5
239
330
1F
100
AcDbEntity
  8
0
  6
SLD-Solid
 62
     7
370
    15
100
AcDbLine
 10
968.5654840632
 20
1494.810333026
 30
0.0
 11
968.7974653407
 21
1494.6949384337
 31
0.0
  0
LWPOLYLINE
  5
23A
330
1F
100
AcDbEntity
  8
0
  6
SLD-Solid
 62
     7
370
    15
100
AcDbPolyline
 90
        3
 70
   128
 43
0.0
 10
968.0545157953
 20
1494.9347279196
 10
968.2146809264
 20
1494.9433705931
 10
968.5654840632
 20
1494.810333026
  0
LINE
  5
23B
330
1F
100
AcDbEntity
  8
0
  6
SLD-Solid
 62
     7
370
    15
100
AcDbLine
 10
968.7206200524
 20
1493.4196970587
 30
0.0
 11
968.5870162411
 21
1493.3299920683
 31
0.0
  0
LINE
  5
23C
330
1F
100
AcDbEntity
  8
0
  6
SLD-Solid
 62
     7
370
    15
100
AcDbLine
 10
969.2815742655
 20
1492.0726916914
 30
0.0
 11
969.557044582
 21
1491.62827946
 31
0.0
  0
LINE
  5
23D
330
1F
100
AcDbEntity
  8
0
  6
SLD-Solid
 62
     7
370
    15
100
AcDbLine
 10
969.9776820107
 20
1493.0715463286
 30
0.0
 11
969.2815742655
 21
1492.0726916914
 31
0.0
  0
LINE
  5
23E
330
1F
100
AcDbEntity
  8
0
  6
SLD-Solid
 62
     7
370
    15
100
AcDbLine
 10
969.7312615081
 20
1493.4819243079
 30
0.0
 11
969.9776820107
 21
1493.0715463286
 31
0.0
  0
LINE
  5
23F
330
1F
100
AcDbEntity
  8
0
  6
SLD-Solid
 62
     7
370
    15
100
AcDbLine
 10
1012.5693730279
 20
1530.6865475302
 30
0.0
 11
1009.9505013986
 21
1532.1565768843
 31
0.0
  0
LINE
  5
240
330
1F
100
AcDbEntity
  8
0
  6
SLD-Solid
 62
     7
370
    15
100
AcDbLine
 10
1013.290902154
 20
1530.0946734076
 30
0.0
 11
1012.3654208346
 21
1530.6682489043
 31
0.0
  0
LINE
  5
241
330
1F
100
AcDbEntity
  8
0
  6
SLD-Solid
 62
     7
370
    15
100
AcDbLine
 10
1013.3872307106
 20
1530.1039717322
 30
0.0
 11
1013.290902154
 21
1530.0946734076
 31
0.0
  0
LINE
  5
242
330
1F
100
AcDbEntity
  8
0
  6
SLD-Solid
 62
     7
370
    15
100
AcDbLine
 10
1013.4390047951
 20
1530.1437280302
 30
0.0
 11
1013.3872307106
 21
1530.1039717322
 31
0.0
  0
LWPOLYLINE
  5
243
330
1F
100
AcDbEntity
  8
0
  6
SLD-Solid
 62
     7
370
    15
100
AcDbPolyline
 90
        7
 70
   128
 43
0.0
 10
1009.2810965343
 20
1532.019366992
 10
1008.8459155722
 20
1532.2397849684
 10
1008.6462102099
 20
1532.3439142828
 10
1008.4846518202
 20
1532.4348709708
 10
1008.3963847919
 20
1532.4979326849
 10
1008.3716488643
 20
1532.5345895415
 10
1008.3801872297
 20
1532.5390598898
  0
LINE
  5
244
330
1F
100
AcDbEntity
  8
0
  6
SLD-Solid
 62
     7
370
    15
100
AcDbLine
 10
1011.5840262933
 20
1530.730714572
 30
0.0
 11
1009.2810965343
 21
1532.019366992
 31
0.0
  0
ARC
  5
245
330
1F
100
AcDbEntity
  8
0
  6
SLD-Solid
 62
     7
370
    15
100
AcDbCircle
 10
1014.0267934362
 20
1533.8646309474
 30
0.0
 40
3.973479981401947
100
AcDbArc
 50
232.0649572178
 51
253.3754721608
  0
LINE
  5
246
330
1F
100
AcDbEntity
  8
0
  6
SLD-Solid
 62
     7
370
    15
100
AcDbLine
 10
1013.0127049251
 20
1530.0690434103
 30
0.0
 11
1012.8899864121
 21
1530.0572416907
 31
0.0
  0
LINE
  5
247
330
1F
100
AcDbEntity
  8
0
  6
SLD-Solid
 62
     7
370
    15
100
AcDbLine
 10
1009.9505013986
 20
1532.1565768843
 30
0.0
 11
1009.3043348952
 21
1532.0983431464
 31
0.0
  0
ARC
  5
248
330
1F
100
AcDbEntity
  8
0
  6
SLD-Solid
 62
     7
370
    15
100
AcDbCircle
 10
996.3324809478
 20
1549.7606097626
 30
0.0
 40
14.47435490411713
100
AcDbArc
 50
266.6834643877
 51
276.5863619223
  0
ARC
  5
249
330
1F
100
AcDbEntity
  8
0
  6
SLD-Solid
 62
     7
370
    15
100
AcDbCircle
 10
994.6574665703
 20
1549.8184304326
 30
0.0
 40
14.53209464287872
100
AcDbArc
 50
263.4521685499
 51
273.3044073142
  0
LWPOLYLINE
  5
24A
330
1F
100
AcDbEntity
  8
0
  6
SLD-Solid
 62
     7
370
    15
100
AcDbPolyline
 90
        5
 70
   128
 43
0.0
 10
1025.5253142877
 20
1513.7808225279
 10
1025.6507075592
 20
1513.5363242751
 10
1025.778634028
 20
1513.3579871779
 10
1025.8906907602
 20
1513.2734081869
 10
1025.9700245424
 20
1513.2955215102
  0
ARC
  5
24B
330
1F
100
AcDbEntity
  8
0
  6
SLD-Solid
 62
     7
370
    15
100
AcDbCircle
 10
1026.6696458294
 20
1514.45234324
 30
0.0
 40
1.326813756343616
100
AcDbArc
 50
171.7199031341
 51
210.4054149684
  0
ARC
  5
24C
330
1F
100
AcDbEntity
  8
0
  6
SLD-Solid
 62
     7
370
    15
100
AcDbCircle
 10
1027.3554708909
 20
1507.6417680633
 30
0.0
 40
0.7621040199266825
100
AcDbArc
 50
186.2625642924
 51
233.0328983677
  0
LWPOLYLINE
  5
24D
330
1F
100
AcDbEntity
  8
0
  6
SLD-Solid
 62
     7
370
    15
100
AcDbPolyline
 90
        6
 70
   128
 43
0.0
 10
1026.7059332891
 20
1508.5016987448
 10
1026.6134417816
 20
1508.4757707243
 10
1026.5508867069
 20
1508.3421967154
 10
1026.5265233083
 20
1508.1211230879
 10
1026.5430635973
 20
1507.8459880476
 10
1026.5979147716
 20
1507.5586340552
  0
LWPOLYLINE
  5
24E
330
1F
100
AcDbEntity
  8
0
  6
SLD-Solid
 62
     7
370
    15
100
AcDbPolyline
 90
        5
 70
   128
 43
0.0
 10
1023.0054385229
 20
1519.4816491728
 10
1023.3312673135
 20
1519.0306208258
 10
1023.6333138509
 20
1518.6949870711
 10
1023.8691247268
 20
1518.5322067862
 10
1023.9596939846
 20
1518.5550353651
  0
ARC
  5
24F
330
1F
100
AcDbEntity
  8
0
  6
SLD-Solid
 62
     7
370
    15
100
AcDbCircle
 10
1024.6113828361
 20
1521.0648387232
 30
0.0
 40
2.255115582305307
100
AcDbArc
 50
180.8624898989
 51
224.5911962926
  0
LWPOLYLINE
  5
250
330
1F
100
AcDbEntity
  8
0
  6
SLD-Solid
 62
     7
370
    15
100
AcDbPolyline
 90
        6
 70
   128
 43
0.0
 10
968.0553428097
 20
1492.396940959
 10
967.9311788841
 20
1492.9558537131
 10
967.7090994282
 20
1493.4913418417
 10
967.4213952585
 20
1493.9211509352
 10
967.1109966202
 20
1494.1796562796
 10
966.8202079101
 20
1494.227578414
  0
LWPOLYLINE
  5
251
330
1F
100
AcDbEntity
  8
0
  6
SLD-Solid
 62
     7
370
    15
100
AcDbPolyline
 90
        5
 70
   128
 43
0.0
 10
967.725855784
 20
1491.3857481604
 10
967.9271406694
 20
1491.5341041212
 10
968.0539868041
 20
1491.8994805937
 10
968.071361558
 20
1492.1377799635
 10
968.0553428097
 20
1492.396940959
  0
LWPOLYLINE
  5
252
330
1F
100
AcDbEntity
  8
0
  6
SLD-Solid
 62
     7
370
    15
100
AcDbPolyline
 90
        7
 70
   128
 43
0.0
 10
982.0745266243
 20
1479.335000289
 10
981.7753262087
 20
1479.7584316855
 10
981.3349670931
 20
1480.1286361342
 10
980.8181501194
 20
1480.3899428969
 10
980.3053564592
 20
1480.5034897452
 10
979.8718965812
 20
1480.450322402
 10
979.582992868
 20
1480.2330038672
  0
ARC
  5
253
330
1F
100
AcDbEntity
  8
0
  6
SLD-Solid
 62
     7
370
    15
100
AcDbCircle
 10
981.4203391132
 20
1478.9599259505
 30
0.0
 40
0.754083588871261
100
AcDbArc
 50
332.1598436778
 51
29.8275349995
  0
LWPOLYLINE
  5
254
330
1F
100
AcDbEntity
  8
0
  6
SLD-Solid
 62
     7
370
    15
100
AcDbPolyline
 90
        4
 70
   128
 43
0.0
 10
971.1386985346
 20
1486.6655371313
 10
971.2660066052
 20
1486.7573282843
 10
971.3226384683
 20
1486.9360230093
 10
971.3002494736
 20
1487.1745011931
  0
ARC
  5
255
330
1F
100
AcDbEntity
  8
0
  6
SLD-Solid
 62
     7
370
    15
100
AcDbCircle
 10
1025.0125342129
 20
1495.0458514375
 30
0.0
 40
0.4811089823011675
100
AcDbArc
 50
165.2236174295
 51
236.5835933057
  0
LWPOLYLINE
  5
256
330
1F
100
AcDbEntity
  8
0
  6
SLD-Solid
 62
     7
370
    15
100
AcDbPolyline
 90
        6
 70
   128
 43
0.0
 10
1025.0703520342
 20
1496.1063168173
 10
1024.9402946993
 20
1496.0817597037
 10
1024.8001045747
 20
1495.948304904
 10
1024.6764696403
 20
1495.7278869276
 10
1024.587599115
 20
1495.4540631895
 10
1024.5473361774
 20
1495.1685569411
  0
LWPOLYLINE
  5
257
330
1F
100
AcDbEntity
  8
0
  6
SLD-Solid
 62
     7
370
    15
100
AcDbPolyline
 90
        4
 70
   128
 43
0.0
 10
1021.517497973
 20
1489.558031333
 10
1021.5057111545
 20
1489.3137118941
 10
1021.5655542179
 20
1489.1332886343
 10
1021.6882801815
 20
1489.0440604811
  0
LWPOLYLINE
  5
258
330
1F
100
AcDbEntity
  8
0
  6
SLD-Solid
 62
     7
370
    15
100
AcDbPolyline
 90
        7
 70
   128
 43
0.0
 10
1022.2716755434
 20
1490.4123447066
 10
1022.2460604473
 20
1490.4311201697
 10
1022.0842040344
 20
1490.4132387762
 10
1021.9048536583
 20
1490.2923605566
 10
1021.7343098684
 20
1490.0873205786
 10
1021.5981281562
 20
1489.82953049
 10
1021.517497973
 20
1489.558031333
  0
LWPOLYLINE
  5
259
330
1F
100
AcDbEntity
  8
0
  6
SLD-Solid
 62
     7
370
    15
100
AcDbPolyline
 90
        7
 70
   128
 43
0.0
 10
975.886171238
 20
1482.7961228018
 10
975.7600701614
 20
1483.0363295203
 10
975.5679196878
 20
1483.2562706595
 10
975.3394774361
 20
1483.4228656416
 10
975.1094109579
 20
1483.5106036787
 10
974.9120823308
 20
1483.5055372839
 10
974.7766903802
 20
1483.4076068526
  0
LWPOLYLINE
  5
25A
330
1F
100
AcDbEntity
  8
0
  6
SLD-Solid
 62
     7
370
    15
100
AcDbPolyline
 90
        4
 70
   128
 43
0.0
 10
975.8352018161
 20
1482.3678634291
 10
975.8734381958
 20
1482.3956391936
 10
975.9262106581
 20
1482.5713536864
 10
975.886171238
 20
1482.7961228018
  0
LWPOLYLINE
  5
25B
330
1F
100
AcDbEntity
  8
0
  6
SLD-Solid
 62
     7
370
    15
100
AcDbPolyline
 90
        3
 70
   128
 43
0.0
 10
1012.1267861887
 20
1480.7538888579
 10
1012.0794824525
 20
1480.5372855788
 10
1012.1314949556
 20
1480.362405551
  0
LWPOLYLINE
  5
25C
330
1F
100
AcDbEntity
  8
0
  6
SLD-Solid
 62
     7
370
    15
100
AcDbPolyline
 90
        7
 70
   128
 43
0.0
 10
1013.2946721478
 20
1481.2956354742
 10
1013.1761855646
 20
1481.3827774649
 10
1012.966839151
 20
1481.4002416258
 10
1012.7205900117
 20
1481.3294313078
 10
1012.4743930264
 20
1481.1817906027
 10
1012.2657097145
 20
1480.9799096709
 10
1012.1267861887
 20
1480.7538888579
  0
LWPOLYLINE
  5
25D
330
1F
100
AcDbEntity
  8
0
  6
SLD-Solid
 62
     7
370
    15
100
AcDbPolyline
 90
        3
 70
   128
 43
0.0
 10
1006.1888746186
 20
1477.9541394835
 10
1006.1329058571
 20
1477.7518413191
 10
1006.1852461858
 20
1477.5762460356
  0
LWPOLYLINE
  5
25E
330
1F
100
AcDbEntity
  8
0
  6
SLD-Solid
 62
     7
370
    15
100
AcDbPolyline
 90
        8
 70
   128
 43
0.0
 10
1007.5048706694
 20
1478.262116683
 10
1007.4935904904
 20
1478.3000252371
 10
1007.342597024
 20
1478.4185192709
 10
1007.1153617664
 20
1478.4631631499
 10
1006.8460083767
 20
1478.4279964094
 10
1006.5752468272
 20
1478.3190987234
 10
1006.3443607851
 20
1478.1529805785
 10
1006.1888746186
 20
1477.9541394835
  0
ARC
  5
25F
330
1F
100
AcDbEntity
  8
0
  6
SLD-Solid
 62
     7
370
    15
100
AcDbCircle
 10
1027.1369601894
 20
1500.9319516509
 30
0.0
 40
1.169412730970041
100
AcDbArc
 50
174.5004774023
 51
234.090608547
  0
LWPOLYLINE
  5
260
330
1F
100
AcDbEntity
  8
0
  6
SLD-Solid
 62
     7
370
    15
100
AcDbPolyline
 90
        7
 70
   128
 43
0.0
 10
1026.5379077955
 20
1502.9516718512
 10
1026.3804025217
 20
1502.9123327856
 10
1026.1854506298
 20
1502.6376745825
 10
1026.0413116975
 20
1502.1862886076
 10
1025.9671337171
 20
1501.6262433653
 10
1025.9590721889
 20
1501.3297102576
 10
1025.9729302688
 20
1501.0440251952
  0
LWPOLYLINE
  5
261
330
1F
100
AcDbEntity
  8
0
  6
SLD-Solid
 62
     7
370
    15
100
AcDbPolyline
 90
        4
 70
   128
 43
0.0
 10
1016.7737282081
 20
1484.5568440085
 10
1016.7065835758
 20
1484.0978882437
 10
1016.8122775121
 20
1483.7436578398
 10
1016.9158927365
 20
1483.6691520338
  0
LWPOLYLINE
  5
262
330
1F
100
AcDbEntity
  8
0
  6
SLD-Solid
 62
     7
370
    15
100
AcDbPolyline
 90
        8
 70
   128
 43
0.0
 10
1018.704099135
 20
1486.0045812254
 10
1018.581060247
 20
1486.092915309
 10
1018.2119882866
 20
1486.0836169844
 10
1017.7848763033
 20
1485.8813784247
 10
1017.3617131277
 20
1485.520233882
 10
1017.0066855117
 20
1485.0551984434
 10
1016.8701685234
 20
1484.8035476332
 10
1016.7737282081
 20
1484.5568440085
  0
LWPOLYLINE
  5
263
330
1F
100
AcDbEntity
  8
0
  6
SLD-Solid
 62
     7
370
    15
100
AcDbPolyline
 90
        9
 70
   128
 43
0.0
 10
1001.8825656934
 20
1476.6247174864
 10
1001.8222159906
 20
1476.8267772322
 10
1001.5074960156
 20
1477.0976803427
 10
1001.0322085782
 20
1477.2471687918
 10
1000.4669628306
 20
1477.2553346281
 10
999.8978055282
 20
1477.1239063864
 10
999.4122660919
 20
1476.8708250647
 10
999.221613185
 20
1476.7089388495
 10
999.0822947784
 20
1476.5330455428
  0
LWPOLYLINE
  5
264
330
1F
100
AcDbEntity
  8
0
  6
SLD-Solid
 62
     7
370
    15
100
AcDbPolyline
 90
        7
 70
   128
 43
0.0
 10
988.1599820419
 20
1476.9725105887
 10
987.9990793033
 20
1477.156867755
 10
987.760593669
 20
1477.3030779486
 10
987.4811074896
 20
1477.3897431021
 10
987.2032380863
 20
1477.4038694029
 10
986.9691184922
 20
1477.342774642
 10
986.8140570088
 20
1477.2146246558
  0
LWPOLYLINE
  5
265
330
1F
100
AcDbEntity
  8
0
  6
SLD-Solid
 62
     7
370
    15
100
AcDbPolyline
 90
        3
 70
   128
 43
0.0
 10
988.1655327244
 20
1476.5998623495
 10
988.2184914513
 20
1476.7771265631
 10
988.1599820419
 20
1476.9725105887
  0
LWPOLYLINE
  5
266
330
1F
100
AcDbEntity
  8
0
  6
SLD-Solid
 62
     7
370
    15
100
AcDbPolyline
 90
        9
 70
   128
 43
0.0
 10
994.2353866263
 20
1476.1356017714
 10
994.0701923533
 20
1476.2952826147
 10
993.8253066703
 20
1476.406326068
 10
993.5380942388
 20
1476.4527580862
 10
993.2523048683
 20
1476.4279029494
 10
993.0114424987
 20
1476.3349793082
 10
992.8520820304
 20
1476.1872193938
 10
992.7984005972
 20
1476.0060808783
 10
992.8225926324
 20
1475.9307406073
  0
LWPOLYLINE
  5
267
330
1F
100
AcDbEntity
  8
0
  6
SLD-Solid
 62
     7
370
    15
100
AcDbPolyline
 90
        3
 70
   128
 43
0.0
 10
994.2578352256
 20
1475.8220217352
 10
994.2956841751
 20
1475.9505293494
 10
994.2353866263
 20
1476.1356017714
  0
ARC
  5
268
330
1F
100
AcDbEntity
  8
0
  6
SLD-Solid
 62
     7
370
    15
100
AcDbCircle
 10
1008.3242189454
 20
1535.1853066387
 30
0.0
 40
2.106258431937405
100
AcDbArc
 50
242.6344968681
 51
265.3064514746
  0
LWPOLYLINE
  5
269
330
1F
100
AcDbEntity
  8
0
  6
SLD-Solid
 62
     7
370
    15
100
AcDbPolyline
 90
        8
 70
   128
 43
0.0
 10
1006.5665445491
 20
1533.6800120001
 10
1006.5619922443
 20
1533.6794159537
 10
1006.5782196088
 20
1533.6590311652
 10
1006.6269911094
 20
1533.6277387266
 10
1006.8055368229
 20
1533.5398218756
 10
1007.0606447025
 20
1533.4304473524
 10
1007.2053871318
 20
1533.3725712424
 10
1007.356045322
 20
1533.3147547369
  0
ARC
  5
26A
330
1F
100
AcDbEntity
  8
0
  6
SLD-Solid
 62
     7
370
    15
100
AcDbCircle
 10
997.9703887971
 20
1478.2892242767
 30
0.0
 40
0.8145439093247498
100
AcDbArc
 50
178.6196051478
 51
281.3868282024
  0
ARC
  5
26B
330
1F
100
AcDbEntity
  8
0
  6
SLD-Solid
 62
     7
370
    15
100
AcDbCircle
 10
997.9970355061
 20
1478.4104740106
 30
0.0
 40
0.8470726787871525
100
AcDbArc
 50
87.9000347709
 51
186.8906421464
  0
LWPOLYLINE
  5
26C
330
1F
100
AcDbEntity
  8
0
  6
SLD-Solid
 62
     7
370
    15
100
AcDbPolyline
 90
        7
 70
   128
 43
0.0
 10
998.0280748768
 20
1479.256977809
 10
998.2603765293
 20
1479.2612097388
 10
998.4801984592
 20
1479.2280695563
 10
998.659288065
 20
1479.1552326804
 10
998.8037324711
 20
1479.0421626692
 10
998.953720109
 20
1478.7715575819
 10
998.9982820316
 20
1478.4763357764
  0
LWPOLYLINE
  5
26D
330
1F
100
AcDbEntity
  8
0
  6
SLD-Solid
 62
     7
370
    15
100
AcDbPolyline
 90
        3
 70
   128
 43
0.0
 10
998.9982820316
 20
1478.4763357764
 10
998.9758781357
 20
1478.1255028372
 10
998.8099090024
 20
1477.782060874
  0
ARC
  5
26E
330
1F
100
AcDbEntity
  8
0
  6
SLD-Solid
 62
     7
370
    15
100
AcDbCircle
 10
998.0823760483
 20
1478.5406678293
 30
0.0
 40
1.051089297708152
100
AcDbArc
 50
272.662710756
 51
313.8021654505
  0
ARC
  5
26F
330
1F
100
AcDbEntity
  8
0
  6
SLD-Solid
 62
     7
370
    15
100
AcDbCircle
 10
998.0610963908
 20
1478.5670819502
 30
0.0
 40
0.3932206053464858
100
AcDbArc
 50
92.3641369564
 51
139.6707895248
  0
LWPOLYLINE
  5
270
330
1F
100
AcDbEntity
  8
0
  6
SLD-Solid
 62
     7
370
    15
100
AcDbPolyline
 90
        3
 70
   128
 43
0.0
 10
997.7613291903
 20
1478.8215658789
 10
997.6646728082
 20
1478.5857102995
 10
997.6543984576
 20
1478.3450863486
  0
LWPOLYLINE
  5
271
330
1F
100
AcDbEntity
  8
0
  6
SLD-Solid
 62
     7
370
    15
100
AcDbPolyline
 90
        7
 70
   128
 43
0.0
 10
997.6543984576
 20
1478.3450863486
 10
997.7251715227
 20
1477.9958031302
 10
997.7789721652
 20
1477.9124758368
 10
997.8564805551
 20
1477.8477451926
 10
997.9682169123
 20
1477.8021476393
 10
998.034467475
 20
1477.7930877333
 10
998.10357161
 20
1477.7941010123
  0
LWPOLYLINE
  5
272
330
1F
100
AcDbEntity
  8
0
  6
SLD-Solid
 62
     7
370
    15
100
AcDbPolyline
 90
        7
 70
   128
 43
0.0
 10
998.10357161
 20
1477.7941010123
 10
998.2425845428
 20
1477.8239033347
 10
998.3043126031
 20
1477.8521559363
 10
998.3559600278
 20
1477.8872034674
 10
998.42143573
 20
1477.961947692
 10
998.4685457512
 20
1478.0632755881
 10
998.4997413321
 20
1478.4341356879
  0
LWPOLYLINE
  5
273
330
1F
100
AcDbEntity
  8
0
  6
SLD-Solid
 62
     7
370
    15
100
AcDbPolyline
 90
        6
 70
   128
 43
0.0
 10
998.4997413321
 20
1478.4341356879
 10
998.4265468283
 20
1478.774060977
 10
998.3734167381
 20
1478.8505337363
 10
998.290298061
 20
1478.9135954504
 10
998.1777942939
 20
1478.9540073996
 10
998.0448759361
 20
1478.9599678641
  0
ARC
  5
274
330
1F
100
AcDbEntity
  8
0
  6
SLD-Solid
 62
     7
370
    15
100
AcDbCircle
 10
999.6877972489
 20
1478.9332726697
 30
0.0
 40
0.4701203474064645
100
AcDbArc
 50
189.856279924
 51
263.7967390737
  0
LWPOLYLINE
  5
275
330
1F
100
AcDbEntity
  8
0
  6
SLD-Solid
 62
     7
370
    15
100
AcDbPolyline
 90
        7
 70
   128
 43
0.0
 10
999.224615769
 20
1478.8527987128
 10
999.2735958858
 20
1479.0736935263
 10
999.3498153253
 20
1479.1804454451
 10
999.4554645582
 20
1479.2763493185
 10
999.5876229568
 20
1479.3561599379
 10
999.7444055243
 20
1479.4190428381
 10
1000.0787503286
 20
1479.493906272
  0
LWPOLYLINE
  5
276
330
1F
100
AcDbEntity
  8
0
  6
SLD-Solid
 62
     7
370
    15
100
AcDbPolyline
 90
        7
 70
   128
 43
0.0
 10
1000.0787503286
 20
1479.493906272
 10
1000.4222146435
 20
1479.5234701758
 10
1000.5908883377
 20
1479.5111320143
 10
1000.7351539298
 20
1479.4741771345
 10
1000.8576638265
 20
1479.4115922575
 10
1000.9505800172
 20
1479.329635871
 10
1001.0357401534
 20
1479.1248939162
  0
ARC
  5
277
330
1F
100
AcDbEntity
  8
0
  6
SLD-Solid
 62
     7
370
    15
100
AcDbCircle
 10
1000.4268563979
 20
1479.1643888208
 30
0.0
 40
0.610163318448539
100
AcDbArc
 50
298.6252249596
 51
356.288740358
  0
ARC
  5
278
330
1F
100
AcDbEntity
  8
0
  6
SLD-Solid
 62
     7
370
    15
100
AcDbCircle
 10
1000.6195816662
 20
1478.2728606451
 30
0.0
 40
0.3696137427337516
100
AcDbArc
 50
7.866795718
 51
74.3687250883
  0
LWPOLYLINE
  5
279
330
1F
100
AcDbEntity
  8
0
  6
SLD-Solid
 62
     7
370
    15
100
AcDbPolyline
 90
        7
 70
   128
 43
0.0
 10
1000.9857169552
 20
1478.3234498625
 10
1000.9449995323
 20
1478.1253836279
 10
1000.8795014783
 20
1478.0286452895
 10
1000.7875091596
 20
1477.9415032988
 10
1000.6726584597
 20
1477.8665802603
 10
1000.5382350846
 20
1477.8051874762
 10
1000.2459786101
 20
1477.731218112
  0
LWPOLYLINE
  5
27A
330
1F
100
AcDbEntity
  8
0
  6
SLD-Solid
 62
     7
370
    15
100
AcDbPolyline
 90
        7
 70
   128
 43
0.0
 10
1000.2459786101
 20
1477.731218112
 10
999.9491623803
 20
1477.717807067
 10
999.8093969389
 20
1477.7389667158
 10
999.6850169464
 20
1477.7800343161
 10
999.5819456144
 20
1477.8390429144
 10
999.5009578033
 20
1477.9140851622
 10
999.4240156575
 20
1478.093316329
  0
ARC
  5
27B
330
1F
100
AcDbEntity
  8
0
  6
SLD-Solid
 62
     7
370
    15
100
AcDbCircle
 10
999.8516882652
 20
1478.0960141579
 30
0.0
 40
0.4276811167719382
100
AcDbArc
 50
120.1315384137
 51
180.361426363
  0
LWPOLYLINE
  5
27C
330
1F
100
AcDbEntity
  8
0
  6
SLD-Solid
 62
     7
370
    15
100
AcDbPolyline
 90
        8
 70
   128
 43
0.0
 10
1000.190091805
 20
1478.4160754805
 10
1000.0771037503
 20
1478.3857963209
 10
1000.0278330608
 20
1478.3606431609
 10
999.9856404229
 20
1478.3294699316
 10
999.9531931444
 20
1478.2947204237
 10
999.9313033386
 20
1478.2570502882
 10
999.9209768339
 20
1478.218664897
 10
999.9203509851
 20
1478.1806371336
  0
LWPOLYLINE
  5
27D
330
1F
100
AcDbEntity
  8
0
  6
SLD-Solid
 62
     7
370
    15
100
AcDbPolyline
 90
        8
 70
   128
 43
0.0
 10
999.9203509851
 20
1478.1806371336
 10
999.9468527003
 20
1478.1107208853
 10
999.9766177698
 20
1478.0819318419
 10
1000.0169701143
 20
1478.0591628676
 10
1000.0644750162
 20
1478.0438444739
 10
1000.1189462109
 20
1478.0358574515
 10
1000.1758015915
 20
1478.0355594282
 10
1000.2335957452
 20
1478.0417583113
  0
LWPOLYLINE
  5
27E
330
1F
100
AcDbEntity
  8
0
  6
SLD-Solid
 62
     7
370
    15
100
AcDbPolyline
 90
        8
 70
   128
 43
0.0
 10
1000.2335957452
 20
1478.0417583113
 10
1000.3425530358
 20
1478.0710837965
 10
1000.3906465336
 20
1478.0957005148
 10
1000.4313267036
 20
1478.1256220465
 10
1000.463297145
 20
1478.1595370894
 10
1000.4850900932
 20
1478.195836318
 10
1000.4957965775
 20
1478.2330296164
 10
1000.4967129989
 20
1478.2698056822
  0
LWPOLYLINE
  5
27F
330
1F
100
AcDbEntity
  8
0
  6
SLD-Solid
 62
     7
370
    15
100
AcDbPolyline
 90
        8
 70
   128
 43
0.0
 10
1000.4967129989
 20
1478.2698056822
 10
1000.4702708884
 20
1478.3396027212
 10
1000.4415563508
 20
1478.3682129507
 10
1000.4023737474
 20
1478.391995204
 10
1000.3554872437
 20
1478.4096381789
 10
1000.3042570515
 20
1478.4195921545
 10
1000.2479306622
 20
1478.4214398985
 10
1000.190091805
 20
1478.4160754805
  0
LWPOLYLINE
  5
280
330
1F
100
AcDbEntity
  8
0
  6
SLD-Solid
 62
     7
370
    15
100
AcDbPolyline
 90
        8
 70
   128
 43
0.0
 10
1000.113775508
 20
1479.192545188
 10
999.961247222
 20
1479.1566035872
 10
999.8907721801
 20
1479.1274569159
 10
999.8287088438
 20
1479.0905020361
 10
999.7770763202
 20
1479.0465138083
 10
999.7415072485
 20
1478.9986512785
 10
999.722560422
 20
1478.9477489119
 10
999.719647245
 20
1478.8969657545
  0
LWPOLYLINE
  5
281
330
1F
100
AcDbEntity
  8
0
  6
SLD-Solid
 62
     7
370
    15
100
AcDbPolyline
 90
        7
 70
   128
 43
0.0
 10
999.719647245
 20
1478.8969657545
 10
999.7594333454
 20
1478.8037440901
 10
999.8019910618
 20
1478.7669084196
 10
999.8591593667
 20
1478.7369272833
 10
999.9973005815
 20
1478.7055752402
 10
1000.0739447041
 20
1478.7045619612
 10
1000.1519746347
 20
1478.7123701697
  0
LWPOLYLINE
  5
282
330
1F
100
AcDbEntity
  8
0
  6
SLD-Solid
 62
     7
370
    15
100
AcDbPolyline
 90
        7
 70
   128
 43
0.0
 10
1000.1519746347
 20
1478.7123701697
 10
1000.3041378422
 20
1478.7507555609
 10
1000.4352904125
 20
1478.8203141814
 10
1000.4891655608
 20
1478.86585213
 10
1000.5268133445
 20
1478.9127609854
 10
1000.5494854613
 20
1478.9640805846
 10
1000.5535683795
 20
1479.0152809744
  0
LWPOLYLINE
  5
283
330
1F
100
AcDbEntity
  8
0
  6
SLD-Solid
 62
     7
370
    15
100
AcDbPolyline
 90
        8
 70
   128
 43
0.0
 10
1000.5535683795
 20
1479.0152809744
 10
1000.5415729447
 20
1479.0640971785
 10
1000.5128882094
 20
1479.1086218481
 10
1000.4686541124
 20
1479.1450402861
 10
1000.4108972116
 20
1479.1735909109
 10
1000.3438270851
 20
1479.1927836066
 10
1000.2703271075
 20
1479.2017839079
 10
1000.113775508
 20
1479.192545188
  0
LWPOLYLINE
  5
284
330
1F
100
AcDbEntity
  8
0
  6
SLD-Solid
 62
     7
370
    15
100
AcDbPolyline
 90
        3
 70
   128
 43
0.0
 10
998.0280748768
 20
1479.256977809
 10
998.0276725455
 20
1479.2607925063
 10
998.0272776647
 20
1479.2646668082
  0
LWPOLYLINE
  5
285
330
1F
100
AcDbEntity
  8
0
  6
SLD-Solid
 62
     7
370
    15
100
AcDbPolyline
 90
        3
 70
   128
 43
0.0
 10
997.1560812755
 20
1478.3088467245
 10
997.1558279558
 20
1478.3126614218
 10
997.1555671855
 20
1478.3164761191
  0
LINE
  5
286
330
1F
100
AcDbEntity
  8
0
  6
SLD-Solid
 62
     7
370
    15
100
AcDbLine
 10
1002.7206219001
 20
1478.2597324972
 30
0.0
 11
1001.9933260246
 21
1478.1005880957
 31
0.0
  0
LINE
  5
287
330
1F
100
AcDbEntity
  8
0
  6
SLD-Solid
 62
     7
370
    15
100
AcDbLine
 10
1001.9933260246
 20
1478.1005880957
 30
0.0
 11
1001.7780787512
 21
1479.7541401511
 31
0.0
  0
LINE
  5
288
330
1F
100
AcDbEntity
  8
0
  6
SLD-Solid
 62
     7
370
    15
100
AcDbLine
 10
1001.7780787512
 20
1479.7541401511
 30
0.0
 11
1002.260801868
 21
1479.8582098608
 31
0.0
  0
LINE
  5
289
330
1F
100
AcDbEntity
  8
0
  6
SLD-Solid
 62
     7
370
    15
100
AcDbLine
 10
1002.260801868
 20
1479.8582098608
 30
0.0
 11
1002.4377829595
 21
1478.5003564482
 31
0.0
  0
LINE
  5
28A
330
1F
100
AcDbEntity
  8
0
  6
SLD-Solid
 62
     7
370
    15
100
AcDbLine
 10
1002.4377829595
 20
1478.5003564482
 30
0.0
 11
1002.9619387551
 21
1478.6201021796
 31
0.0
  0
LINE
  5
28B
330
1F
100
AcDbEntity
  8
0
  6
SLD-Solid
 62
     7
370
    15
100
AcDbLine
 10
1002.9619387551
 20
1478.6201021796
 30
0.0
 11
1002.7206219001
 21
1478.2597324972
 31
0.0
  0
LINE
  5
28C
330
1F
100
AcDbEntity
  8
0
  6
SLD-Solid
 62
     7
370
    15
100
AcDbLine
 10
1001.7780787512
 20
1479.7541401511
 30
0.0
 11
1001.7761043473
 21
1479.7615907317
 31
0.0
  0
LINE
  5
28D
330
1F
100
AcDbEntity
  8
0
  6
SLD-Solid
 62
     7
370
    15
100
AcDbLine
 10
1001.9933260246
 20
1478.1005880957
 30
0.0
 11
1001.9913516207
 21
1478.1080386763
 31
0.0
  0
LWPOLYLINE
  5
28E
330
1F
100
AcDbEntity
  8
0
  6
SLD-Solid
 62
     7
370
    15
100
AcDbPolyline
 90
        3
 70
   128
 43
0.0
 10
1000.0787503286
 20
1479.493906272
 10
1000.0780276223
 20
1479.4977209692
 10
1000.077304916
 20
1479.5014760619
  0
LINE
  5
28F
330
1F
100
AcDbEntity
  8
0
  6
SLD-Solid
 62
     7
370
    15
100
AcDbLine
 10
999.224615769
 20
1478.8527987128
 30
0.0
 11
999.2234534784
 21
1478.8604281073
 31
0.0
  0
LWPOLYLINE
  5
290
330
1F
100
AcDbEntity
  8
0
  6
SLD-Solid
 62
     7
370
    15
100
AcDbPolyline
 90
        7
 70
   128
 43
0.0
 10
997.6537353559
 20
1478.3527753477
 10
997.7244860693
 20
1478.0034921294
 10
997.7782718106
 20
1477.920164836
 10
997.8557503982
 20
1477.8554341917
 10
997.9674569531
 20
1477.8097770338
 10
998.0336926146
 20
1477.8007171278
 10
998.1027743979
 20
1477.8017304068
  0
LWPOLYLINE
  5
291
330
1F
100
AcDbEntity
  8
0
  6
SLD-Solid
 62
     7
370
    15
100
AcDbPolyline
 90
        7
 70
   128
 43
0.0
 10
998.1027743979
 20
1477.8017304068
 10
998.2417500778
 20
1477.8315923338
 10
998.3034483357
 20
1477.8598449355
 10
998.3550808592
 20
1477.8948328619
 10
998.4205342098
 20
1477.9695770865
 10
998.4676367803
 20
1478.0709049826
 10
998.4988174601
 20
1478.4417650824
  0
LINE
  5
292
330
1F
100
AcDbEntity
  8
0
  6
SLD-Solid
 62
     7
370
    15
100
AcDbLine
 10
1002.260801868
 20
1479.8582098608
 30
0.0
 11
1002.2586784526
 21
1479.8656604414
 31
0.0
  0
LWPOLYLINE
  5
293
330
1F
100
AcDbEntity
  8
0
  6
SLD-Solid
 62
     7
370
    15
100
AcDbPolyline
 90
        7
 70
   128
 43
0.0
 10
999.7183284922
 20
1478.9045355444
 10
999.7581145926
 20
1478.81131388
 10
999.8006574078
 20
1478.7744782095
 10
999.857803361
 20
1478.7444970732
 10
999.9959073229
 20
1478.7131450301
 10
1000.0725216432
 20
1478.7121913557
 10
1000.1505292221
 20
1478.7199399596
  0
LWPOLYLINE
  5
294
330
1F
100
AcDbEntity
  8
0
  6
SLD-Solid
 62
     7
370
    15
100
AcDbPolyline
 90
        7
 70
   128
 43
0.0
 10
1000.1505292221
 20
1478.7199399596
 10
1000.3026477261
 20
1478.7583253508
 10
1000.4337630435
 20
1478.8278243666
 10
1000.4876083894
 20
1478.8734219199
 10
1000.5252487226
 20
1478.9203307753
 10
1000.5479133888
 20
1478.9716503744
 10
1000.551996307
 20
1479.0228507643
  0
LWPOLYLINE
  5
295
330
1F
100
AcDbEntity
  8
0
  6
SLD-Solid
 62
     7
370
    15
100
AcDbPolyline
 90
        3
 70
   128
 43
0.0
 10
1000.551996307
 20
1479.0228507643
 10
1000.5527786179
 20
1479.019036067
 10
1000.5535683795
 20
1479.0152809744
  0
LINE
  5
296
330
1F
100
AcDbEntity
  8
0
  6
SLD-Solid
 62
     7
370
    15
100
AcDbLine
 10
983.5782549544
 20
1479.7248742705
 30
0.0
 11
982.8896722956
 21
1480.0109169607
 31
0.0
  0
LINE
  5
297
330
1F
100
AcDbEntity
  8
0
  6
SLD-Solid
 62
     7
370
    15
100
AcDbLine
 10
982.8896722956
 20
1480.0109169607
 30
0.0
 11
983.2774377628
 21
1481.6233418112
 31
0.0
  0
LINE
  5
298
330
1F
100
AcDbEntity
  8
0
  6
SLD-Solid
 62
     7
370
    15
100
AcDbLine
 10
983.2774377628
 20
1481.6233418112
 30
0.0
 11
983.7338305278
 21
1481.4319512968
 31
0.0
  0
LINE
  5
299
330
1F
100
AcDbEntity
  8
0
  6
SLD-Solid
 62
     7
370
    15
100
AcDbLine
 10
983.7338305278
 20
1481.4319512968
 30
0.0
 11
983.4154746695
 21
1480.1078937178
 31
0.0
  0
LINE
  5
29A
330
1F
100
AcDbEntity
  8
0
  6
SLD-Solid
 62
     7
370
    15
100
AcDbLine
 10
983.4154746695
 20
1480.1078937178
 30
0.0
 11
983.9156246944
 21
1479.9056551581
 31
0.0
  0
LINE
  5
29B
330
1F
100
AcDbEntity
  8
0
  6
SLD-Solid
 62
     7
370
    15
100
AcDbLine
 10
983.9156246944
 20
1479.9056551581
 30
0.0
 11
983.5782549544
 21
1479.7248742705
 31
0.0
  0
LINE
  5
29C
330
1F
100
AcDbEntity
  8
0
  6
SLD-Solid
 62
     7
370
    15
100
AcDbLine
 10
983.4154746695
 20
1480.1078937178
 30
0.0
 11
983.4191701575
 21
1480.1148078566
 31
0.0
  0
LINE
  5
29D
330
1F
100
AcDbEntity
  8
0
  6
SLD-Solid
 62
     7
370
    15
100
AcDbLine
 10
983.7338305278
 20
1481.4319512968
 30
0.0
 11
983.7375334664
 21
1481.4389250403
 31
0.0
  0
LINE
  5
29E
330
1F
100
AcDbEntity
  8
0
  6
SLD-Solid
 62
     7
370
    15
100
AcDbLine
 10
981.638585703
 20
1480.594625247
 30
0.0
 11
980.5537513657
 21
1481.1424515372
 31
0.0
  0
LINE
  5
29F
330
1F
100
AcDbEntity
  8
0
  6
SLD-Solid
 62
     7
370
    15
100
AcDbLine
 10
980.5537513657
 20
1481.1424515372
 30
0.0
 11
980.6320867701
 21
1481.4187190657
 31
0.0
  0
LINE
  5
2A0
330
1F
100
AcDbEntity
  8
0
  6
SLD-Solid
 62
     7
370
    15
100
AcDbLine
 10
980.6320867701
 20
1481.4187190657
 30
0.0
 11
981.3856533929
 21
1481.0336730605
 31
0.0
  0
LINE
  5
2A1
330
1F
100
AcDbEntity
  8
0
  6
SLD-Solid
 62
     7
370
    15
100
AcDbLine
 10
981.3856533929
 20
1481.0336730605
 30
0.0
 11
981.5620831414
 21
1481.2737605696
 31
0.0
  0
LINE
  5
2A2
330
1F
100
AcDbEntity
  8
0
  6
SLD-Solid
 62
     7
370
    15
100
AcDbLine
 10
981.5620831414
 20
1481.2737605696
 30
0.0
 11
981.4075282975
 21
1481.3337228422
 31
0.0
  0
ARC
  5
2A3
330
1F
100
AcDbEntity
  8
0
  6
SLD-Solid
 62
     7
370
    15
100
AcDbCircle
 10
981.6873899688
 20
1482.1519710941
 30
0.0
 40
0.8647848036884767
100
AcDbArc
 50
174.9303959384
 51
251.1180100272
  0
LWPOLYLINE
  5
2A4
330
1F
100
AcDbEntity
  8
0
  6
SLD-Solid
 62
     7
370
    15
100
AcDbPolyline
 90
        6
 70
   128
 43
0.0
 10
980.8259881302
 20
1482.2283885603
 10
980.9408537312
 20
1482.4083945876
 10
981.0383296772
 20
1482.4646613722
 10
981.1618901058
 20
1482.4967286711
 10
981.4524180456
 20
1482.48516537
 10
981.7706621452
 20
1482.3704860335
  0
ARC
  5
2A5
330
1F
100
AcDbEntity
  8
0
  6
SLD-Solid
 62
     7
370
    15
100
AcDbCircle
 10
981.3884680191
 20
1481.3685064893
 30
0.0
 40
1.072397014621487
100
AcDbArc
 50
10.1428874827
 51
69.1211956107
  0
LINE
  5
2A6
330
1F
100
AcDbEntity
  8
0
  6
SLD-Solid
 62
     7
370
    15
100
AcDbLine
 10
982.4441052242
 20
1481.5573594694
 30
0.0
 11
981.9751507803
 21
1481.7815921431
 31
0.0
  0
ARC
  5
2A7
330
1F
100
AcDbEntity
  8
0
  6
SLD-Solid
 62
     7
370
    15
100
AcDbCircle
 10
981.450499014
 20
1481.5875814692
 30
0.0
 40
0.5593743088515417
100
AcDbArc
 50
20.2938606401
 51
65.532493982
  0
LWPOLYLINE
  5
2A8
330
1F
100
AcDbEntity
  8
0
  6
SLD-Solid
 62
     7
370
    15
100
AcDbPolyline
 90
        7
 70
   128
 43
0.0
 10
981.6821715995
 20
1482.0967219
 10
981.5365127488
 20
1482.1476838713
 10
981.4683399363
 20
1482.1545384055
 10
981.4048460885
 20
1482.1488759642
 10
981.3512838646
 20
1482.1315906172
 10
981.3082269593
 20
1482.1025035506
 10
981.2585241361
 20
1482.0178053503
  0
ARC
  5
2A9
330
1F
100
AcDbEntity
  8
0
  6
SLD-Solid
 62
     7
370
    15
100
AcDbCircle
 10
981.6593387648
 20
1481.9789201884
 30
0.0
 40
0.402696439512779
100
AcDbArc
 50
174.4587724759
 51
248.7465708498
  0
ARC
  5
2AA
330
1F
100
AcDbEntity
  8
0
  6
SLD-Solid
 62
     7
370
    15
100
AcDbCircle
 10
981.7253452415
 20
1482.0248788509
 30
0.0
 40
0.4715911014313565
100
AcDbArc
 50
243.2892348061
 51
281.9096721379
  0
LINE
  5
2AB
330
1F
100
AcDbEntity
  8
0
  6
SLD-Solid
 62
     7
370
    15
100
AcDbLine
 10
981.8226671978
 20
1481.5634391432
 30
0.0
 11
982.1705124541
 21
1481.333424819
 31
0.0
  0
LINE
  5
2AC
330
1F
100
AcDbEntity
  8
0
  6
SLD-Solid
 62
     7
370
    15
100
AcDbLine
 10
982.1705124541
 20
1481.333424819
 30
0.0
 11
981.638585703
 21
1480.594625247
 31
0.0
  0
LWPOLYLINE
  5
2AD
330
1F
100
AcDbEntity
  8
0
  6
SLD-Solid
 62
     7
370
    15
100
AcDbPolyline
 90
        3
 70
   128
 43
0.0
 10
1000.1505292221
 20
1478.7199399596
 10
1000.1512519284
 20
1478.7161252623
 10
1000.1519746347
 20
1478.7123701697
  0
LWPOLYLINE
  5
2AE
330
1F
100
AcDbEntity
  8
0
  6
SLD-Solid
 62
     7
370
    15
100
AcDbPolyline
 90
        3
 70
   128
 43
0.0
 10
999.7183284922
 20
1478.9045355444
 10
999.7189915939
 20
1478.9007208472
 10
999.719647245
 20
1478.8969657545
  0
LINE
  5
2AF
330
1F
100
AcDbEntity
  8
0
  6
SLD-Solid
 62
     7
370
    15
100
AcDbLine
 10
983.2774377628
 20
1481.6233418112
 30
0.0
 11
983.2812822624
 21
1481.6301963454
 31
0.0
  0
LINE
  5
2B0
330
1F
100
AcDbEntity
  8
0
  6
SLD-Solid
 62
     7
370
    15
100
AcDbLine
 10
982.4441052242
 20
1481.5573594694
 30
0.0
 11
982.4481732412
 21
1481.564154399
 31
0.0
  0
LWPOLYLINE
  5
2B1
330
1F
100
AcDbEntity
  8
0
  6
SLD-Solid
 62
     7
370
    15
100
AcDbPolyline
 90
        3
 70
   128
 43
0.0
 10
981.7706621452
 20
1482.3704860335
 10
981.772815363
 20
1482.3738238936
 10
981.7749760314
 20
1482.3771617537
  0
LWPOLYLINE
  5
2B2
330
1F
100
AcDbEntity
  8
0
  6
SLD-Solid
 62
     7
370
    15
100
AcDbPolyline
 90
        3
 70
   128
 43
0.0
 10
998.1027743979
 20
1477.8017304068
 10
998.1031767293
 20
1477.7979157095
 10
998.10357161
 20
1477.7941010123
  0
ARC
  5
2B3
330
1F
100
AcDbEntity
  8
0
  6
SLD-Solid
 62
     7
370
    15
100
AcDbCircle
 10
979.8574614626
 20
1482.6715135006
 30
0.0
 40
1.041101624865377
100
AcDbArc
 50
159.9105955912
 51
243.9652922471
  0
LWPOLYLINE
  5
2B4
330
1F
100
AcDbEntity
  8
0
  6
SLD-Solid
 62
     7
370
    15
100
AcDbPolyline
 90
        7
 70
   128
 43
0.0
 10
978.8797027631
 20
1483.0291173582
 10
978.9958126112
 20
1483.291079772
 10
979.1939682527
 20
1483.4884307509
 10
979.3415940567
 20
1483.5398099547
 10
979.5193723603
 20
1483.5385582571
 10
979.7209701701
 20
1483.4788344031
 10
979.9247360988
 20
1483.375658763
  0
ARC
  5
2B5
330
1F
100
AcDbEntity
  8
0
  6
SLD-Solid
 62
     7
370
    15
100
AcDbCircle
 10
979.5012457895
 20
1482.4512475895
 30
0.0
 40
1.016798927903411
100
AcDbArc
 50
340.800712097
 51
65.3865852123
  0
LWPOLYLINE
  5
2B6
330
1F
100
AcDbEntity
  8
0
  6
SLD-Solid
 62
     7
370
    15
100
AcDbPolyline
 90
        3
 70
   128
 43
0.0
 10
980.4614908262
 20
1482.11686827
 10
980.3217998906
 20
1481.8158052092
 10
980.0645164414
 20
1481.6048047667
  0
ARC
  5
2B7
330
1F
100
AcDbEntity
  8
0
  6
SLD-Solid
 62
     7
370
    15
100
AcDbCircle
 10
979.8895867435
 20
1482.4651086752
 30
0.0
 40
0.8779069470588855
100
AcDbArc
 50
236.1445999818
 51
281.4930570999
  0
ARC
  5
2B8
330
1F
100
AcDbEntity
  8
0
  6
SLD-Solid
 62
     7
370
    15
100
AcDbCircle
 10
979.656925896
 20
1482.8475801518
 30
0.0
 40
0.3095366891173894
100
AcDbArc
 50
54.6685598329
 51
109.3874049117
  0
LWPOLYLINE
  5
2B9
330
1F
100
AcDbEntity
  8
0
  6
SLD-Solid
 62
     7
370
    15
100
AcDbPolyline
 90
        3
 70
   128
 43
0.0
 10
979.5541740223
 20
1483.139564765
 10
979.3933979436
 20
1482.9840562468
 10
979.3017558022
 20
1482.7748439436
  0
LWPOLYLINE
  5
2BA
330
1F
100
AcDbEntity
  8
0
  6
SLD-Solid
 62
     7
370
    15
100
AcDbPolyline
 90
        7
 70
   128
 43
0.0
 10
979.3017558022
 20
1482.7748439436
 10
979.2398042246
 20
1482.4218056326
 10
979.2537293597
 20
1482.3210141783
 10
979.296838419
 20
1482.2139642363
 10
979.373244123
 20
1482.1088812476
 10
979.4246903821
 20
1482.0625088339
 10
979.4821492596
 20
1482.0235870009
  0
LWPOLYLINE
  5
2BB
330
1F
100
AcDbEntity
  8
0
  6
SLD-Solid
 62
     7
370
    15
100
AcDbPolyline
 90
        6
 70
   128
 43
0.0
 10
979.4821492596
 20
1482.0235870009
 10
979.6073339148
 20
1481.9703600531
 10
979.7231457396
 20
1481.9613597517
 10
979.8019281789
 20
1481.9894335394
 10
979.8774770661
 20
1482.0535681372
 10
980.031428413
 20
1482.3669693594
  0
LWPOLYLINE
  5
2BC
330
1F
100
AcDbEntity
  8
0
  6
SLD-Solid
 62
     7
370
    15
100
AcDbPolyline
 90
        6
 70
   128
 43
0.0
 10
980.031428413
 20
1482.3669693594
 10
980.0880900784
 20
1482.7133319502
 10
980.0705216094
 20
1482.8123948698
 10
980.0232104226
 20
1482.9168222075
 10
979.9438766404
 20
1483.0179712897
 10
979.8359326287
 20
1483.1001064902
  0
LWPOLYLINE
  5
2BD
330
1F
100
AcDbEntity
  8
0
  6
SLD-Solid
 62
     7
370
    15
100
AcDbPolyline
 90
        3
 70
   128
 43
0.0
 10
980.4614908262
 20
1482.11686827
 10
980.4638154073
 20
1482.1200869208
 10
980.4661399885
 20
1482.1233651762
  0
LINE
  5
2BE
330
1F
100
AcDbEntity
  8
0
  6
SLD-Solid
 62
     7
370
    15
100
AcDbLine
 10
979.9247360988
 20
1483.375658763
 30
0.0
 11
979.9296385809
 21
1483.3819768553
 31
0.0
  0
LWPOLYLINE
  5
2BF
330
1F
100
AcDbEntity
  8
0
  6
SLD-Solid
 62
     7
370
    15
100
AcDbPolyline
 90
        3
 70
   128
 43
0.0
 10
999.4240156575
 20
1478.093316329
 10
999.4234121605
 20
1478.0970714217
 10
999.4228086634
 20
1478.1008861189
  0
LWPOLYLINE
  5
2C0
330
1F
100
AcDbEntity
  8
0
  6
SLD-Solid
 62
     7
370
    15
100
AcDbPolyline
 90
        8
 70
   128
 43
0.0
 10
999.9189949794
 20
1478.1882069235
 10
999.945489244
 20
1478.1182906752
 10
999.975246863
 20
1478.0895016318
 10
1000.0155843063
 20
1478.0667326575
 10
1000.063074307
 20
1478.0514142638
 10
1000.1175306006
 20
1478.0434272414
 10
1000.17437108
 20
1478.0431888228
 10
1000.2321503325
 20
1478.0493281012
  0
LWPOLYLINE
  5
2C1
330
1F
100
AcDbEntity
  8
0
  6
SLD-Solid
 62
     7
370
    15
100
AcDbPolyline
 90
        8
 70
   128
 43
0.0
 10
1000.2321503325
 20
1478.0493281012
 10
1000.3410703703
 20
1478.0786535864
 10
1000.3891489669
 20
1478.1032703047
 10
1000.4298142358
 20
1478.1331918364
 10
1000.4617772265
 20
1478.1671068793
 10
1000.4835627242
 20
1478.2034061079
 10
1000.4942617579
 20
1478.2405994063
 10
1000.4951781793
 20
1478.2773754721
  0
LWPOLYLINE
  5
2C2
330
1F
100
AcDbEntity
  8
0
  6
SLD-Solid
 62
     7
370
    15
100
AcDbPolyline
 90
        3
 70
   128
 43
0.0
 10
981.2585241361
 20
1482.0178053503
 10
981.2607369586
 20
1482.0210836058
 10
981.262949781
 20
1482.0244214659
  0
LWPOLYLINE
  5
2C3
330
1F
100
AcDbEntity
  8
0
  6
SLD-Solid
 62
     7
370
    15
100
AcDbPolyline
 90
        3
 70
   128
 43
0.0
 10
1000.4951781793
 20
1478.2773754721
 10
1000.4959455891
 20
1478.2736203795
 10
1000.4967129989
 20
1478.2698056822
  0
LWPOLYLINE
  5
2C4
330
1F
100
AcDbEntity
  8
0
  6
SLD-Solid
 62
     7
370
    15
100
AcDbPolyline
 90
        7
 70
   128
 43
0.0
 10
979.306770043
 20
1482.7811024313
 10
979.2448035641
 20
1482.4280641203
 10
979.2587063475
 20
1482.3273322707
 10
979.3018005057
 20
1482.2202823286
 10
979.3781764074
 20
1482.1151993399
 10
979.4296003147
 20
1482.0688865309
 10
979.4870442911
 20
1482.0299646979
  0
LWPOLYLINE
  5
2C5
330
1F
100
AcDbEntity
  8
0
  6
SLD-Solid
 62
     7
370
    15
100
AcDbPolyline
 90
        3
 70
   128
 43
0.0
 10
979.5591510101
 20
1483.1458828574
 10
979.3983972831
 20
1482.9903743391
 10
979.306770043
 20
1482.7811024313
  0
LWPOLYLINE
  5
2C6
330
1F
100
AcDbEntity
  8
0
  6
SLD-Solid
 62
     7
370
    15
100
AcDbPolyline
 90
        6
 70
   128
 43
0.0
 10
979.4870442911
 20
1482.0299646979
 10
979.6121991439
 20
1481.9767377501
 10
979.7279737158
 20
1481.9677374487
 10
979.8067412539
 20
1481.9958112364
 10
979.88227524
 20
1482.0599458342
 10
979.8955894275
 20
1482.0870659476
  0
LWPOLYLINE
  5
2C7
330
1F
100
AcDbEntity
  8
0
  6
SLD-Solid
 62
     7
370
    15
100
AcDbPolyline
 90
        3
 70
   128
 43
0.0
 10
1000.2321503325
 20
1478.0493281012
 10
1000.2328730388
 20
1478.0455730086
 10
1000.2335957452
 20
1478.0417583113
  0
LWPOLYLINE
  5
2C8
330
1F
100
AcDbEntity
  8
0
  6
SLD-Solid
 62
     7
370
    15
100
AcDbPolyline
 90
        3
 70
   128
 43
0.0
 10
999.9189949794
 20
1478.1882069235
 10
999.9196729823
 20
1478.1844518309
 10
999.9203509851
 20
1478.1806371336
  0
LWPOLYLINE
  5
2C9
330
1F
100
AcDbEntity
  8
0
  6
SLD-Solid
 62
     7
370
    15
100
AcDbPolyline
 90
        3
 70
   128
 43
0.0
 10
981.5133712454
 20
1481.6036126738
 10
981.5155319138
 20
1481.6069505339
 10
981.5177000328
 20
1481.610288394
  0
LWPOLYLINE
  5
2CA
330
1F
100
AcDbEntity
  8
0
  6
SLD-Solid
 62
     7
370
    15
100
AcDbPolyline
 90
        7
 70
   128
 43
0.0
 10
1015.603763537
 20
1484.5608375197
 10
1015.419294612
 20
1484.428395999
 10
1015.230847077
 20
1484.3408963805
 10
1015.0564364358
 20
1484.3113324766
 10
1014.9052865072
 20
1484.3388102179
 10
1014.6905235215
 20
1484.5068357115
 10
1014.5518235131
 20
1484.7509167319
  0
ARC
  5
2CB
330
1F
100
AcDbEntity
  8
0
  6
SLD-Solid
 62
     7
370
    15
100
AcDbCircle
 10
1015.5253413302
 20
1485.2034659637
 30
0.0
 40
1.07356310824584
100
AcDbArc
 50
124.6299860437
 51
204.9318193543
  0
LWPOLYLINE
  5
2CC
330
1F
100
AcDbEntity
  8
0
  6
SLD-Solid
 62
     7
370
    15
100
AcDbPolyline
 90
        7
 70
   128
 43
0.0
 10
1014.9152628346
 20
1486.0868356352
 10
1015.0962821408
 20
1486.2198732024
 10
1015.2798793479
 20
1486.3119027739
 10
1015.4458559318
 20
1486.3462946539
 10
1015.596692936
 20
1486.3250157957
 10
1015.8069632216
 20
1486.1657521849
 10
1015.9432715936
 20
1485.9257242804
  0
ARC
  5
2CD
330
1F
100
AcDbEntity
  8
0
  6
SLD-Solid
 62
     7
370
    15
100
AcDbCircle
 10
1014.9802403333
 20
1485.435332665
 30
0.0
 40
1.080700302946547
100
AcDbArc
 50
347.3565811829
 51
26.9859549607
  0
ARC
  5
2CE
330
1F
100
AcDbEntity
  8
0
  6
SLD-Solid
 62
     7
370
    15
100
AcDbCircle
 10
1014.7989798005
 20
1485.5690632106
 30
0.0
 40
1.290037172501202
100
AcDbArc
 50
308.5974918704
 51
343.3198718913
  0
ARC
  5
2CF
330
1F
100
AcDbEntity
  8
0
  6
SLD-Solid
 62
     7
370
    15
100
AcDbCircle
 10
1015.3454139712
 20
1485.438594765
 30
0.0
 40
0.5023333537761268
100
AcDbArc
 50
128.7825554893
 51
167.3984725265
  0
LWPOLYLINE
  5
2D0
330
1F
100
AcDbEntity
  8
0
  6
SLD-Solid
 62
     7
370
    15
100
AcDbPolyline
 90
        3
 70
   128
 43
0.0
 10
1014.8551813527
 20
1485.5481884604
 10
1014.8599199219
 20
1485.2830670004
 10
1014.9343735738
 20
1485.0616357451
  0
LWPOLYLINE
  5
2D1
330
1F
100
AcDbEntity
  8
0
  6
SLD-Solid
 62
     7
370
    15
100
AcDbPolyline
 90
        7
 70
   128
 43
0.0
 10
1014.9343735738
 20
1485.0616357451
 10
1015.109939055
 20
1484.787812007
 10
1015.1774562164
 20
1484.7441218024
 10
1015.2642331286
 20
1484.7280285483
 10
1015.3679452105
 20
1484.7493670111
 10
1015.4231987162
 20
1484.7780368452
 10
1015.4771930738
 20
1484.8173163061
  0
LWPOLYLINE
  5
2D2
330
1F
100
AcDbEntity
  8
0
  6
SLD-Solid
 62
     7
370
    15
100
AcDbPolyline
 90
        7
 70
   128
 43
0.0
 10
1015.4771930738
 20
1484.8173163061
 10
1015.5761591359
 20
1484.9213860159
 10
1015.6152523323
 20
1484.9810502653
 10
1015.6436315938
 20
1485.041012538
 10
1015.67027487
 20
1485.1548574095
 10
1015.6714595123
 20
1485.261490119
 10
1015.5681497617
 20
1485.6113693838
  0
LWPOLYLINE
  5
2D3
330
1F
100
AcDbEntity
  8
0
  6
SLD-Solid
 62
     7
370
    15
100
AcDbPolyline
 90
        6
 70
   128
 43
0.0
 10
1015.5681497617
 20
1485.6113693838
 10
1015.3941638036
 20
1485.8755967741
 10
1015.326154904
 20
1485.9145186072
 10
1015.2394003435
 20
1485.92494942
 10
1015.1372454329
 20
1485.898604167
 10
1015.0307691856
 20
1485.8301780348
  0
LWPOLYLINE
  5
2D4
330
1F
100
AcDbEntity
  8
0
  6
SLD-Solid
 62
     7
370
    15
100
AcDbPolyline
 90
        3
 70
   128
 43
0.0
 10
981.8226671978
 20
1481.5634391432
 10
981.8247831627
 20
1481.5667770033
 10
981.8269065781
 20
1481.5701148634
  0
LINE
  5
2D5
330
1F
100
AcDbEntity
  8
0
  6
SLD-Solid
 62
     7
370
    15
100
AcDbLine
 10
982.1705124541
 20
1481.333424819
 30
0.0
 11
982.1746475263
 21
1481.3401601439
 31
0.0
  0
LINE
  5
2D6
330
1F
100
AcDbEntity
  8
0
  6
SLD-Solid
 62
     7
370
    15
100
AcDbLine
 10
1014.9152628346
 20
1486.0868356352
 30
0.0
 11
1014.9091533585
 21
1486.0923192625
 31
0.0
  0
LINE
  5
2D7
330
1F
100
AcDbEntity
  8
0
  6
SLD-Solid
 62
     7
370
    15
100
AcDbLine
 10
1002.9619387551
 20
1478.6201021796
 30
0.0
 11
1002.9596514269
 21
1478.6275527602
 31
0.0
  0
LWPOLYLINE
  5
2D8
330
1F
100
AcDbEntity
  8
0
  6
SLD-Solid
 62
     7
370
    15
100
AcDbPolyline
 90
        3
 70
   128
 43
0.0
 10
979.4870442911
 20
1482.0299646979
 10
979.4845930501
 20
1482.0268056517
 10
979.4821492596
 20
1482.0235870009
  0
LINE
  5
2D9
330
1F
100
AcDbEntity
  8
0
  6
SLD-Solid
 62
     7
370
    15
100
AcDbLine
 10
981.3856533929
 20
1481.0336730605
 30
0.0
 11
981.3899747296
 21
1481.0403487807
 31
0.0
  0
ARC
  5
2DA
330
1F
100
AcDbEntity
  8
0
  6
SLD-Solid
 62
     7
370
    15
100
AcDbCircle
 10
1015.2591584677
 20
1485.0408930812
 30
0.0
 40
0.3041001180900621
100
AcDbArc
 50
253.23097196
 51
314.1782275982
  0
LINE
  5
2DB
330
1F
100
AcDbEntity
  8
0
  6
SLD-Solid
 62
     7
370
    15
100
AcDbLine
 10
1015.5619359775
 20
1485.6167934065
 30
0.0
 11
1015.3945065303
 21
1485.8710668211
 31
0.0
  0
LWPOLYLINE
  5
2DC
330
1F
100
AcDbEntity
  8
0
  6
SLD-Solid
 62
     7
370
    15
100
AcDbPolyline
 90
        7
 70
   128
 43
0.0
 10
1015.4710835977
 20
1484.8227999335
 10
1015.5700124069
 20
1484.9268100386
 10
1015.6090981527
 20
1484.9865338927
 10
1015.637462513
 20
1485.0464365607
 10
1015.6640834375
 20
1485.1602814322
 10
1015.6652606292
 20
1485.2669141417
 10
1015.5619359775
 20
1485.6167934065
  0
LINE
  5
2DD
330
1F
100
AcDbEntity
  8
0
  6
SLD-Solid
 62
     7
370
    15
100
AcDbLine
 10
983.9156246944
 20
1479.9056551581
 30
0.0
 11
983.9191637202
 21
1479.9126885062
 31
0.0
  0
LWPOLYLINE
  5
2DE
330
1F
100
AcDbEntity
  8
0
  6
SLD-Solid
 62
     7
370
    15
100
AcDbPolyline
 90
       17
 70
   128
 43
0.0
 10
999.083367662
 20
1476.5254161482
 10
998.9656782909
 20
1476.1491320258
 10
999.0706569715
 20
1475.7870934134
 10
999.3893257542
 20
1475.4993221884
 10
999.869314508
 20
1475.3323099738
 10
1000.4372275634
 20
1475.3141901617
 10
1001.0055429502
 20
1475.451400054
 10
1001.4890334769
 20
1475.7203958159
 10
1001.8128431602
 20
1476.0782024985
 10
1001.9303760691
 20
1476.4651558524
 10
1001.8229610487
 20
1476.820935977
 10
1001.5071607395
 20
1477.0912430411
 10
1001.0306290551
 20
1477.2401354437
 10
1000.464593546
 20
1477.2473476057
 10
999.8948103948
 20
1477.1147272711
 10
999.408622758
 20
1476.8597386008
 10
999.083367662
 20
1476.5254161482
  0
LINE
  5
2DF
330
1F
100
AcDbEntity
  8
0
  6
SLD-Solid
 62
     7
370
    15
100
AcDbLine
 10
1017.4374408289
 20
1486.2760207777
 30
0.0
 11
1016.908725278
 21
1485.7692620879
 31
0.0
  0
LINE
  5
2E0
330
1F
100
AcDbEntity
  8
0
  6
SLD-Solid
 62
     7
370
    15
100
AcDbLine
 10
1016.908725278
 20
1485.7692620879
 30
0.0
 11
1016.2156201168
 21
1487.1827266341
 31
0.0
  0
LINE
  5
2E1
330
1F
100
AcDbEntity
  8
0
  6
SLD-Solid
 62
     7
370
    15
100
AcDbLine
 10
1016.2156201168
 20
1487.1827266341
 30
0.0
 11
1016.5675557419
 21
1487.5177643423
 31
0.0
  0
LINE
  5
2E2
330
1F
100
AcDbEntity
  8
0
  6
SLD-Solid
 62
     7
370
    15
100
AcDbLine
 10
1016.5675557419
 20
1487.5177643423
 30
0.0
 11
1017.1367800995
 21
1486.3569638853
 31
0.0
  0
LINE
  5
2E3
330
1F
100
AcDbEntity
  8
0
  6
SLD-Solid
 62
     7
370
    15
100
AcDbLine
 10
1017.1367800995
 20
1486.3569638853
 30
0.0
 11
1017.5147927566
 21
1486.7269299155
 31
0.0
  0
LINE
  5
2E4
330
1F
100
AcDbEntity
  8
0
  6
SLD-Solid
 62
     7
370
    15
100
AcDbLine
 10
1017.5147927566
 20
1486.7269299155
 30
0.0
 11
1017.4374408289
 21
1486.2760207777
 31
0.0
  0
LINE
  5
2E5
330
1F
100
AcDbEntity
  8
0
  6
SLD-Solid
 62
     7
370
    15
100
AcDbLine
 10
1016.2156201168
 20
1487.1827266341
 30
0.0
 11
1016.2091083093
 21
1487.1878526335
 31
0.0
  0
LINE
  5
2E6
330
1F
100
AcDbEntity
  8
0
  6
SLD-Solid
 62
     7
370
    15
100
AcDbLine
 10
1016.908725278
 20
1485.7692620879
 30
0.0
 11
1016.9022060199
 21
1485.7743880873
 31
0.0
  0
LINE
  5
2E7
330
1F
100
AcDbEntity
  8
0
  6
SLD-Solid
 62
     7
370
    15
100
AcDbLine
 10
1016.5675557419
 20
1487.5177643423
 30
0.0
 11
1016.5609321757
 21
1487.5227711325
 31
0.0
  0
LINE
  5
2E8
330
1F
100
AcDbEntity
  8
0
  6
SLD-Solid
 62
     7
370
    15
100
AcDbLine
 10
980.6320867701
 20
1481.4187190657
 30
0.0
 11
980.6366316243
 21
1481.425215972
 31
0.0
  0
LINE
  5
2E9
330
1F
100
AcDbEntity
  8
0
  6
SLD-Solid
 62
     7
370
    15
100
AcDbLine
 10
1018.6069286628
 20
1488.2031581526
 30
0.0
 11
1018.9193315073
 21
1488.5589382773
 31
0.0
  0
ARC
  5
2EA
330
1F
100
AcDbEntity
  8
0
  6
SLD-Solid
 62
     7
370
    15
100
AcDbCircle
 10
1017.8710635741
 20
1488.2499507674
 30
0.0
 40
1.092858152309518
100
AcDbArc
 50
311.4251543901
 51
16.4234109988
  0
LWPOLYLINE
  5
2EB
330
1F
100
AcDbEntity
  8
0
  6
SLD-Solid
 62
     7
370
    15
100
AcDbPolyline
 90
        6
 70
   128
 43
0.0
 10
1018.5941434665
 20
1487.4305031424
 10
1018.3757371469
 20
1487.2335693961
 10
1018.2622797056
 20
1487.1669910078
 10
1018.1520707174
 20
1487.1281287794
 10
1017.9596296712
 20
1487.1343872671
 10
1017.8276202841
 20
1487.2445962553
  0
ARC
  5
2EC
330
1F
100
AcDbEntity
  8
0
  6
SLD-Solid
 62
     7
370
    15
100
AcDbCircle
 10
1019.2385984175
 20
1487.6408479758
 30
0.0
 40
1.465562935807851
100
AcDbArc
 50
154.2090368878
 51
195.6865884997
  0
LINE
  5
2ED
330
1F
100
AcDbEntity
  8
0
  6
SLD-Solid
 62
     7
370
    15
100
AcDbLine
 10
1017.9190240069
 20
1488.2784984236
 30
0.0
 11
1018.0253288909
 21
1488.6520407324
 31
0.0
  0
LINE
  5
2EE
330
1F
100
AcDbEntity
  8
0
  6
SLD-Solid
 62
     7
370
    15
100
AcDbLine
 10
1018.0253288909
 20
1488.6520407324
 30
0.0
 11
1017.4041218324
 21
1487.9825017577
 31
0.0
  0
LINE
  5
2EF
330
1F
100
AcDbEntity
  8
0
  6
SLD-Solid
 62
     7
370
    15
100
AcDbLine
 10
1017.4041218324
 20
1487.9825017577
 30
0.0
 11
1017.2740048929
 21
1488.2226488715
 31
0.0
  0
LINE
  5
2F0
330
1F
100
AcDbEntity
  8
0
  6
SLD-Solid
 62
     7
370
    15
100
AcDbLine
 10
1017.2740048929
 20
1488.2226488715
 30
0.0
 11
1018.4639073177
 21
1489.5357391959
 31
0.0
  0
LINE
  5
2F1
330
1F
100
AcDbEntity
  8
0
  6
SLD-Solid
 62
     7
370
    15
100
AcDbLine
 10
1018.4639073177
 20
1489.5357391959
 30
0.0
 11
1018.5312754675
 21
1489.4116423254
 31
0.0
  0
LINE
  5
2F2
330
1F
100
AcDbEntity
  8
0
  6
SLD-Solid
 62
     7
370
    15
100
AcDbLine
 10
1018.5312754675
 20
1489.4116423254
 30
0.0
 11
1018.2423121496
 21
1488.3895418768
 31
0.0
  0
ARC
  5
2F3
330
1F
100
AcDbEntity
  8
0
  6
SLD-Solid
 62
     7
370
    15
100
AcDbCircle
 10
1019.3228872247
 20
1487.8652001335
 30
0.0
 40
1.201073168716586
100
AcDbArc
 50
154.1153334985
 51
191.8559922165
  0
LWPOLYLINE
  5
2F4
330
1F
100
AcDbEntity
  8
0
  6
SLD-Solid
 62
     7
370
    15
100
AcDbPolyline
 90
        8
 70
   128
 43
0.0
 10
1018.1474364563
 20
1487.6184365874
 10
1018.2027644678
 20
1487.5647328024
 10
1018.2417608066
 20
1487.5562093382
 10
1018.2872689529
 20
1487.5609777098
 10
1018.3361894651
 20
1487.5783822661
 10
1018.3863467737
 20
1487.6080057745
 10
1018.4359676405
 20
1487.6484773283
 10
1018.4835768505
 20
1487.6962206488
  0
ARC
  5
2F5
330
1F
100
AcDbEntity
  8
0
  6
SLD-Solid
 62
     7
370
    15
100
AcDbCircle
 10
1018.1663630747
 20
1488.0418836625
 30
0.0
 40
0.469156155911258
100
AcDbArc
 50
312.5424971982
 51
20.1057778844
  0
LINE
  5
2F6
330
1F
100
AcDbEntity
  8
0
  6
SLD-Solid
 62
     7
370
    15
100
AcDbLine
 10
1017.2740048929
 20
1488.2226488715
 30
0.0
 11
1017.2671578093
 21
1488.2274768477
 31
0.0
  0
LINE
  5
2F7
330
1F
100
AcDbEntity
  8
0
  6
SLD-Solid
 62
     7
370
    15
100
AcDbLine
 10
1017.4041218324
 20
1487.9825017577
 30
0.0
 11
1017.3972747489
 21
1487.9873297339
 31
0.0
  0
LINE
  5
2F8
330
1F
100
AcDbEntity
  8
0
  6
SLD-Solid
 62
     7
370
    15
100
AcDbLine
 10
1018.4639073177
 20
1489.5357391959
 30
0.0
 11
1018.4566951557
 21
1489.5401499396
 31
0.0
  0
LWPOLYLINE
  5
2F9
330
1F
100
AcDbEntity
  8
0
  6
SLD-Solid
 62
     7
370
    15
100
AcDbPolyline
 90
       17
 70
   128
 43
0.0
 10
994.2350140973
 20
1476.1279127722
 10
994.0697676702
 20
1476.2876532202
 10
993.8248149319
 20
1476.3986370688
 10
993.537505643
 20
1476.4451286917
 10
993.251634316
 20
1476.4202139502
 10
993.0107048913
 20
1476.3273499136
 10
992.8512997194
 20
1476.1795303946
 10
992.797603385
 20
1475.9983918791
 10
992.8577593728
 20
1475.8111736899
 10
993.0226556225
 20
1475.6468436842
 10
993.2672805353
 20
1475.5314490919
 10
993.5544631644
 20
1475.4834673529
 10
993.8404984041
 20
1475.5105278616
 10
994.0817854567
 20
1475.6080410605
 10
994.2415184541
 20
1475.7602117186
 10
994.2953265472
 20
1475.9428999548
 10
994.2350140973
 20
1476.1279127722
  0
LINE
  5
2FA
330
1F
100
AcDbEntity
  8
0
  6
SLD-Solid
 62
     7
370
    15
100
AcDbLine
 10
1015.4710835977
 20
1484.8227999335
 30
0.0
 11
1015.4771930738
 21
1484.8173163061
 31
0.0
  0
LWPOLYLINE
  5
2FB
330
1F
100
AcDbEntity
  8
0
  6
SLD-Solid
 62
     7
370
    15
100
AcDbPolyline
 90
       17
 70
   128
 43
0.0
 10
982.0705182119
 20
1479.3282053595
 10
981.772353427
 20
1479.7504446631
 10
981.3306755586
 20
1480.121960414
 10
980.8130986257
 20
1480.3835651999
 10
980.300118701
 20
1480.4969928389
 10
979.8665023609
 20
1480.4435870772
 10
979.5778147145
 20
1480.2259109145
 10
979.4737450047
 20
1479.8763296728
 10
979.5730165406
 20
1479.4466993933
 10
979.8597595854
 20
1479.0062210684
 10
980.2946574255
 20
1478.6246321326
 10
980.8115787073
 20
1478.3638618117
 10
981.3330001398
 20
1478.2618186598
 10
981.7765555545
 20
1478.3334634428
 10
982.0731482669
 20
1478.5635373717
 10
982.1741930409
 20
1478.9160392409
 10
982.0705182119
 20
1479.3282053595
  0
LWPOLYLINE
  5
2FC
330
1F
100
AcDbEntity
  8
0
  6
SLD-Solid
 62
     7
370
    15
100
AcDbPolyline
 90
       17
 70
   128
 43
0.0
 10
988.1577990218
 20
1476.9651196127
 10
987.9968515797
 20
1477.1494171744
 10
987.758283989
 20
1477.295627368
 10
987.4787158533
 20
1477.3823521262
 10
987.2007644935
 20
1477.3965380316
 10
986.9665852948
 20
1477.3353836661
 10
986.8114791079
 20
1477.2072932844
 10
986.7587886019
 20
1477.0308635359
 10
986.8164560958
 20
1476.8327376967
 10
986.9759283229
 20
1476.6437909727
 10
987.2132516666
 20
1476.4937064772
 10
987.4925515814
 20
1476.406147254
 10
987.771359758
 20
1476.3947031622
 10
988.0070290728
 20
1476.4604470854
 10
988.1633720561
 20
1476.5924117689
 10
988.2163382335
 20
1476.7696759825
 10
988.1577990218
 20
1476.9651196127
  0
LINE
  5
2FD
330
1F
100
AcDbEntity
  8
0
  6
SLD-Solid
 62
     7
370
    15
100
AcDbLine
 10
1017.8276202841
 20
1487.2445962553
 30
0.0
 11
1017.82076575
 21
1487.2493646269
 31
0.0
  0
LWPOLYLINE
  5
2FE
330
1F
100
AcDbEntity
  8
0
  6
SLD-Solid
 62
     7
370
    15
100
AcDbPolyline
 90
       17
 70
   128
 43
0.0
 10
1006.1920560165
 20
1477.9469869261
 10
1006.1360574527
 20
1477.7446291571
 10
1006.188405232
 20
1477.5690934782
 10
1006.3410825296
 20
1477.4470827704
 10
1006.5705008073
 20
1477.3980281477
 10
1006.8412921591
 20
1477.4303338652
 10
1007.1119344993
 20
1477.5396487837
 10
1007.3412410184
 20
1477.7092836027
 10
1007.4946559234
 20
1477.9126546507
 10
1007.5492910309
 20
1478.1178734427
 10
1007.4971444173
 20
1478.292991889
 10
1007.3461211486
 20
1478.4115455275
 10
1007.1188262864
 20
1478.4560701971
 10
1006.8493983908
 20
1478.4209034567
 10
1006.578554885
 20
1478.3120057707
 10
1006.347594337
 20
1478.1458280211
 10
1006.1920560165
 20
1477.9469869261
  0
LINE
  5
2FF
330
1F
100
AcDbEntity
  8
0
  6
SLD-Solid
 62
     7
370
    15
100
AcDbLine
 10
969.2492312952
 20
1491.6447303419
 30
0.0
 11
968.8754654689
 21
1492.2623536711
 31
0.0
  0
LINE
  5
300
330
1F
100
AcDbEntity
  8
0
  6
SLD-Solid
 62
     7
370
    15
100
AcDbLine
 10
968.8754654689
 20
1492.2623536711
 30
0.0
 11
969.7231627269
 21
1493.4787652617
 31
0.0
  0
LINE
  5
301
330
1F
100
AcDbEntity
  8
0
  6
SLD-Solid
 62
     7
370
    15
100
AcDbLine
 10
969.7231627269
 20
1493.4787652617
 30
0.0
 11
969.9696577354
 21
1493.0682680731
 31
0.0
  0
LINE
  5
302
330
1F
100
AcDbEntity
  8
0
  6
SLD-Solid
 62
     7
370
    15
100
AcDbLine
 10
969.9696577354
 20
1493.0682680731
 30
0.0
 11
969.2735499902
 21
1492.0693538313
 31
0.0
  0
LINE
  5
303
330
1F
100
AcDbEntity
  8
0
  6
SLD-Solid
 62
     7
370
    15
100
AcDbLine
 10
969.2735499902
 20
1492.0693538313
 30
0.0
 11
969.5491097136
 21
1491.6248819952
 31
0.0
  0
LINE
  5
304
330
1F
100
AcDbEntity
  8
0
  6
SLD-Solid
 62
     7
370
    15
100
AcDbLine
 10
969.5491097136
 20
1491.6248819952
 30
0.0
 11
969.2492312952
 21
1491.6447303419
 31
0.0
  0
LINE
  5
305
330
1F
100
AcDbEntity
  8
0
  6
SLD-Solid
 62
     7
370
    15
100
AcDbLine
 10
969.2735499902
 20
1492.0693538313
 30
0.0
 11
969.2815742655
 21
1492.0726916914
 31
0.0
  0
LINE
  5
306
330
1F
100
AcDbEntity
  8
0
  6
SLD-Solid
 62
     7
370
    15
100
AcDbLine
 10
969.9696577354
 20
1493.0682680731
 30
0.0
 11
969.9776820107
 21
1493.0715463286
 31
0.0
  0
LINE
  5
307
330
1F
100
AcDbEntity
  8
0
  6
SLD-Solid
 62
     7
370
    15
100
AcDbLine
 10
1017.5147927566
 20
1486.7269299155
 30
0.0
 11
1017.5080574318
 21
1486.7318174963
 31
0.0
  0
LINE
  5
308
330
1F
100
AcDbEntity
  8
0
  6
SLD-Solid
 62
     7
370
    15
100
AcDbLine
 10
969.7231627269
 20
1493.4787652617
 30
0.0
 11
969.7312615081
 21
1493.4819243079
 31
0.0
  0
LINE
  5
309
330
1F
100
AcDbEntity
  8
0
  6
SLD-Solid
 62
     7
370
    15
100
AcDbLine
 10
1018.4835768505
 20
1487.6962206488
 30
0.0
 11
1018.4765435024
 21
1487.7008698111
 31
0.0
  0
LWPOLYLINE
  5
30A
330
1F
100
AcDbEntity
  8
0
  6
SLD-Solid
 62
     7
370
    15
100
AcDbPolyline
 90
        3
 70
   128
 43
0.0
 10
1018.6069286628
 20
1488.2031581526
 10
1018.6033821865
 20
1488.2054231291
 10
1018.599820809
 20
1488.2076881056
  0
LWPOLYLINE
  5
30B
330
1F
100
AcDbEntity
  8
0
  6
SLD-Solid
 62
     7
370
    15
100
AcDbPolyline
 90
       17
 70
   128
 43
0.0
 10
1012.1317333742
 20
1480.7475707655
 10
1012.0843923851
 20
1480.5309078818
 10
1012.1364048882
 20
1480.356027854
 10
1012.2798881694
 20
1480.2495143538
 10
1012.4925277396
 20
1480.2281162863
 10
1012.7412728234
 20
1480.2959463721
 10
1012.9877380295
 20
1480.4434082632
 10
1013.1943426295
 20
1480.6479714041
 10
1013.3300773068
 20
1480.8779857283
 10
1013.3749819561
 20
1481.0975692396
 10
1013.3227682872
 20
1481.272687686
 10
1013.1814456745
 20
1481.3766381865
 10
1012.9720396562
 20
1481.3940427428
 10
1012.7257309123
 20
1481.3232324248
 10
1012.4794594212
 20
1481.175532115
 10
1012.2707090541
 20
1480.9735915785
 10
1012.1317333742
 20
1480.7475707655
  0
LINE
  5
30C
330
1F
100
AcDbEntity
  8
0
  6
SLD-Solid
 62
     7
370
    15
100
AcDbLine
 10
1018.9193315073
 20
1488.5589382773
 30
0.0
 11
1018.9121342464
 21
1488.563349021
 31
0.0
  0
LINE
  5
30D
330
1F
100
AcDbEntity
  8
0
  6
SLD-Solid
 62
     7
370
    15
100
AcDbLine
 10
968.4916711612
 20
1493.8323400145
 30
0.0
 11
968.7123871608
 21
1493.4167764311
 31
0.0
  0
LWPOLYLINE
  5
30E
330
1F
100
AcDbEntity
  8
0
  6
SLD-Solid
 62
     7
370
    15
100
AcDbPolyline
 90
        7
 70
   128
 43
0.0
 10
968.7123871608
 20
1493.4167764311
 10
968.5643664761
 20
1493.3174154883
 10
968.4738866254
 20
1493.312587512
 10
968.3773792549
 20
1493.343462718
 10
968.276632504
 20
1493.409921897
 10
968.1780911251
 20
1493.5096404677
 10
968.0026448532
 20
1493.7844178801
  0
ARC
  5
30F
330
1F
100
AcDbEntity
  8
0
  6
SLD-Solid
 62
     7
370
    15
100
AcDbCircle
 10
968.9800799433
 20
1494.3988883813
 30
0.0
 40
1.154535990023759
100
AcDbArc
 50
157.6108752101
 51
212.1557711185
  0
LWPOLYLINE
  5
310
330
1F
100
AcDbEntity
  8
0
  6
SLD-Solid
 62
     7
370
    15
100
AcDbPolyline
 90
        4
 70
   128
 43
0.0
 10
967.9125747843
 20
1494.8386452322
 10
968.0460593863
 20
1494.9322245245
 10
968.2062394186
 20
1494.940867198
 10
968.55710216
 20
1494.807650817
  0
LINE
  5
311
330
1F
100
AcDbEntity
  8
0
  6
SLD-Solid
 62
     7
370
    15
100
AcDbLine
 10
968.55710216
 20
1494.807650817
 30
0.0
 11
968.7891132398
 21
1494.6922562247
 31
0.0
  0
LINE
  5
312
330
1F
100
AcDbEntity
  8
0
  6
SLD-Solid
 62
     7
370
    15
100
AcDbLine
 10
968.7891132398
 20
1494.6922562247
 30
0.0
 11
968.3907306953
 21
1495.4976937895
 31
0.0
  0
LINE
  5
313
330
1F
100
AcDbEntity
  8
0
  6
SLD-Solid
 62
     7
370
    15
100
AcDbLine
 10
968.3907306953
 20
1495.4976937895
 30
0.0
 11
968.5456506177
 21
1495.7017800932
 31
0.0
  0
LINE
  5
314
330
1F
100
AcDbEntity
  8
0
  6
SLD-Solid
 62
     7
370
    15
100
AcDbLine
 10
968.5456506177
 20
1495.7017800932
 30
0.0
 11
969.3416631981
 21
1494.1419265395
 31
0.0
  0
LINE
  5
315
330
1F
100
AcDbEntity
  8
0
  6
SLD-Solid
 62
     7
370
    15
100
AcDbLine
 10
969.3416631981
 20
1494.1419265395
 30
0.0
 11
969.2614278956
 21
1494.0360686903
 31
0.0
  0
LINE
  5
316
330
1F
100
AcDbEntity
  8
0
  6
SLD-Solid
 62
     7
370
    15
100
AcDbLine
 10
969.2614278956
 20
1494.0360686903
 30
0.0
 11
968.6176083251
 21
1494.3639538412
 31
0.0
  0
LWPOLYLINE
  5
317
330
1F
100
AcDbEntity
  8
0
  6
SLD-Solid
 62
     7
370
    15
100
AcDbPolyline
 90
        4
 70
   128
 43
0.0
 10
968.6176083251
 20
1494.3639538412
 10
968.3573520942
 20
1494.4760701781
 10
968.2361162468
 20
1494.4856069212
 10
968.1350565715
 20
1494.4273731833
  0
ARC
  5
318
330
1F
100
AcDbEntity
  8
0
  6
SLD-Solid
 62
     7
370
    15
100
AcDbCircle
 10
968.6203338587
 20
1494.233936228
 30
0.0
 40
0.5224097061816407
100
AcDbArc
 50
158.2672208893
 51
211.1723149886
  0
LWPOLYLINE
  5
319
330
1F
100
AcDbEntity
  8
0
  6
SLD-Solid
 62
     7
370
    15
100
AcDbPolyline
 90
        7
 70
   128
 43
0.0
 10
968.1733600064
 20
1493.9635298376
 10
968.2115069791
 20
1493.8979051237
 10
968.2546830936
 20
1493.8429496413
 10
968.2990811034
 20
1493.8046834593
 10
968.3448202177
 20
1493.7816760664
 10
968.426478581
 20
1493.7821529036
 10
968.4916711612
 20
1493.8323400145
  0
LINE
  5
31A
330
1F
100
AcDbEntity
  8
0
  6
SLD-Solid
 62
     7
370
    15
100
AcDbLine
 10
969.2614278956
 20
1494.0360686903
 30
0.0
 11
969.269645886
 21
1494.0390489226
 31
0.0
  0
LINE
  5
31B
330
1F
100
AcDbEntity
  8
0
  6
SLD-Solid
 62
     7
370
    15
100
AcDbLine
 10
969.3416631981
 20
1494.1419265395
 30
0.0
 11
969.349888639
 21
1494.1449067717
 31
0.0
  0
LINE
  5
31C
330
1F
100
AcDbEntity
  8
0
  6
SLD-Solid
 62
     7
370
    15
100
AcDbLine
 10
968.5456506177
 20
1495.7017800932
 30
0.0
 11
968.5541219278
 21
1495.7042238837
 31
0.0
  0
LWPOLYLINE
  5
31D
330
1F
100
AcDbEntity
  8
0
  6
SLD-Solid
 62
     7
370
    15
100
AcDbPolyline
 90
       17
 70
   128
 43
0.0
 10
1016.780091004
 20
1484.5515391951
 10
1016.7128420635
 20
1484.0938351279
 10
1016.8185732527
 20
1483.7382934218
 10
1017.0872411891
 20
1483.5453531866
 10
1017.4734420343
 20
1483.5438034659
 10
1017.9153285189
 20
1483.7353131895
 10
1018.3421350284
 20
1484.0946695929
 10
1018.6890638633
 20
1484.5663807516
 10
1018.9035511776
 20
1485.0779674178
 10
1018.9579404159
 20
1485.5481288557
 10
1018.8460475965
 20
1485.9036705618
 10
1018.5862607523
 20
1486.0886237746
 10
1018.2163543268
 20
1486.0781333571
 10
1017.7887208028
 20
1485.8745238905
 10
1017.3651552959
 20
1485.5118296271
 10
1017.0097029968
 20
1485.0443503981
 10
1016.780091004
 20
1484.5515391951
  0
LWPOLYLINE
  5
31E
330
1F
100
AcDbEntity
  8
0
  6
SLD-Solid
 62
     7
370
    15
100
AcDbPolyline
 90
       17
 70
   128
 43
0.0
 10
975.8803374334
 20
1482.7904007559
 10
975.7541842027
 20
1483.030667079
 10
975.5619666739
 20
1483.2506082182
 10
975.333457367
 20
1483.417262805
 10
975.1033387347
 20
1483.5050604468
 10
974.9059654041
 20
1483.499994052
 10
974.7705511017
 20
1483.4021232252
 10
974.7172198458
 20
1483.2258722906
 10
974.7542343302
 20
1482.9982421522
 10
974.8766250177
 20
1482.7543995505
 10
975.06657757
 20
1482.532312644
 10
975.2956531211
 20
1482.3662541037
 10
975.5288264914
 20
1482.2813174849
 10
975.7299623652
 20
1482.2899005537
 10
975.8676341935
 20
1482.389857543
 10
975.9204066559
 20
1482.5656316405
 10
975.8803374334
 20
1482.7904007559
  0
ARC
  5
31F
330
1F
100
AcDbEntity
  8
0
  6
SLD-Solid
 62
     7
370
    15
100
AcDbCircle
 10
968.3281815707
 20
1496.2057610484
 30
0.0
 40
1.31716424507875
100
AcDbArc
 50
141.7940673845
 51
206.6570240918
  0
LWPOLYLINE
  5
320
330
1F
100
AcDbEntity
  8
0
  6
SLD-Solid
 62
     7
370
    15
100
AcDbPolyline
 90
        7
 70
   128
 43
0.0
 10
967.2931633158
 20
1497.0204136496
 10
967.4656591578
 20
1497.1906445151
 10
967.6670856043
 20
1497.2619912749
 10
967.7867866321
 20
1497.228076232
 10
967.896593289
 20
1497.1381924277
 10
968.0054537221
 20
1496.9807169562
 10
968.1001655026
 20
1496.7841408377
  0
ARC
  5
321
330
1F
100
AcDbEntity
  8
0
  6
SLD-Solid
 62
     7
370
    15
100
AcDbCircle
 10
966.9559062384
 20
1496.1767694599
 30
0.0
 40
1.29546487957376
100
AcDbArc
 50
322.9505550576
 51
27.9593063302
  0
LWPOLYLINE
  5
322
330
1F
100
AcDbEntity
  8
0
  6
SLD-Solid
 62
     7
370
    15
100
AcDbPolyline
 90
        3
 70
   128
 43
0.0
 10
967.9898373051
 20
1495.3962466841
 10
967.7865184112
 20
1495.2044985419
 10
967.5385779901
 20
1495.1537153845
  0
ARC
  5
323
330
1F
100
AcDbEntity
  8
0
  6
SLD-Solid
 62
     7
370
    15
100
AcDbCircle
 10
967.9256776362
 20
1495.8724954461
 30
0.0
 40
0.8163889471352196
100
AcDbArc
 50
198.3989752203
 51
241.6952753621
  0
ARC
  5
324
330
1F
100
AcDbEntity
  8
0
  6
SLD-Solid
 62
     7
370
    15
100
AcDbCircle
 10
967.6877823109
 20
1496.5207527692
 30
0.0
 40
0.2613591193996764
100
AcDbArc
 50
14.8516327485
 51
71.4028387243
  0
LWPOLYLINE
  5
325
330
1F
100
AcDbEntity
  8
0
  6
SLD-Solid
 62
     7
370
    15
100
AcDbPolyline
 90
        3
 70
   128
 43
0.0
 10
967.7711329623
 20
1496.7684648161
 10
967.6086730524
 20
1496.7155358916
 10
967.4714408084
 20
1496.579041255
  0
ARC
  5
326
330
1F
100
AcDbEntity
  8
0
  6
SLD-Solid
 62
     7
370
    15
100
AcDbCircle
 10
967.9504894285
 20
1496.0825951613
 30
0.0
 40
0.6898886174064939
100
AcDbArc
 50
133.9782659711
 51
201.9421705078
  0
LWPOLYLINE
  5
327
330
1F
100
AcDbEntity
  8
0
  6
SLD-Solid
 62
     7
370
    15
100
AcDbPolyline
 90
        7
 70
   128
 43
0.0
 10
967.3105753227
 20
1495.82480408
 10
967.3726610108
 20
1495.7129857664
 10
967.4088559313
 20
1495.6719181662
 10
967.4454233809
 20
1495.6447384482
 10
967.5150937601
 20
1495.6292412405
 10
967.5808153315
 20
1495.6459305411
 10
967.7977613373
 20
1495.8415529852
  0
ARC
  5
328
330
1F
100
AcDbEntity
  8
0
  6
SLD-Solid
 62
     7
370
    15
100
AcDbCircle
 10
967.3118815418
 20
1496.321168665
 30
0.0
 40
0.6827227665896967
100
AcDbArc
 50
315.3717286822
 51
22.9830280427
  0
LINE
  5
329
330
1F
100
AcDbEntity
  8
0
  6
SLD-Solid
 62
     7
370
    15
100
AcDbLine
 10
967.9898373051
 20
1495.3962466841
 30
0.0
 11
967.9983458682
 21
1495.3986308699
 31
0.0
  0
LWPOLYLINE
  5
32A
330
1F
100
AcDbEntity
  8
0
  6
SLD-Solid
 62
     7
370
    15
100
AcDbPolyline
 90
        3
 70
   128
 43
0.0
 10
968.1001655026
 20
1496.7841408377
 10
968.1044719382
 20
1496.7852137213
 10
968.1087858244
 20
1496.7862866049
  0
ARC
  5
32B
330
1F
100
AcDbEntity
  8
0
  6
SLD-Solid
 62
     7
370
    15
100
AcDbCircle
 10
967.9589286617
 20
1496.0846287381
 30
0.0
 40
0.689678725300674
100
AcDbArc
 50
133.9681656046
 51
201.9391468708
  0
LWPOLYLINE
  5
32C
330
1F
100
AcDbEntity
  8
0
  6
SLD-Solid
 62
     7
370
    15
100
AcDbPolyline
 90
        3
 70
   128
 43
0.0
 10
967.7797905369
 20
1496.770491374
 10
967.6173380776
 20
1496.7175624495
 10
967.4801132842
 20
1496.5810082083
  0
ARC
  5
32D
330
1F
100
AcDbEntity
  8
0
  6
SLD-Solid
 62
     7
370
    15
100
AcDbCircle
 10
967.5606359012
 20
1495.8747888483
 30
0.0
 40
0.2461340439598621
100
AcDbArc
 50
191.2074311481
 51
261.3621447334
  0
LWPOLYLINE
  5
32E
330
1F
100
AcDbEntity
  8
0
  6
SLD-Solid
 62
     7
370
    15
100
AcDbPolyline
 90
        3
 70
   128
 43
0.0
 10
968.1350565715
 20
1494.4273731833
 10
968.139258699
 20
1494.4286844855
 10
968.1434533759
 20
1494.4299957877
  0
LINE
  5
32F
330
1F
100
AcDbEntity
  8
0
  6
SLD-Solid
 62
     7
370
    15
100
AcDbLine
 10
969.5491097136
 20
1491.6248819952
 30
0.0
 11
969.557044582
 21
1491.62827946
 31
0.0
  0
LINE
  5
330
330
1F
100
AcDbEntity
  8
0
  6
SLD-Solid
 62
     7
370
    15
100
AcDbLine
 10
968.7123871608
 20
1493.4167764311
 30
0.0
 11
968.7206200524
 21
1493.4196970587
 31
0.0
  0
LWPOLYLINE
  5
331
330
1F
100
AcDbEntity
  8
0
  6
SLD-Solid
 62
     7
370
    15
100
AcDbPolyline
 90
        3
 70
   128
 43
0.0
 10
968.4916711612
 20
1493.8323400145
 10
968.4958211346
 20
1493.833770526
 10
968.499971108
 20
1493.8351414328
  0
LWPOLYLINE
  5
332
330
1F
100
AcDbEntity
  8
0
  6
SLD-Solid
 62
     7
370
    15
100
AcDbPolyline
 90
        3
 70
   128
 43
0.0
 10
968.1733525558
 20
1493.9635298376
 10
968.1775323315
 20
1493.9649007445
 10
968.1817121072
 20
1493.9662120467
  0
LWPOLYLINE
  5
333
330
1F
100
AcDbEntity
  8
0
  6
SLD-Solid
 62
     7
370
    15
100
AcDbPolyline
 90
        3
 70
   128
 43
0.0
 10
967.3191956444
 20
1495.8269498473
 10
967.3148817583
 20
1495.8258769636
 10
967.3105753227
 20
1495.82480408
  0
LWPOLYLINE
  5
334
330
1F
100
AcDbEntity
  8
0
  6
SLD-Solid
 62
     7
370
    15
100
AcDbPolyline
 90
       17
 70
   128
 43
0.0
 10
971.2930522128
 20
1487.1700904494
 10
971.1958966418
 20
1487.4327085142
 10
971.0397622748
 20
1487.6800677901
 10
970.8489156528
 20
1487.8747365599
 10
970.6521011158
 20
1487.9868528967
 10
970.4783833786
 20
1487.9988334303
 10
970.3532285257
 20
1487.9083535796
 10
970.2952183052
 20
1487.7288243895
 10
970.3135094805
 20
1487.4878428107
 10
970.4062245055
 20
1487.2226021414
 10
970.5601982041
 20
1486.9739911681
 10
970.7524306341
 20
1486.7801568632
 10
970.9533653422
 20
1486.6704843169
 10
971.1315236254
 20
1486.661066783
 10
971.2588465973
 20
1486.7528579359
 10
971.3154635592
 20
1486.931552661
 10
971.2930522128
 20
1487.1700904494
  0
LWPOLYLINE
  5
335
330
1F
100
AcDbEntity
  8
0
  6
SLD-Solid
 62
     7
370
    15
100
AcDbPolyline
 90
        7
 70
   128
 43
0.0
 10
1025.3436244293
 20
1500.3011129027
 10
1025.2836323543
 20
1500.0930330878
 10
1025.2037472292
 20
1499.9213121062
 10
1025.1083499952
 20
1499.8066327696
 10
1025.0070071979
 20
1499.7554323798
 10
1024.8118168874
 20
1499.7936985617
 10
1024.6336735054
 20
1499.9369285231
  0
ARC
  5
336
330
1F
100
AcDbEntity
  8
0
  6
SLD-Solid
 62
     7
370
    15
100
AcDbCircle
 10
1025.6586239806
 20
1500.867892621
 30
0.0
 40
1.384636280154987
100
AcDbArc
 50
162.3744894868
 51
222.2489167832
  0
LWPOLYLINE
  5
337
330
1F
100
AcDbEntity
  8
0
  6
SLD-Solid
 62
     7
370
    15
100
AcDbPolyline
 90
        7
 70
   128
 43
0.0
 10
1024.3389881416
 20
1501.2871525412
 10
1024.3959850832
 20
1501.4939210539
 10
1024.4699544473
 20
1501.666059268
 10
1024.5579011007
 20
1501.781513465
 10
1024.6532834335
 20
1501.8357536917
 10
1024.8401439949
 20
1501.8023750906
 10
1025.0146812959
 20
1501.6613505011
  0
ARC
  5
338
330
1F
100
AcDbEntity
  8
0
  6
SLD-Solid
 62
     7
370
    15
100
AcDbCircle
 10
1024.1843047921
 20
1500.7916924187
 30
0.0
 40
1.202426845348062
100
AcDbArc
 50
13.558601795
 51
46.3236602714
  0
ARC
  5
339
330
1F
100
AcDbEntity
  8
0
  6
SLD-Solid
 62
     7
370
    15
100
AcDbCircle
 10
1023.6363588953
 20
1500.7086196935
 30
0.0
 40
1.755225737122835
100
AcDbArc
 50
346.5752707275
 51
12.00124995
  0
ARC
  5
33A
330
1F
100
AcDbEntity
  8
0
  6
SLD-Solid
 62
     7
370
    15
100
AcDbCircle
 10
1025.1926770704
 20
1500.9602372956
 30
0.0
 40
0.7035420337305492
100
AcDbArc
 50
166.7980379361
 51
194.3241725807
  0
LWPOLYLINE
  5
33B
330
1F
100
AcDbEntity
  8
0
  6
SLD-Solid
 62
     7
370
    15
100
AcDbPolyline
 90
        3
 70
   128
 43
0.0
 10
1024.5110071464
 20
1500.7861755019
 10
1024.6160156294
 20
1500.5569360381
 10
1024.7463113828
 20
1500.401069892
  0
LWPOLYLINE
  5
33C
330
1F
100
AcDbEntity
  8
0
  6
SLD-Solid
 62
     7
370
    15
100
AcDbPolyline
 90
        7
 70
   128
 43
0.0
 10
1024.7463113828
 20
1500.401069892
 10
1024.9582207962
 20
1500.2507469778
 10
1025.0158733888
 20
1500.2465746527
 10
1025.0745094581
 20
1500.2766749983
 10
1025.128853993
 20
1500.3471276884
 10
1025.1510865255
 20
1500.3998777991
 10
1025.1683569713
 20
1500.4612705832
  0
ARC
  5
33D
330
1F
100
AcDbEntity
  8
0
  6
SLD-Solid
 62
     7
370
    15
100
AcDbCircle
 10
1024.4539483178
 20
1500.6285131886
 30
0.0
 40
0.7337232538477567
100
AcDbArc
 50
346.8243610885
 51
51.122916908
  0
LWPOLYLINE
  5
33E
330
1F
100
AcDbEntity
  8
0
  6
SLD-Solid
 62
     7
370
    15
100
AcDbPolyline
 90
        6
 70
   128
 43
0.0
 10
1024.9144709869
 20
1501.1997125273
 10
1024.7077918811
 20
1501.3424656515
 10
1024.6520466371
 20
1501.3424060469
 10
1024.5961225792
 20
1501.3081333762
 10
1024.5450413986
 20
1501.2342832213
 10
1024.507728891
 20
1501.1209151869
  0
LWPOLYLINE
  5
33F
330
1F
100
AcDbEntity
  8
0
  6
SLD-Solid
 62
     7
370
    15
100
AcDbPolyline
 90
        3
 70
   128
 43
0.0
 10
1024.3389881416
 20
1501.2871525412
 10
1024.3344581886
 20
1501.2875101691
 10
1024.3299133344
 20
1501.2878677969
  0
ARC
  5
340
330
1F
100
AcDbEntity
  8
0
  6
SLD-Solid
 62
     7
370
    15
100
AcDbCircle
 10
1024.8955898145
 20
1500.487896808
 30
0.0
 40
0.264962324797989
100
AcDbArc
 50
294.8201706901
 51
354.3880110928
  0
LINE
  5
341
330
1F
100
AcDbEntity
  8
0
  6
SLD-Solid
 62
     7
370
    15
100
AcDbLine
 10
1024.9053663774
 20
1501.2003085738
 30
0.0
 11
1024.6986872717
 21
1501.343061698
 31
0.0
  0
ARC
  5
342
330
1F
100
AcDbEntity
  8
0
  6
SLD-Solid
 62
     7
370
    15
100
AcDbCircle
 10
1024.4450094074
 20
1500.6291643761
 30
0.0
 40
0.7335763316175724
100
AcDbArc
 50
346.8268140309
 51
51.1302889316
  0
LWPOLYLINE
  5
343
330
1F
100
AcDbEntity
  8
0
  6
SLD-Solid
 62
     7
370
    15
100
AcDbPolyline
 90
       17
 70
   128
 43
0.0
 10
1021.5252465768
 20
1489.554335845
 10
1021.513429956
 20
1489.3099568014
 10
1021.5732581182
 20
1489.1295335417
 10
1021.6960138841
 20
1489.0403053885
 10
1021.8625343605
 20
1489.0560410147
 10
1022.0465040966
 20
1489.1748926764
 10
1022.2189254327
 20
1489.379157794
 10
1022.3531699939
 20
1489.637901557
 10
1022.4291957184
 20
1489.9116060858
 10
1022.4364227815
 20
1490.158071292
 10
1022.3747617765
 20
1490.3393290167
 10
1022.2540027662
 20
1490.4276631003
 10
1022.092116551
 20
1490.4097817068
 10
1021.9127363725
 20
1490.2888438826
 10
1021.742132978
 20
1490.0837442999
 10
1021.6059065624
 20
1489.8258946066
 10
1021.5252465768
 20
1489.554335845
  0
LWPOLYLINE
  5
344
330
1F
100
AcDbEntity
  8
0
  6
SLD-Solid
 62
     7
370
    15
100
AcDbPolyline
 90
       17
 70
   128
 43
0.0
 10
968.0471173688
 20
1492.3940203314
 10
967.9234228297
 20
1492.9513237601
 10
967.7007175251
 20
1493.4886596327
 10
967.412611024
 20
1493.9190647726
 10
967.1020931764
 20
1494.1774509077
 10
966.811133103
 20
1494.2250750189
 10
966.5808058544
 20
1494.0509698515
 10
966.4435661598
 20
1493.6836264258
 10
966.4240828915
 20
1493.1774041777
 10
966.52826436
 20
1492.6126501685
 10
966.7453370257
 20
1492.0751354819
 10
967.0427940055
 20
1491.6490218764
 10
967.3738680049
 20
1491.3963577872
 10
967.6833502217
 20
1491.3564822798
 10
967.9204351469
 20
1491.5332696562
 10
968.0465511246
 20
1491.901447547
 10
968.0471173688
 20
1492.3940203314
  0
LINE
  5
345
330
1F
100
AcDbEntity
  8
0
  6
SLD-Solid
 62
     7
370
    15
100
AcDbLine
 10
1025.6909406944
 20
1502.081682456
 30
0.0
 11
1025.6126648946
 21
1501.6087792044
 31
0.0
  0
LINE
  5
346
330
1F
100
AcDbEntity
  8
0
  6
SLD-Solid
 62
     7
370
    15
100
AcDbLine
 10
1025.6126648946
 20
1501.6087792044
 30
0.0
 11
1024.9885744615
 21
1502.1820566779
 31
0.0
  0
LINE
  5
347
330
1F
100
AcDbEntity
  8
0
  6
SLD-Solid
 62
     7
370
    15
100
AcDbLine
 10
1024.9885744615
 20
1502.1820566779
 30
0.0
 11
1024.9495781227
 21
1501.9612810736
 31
0.0
  0
LINE
  5
348
330
1F
100
AcDbEntity
  8
0
  6
SLD-Solid
 62
     7
370
    15
100
AcDbLine
 10
1024.9495781227
 20
1501.9612810736
 30
0.0
 11
1024.7789151235
 21
1502.118100894
 31
0.0
  0
LINE
  5
349
330
1F
100
AcDbEntity
  8
0
  6
SLD-Solid
 62
     7
370
    15
100
AcDbLine
 10
1024.7789151235
 20
1502.118100894
 30
0.0
 11
1024.8179412647
 21
1502.3388764983
 31
0.0
  0
LINE
  5
34A
330
1F
100
AcDbEntity
  8
0
  6
SLD-Solid
 62
     7
370
    15
100
AcDbLine
 10
1024.8179412647
 20
1502.3388764983
 30
0.0
 11
1024.6189213558
 21
1502.521981967
 31
0.0
  0
LINE
  5
34B
330
1F
100
AcDbEntity
  8
0
  6
SLD-Solid
 62
     7
370
    15
100
AcDbLine
 10
1024.6189213558
 20
1502.521981967
 30
0.0
 11
1024.6956474348
 21
1502.9842755919
 31
0.0
  0
LINE
  5
34C
330
1F
100
AcDbEntity
  8
0
  6
SLD-Solid
 62
     7
370
    15
100
AcDbLine
 10
1024.6956474348
 20
1502.9842755919
 30
0.0
 11
1024.8946226402
 21
1502.8011701231
 31
0.0
  0
LINE
  5
34D
330
1F
100
AcDbEntity
  8
0
  6
SLD-Solid
 62
     7
370
    15
100
AcDbLine
 10
1024.8946226402
 20
1502.8011701231
 30
0.0
 11
1025.0475234552
 21
1503.885140193
 31
0.0
  0
LINE
  5
34E
330
1F
100
AcDbEntity
  8
0
  6
SLD-Solid
 62
     7
370
    15
100
AcDbLine
 10
1025.0475234552
 20
1503.885140193
 30
0.0
 11
1025.2182013555
 21
1503.7283203726
 31
0.0
  0
LINE
  5
34F
330
1F
100
AcDbEntity
  8
0
  6
SLD-Solid
 62
     7
370
    15
100
AcDbLine
 10
1025.2182013555
 20
1503.7283203726
 30
0.0
 11
1025.6909406944
 21
1502.081682456
 31
0.0
  0
LINE
  5
350
330
1F
100
AcDbEntity
  8
0
  6
SLD-Solid
 62
     7
370
    15
100
AcDbLine
 10
1025.1500583454
 20
1503.2118461256
 30
0.0
 11
1025.0652111335
 21
1502.6443503027
 31
0.0
  0
LINE
  5
351
330
1F
100
AcDbEntity
  8
0
  6
SLD-Solid
 62
     7
370
    15
100
AcDbLine
 10
1025.0652111335
 20
1502.6443503027
 30
0.0
 11
1025.3901607557
 21
1502.3458502417
 31
0.0
  0
LINE
  5
352
330
1F
100
AcDbEntity
  8
0
  6
SLD-Solid
 62
     7
370
    15
100
AcDbLine
 10
1025.3901607557
 20
1502.3458502417
 30
0.0
 11
1025.1500583454
 21
1503.2118461256
 31
0.0
  0
LINE
  5
353
330
1F
100
AcDbEntity
  8
0
  6
SLD-Solid
 62
     7
370
    15
100
AcDbLine
 10
1024.6189213558
 20
1502.521981967
 30
0.0
 11
1024.6097720428
 21
1502.5223395949
 31
0.0
  0
LINE
  5
354
330
1F
100
AcDbEntity
  8
0
  6
SLD-Solid
 62
     7
370
    15
100
AcDbLine
 10
1024.8179412647
 20
1502.3388764983
 30
0.0
 11
1024.8087770506
 21
1502.3392341261
 31
0.0
  0
LINE
  5
355
330
1F
100
AcDbEntity
  8
0
  6
SLD-Solid
 62
     7
370
    15
100
AcDbLine
 10
1024.6956474348
 20
1502.9842755919
 30
0.0
 11
1024.6864683195
 21
1502.9844544058
 31
0.0
  0
LINE
  5
356
330
1F
100
AcDbEntity
  8
0
  6
SLD-Solid
 62
     7
370
    15
100
AcDbLine
 10
1024.7789151235
 20
1502.118100894
 30
0.0
 11
1024.7697807117
 21
1502.1185181265
 31
0.0
  0
LINE
  5
357
330
1F
100
AcDbEntity
  8
0
  6
SLD-Solid
 62
     7
370
    15
100
AcDbLine
 10
1024.9495781227
 20
1501.9612810736
 30
0.0
 11
1024.9404437109
 21
1501.9616983061
 31
0.0
  0
LWPOLYLINE
  5
358
330
1F
100
AcDbEntity
  8
0
  6
SLD-Solid
 62
     7
370
    15
100
AcDbPolyline
 90
        3
 70
   128
 43
0.0
 10
1025.1592821642
 20
1500.4619858389
 10
1025.1638270183
 20
1500.4616282111
 10
1025.1683569713
 20
1500.4612705832
  0
LINE
  5
359
330
1F
100
AcDbEntity
  8
0
  6
SLD-Solid
 62
     7
370
    15
100
AcDbLine
 10
1025.6333924099
 20
1504.9437186842
 30
0.0
 11
1025.6604678198
 21
1505.4042241698
 31
0.0
  0
ARC
  5
35A
330
1F
100
AcDbEntity
  8
0
  6
SLD-Solid
 62
     7
370
    15
100
AcDbCircle
 10
1024.4696485453
 20
1504.5063262978
 30
0.0
 40
1.491399052152801
100
AcDbArc
 50
350.7853798478
 51
37.0169112062
  0
LWPOLYLINE
  5
35B
330
1F
100
AcDbEntity
  8
0
  6
SLD-Solid
 62
     7
370
    15
100
AcDbPolyline
 90
        6
 70
   128
 43
0.0
 10
1025.9418017431
 20
1504.2675039893
 10
1025.8988863989
 20
1503.9898059492
 10
1025.8617825075
 20
1503.8761994963
 10
1025.8152163788
 20
1503.788163436
 10
1025.7033980652
 20
1503.6991737013
 10
1025.5838609501
 20
1503.7300489073
  0
ARC
  5
35C
330
1F
100
AcDbEntity
  8
0
  6
SLD-Solid
 62
     7
370
    15
100
AcDbCircle
 10
1027.1017532441
 20
1504.8622983372
 30
0.0
 40
1.893669925823078
100
AcDbArc
 50
185.7571913244
 51
216.7205565771
  0
LINE
  5
35D
330
1F
100
AcDbEntity
  8
0
  6
SLD-Solid
 62
     7
370
    15
100
AcDbLine
 10
1025.2176351114
 20
1504.6723387366
 30
0.0
 11
1025.1252330108
 21
1505.0479076033
 31
0.0
  0
LINE
  5
35E
330
1F
100
AcDbEntity
  8
0
  6
SLD-Solid
 62
     7
370
    15
100
AcDbLine
 10
1025.1252330108
 20
1505.0479076033
 30
0.0
 11
1025.0457353159
 21
1504.162838233
 31
0.0
  0
LINE
  5
35F
330
1F
100
AcDbEntity
  8
0
  6
SLD-Solid
 62
     7
370
    15
100
AcDbLine
 10
1025.0457353159
 20
1504.162838233
 30
0.0
 11
1024.8750127121
 21
1504.3072602873
 31
0.0
  0
LINE
  5
360
330
1F
100
AcDbEntity
  8
0
  6
SLD-Solid
 62
     7
370
    15
100
AcDbLine
 10
1024.8750127121
 20
1504.3072602873
 30
0.0
 11
1025.006455855
 21
1506.0269734984
 31
0.0
  0
LINE
  5
361
330
1F
100
AcDbEntity
  8
0
  6
SLD-Solid
 62
     7
370
    15
100
AcDbLine
 10
1025.006455855
 20
1506.0269734984
 30
0.0
 11
1025.0948942466
 21
1505.9524080878
 31
0.0
  0
LINE
  5
362
330
1F
100
AcDbEntity
  8
0
  6
SLD-Solid
 62
     7
370
    15
100
AcDbLine
 10
1025.0948942466
 20
1505.9524080878
 30
0.0
 11
1025.3538317247
 21
1504.9266121512
 31
0.0
  0
ARC
  5
363
330
1F
100
AcDbEntity
  8
0
  6
SLD-Solid
 62
     7
370
    15
100
AcDbCircle
 10
1026.9389279416
 20
1505.0991193014
 30
0.0
 40
1.594455623021121
100
AcDbArc
 50
186.2110958016
 51
213.8231726747
  0
LWPOLYLINE
  5
364
330
1F
100
AcDbEntity
  8
0
  6
SLD-Solid
 62
     7
370
    15
100
AcDbPolyline
 90
        8
 70
   128
 43
0.0
 10
1025.6143189235
 20
1504.2115948325
 10
1025.6672776504
 20
1504.1924021368
 10
1025.692848043
 20
1504.2042038565
 10
1025.7163769766
 20
1504.2306087141
 10
1025.7367021604
 20
1504.2697689658
 10
1025.7529742284
 20
1504.3200752859
 10
1025.7645077272
 20
1504.3792030936
 10
1025.7716602846
 20
1504.4439337378
  0
ARC
  5
365
330
1F
100
AcDbEntity
  8
0
  6
SLD-Solid
 62
     7
370
    15
100
AcDbCircle
 10
1025.1176326148
 20
1504.5320230892
 30
0.0
 40
0.6599253208784421
100
AcDbArc
 50
352.3342661033
 51
38.5979616866
  0
LINE
  5
366
330
1F
100
AcDbEntity
  8
0
  6
SLD-Solid
 62
     7
370
    15
100
AcDbLine
 10
1024.8750127121
 20
1504.3072602873
 30
0.0
 11
1024.8657739921
 21
1504.3070218687
 31
0.0
  0
LINE
  5
367
330
1F
100
AcDbEntity
  8
0
  6
SLD-Solid
 62
     7
370
    15
100
AcDbLine
 10
1025.0457353159
 20
1504.162838233
 30
0.0
 11
1025.0364965959
 21
1504.1625998144
 31
0.0
  0
LINE
  5
368
330
1F
100
AcDbEntity
  8
0
  6
SLD-Solid
 62
     7
370
    15
100
AcDbLine
 10
1025.006455855
 20
1506.0269734984
 30
0.0
 11
1024.9971873327
 21
1506.026198638
 31
0.0
  0
LINE
  5
369
330
1F
100
AcDbEntity
  8
0
  6
SLD-Solid
 62
     7
370
    15
100
AcDbLine
 10
1025.0475234552
 20
1503.885140193
 30
0.0
 11
1025.0382996364
 21
1503.8850209837
 31
0.0
  0
LINE
  5
36A
330
1F
100
AcDbEntity
  8
0
  6
SLD-Solid
 62
     7
370
    15
100
AcDbLine
 10
1025.6126648946
 20
1501.6087792044
 30
0.0
 11
1025.6035006805
 21
1501.6091368323
 31
0.0
  0
LINE
  5
36B
330
1F
100
AcDbEntity
  8
0
  6
SLD-Solid
 62
     7
370
    15
100
AcDbLine
 10
1025.3809816404
 20
1502.3460290556
 30
0.0
 11
1025.1408494278
 21
1503.2118461256
 31
0.0
  0
LINE
  5
36C
330
1F
100
AcDbEntity
  8
0
  6
SLD-Solid
 62
     7
370
    15
100
AcDbLine
 10
1025.5838609501
 20
1503.7300489073
 30
0.0
 11
1025.5746222301
 21
1503.7298104887
 31
0.0
  0
LWPOLYLINE
  5
36D
330
1F
100
AcDbEntity
  8
0
  6
SLD-Solid
 62
     7
370
    15
100
AcDbPolyline
 90
       17
 70
   128
 43
0.0
 10
1024.5559788509
 20
1495.1665303831
 10
1024.5714909597
 20
1494.9124953871
 10
1024.641586022
 20
1494.728436244
 10
1024.7562057539
 20
1494.6421287184
 10
1024.8975879713
 20
1494.6669242506
 10
1025.0431723161
 20
1494.799246562
 10
1025.1696384712
 20
1495.0191280966
 10
1025.2571529909
 20
1495.2933094626
 10
1025.2926773592
 20
1495.5799481993
 10
1025.2718008323
 20
1495.8351156836
 10
1025.1988894506
 20
1496.0198304777
 10
1025.0856555267
 20
1496.1057803755
 10
1024.949056582
 20
1496.0799715643
 10
1024.8088366552
 20
1495.9465167647
 10
1024.6851868196
 20
1495.725979579
 10
1024.5962864919
 20
1495.4520962363
 10
1024.5559788509
 20
1495.1665303831
  0
LINE
  5
36E
330
1F
100
AcDbEntity
  8
0
  6
SLD-Solid
 62
     7
370
    15
100
AcDbLine
 10
1025.7716602846
 20
1504.4439337378
 30
0.0
 11
1025.7623917623
 21
1504.4434569006
 31
0.0
  0
LINE
  5
36F
330
1F
100
AcDbEntity
  8
0
  6
SLD-Solid
 62
     7
370
    15
100
AcDbLine
 10
1025.6333924099
 20
1504.9437186842
 30
0.0
 11
1025.6241238876
 21
1504.9431226378
 31
0.0
  0
LINE
  5
370
330
1F
100
AcDbEntity
  8
0
  6
SLD-Solid
 62
     7
370
    15
100
AcDbLine
 10
1025.6604678198
 20
1505.4042241698
 30
0.0
 11
1025.6511843963
 21
1505.4034493094
 31
0.0
  0
ARC
  5
371
330
1F
100
AcDbEntity
  8
0
  6
SLD-Solid
 62
     7
370
    15
100
AcDbCircle
 10
1010.4613895053
 20
1530.1502510357
 30
0.0
 40
0.9622464831311005
100
AcDbArc
 50
334.36880944
 51
21.6978537085
  0
ARC
  5
372
330
1F
100
AcDbEntity
  8
0
  6
SLD-Solid
 62
     7
370
    15
100
AcDbCircle
 10
980.528834829
 20
1530.1502510357
 30
0.0
 40
0.9622464831311005
100
AcDbArc
 50
158.3021462915
 51
205.63119056
  0
LWPOLYLINE
  5
373
330
1F
100
AcDbEntity
  8
0
  6
SLD-Solid
 62
     7
370
    15
100
AcDbPolyline
 90
       17
 70
   128
 43
0.0
 10
1025.9820795818
 20
1501.0436675673
 10
1026.0736025139
 20
1500.5296371107
 10
1026.2400186821
 20
1500.1547238951
 10
1026.4604962631
 20
1499.9841950064
 10
1026.6998685165
 20
1500.0411770468
 10
1026.9183940454
 20
1500.3157756453
 10
1027.0770616098
 20
1500.7681152945
 10
1027.1496600671
 20
1501.3280413275
 10
1027.1243429943
 20
1501.9109151488
 10
1027.009872274
 20
1502.4272105818
 10
1026.8278396888
 20
1502.798845542
 10
1026.6098804041
 20
1502.9682419424
 10
1026.3883299394
 20
1502.9115579253
 10
1026.1935270591
 20
1502.6352903967
 10
1026.0496265455
 20
1502.1820566779
 10
1025.9758806987
 20
1501.6192696219
 10
1025.9820795818
 20
1501.0436675673
  0
LINE
  5
374
330
1F
100
AcDbEntity
  8
0
  6
SLD-Solid
 62
     7
370
    15
100
AcDbLine
 10
1022.4027759596
 20
1518.7418363219
 30
0.0
 11
1022.3943121
 21
1518.7370679503
 31
0.0
  0
ARC
  5
375
330
1F
100
AcDbEntity
  8
0
  6
SLD-Solid
 62
     7
370
    15
100
AcDbCircle
 10
1024.2062978741
 20
1519.4050926472
 30
0.0
 40
1.921613969901169
100
AcDbArc
 50
200.1913104209
 51
239.5744756932
  0
LWPOLYLINE
  5
376
330
1F
100
AcDbEntity
  8
0
  6
SLD-Solid
 62
     7
370
    15
100
AcDbPolyline
 90
        7
 70
   128
 43
0.0
 10
1023.3290172382
 20
1518.3642408972
 10
1023.4154737755
 20
1518.1649229651
 10
1023.4736181064
 20
1517.987241519
 10
1023.4950310751
 20
1517.853846324
 10
1023.4806365534
 20
1517.7623531943
 10
1023.3808434768
 20
1517.7077553397
 10
1023.2331580682
 20
1517.7481076842
  0
LWPOLYLINE
  5
377
330
1F
100
AcDbEntity
  8
0
  6
SLD-Solid
 62
     7
370
    15
100
AcDbPolyline
 90
        7
 70
   128
 43
0.0
 10
1022.4027759596
 20
1518.7418363219
 10
1022.3152167364
 20
1518.9386508589
 10
1022.2521550222
 20
1519.1139481192
 10
1022.224498467
 20
1519.2487738257
 10
1022.2324556871
 20
1519.3350217467
 10
1022.3236507936
 20
1519.3885467177
 10
1022.468177156
 20
1519.3479559546
  0
LWPOLYLINE
  5
378
330
1F
100
AcDbEntity
  8
0
  6
SLD-Solid
 62
     7
370
    15
100
AcDbPolyline
 90
        3
 70
   128
 43
0.0
 10
1022.468177156
 20
1519.3479559546
 10
1022.6682401462
 20
1519.2376873618
 10
1022.9183114334
 20
1519.0099380141
  0
ARC
  5
379
330
1F
100
AcDbEntity
  8
0
  6
SLD-Solid
 62
     7
370
    15
100
AcDbCircle
 10
1020.6831474364
 20
1517.1347603044
 30
0.0
 40
2.917575969227979
100
AcDbArc
 50
24.9233118203
 51
39.9947711763
  0
ARC
  5
37A
330
1F
100
AcDbEntity
  8
0
  6
SLD-Solid
 62
     7
370
    15
100
AcDbCircle
 10
1023.6334815785
 20
1519.1754637444
 30
0.0
 40
1.184172763892149
100
AcDbArc
 50
204.8437068719
 51
220.8132360201
  0
LWPOLYLINE
  5
37B
330
1F
100
AcDbEntity
  8
0
  6
SLD-Solid
 62
     7
370
    15
100
AcDbPolyline
 90
        3
 70
   128
 43
0.0
 10
1022.7372474237
 20
1518.4014938002
 10
1022.9008770748
 20
1518.2568333273
 10
1023.0358368917
 20
1518.1847117071
  0
LWPOLYLINE
  5
37C
330
1F
100
AcDbEntity
  8
0
  6
SLD-Solid
 62
     7
370
    15
100
AcDbPolyline
 90
        7
 70
   128
 43
0.0
 10
1023.0358368917
 20
1518.1847117071
 10
1023.201060967
 20
1518.1527636175
 10
1023.2263035341
 20
1518.175174964
 10
1023.2340223356
 20
1518.2260773306
 10
1023.2182122036
 20
1518.3089873915
 10
1023.1993473335
 20
1518.3623931532
 10
1023.1735236211
 20
1518.4211037283
  0
ARC
  5
37D
330
1F
100
AcDbEntity
  8
0
  6
SLD-Solid
 62
     7
370
    15
100
AcDbCircle
 10
1022.2991428246
 20
1518.0521031373
 30
0.0
 40
0.9490538517631102
100
AcDbArc
 50
22.8804064181
 51
66.4633034911
  0
LWPOLYLINE
  5
37E
330
1F
100
AcDbEntity
  8
0
  6
SLD-Solid
 62
     7
370
    15
100
AcDbPolyline
 90
        6
 70
   128
 43
0.0
 10
1022.6781345173
 20
1518.922199977
 10
1022.5198841854
 20
1518.9499161368
 10
1022.4979496761
 20
1518.9252994185
 10
1022.4940753742
 20
1518.8723704939
 10
1022.5133872791
 20
1518.7884471541
 10
1022.5588954254
 20
1518.6779401427
  0
ARC
  5
37F
330
1F
100
AcDbEntity
  8
0
  6
SLD-Solid
 62
     7
370
    15
100
AcDbCircle
 10
1022.8356706402
 20
1518.2170963494
 30
0.0
 40
0.3849589267819465
100
AcDbArc
 50
353.0426658058
 51
31.1686647422
  0
LINE
  5
380
330
1F
100
AcDbEntity
  8
0
  6
SLD-Solid
 62
     7
370
    15
100
AcDbLine
 10
1022.6697302623
 20
1518.9173123961
 30
0.0
 11
1022.5114650293
 21
1518.9450881605
 31
0.0
  0
ARC
  5
381
330
1F
100
AcDbEntity
  8
0
  6
SLD-Solid
 62
     7
370
    15
100
AcDbCircle
 10
1022.2909862474
 20
1518.0474766502
 30
0.0
 40
0.9487155809844378
100
AcDbArc
 50
22.8797271917
 51
66.4707202184
  0
LINE
  5
382
330
1F
100
AcDbEntity
  8
0
  6
SLD-Solid
 62
     7
370
    15
100
AcDbLine
 10
1021.357384996
 20
1520.7347176199
 30
0.0
 11
1021.349248962
 21
1520.7292935973
 31
0.0
  0
LINE
  5
383
330
1F
100
AcDbEntity
  8
0
  6
SLD-Solid
 62
     7
370
    15
100
AcDbLine
 10
1022.6999349161
 20
1519.4492838507
 30
0.0
 11
1021.357384996
 21
1520.7347176199
 31
0.0
  0
LINE
  5
384
330
1F
100
AcDbEntity
  8
0
  6
SLD-Solid
 62
     7
370
    15
100
AcDbLine
 10
1022.6999349161
 20
1519.4492838507
 30
0.0
 11
1022.6916200681
 21
1519.4441578513
 31
0.0
  0
LINE
  5
385
330
1F
100
AcDbEntity
  8
0
  6
SLD-Solid
 62
     7
370
    15
100
AcDbLine
 10
1021.9738609358
 20
1520.8585760718
 30
0.0
 11
1022.7854824825
 21
1519.4181702261
 31
0.0
  0
LINE
  5
386
330
1F
100
AcDbEntity
  8
0
  6
SLD-Solid
 62
     7
370
    15
100
AcDbLine
 10
1022.7854824825
 20
1519.4181702261
 30
0.0
 11
1022.6999349161
 21
1519.4492838507
 31
0.0
  0
LINE
  5
387
330
1F
100
AcDbEntity
  8
0
  6
SLD-Solid
 62
     7
370
    15
100
AcDbLine
 10
1021.357384996
 20
1520.7347176199
 30
0.0
 11
1021.2190724178
 21
1521.060218585
 31
0.0
  0
LINE
  5
388
330
1F
100
AcDbEntity
  8
0
  6
SLD-Solid
 62
     7
370
    15
100
AcDbLine
 10
1021.2190724178
 20
1521.060218585
 30
0.0
 11
1022.3471797271
 21
1520.0006864195
 31
0.0
  0
LINE
  5
389
330
1F
100
AcDbEntity
  8
0
  6
SLD-Solid
 62
     7
370
    15
100
AcDbLine
 10
1022.3471797271
 20
1520.0006864195
 30
0.0
 11
1021.8206918998
 21
1520.9144256239
 31
0.0
  0
LINE
  5
38A
330
1F
100
AcDbEntity
  8
0
  6
SLD-Solid
 62
     7
370
    15
100
AcDbLine
 10
1021.8206918998
 20
1520.9144256239
 30
0.0
 11
1021.9738609358
 21
1520.8585760718
 31
0.0
  0
LWPOLYLINE
  5
38B
330
1F
100
AcDbEntity
  8
0
  6
SLD-Solid
 62
     7
370
    15
100
AcDbPolyline
 90
       17
 70
   128
 43
0.0
 10
1026.6071832939
 20
1507.5603029852
 10
1026.6928649707
 20
1507.3046586638
 10
1026.7976201339
 20
1507.1199438696
 10
1026.9064582153
 20
1507.0344112044
 10
1027.0028538271
 20
1507.0611140852
 10
1027.0712948604
 20
1507.1958205824
 10
1027.1000690027
 20
1507.4178478842
 10
1027.0838863416
 20
1507.6931617384
 10
1027.0251161619
 20
1507.9798004752
 10
1026.9335485264
 20
1508.2343123083
 10
1026.8243677183
 20
1508.4181926375
 10
1026.7151720091
 20
1508.5036656981
 10
1026.6226805015
 20
1508.477678073
 10
1026.560140328
 20
1508.344104064
 10
1026.5357769294
 20
1508.1229112273
 10
1026.5523321195
 20
1507.8476569777
 10
1026.6071832939
 20
1507.5603029852
  0
LINE
  5
38C
330
1F
100
AcDbEntity
  8
0
  6
SLD-Solid
 62
     7
370
    15
100
AcDbLine
 10
1021.2190724178
 20
1521.060218585
 30
0.0
 11
1021.2109959884
 21
1521.0547349577
 31
0.0
  0
LINE
  5
38D
330
1F
100
AcDbEntity
  8
0
  6
SLD-Solid
 62
     7
370
    15
100
AcDbLine
 10
1019.9483013912
 20
1522.952785266
 30
0.0
 11
1019.940612392
 21
1522.9466459875
 31
0.0
  0
LINE
  5
38E
330
1F
100
AcDbEntity
  8
0
  6
SLD-Solid
 62
     7
370
    15
100
AcDbLine
 10
1020.9280080362
 20
1521.481385005
 30
0.0
 11
1019.9483013912
 21
1522.952785266
 31
0.0
  0
LINE
  5
38F
330
1F
100
AcDbEntity
  8
0
  6
SLD-Solid
 62
     7
370
    15
100
AcDbLine
 10
1020.9280080362
 20
1521.481385005
 30
0.0
 11
1020.9200210138
 21
1521.4757225638
 31
0.0
  0
LINE
  5
390
330
1F
100
AcDbEntity
  8
0
  6
SLD-Solid
 62
     7
370
    15
100
AcDbLine
 10
1020.8201832338
 20
1522.3318836813
 30
0.0
 11
1020.5505169197
 21
1522.7209231978
 31
0.0
  0
ARC
  5
391
330
1F
100
AcDbEntity
  8
0
  6
SLD-Solid
 62
     7
370
    15
100
AcDbCircle
 10
1019.343189194
 20
1520.7762192229
 30
0.0
 40
2.288998424450729
100
AcDbArc
 50
29.6426640195
 51
58.1668094241
  0
LWPOLYLINE
  5
392
330
1F
100
AcDbEntity
  8
0
  6
SLD-Solid
 62
     7
370
    15
100
AcDbPolyline
 90
        6
 70
   128
 43
0.0
 10
1021.3326192661
 20
1521.9083330756
 10
1021.4821077152
 20
1521.6611526137
 10
1021.5362883373
 20
1521.5505859976
 10
1021.570739822
 20
1521.4590332632
 10
1021.5827501579
 20
1521.3370225554
 10
1021.5213275715
 20
1521.3110349303
  0
ARC
  5
393
330
1F
100
AcDbEntity
  8
0
  6
SLD-Solid
 62
     7
370
    15
100
AcDbCircle
 10
1022.8345115066
 20
1523.4509897051
 30
0.0
 40
2.5107485906906
100
AcDbArc
 50
217.2695851378
 51
238.4646271416
  0
LINE
  5
394
330
1F
100
AcDbEntity
  8
0
  6
SLD-Solid
 62
     7
370
    15
100
AcDbLine
 10
1020.836470203
 20
1521.9305656081
 30
0.0
 11
1020.5802596374
 21
1522.200395835
 31
0.0
  0
LINE
  5
395
330
1F
100
AcDbEntity
  8
0
  6
SLD-Solid
 62
     7
370
    15
100
AcDbLine
 10
1020.5802596374
 20
1522.200395835
 30
0.0
 11
1021.0738904043
 21
1521.4360258704
 31
0.0
  0
LINE
  5
396
330
1F
100
AcDbEntity
  8
0
  6
SLD-Solid
 62
     7
370
    15
100
AcDbLine
 10
1021.0738904043
 20
1521.4360258704
 30
0.0
 11
1020.9280080362
 21
1521.481385005
 31
0.0
  0
LINE
  5
397
330
1F
100
AcDbEntity
  8
0
  6
SLD-Solid
 62
     7
370
    15
100
AcDbLine
 10
1019.9483013912
 20
1522.952785266
 30
0.0
 11
1020.0239396854
 21
1522.929122222
 31
0.0
  0
LINE
  5
398
330
1F
100
AcDbEntity
  8
0
  6
SLD-Solid
 62
     7
370
    15
100
AcDbLine
 10
1020.0239396854
 20
1522.929122222
 30
0.0
 11
1020.7330561443
 21
1522.1981904631
 31
0.0
  0
ARC
  5
399
330
1F
100
AcDbEntity
  8
0
  6
SLD-Solid
 62
     7
370
    15
100
AcDbCircle
 10
1022.4772962572
 20
1523.5709938593
 30
0.0
 40
2.219676268328381
100
AcDbArc
 50
218.2044986982
 51
236.419026874
  0
LWPOLYLINE
  5
39A
330
1F
100
AcDbEntity
  8
0
  6
SLD-Solid
 62
     7
370
    15
100
AcDbPolyline
 90
        8
 70
   128
 43
0.0
 10
1021.2495601936
 20
1521.7217705374
 10
1021.2797499462
 20
1521.7287442808
 10
1021.2819255157
 20
1521.7494866972
 10
1021.2747580572
 20
1521.7811367636
 10
1021.2589032217
 20
1521.8217871313
 10
1021.2345994278
 20
1521.8706033354
 10
1021.2036646171
 20
1521.9241283064
 10
1021.167693214
 20
1521.9804546957
  0
ARC
  5
39B
330
1F
100
AcDbEntity
  8
0
  6
SLD-Solid
 62
     7
370
    15
100
AcDbCircle
 10
1020.298038971
 20
1521.4680303453
 30
0.0
 40
1.009394480521393
100
AcDbArc
 50
30.5077691983
 51
58.8497137099
  0
LINE
  5
39C
330
1F
100
AcDbEntity
  8
0
  6
SLD-Solid
 62
     7
370
    15
100
AcDbLine
 10
1021.0738904043
 20
1521.4360258704
 30
0.0
 11
1021.0659033819
 21
1521.4303634291
 31
0.0
  0
LINE
  5
39D
330
1F
100
AcDbEntity
  8
0
  6
SLD-Solid
 62
     7
370
    15
100
AcDbLine
 10
1023.1650597616
 20
1518.4163353567
 30
0.0
 11
1023.1735236211
 21
1518.4211037283
 31
0.0
  0
LWPOLYLINE
  5
39E
330
1F
100
AcDbEntity
  8
0
  6
SLD-Solid
 62
     7
370
    15
100
AcDbPolyline
 90
        3
 70
   128
 43
0.0
 10
1021.5213275715
 20
1521.3110349303
 10
1021.5173340603
 20
1521.308233512
 10
1021.5133405491
 20
1521.305372489
  0
LWPOLYLINE
  5
39F
330
1F
100
AcDbEntity
  8
0
  6
SLD-Solid
 62
     7
370
    15
100
AcDbPolyline
 90
       17
 70
   128
 43
0.0
 10
1025.5342698856
 20
1513.784339202
 10
1025.6596780582
 20
1513.5397217398
 10
1025.7876194282
 20
1513.361325038
 10
1025.8996761604
 20
1513.2767460471
 10
1025.9790099426
 20
1513.2989189749
 10
1026.012880282
 20
1513.4242079382
 10
1025.9949243828
 20
1513.6331222182
 10
1025.9268707796
 20
1513.8933560973
 10
1025.8188075586
 20
1514.1652128821
 10
1025.6878412529
 20
1514.4076249724
 10
1025.555101709
 20
1514.5840547209
 10
1025.4418230816
 20
1514.6681568747
 10
1025.3655440374
 20
1514.6472356444
 10
1025.33721693
 20
1514.5241520529
 10
1025.3599710031
 20
1514.3172047263
 10
1025.4292614027
 20
1514.0574476843
 10
1025.5342698856
 20
1513.784339202
  0
LINE
  5
3A0
330
1F
100
AcDbEntity
  8
0
  6
SLD-Solid
 62
     7
370
    15
100
AcDbLine
 10
1021.8206918998
 20
1520.9144256239
 30
0.0
 11
1021.8126303716
 21
1520.908882392
 31
0.0
  0
LINE
  5
3A1
330
1F
100
AcDbEntity
  8
0
  6
SLD-Solid
 62
     7
370
    15
100
AcDbLine
 10
1022.7854824825
 20
1519.4181702261
 30
0.0
 11
1022.7771825357
 21
1519.4130442267
 31
0.0
  0
LWPOLYLINE
  5
3A2
330
1F
100
AcDbEntity
  8
0
  6
SLD-Solid
 62
     7
370
    15
100
AcDbPolyline
 90
        3
 70
   128
 43
0.0
 10
1021.167693214
 20
1521.9804546957
 10
1021.1637742086
 20
1521.9775340681
 10
1021.1598403021
 20
1521.9746134405
  0
LINE
  5
3A3
330
1F
100
AcDbEntity
  8
0
  6
SLD-Solid
 62
     7
370
    15
100
AcDbLine
 10
1020.8201832338
 20
1522.3318836813
 30
0.0
 11
1020.8124048277
 21
1522.3259232169
 31
0.0
  0
LINE
  5
3A4
330
1F
100
AcDbEntity
  8
0
  6
SLD-Solid
 62
     7
370
    15
100
AcDbLine
 10
1020.5505169197
 20
1522.7209231978
 30
0.0
 11
1020.5428130193
 21
1522.714843524
 31
0.0
  0
LWPOLYLINE
  5
3A5
330
1F
100
AcDbEntity
  8
0
  6
SLD-Solid
 62
     7
370
    15
100
AcDbPolyline
 90
       17
 70
   128
 43
0.0
 10
1023.0137235685
 20
1519.4867751723
 10
1023.3386433883
 20
1519.0368197089
 10
1023.6417181059
 20
1518.6999342566
 10
1023.8777524992
 20
1518.5370347624
 10
1024.0131891533
 20
1518.5715458517
 10
1024.0265554948
 20
1518.7957189207
 10
1023.9101178213
 20
1519.1744468336
 10
1023.6789412065
 20
1519.6463368063
 10
1023.3654803796
 20
1520.1391480093
 10
1023.0203396841
 20
1520.5782554274
 10
1022.6993537708
 20
1520.8998820906
 10
1022.4564797445
 20
1521.0568807249
 10
1022.328955607
 20
1521.0282704954
 10
1022.3360187574
 20
1520.8154819136
 10
1022.4718577428
 20
1520.448615325
 10
1022.7129287286
 20
1519.9790499335
 10
1023.0137235685
 20
1519.4867751723
  0
LINE
  5
3A6
330
1F
100
AcDbEntity
  8
0
  6
SLD-Solid
 62
     7
370
    15
100
AcDbLine
 10
1012.5744766756
 20
1530.6950709944
 30
0.0
 11
1009.9548227354
 21
1532.1655771857
 31
0.0
  0
LINE
  5
3A7
330
1F
100
AcDbEntity
  8
0
  6
SLD-Solid
 62
     7
370
    15
100
AcDbLine
 10
1009.9548227354
 20
1532.1655771857
 30
0.0
 11
1009.3086413308
 21
1532.1073434477
 31
0.0
  0
LINE
  5
3A8
330
1F
100
AcDbEntity
  8
0
  6
SLD-Solid
 62
     7
370
    15
100
AcDbLine
 10
1009.3086413308
 20
1532.1073434477
 30
0.0
 11
1011.9284293814
 21
1530.637254489
 31
0.0
  0
LINE
  5
3A9
330
1F
100
AcDbEntity
  8
0
  6
SLD-Solid
 62
     7
370
    15
100
AcDbLine
 10
1011.9284293814
 20
1530.637254489
 30
0.0
 11
1012.1665797396
 21
1530.6584737425
 31
0.0
  0
LINE
  5
3AA
330
1F
100
AcDbEntity
  8
0
  6
SLD-Solid
 62
     7
370
    15
100
AcDbLine
 10
1012.1665797396
 20
1530.6584737425
 30
0.0
 11
1013.0180916949
 21
1530.0773880606
 31
0.0
  0
LINE
  5
3AB
330
1F
100
AcDbEntity
  8
0
  6
SLD-Solid
 62
     7
370
    15
100
AcDbLine
 10
1013.0180916949
 20
1530.0773880606
 30
0.0
 11
1012.8953731819
 21
1530.0655267363
 31
0.0
  0
ARC
  5
3AC
330
1F
100
AcDbEntity
  8
0
  6
SLD-Solid
 62
     7
370
    15
100
AcDbCircle
 10
1014.0333868712
 20
1533.8750308968
 30
0.0
 40
3.975851745980347
100
AcDbArc
 50
232.0636972724
 51
253.3675294836
  0
LINE
  5
3AD
330
1F
100
AcDbEntity
  8
0
  6
SLD-Solid
 62
     7
370
    15
100
AcDbLine
 10
1011.5890926881
 20
1530.7392976408
 30
0.0
 11
1009.2854327722
 21
1532.0283076887
 31
0.0
  0
LWPOLYLINE
  5
3AE
330
1F
100
AcDbEntity
  8
0
  6
SLD-Solid
 62
     7
370
    15
100
AcDbPolyline
 90
        7
 70
   128
 43
0.0
 10
1009.2854327722
 20
1532.0283076887
 10
1008.8501102491
 20
1532.2488448744
 10
1008.6503452821
 20
1532.3529741888
 10
1008.4887272878
 20
1532.4439904814
 10
1008.400415556
 20
1532.5069925909
 10
1008.3756647273
 20
1532.5437090521
 10
1008.4295845791
 20
1532.5717828398
  0
LINE
  5
3AF
330
1F
100
AcDbEntity
  8
0
  6
SLD-Solid
 62
     7
370
    15
100
AcDbLine
 10
1008.4295845791
 20
1532.5717828398
 30
0.0
 11
1008.92673202
 21
1532.6190493231
 31
0.0
  0
ARC
  5
3B0
330
1F
100
AcDbEntity
  8
0
  6
SLD-Solid
 62
     7
370
    15
100
AcDbCircle
 10
1008.027773523
 20
1528.3345035398
 30
0.0
 40
4.377837245520171
100
AcDbArc
 50
59.6955810275
 51
78.1504178031
  0
LINE
  5
3B1
330
1F
100
AcDbEntity
  8
0
  6
SLD-Solid
 62
     7
370
    15
100
AcDbLine
 10
1010.2368048592
 20
1532.1141383772
 30
0.0
 11
1012.5401891037
 21
1530.8244726782
 31
0.0
  0
LWPOLYLINE
  5
3B2
330
1F
100
AcDbEntity
  8
0
  6
SLD-Solid
 62
     7
370
    15
100
AcDbPolyline
 90
        7
 70
   128
 43
0.0
 10
1012.5401965542
 20
1530.8244726782
 10
1012.9648870989
 20
1530.5540464049
 10
1013.1596899791
 20
1530.4199359541
 10
1013.320942895
 20
1530.2970311766
 10
1013.4147308036
 20
1530.2064917212
 10
1013.4443617626
 20
1530.1520726805
 10
1013.3926025792
 20
1530.1123163824
  0
LINE
  5
3B3
330
1F
100
AcDbEntity
  8
0
  6
SLD-Solid
 62
     7
370
    15
100
AcDbLine
 10
1013.3926025792
 20
1530.1123163824
 30
0.0
 11
1013.2962740226
 21
1530.1030180579
 31
0.0
  0
LINE
  5
3B4
330
1F
100
AcDbEntity
  8
0
  6
SLD-Solid
 62
     7
370
    15
100
AcDbLine
 10
1013.2962740226
 20
1530.1030180579
 30
0.0
 11
1012.3705244823
 21
1530.6767723685
 31
0.0
  0
LINE
  5
3B5
330
1F
100
AcDbEntity
  8
0
  6
SLD-Solid
 62
     7
370
    15
100
AcDbLine
 10
1012.3705244823
 20
1530.6767723685
 30
0.0
 11
1012.5744766756
 21
1530.6950709944
 31
0.0
  0
LINE
  5
3B6
330
1F
100
AcDbEntity
  8
0
  6
SLD-Solid
 62
     7
370
    15
100
AcDbLine
 10
1013.0180916949
 20
1530.0773880606
 30
0.0
 11
1013.0127049251
 21
1530.0690434103
 31
0.0
  0
LINE
  5
3B7
330
1F
100
AcDbEntity
  8
0
  6
SLD-Solid
 62
     7
370
    15
100
AcDbLine
 10
1009.9548227354
 20
1532.1655771857
 30
0.0
 11
1009.9505013986
 21
1532.1565768843
 31
0.0
  0
LWPOLYLINE
  5
3B8
330
1F
100
AcDbEntity
  8
0
  6
SLD-Solid
 62
     7
370
    15
100
AcDbPolyline
 90
       17
 70
   128
 43
0.0
 10
995.4951084419
 20
1535.3204510336
 10
996.4521355196
 20
1535.3188417082
 10
997.262803392
 20
1535.3207490568
 10
997.8037676974
 20
1535.3412530547
 10
997.9934594794
 20
1535.3918573981
 10
997.803313212
 20
1535.470058692
 10
997.2618646188
 20
1535.5572602873
 10
996.450883822
 20
1535.6259248381
 10
995.4937673374
 20
1535.6519720679
 10
994.5368743702
 20
1535.6258056288
 10
993.726504521
 20
1535.5570218687
 10
993.1859648986
 20
1535.4698202734
 10
992.9968617125
 20
1535.3916785841
 10
993.1876189275
 20
1535.34119345
 10
993.7292612358
 20
1535.3207490568
 10
994.5411361023
 20
1535.3189013129
 10
995.4951084419
 20
1535.3204510336
  0
LINE
  5
3B9
330
1F
100
AcDbEntity
  8
0
  6
SLD-Solid
 62
     7
370
    15
100
AcDbLine
 10
1012.3705244823
 20
1530.6767723685
 30
0.0
 11
1012.3654208346
 21
1530.6682489043
 31
0.0
  0
LINE
  5
3BA
330
1F
100
AcDbEntity
  8
0
  6
SLD-Solid
 62
     7
370
    15
100
AcDbLine
 10
1013.2962740226
 20
1530.1030180579
 30
0.0
 11
1013.290902154
 21
1530.0946734076
 31
0.0
  0
LWPOLYLINE
  5
3BB
330
1F
100
AcDbEntity
  8
0
  6
SLD-Solid
 62
     7
370
    15
100
AcDbPolyline
 90
       21
 70
   128
 43
0.0
 10
1007.3595917984
 20
1533.3240530615
 10
1007.660550551
 20
1533.2153341894
 10
1007.9214028283
 20
1533.1304571753
 10
1008.0216429396
 20
1533.1029198294
 10
1008.0949715539
 20
1533.0878398543
 10
1008.1556118293
 20
1533.0953500395
 10
1008.0982274576
 20
1533.1500671034
 10
1007.9255975052
 20
1533.2445404654
 10
1007.6685822769
 20
1533.3612463599
 10
1007.5203976794
 20
1533.4217450743
 10
1007.3652393385
 20
1533.4808728819
 10
1007.0589906736
 20
1533.5862538939
 10
1006.7983470126
 20
1533.662071002
 10
1006.6264323159
 20
1533.6969397192
 10
1006.5652704998
 20
1533.6888334875
 10
1006.5815276666
 20
1533.6683890944
 10
1006.6303066178
 20
1533.6371562605
 10
1006.8089119359
 20
1533.5491798048
 10
1007.0641017719
 20
1533.4398052817
 10
1007.2088814541
 20
1533.3819291716
 10
1007.3595917984
 20
1533.3240530615
  0
LWPOLYLINE
  5
3BC
330
1F
100
AcDbEntity
  8
0
  6
SLD-Solid
 62
     7
370
    15
100
AcDbPolyline
 90
       17
 70
   128
 43
0.0
 10
1007.3624155684
 20
1533.3657167082
 10
1007.5040660067
 20
1533.3149931555
 10
1007.6243854328
 20
1533.2770846014
 10
1007.7051273747
 20
1533.2581303244
 10
1007.7342442437
 20
1533.2612893706
 10
1007.7071315809
 20
1533.2862041121
 10
1007.6279766126
 20
1533.3287618285
 10
1007.5086332126
 20
1533.3821079855
 10
1007.3671988412
 20
1533.437897933
 10
1007.2251684232
 20
1533.4876082068
 10
1007.1042380496
 20
1533.5239074355
 10
1007.0229820176
 20
1533.5415504103
 10
1006.9938353463
 20
1533.5381529456
 10
1007.0213056369
 20
1533.5143706923
 10
1007.101086454
 20
1533.4734223013
 10
1007.2208992406
 20
1533.4213874464
 10
1007.3624155684
 20
1533.3657167082
  0
LWPOLYLINE
  5
3BD
330
1F
100
AcDbEntity
  8
0
  6
SLD-Solid
 62
     7
370
    15
100
AcDbPolyline
 90
       17
 70
   128
 43
0.0
 10
1007.3588914438
 20
1533.3564183836
 10
1007.5005120798
 20
1533.3056948309
 10
1007.6208017035
 20
1533.2677862769
 10
1007.7015138431
 20
1533.2488916045
 10
1007.7306232615
 20
1533.2520506506
 10
1007.703540401
 20
1533.2769057875
 10
1007.6244301363
 20
1533.3194038992
 10
1007.505109088
 20
1533.3728096609
 10
1007.3637045189
 20
1533.4285996085
 10
1007.2217039033
 20
1533.4782502776
 10
1007.1008033319
 20
1533.5145495062
 10
1007.0195771022
 20
1533.5321924811
 10
1006.990430431
 20
1533.5287950163
 10
1007.0178783699
 20
1533.5050127631
 10
1007.097621934
 20
1533.4641239767
 10
1007.2173900171
 20
1533.4120295172
 10
1007.3588914438
 20
1533.3564183836
  0
LINE
  5
3BE
330
1F
100
AcDbEntity
  8
0
  6
SLD-Solid
 62
     7
370
    15
100
AcDbLine
 10
1294.1950983568
 20
1545.5475351935
 30
0.0
 11
1294.1950983568
 21
1539.8826501494
 31
0.0
  0
LINE
  5
3BF
330
1F
100
AcDbEntity
  8
0
  6
SLD-Solid
 62
     7
370
    15
100
AcDbLine
 10
1292.195124106
 20
1545.6616184836
 30
0.0
 11
1293.913257794
 21
1545.6616184836
 31
0.0
  0
LINE
  5
3C0
330
1F
100
AcDbEntity
  8
0
  6
SLD-Solid
 62
     7
370
    15
100
AcDbLine
 10
1296.6951257749
 20
1539.8826501494
 30
0.0
 11
1296.6951257749
 21
1540.9170291548
 31
0.0
  0
LINE
  5
3C1
330
1F
100
AcDbEntity
  8
0
  6
SLD-Solid
 62
     7
370
    15
100
AcDbLine
 10
1343.4951133295
 20
1594.9616334563
 30
0.0
 11
1341.0451240106
 21
1594.9616334563
 31
0.0
  0
LINE
  5
3C2
330
1F
100
AcDbEntity
  8
0
  6
SLD-Solid
 62
     7
370
    15
100
AcDbLine
 10
445.9451264902
 20
1594.9616334563
 30
0.0
 11
443.495107369
 21
1594.9616334563
 31
0.0
  0
LINE
  5
3C3
330
1F
100
AcDbEntity
  8
0
  6
SLD-Solid
 62
     7
370
    15
100
AcDbLine
 10
443.495107369
 20
1594.9616334563
 30
0.0
 11
443.495107369
 21
1593.6615965491
 31
0.0
  0
LINE
  5
3C4
330
1F
100
AcDbEntity
  8
0
  6
SLD-Solid
 62
     7
370
    15
100
AcDbLine
 10
1343.4951133295
 20
1594.9616334563
 30
0.0
 11
1343.4951133295
 21
1593.6559341078
 31
0.0
  0
LINE
  5
3C5
330
1F
100
AcDbEntity
  8
0
  6
SLD-Solid
 62
     7
370
    15
100
AcDbLine
 10
1343.4951133295
 20
1596.2116024618
 30
0.0
 11
1343.4951133295
 21
1594.9616334563
 31
0.0
  0
LINE
  5
3C6
330
1F
100
AcDbEntity
  8
0
  6
SLD-Solid
 62
     7
370
    15
100
AcDbLine
 10
443.495107369
 20
1596.2116024618
 30
0.0
 11
443.495107369
 21
1594.9616334563
 31
0.0
  0
LINE
  5
3C7
330
1F
100
AcDbEntity
  8
0
  6
SLD-Solid
 62
     7
370
    15
100
AcDbLine
 10
443.495107369
 20
1611.0784313803
 30
0.0
 11
443.495107369
 21
1596.2116024618
 31
0.0
  0
LINE
  5
3C8
330
1F
100
AcDbEntity
  8
0
  6
SLD-Solid
 62
     7
370
    15
100
AcDbLine
 10
1343.4951133295
 20
1611.0784313803
 30
0.0
 11
1343.4951133295
 21
1596.2116024618
 31
0.0
  0
LINE
  5
3C9
330
1F
100
AcDbEntity
  8
0
  6
SLD-Solid
 62
     7
370
    15
100
AcDbLine
 10
1028.460947351
 20
1635.9993121748
 30
0.0
 11
1027.9282308384
 21
1635.9919211989
 31
0.0
  0
LINE
  5
3CA
330
1F
100
AcDbEntity
  8
0
  6
SLD-Solid
 62
     7
370
    15
100
AcDbLine
 10
1049.1467393203
 20
1635.9919211989
 30
0.0
 11
1048.6140228077
 21
1635.9993121748
 31
0.0
  0
LINE
  5
3CB
330
1F
100
AcDbEntity
  8
0
  6
SLD-Solid
 62
     7
370
    15
100
AcDbLine
 10
1127.9282397791
 20
1635.9919211989
 30
0.0
 11
1049.1467393203
 21
1635.9919211989
 31
0.0
  0
LINE
  5
3CC
330
1F
100
AcDbEntity
  8
0
  6
SLD-Solid
 62
     7
370
    15
100
AcDbLine
 10
1128.4609413906
 20
1635.9993121748
 30
0.0
 11
1127.9282397791
 21
1635.9919211989
 31
0.0
  0
LINE
  5
3CD
330
1F
100
AcDbEntity
  8
0
  6
SLD-Solid
 62
     7
370
    15
100
AcDbLine
 10
1149.1467184587
 20
1635.9919211989
 30
0.0
 11
1148.6140317484
 21
1635.9993121748
 31
0.0
  0
LINE
  5
3CE
330
1F
100
AcDbEntity
  8
0
  6
SLD-Solid
 62
     7
370
    15
100
AcDbLine
 10
1227.9282338186
 20
1635.9919211989
 30
0.0
 11
1149.1467184587
 21
1635.9919211989
 31
0.0
  0
LINE
  5
3CF
330
1F
100
AcDbEntity
  8
0
  6
SLD-Solid
 62
     7
370
    15
100
AcDbLine
 10
1228.4609503313
 20
1635.9993121748
 30
0.0
 11
1227.9282338186
 21
1635.9919211989
 31
0.0
  0
LINE
  5
3D0
330
1F
100
AcDbEntity
  8
0
  6
SLD-Solid
 62
     7
370
    15
100
AcDbLine
 10
1249.1467423006
 20
1635.9919211989
 30
0.0
 11
1248.6140257879
 21
1635.9993121748
 31
0.0
  0
LINE
  5
3D1
330
1F
100
AcDbEntity
  8
0
  6
SLD-Solid
 62
     7
370
    15
100
AcDbLine
 10
1318.495107369
 20
1635.9919211989
 30
0.0
 11
1249.1467423006
 21
1635.9919211989
 31
0.0
  0
LINE
  5
3D2
330
1F
100
AcDbEntity
  8
0
  6
SLD-Solid
 62
     7
370
    15
100
AcDbLine
 10
1319.0278238817
 20
1635.9993121748
 30
0.0
 11
1318.495107369
 21
1635.9919211989
 31
0.0
  0
LINE
  5
3D3
330
1F
100
AcDbEntity
  8
0
  6
SLD-Solid
 62
     7
370
    15
100
AcDbLine
 10
468.4951133295
 20
1635.9919211989
 30
0.0
 11
467.9623968168
 21
1635.9993121748
 31
0.0
  0
LINE
  5
3D4
330
1F
100
AcDbEntity
  8
0
  6
SLD-Solid
 62
     7
370
    15
100
AcDbLine
 10
527.9282457395
 20
1635.9919211989
 30
0.0
 11
468.4951133295
 21
1635.9919211989
 31
0.0
  0
LINE
  5
3D5
330
1F
100
AcDbEntity
  8
0
  6
SLD-Solid
 62
     7
370
    15
100
AcDbLine
 10
528.4609324499
 20
1635.9993121748
 30
0.0
 11
527.9282457395
 21
1635.9919211989
 31
0.0
  0
LINE
  5
3D6
330
1F
100
AcDbEntity
  8
0
  6
SLD-Solid
 62
     7
370
    15
100
AcDbLine
 10
549.1467244192
 20
1635.9919211989
 30
0.0
 11
548.6140377088
 21
1635.9993121748
 31
0.0
  0
LINE
  5
3D7
330
1F
100
AcDbEntity
  8
0
  6
SLD-Solid
 62
     7
370
    15
100
AcDbLine
 10
627.9282397791
 20
1635.9919211989
 30
0.0
 11
549.1467244192
 21
1635.9919211989
 31
0.0
  0
LINE
  5
3D8
330
1F
100
AcDbEntity
  8
0
  6
SLD-Solid
 62
     7
370
    15
100
AcDbLine
 10
628.4609562917
 20
1635.9993121748
 30
0.0
 11
627.9282397791
 21
1635.9919211989
 31
0.0
  0
LINE
  5
3D9
330
1F
100
AcDbEntity
  8
0
  6
SLD-Solid
 62
     7
370
    15
100
AcDbLine
 10
649.1467333599
 20
1635.9919211989
 30
0.0
 11
648.6140317484
 21
1635.9993121748
 31
0.0
  0
LINE
  5
3DA
330
1F
100
AcDbEntity
  8
0
  6
SLD-Solid
 62
     7
370
    15
100
AcDbLine
 10
727.9282338186
 20
1635.9919211989
 30
0.0
 11
649.1467333599
 21
1635.9919211989
 31
0.0
  0
LINE
  5
3DB
330
1F
100
AcDbEntity
  8
0
  6
SLD-Solid
 62
     7
370
    15
100
AcDbLine
 10
728.4609354301
 20
1635.9993121748
 30
0.0
 11
727.9282338186
 21
1635.9919211989
 31
0.0
  0
LINE
  5
3DC
330
1F
100
AcDbEntity
  8
0
  6
SLD-Solid
 62
     7
370
    15
100
AcDbLine
 10
749.1467273994
 20
1635.9919211989
 30
0.0
 11
748.6140257879
 21
1635.9993121748
 31
0.0
  0
LINE
  5
3DD
330
1F
100
AcDbEntity
  8
0
  6
SLD-Solid
 62
     7
370
    15
100
AcDbLine
 10
827.9282353087
 20
1635.9919211989
 30
0.0
 11
749.1467273994
 21
1635.9919211989
 31
0.0
  0
LINE
  5
3DE
330
1F
100
AcDbEntity
  8
0
  6
SLD-Solid
 62
     7
370
    15
100
AcDbLine
 10
828.4609443708
 20
1635.9993121748
 30
0.0
 11
827.9282353087
 21
1635.9919211989
 31
0.0
  0
LINE
  5
3DF
330
1F
100
AcDbEntity
  8
0
  6
SLD-Solid
 62
     7
370
    15
100
AcDbLine
 10
849.1467326148
 20
1635.9919211989
 30
0.0
 11
848.614027278
 21
1635.9993121748
 31
0.0
  0
LINE
  5
3E0
330
1F
100
AcDbEntity
  8
0
  6
SLD-Solid
 62
     7
370
    15
100
AcDbLine
 10
927.9282367988
 20
1635.9919211989
 30
0.0
 11
849.1467326148
 21
1635.9919211989
 31
0.0
  0
LINE
  5
3E1
330
1F
100
AcDbEntity
  8
0
  6
SLD-Solid
 62
     7
370
    15
100
AcDbLine
 10
928.4609421356
 20
1635.9993121748
 30
0.0
 11
927.9282367988
 21
1635.9919211989
 31
0.0
  0
LINE
  5
3E2
330
1F
100
AcDbEntity
  8
0
  6
SLD-Solid
 62
     7
370
    15
100
AcDbLine
 10
949.1467341049
 20
1635.9919211989
 30
0.0
 11
948.6140287681
 21
1635.9993121748
 31
0.0
  0
LINE
  5
3E3
330
1F
100
AcDbEntity
  8
0
  6
SLD-Solid
 62
     7
370
    15
100
AcDbLine
 10
1027.9282308384
 20
1635.9919211989
 30
0.0
 11
949.1467341049
 21
1635.9919211989
 31
0.0
  0
LINE
  5
3E4
330
1F
100
AcDbEntity
  8
0
  6
SLD-Solid
 62
     7
370
    15
100
AcDbLine
 10
443.495107369
 20
1635.9993121748
 30
0.0
 11
443.495107369
 21
1611.0784313803
 31
0.0
  0
LINE
  5
3E5
330
1F
100
AcDbEntity
  8
0
  6
SLD-Solid
 62
     7
370
    15
100
AcDbLine
 10
1343.4951133295
 20
1635.9993121748
 30
0.0
 11
1343.4951133295
 21
1611.0784313803
 31
0.0
  0
LWPOLYLINE
  5
3E6
330
1F
100
AcDbEntity
  8
0
  6
SLD-Solid
 62
     7
370
    15
100
AcDbPolyline
 90
        9
 70
   128
 43
0.0
 10
544.6898169084
 20
1637.8726265555
 10
544.2768163248
 20
1637.5793120985
 10
544.1471762224
 20
1637.2689507132
 10
544.3084365888
 20
1636.9596026068
 10
544.7512394949
 20
1636.6692683821
 10
545.4497761293
 20
1636.4147565489
 10
546.3634557291
 20
1636.2110278731
 10
547.4390513464
 20
1636.069764865
 10
548.6140377088
 20
1635.9993121748
  0
LINE
  5
3E7
330
1F
100
AcDbEntity
  8
0
  6
SLD-Solid
 62
     7
370
    15
100
AcDbLine
 10
544.6898169084
 20
1637.099852336
 30
0.0
 11
544.3747765585
 21
1636.8996999388
 31
0.0
  0
LWPOLYLINE
  5
3E8
330
1F
100
AcDbEntity
  8
0
  6
SLD-Solid
 62
     7
370
    15
100
AcDbPolyline
 90
        9
 70
   128
 43
0.0
 10
463.4951180978
 20
1637.2860572462
 10
463.5785944029
 20
1637.0505592947
 10
463.8263113065
 20
1636.8229291563
 10
464.2299241586
 20
1636.6107366209
 10
464.7759921117
 20
1636.4211342459
 10
465.4462761446
 20
1636.2603805189
 10
466.218394713
 20
1636.1338994627
 10
467.0665390058
 20
1636.045923007
 10
467.9623968168
 20
1635.9993121748
  0
LWPOLYLINE
  5
3E9
330
1F
100
AcDbEntity
  8
0
  6
SLD-Solid
 62
     7
370
    15
100
AcDbPolyline
 90
        9
 70
   128
 43
0.0
 10
1319.0278238817
 20
1635.9993121748
 10
1319.9236816927
 20
1636.045923007
 10
1320.7718259855
 20
1636.1338994627
 10
1321.5439445539
 20
1636.2603805189
 10
1322.2142285867
 20
1636.4211342459
 10
1322.7602965398
 20
1636.6107366209
 10
1323.1639093919
 20
1636.8229291563
 10
1323.4116262956
 20
1637.0505592947
 10
1323.4951026006
 20
1637.2860572462
  0
LWPOLYLINE
  5
3EA
330
1F
100
AcDbEntity
  8
0
  6
SLD-Solid
 62
     7
370
    15
100
AcDbPolyline
 90
        9
 70
   128
 43
0.0
 10
1244.6898049875
 20
1637.8726265555
 10
1244.2768044038
 20
1637.5793120985
 10
1244.1471643015
 20
1637.2689507132
 10
1244.3084246679
 20
1636.9596026068
 10
1244.7512275739
 20
1636.6692683821
 10
1245.4497940107
 20
1636.4147565489
 10
1246.3634438081
 20
1636.2110278731
 10
1247.4390394254
 20
1636.069764865
 10
1248.6140257879
 20
1635.9993121748
  0
LINE
  5
3EB
330
1F
100
AcDbEntity
  8
0
  6
SLD-Solid
 62
     7
370
    15
100
AcDbLine
 10
1244.6898049875
 20
1637.099852336
 30
0.0
 11
1244.3747944399
 21
1636.8996999388
 31
0.0
  0
LWPOLYLINE
  5
3EC
330
1F
100
AcDbEntity
  8
0
  6
SLD-Solid
 62
     7
370
    15
100
AcDbPolyline
 90
        9
 70
   128
 43
0.0
 10
744.6898049875
 20
1637.8726265555
 10
744.2768044038
 20
1637.5793120985
 10
744.1471643015
 20
1637.2689507132
 10
744.3084395691
 20
1636.9596026068
 10
744.7512275739
 20
1636.6692683821
 10
745.4497791095
 20
1636.4147565489
 10
746.3634438081
 20
1636.2110278731
 10
747.4390543266
 20
1636.069764865
 10
748.6140257879
 20
1635.9993121748
  0
LINE
  5
3ED
330
1F
100
AcDbEntity
  8
0
  6
SLD-Solid
 62
     7
370
    15
100
AcDbLine
 10
744.6898049875
 20
1637.099852336
 30
0.0
 11
744.3747795387
 21
1636.8996999388
 31
0.0
  0
LWPOLYLINE
  5
3EE
330
1F
100
AcDbEntity
  8
0
  6
SLD-Solid
 62
     7
370
    15
100
AcDbPolyline
 90
        9
 70
   128
 43
0.0
 10
844.6898064776
 20
1637.8726265555
 10
844.276805894
 20
1637.5793120985
 10
844.1471695169
 20
1637.2689507132
 10
844.3084373339
 20
1636.9596026068
 10
844.7512290641
 20
1636.6692683821
 10
845.4497805997
 20
1636.4147565489
 10
846.363441573
 20
1636.2110278731
 10
847.4390520914
 20
1636.069764865
 10
848.614027278
 20
1635.9993121748
  0
LINE
  5
3EF
330
1F
100
AcDbEntity
  8
0
  6
SLD-Solid
 62
     7
370
    15
100
AcDbLine
 10
844.6898064776
 20
1637.099852336
 30
0.0
 11
844.3747847541
 21
1636.8996999388
 31
0.0
  0
LWPOLYLINE
  5
3F0
330
1F
100
AcDbEntity
  8
0
  6
SLD-Solid
 62
     7
370
    15
100
AcDbPolyline
 90
        9
 70
   128
 43
0.0
 10
644.689810948
 20
1637.8726265555
 10
644.2768103643
 20
1637.5793120985
 10
644.1471702619
 20
1637.2689507132
 10
644.3084306284
 20
1636.9596026068
 10
644.7512335344
 20
1636.6692683821
 10
645.44978507
 20
1636.4147565489
 10
646.3634348674
 20
1636.2110278731
 10
647.4390602871
 20
1636.069764865
 10
648.6140317484
 20
1635.9993121748
  0
LINE
  5
3F1
330
1F
100
AcDbEntity
  8
0
  6
SLD-Solid
 62
     7
370
    15
100
AcDbLine
 10
644.689810948
 20
1637.099852336
 30
0.0
 11
644.3747854992
 21
1636.8996999388
 31
0.0
  0
LWPOLYLINE
  5
3F2
330
1F
100
AcDbEntity
  8
0
  6
SLD-Solid
 62
     7
370
    15
100
AcDbPolyline
 90
        9
 70
   128
 43
0.0
 10
944.6898079677
 20
1637.8726265555
 10
944.2768073841
 20
1637.5793120985
 10
944.1471672817
 20
1637.2689507132
 10
944.308438824
 20
1636.9596026068
 10
944.7512305542
 20
1636.6692683821
 10
945.4497783645
 20
1636.4147565489
 10
946.3634430631
 20
1636.2110278731
 10
947.4390535815
 20
1636.069764865
 10
948.6140287681
 20
1635.9993121748
  0
LINE
  5
3F3
330
1F
100
AcDbEntity
  8
0
  6
SLD-Solid
 62
     7
370
    15
100
AcDbLine
 10
944.6898079677
 20
1637.099852336
 30
0.0
 11
944.3747862442
 21
1636.8996999388
 31
0.0
  0
LWPOLYLINE
  5
3F4
330
1F
100
AcDbEntity
  8
0
  6
SLD-Solid
 62
     7
370
    15
100
AcDbPolyline
 90
        9
 70
   128
 43
0.0
 10
1044.6898020073
 20
1637.8726265555
 10
1044.2768014236
 20
1637.5793120985
 10
1044.1471762224
 20
1637.2689507132
 10
1044.3084365888
 20
1636.9596026068
 10
1044.7512245937
 20
1636.6692683821
 10
1045.4497761293
 20
1636.4147565489
 10
1046.3634408279
 20
1636.2110278731
 10
1047.4390513464
 20
1636.069764865
 10
1048.6140228077
 20
1635.9993121748
  0
LINE
  5
3F5
330
1F
100
AcDbEntity
  8
0
  6
SLD-Solid
 62
     7
370
    15
100
AcDbLine
 10
1044.6898020073
 20
1637.099852336
 30
0.0
 11
1044.3747914596
 21
1636.8996999388
 31
0.0
  0
LWPOLYLINE
  5
3F6
330
1F
100
AcDbEntity
  8
0
  6
SLD-Solid
 62
     7
370
    15
100
AcDbPolyline
 90
        9
 70
   128
 43
0.0
 10
1144.689810948
 20
1637.8726265555
 10
1144.2768103643
 20
1637.5793120985
 10
1144.1471702619
 20
1637.2689507132
 10
1144.3084306284
 20
1636.9596026068
 10
1144.7512335344
 20
1636.6692683821
 10
1145.4497701688
 20
1636.4147565489
 10
1146.3634497686
 20
1636.2110278731
 10
1147.4390453859
 20
1636.069764865
 10
1148.6140317484
 20
1635.9993121748
  0
LINE
  5
3F7
330
1F
100
AcDbEntity
  8
0
  6
SLD-Solid
 62
     7
370
    15
100
AcDbLine
 10
1144.689810948
 20
1637.099852336
 30
0.0
 11
1144.374770598
 21
1636.8996999388
 31
0.0
  0
LINE
  5
3F8
330
1F
100
AcDbEntity
  8
0
  6
SLD-Solid
 62
     7
370
    15
100
AcDbLine
 10
932.385162936
 20
1636.699487937
 30
0.0
 11
942.3004179462
 21
1641.7465112334
 31
0.0
  0
LWPOLYLINE
  5
3F9
330
1F
100
AcDbEntity
  8
0
  6
SLD-Solid
 62
     7
370
    15
100
AcDbPolyline
 90
        9
 70
   128
 43
0.0
 10
942.3004179462
 20
1641.7465112334
 10
942.7281036242
 20
1642.0566342001
 10
942.8395121558
 20
1642.3846385603
 10
942.6274351044
 20
1642.7093050604
 10
942.1056001647
 20
1643.0096528654
 10
941.307799445
 20
1643.2661912566
 10
940.2856878205
 20
1643.4622309332
 10
939.1054450734
 20
1643.58525492
 10
937.843491809
 20
1643.6270973807
  0
LINE
  5
3FA
330
1F
100
AcDbEntity
  8
0
  6
SLD-Solid
 62
     7
370
    15
100
AcDbLine
 10
937.843491809
 20
1643.6270973807
 30
0.0
 11
859.0619876249
 21
1643.6270973807
 31
0.0
  0
ARC
  5
3FB
330
1F
100
AcDbEntity
  8
0
  6
SLD-Solid
 62
     7
370
    15
100
AcDbCircle
 10
858.5612016806
 20
1632.3898785207
 30
0.0
 40
11.24837207189804
100
AcDbArc
 50
87.448305584
 51
110.5918074087
  0
LINE
  5
3FC
330
1F
100
AcDbEntity
  8
0
  6
SLD-Solid
 62
     7
370
    15
100
AcDbLine
 10
854.6050614877
 20
1642.9195902472
 30
0.0
 11
844.6898064776
 21
1637.8726265555
 31
0.0
  0
LINE
  5
3FD
330
1F
100
AcDbEntity
  8
0
  6
SLD-Solid
 62
     7
370
    15
100
AcDbLine
 10
832.3851614459
 20
1636.699487937
 30
0.0
 11
842.300416456
 21
1641.7465112334
 31
0.0
  0
LWPOLYLINE
  5
3FE
330
1F
100
AcDbEntity
  8
0
  6
SLD-Solid
 62
     7
370
    15
100
AcDbPolyline
 90
        9
 70
   128
 43
0.0
 10
842.300416456
 20
1641.7465112334
 10
842.7281021341
 20
1642.0566342001
 10
842.839514391
 20
1642.3846385603
 10
842.6274336143
 20
1642.7093050604
 10
842.1056023999
 20
1643.0096528654
 10
841.3078016802
 20
1643.2661912566
 10
840.2856863304
 20
1643.4622309332
 10
839.1054435833
 20
1643.58525492
 10
837.8434903188
 20
1643.6270973807
  0
LINE
  5
3FF
330
1F
100
AcDbEntity
  8
0
  6
SLD-Solid
 62
     7
370
    15
100
AcDbLine
 10
837.8434903188
 20
1643.6270973807
 30
0.0
 11
759.0619898601
 21
1643.6270973807
 31
0.0
  0
ARC
  5
400
330
1F
100
AcDbEntity
  8
0
  6
SLD-Solid
 62
     7
370
    15
100
AcDbCircle
 10
758.5612002553
 20
1632.3899224107
 30
0.0
 40
11.24832838847665
100
AcDbArc
 50
87.4482770037
 51
110.5918508198
  0
LINE
  5
401
330
1F
100
AcDbEntity
  8
0
  6
SLD-Solid
 62
     7
370
    15
100
AcDbLine
 10
754.6050674482
 20
1642.9195902472
 30
0.0
 11
744.6898049875
 21
1637.8726265555
 31
0.0
  0
LINE
  5
402
330
1F
100
AcDbEntity
  8
0
  6
SLD-Solid
 62
     7
370
    15
100
AcDbLine
 10
732.3851562305
 20
1636.699487937
 30
0.0
 11
742.3004186912
 21
1641.7465112334
 31
0.0
  0
LWPOLYLINE
  5
403
330
1F
100
AcDbEntity
  8
0
  6
SLD-Solid
 62
     7
370
    15
100
AcDbPolyline
 90
        9
 70
   128
 43
0.0
 10
742.3004186912
 20
1641.7465112334
 10
742.7280969186
 20
1642.0566342001
 10
742.8395129009
 20
1642.3846385603
 10
742.6274395748
 20
1642.7093050604
 10
742.1056009098
 20
1643.0096528654
 10
741.3077927395
 20
1643.2661912566
 10
740.2856922908
 20
1643.4622309332
 10
739.1054458185
 20
1643.58525492
 10
737.8434962793
 20
1643.6270973807
  0
LINE
  5
404
330
1F
100
AcDbEntity
  8
0
  6
SLD-Solid
 62
     7
370
    15
100
AcDbLine
 10
737.8434962793
 20
1643.6270973807
 30
0.0
 11
659.0619809194
 21
1643.6270973807
 31
0.0
  0
ARC
  5
405
330
1F
100
AcDbEntity
  8
0
  6
SLD-Solid
 62
     7
370
    15
100
AcDbCircle
 10
658.5612042128
 20
1632.3898411587
 30
0.0
 40
11.24840898566571
100
AcDbArc
 50
87.448361064
 51
110.5917667595
  0
LINE
  5
406
330
1F
100
AcDbEntity
  8
0
  6
SLD-Solid
 62
     7
370
    15
100
AcDbLine
 10
654.6050585075
 20
1642.9195902472
 30
0.0
 11
644.689810948
 21
1637.8726265555
 31
0.0
  0
LINE
  5
407
330
1F
100
AcDbEntity
  8
0
  6
SLD-Solid
 62
     7
370
    15
100
AcDbLine
 10
632.3851770921
 20
1636.699487937
 30
0.0
 11
642.3004097505
 21
1641.7465112334
 31
0.0
  0
LWPOLYLINE
  5
408
330
1F
100
AcDbEntity
  8
0
  6
SLD-Solid
 62
     7
370
    15
100
AcDbPolyline
 90
        9
 70
   128
 43
0.0
 10
642.3004097505
 20
1641.7465112334
 10
642.7281028791
 20
1642.0566342001
 10
642.8395039602
 20
1642.3846385603
 10
642.6274306341
 20
1642.7093050604
 10
642.1055919691
 20
1643.0096528654
 10
641.3078136011
 20
1643.2661912566
 10
640.2856833501
 20
1643.4622309332
 10
639.105451779
 20
1643.58525492
 10
637.8435022398
 20
1643.6270973807
  0
LINE
  5
409
330
1F
100
AcDbEntity
  8
0
  6
SLD-Solid
 62
     7
370
    15
100
AcDbLine
 10
637.8435022398
 20
1643.6270973807
 30
0.0
 11
559.0619868799
 21
1643.6270973807
 31
0.0
  0
ARC
  5
40A
330
1F
100
AcDbEntity
  8
0
  6
SLD-Solid
 62
     7
370
    15
100
AcDbCircle
 10
558.5612200643
 20
1632.3896955279
 30
0.0
 40
11.24855403171373
100
AcDbArc
 50
87.4484444191
 51
110.5916240813
  0
LINE
  5
40B
330
1F
100
AcDbEntity
  8
0
  6
SLD-Solid
 62
     7
370
    15
100
AcDbLine
 10
554.6050495668
 20
1642.9195902472
 30
0.0
 11
544.6898169084
 21
1637.8726265555
 31
0.0
  0
LINE
  5
40C
330
1F
100
AcDbEntity
  8
0
  6
SLD-Solid
 62
     7
370
    15
100
AcDbLine
 10
532.3851532503
 20
1636.699487937
 30
0.0
 11
542.300415711
 21
1641.7465112334
 31
0.0
  0
LWPOLYLINE
  5
40D
330
1F
100
AcDbEntity
  8
0
  6
SLD-Solid
 62
     7
370
    15
100
AcDbPolyline
 90
        9
 70
   128
 43
0.0
 10
542.300415711
 20
1641.7465112334
 10
542.7281088396
 20
1642.0566342001
 10
542.8395099207
 20
1642.3846385603
 10
542.6274365945
 20
1642.7093050604
 10
542.1055979295
 20
1643.0096528654
 10
541.3077897592
 20
1643.2661912566
 10
540.2856893106
 20
1643.4622309332
 10
539.1054577394
 20
1643.58525492
 10
537.8434783979
 20
1643.6270973807
  0
LINE
  5
40E
330
1F
100
AcDbEntity
  8
0
  6
SLD-Solid
 62
     7
370
    15
100
AcDbLine
 10
537.8434783979
 20
1643.6270973807
 30
0.0
 11
468.4951133295
 21
1643.6270973807
 31
0.0
  0
LWPOLYLINE
  5
40F
330
1F
100
AcDbEntity
  8
0
  6
SLD-Solid
 62
     7
370
    15
100
AcDbPolyline
 90
        9
 70
   128
 43
0.0
 10
468.4951133295
 20
1643.6270973807
 10
467.5196535154
 20
1643.6022422438
 10
466.5816850229
 20
1643.5286305075
 10
465.717268662
 20
1643.4090039854
 10
464.9595744177
 20
1643.2480714445
 10
464.3377787634
 20
1643.0519721632
 10
463.8757235571
 20
1642.8282759314
 10
463.5911709829
 20
1642.5855062132
 10
463.4951180978
 20
1642.333020938
  0
LINE
  5
410
330
1F
100
AcDbEntity
  8
0
  6
SLD-Solid
 62
     7
370
    15
100
AcDbLine
 10
463.4951180978
 20
1642.333020938
 30
0.0
 11
463.4951180978
 21
1637.2860572462
 31
0.0
  0
LINE
  5
411
330
1F
100
AcDbEntity
  8
0
  6
SLD-Solid
 62
     7
370
    15
100
AcDbLine
 10
443.495107369
 20
1644.921233428
 30
0.0
 11
443.495107369
 21
1635.9993121748
 31
0.0
  0
LINE
  5
412
330
1F
100
AcDbEntity
  8
0
  6
SLD-Solid
 62
     7
370
    15
100
AcDbLine
 10
1343.4951133295
 20
1644.921233428
 30
0.0
 11
1343.4951133295
 21
1635.9993121748
 31
0.0
  0
LINE
  5
413
330
1F
100
AcDbEntity
  8
0
  6
SLD-Solid
 62
     7
370
    15
100
AcDbLine
 10
1323.4951026006
 20
1637.2860572462
 30
0.0
 11
1323.4951026006
 21
1642.333020938
 31
0.0
  0
LWPOLYLINE
  5
414
330
1F
100
AcDbEntity
  8
0
  6
SLD-Solid
 62
     7
370
    15
100
AcDbPolyline
 90
        9
 70
   128
 43
0.0
 10
1323.4951026006
 20
1642.333020938
 10
1323.3990497156
 20
1642.5855062132
 10
1323.1144971414
 20
1642.8282759314
 10
1322.6524717374
 20
1643.0519721632
 10
1322.0306462808
 20
1643.2480714445
 10
1321.2729520364
 20
1643.4090039854
 10
1320.4085356756
 20
1643.5286305075
 10
1319.4705671831
 20
1643.6022422438
 10
1318.495107369
 20
1643.6270973807
  0
LINE
  5
415
330
1F
100
AcDbEntity
  8
0
  6
SLD-Solid
 62
     7
370
    15
100
AcDbLine
 10
1318.495107369
 20
1643.6270973807
 30
0.0
 11
1259.061974959
 21
1643.6270973807
 31
0.0
  0
ARC
  5
416
330
1F
100
AcDbEntity
  8
0
  6
SLD-Solid
 62
     7
370
    15
100
AcDbCircle
 10
1258.5611883616
 20
1632.3899867869
 30
0.0
 40
11.24826394216552
100
AcDbArc
 50
87.4482777087
 51
110.5919094382
  0
LINE
  5
417
330
1F
100
AcDbEntity
  8
0
  6
SLD-Solid
 62
     7
370
    15
100
AcDbLine
 10
1254.6050674482
 20
1642.9195902472
 30
0.0
 11
1244.6898049875
 21
1637.8726265555
 31
0.0
  0
LINE
  5
418
330
1F
100
AcDbEntity
  8
0
  6
SLD-Solid
 62
     7
370
    15
100
AcDbLine
 10
1232.3851711317
 20
1636.699487937
 30
0.0
 11
1242.3004037901
 21
1641.7465112334
 31
0.0
  0
LWPOLYLINE
  5
419
330
1F
100
AcDbEntity
  8
0
  6
SLD-Solid
 62
     7
370
    15
100
AcDbPolyline
 90
        9
 70
   128
 43
0.0
 10
1242.3004037901
 20
1641.7465112334
 10
1242.7280969186
 20
1642.0566342001
 10
1242.8394979997
 20
1642.3846385603
 10
1242.6274246736
 20
1642.7093050604
 10
1242.1056158109
 20
1643.0096528654
 10
1241.3078076406
 20
1643.2661912566
 10
1240.2856773897
 20
1643.4622309332
 10
1239.1054458185
 20
1643.58525492
 10
1237.8434962793
 20
1643.6270973807
  0
LINE
  5
41A
330
1F
100
AcDbEntity
  8
0
  6
SLD-Solid
 62
     7
370
    15
100
AcDbLine
 10
1237.8434962793
 20
1643.6270973807
 30
0.0
 11
1159.0619809194
 21
1643.6270973807
 31
0.0
  0
ARC
  5
41B
330
1F
100
AcDbEntity
  8
0
  6
SLD-Solid
 62
     7
370
    15
100
AcDbCircle
 10
1158.5611835016
 20
1632.39005495
 30
0.0
 40
11.24819632838033
100
AcDbArc
 50
87.4482071882
 51
110.5919799588
  0
LINE
  5
41C
330
1F
100
AcDbEntity
  8
0
  6
SLD-Solid
 62
     7
370
    15
100
AcDbLine
 10
1154.6050734087
 20
1642.9195902472
 30
0.0
 11
1144.689810948
 21
1637.8726265555
 31
0.0
  0
LINE
  5
41D
330
1F
100
AcDbEntity
  8
0
  6
SLD-Solid
 62
     7
370
    15
100
AcDbLine
 10
1132.385162191
 20
1636.699487937
 30
0.0
 11
1142.3004097505
 21
1641.7465112334
 31
0.0
  0
LWPOLYLINE
  5
41E
330
1F
100
AcDbEntity
  8
0
  6
SLD-Solid
 62
     7
370
    15
100
AcDbPolyline
 90
        9
 70
   128
 43
0.0
 10
1142.3004097505
 20
1641.7465112334
 10
1142.7281028791
 20
1642.0566342001
 10
1142.8395188614
 20
1642.3846385603
 10
1142.6274306341
 20
1642.7093050604
 10
1142.1056068702
 20
1643.0096528654
 10
1141.3077986999
 20
1643.2661912566
 10
1140.2856833501
 20
1643.4622309332
 10
1139.105451779
 20
1643.58525492
 10
1137.8434873386
 20
1643.6270973807
  0
LINE
  5
41F
330
1F
100
AcDbEntity
  8
0
  6
SLD-Solid
 62
     7
370
    15
100
AcDbLine
 10
1137.8434873386
 20
1643.6270973807
 30
0.0
 11
1059.0619868799
 21
1643.6270973807
 31
0.0
  0
ARC
  5
420
330
1F
100
AcDbEntity
  8
0
  6
SLD-Solid
 62
     7
370
    15
100
AcDbCircle
 10
1058.5611972751
 20
1632.3899224107
 30
0.0
 40
11.24832838847668
100
AcDbArc
 50
87.4482770037
 51
110.5918508198
  0
LINE
  5
421
330
1F
100
AcDbEntity
  8
0
  6
SLD-Solid
 62
     7
370
    15
100
AcDbLine
 10
1054.605064468
 20
1642.9195902472
 30
0.0
 11
1044.6898020073
 21
1637.8726265555
 31
0.0
  0
LINE
  5
422
330
1F
100
AcDbEntity
  8
0
  6
SLD-Solid
 62
     7
370
    15
100
AcDbLine
 10
1032.3851681514
 20
1636.699487937
 30
0.0
 11
1042.300415711
 21
1641.7465112334
 31
0.0
  0
LWPOLYLINE
  5
423
330
1F
100
AcDbEntity
  8
0
  6
SLD-Solid
 62
     7
370
    15
100
AcDbPolyline
 90
        9
 70
   128
 43
0.0
 10
1042.300415711
 20
1641.7465112334
 10
1042.7281088396
 20
1642.0566342001
 10
1042.8395099207
 20
1642.3846385603
 10
1042.6274365945
 20
1642.7093050604
 10
1042.1055979295
 20
1643.0096528654
 10
1041.3078046604
 20
1643.2661912566
 10
1040.2856893106
 20
1643.4622309332
 10
1039.1054428383
 20
1643.58525492
 10
1037.8434932991
 20
1643.6270973807
  0
LINE
  5
424
330
1F
100
AcDbEntity
  8
0
  6
SLD-Solid
 62
     7
370
    15
100
AcDbLine
 10
1037.8434932991
 20
1643.6270973807
 30
0.0
 11
959.0619853898
 21
1643.6270973807
 31
0.0
  0
ARC
  5
425
330
1F
100
AcDbEntity
  8
0
  6
SLD-Solid
 62
     7
370
    15
100
AcDbCircle
 10
958.56120267
 20
1632.3898582077
 30
0.0
 40
11.2483922212088
100
AcDbArc
 50
87.4483265991
 51
110.5917863936
  0
LINE
  5
426
330
1F
100
AcDbEntity
  8
0
  6
SLD-Solid
 62
     7
370
    15
100
AcDbLine
 10
954.6050592526
 20
1642.9195902472
 30
0.0
 11
944.6898079677
 21
1637.8726265555
 31
0.0
  0
ARC
  5
427
330
1F
100
AcDbEntity
  8
0
  6
SLD-Solid
 62
     7
370
    15
100
AcDbCircle
 10
1228.6304790085
 20
1646.3961438361
 30
0.0
 40
10.39821371996566
100
AcDbArc
 50
269.0658291572
 51
291.1671584322
  0
ARC
  5
428
330
1F
100
AcDbEntity
  8
0
  6
SLD-Solid
 62
     7
370
    15
100
AcDbCircle
 10
1028.6304676744
 20
1646.3961906564
 30
0.0
 40
10.39826039781578
100
AcDbArc
 50
269.065879388
 51
291.1671082013
  0
ARC
  5
429
330
1F
100
AcDbEntity
  8
0
  6
SLD-Solid
 62
     7
370
    15
100
AcDbCircle
 10
1128.6304872673
 20
1646.3960474392
 30
0.0
 40
10.39811761625748
100
AcDbArc
 50
269.0657257367
 51
291.1672618526
  0
ARC
  5
42A
330
1F
100
AcDbEntity
  8
0
  6
SLD-Solid
 62
     7
370
    15
100
AcDbCircle
 10
728.6304913138
 20
1646.3959913541
 30
0.0
 40
10.39806170177875
100
AcDbArc
 50
269.0656655644
 51
291.1673220249
  0
ARC
  5
42B
330
1F
100
AcDbEntity
  8
0
  6
SLD-Solid
 62
     7
370
    15
100
AcDbCircle
 10
928.630479826
 20
1646.3960933208
 30
0.0
 40
10.39816335833222
100
AcDbArc
 50
269.0657749616
 51
291.1672126278
  0
ARC
  5
42C
330
1F
100
AcDbEntity
  8
0
  6
SLD-Solid
 62
     7
370
    15
100
AcDbCircle
 10
828.6304828651
 20
1646.3960688384
 30
0.0
 40
10.39813889221561
100
AcDbArc
 50
269.0657683328
 51
291.1672380671
  0
ARC
  5
42D
330
1F
100
AcDbEntity
  8
0
  6
SLD-Solid
 62
     7
370
    15
100
AcDbCircle
 10
528.6304955256
 20
1646.3959510453
 30
0.0
 40
10.39802151566745
100
AcDbArc
 50
269.0656223177
 51
291.1673652716
  0
ARC
  5
42E
330
1F
100
AcDbEntity
  8
0
  6
SLD-Solid
 62
     7
370
    15
100
AcDbCircle
 10
628.630468261
 20
1646.3962374779
 30
0.0
 40
10.39830707690463
100
AcDbArc
 50
269.0659296198
 51
291.1670579695
  0
LINE
  5
42F
330
1F
100
AcDbEntity
  8
0
  6
SLD-Solid
 62
     7
370
    15
100
AcDbLine
 10
554.6050495668
 20
1642.1468160277
 30
0.0
 11
544.6898169084
 21
1637.099852336
 31
0.0
  0
LINE
  5
430
330
1F
100
AcDbEntity
  8
0
  6
SLD-Solid
 62
     7
370
    15
100
AcDbLine
 10
1254.6050674482
 20
1642.1468160277
 30
0.0
 11
1244.6898049875
 21
1637.099852336
 31
0.0
  0
LINE
  5
431
330
1F
100
AcDbEntity
  8
0
  6
SLD-Solid
 62
     7
370
    15
100
AcDbLine
 10
754.6050674482
 20
1642.1468160277
 30
0.0
 11
744.6898049875
 21
1637.099852336
 31
0.0
  0
LINE
  5
432
330
1F
100
AcDbEntity
  8
0
  6
SLD-Solid
 62
     7
370
    15
100
AcDbLine
 10
854.6050614877
 20
1642.1468160277
 30
0.0
 11
844.6898064776
 21
1637.099852336
 31
0.0
  0
LINE
  5
433
330
1F
100
AcDbEntity
  8
0
  6
SLD-Solid
 62
     7
370
    15
100
AcDbLine
 10
1054.605064468
 20
1642.1468160277
 30
0.0
 11
1044.6898020073
 21
1637.099852336
 31
0.0
  0
LINE
  5
434
330
1F
100
AcDbEntity
  8
0
  6
SLD-Solid
 62
     7
370
    15
100
AcDbLine
 10
954.6050592526
 20
1642.1468160277
 30
0.0
 11
944.6898079677
 21
1637.099852336
 31
0.0
  0
LINE
  5
435
330
1F
100
AcDbEntity
  8
0
  6
SLD-Solid
 62
     7
370
    15
100
AcDbLine
 10
654.6050585075
 20
1642.1468160277
 30
0.0
 11
644.689810948
 21
1637.099852336
 31
0.0
  0
LINE
  5
436
330
1F
100
AcDbEntity
  8
0
  6
SLD-Solid
 62
     7
370
    15
100
AcDbLine
 10
1154.6050734087
 20
1642.1468160277
 30
0.0
 11
1144.689810948
 21
1637.099852336
 31
0.0
  0
ARC
  5
437
330
1F
100
AcDbEntity
  8
0
  6
SLD-Solid
 62
     7
370
    15
100
AcDbCircle
 10
538.5143026638
 20
1633.3838522324
 30
0.0
 40
9.494258990565898
100
AcDbArc
 50
64.4080994143
 51
94.0516538583
  0
ARC
  5
438
330
1F
100
AcDbEntity
  8
0
  6
SLD-Solid
 62
     7
370
    15
100
AcDbCircle
 10
638.5142751409
 20
1633.3835822041
 30
0.0
 40
9.494524715062136
100
AcDbArc
 50
64.4085237407
 51
94.051229532
  0
ARC
  5
439
330
1F
100
AcDbEntity
  8
0
  6
SLD-Solid
 62
     7
370
    15
100
AcDbCircle
 10
838.5142926707
 20
1633.3837370285
 30
0.0
 40
9.494372358247553
100
AcDbArc
 50
64.4082804503
 51
94.0514728223
  0
ARC
  5
43A
330
1F
100
AcDbEntity
  8
0
  6
SLD-Solid
 62
     7
370
    15
100
AcDbCircle
 10
938.5142904537
 20
1633.3837175403
 30
0.0
 40
9.494391535838158
100
AcDbArc
 50
64.4083110744
 51
94.0514421982
  0
ARC
  5
43B
330
1F
100
AcDbEntity
  8
0
  6
SLD-Solid
 62
     7
370
    15
100
AcDbCircle
 10
738.5142900017
 20
1633.3836916627
 30
0.0
 40
9.494417000954334
100
AcDbArc
 50
64.4083517387
 51
94.051401534
  0
ARC
  5
43C
330
1F
100
AcDbEntity
  8
0
  6
SLD-Solid
 62
     7
370
    15
100
AcDbCircle
 10
1138.5143007505
 20
1633.3837951721
 30
0.0
 40
9.494315141352349
100
AcDbArc
 50
64.4081890816
 51
94.051564191
  0
ARC
  5
43D
330
1F
100
AcDbEntity
  8
0
  6
SLD-Solid
 62
     7
370
    15
100
AcDbCircle
 10
1038.5142870214
 20
1633.3836916627
 30
0.0
 40
9.494417000954384
100
AcDbArc
 50
64.4083517387
 51
94.051401534
  0
ARC
  5
43E
330
1F
100
AcDbEntity
  8
0
  6
SLD-Solid
 62
     7
370
    15
100
AcDbCircle
 10
1238.5142988371
 20
1633.3837381111
 30
0.0
 40
9.494371292857211
100
AcDbArc
 50
64.408278749
 51
94.0514745236
  0
LWPOLYLINE
  5
43F
330
1F
100
AcDbEntity
  8
0
  6
SLD-Solid
 62
     7
370
    15
100
AcDbPolyline
 90
        9
 70
   128
 43
0.0
 10
468.4951133295
 20
1642.8543827658
 10
467.5196535154
 20
1642.8295276289
 10
466.5816850229
 20
1642.755856288
 10
465.717268662
 20
1642.6362893706
 10
464.9595744177
 20
1642.4753568297
 10
464.3377787634
 20
1642.2792575484
 10
463.8757235571
 20
1642.0555017119
 10
463.5911709829
 20
1641.8127319937
 10
463.4951180978
 20
1641.5603063231
  0
LWPOLYLINE
  5
440
330
1F
100
AcDbEntity
  8
0
  6
SLD-Solid
 62
     7
370
    15
100
AcDbPolyline
 90
        9
 70
   128
 43
0.0
 10
1323.4951026006
 20
1641.5603063231
 10
1323.3990497156
 20
1641.8127319937
 10
1323.1144971414
 20
1642.0555017119
 10
1322.6524717374
 20
1642.2792575484
 10
1322.0306462808
 20
1642.4753568297
 10
1321.2729520364
 20
1642.6362893706
 10
1320.4085356756
 20
1642.755856288
 10
1319.4705671831
 20
1642.8295276289
 10
1318.495107369
 20
1642.8543827658
  0
ARC
  5
441
330
1F
100
AcDbEntity
  8
0
  6
SLD-Solid
 62
     7
370
    15
100
AcDbCircle
 10
1258.5612045787
 20
1631.6180570217
 30
0.0
 40
11.2474791487043
100
AcDbArc
 50
87.4481822377
 51
110.5934997322
  0
ARC
  5
442
330
1F
100
AcDbEntity
  8
0
  6
SLD-Solid
 62
     7
370
    15
100
AcDbCircle
 10
558.5612362857
 20
1631.617765759
 30
0.0
 40
11.24776924169469
100
AcDbArc
 50
87.4483489852
 51
110.5932143286
  0
ARC
  5
443
330
1F
100
AcDbEntity
  8
0
  6
SLD-Solid
 62
     7
370
    15
100
AcDbCircle
 10
758.5612164759
 20
1631.6179926285
 30
0.0
 40
11.24754361187099
100
AcDbArc
 50
87.4481815548
 51
110.5934410868
  0
ARC
  5
444
330
1F
100
AcDbEntity
  8
0
  6
SLD-Solid
 62
     7
370
    15
100
AcDbCircle
 10
858.5612179006
 20
1631.6179487461
 30
0.0
 40
11.2475872877418
100
AcDbArc
 50
87.4482101326
 51
110.5933976771
  0
ARC
  5
445
330
1F
100
AcDbEntity
  8
0
  6
SLD-Solid
 62
     7
370
    15
100
AcDbCircle
 10
958.5612188896
 20
1631.6179284369
 30
0.0
 40
11.24760743326886
100
AcDbArc
 50
87.4482311468
 51
110.5933766629
  0
ARC
  5
446
330
1F
100
AcDbEntity
  8
0
  6
SLD-Solid
 62
     7
370
    15
100
AcDbCircle
 10
658.5612204321
 20
1631.6179113917
 30
0.0
 40
11.2476241939255
100
AcDbArc
 50
87.4482656115
 51
110.5933570302
  0
ARC
  5
447
330
1F
100
AcDbEntity
  8
0
  6
SLD-Solid
 62
     7
370
    15
100
AcDbCircle
 10
1058.5612134956
 20
1631.6179926285
 30
0.0
 40
11.247543611871
100
AcDbArc
 50
87.4481815548
 51
110.5934410868
  0
ARC
  5
448
330
1F
100
AcDbEntity
  8
0
  6
SLD-Solid
 62
     7
370
    15
100
AcDbCircle
 10
1158.5611997194
 20
1631.6181251746
 30
0.0
 40
11.24741154517499
100
AcDbArc
 50
87.4481117176
 51
110.5935702523
  0
LINE
  5
449
330
1F
100
AcDbEntity
  8
0
  6
SLD-Solid
 62
     7
370
    15
100
AcDbLine
 10
537.8434783979
 20
1642.8543827658
 30
0.0
 11
468.4951133295
 21
1642.8543827658
 31
0.0
  0
LINE
  5
44A
330
1F
100
AcDbEntity
  8
0
  6
SLD-Solid
 62
     7
370
    15
100
AcDbLine
 10
637.8435022398
 20
1642.8543827658
 30
0.0
 11
559.0619868799
 21
1642.8543827658
 31
0.0
  0
LINE
  5
44B
330
1F
100
AcDbEntity
  8
0
  6
SLD-Solid
 62
     7
370
    15
100
AcDbLine
 10
1318.495107369
 20
1642.8543827658
 30
0.0
 11
1259.061974959
 21
1642.8543827658
 31
0.0
  0
LINE
  5
44C
330
1F
100
AcDbEntity
  8
0
  6
SLD-Solid
 62
     7
370
    15
100
AcDbLine
 10
837.8434903188
 20
1642.8543827658
 30
0.0
 11
759.0619898601
 21
1642.8543827658
 31
0.0
  0
LINE
  5
44D
330
1F
100
AcDbEntity
  8
0
  6
SLD-Solid
 62
     7
370
    15
100
AcDbLine
 10
937.843491809
 20
1642.8543827658
 30
0.0
 11
859.0619876249
 21
1642.8543827658
 31
0.0
  0
LINE
  5
44E
330
1F
100
AcDbEntity
  8
0
  6
SLD-Solid
 62
     7
370
    15
100
AcDbLine
 10
737.8434962793
 20
1642.8543827658
 30
0.0
 11
659.0619809194
 21
1642.8543827658
 31
0.0
  0
LINE
  5
44F
330
1F
100
AcDbEntity
  8
0
  6
SLD-Solid
 62
     7
370
    15
100
AcDbLine
 10
1037.8434932991
 20
1642.8543827658
 30
0.0
 11
959.0619853898
 21
1642.8543827658
 31
0.0
  0
LINE
  5
450
330
1F
100
AcDbEntity
  8
0
  6
SLD-Solid
 62
     7
370
    15
100
AcDbLine
 10
1137.8434873386
 20
1642.8543827658
 30
0.0
 11
1059.0619868799
 21
1642.8543827658
 31
0.0
  0
LINE
  5
451
330
1F
100
AcDbEntity
  8
0
  6
SLD-Solid
 62
     7
370
    15
100
AcDbLine
 10
1237.8434962793
 20
1642.8543827658
 30
0.0
 11
1159.0619809194
 21
1642.8543827658
 31
0.0
  0
LINE
  5
452
330
1F
100
AcDbEntity
  8
0
  6
SLD-Solid
 62
     7
370
    15
100
AcDbLine
 10
1343.4951133295
 20
1644.9910900717
 30
0.0
 11
1343.4951133295
 21
1644.921233428
 31
0.0
  0
LINE
  5
453
330
1F
100
AcDbEntity
  8
0
  6
SLD-Solid
 62
     7
370
    15
100
AcDbLine
 10
443.495107369
 20
1644.9910900717
 30
0.0
 11
443.495107369
 21
1644.921233428
 31
0.0
  0
LWPOLYLINE
  5
454
330
1F
100
AcDbEntity
  8
0
  6
SLD-Solid
 62
     7
370
    15
100
AcDbPolyline
 90
        3
 70
   128
 43
0.0
 10
1298.0964607759
 20
1540.4634378081
 10
1297.5381738706
 20
1540.0840542441
 10
1297.2582704588
 20
1539.8826501494
  0
LINE
  5
455
330
1F
100
AcDbEntity
  8
0
  6
SLD-Solid
 62
     7
370
    15
100
AcDbLine
 10
546.0451073213
 20
288.1616256361
 30
0.0
 11
493.0451042219
 21
288.1616256361
 31
0.0
  0
LINE
  5
456
330
1F
100
AcDbEntity
  8
0
  6
SLD-Solid
 62
     7
370
    15
100
AcDbLine
 10
548.0451113744
 20
294.1616079932
 30
0.0
 11
491.0451001688
 21
294.1616079932
 31
0.0
  0
LINE
  5
457
330
1F
100
AcDbEntity
  8
0
  6
SLD-Solid
 62
     7
370
    15
100
AcDbLine
 10
1296.0451073213
 20
294.1616079932
 30
0.0
 11
1239.045125918
 21
294.1616079932
 31
0.0
  0
LINE
  5
458
330
1F
100
AcDbEntity
  8
0
  6
SLD-Solid
 62
     7
370
    15
100
AcDbLine
 10
1294.0451032682
 20
288.1616256361
 30
0.0
 11
1241.0451001688
 21
288.1616256361
 31
0.0
  0
LINE
  5
459
330
1F
100
AcDbEntity
  8
0
  6
SLD-Solid
 62
     7
370
    15
100
AcDbLine
 10
1312.5451035066
 20
456.16160847
 30
0.0
 11
1312.5451035066
 21
458.1616125231
 31
0.0
  0
LINE
  5
45A
330
1F
100
AcDbEntity
  8
0
  6
SLD-Solid
 62
     7
370
    15
100
AcDbLine
 10
1222.5450999303
 20
456.16160847
 30
0.0
 11
1312.5451035066
 21
456.16160847
 31
0.0
  0
LINE
  5
45B
330
1F
100
AcDbEntity
  8
0
  6
SLD-Solid
 62
     7
370
    15
100
AcDbLine
 10
1222.5450999303
 20
458.1616125231
 30
0.0
 11
1312.5451035066
 21
458.1616125231
 31
0.0
  0
LINE
  5
45C
330
1F
100
AcDbEntity
  8
0
  6
SLD-Solid
 62
     7
370
    15
100
AcDbLine
 10
1222.5450999303
 20
456.16160847
 30
0.0
 11
1222.5450999303
 21
458.1616125231
 31
0.0
  0
LINE
  5
45D
330
1F
100
AcDbEntity
  8
0
  6
SLD-Solid
 62
     7
370
    15
100
AcDbLine
 10
1298.5047525926
 20
362.1616265898
 30
0.0
 11
1236.5854508444
 21
362.1616265898
 31
0.0
  0
LINE
  5
45E
330
1F
100
AcDbEntity
  8
0
  6
SLD-Solid
 62
     7
370
    15
100
AcDbLine
 10
564.5451075597
 20
456.16160847
 30
0.0
 11
564.5451075597
 21
458.1616125231
 31
0.0
  0
LINE
  5
45F
330
1F
100
AcDbEntity
  8
0
  6
SLD-Solid
 62
     7
370
    15
100
AcDbLine
 10
474.5451039835
 20
456.16160847
 30
0.0
 11
474.5451039835
 21
458.1616125231
 31
0.0
  0
LINE
  5
460
330
1F
100
AcDbEntity
  8
0
  6
SLD-Solid
 62
     7
370
    15
100
AcDbLine
 10
474.5451039835
 20
456.16160847
 30
0.0
 11
564.5451075597
 21
456.16160847
 31
0.0
  0
LINE
  5
461
330
1F
100
AcDbEntity
  8
0
  6
SLD-Solid
 62
     7
370
    15
100
AcDbLine
 10
474.5451039835
 20
458.1616125231
 30
0.0
 11
564.5451075597
 21
458.1616125231
 31
0.0
  0
LINE
  5
462
330
1F
100
AcDbEntity
  8
0
  6
SLD-Solid
 62
     7
370
    15
100
AcDbLine
 10
550.5047566457
 20
362.1616265898
 30
0.0
 11
488.5854548975
 21
362.1616265898
 31
0.0
  0
LINE
  5
463
330
1F
100
AcDbEntity
  8
0
  6
SLD-Solid
 62
     7
370
    15
100
AcDbLine
 10
948.4951137765
 20
1409.0662500983
 30
0.0
 11
948.4951137765
 21
1408.4727070456
 31
0.0
  0
LINE
  5
464
330
1F
100
AcDbEntity
  8
0
  6
SLD-Solid
 62
     7
370
    15
100
AcDbLine
 10
838.4951106473
 20
1408.4727070456
 30
0.0
 11
838.4951106473
 21
1409.0662500983
 31
0.0
  0
LWPOLYLINE
  5
465
330
1F
100
AcDbEntity
  8
0
  6
SLD-Solid
 62
     7
370
    15
100
AcDbPolyline
 90
        9
 70
   128
 43
0.0
 10
843.4951133295
 20
1410.7763669615
 10
842.519660966
 20
1410.7435248022
 10
841.5816961988
 20
1410.6461904173
 10
840.7172612115
 20
1410.488178504
 10
839.9595781429
 20
1410.2755091315
 10
839.3377638622
 20
1410.016348136
 10
838.8757161065
 20
1409.7207090979
 10
838.5911858841
 20
1409.3999168997
 10
838.4951106473
 20
1409.0662500983
  0
LINE
  5
466
330
1F
100
AcDbEntity
  8
0
  6
SLD-Solid
 62
     7
370
    15
100
AcDbLine
 10
943.4951110943
 20
1410.7763669615
 30
0.0
 11
843.4951133295
 21
1410.7763669615
 31
0.0
  0
LWPOLYLINE
  5
467
330
1F
100
AcDbEntity
  8
0
  6
SLD-Solid
 62
     7
370
    15
100
AcDbPolyline
 90
        9
 70
   128
 43
0.0
 10
948.4951137765
 20
1409.0662500983
 10
948.3990385397
 20
1409.3999168997
 10
948.1145083173
 20
1409.7207090979
 10
947.6524605616
 20
1410.016348136
 10
947.0306462808
 20
1410.2755091315
 10
946.2729632123
 20
1410.488178504
 10
945.408528225
 20
1410.6461904173
 10
944.4705634578
 20
1410.7435248022
 10
943.4951110943
 20
1410.7763669615
  0
LWPOLYLINE
  5
468
330
1F
100
AcDbEntity
  8
0
  6
SLD-Solid
 62
     7
370
    15
100
AcDbPolyline
 90
        9
 70
   128
 43
0.0
 10
943.4951110943
 20
1412.6557610159
 10
944.4705634578
 20
1412.6229188567
 10
945.408528225
 20
1412.5255844717
 10
946.2729632123
 20
1412.3675725584
 10
947.0306462808
 20
1412.1549031859
 10
947.6524605616
 20
1411.8957421904
 10
948.1145083173
 20
1411.6001031523
 10
948.3990385397
 20
1411.2793109541
 10
948.4951137765
 20
1410.9456441527
  0
LINE
  5
469
330
1F
100
AcDbEntity
  8
0
  6
SLD-Solid
 62
     7
370
    15
100
AcDbLine
 10
948.4951137765
 20
1410.9456441527
 30
0.0
 11
948.4951137765
 21
1409.0662500983
 31
0.0
  0
LWPOLYLINE
  5
46A
330
1F
100
AcDbEntity
  8
0
  6
SLD-Solid
 62
     7
370
    15
100
AcDbPolyline
 90
        9
 70
   128
 43
0.0
 10
838.4951106473
 20
1410.9456441527
 10
838.5911858841
 20
1411.2793109541
 10
838.8757161065
 20
1411.6001031523
 10
839.3377638622
 20
1411.8957421904
 10
839.9595781429
 20
1412.1549031859
 10
840.7172612115
 20
1412.3675725584
 10
841.5816961988
 20
1412.5255844717
 10
842.519660966
 20
1412.6229188567
 10
843.4951133295
 20
1412.6557610159
  0
LINE
  5
46B
330
1F
100
AcDbEntity
  8
0
  6
SLD-Solid
 62
     7
370
    15
100
AcDbLine
 10
838.4951106473
 20
1409.0662500983
 30
0.0
 11
838.4951106473
 21
1410.9456441527
 31
0.0
  0
LINE
  5
46C
330
1F
100
AcDbEntity
  8
0
  6
SLD-Solid
 62
     7
370
    15
100
AcDbLine
 10
843.4951133295
 20
1412.6557610159
 30
0.0
 11
943.4951110943
 21
1412.6557610159
 31
0.0
  0
LINE
  5
46D
330
1F
100
AcDbEntity
  8
0
  6
SLD-Solid
 62
     7
370
    15
100
AcDbLine
 10
948.4951137765
 20
1408.2616469984
 30
0.0
 11
838.4951106473
 21
1408.2616469984
 31
0.0
  0
LINE
  5
46E
330
1F
100
AcDbEntity
  8
0
  6
SLD-Solid
 62
     7
370
    15
100
AcDbLine
 10
838.4951106473
 20
1408.4727070456
 30
0.0
 11
838.4951106473
 21
1408.2616469984
 31
0.0
  0
LINE
  5
46F
330
1F
100
AcDbEntity
  8
0
  6
SLD-Solid
 62
     7
370
    15
100
AcDbLine
 10
948.4951137765
 20
1408.2616469984
 30
0.0
 11
948.4951137765
 21
1408.4727070456
 31
0.0
  0
LINE
  5
470
330
1F
100
AcDbEntity
  8
0
  6
SLD-Solid
 62
     7
370
    15
100
AcDbLine
 10
838.4951106473
 20
1411.0866091376
 30
0.0
 11
838.4951106473
 21
1410.9456441527
 31
0.0
  0
LINE
  5
471
330
1F
100
AcDbEntity
  8
0
  6
SLD-Solid
 62
     7
370
    15
100
AcDbLine
 10
948.4951137765
 20
1410.9456441527
 30
0.0
 11
948.4951137765
 21
1411.0866091376
 31
0.0
  0
LINE
  5
472
330
1F
100
AcDbEntity
  8
0
  6
SLD-Solid
 62
     7
370
    15
100
AcDbLine
 10
838.4951106473
 20
1411.0866091376
 30
0.0
 11
838.4951106473
 21
1415.7616398459
 31
0.0
  0
LINE
  5
473
330
1F
100
AcDbEntity
  8
0
  6
SLD-Solid
 62
     7
370
    15
100
AcDbLine
 10
948.4951137765
 20
1415.7616398459
 30
0.0
 11
948.4951137765
 21
1411.0866091376
 31
0.0
  0
LINE
  5
474
330
1F
100
AcDbEntity
  8
0
  6
SLD-Solid
 62
     7
370
    15
100
AcDbLine
 10
838.4951106473
 20
1408.2616469984
 30
0.0
 11
838.4951106473
 21
1406.9616100912
 31
0.0
  0
LINE
  5
475
330
1F
100
AcDbEntity
  8
0
  6
SLD-Solid
 62
     7
370
    15
100
AcDbLine
 10
948.4951137765
 20
1406.9616100912
 30
0.0
 11
948.4951137765
 21
1408.2616469984
 31
0.0
  0
ARC
  5
476
330
1F
100
AcDbEntity
  8
0
  6
SLD-Solid
 62
     7
370
    15
100
AcDbCircle
 10
883.4951119298
 20
1402.2616180347
 30
0.0
 40
3.999999999999982
100
AcDbArc
 50
25.1506633994
 51
52.319763838
  0
ARC
  5
477
330
1F
100
AcDbEntity
  8
0
  6
SLD-Solid
 62
     7
370
    15
100
AcDbCircle
 10
903.4951119298
 20
1402.2616180347
 30
0.0
 40
4.000000000000071
100
AcDbArc
 50
127.680235578
 51
154.8493366295
  0
ARC
  5
478
330
1F
100
AcDbEntity
  8
0
  6
SLD-Solid
 62
     7
370
    15
100
AcDbCircle
 10
1349.2614331544
 20
1387.2189760131
 30
0.0
 40
17.67012349449938
100
AcDbArc
 50
116.0730830993
 51
123.7473162285
  0
LINE
  5
479
330
1F
100
AcDbEntity
  8
0
  6
SLD-Solid
 62
     7
370
    15
100
AcDbLine
 10
1341.4951092764
 20
880.8323270803
 30
0.0
 11
1341.4951092764
 21
1403.0908844595
 31
0.0
  0
ARC
  5
47A
330
1F
100
AcDbEntity
  8
0
  6
SLD-Solid
 62
     7
370
    15
100
AcDbCircle
 10
1351.8171119721
 20
901.146625106
 30
0.0
 40
22.78627753557208
100
AcDbArc
 50
237.1147886115
 51
243.0641862153
  0
ARC
  5
47B
330
1F
100
AcDbEntity
  8
0
  6
SLD-Solid
 62
     7
370
    15
100
AcDbCircle
 10
1342.6532145557
 20
882.4928962123
 30
0.0
 40
3.243987425374196
100
AcDbArc
 50
188.531868808
 51
231.2879904846
  0
LINE
  5
47C
330
1F
100
AcDbEntity
  8
0
  6
SLD-Solid
 62
     7
370
    15
100
AcDbLine
 10
898.3658226407
 20
879.9616149788
 30
0.0
 11
1326.6020841165
 21
879.9616149788
 31
0.0
  0
LINE
  5
47D
330
1F
100
AcDbEntity
  8
0
  6
SLD-Solid
 62
     7
370
    15
100
AcDbLine
 10
1328.3881372972
 20
879.9616149788
 30
0.0
 11
1340.6244046255
 21
879.9616149788
 31
0.0
  0
ARC
  5
47E
330
1F
100
AcDbEntity
  8
0
  6
SLD-Solid
 62
     7
370
    15
100
AcDbCircle
 10
896.3368671139
 20
882.4929974578
 30
0.0
 40
3.244157484518233
100
AcDbArc
 50
308.7128976869
 51
351.4667736386
  0
LWPOLYLINE
  5
47F
330
1F
100
AcDbEntity
  8
0
  6
SLD-Solid
 62
     7
370
    15
100
AcDbPolyline
 90
        6
 70
   128
 43
0.0
 10
897.4951119362
 20
880.8323270803
 10
897.5979867591
 20
880.8932132249
 10
897.8881105049
 20
881.0374341135
 10
898.3171372874
 20
881.2779090529
 10
898.990734966
 20
881.6799572831
 10
899.5451117134
 20
882.0116198783
  0
LINE
  5
480
330
1F
100
AcDbEntity
  8
0
  6
SLD-Solid
 62
     7
370
    15
100
AcDbLine
 10
897.4951119362
 20
1403.0908844595
 30
0.0
 11
897.4951119362
 21
880.8323270803
 31
0.0
  0
LWPOLYLINE
  5
481
330
1F
100
AcDbEntity
  8
0
  6
SLD-Solid
 62
     7
370
    15
100
AcDbPolyline
 90
        6
 70
   128
 43
0.0
 10
899.5451117134
 20
1401.9116065626
 10
898.6970014139
 20
1402.4227163916
 10
898.1509236819
 20
1402.7421972876
 10
897.7107783048
 20
1402.9577872877
 10
897.5559589653
 20
1403.0346772795
 10
897.4951119362
 20
1403.0908844595
  0
ARC
  5
482
330
1F
100
AcDbEntity
  8
0
  6
SLD-Solid
 62
     7
370
    15
100
AcDbCircle
 10
1341.4649011617
 20
882.7358434944
 30
0.0
 40
2.14569070621029
100
AcDbArc
 50
199.7261371016
 51
246.9388244478
  0
LINE
  5
483
330
1F
100
AcDbEntity
  8
0
  6
SLD-Solid
 62
     7
370
    15
100
AcDbLine
 10
1340.6244046255
 20
880.7616210704
 30
0.0
 11
1340.6244046255
 21
879.9616149788
 31
0.0
  0
LWPOLYLINE
  5
484
330
1F
100
AcDbEntity
  8
0
  6
SLD-Solid
 62
     7
370
    15
100
AcDbPolyline
 90
        2
 70
   128
 43
0.0
 10
899.5451117134
 20
882.0116198783
 10
899.5451117134
 20
882.0116198783
  0
LINE
  5
485
330
1F
100
AcDbEntity
  8
0
  6
SLD-Solid
 62
     7
370
    15
100
AcDbLine
 10
898.3658226407
 20
880.7616210704
 30
0.0
 11
898.3658226407
 21
879.9616149788
 31
0.0
  0
ARC
  5
486
330
1F
100
AcDbEntity
  8
0
  6
SLD-Solid
 62
     7
370
    15
100
AcDbCircle
 10
897.5252434768
 20
882.7359395062
 30
0.0
 40
2.145811412161259
100
AcDbArc
 50
293.0622012919
 51
340.2722950956
  0
ARC
  5
487
330
1F
100
AcDbEntity
  8
0
  6
SLD-Solid
 62
     7
370
    15
100
AcDbCircle
 10
911.6427647466
 20
867.9365075822
 30
0.0
 40
18.55968736427462
100
AcDbArc
 50
130.679278983
 51
135.9863626996
  0
LINE
  5
488
330
1F
100
AcDbEntity
  8
0
  6
SLD-Solid
 62
     7
370
    15
100
AcDbLine
 10
897.4951119362
 20
880.8323270803
 30
0.0
 11
898.2951119742
 21
880.8323270803
 31
0.0
  0
LINE
  5
489
330
1F
100
AcDbEntity
  8
0
  6
SLD-Solid
 62
     7
370
    15
100
AcDbLine
 10
1341.4951092764
 20
880.8323270803
 30
0.0
 11
1340.6951255365
 21
880.8323270803
 31
0.0
  0
ARC
  5
48A
330
1F
100
AcDbEntity
  8
0
  6
SLD-Solid
 62
     7
370
    15
100
AcDbCircle
 10
1349.2528598427
 20
891.1552697482
 30
0.0
 40
13.40887623108228
100
AcDbArc
 50
222.9930960654
 51
230.3412196355
  0
ARC
  5
48B
330
1F
100
AcDbEntity
  8
0
  6
SLD-Solid
 62
     7
370
    15
100
AcDbCircle
 10
895.5929120879
 20
1401.0022279671
 30
0.0
 40
4.055471774070908
100
AcDbArc
 50
12.9578957932
 51
46.8629729191
  0
LINE
  5
48C
330
1F
100
AcDbEntity
  8
0
  6
SLD-Solid
 62
     7
370
    15
100
AcDbLine
 10
1340.6244046255
 20
1403.9615891104
 30
0.0
 11
1328.3881372972
 21
1403.9615891104
 31
0.0
  0
LINE
  5
48D
330
1F
100
AcDbEntity
  8
0
  6
SLD-Solid
 62
     7
370
    15
100
AcDbLine
 10
1326.6020841165
 20
1403.9615891104
 30
0.0
 11
898.3658226407
 21
1403.9615891104
 31
0.0
  0
LWPOLYLINE
  5
48E
330
1F
100
AcDbEntity
  8
0
  6
SLD-Solid
 62
     7
370
    15
100
AcDbPolyline
 90
        6
 70
   128
 43
0.0
 10
1339.4451267286
 20
1401.9116065626
 10
1339.7148675485
 20
1402.6324651366
 10
1339.9847275777
 20
1403.2614133482
 10
1340.2545578046
 20
1403.7178657179
 10
1340.5244178339
 20
1403.9434692984
 10
1340.6244046255
 20
1403.9615891104
  0
ARC
  5
48F
330
1F
100
AcDbEntity
  8
0
  6
SLD-Solid
 62
     7
370
    15
100
AcDbCircle
 10
897.5214512277
 20
1401.183756361
 30
0.0
 40
2.15057380196103
100
AcDbArc
 50
19.7821421591
 51
66.8819977441
  0
LINE
  5
490
330
1F
100
AcDbEntity
  8
0
  6
SLD-Solid
 62
     7
370
    15
100
AcDbLine
 10
898.3658226407
 20
1403.1616351729
 30
0.0
 11
898.3658226407
 21
1403.9615891104
 31
0.0
  0
LINE
  5
491
330
1F
100
AcDbEntity
  8
0
  6
SLD-Solid
 62
     7
370
    15
100
AcDbLine
 10
897.4951119362
 20
1403.0908844595
 30
0.0
 11
898.2951119742
 21
1403.0908844595
 31
0.0
  0
ARC
  5
492
330
1F
100
AcDbEntity
  8
0
  6
SLD-Solid
 62
     7
370
    15
100
AcDbCircle
 10
889.4841445431
 20
1392.4993988755
 30
0.0
 40
13.77725349804719
100
AcDbArc
 50
43.091865486
 51
50.243215581
  0
ARC
  5
493
330
1F
100
AcDbEntity
  8
0
  6
SLD-Solid
 62
     7
370
    15
100
AcDbCircle
 10
1349.5161119919
 20
1392.4887869592
 30
0.0
 40
13.79181907697207
100
AcDbArc
 50
129.7605883198
 51
136.9043732296
  0
LINE
  5
494
330
1F
100
AcDbEntity
  8
0
  6
SLD-Solid
 62
     7
370
    15
100
AcDbLine
 10
1341.4951092764
 20
1403.0908844595
 30
0.0
 11
1340.6951255365
 21
1403.0908844595
 31
0.0
  0
LINE
  5
495
330
1F
100
AcDbEntity
  8
0
  6
SLD-Solid
 62
     7
370
    15
100
AcDbLine
 10
1340.6244046255
 20
1403.1616351729
 30
0.0
 11
1340.6244046255
 21
1403.9615891104
 31
0.0
  0
ARC
  5
496
330
1F
100
AcDbEntity
  8
0
  6
SLD-Solid
 62
     7
370
    15
100
AcDbCircle
 10
1341.4620727717
 20
1401.1900983202
 30
0.0
 40
2.142112388422091
100
AcDbArc
 50
113.019706758
 51
160.316695401
  0
LINE
  5
497
330
1F
100
AcDbEntity
  8
0
  6
SLD-Solid
 62
     7
370
    15
100
AcDbLine
 10
477.4974412485
 20
969.9616185551
 30
0.0
 11
513.4967691465
 21
969.9616185551
 31
0.0
  0
ARC
  5
498
330
1F
100
AcDbEntity
  8
0
  6
SLD-Solid
 62
     7
370
    15
100
AcDbCircle
 10
513.4928523853
 20
967.9593674449
 30
0.0
 40
2.002254941150541
100
AcDbArc
 50
0.1001191068
 51
89.8879193527
  0
LINE
  5
499
330
1F
100
AcDbEntity
  8
0
  6
SLD-Solid
 62
     7
370
    15
100
AcDbLine
 10
515.4951042696
 20
967.9628661995
 30
0.0
 11
515.4951042696
 21
911.9599736457
 31
0.0
  0
ARC
  5
49A
330
1F
100
AcDbEntity
  8
0
  6
SLD-Solid
 62
     7
370
    15
100
AcDbCircle
 10
513.4931905522
 20
911.9635298483
 30
0.0
 40
2.001916875937454
100
AcDbArc
 50
270.1024210641
 51
359.898219796
  0
LINE
  5
49B
330
1F
100
AcDbEntity
  8
0
  6
SLD-Solid
 62
     7
370
    15
100
AcDbLine
 10
513.4967691465
 20
909.9616161709
 30
0.0
 11
477.4974412485
 21
909.9616161709
 31
0.0
  0
ARC
  5
49C
330
1F
100
AcDbEntity
  8
0
  6
SLD-Solid
 62
     7
370
    15
100
AcDbCircle
 10
477.4969157897
 20
911.9634346083
 30
0.0
 40
2.001818506313031
100
AcDbArc
 50
180.2242372406
 51
270.0150396092
  0
LINE
  5
49D
330
1F
100
AcDbEntity
  8
0
  6
SLD-Solid
 62
     7
370
    15
100
AcDbLine
 10
475.4951126142
 20
911.9556001549
 30
0.0
 11
475.4951126142
 21
967.9672471409
 31
0.0
  0
ARC
  5
49E
330
1F
100
AcDbEntity
  8
0
  6
SLD-Solid
 62
     7
370
    15
100
AcDbCircle
 10
477.4971853008
 20
967.9595310157
 30
0.0
 40
2.002087555762463
100
AcDbArc
 50
89.9926752844
 51
179.779179236
  0
ARC
  5
49F
330
1F
100
AcDbEntity
  8
0
  6
SLD-Solid
 62
     7
370
    15
100
AcDbCircle
 10
477.4943978838
 20
911.9609061651
 30
0.0
 40
1.999292310535373
100
AcDbArc
 50
180.1520599794
 51
270.0872168704
  0
ARC
  5
4A0
330
1F
100
AcDbEntity
  8
0
  6
SLD-Solid
 62
     7
370
    15
100
AcDbCircle
 10
477.4946647394
 20
967.9620616338
 30
0.0
 40
1.999558849017464
100
AcDbArc
 50
89.9204412988
 51
179.8514132215
  0
ARC
  5
4A1
330
1F
100
AcDbEntity
  8
0
  6
SLD-Solid
 62
     7
370
    15
100
AcDbCircle
 10
513.4954307119
 20
967.9619452333
 30
0.0
 40
1.999673769737585
100
AcDbArc
 50
0.0263880445
 51
89.961650415
  0
ARC
  5
4A2
330
1F
100
AcDbEntity
  8
0
  6
SLD-Solid
 62
     7
370
    15
100
AcDbCircle
 10
513.4956929514
 20
911.9610274771
 30
0.0
 40
1.999411595855381
100
AcDbArc
 50
270.0308397924
 51
359.9698010678
  0
LINE
  5
4A3
330
1F
100
AcDbEntity
  8
0
  6
SLD-Solid
 62
     7
370
    15
100
AcDbLine
 10
902.9951119064
 20
1406.9616100912
 30
0.0
 11
903.9951120703
 21
1406.9616100912
 31
0.0
  0
ARC
  5
4A4
330
1F
100
AcDbEntity
  8
0
  6
SLD-Solid
 62
     7
370
    15
100
AcDbCircle
 10
902.9951119451
 20
1404.9616180321
 30
0.0
 40
2.0
100
AcDbArc
 50
90.0
 51
180.0
  0
LINE
  5
4A5
330
1F
100
AcDbEntity
  8
0
  6
SLD-Solid
 62
     7
370
    15
100
AcDbLine
 10
960.9951130315
 20
1406.9616100912
 30
0.0
 11
961.995115058
 21
1406.9616100912
 31
0.0
  0
ARC
  5
4A6
330
1F
100
AcDbEntity
  8
0
  6
SLD-Solid
 62
     7
370
    15
100
AcDbCircle
 10
961.9951119451
 20
1404.9616180321
 30
0.0
 40
2.0
100
AcDbArc
 50
0.0
 51
90.0
  0
LINE
  5
4A7
330
1F
100
AcDbEntity
  8
0
  6
SLD-Solid
 62
     7
370
    15
100
AcDbLine
 10
900.9951115786
 20
1404.9616358404
 30
0.0
 11
900.9951115786
 21
1403.9615891104
 31
0.0
  0
LINE
  5
4A8
330
1F
100
AcDbEntity
  8
0
  6
SLD-Solid
 62
     7
370
    15
100
AcDbLine
 10
903.9951120703
 20
1406.9616100912
 30
0.0
 11
960.9951130315
 21
1406.9616100912
 31
0.0
  0
LINE
  5
4A9
330
1F
100
AcDbEntity
  8
0
  6
SLD-Solid
 62
     7
370
    15
100
AcDbLine
 10
963.9951116605
 20
1404.9616358404
 30
0.0
 11
963.9951116605
 21
1403.9615891104
 31
0.0
  0
LINE
  5
4AA
330
1F
100
AcDbEntity
  8
0
  6
SLD-Solid
 62
     7
370
    15
100
AcDbLine
 10
882.9951123534
 20
1406.9616100912
 30
0.0
 11
883.995111586
 21
1406.9616100912
 31
0.0
  0
ARC
  5
4AB
330
1F
100
AcDbEntity
  8
0
  6
SLD-Solid
 62
     7
370
    15
100
AcDbCircle
 10
883.9951119404
 20
1404.9616180339
 30
0.0
 40
2.0
100
AcDbArc
 50
0.0
 51
90.0
  0
LINE
  5
4AC
330
1F
100
AcDbEntity
  8
0
  6
SLD-Solid
 62
     7
370
    15
100
AcDbLine
 10
822.9951090379
 20
1404.9616358404
 30
0.0
 11
822.9951090379
 21
1403.9615891104
 31
0.0
  0
LINE
  5
4AD
330
1F
100
AcDbEntity
  8
0
  6
SLD-Solid
 62
     7
370
    15
100
AcDbLine
 10
885.9951119139
 20
1404.9616358404
 30
0.0
 11
885.9951119139
 21
1403.9615891104
 31
0.0
  0
LINE
  5
4AE
330
1F
100
AcDbEntity
  8
0
  6
SLD-Solid
 62
     7
370
    15
100
AcDbLine
 10
824.9951130911
 20
1406.9616100912
 30
0.0
 11
825.9951151176
 21
1406.9616100912
 31
0.0
  0
ARC
  5
4AF
330
1F
100
AcDbEntity
  8
0
  6
SLD-Solid
 62
     7
370
    15
100
AcDbCircle
 10
824.9951119404
 20
1404.9616180339
 30
0.0
 40
2.0
100
AcDbArc
 50
90.0
 51
180.0
  0
LINE
  5
4B0
330
1F
100
AcDbEntity
  8
0
  6
SLD-Solid
 62
     7
370
    15
100
AcDbLine
 10
825.9951151176
 20
1406.9616100912
 30
0.0
 11
882.9951123534
 21
1406.9616100912
 31
0.0
  0
ARC
  5
4B1
330
1F
100
AcDbEntity
  8
0
  6
SLD-Solid
 62
     7
370
    15
100
AcDbCircle
 10
985.2111916721
 20
1386.8428774428
 30
0.0
 40
63.42015785778361
100
AcDbArc
 50
160.2614819116
 51
161.4569061137
  0
LINE
  5
4B2
330
1F
100
AcDbEntity
  8
0
  6
SLD-Solid
 62
     7
370
    15
100
AcDbLine
 10
927.9951132103
 20
1408.2616469984
 30
0.0
 11
927.9951132103
 21
1407.0116183882
 31
0.0
  0
ARC
  5
4B3
330
1F
100
AcDbEntity
  8
0
  6
SLD-Solid
 62
     7
370
    15
100
AcDbCircle
 10
883.3000227875
 20
1388.0621025072
 30
0.0
 40
59.69420988868419
100
AcDbArc
 50
18.5083655359
 51
19.7784277193
  0
LINE
  5
4B4
330
1F
100
AcDbEntity
  8
0
  6
SLD-Solid
 62
     7
370
    15
100
AcDbLine
 10
936.9951128228
 20
1406.8738124495
 30
0.0
 11
936.9951128228
 21
1408.2616469984
 31
0.0
  0
LINE
  5
4B5
330
1F
100
AcDbEntity
  8
0
  6
SLD-Solid
 62
     7
370
    15
100
AcDbLine
 10
858.9951112135
 20
1407.0116183882
 30
0.0
 11
858.9951112135
 21
1408.2616469984
 31
0.0
  0
ARC
  5
4B6
330
1F
100
AcDbEntity
  8
0
  6
SLD-Solid
 62
     7
370
    15
100
AcDbCircle
 10
805.3338622905
 20
1388.0737654577
 30
0.0
 40
59.65841857334424
100
AcDbArc
 50
18.5080604421
 51
19.7788852012
  0
LINE
  5
4B7
330
1F
100
AcDbEntity
  8
0
  6
SLD-Solid
 62
     7
370
    15
100
AcDbLine
 10
849.9951116009
 20
1408.2616469984
 30
0.0
 11
849.9951116009
 21
1407.0116183882
 31
0.0
  0
ARC
  5
4B8
330
1F
100
AcDbEntity
  8
0
  6
SLD-Solid
 62
     7
370
    15
100
AcDbCircle
 10
907.2490919715
 20
1386.8297224922
 30
0.0
 40
63.4602755889238
100
AcDbArc
 50
160.2618597814
 51
161.4565282439
  0
LINE
  5
4B9
330
1F
100
AcDbEntity
  8
0
  6
SLD-Solid
 62
     7
370
    15
100
AcDbLine
 10
936.8451102837
 20
1406.9616100912
 30
0.0
 11
936.8451102837
 21
1408.2616469984
 31
0.0
  0
LINE
  5
4BA
330
1F
100
AcDbEntity
  8
0
  6
SLD-Solid
 62
     7
370
    15
100
AcDbLine
 10
935.3451109691
 20
1406.9616100912
 30
0.0
 11
935.3451109691
 21
1408.2616469984
 31
0.0
  0
LINE
  5
4BB
330
1F
100
AcDbEntity
  8
0
  6
SLD-Solid
 62
     7
370
    15
100
AcDbLine
 10
931.6451116665
 20
1406.9616100912
 30
0.0
 11
931.6451116665
 21
1408.2616469984
 31
0.0
  0
LINE
  5
4BC
330
1F
100
AcDbEntity
  8
0
  6
SLD-Solid
 62
     7
370
    15
100
AcDbLine
 10
929.6451113387
 20
1406.9616100912
 30
0.0
 11
929.6451113387
 21
1408.2616469984
 31
0.0
  0
LINE
  5
4BD
330
1F
100
AcDbEntity
  8
0
  6
SLD-Solid
 62
     7
370
    15
100
AcDbLine
 10
933.3451106413
 20
1406.9616100912
 30
0.0
 11
933.3451106413
 21
1408.2616469984
 31
0.0
  0
LINE
  5
4BE
330
1F
100
AcDbEntity
  8
0
  6
SLD-Solid
 62
     7
370
    15
100
AcDbLine
 10
928.1451120241
 20
1406.9616100912
 30
0.0
 11
928.1451120241
 21
1408.2616469984
 31
0.0
  0
LINE
  5
4BF
330
1F
100
AcDbEntity
  8
0
  6
SLD-Solid
 62
     7
370
    15
100
AcDbLine
 10
858.8451123996
 20
1406.9616100912
 30
0.0
 11
858.8451123996
 21
1408.2616469984
 31
0.0
  0
LINE
  5
4C0
330
1F
100
AcDbEntity
  8
0
  6
SLD-Solid
 62
     7
370
    15
100
AcDbLine
 10
857.3451130851
 20
1406.9616100912
 30
0.0
 11
857.3451130851
 21
1408.2616469984
 31
0.0
  0
LINE
  5
4C1
330
1F
100
AcDbEntity
  8
0
  6
SLD-Solid
 62
     7
370
    15
100
AcDbLine
 10
855.3451127573
 20
1406.9616100912
 30
0.0
 11
855.3451127573
 21
1408.2616469984
 31
0.0
  0
LINE
  5
4C2
330
1F
100
AcDbEntity
  8
0
  6
SLD-Solid
 62
     7
370
    15
100
AcDbLine
 10
851.6451134546
 20
1406.9616100912
 30
0.0
 11
851.6451134546
 21
1408.2616469984
 31
0.0
  0
LINE
  5
4C3
330
1F
100
AcDbEntity
  8
0
  6
SLD-Solid
 62
     7
370
    15
100
AcDbLine
 10
853.6451137825
 20
1406.9616100912
 30
0.0
 11
853.6451137825
 21
1408.2616469984
 31
0.0
  0
LINE
  5
4C4
330
1F
100
AcDbEntity
  8
0
  6
SLD-Solid
 62
     7
370
    15
100
AcDbLine
 10
850.1451104148
 20
1406.9616100912
 30
0.0
 11
850.1451104148
 21
1408.2616469984
 31
0.0
  0
LINE
  5
4C5
330
1F
100
AcDbEntity
  8
0
  6
SLD-Solid
 62
     7
370
    15
100
AcDbLine
 10
1106.3471562429
 20
1368.6601421957
 30
0.0
 11
1106.4258492752
 21
1368.6169288283
 31
0.0
  0
LINE
  5
4C6
330
1F
100
AcDbEntity
  8
0
  6
SLD-Solid
 62
     7
370
    15
100
AcDbLine
 10
1106.4248806997
 20
1339.3058083182
 30
0.0
 11
1106.3471562429
 21
1339.2630717879
 31
0.0
  0
LINE
  5
4C7
330
1F
100
AcDbEntity
  8
0
  6
SLD-Solid
 62
     7
370
    15
100
AcDbLine
 10
936.7632470294
 20
1339.392592681
 30
0.0
 11
938.0654483302
 21
1339.21908356
 31
0.0
  0
LINE
  5
4C8
330
1F
100
AcDbEntity
  8
0
  6
SLD-Solid
 62
     7
370
    15
100
AcDbLine
 10
938.0654483302
 20
1368.7041900282
 30
0.0
 11
936.7633401616
 21
1368.5306213026
 31
0.0
  0
ELLIPSE
  5
4C9
330
1F
100
AcDbEntity
  8
0
  6
SLD-Solid
 62
     7
370
    15
100
AcDbEllipse
 10
966.5567177958
 20
1353.9616180321
 30
0.0
 11
-47.30357136413068
 21
0.0
 31
0.0
210
0.0
220
0.0
230
1.0
 40
0.9777274395
 41
6.088408441804485
 42
6.477962172554721
  0
ARC
  5
4CA
330
1F
100
AcDbEntity
  8
0
  6
SLD-Solid
 62
     7
370
    15
100
AcDbCircle
 10
926.9912391629
 20
1361.5729911328
 30
0.0
 40
6.973613752491583
100
AcDbArc
 50
88.5175423351
 51
168.9199549299
  0
ARC
  5
4CB
330
1F
100
AcDbEntity
  8
0
  6
SLD-Solid
 62
     7
370
    15
100
AcDbCircle
 10
926.8903004982
 20
1346.3129119952
 30
0.0
 40
6.8674077938209
100
AcDbArc
 50
190.9364013533
 51
272.402706075
  0
LINE
  5
4CC
330
1F
100
AcDbEntity
  8
0
  6
SLD-Solid
 62
     7
370
    15
100
AcDbLine
 10
1107.739997582
 20
1368.4883020048
 30
0.0
 11
1106.3471562429
 21
1368.6601421957
 31
0.0
  0
LINE
  5
4CD
330
1F
100
AcDbEntity
  8
0
  6
SLD-Solid
 62
     7
370
    15
100
AcDbLine
 10
1107.7400124832
 20
1339.4349715834
 30
0.0
 11
1106.3471562429
 21
1339.2630717879
 31
0.0
  0
ELLIPSE
  5
4CE
330
1F
100
AcDbEntity
  8
0
  6
SLD-Solid
 62
     7
370
    15
100
AcDbEllipse
 10
1074.8871789665
 20
1353.9616180321
 30
0.0
 11
47.33641712005374
 21
0.0
 31
0.0
210
0.0
220
0.0
230
1.0
 40
0.9770490148
 41
6.088891467215595
 42
6.477479147143562
  0
ARC
  5
4CF
330
1F
100
AcDbEntity
  8
0
  6
SLD-Solid
 62
     7
370
    15
100
AcDbCircle
 10
1114.4888568712
 20
1346.3695079324
 30
0.0
 40
6.973542951893703
100
AcDbArc
 50
268.4033890972
 51
348.9420217897
  0
ARC
  5
4D0
330
1F
100
AcDbEntity
  8
0
  6
SLD-Solid
 62
     7
370
    15
100
AcDbCircle
 10
1114.5795552922
 20
1361.5834436067
 30
0.0
 40
6.878846179861227
100
AcDbArc
 50
10.9602693087
 51
92.7570492576
  0
LINE
  5
4D1
330
1F
100
AcDbEntity
  8
0
  6
SLD-Solid
 62
     7
370
    15
100
AcDbLine
 10
680.6295342012
 20
1339.2630717879
 30
0.0
 11
680.5508411689
 21
1339.30634476
 31
0.0
  0
LINE
  5
4D2
330
1F
100
AcDbEntity
  8
0
  6
SLD-Solid
 62
     7
370
    15
100
AcDbLine
 10
680.5517948433
 20
1368.6174652701
 30
0.0
 11
680.6295342012
 21
1368.6601421957
 31
0.0
  0
LINE
  5
4D3
330
1F
100
AcDbEntity
  8
0
  6
SLD-Solid
 62
     7
370
    15
100
AcDbLine
 10
850.2134322389
 20
1368.5306213026
 30
0.0
 11
848.9112272127
 21
1368.7041900282
 31
0.0
  0
LINE
  5
4D4
330
1F
100
AcDbEntity
  8
0
  6
SLD-Solid
 62
     7
370
    15
100
AcDbLine
 10
848.9112272127
 20
1339.21908356
 30
0.0
 11
850.2133353813
 21
1339.392592681
 31
0.0
  0
ELLIPSE
  5
4D5
330
1F
100
AcDbEntity
  8
0
  6
SLD-Solid
 62
     7
370
    15
100
AcDbEllipse
 10
820.4199603432
 20
1353.9616180339
 30
0.0
 11
47.30357136413068
 21
1.364242052659393E-12
 31
0.0
210
0.0
220
0.0
230
1.0
 40
0.9777274395
 41
6.088408441804481
 42
6.477962172554722
  0
ARC
  5
4D6
330
1F
100
AcDbEntity
  8
0
  6
SLD-Solid
 62
     7
370
    15
100
AcDbCircle
 10
859.9849729943
 20
1346.3508055098
 30
0.0
 40
6.974184148571092
100
AcDbArc
 50
268.5215023972
 51
348.9159948678
  0
ARC
  5
4D7
330
1F
100
AcDbEntity
  8
0
  6
SLD-Solid
 62
     7
370
    15
100
AcDbCircle
 10
860.0864910785
 20
1361.6104442334
 30
0.0
 40
6.867270539436628
100
AcDbArc
 50
10.9354138848
 51
92.4037230837
  0
LINE
  5
4D8
330
1F
100
AcDbEntity
  8
0
  6
SLD-Solid
 62
     7
370
    15
100
AcDbLine
 10
679.2366779609
 20
1339.4349715834
 30
0.0
 11
680.6295342012
 21
1339.2630717879
 31
0.0
  0
LINE
  5
4D9
330
1F
100
AcDbEntity
  8
0
  6
SLD-Solid
 62
     7
370
    15
100
AcDbLine
 10
679.2366630598
 20
1368.4883020048
 30
0.0
 11
680.6295342012
 21
1368.6601421957
 31
0.0
  0
ELLIPSE
  5
4DA
330
1F
100
AcDbEntity
  8
0
  6
SLD-Solid
 62
     7
370
    15
100
AcDbEllipse
 10
712.0894991725
 20
1353.9616180339
 30
0.0
 11
-47.33641712005362
 21
-1.591615728102624E-12
 31
0.0
210
0.0
220
0.0
230
1.0
 40
0.9770490148
 41
6.088891467215597
 42
6.477479147143561
  0
ARC
  5
4DB
330
1F
100
AcDbEntity
  8
0
  6
SLD-Solid
 62
     7
370
    15
100
AcDbCircle
 10
672.4878888624
 20
1361.553677958
 30
0.0
 40
6.97362866044554
100
AcDbArc
 50
88.4039856405
 51
168.9414252464
  0
ARC
  5
4DC
330
1F
100
AcDbEntity
  8
0
  6
SLD-Solid
 62
     7
370
    15
100
AcDbCircle
 10
672.3969897853
 20
1346.3396638398
 30
0.0
 40
6.878686507393809
100
AcDbArc
 50
190.9591172939
 51
272.7582012725
  0
LINE
  5
4DD
330
1F
100
AcDbEntity
  8
0
  6
SLD-Solid
 62
     7
370
    15
100
AcDbLine
 10
1335.995120482
 20
1404.4616124754
 30
0.0
 11
1318.9951009317
 21
1404.4616124754
 31
0.0
  0
LINE
  5
4DE
330
1F
100
AcDbEntity
  8
0
  6
SLD-Solid
 62
     7
370
    15
100
AcDbLine
 10
1335.995120482
 20
1405.9616229658
 30
0.0
 11
1318.9951009317
 21
1405.9616229658
 31
0.0
  0
LINE
  5
4DF
330
1F
100
AcDbEntity
  8
0
  6
SLD-Solid
 62
     7
370
    15
100
AcDbLine
 10
1328.3881372972
 20
1403.9615891104
 30
0.0
 11
1326.6020841165
 21
1403.9615891104
 31
0.0
  0
LWPOLYLINE
  5
4E0
330
1F
100
AcDbEntity
  8
0
  6
SLD-Solid
 62
     7
370
    15
100
AcDbPolyline
 90
        3
 70
   128
 43
0.0
 10
1319.4975978895
 20
1403.9615891104
 10
1319.3066544099
 20
1404.1525027876
 10
1319.2975647016
 20
1404.1616222983
  0
LINE
  5
4E1
330
1F
100
AcDbEntity
  8
0
  6
SLD-Solid
 62
     7
370
    15
100
AcDbLine
 10
1319.2951209112
 20
1404.1616222983
 30
0.0
 11
1319.2975647016
 21
1404.1616222983
 31
0.0
  0
LINE
  5
4E2
330
1F
100
AcDbEntity
  8
0
  6
SLD-Solid
 62
     7
370
    15
100
AcDbLine
 10
1335.495097117
 20
1406.4616463309
 30
0.0
 11
1319.4951242967
 21
1406.4616463309
 31
0.0
  0
LINE
  5
4E3
330
1F
100
AcDbEntity
  8
0
  6
SLD-Solid
 62
     7
370
    15
100
AcDbLine
 10
1322.846097426
 20
879.4616214161
 30
0.0
 11
1335.995120482
 21
879.4616214161
 31
0.0
  0
LINE
  5
4E4
330
1F
100
AcDbEntity
  8
0
  6
SLD-Solid
 62
     7
370
    15
100
AcDbLine
 10
1318.9951009317
 20
879.4616214161
 30
0.0
 11
1322.846097426
 21
879.4616214161
 31
0.0
  0
LINE
  5
4E5
330
1F
100
AcDbEntity
  8
0
  6
SLD-Solid
 62
     7
370
    15
100
AcDbLine
 10
1326.6020841165
 20
879.9616149788
 30
0.0
 11
1328.3881372972
 21
879.9616149788
 31
0.0
  0
LINE
  5
4E6
330
1F
100
AcDbEntity
  8
0
  6
SLD-Solid
 62
     7
370
    15
100
AcDbLine
 10
1322.846097426
 20
877.9616183763
 30
0.0
 11
1335.995120482
 21
877.9616183763
 31
0.0
  0
LINE
  5
4E7
330
1F
100
AcDbEntity
  8
0
  6
SLD-Solid
 62
     7
370
    15
100
AcDbLine
 10
1318.9951009317
 20
877.9616183763
 30
0.0
 11
1322.846097426
 21
877.9616183763
 31
0.0
  0
LINE
  5
4E8
330
1F
100
AcDbEntity
  8
0
  6
SLD-Solid
 62
     7
370
    15
100
AcDbLine
 10
1322.3291165395
 20
877.461617363
 30
0.0
 11
1335.495097117
 21
877.461617363
 31
0.0
  0
LINE
  5
4E9
330
1F
100
AcDbEntity
  8
0
  6
SLD-Solid
 62
     7
370
    15
100
AcDbLine
 10
454.8460967107
 20
879.4616214161
 30
0.0
 11
467.9951197668
 21
879.4616214161
 31
0.0
  0
LINE
  5
4EA
330
1F
100
AcDbEntity
  8
0
  6
SLD-Solid
 62
     7
370
    15
100
AcDbLine
 10
450.9951002165
 20
879.4616214161
 30
0.0
 11
454.8460967107
 21
879.4616214161
 31
0.0
  0
LINE
  5
4EB
330
1F
100
AcDbEntity
  8
0
  6
SLD-Solid
 62
     7
370
    15
100
AcDbLine
 10
458.6020834013
 20
879.9616149788
 30
0.0
 11
460.388136582
 21
879.9616149788
 31
0.0
  0
LINE
  5
4EC
330
1F
100
AcDbEntity
  8
0
  6
SLD-Solid
 62
     7
370
    15
100
AcDbLine
 10
454.8460967107
 20
877.9616183763
 30
0.0
 11
467.9951197668
 21
877.9616183763
 31
0.0
  0
LINE
  5
4ED
330
1F
100
AcDbEntity
  8
0
  6
SLD-Solid
 62
     7
370
    15
100
AcDbLine
 10
450.9951002165
 20
877.9616183763
 30
0.0
 11
454.8460967107
 21
877.9616183763
 31
0.0
  0
LINE
  5
4EE
330
1F
100
AcDbEntity
  8
0
  6
SLD-Solid
 62
     7
370
    15
100
AcDbLine
 10
455.119562821
 20
877.461617363
 30
0.0
 11
464.6611041589
 21
877.461617363
 31
0.0
  0
LINE
  5
4EF
330
1F
100
AcDbEntity
  8
0
  6
SLD-Solid
 62
     7
370
    15
100
AcDbLine
 10
451.4951235815
 20
877.461617363
 30
0.0
 11
455.119562821
 21
877.461617363
 31
0.0
  0
LINE
  5
4F0
330
1F
100
AcDbEntity
  8
0
  6
SLD-Solid
 62
     7
370
    15
100
AcDbLine
 10
451.096100287
 20
1405.9616229658
 30
0.0
 11
450.9951002165
 21
1405.9616229658
 31
0.0
  0
LINE
  5
4F1
330
1F
100
AcDbEntity
  8
0
  6
SLD-Solid
 62
     7
370
    15
100
AcDbLine
 10
467.9951197668
 20
1405.9616229658
 30
0.0
 11
451.096100287
 21
1405.9616229658
 31
0.0
  0
LINE
  5
4F2
330
1F
100
AcDbEntity
  8
0
  6
SLD-Solid
 62
     7
370
    15
100
AcDbLine
 10
451.5901631876
 20
1406.4616463309
 30
0.0
 11
451.4951235815
 21
1406.4616463309
 31
0.0
  0
LINE
  5
4F3
330
1F
100
AcDbEntity
  8
0
  6
SLD-Solid
 62
     7
370
    15
100
AcDbLine
 10
467.4951262041
 20
1406.4616463309
 30
0.0
 11
451.5901631876
 21
1406.4616463309
 31
0.0
  0
LINE
  5
4F4
330
1F
100
AcDbEntity
  8
0
  6
SLD-Solid
 62
     7
370
    15
100
AcDbLine
 10
451.096100287
 20
1404.4616124754
 30
0.0
 11
450.9951002165
 21
1404.4616124754
 31
0.0
  0
LINE
  5
4F5
330
1F
100
AcDbEntity
  8
0
  6
SLD-Solid
 62
     7
370
    15
100
AcDbLine
 10
467.9951197668
 20
1404.4616124754
 30
0.0
 11
451.096100287
 21
1404.4616124754
 31
0.0
  0
LINE
  5
4F6
330
1F
100
AcDbEntity
  8
0
  6
SLD-Solid
 62
     7
370
    15
100
AcDbLine
 10
460.5266279741
 20
1403.9615891104
 30
0.0
 11
458.6020834013
 21
1403.9615891104
 31
0.0
  0
LWPOLYLINE
  5
4F7
330
1F
100
AcDbEntity
  8
0
  6
SLD-Solid
 62
     7
370
    15
100
AcDbPolyline
 90
        3
 70
   128
 43
0.0
 10
460.9218961759
 20
1403.9615891104
 10
460.9512216612
 20
1404.1525027876
 10
460.9526223703
 20
1404.1616222983
  0
LINE
  5
4F8
330
1F
100
AcDbEntity
  8
0
  6
SLD-Solid
 62
     7
370
    15
100
AcDbLine
 10
460.5573839708
 20
1404.1616222983
 30
0.0
 11
460.9526223703
 21
1404.1616222983
 31
0.0
  0
LWPOLYLINE
  5
4F9
330
1F
100
AcDbEntity
  8
0
  6
SLD-Solid
 62
     7
370
    15
100
AcDbPolyline
 90
        3
 70
   128
 43
0.0
 10
460.5573839708
 20
1404.1616222983
 10
460.5559832616
 20
1404.1525027876
 10
460.5266279741
 20
1403.9615891104
  0
LINE
  5
4FA
330
1F
100
AcDbEntity
  8
0
  6
SLD-Solid
 62
     7
370
    15
100
AcDbLine
 10
460.9218961759
 20
1404.1616222983
 30
0.0
 11
460.9218961759
 21
1403.9615891104
 31
0.0
  0
ARC
  5
4FB
330
1F
100
AcDbEntity
  8
0
  6
SLD-Solid
 62
     7
370
    15
100
AcDbCircle
 10
444.3026509672
 20
882.5127063757
 30
0.0
 40
3.280962902750671
100
AcDbArc
 50
308.9637919091
 51
351.2150971184
  0
LINE
  5
4FC
330
1F
100
AcDbEntity
  8
0
  6
SLD-Solid
 62
     7
370
    15
100
AcDbLine
 10
446.365816073
 20
880.7616210704
 30
0.0
 11
446.365816073
 21
879.9616149788
 31
0.0
  0
ARC
  5
4FD
330
1F
100
AcDbEntity
  8
0
  6
SLD-Solid
 62
     7
370
    15
100
AcDbCircle
 10
445.4638694241
 20
882.793866578
 30
0.0
 40
2.223404947516256
100
AcDbArc
 50
293.9324983274
 51
339.4010946326
  0
ARC
  5
4FE
330
1F
100
AcDbEntity
  8
0
  6
SLD-Solid
 62
     7
370
    15
100
AcDbCircle
 10
437.7236037358
 20
896.7133091709
 30
0.0
 40
17.68055213733747
100
AcDbArc
 50
296.0752486394
 51
303.7450564842
  0
ARC
  5
4FF
330
1F
100
AcDbEntity
  8
0
  6
SLD-Solid
 62
     7
370
    15
100
AcDbCircle
 10
437.4391494664
 20
891.4713923724
 30
0.0
 40
13.84261580445144
100
AcDbArc
 50
309.7740527859
 51
316.8916315131
  0
LINE
  5
500
330
1F
100
AcDbEntity
  8
0
  6
SLD-Solid
 62
     7
370
    15
100
AcDbLine
 10
445.4951114221
 20
880.8323270803
 30
0.0
 11
446.2951249643
 21
880.8323270803
 31
0.0
  0
ARC
  5
501
330
1F
100
AcDbEntity
  8
0
  6
SLD-Solid
 62
     7
370
    15
100
AcDbCircle
 10
890.6344748956
 20
882.4821361225
 30
0.0
 40
3.223883159459392
100
AcDbArc
 50
188.3921247324
 51
231.4282234996
  0
LINE
  5
502
330
1F
100
AcDbEntity
  8
0
  6
SLD-Solid
 62
     7
370
    15
100
AcDbLine
 10
446.365816073
 20
879.9616149788
 30
0.0
 11
458.6020834013
 21
879.9616149788
 31
0.0
  0
LINE
  5
503
330
1F
100
AcDbEntity
  8
0
  6
SLD-Solid
 62
     7
370
    15
100
AcDbLine
 10
460.388136582
 20
879.9616149788
 30
0.0
 11
888.6244013174
 21
879.9616149788
 31
0.0
  0
LINE
  5
504
330
1F
100
AcDbEntity
  8
0
  6
SLD-Solid
 62
     7
370
    15
100
AcDbLine
 10
445.4951114221
 20
1403.0908844595
 30
0.0
 11
445.4951114221
 21
880.8323270803
 31
0.0
  0
LWPOLYLINE
  5
505
330
1F
100
AcDbEntity
  8
0
  6
SLD-Solid
 62
     7
370
    15
100
AcDbPolyline
 90
        6
 70
   128
 43
0.0
 10
447.5451237722
 20
1401.9116065626
 10
446.6624981924
 20
1402.4398229246
 10
446.1604780718
 20
1402.736415637
 10
445.7329935594
 20
1402.935256732
 10
445.5646700426
 20
1403.0184648161
 10
445.4951114221
 20
1403.0908844595
  0
LWPOLYLINE
  5
506
330
1F
100
AcDbEntity
  8
0
  6
SLD-Solid
 62
     7
370
    15
100
AcDbPolyline
 90
        6
 70
   128
 43
0.0
 10
887.445111779
 20
882.0116198783
 10
888.2931852913
 20
881.5005175
 10
888.8393002762
 20
881.1810589557
 10
889.2794456533
 20
880.9654540544
 10
889.4342649928
 20
880.8885864144
 10
889.4951120219
 20
880.8323270803
  0
LINE
  5
507
330
1F
100
AcDbEntity
  8
0
  6
SLD-Solid
 62
     7
370
    15
100
AcDbLine
 10
889.4951120219
 20
880.8323270803
 30
0.0
 11
888.6951119839
 21
880.8323270803
 31
0.0
  0
ARC
  5
508
330
1F
100
AcDbEntity
  8
0
  6
SLD-Solid
 62
     7
370
    15
100
AcDbCircle
 10
897.5077598546
 20
891.4254789019
 30
0.0
 40
13.77960913845662
100
AcDbArc
 50
223.0921048195
 51
230.2422748061
  0
ARC
  5
509
330
1F
100
AcDbEntity
  8
0
  6
SLD-Solid
 62
     7
370
    15
100
AcDbCircle
 10
898.5882348506
 20
1384.9123849379
 30
0.0
 40
20.32591271346442
100
AcDbArc
 50
116.5748161867
 51
123.2451556125
  0
LINE
  5
50A
330
1F
100
AcDbEntity
  8
0
  6
SLD-Solid
 62
     7
370
    15
100
AcDbLine
 10
889.4951120219
 20
1403.0908844595
 30
0.0
 11
889.4951120219
 21
880.8323270803
 31
0.0
  0
ARC
  5
50B
330
1F
100
AcDbEntity
  8
0
  6
SLD-Solid
 62
     7
370
    15
100
AcDbCircle
 10
889.437096918
 20
882.709633998
 30
0.0
 40
2.110741221775367
100
AcDbArc
 50
199.3110379661
 51
247.3544882322
  0
LINE
  5
50C
330
1F
100
AcDbEntity
  8
0
  6
SLD-Solid
 62
     7
370
    15
100
AcDbLine
 10
888.6244013174
 20
880.7616210704
 30
0.0
 11
888.6244013174
 21
879.9616149788
 31
0.0
  0
ARC
  5
50D
330
1F
100
AcDbEntity
  8
0
  6
SLD-Solid
 62
     7
370
    15
100
AcDbCircle
 10
443.5927848302
 20
1401.0021226266
 30
0.0
 40
4.055631164455649
100
AcDbArc
 50
12.9589047543
 51
46.8627462603
  0
LINE
  5
50E
330
1F
100
AcDbEntity
  8
0
  6
SLD-Solid
 62
     7
370
    15
100
AcDbLine
 10
888.6244013174
 20
1403.9615891104
 30
0.0
 11
460.388136582
 21
1403.9615891104
 31
0.0
  0
LINE
  5
50F
330
1F
100
AcDbEntity
  8
0
  6
SLD-Solid
 62
     7
370
    15
100
AcDbLine
 10
458.6020834013
 20
1403.9615891104
 30
0.0
 11
446.365816073
 21
1403.9615891104
 31
0.0
  0
LWPOLYLINE
  5
510
330
1F
100
AcDbEntity
  8
0
  6
SLD-Solid
 62
     7
370
    15
100
AcDbPolyline
 90
        6
 70
   128
 43
0.0
 10
887.445111779
 20
1401.9116065626
 10
887.714873088
 20
1402.6324651366
 10
887.9847214757
 20
1403.2614133482
 10
888.2545703291
 20
1403.7178657179
 10
888.5244196481
 20
1403.9434692984
 10
888.6244013174
 20
1403.9615891104
  0
ARC
  5
511
330
1F
100
AcDbEntity
  8
0
  6
SLD-Solid
 62
     7
370
    15
100
AcDbCircle
 10
445.5214138277
 20
1401.1836971187
 30
0.0
 40
2.150640392597047
100
AcDbArc
 50
19.7831813589
 51
66.8818619707
  0
LINE
  5
512
330
1F
100
AcDbEntity
  8
0
  6
SLD-Solid
 62
     7
370
    15
100
AcDbLine
 10
446.365816073
 20
1403.1616351729
 30
0.0
 11
446.365816073
 21
1403.9615891104
 31
0.0
  0
LINE
  5
513
330
1F
100
AcDbEntity
  8
0
  6
SLD-Solid
 62
     7
370
    15
100
AcDbLine
 10
445.4951114221
 20
1403.0908844595
 30
0.0
 11
446.2951249643
 21
1403.0908844595
 31
0.0
  0
ARC
  5
514
330
1F
100
AcDbEntity
  8
0
  6
SLD-Solid
 62
     7
370
    15
100
AcDbCircle
 10
444.6468835612
 20
1400.091679194
 30
0.0
 40
3.42226999923804
100
AcDbArc
 50
32.1264463648
 51
61.2085920858
  0
LWPOLYLINE
  5
515
330
1F
100
AcDbEntity
  8
0
  6
SLD-Solid
 62
     7
370
    15
100
AcDbPolyline
 90
        2
 70
   128
 43
0.0
 10
887.445111779
 20
1401.9116065626
 10
887.445111779
 20
1401.9116065626
  0
LINE
  5
516
330
1F
100
AcDbEntity
  8
0
  6
SLD-Solid
 62
     7
370
    15
100
AcDbLine
 10
888.6244013174
 20
1403.1616351729
 30
0.0
 11
888.6244013174
 21
1403.9615891104
 31
0.0
  0
ARC
  5
517
330
1F
100
AcDbEntity
  8
0
  6
SLD-Solid
 62
     7
370
    15
100
AcDbCircle
 10
889.4621290601
 20
1401.1900233124
 30
0.0
 40
2.142204728574956
100
AcDbArc
 50
113.0203892986
 51
160.3154482124
  0
ARC
  5
518
330
1F
100
AcDbEntity
  8
0
  6
SLD-Solid
 62
     7
370
    15
100
AcDbCircle
 10
896.7284209778
 20
1393.3236901841
 30
0.0
 40
12.64642785157852
100
AcDbArc
 50
129.4365678936
 51
137.2283297312
  0
LINE
  5
519
330
1F
100
AcDbEntity
  8
0
  6
SLD-Solid
 62
     7
370
    15
100
AcDbLine
 10
889.4951120219
 20
1403.0908844595
 30
0.0
 11
888.6951119839
 21
1403.0908844595
 31
0.0
  0
LINE
  5
51A
330
1F
100
AcDbEntity
  8
0
  6
SLD-Solid
 62
     7
370
    15
100
AcDbLine
 10
889.4951120219
 20
955.4616115218
 30
0.0
 11
890.745111994
 21
955.4616115218
 31
0.0
  0
LINE
  5
51B
330
1F
100
AcDbEntity
  8
0
  6
SLD-Solid
 62
     7
370
    15
100
AcDbLine
 10
890.745111994
 20
1401.9116065626
 30
0.0
 11
889.4951120219
 21
1401.9116065626
 31
0.0
  0
LINE
  5
51C
330
1F
100
AcDbEntity
  8
0
  6
SLD-Solid
 62
     7
370
    15
100
AcDbLine
 10
897.4951119362
 20
955.4616115218
 30
0.0
 11
890.745111994
 21
955.4616115218
 31
0.0
  0
LINE
  5
51D
330
1F
100
AcDbEntity
  8
0
  6
SLD-Solid
 62
     7
370
    15
100
AcDbLine
 10
890.745111994
 20
1401.9116065626
 30
0.0
 11
897.4951119362
 21
1401.9116065626
 31
0.0
  0
LINE
  5
51E
330
1F
100
AcDbEntity
  8
0
  6
SLD-Solid
 62
     7
370
    15
100
AcDbLine
 10
451.4951235815
 20
877.461617363
 30
0.0
 11
451.4951235815
 21
874.9616197472
 31
0.0
  0
LINE
  5
51F
330
1F
100
AcDbEntity
  8
0
  6
SLD-Solid
 62
     7
370
    15
100
AcDbLine
 10
451.4951235815
 20
877.461617363
 30
0.0
 11
464.6611041589
 21
877.461617363
 31
0.0
  0
LINE
  5
520
330
1F
100
AcDbEntity
  8
0
  6
SLD-Solid
 62
     7
370
    15
100
AcDbLine
 10
451.4951235815
 20
874.9616197472
 30
0.0
 11
464.6611041589
 21
874.9616197472
 31
0.0
  0
LINE
  5
521
330
1F
100
AcDbEntity
  8
0
  6
SLD-Solid
 62
     7
370
    15
100
AcDbLine
 10
511.4951259657
 20
877.461617363
 30
0.0
 11
511.4951259657
 21
874.9616197472
 31
0.0
  0
LINE
  5
522
330
1F
100
AcDbEntity
  8
0
  6
SLD-Solid
 62
     7
370
    15
100
AcDbLine
 10
464.6611041589
 20
877.461617363
 30
0.0
 11
511.4951259657
 21
877.461617363
 31
0.0
  0
LINE
  5
523
330
1F
100
AcDbEntity
  8
0
  6
SLD-Solid
 62
     7
370
    15
100
AcDbLine
 10
464.6611041589
 20
874.9616197472
 30
0.0
 11
511.4951259657
 21
874.9616197472
 31
0.0
  0
LINE
  5
524
330
1F
100
AcDbEntity
  8
0
  6
SLD-Solid
 62
     7
370
    15
100
AcDbLine
 10
511.4951259657
 20
877.461617363
 30
0.0
 11
511.4951259657
 21
879.9616149788
 31
0.0
  0
LINE
  5
525
330
1F
100
AcDbEntity
  8
0
  6
SLD-Solid
 62
     7
370
    15
100
AcDbLine
 10
1335.495097117
 20
877.461617363
 30
0.0
 11
1335.495097117
 21
874.9616197472
 31
0.0
  0
LINE
  5
526
330
1F
100
AcDbEntity
  8
0
  6
SLD-Solid
 62
     7
370
    15
100
AcDbLine
 10
1322.3291165395
 20
874.9616197472
 30
0.0
 11
1335.495097117
 21
874.9616197472
 31
0.0
  0
LINE
  5
527
330
1F
100
AcDbEntity
  8
0
  6
SLD-Solid
 62
     7
370
    15
100
AcDbLine
 10
1277.2663659616
 20
874.9616197472
 30
0.0
 11
1322.3291165395
 21
874.9616197472
 31
0.0
  0
LINE
  5
528
330
1F
100
AcDbEntity
  8
0
  6
SLD-Solid
 62
     7
370
    15
100
AcDbLine
 10
1277.2663659616
 20
877.461617363
 30
0.0
 11
1322.3291165395
 21
877.461617363
 31
0.0
  0
LINE
  5
529
330
1F
100
AcDbEntity
  8
0
  6
SLD-Solid
 62
     7
370
    15
100
AcDbLine
 10
1275.4951245351
 20
877.461617363
 30
0.0
 11
1275.4951245351
 21
874.9616197472
 31
0.0
  0
LINE
  5
52A
330
1F
100
AcDbEntity
  8
0
  6
SLD-Solid
 62
     7
370
    15
100
AcDbLine
 10
1275.4951245351
 20
874.9616197472
 30
0.0
 11
1277.2663659616
 21
874.9616197472
 31
0.0
  0
LINE
  5
52B
330
1F
100
AcDbEntity
  8
0
  6
SLD-Solid
 62
     7
370
    15
100
AcDbLine
 10
1275.4951245351
 20
877.461617363
 30
0.0
 11
1277.2663659616
 21
877.461617363
 31
0.0
  0
LINE
  5
52C
330
1F
100
AcDbEntity
  8
0
  6
SLD-Solid
 62
     7
370
    15
100
AcDbLine
 10
1275.4951245351
 20
879.9616149788
 30
0.0
 11
1275.4951245351
 21
877.461617363
 31
0.0
  0
LINE
  5
52D
330
1F
100
AcDbEntity
  8
0
  6
SLD-Solid
 62
     7
370
    15
100
AcDbLine
 10
451.4951235815
 20
1409.7615978842
 30
0.0
 11
451.4951235815
 21
1407.2616002684
 31
0.0
  0
LINE
  5
52E
330
1F
100
AcDbEntity
  8
0
  6
SLD-Solid
 62
     7
370
    15
100
AcDbLine
 10
451.4951235815
 20
1407.2616002684
 30
0.0
 11
464.6611041589
 21
1407.2616002684
 31
0.0
  0
LINE
  5
52F
330
1F
100
AcDbEntity
  8
0
  6
SLD-Solid
 62
     7
370
    15
100
AcDbLine
 10
451.4951235815
 20
1409.7615978842
 30
0.0
 11
464.6611041589
 21
1409.7615978842
 31
0.0
  0
LINE
  5
530
330
1F
100
AcDbEntity
  8
0
  6
SLD-Solid
 62
     7
370
    15
100
AcDbLine
 10
464.6611041589
 20
1407.2616002684
 30
0.0
 11
509.7238547369
 21
1407.2616002684
 31
0.0
  0
LINE
  5
531
330
1F
100
AcDbEntity
  8
0
  6
SLD-Solid
 62
     7
370
    15
100
AcDbLine
 10
464.6611041589
 20
1409.7615978842
 30
0.0
 11
509.7238547369
 21
1409.7615978842
 31
0.0
  0
LINE
  5
532
330
1F
100
AcDbEntity
  8
0
  6
SLD-Solid
 62
     7
370
    15
100
AcDbLine
 10
511.4951259657
 20
1409.7615978842
 30
0.0
 11
511.4951259657
 21
1407.2616002684
 31
0.0
  0
LINE
  5
533
330
1F
100
AcDbEntity
  8
0
  6
SLD-Solid
 62
     7
370
    15
100
AcDbLine
 10
509.7238547369
 20
1407.2616002684
 30
0.0
 11
511.4951259657
 21
1407.2616002684
 31
0.0
  0
LINE
  5
534
330
1F
100
AcDbEntity
  8
0
  6
SLD-Solid
 62
     7
370
    15
100
AcDbLine
 10
509.7238547369
 20
1409.7615978842
 30
0.0
 11
511.4951259657
 21
1409.7615978842
 31
0.0
  0
LINE
  5
535
330
1F
100
AcDbEntity
  8
0
  6
SLD-Solid
 62
     7
370
    15
100
AcDbLine
 10
451.4951235815
 20
1412.761618865
 30
0.0
 11
451.4951235815
 21
1409.7615978842
 31
0.0
  0
LINE
  5
536
330
1F
100
AcDbEntity
  8
0
  6
SLD-Solid
 62
     7
370
    15
100
AcDbLine
 10
511.4951259657
 20
1409.7615978842
 30
0.0
 11
511.4951259657
 21
1412.761618865
 31
0.0
  0
LINE
  5
537
330
1F
100
AcDbEntity
  8
0
  6
SLD-Solid
 62
     7
370
    15
100
AcDbLine
 10
451.4951235815
 20
1412.761618865
 30
0.0
 11
451.4951235815
 21
1418.1477329855
 31
0.0
  0
LINE
  5
538
330
1F
100
AcDbEntity
  8
0
  6
SLD-Solid
 62
     7
370
    15
100
AcDbLine
 10
458.6951262518
 20
1417.8116223936
 30
0.0
 11
458.6951262518
 21
1418.1477329855
 31
0.0
  0
ARC
  5
539
330
1F
100
AcDbEntity
  8
0
  6
SLD-Solid
 62
     7
370
    15
100
AcDbCircle
 10
461.4951119402
 20
1417.8116180333
 30
0.0
 40
2.800000000000068
100
AcDbArc
 50
180.0
 51
0.0
  0
LINE
  5
53A
330
1F
100
AcDbEntity
  8
0
  6
SLD-Solid
 62
     7
370
    15
100
AcDbLine
 10
464.2951018377
 20
1418.1477329855
 30
0.0
 11
464.2951018377
 21
1417.8116223936
 31
0.0
  0
LINE
  5
53B
330
1F
100
AcDbEntity
  8
0
  6
SLD-Solid
 62
     7
370
    15
100
AcDbLine
 10
498.6951179071
 20
1417.8116223936
 30
0.0
 11
498.6951179071
 21
1418.1477329855
 31
0.0
  0
ARC
  5
53C
330
1F
100
AcDbEntity
  8
0
  6
SLD-Solid
 62
     7
370
    15
100
AcDbCircle
 10
501.4951119402
 20
1417.8116180333
 30
0.0
 40
2.800000000000011
100
AcDbArc
 50
180.0
 51
0.0
  0
LINE
  5
53D
330
1F
100
AcDbEntity
  8
0
  6
SLD-Solid
 62
     7
370
    15
100
AcDbLine
 10
504.2951232954
 20
1418.1477329855
 30
0.0
 11
504.2951232954
 21
1417.8116223936
 31
0.0
  0
LINE
  5
53E
330
1F
100
AcDbEntity
  8
0
  6
SLD-Solid
 62
     7
370
    15
100
AcDbLine
 10
478.6951071783
 20
1417.8116223936
 30
0.0
 11
478.6951071783
 21
1418.1477329855
 31
0.0
  0
ARC
  5
53F
330
1F
100
AcDbEntity
  8
0
  6
SLD-Solid
 62
     7
370
    15
100
AcDbCircle
 10
481.4951119402
 20
1417.8116180333
 30
0.0
 40
2.800000000000011
100
AcDbArc
 50
180.0
 51
0.0
  0
LINE
  5
540
330
1F
100
AcDbEntity
  8
0
  6
SLD-Solid
 62
     7
370
    15
100
AcDbLine
 10
484.2951125665
 20
1418.1477329855
 30
0.0
 11
484.2951125665
 21
1417.8116223936
 31
0.0
  0
LINE
  5
541
330
1F
100
AcDbEntity
  8
0
  6
SLD-Solid
 62
     7
370
    15
100
AcDbLine
 10
511.4951259657
 20
1418.1477329855
 30
0.0
 11
511.4951259657
 21
1412.761618865
 31
0.0
  0
LINE
  5
542
330
1F
100
AcDbEntity
  8
0
  6
SLD-Solid
 62
     7
370
    15
100
AcDbLine
 10
455.5951184793
 20
874.4616187339
 30
0.0
 11
463.3951015039
 21
874.4616187339
 31
0.0
  0
LINE
  5
543
330
1F
100
AcDbEntity
  8
0
  6
SLD-Solid
 62
     7
370
    15
100
AcDbLine
 10
1323.5951191946
 20
874.4616187339
 30
0.0
 11
1331.3951022192
 21
874.4616187339
 31
0.0
  0
LINE
  5
544
330
1F
100
AcDbEntity
  8
0
  6
SLD-Solid
 62
     7
370
    15
100
AcDbLine
 10
463.3951015039
 20
1410.2616212492
 30
0.0
 11
455.5951184793
 21
1410.2616212492
 31
0.0
  0
LINE
  5
545
330
1F
100
AcDbEntity
  8
0
  6
SLD-Solid
 62
     7
370
    15
100
AcDbLine
 10
1331.3951022192
 20
1410.2616212492
 30
0.0
 11
1323.5951191946
 21
1410.2616212492
 31
0.0
  0
LINE
  5
546
330
1F
100
AcDbEntity
  8
0
  6
SLD-Solid
 62
     7
370
    15
100
AcDbLine
 10
1322.3291165395
 20
1409.7615978842
 30
0.0
 11
1335.495097117
 21
1409.7615978842
 31
0.0
  0
LINE
  5
547
330
1F
100
AcDbEntity
  8
0
  6
SLD-Solid
 62
     7
370
    15
100
AcDbLine
 10
1335.495097117
 20
1409.7615978842
 30
0.0
 11
1335.495097117
 21
1407.2616002684
 31
0.0
  0
LINE
  5
548
330
1F
100
AcDbEntity
  8
0
  6
SLD-Solid
 62
     7
370
    15
100
AcDbLine
 10
1322.3291165395
 20
1407.2616002684
 30
0.0
 11
1335.495097117
 21
1407.2616002684
 31
0.0
  0
LINE
  5
549
330
1F
100
AcDbEntity
  8
0
  6
SLD-Solid
 62
     7
370
    15
100
AcDbLine
 10
1277.2663659616
 20
1409.7615978842
 30
0.0
 11
1322.3291165395
 21
1409.7615978842
 31
0.0
  0
LINE
  5
54A
330
1F
100
AcDbEntity
  8
0
  6
SLD-Solid
 62
     7
370
    15
100
AcDbLine
 10
1277.2663659616
 20
1407.2616002684
 30
0.0
 11
1322.3291165395
 21
1407.2616002684
 31
0.0
  0
LINE
  5
54B
330
1F
100
AcDbEntity
  8
0
  6
SLD-Solid
 62
     7
370
    15
100
AcDbLine
 10
1275.4951245351
 20
1409.7615978842
 30
0.0
 11
1275.4951245351
 21
1407.2616002684
 31
0.0
  0
LINE
  5
54C
330
1F
100
AcDbEntity
  8
0
  6
SLD-Solid
 62
     7
370
    15
100
AcDbLine
 10
1275.4951245351
 20
1409.7615978842
 30
0.0
 11
1277.2663659616
 21
1409.7615978842
 31
0.0
  0
LINE
  5
54D
330
1F
100
AcDbEntity
  8
0
  6
SLD-Solid
 62
     7
370
    15
100
AcDbLine
 10
1275.4951245351
 20
1407.2616002684
 30
0.0
 11
1277.2663659616
 21
1407.2616002684
 31
0.0
  0
LINE
  5
54E
330
1F
100
AcDbEntity
  8
0
  6
SLD-Solid
 62
     7
370
    15
100
AcDbLine
 10
1275.4951245351
 20
1412.761618865
 30
0.0
 11
1275.4951245351
 21
1409.7615978842
 31
0.0
  0
LINE
  5
54F
330
1F
100
AcDbEntity
  8
0
  6
SLD-Solid
 62
     7
370
    15
100
AcDbLine
 10
1335.495097117
 20
1409.7615978842
 30
0.0
 11
1335.495097117
 21
1412.761618865
 31
0.0
  0
LINE
  5
550
330
1F
100
AcDbEntity
  8
0
  6
SLD-Solid
 62
     7
370
    15
100
AcDbLine
 10
1275.4951245351
 20
1412.761618865
 30
0.0
 11
1275.4951245351
 21
1418.1477329855
 31
0.0
  0
LINE
  5
551
330
1F
100
AcDbEntity
  8
0
  6
SLD-Solid
 62
     7
370
    15
100
AcDbLine
 10
1282.6950974031
 20
1417.8116223936
 30
0.0
 11
1282.6950974031
 21
1418.1477329855
 31
0.0
  0
ARC
  5
552
330
1F
100
AcDbEntity
  8
0
  6
SLD-Solid
 62
     7
370
    15
100
AcDbCircle
 10
1285.4951119446
 20
1417.811618034
 30
0.0
 40
2.800000000000182
100
AcDbArc
 50
180.0
 51
0.0
  0
LINE
  5
553
330
1F
100
AcDbEntity
  8
0
  6
SLD-Solid
 62
     7
370
    15
100
AcDbLine
 10
1288.2951027914
 20
1418.1477329855
 30
0.0
 11
1288.2951027914
 21
1417.8116223936
 31
0.0
  0
LINE
  5
554
330
1F
100
AcDbEntity
  8
0
  6
SLD-Solid
 62
     7
370
    15
100
AcDbLine
 10
1322.6951188608
 20
1417.8116223936
 30
0.0
 11
1322.6951188608
 21
1418.1477329855
 31
0.0
  0
ARC
  5
555
330
1F
100
AcDbEntity
  8
0
  6
SLD-Solid
 62
     7
370
    15
100
AcDbCircle
 10
1325.4951119446
 20
1417.811618034
 30
0.0
 40
2.800000000000182
100
AcDbArc
 50
180.0
 51
0.0
  0
LINE
  5
556
330
1F
100
AcDbEntity
  8
0
  6
SLD-Solid
 62
     7
370
    15
100
AcDbLine
 10
1302.6951081319
 20
1417.8116223936
 30
0.0
 11
1302.6951081319
 21
1418.1477329855
 31
0.0
  0
ARC
  5
557
330
1F
100
AcDbEntity
  8
0
  6
SLD-Solid
 62
     7
370
    15
100
AcDbCircle
 10
1305.4951119446
 20
1417.811618034
 30
0.0
 40
2.800000000000182
100
AcDbArc
 50
180.0
 51
0.0
  0
LINE
  5
558
330
1F
100
AcDbEntity
  8
0
  6
SLD-Solid
 62
     7
370
    15
100
AcDbLine
 10
1308.2951135202
 20
1418.1477329855
 30
0.0
 11
1308.2951135202
 21
1417.8116223936
 31
0.0
  0
LINE
  5
559
330
1F
100
AcDbEntity
  8
0
  6
SLD-Solid
 62
     7
370
    15
100
AcDbLine
 10
1328.295124249
 20
1418.1477329855
 30
0.0
 11
1328.295124249
 21
1417.8116223936
 31
0.0
  0
LINE
  5
55A
330
1F
100
AcDbEntity
  8
0
  6
SLD-Solid
 62
     7
370
    15
100
AcDbLine
 10
1335.495097117
 20
1418.1477329855
 30
0.0
 11
1335.495097117
 21
1412.761618865
 31
0.0
  0
LINE
  5
55B
330
1F
100
AcDbEntity
  8
0
  6
SLD-Solid
 62
     7
370
    15
100
AcDbLine
 10
443.495107369
 20
876.2116185551
 30
0.0
 11
443.495107369
 21
1418.1477329855
 31
0.0
  0
LINE
  5
55C
330
1F
100
AcDbEntity
  8
0
  6
SLD-Solid
 62
     7
370
    15
100
AcDbLine
 10
443.495107369
 20
1540.435423625
 30
0.0
 11
443.495107369
 21
1541.2703058844
 31
0.0
  0
ARC
  5
55D
330
1F
100
AcDbEntity
  8
0
  6
SLD-Solid
 62
     7
370
    15
100
AcDbCircle
 10
446.454745554
 20
878.9850211969
 30
0.0
 40
4.056010404255141
100
AcDbArc
 50
223.1394237422
 51
257.0402711342
  0
LINE
  5
55E
330
1F
100
AcDbEntity
  8
0
  6
SLD-Solid
 62
     7
370
    15
100
AcDbLine
 10
512.2951097055
 20
1403.9615891104
 30
0.0
 11
512.2951097055
 21
1418.1477329855
 31
0.0
  0
LINE
  5
55F
330
1F
100
AcDbEntity
  8
0
  6
SLD-Solid
 62
     7
370
    15
100
AcDbLine
 10
512.2951097055
 20
875.0323257571
 30
0.0
 11
512.2951097055
 21
879.9616149788
 31
0.0
  0
LINE
  5
560
330
1F
100
AcDbEntity
  8
0
  6
SLD-Solid
 62
     7
370
    15
100
AcDbLine
 10
445.5451197191
 20
875.0323257571
 30
0.0
 11
451.4951235815
 21
875.0323257571
 31
0.0
  0
LINE
  5
561
330
1F
100
AcDbEntity
  8
0
  6
SLD-Solid
 62
     7
370
    15
100
AcDbLine
 10
511.4951259657
 20
875.0323257571
 30
0.0
 11
512.2951097055
 21
875.0323257571
 31
0.0
  0
ARC
  5
562
330
1F
100
AcDbEntity
  8
0
  6
SLD-Solid
 62
     7
370
    15
100
AcDbCircle
 10
445.5450966794
 20
876.2116104165
 30
0.0
 40
2.049989310406216
100
AcDbArc
 50
179.9997725305
 51
270.0006439434
  0
ARC
  5
563
330
1F
100
AcDbEntity
  8
0
  6
SLD-Solid
 62
     7
370
    15
100
AcDbCircle
 10
445.4668145016
 20
876.0072207136
 30
0.0
 40
1.048529011574809
100
AcDbArc
 50
216.5066210815
 51
274.2828947719
  0
LINE
  5
564
330
1F
100
AcDbEntity
  8
0
  6
SLD-Solid
 62
     7
370
    15
100
AcDbLine
 10
445.5451197191
 20
874.9616197472
 30
0.0
 11
445.5451197191
 21
874.1616211062
 31
0.0
  0
LINE
  5
565
330
1F
100
AcDbEntity
  8
0
  6
SLD-Solid
 62
     7
370
    15
100
AcDbLine
 10
459.4951099916
 20
874.1616211062
 30
0.0
 11
459.4951099916
 21
874.4616187339
 31
0.0
  0
LINE
  5
566
330
1F
100
AcDbEntity
  8
0
  6
SLD-Solid
 62
     7
370
    15
100
AcDbLine
 10
445.5451197191
 20
874.1616211062
 30
0.0
 11
459.4951099916
 21
874.1616211062
 31
0.0
  0
LINE
  5
567
330
1F
100
AcDbEntity
  8
0
  6
SLD-Solid
 62
     7
370
    15
100
AcDbLine
 10
445.5451197191
 20
874.9616197472
 30
0.0
 11
451.4951235815
 21
874.9616197472
 31
0.0
  0
LINE
  5
568
330
1F
100
AcDbEntity
  8
0
  6
SLD-Solid
 62
     7
370
    15
100
AcDbLine
 10
1274.695110993
 20
879.9616149788
 30
0.0
 11
1274.695110993
 21
875.0323257571
 31
0.0
  0
LINE
  5
569
330
1F
100
AcDbEntity
  8
0
  6
SLD-Solid
 62
     7
370
    15
100
AcDbLine
 10
1274.695110993
 20
1418.1477329855
 30
0.0
 11
1274.695110993
 21
1403.9615891104
 31
0.0
  0
LINE
  5
56A
330
1F
100
AcDbEntity
  8
0
  6
SLD-Solid
 62
     7
370
    15
100
AcDbLine
 10
1341.4451009794
 20
875.0323257571
 30
0.0
 11
1335.495097117
 21
875.0323257571
 31
0.0
  0
LINE
  5
56B
330
1F
100
AcDbEntity
  8
0
  6
SLD-Solid
 62
     7
370
    15
100
AcDbLine
 10
1275.4951245351
 20
875.0323257571
 30
0.0
 11
1274.695110993
 21
875.0323257571
 31
0.0
  0
LINE
  5
56C
330
1F
100
AcDbEntity
  8
0
  6
SLD-Solid
 62
     7
370
    15
100
AcDbLine
 10
1343.4951133295
 20
1541.2703058844
 30
0.0
 11
1343.4951133295
 21
1540.435423625
 31
0.0
  0
LINE
  5
56D
330
1F
100
AcDbEntity
  8
0
  6
SLD-Solid
 62
     7
370
    15
100
AcDbLine
 10
1343.4951133295
 20
1418.1477329855
 30
0.0
 11
1343.4951133295
 21
876.2116185551
 31
0.0
  0
ARC
  5
56E
330
1F
100
AcDbEntity
  8
0
  6
SLD-Solid
 62
     7
370
    15
100
AcDbCircle
 10
1340.9637556182
 20
878.2405239339
 30
0.0
 40
3.244106795209329
100
AcDbArc
 50
278.5327852965
 51
321.2875198271
  0
ARC
  5
56F
330
1F
100
AcDbEntity
  8
0
  6
SLD-Solid
 62
     7
370
    15
100
AcDbCircle
 10
1341.5230672347
 20
876.0079988835
 30
0.0
 40
1.049279769130111
100
AcDbArc
 50
265.7387358573
 51
323.9005234867
  0
ARC
  5
570
330
1F
100
AcDbEntity
  8
0
  6
SLD-Solid
 62
     7
370
    15
100
AcDbCircle
 10
1341.4451104502
 20
876.2116239854
 30
0.0
 40
2.05000287928752
100
AcDbArc
 50
269.9997352994
 51
359.9998482267
  0
LINE
  5
571
330
1F
100
AcDbEntity
  8
0
  6
SLD-Solid
 62
     7
370
    15
100
AcDbLine
 10
1341.4451009794
 20
874.1616211062
 30
0.0
 11
1341.4451009794
 21
874.9616197472
 31
0.0
  0
LINE
  5
572
330
1F
100
AcDbEntity
  8
0
  6
SLD-Solid
 62
     7
370
    15
100
AcDbLine
 10
1327.4951107069
 20
874.1616211062
 30
0.0
 11
1327.4951107069
 21
874.4616187339
 31
0.0
  0
LINE
  5
573
330
1F
100
AcDbEntity
  8
0
  6
SLD-Solid
 62
     7
370
    15
100
AcDbLine
 10
1341.4451009794
 20
874.9616197472
 30
0.0
 11
1335.495097117
 21
874.9616197472
 31
0.0
  0
LINE
  5
574
330
1F
100
AcDbEntity
  8
0
  6
SLD-Solid
 62
     7
370
    15
100
AcDbLine
 10
1341.4451009794
 20
874.1616211062
 30
0.0
 11
1327.4951107069
 21
874.1616211062
 31
0.0
  0
LINE
  5
575
330
1F
100
AcDbEntity
  8
0
  6
SLD-Solid
 62
     7
370
    15
100
AcDbLine
 10
1290.9951037927
 20
1543.1616208678
 30
0.0
 11
1292.195124106
 21
1543.1616208678
 31
0.0
  0
LINE
  5
576
330
1F
100
AcDbEntity
  8
0
  6
SLD-Solid
 62
     7
370
    15
100
AcDbLine
 10
1290.9951037927
 20
1543.1616208678
 30
0.0
 11
1290.9951037927
 21
1546.1902520781
 31
0.0
  0
LINE
  5
577
330
1F
100
AcDbEntity
  8
0
  6
SLD-Solid
 62
     7
370
    15
100
AcDbLine
 10
1292.195124106
 20
1543.1616208678
 30
0.0
 11
1292.195124106
 21
1546.0814736014
 31
0.0
  0
LINE
  5
578
330
1F
100
AcDbEntity
  8
0
  6
SLD-Solid
 62
     7
370
    15
100
AcDbLine
 10
1290.9951037927
 20
1541.161646617
 30
0.0
 11
1290.9951037927
 21
1543.1616208678
 31
0.0
  0
LINE
  5
579
330
1F
100
AcDbEntity
  8
0
  6
SLD-Solid
 62
     7
370
    15
100
AcDbLine
 10
1292.195124106
 20
1543.1616208678
 30
0.0
 11
1292.195124106
 21
1541.161646617
 31
0.0
  0
LINE
  5
57A
330
1F
100
AcDbEntity
  8
0
  6
SLD-Solid
 62
     7
370
    15
100
AcDbLine
 10
1290.9951037927
 20
1540.435423625
 30
0.0
 11
1290.9951037927
 21
1541.161646617
 31
0.0
  0
LINE
  5
57B
330
1F
100
AcDbEntity
  8
0
  6
SLD-Solid
 62
     7
370
    15
100
AcDbLine
 10
1292.195124106
 20
1540.435423625
 30
0.0
 11
1292.195124106
 21
1541.161646617
 31
0.0
  0
LINE
  5
57C
330
1F
100
AcDbEntity
  8
0
  6
SLD-Solid
 62
     7
370
    15
100
AcDbLine
 10
497.1951074167
 20
1540.435423625
 30
0.0
 11
497.1951074167
 21
1546.2002656584
 31
0.0
  0
LINE
  5
57D
330
1F
100
AcDbEntity
  8
0
  6
SLD-Solid
 62
     7
370
    15
100
AcDbLine
 10
1289.7951132818
 20
1546.2002656584
 30
0.0
 11
1289.7951132818
 21
1540.435423625
 31
0.0
  0
LINE
  5
57E
330
1F
100
AcDbEntity
  8
0
  6
SLD-Solid
 62
     7
370
    15
100
AcDbLine
 10
494.7951263948
 20
1540.435423625
 30
0.0
 11
494.7951263948
 21
1546.0814736014
 31
0.0
  0
LINE
  5
57F
330
1F
100
AcDbEntity
  8
0
  6
SLD-Solid
 62
     7
370
    15
100
AcDbLine
 10
495.9951169058
 20
1540.435423625
 30
0.0
 11
495.9951169058
 21
1546.1902520781
 31
0.0
  0
LINE
  5
580
330
1F
100
AcDbEntity
  8
0
  6
SLD-Solid
 62
     7
370
    15
100
AcDbLine
 10
889.4951120219
 20
934.4399473791
 30
0.0
 11
897.4951119362
 21
934.4399473791
 31
0.0
  0
ARC
  5
581
330
1F
100
AcDbEntity
  8
0
  6
SLD-Solid
 62
     7
370
    15
100
AcDbCircle
 10
1218.4951119297
 20
1419.7616180339
 30
0.0
 40
4.00000000000005
100
AcDbArc
 50
203.7953447518
 51
336.2046552482
  0
ARC
  5
582
330
1F
100
AcDbEntity
  8
0
  6
SLD-Solid
 62
     7
370
    15
100
AcDbCircle
 10
568.4951119297
 20
1419.7616180339
 30
0.0
 40
3.999999999999984
100
AcDbArc
 50
203.7953447517
 51
336.2046552483
  0
ARC
  5
583
330
1F
100
AcDbEntity
  8
0
  6
SLD-Solid
 62
     7
370
    15
100
AcDbCircle
 10
893.4951119297
 20
1419.7616180339
 30
0.0
 40
3.999999999999965
100
AcDbArc
 50
203.7953447518
 51
336.2046552482
  0
LINE
  5
584
330
1F
100
AcDbEntity
  8
0
  6
SLD-Solid
 62
     7
370
    15
100
AcDbLine
 10
1323.4246797128
 20
1418.1477329855
 30
0.0
 11
1323.8496608301
 21
1417.4116156226
 31
0.0
  0
ARC
  5
585
330
1F
100
AcDbEntity
  8
0
  6
SLD-Solid
 62
     7
370
    15
100
AcDbCircle
 10
1325.4951119297
 20
1420.2616180339
 30
0.0
 40
4.250000000000001
100
AcDbArc
 50
270.0
 51
308.820684597
  0
ARC
  5
586
330
1F
100
AcDbEntity
  8
0
  6
SLD-Solid
 62
     7
370
    15
100
AcDbCircle
 10
1325.4951119297
 20
1420.2616180339
 30
0.0
 40
4.250000000000052
100
AcDbArc
 50
231.179315964
 51
270.0
  0
LINE
  5
587
330
1F
100
AcDbEntity
  8
0
  6
SLD-Solid
 62
     7
370
    15
100
AcDbLine
 10
1323.8496608301
 20
1417.4116156226
 30
0.0
 11
1327.1405524774
 21
1417.4116156226
 31
0.0
  0
LINE
  5
588
330
1F
100
AcDbEntity
  8
0
  6
SLD-Solid
 62
     7
370
    15
100
AcDbLine
 10
1327.1405524774
 20
1417.4116156226
 30
0.0
 11
1327.565563397
 21
1418.1477329855
 31
0.0
  0
LWPOLYLINE
  5
589
330
1F
100
AcDbEntity
  8
0
  6
SLD-Solid
 62
     7
370
    15
100
AcDbPolyline
 90
        3
 70
   128
 43
0.0
 10
1325.4951066538
 20
1417.7366397505
 10
1326.4613873525
 20
1417.9288051253
 10
1326.8760866686
 20
1418.1477329855
  0
LWPOLYLINE
  5
58A
330
1F
100
AcDbEntity
  8
0
  6
SLD-Solid
 62
     7
370
    15
100
AcDbPolyline
 90
        3
 70
   128
 43
0.0
 10
1324.114126639
 20
1418.1477329855
 10
1324.528825955
 20
1417.9288051253
 10
1325.4951066538
 20
1417.7366397505
  0
LINE
  5
58B
330
1F
100
AcDbEntity
  8
0
  6
SLD-Solid
 62
     7
370
    15
100
AcDbLine
 10
459.4246573015
 20
1418.1477329855
 30
0.0
 11
459.8496682211
 21
1417.4116156226
 31
0.0
  0
ARC
  5
58C
330
1F
100
AcDbEntity
  8
0
  6
SLD-Solid
 62
     7
370
    15
100
AcDbCircle
 10
461.4951119297
 20
1420.2616180339
 30
0.0
 40
4.25
100
AcDbArc
 50
270.0
 51
308.8206824769
  0
ARC
  5
58D
330
1F
100
AcDbEntity
  8
0
  6
SLD-Solid
 62
     7
370
    15
100
AcDbCircle
 10
461.4951119297
 20
1420.2616180339
 30
0.0
 40
4.25
100
AcDbArc
 50
231.1793182042
 51
270.0
  0
LINE
  5
58E
330
1F
100
AcDbEntity
  8
0
  6
SLD-Solid
 62
     7
370
    15
100
AcDbLine
 10
459.8496682211
 20
1417.4116156226
 30
0.0
 11
463.1405598684
 21
1417.4116156226
 31
0.0
  0
LINE
  5
58F
330
1F
100
AcDbEntity
  8
0
  6
SLD-Solid
 62
     7
370
    15
100
AcDbLine
 10
463.1405598684
 20
1417.4116156226
 30
0.0
 11
463.565570788
 21
1418.1477329855
 31
0.0
  0
LWPOLYLINE
  5
590
330
1F
100
AcDbEntity
  8
0
  6
SLD-Solid
 62
     7
370
    15
100
AcDbPolyline
 90
        3
 70
   128
 43
0.0
 10
461.4951140447
 20
1417.7366397505
 10
462.4613947435
 20
1417.9288051253
 10
462.8760940595
 20
1418.1477329855
  0
LWPOLYLINE
  5
591
330
1F
100
AcDbEntity
  8
0
  6
SLD-Solid
 62
     7
370
    15
100
AcDbPolyline
 90
        3
 70
   128
 43
0.0
 10
460.1141340299
 20
1418.1477329855
 10
460.528833346
 20
1417.9288051253
 10
461.4951140447
 20
1417.7366397505
  0
LINE
  5
592
330
1F
100
AcDbEntity
  8
0
  6
SLD-Solid
 62
     7
370
    15
100
AcDbLine
 10
503.1405515237
 20
1417.4116156226
 30
0.0
 11
503.5655624433
 21
1418.1477329855
 31
0.0
  0
LINE
  5
593
330
1F
100
AcDbEntity
  8
0
  6
SLD-Solid
 62
     7
370
    15
100
AcDbLine
 10
499.4246787592
 20
1418.1477329855
 30
0.0
 11
499.8496598764
 21
1417.4116156226
 31
0.0
  0
LINE
  5
594
330
1F
100
AcDbEntity
  8
0
  6
SLD-Solid
 62
     7
370
    15
100
AcDbLine
 10
499.8496598764
 20
1417.4116156226
 30
0.0
 11
503.1405515237
 21
1417.4116156226
 31
0.0
  0
ARC
  5
595
330
1F
100
AcDbEntity
  8
0
  6
SLD-Solid
 62
     7
370
    15
100
AcDbCircle
 10
501.4951119297
 20
1420.2616180338
 30
0.0
 40
4.250000000000003
100
AcDbArc
 50
270.0
 51
308.8206891239
  0
ARC
  5
596
330
1F
100
AcDbEntity
  8
0
  6
SLD-Solid
 62
     7
370
    15
100
AcDbCircle
 10
501.4951119297
 20
1420.2616180338
 30
0.0
 40
4.250000000000007
100
AcDbArc
 50
231.1793113933
 51
270.0
  0
LWPOLYLINE
  5
597
330
1F
100
AcDbEntity
  8
0
  6
SLD-Solid
 62
     7
370
    15
100
AcDbPolyline
 90
        3
 70
   128
 43
0.0
 10
501.4951057001
 20
1417.7366397505
 10
502.4613863989
 20
1417.9288051253
 10
502.8760857149
 20
1418.1477329855
  0
LWPOLYLINE
  5
598
330
1F
100
AcDbEntity
  8
0
  6
SLD-Solid
 62
     7
370
    15
100
AcDbPolyline
 90
        3
 70
   128
 43
0.0
 10
500.1141256853
 20
1418.1477329855
 10
500.5288250013
 20
1417.9288051253
 10
501.4951057001
 20
1417.7366397505
  0
LINE
  5
599
330
1F
100
AcDbEntity
  8
0
  6
SLD-Solid
 62
     7
370
    15
100
AcDbLine
 10
1287.1405608221
 20
1417.4116156226
 30
0.0
 11
1287.5655717416
 21
1418.1477329855
 31
0.0
  0
LINE
  5
59A
330
1F
100
AcDbEntity
  8
0
  6
SLD-Solid
 62
     7
370
    15
100
AcDbLine
 10
1283.4246582552
 20
1418.1477329855
 30
0.0
 11
1283.8496691747
 21
1417.4116156226
 31
0.0
  0
LINE
  5
59B
330
1F
100
AcDbEntity
  8
0
  6
SLD-Solid
 62
     7
370
    15
100
AcDbLine
 10
1283.8496691747
 20
1417.4116156226
 30
0.0
 11
1287.1405608221
 21
1417.4116156226
 31
0.0
  0
ARC
  5
59C
330
1F
100
AcDbEntity
  8
0
  6
SLD-Solid
 62
     7
370
    15
100
AcDbCircle
 10
1285.4951119297
 20
1420.2616180339
 30
0.0
 40
4.250000000000227
100
AcDbArc
 50
270.0
 51
308.8206882413
  0
ARC
  5
59D
330
1F
100
AcDbEntity
  8
0
  6
SLD-Solid
 62
     7
370
    15
100
AcDbCircle
 10
1285.4951119297
 20
1420.2616180339
 30
0.0
 40
4.250000000000227
100
AcDbArc
 50
231.1793124039
 51
270.0
  0
LWPOLYLINE
  5
59E
330
1F
100
AcDbEntity
  8
0
  6
SLD-Solid
 62
     7
370
    15
100
AcDbPolyline
 90
        3
 70
   128
 43
0.0
 10
1285.4951149984
 20
1417.7366397505
 10
1286.4613956972
 20
1417.9288051253
 10
1286.8760950132
 20
1418.1477329855
  0
LWPOLYLINE
  5
59F
330
1F
100
AcDbEntity
  8
0
  6
SLD-Solid
 62
     7
370
    15
100
AcDbPolyline
 90
        3
 70
   128
 43
0.0
 10
1284.1141349836
 20
1418.1477329855
 10
1284.5288342996
 20
1417.9288051253
 10
1285.4951149984
 20
1417.7366397505
  0
LINE
  5
5A0
330
1F
100
AcDbEntity
  8
0
  6
SLD-Solid
 62
     7
370
    15
100
AcDbLine
 10
1275.4951245351
 20
874.9616197472
 30
0.0
 11
511.4951259657
 21
874.9616197472
 31
0.0
  0
LINE
  5
5A1
330
1F
100
AcDbEntity
  8
0
  6
SLD-Center
 62
     7
370
     0
100
AcDbLine
 10
519.5451119297
 20
285.9077520133
 30
0.0
 11
519.5451119297
 21
464.088029734
 31
0.0
  0
LINE
  5
5A2
330
1F
100
AcDbEntity
  8
0
  6
SLD-Center
 62
     7
370
     0
100
AcDbLine
 10
1267.5451119297
 20
285.9077520133
 30
0.0
 11
1267.5451119297
 21
464.088029734
 31
0.0
  0
ENDSEC
  0
SECTION
  2
OBJECTS
  0
DICTIONARY
  5
C
330
0
100
AcDbDictionary
281
     1
  3
ACAD_GROUP
350
D
  3
ACAD_LAYOUT
350
1A
  3
ACAD_MLINESTYLE
350
17
  3
ACAD_PLOTSETTINGS
350
19
  3
ACAD_PLOTSTYLENAME
350
E
  0
DICTIONARY
  5
D
102
{ACAD_REACTORS
330
C
102
}
330
C
100
AcDbDictionary
281
     1
  0
DICTIONARY
  5
1A
102
{ACAD_REACTORS
330
C
102
}
330
C
100
AcDbDictionary
281
     1
  3
Layout1
350
1E
  3
Layout2
350
26
  3
Model
350
22
  0
DICTIONARY
  5
17
102
{ACAD_REACTORS
330
C
102
}
330
C
100
AcDbDictionary
281
     1
  3
Standard
350
18
  0
DICTIONARY
  5
19
102
{ACAD_REACTORS
330
C
102
}
330
C
100
AcDbDictionary
281
     1
  0
ACDBDICTIONARYWDFLT
  5
E
102
{ACAD_REACTORS
330
C
102
}
330
C
100
AcDbDictionary
281
     1
  3
Normal
350
F
100
AcDbDictionaryWithDefault
340
F
  0
LAYOUT
  5
1E
102
{ACAD_REACTORS
330
1A
102
}
330
1A
100
AcDbPlotSettings
  1

  2
none_device
  4

  6

 40
0.0
 41
0.0
 42
0.0
 43
0.0
 44
0.0
 45
0.0
 46
0.0
 47
0.0
 48
0.0
 49
0.0
140
0.0
141
0.0
142
1.0
143
1.0
 70
   688
 72
     0
 73
     0
 74
     5
  7

 75
    16
147
1.0
148
0.0
149
0.0
100
AcDbLayout
  1
Layout1
 70
     1
 71
     1
 10
0.0
 20
0.0
 11
420.0
 21
297.0
 12
0.0
 22
0.0
 32
0.0
 14
1.0000000000E+20
 24
1.0000000000E+20
 34
1.0000000000E+20
 15
-1.0000000000E+20
 25
-1.0000000000E+20
 35
-1.0000000000E+20
146
0.0
 13
0.0
 23
0.0
 33
0.0
 16
1.0
 26
0.0
 36
0.0
 17
0.0
 27
1.0
 37
0.0
 76
     0
330
1B
  0
LAYOUT
  5
26
102
{ACAD_REACTORS
330
1A
102
}
330
1A
100
AcDbPlotSettings
  1

  2
none_device
  4

  6

 40
0.0
 41
0.0
 42
0.0
 43
0.0
 44
0.0
 45
0.0
 46
0.0
 47
0.0
 48
0.0
 49
0.0
140
0.0
141
0.0
142
1.0
143
1.0
 70
   688
 72
     0
 73
     0
 74
     5
  7

 75
    16
147
1.0
148
0.0
149
0.0
100
AcDbLayout
  1
Layout2
 70
     1
 71
     2
 10
0.0
 20
0.0
 11
0.0
 21
0.0
 12
0.0
 22
0.0
 32
0.0
 14
0.0
 24
0.0
 34
0.0
 15
0.0
 25
0.0
 35
0.0
146
0.0
 13
0.0
 23
0.0
 33
0.0
 16
1.0
 26
0.0
 36
0.0
 17
0.0
 27
1.0
 37
0.0
 76
     0
330
23
  0
LAYOUT
  5
22
102
{ACAD_REACTORS
330
1A
102
}
330
1A
100
AcDbPlotSettings
  1

  2
none_device
  4

  6

 40
0.0
 41
0.0
 42
0.0
 43
0.0
 44
0.0
 45
0.0
 46
0.0
 47
0.0
 48
0.0
 49
0.0
140
0.0
141
0.0
142
1.0
143
1.0
 70
  1712
 72
     0
 73
     0
 74
     0
  7

 75
     0
147
1.0
148
0.0
149
0.0
100
AcDbLayout
  1
Model
 70
     1
 71
     0
 10
0.0
 20
0.0
 11
2000.0
 21
2000.0
 12
0.0
 22
0.0
 32
0.0
 14
0.0
 24
0.0
 34
0.0
 15
2000.0
 25
2000.0
 35
0.0
146
0.0
 13
0.0
 23
0.0
 33
0.0
 16
1.0
 26
0.0
 36
0.0
 17
0.0
 27
1.0
 37
0.0
 76
     0
330
1F
331
29
  0
MLINESTYLE
  5
18
102
{ACAD_REACTORS
330
17
102
}
330
17
100
AcDbMlineStyle
  2
Standard
 70
     0
  3

 62
   256
 51
90.0
 52
90.0
 71
     2
 49
0.5
 62
   256
  6
BYLAYER
 49
-0.5
 62
   256
  6
BYLAYER
  0
ACDBPLACEHOLDER
  5
F
102
{ACAD_REACTORS
330
E
102
}
330
E
  0
ENDSEC
  0
EOF
