  0
SECTION
  2
HEADER
  9
$ACADVER
  1
AC1015
  9
$ACADMAINTVER
 70
     6
  9
$DWGCODEPAGE
  3
ANSI_1252
  9
$INSBASE
 10
0.0
 20
0.0
 30
0.0
  9
$EXTMIN
 10
0.0
 20
0.0
 30
0.0
  9
$EXTMAX
 10
1500.0
 20
1500.0
 30
0.0
  9
$LIMMIN
 10
0.0
 20
0.0
  9
$LIMMAX
 10
1500.0
 20
1500.0
  9
$ORTHOMODE
 70
     0
  9
$REGENMODE
 70
     1
  9
$FILLMODE
 70
     1
  9
$QTEXTMODE
 70
     0
  9
$MIRRTEXT
 70
     1
  9
$LTSCALE
 40
1.0
  9
$ATTMODE
 70
     1
  9
$TEXTSIZE
 40
3.5
  9
$TRACEWID
 40
1.0
  9
$TEXTSTYLE
  7
Standard
  9
$CLAYER
  8
0
  9
$CELTYPE
  6
ByLayer
  9
$CECOLOR
 62
   256
  9
$CELTSCALE
 40
1.0
  9
$DISPSILH
 70
     0
  9
$DIMSCALE
 40
1.0
  9
$DIMASZ
 40
3.302
  9
$DIMEXO
 40
1.0
  9
$DIMDLI
 40
3.75
  9
$DIMRND
 40
0.0
  9
$DIMDLE
 40
0.0
  9
$DIMEXE
 40
1.0
  9
$DIMTP
 40
0.0
  9
$DIMTM
 40
0.0
  9
$DIMTXT
 40
3.5
  9
$DIMCEN
 40
2.5
  9
$DIMTSZ
 40
0.0
  9
$DIMTOL
 70
     0
  9
$DIMLIM
 70
     0
  9
$DIMTIH
 70
     1
  9
$DIMTOH
 70
     1
  9
$DIMSE1
 70
     0
  9
$DIMSE2
 70
     0
  9
$DIMTAD
 70
     1
  9
$DIMZIN
 70
     0
  9
$DIMBLK
  1

  9
$DIMASO
 70
     1
  9
$DIMSHO
 70
     1
  9
$DIMPOST
  1

  9
$DIMAPOST
  1

  9
$DIMALT
 70
     0
  9
$DIMALTD
 70
     3
  9
$DIMALTF
 40
0.0393700787
  9
$DIMLFAC
 40
1.0
  9
$DIMTOFL
 70
     1
  9
$DIMTVP
 40
0.0
  9
$DIMTIX
 70
     0
  9
$DIMSOXD
 70
     0
  9
$DIMSAH
 70
     0
  9
$DIMBLK1
  1

  9
$DIMBLK2
  1

  9
$DIMSTYLE
  2
ISO-25
  9
$DIMCLRD
 70
     0
  9
$DIMCLRE
 70
     0
  9
$DIMCLRT
 70
     0
  9
$DIMTFAC
 40
1.0
  9
$DIMGAP
 40
1.524
  9
$DIMJUST
 70
     0
  9
$DIMSD1
 70
     0
  9
$DIMSD2
 70
     0
  9
$DIMTOLJ
 70
     0
  9
$DIMTZIN
 70
     0
  9
$DIMALTZ
 70
     0
  9
$DIMALTTZ
 70
     0
  9
$DIMUPT
 70
     0
  9
$DIMDEC
 70
     1
  9
$DIMTDEC
 70
     1
  9
$DIMALTU
 70
     2
  9
$DIMALTTD
 70
     3
  9
$DIMTXSTY
  7
Standard
  9
$DIMAUNIT
 70
     0
  9
$DIMADEC
 70
     1
  9
$DIMALTRND
 40
0.0
  9
$DIMAZIN
 70
     0
  9
$DIMDSEP
 70
    44
  9
$DIMATFIT
 70
     3
  9
$DIMFRAC
 70
     0
  9
$DIMLDRBLK
  1

  9
$DIMLUNIT
 70
     2
  9
$DIMLWD
 70
    -2
  9
$DIMLWE
 70
    -2
  9
$DIMTMOVE
 70
     0
  9
$LUNITS
 70
     2
  9
$LUPREC
 70
     1
  9
$SKETCHINC
 40
1.0
  9
$FILLETRAD
 40
10.0
  9
$AUNITS
 70
     0
  9
$AUPREC
 70
     1
  9
$MENU
  1
.
  9
$ELEVATION
 40
0.0
  9
$PELEVATION
 40
0.0
  9
$THICKNESS
 40
0.0
  9
$LIMCHECK
 70
     0
  9
$CHAMFERA
 40
10.0
  9
$CHAMFERB
 40
10.0
  9
$CHAMFERC
 40
20.0
  9
$CHAMFERD
 40
0.0
  9
$SKPOLY
 70
     0
  9
$TDCREATE
 40
2456049.313596204
  9
$TDUCREATE
 40
2456049.271929537
  9
$TDUPDATE
 40
2456049.313596736
  9
$TDUUPDATE
 40
2456049.27193007
  9
$TDINDWG
 40
0.0000000116
  9
$TDUSRTIMER
 40
0.0000000116
  9
$USRTIMER
 70
     1
  9
$ANGBASE
 50
0.0
  9
$ANGDIR
 70
     0
  9
$PDMODE
 70
     0
  9
$PDSIZE
 40
-1.0
  9
$PLINEWID
 40
0.0
  9
$SPLFRAME
 70
     0
  9
$SPLINETYPE
 70
     6
  9
$SPLINESEGS
 70
     8
  9
$HANDSEED
  5
4A7
  9
$SURFTAB1
 70
     6
  9
$SURFTAB2
 70
     6
  9
$SURFTYPE
 70
     6
  9
$SURFU
 70
     6
  9
$SURFV
 70
     6
  9
$UCSBASE
  2

  9
$UCSNAME
  2

  9
$UCSORG
 10
0.0
 20
0.0
 30
0.0
  9
$UCSXDIR
 10
1.0
 20
0.0
 30
0.0
  9
$UCSYDIR
 10
0.0
 20
1.0
 30
0.0
  9
$UCSORTHOREF
  2

  9
$UCSORTHOVIEW
 70
     0
  9
$UCSORGTOP
 10
0.0
 20
0.0
 30
0.0
  9
$UCSORGBOTTOM
 10
0.0
 20
0.0
 30
0.0
  9
$UCSORGLEFT
 10
0.0
 20
0.0
 30
0.0
  9
$UCSORGRIGHT
 10
0.0
 20
0.0
 30
0.0
  9
$UCSORGFRONT
 10
0.0
 20
0.0
 30
0.0
  9
$UCSORGBACK
 10
0.0
 20
0.0
 30
0.0
  9
$PUCSBASE
  2

  9
$PUCSNAME
  2

  9
$PUCSORG
 10
0.0
 20
0.0
 30
0.0
  9
$PUCSXDIR
 10
1.0
 20
0.0
 30
0.0
  9
$PUCSYDIR
 10
0.0
 20
1.0
 30
0.0
  9
$PUCSORTHOREF
  2

  9
$PUCSORTHOVIEW
 70
     0
  9
$PUCSORGTOP
 10
0.0
 20
0.0
 30
0.0
  9
$PUCSORGBOTTOM
 10
0.0
 20
0.0
 30
0.0
  9
$PUCSORGLEFT
 10
0.0
 20
0.0
 30
0.0
  9
$PUCSORGRIGHT
 10
0.0
 20
0.0
 30
0.0
  9
$PUCSORGFRONT
 10
0.0
 20
0.0
 30
0.0
  9
$PUCSORGBACK
 10
0.0
 20
0.0
 30
0.0
  9
$USERI1
 70
     0
  9
$USERI2
 70
     0
  9
$USERI3
 70
     0
  9
$USERI4
 70
     0
  9
$USERI5
 70
     0
  9
$USERR1
 40
0.0
  9
$USERR2
 40
0.0
  9
$USERR3
 40
0.0
  9
$USERR4
 40
0.0
  9
$USERR5
 40
0.0
  9
$WORLDVIEW
 70
     1
  9
$SHADEDGE
 70
     3
  9
$SHADEDIF
 70
    70
  9
$TILEMODE
 70
     1
  9
$MAXACTVP
 70
    64
  9
$PINSBASE
 10
0.0
 20
0.0
 30
0.0
  9
$PLIMCHECK
 70
     0
  9
$PEXTMIN
 10
1.0000000000E+20
 20
1.0000000000E+20
 30
1.0000000000E+20
  9
$PEXTMAX
 10
-1.0000000000E+20
 20
-1.0000000000E+20
 30
-1.0000000000E+20
  9
$PLIMMIN
 10
0.0
 20
0.0
  9
$PLIMMAX
 10
420.0
 20
297.0
  9
$UNITMODE
 70
     0
  9
$VISRETAIN
 70
     1
  9
$PLINEGEN
 70
     0
  9
$PSLTSCALE
 70
     1
  9
$TREEDEPTH
 70
  3020
  9
$CMLSTYLE
  2
Standard
  9
$CMLJUST
 70
     0
  9
$CMLSCALE
 40
20.0
  9
$PROXYGRAPHICS
 70
     1
  9
$MEASUREMENT
 70
     1
  9
$CELWEIGHT
370
    -1
  9
$ENDCAPS
280
     0
  9
$JOINSTYLE
280
     0
  9
$LWDISPLAY
290
     1
  9
$INSUNITS
 70
     4
  9
$HYPERLINKBASE
  1

  9
$STYLESHEET
  1

  9
$XEDIT
290
     1
  9
$CEPSNTYPE
380
     0
  9
$PSTYLEMODE
290
     1
  9
$FINGERPRINTGUID
  2
{BFA4BDC5-CF6B-46FC-A550-67ACFDBDB6DF}
  9
$VERSIONGUID
  2
{FAEB1C32-E019-11D5-929B-00C0DF256EC4}
  9
$EXTNAMES
290
     1
  9
$PSVPSCALE
 40
0.0
  9
$OLESTARTUP
290
     0
  0
ENDSEC
  0
SECTION
  2
CLASSES
  0
CLASS
  1
ACDBDICTIONARYWDFLT
  2
AcDbDictionaryWithDefault
  3
ObjectDBX Classes
 90
        0
280
     0
281
     0
  0
CLASS
  1
VISUALSTYLE
  2
AcDbVisualStyle
  3
ObjectDBX Classes
 90
     4095
280
     0
281
     0
  0
CLASS
  1
MATERIAL
  2
AcDbMaterial
  3
ObjectDBX Classes
 90
     1153
280
     0
281
     0
  0
CLASS
  1
ACDBPLACEHOLDER
  2
AcDbPlaceHolder
  3
ObjectDBX Classes
 90
        0
280
     0
281
     0
  0
CLASS
  1
LAYOUT
  2
AcDbLayout
  3
ObjectDBX Classes
 90
        0
280
     0
281
     0
  0
ENDSEC
  0
SECTION
  2
TABLES
  0
TABLE
  2
VPORT
  5
8
330
0
100
AcDbSymbolTable
 70
     1
  0
VPORT
  5
29
330
8
100
AcDbSymbolTableRecord
100
AcDbViewportTableRecord
  2
*Active
 70
     0
 10
0.0
 20
0.0
 11
1.0
 21
1.0
 12
750.0
 22
750.0
 13
0.0
 23
0.0
 14
10.0
 24
10.0
 15
10.0
 25
10.0
 16
0.0
 26
0.0
 36
1.0
 17
0.0
 27
0.0
 37
0.0
 40
1500.0
 41
1.0
 42
50.0
 43
0.0
 44
0.0
 50
0.0
 51
0.0
 71
     0
 72
  2000
 73
     1
 74
     3
 75
     0
 76
     0
 77
     0
 78
     0
281
     0
 65
     1
110
0.0
120
0.0
130
0.0
111
1.0
121
0.0
131
0.0
112
0.0
122
1.0
132
0.0
 79
     0
146
0.0
  0
ENDTAB
  0
TABLE
  2
LTYPE
  5
5
330
0
100
AcDbSymbolTable
 70
     6
  0
LTYPE
  5
14
330
5
100
AcDbSymbolTableRecord
100
AcDbLinetypeTableRecord
  2
ByBlock
 70
     0
  3

 72
    65
 73
     0
 40
0.0
  0
LTYPE
  5
15
330
5
100
AcDbSymbolTableRecord
100
AcDbLinetypeTableRecord
  2
ByLayer
 70
     0
  3

 72
    65
 73
     0
 40
0.0
  0
LTYPE
  5
16
330
5
100
AcDbSymbolTableRecord
100
AcDbLinetypeTableRecord
  2
Continuous
 70
     0
  3
Solid line
 72
    65
 73
     0
 40
0.0
  0
LTYPE
  5
3F
330
5
100
AcDbSymbolTableRecord
100
AcDbLinetypeTableRecord
  2
HIDDEN
 70
     0
  3
Hidden __ __ __ __ __ __ __ __ __ __ __ __ __ __
 72
    65
 73
     2
 40
1.905
 49
1.27
 74
     0
 49
-0.635
 74
     0
  0
LTYPE
  5
40
330
5
100
AcDbSymbolTableRecord
100
AcDbLinetypeTableRecord
  2
PHANTOM
 70
     0
  3
Phantom ______  __  __  ______  __  __  ______
 72
    65
 73
     6
 40
12.7
 49
6.35
 74
     0
 49
-1.27
 74
     0
 49
1.27
 74
     0
 49
-1.27
 74
     0
 49
1.27
 74
     0
 49
-1.27
 74
     0
  0
LTYPE
  5
41
330
5
100
AcDbSymbolTableRecord
100
AcDbLinetypeTableRecord
  2
CENTER
 70
     0
  3
Center ____ _ ____ _ ____ _ ____ _ ____ _ ____
 72
    65
 73
     4
 40
10.16
 49
6.35
 74
     0
 49
-1.27
 74
     0
 49
1.27
 74
     0
 49
-1.27
 74
     0
  0
LTYPE
  5
42
330
5
100
AcDbSymbolTableRecord
100
AcDbLinetypeTableRecord
  2
CENTERX2
 70
     0
  3
Center (2x) ________  __  ________  __  _____
 72
    65
 73
     4
 40
20.32
 49
12.7
 74
     0
 49
-2.54
 74
     0
 49
2.54
 74
     0
 49
-2.54
 74
     0
  0
LTYPE
  5
43
330
5
100
AcDbSymbolTableRecord
100
AcDbLinetypeTableRecord
  2
DOT2
 70
     0
  3
Dot (.5x) ........................................
 72
    65
 73
     2
 40
0.635
 49
0.0
 74
     0
 49
-0.635
 74
     0
  0
ENDTAB
  0
TABLE
  2
LAYER
  5
2
330
0
100
AcDbSymbolTable
 70
     4
  0
LAYER
  5
10
330
2
100
AcDbSymbolTableRecord
100
AcDbLayerTableRecord
  2
0
 70
     0
 62
     7
  6
Continuous
370
    -3
390
F
  0
LAYER
  5
44
330
2
100
AcDbSymbolTableRecord
100
AcDbLayerTableRecord
  2
FORMAT
 70
     0
 62
     7
  6
Continuous
370
    -3
390
F
  0
LAYER
  5
45
330
2
100
AcDbSymbolTableRecord
100
AcDbLayerTableRecord
  2
SLD-0
 70
     0
 62
     1
  6
Continuous
370
    -3
390
F
  0
LAYER
  5
46
330
2
100
AcDbSymbolTableRecord
100
AcDbLayerTableRecord
  2
WATERMARK
 70
     0
 62
    20
  6
Continuous
370
    -3
390
F
  0
ENDTAB
  0
TABLE
  2
STYLE
  5
3
330
0
100
AcDbSymbolTable
 70
     1
  0
STYLE
  5
11
330
3
100
AcDbSymbolTableRecord
100
AcDbTextStyleTableRecord
  2
Standard
 70
     0
 40
0.0
 41
1.0
 50
0.0
 71
     0
 42
3.5
  3
txt
  4

  0
ENDTAB
  0
TABLE
  2
VIEW
  5
6
330
0
100
AcDbSymbolTable
 70
     0
  0
ENDTAB
  0
TABLE
  2
UCS
  5
7
330
0
100
AcDbSymbolTable
 70
     0
  0
ENDTAB
  0
TABLE
  2
APPID
  5
9
330
0
100
AcDbSymbolTable
 70
     1
  0
APPID
  5
12
330
9
100
AcDbSymbolTableRecord
100
AcDbRegAppTableRecord
  2
ACAD
 70
     0
  0
ENDTAB
  0
TABLE
  2
DIMSTYLE
  5
A
330
0
100
AcDbSymbolTable
 70
     1
100
AcDbDimStyleTable
  0
DIMSTYLE
105
27
330
A
100
AcDbSymbolTableRecord
100
AcDbDimStyleTableRecord
  2
ISO-25
 70
     0
 41
2.5
 42
0.625
 43
3.75
 44
1.25
 73
     0
 74
     0
 77
     1
 78
     8
140
2.5
141
2.5
143
0.0393700787
147
0.625
171
     3
172
     1
178
     0
271
     2
272
     2
274
     3
278
    44
283
     0
284
     8
340
11
  0
ENDTAB
  0
TABLE
  2
BLOCK_RECORD
  5
1
330
0
100
AcDbSymbolTable
 70
     1
  0
BLOCK_RECORD
  5
1F
330
1
100
AcDbSymbolTableRecord
100
AcDbBlockTableRecord
  2
*Model_Space
340
22
  0
BLOCK_RECORD
  5
1B
330
1
100
AcDbSymbolTableRecord
100
AcDbBlockTableRecord
  2
*Paper_Space
340
1E
  0
BLOCK_RECORD
  5
23
330
1
100
AcDbSymbolTableRecord
100
AcDbBlockTableRecord
  2
*Paper_Space0
340
26
  0
ENDTAB
  0
ENDSEC
  0
SECTION
  2
BLOCKS
  0
BLOCK
  5
20
330
1F
100
AcDbEntity
  8
0
100
AcDbBlockBegin
  2
*Model_Space
 70
     0
 10
0.0
 20
0.0
 30
0.0
  3
*Model_Space
  1

  0
ENDBLK
  5
21
330
1F
100
AcDbEntity
  8
0
100
AcDbBlockEnd
  0
BLOCK
  5
1C
330
1B
100
AcDbEntity
 67
     1
  8
0
100
AcDbBlockBegin
  2
*Paper_Space
 70
     0
 10
0.0
 20
0.0
 30
0.0
  3
*Paper_Space
  1

  0
ENDBLK
  5
1D
330
1B
100
AcDbEntity
 67
     1
  8
0
100
AcDbBlockEnd
  0
BLOCK
  5
24
330
23
100
AcDbEntity
  8
0
100
AcDbBlockBegin
  2
*Paper_Space0
 70
     0
 10
0.0
 20
0.0
 30
0.0
  3
*Paper_Space0
  1

  0
ENDBLK
  5
25
330
23
100
AcDbEntity
  8
0
100
AcDbBlockEnd
  0
ENDSEC
  0
SECTION
  2
ENTITIES
  0
LINE
  5
47
330
1F
100
AcDbEntity
  8
0
  6
Continuous
 62
     7
370
    15
100
AcDbLine
 10
312.7604202923
 20
555.3214096036
 30
0.0
 11
312.7604202923
 21
550.6566457954
 31
0.0
  0
LINE
  5
48
330
1F
100
AcDbEntity
  8
0
  6
Continuous
 62
     7
370
    15
100
AcDbLine
 10
1108.7603943046
 20
550.6566457954
 30
0.0
 11
1108.7603943046
 21
555.3214096036
 31
0.0
  0
LINE
  5
49
330
1F
100
AcDbEntity
  8
0
  6
Continuous
 62
     7
370
    15
100
AcDbLine
 10
1096.7603997883
 20
558.1213079896
 30
0.0
 11
1096.7603997883
 21
555.3214096036
 31
0.0
  0
LINE
  5
4A
330
1F
100
AcDbEntity
  8
0
  6
Continuous
 62
     7
370
    15
100
AcDbLine
 10
1096.7603997883
 20
555.3214096036
 30
0.0
 11
1096.7603997883
 21
550.6566457954
 31
0.0
  0
LINE
  5
4B
330
1F
100
AcDbEntity
  8
0
  6
Continuous
 62
     7
370
    15
100
AcDbLine
 10
1108.7603943046
 20
555.3214096036
 30
0.0
 11
1108.7603943046
 21
558.1213079896
 31
0.0
  0
LINE
  5
4C
330
1F
100
AcDbEntity
  8
0
  6
Continuous
 62
     7
370
    15
100
AcDbLine
 10
324.7604148086
 20
550.6566457954
 30
0.0
 11
324.7604148086
 21
555.3214096036
 31
0.0
  0
LINE
  5
4D
330
1F
100
AcDbEntity
  8
0
  6
Continuous
 62
     7
370
    15
100
AcDbLine
 10
324.7604148086
 20
555.3214096036
 30
0.0
 11
324.7604148086
 21
558.1213079896
 31
0.0
  0
LINE
  5
4E
330
1F
100
AcDbEntity
  8
0
  6
Continuous
 62
     7
370
    15
100
AcDbLine
 10
312.7604202923
 20
558.1213079896
 30
0.0
 11
312.7604202923
 21
555.3214096036
 31
0.0
  0
LINE
  5
4F
330
1F
100
AcDbEntity
  8
0
  6
Continuous
 62
     7
370
    15
100
AcDbLine
 10
835.2604062852
 20
1047.2286485639
 30
0.0
 11
835.2604062852
 21
1047.2192906346
 31
0.0
  0
LINE
  5
50
330
1F
100
AcDbEntity
  8
0
  6
Continuous
 62
     7
370
    15
100
AcDbLine
 10
840.2604089674
 20
1047.2192906346
 30
0.0
 11
840.2604089674
 21
1047.2286485639
 31
0.0
  0
LINE
  5
51
330
1F
100
AcDbEntity
  8
0
  6
Continuous
 62
     7
370
    15
100
AcDbLine
 10
1132.6603965458
 20
1102.2602461782
 30
0.0
 11
1132.6603965458
 21
1106.5864705053
 31
0.0
  0
LINE
  5
52
330
1F
100
AcDbEntity
  8
0
  6
Continuous
 62
     7
370
    15
100
AcDbLine
 10
1121.8604223427
 20
1106.5864705053
 30
0.0
 11
1121.8604223427
 21
1102.2602461782
 31
0.0
  0
LINE
  5
53
330
1F
100
AcDbEntity
  8
0
  6
Continuous
 62
     7
370
    15
100
AcDbLine
 10
1140.3604225811
 20
1101.2404703107
 30
0.0
 11
1140.3604225811
 21
1102.0341657605
 31
0.0
  0
LINE
  5
54
330
1F
100
AcDbEntity
  8
0
  6
Continuous
 62
     7
370
    15
100
AcDbLine
 10
1114.1603963073
 20
1102.0341657605
 30
0.0
 11
1114.1603963073
 21
1101.2404703107
 31
0.0
  0
ARC
  5
55
330
1F
100
AcDbEntity
  8
0
  6
Continuous
 62
     7
370
    15
100
AcDbCircle
 10
1112.4349529891
 20
1137.3959484003
 30
0.0
 40
0.9745441101797496
100
AcDbArc
 50
180.0
 51
270.0
  0
LINE
  5
56
330
1F
100
AcDbEntity
  8
0
  6
Continuous
 62
     7
370
    15
100
AcDbLine
 10
1112.9552499946
 20
1136.4213966336
 30
0.0
 11
1112.4349610504
 21
1136.4213966336
 31
0.0
  0
LINE
  5
57
330
1F
100
AcDbEntity
  8
0
  6
Continuous
 62
     7
370
    15
100
AcDbLine
 10
412.9996077713
 20
928.1213425603
 30
0.0
 11
1008.9726822075
 21
928.1213425603
 31
0.0
  0
LINE
  5
58
330
1F
100
AcDbEntity
  8
0
  6
Continuous
 62
     7
370
    15
100
AcDbLine
 10
1008.3762781318
 20
968.1213044133
 30
0.0
 11
413.0676464733
 21
968.1213044133
 31
0.0
  0
LINE
  5
59
330
1F
100
AcDbEntity
  8
0
  6
Continuous
 62
     7
370
    15
100
AcDbLine
 10
1160.7604102787
 20
1239.750876328
 30
0.0
 11
260.7604043182
 21
1239.750876328
 31
0.0
  0
ARC
  5
5A
330
1F
100
AcDbEntity
  8
0
  6
Continuous
 62
     7
370
    15
100
AcDbCircle
 10
823.3952121393
 20
1093.8139495662
 30
0.0
 40
1.000000000000152
100
AcDbArc
 50
10.3016237991
 51
15.1243958777
  0
ARC
  5
5B
330
1F
100
AcDbEntity
  8
0
  6
Continuous
 62
     7
370
    15
100
AcDbCircle
 10
802.1256056185
 20
1093.8139495662
 30
0.0
 40
1.000000000000043
100
AcDbArc
 50
164.8756041223
 51
169.6983762009
  0
ARC
  5
5C
330
1F
100
AcDbEntity
  8
0
  6
Continuous
 62
     7
370
    15
100
AcDbCircle
 10
812.2604088789
 20
1127.1972028072
 30
0.0
 40
1.000000000000016
100
AcDbArc
 50
180.0
 51
229.7562252183
  0
ARC
  5
5D
330
1F
100
AcDbEntity
  8
0
  6
Continuous
 62
     7
370
    15
100
AcDbCircle
 10
813.2604088789
 20
1127.1972028072
 30
0.0
 40
1.000000000000218
100
AcDbArc
 50
306.6480530194
 51
0.0
  0
ARC
  5
5E
330
1F
100
AcDbEntity
  8
0
  6
Continuous
 62
     7
370
    15
100
AcDbCircle
 10
363.3104088789
 20
301.7214042901
 30
0.0
 40
2.0
100
AcDbArc
 50
270.0
 51
0.0
  0
ARC
  5
5F
330
1F
100
AcDbEntity
  8
0
  6
Continuous
 62
     7
370
    15
100
AcDbCircle
 10
310.3104088789
 20
301.7214042901
 30
0.0
 40
2.0
100
AcDbArc
 50
180.0
 51
270.0
  0
LINE
  5
60
330
1F
100
AcDbEntity
  8
0
  6
Continuous
 62
     7
370
    15
100
AcDbLine
 10
365.3104083236
 20
301.7214008179
 30
0.0
 11
365.3104083236
 21
305.7214014735
 31
0.0
  0
LINE
  5
61
330
1F
100
AcDbEntity
  8
0
  6
Continuous
 62
     7
370
    15
100
AcDbLine
 10
308.310397118
 20
305.7214014735
 30
0.0
 11
308.310397118
 21
301.7214008179
 31
0.0
  0
LINE
  5
62
330
1F
100
AcDbEntity
  8
0
  6
Continuous
 62
     7
370
    15
100
AcDbLine
 10
1113.3104042705
 20
301.7214008179
 30
0.0
 11
1113.3104042705
 21
305.7214014735
 31
0.0
  0
LINE
  5
63
330
1F
100
AcDbEntity
  8
0
  6
Continuous
 62
     7
370
    15
100
AcDbLine
 10
1056.3104228672
 20
305.7214014735
 30
0.0
 11
1056.3104228672
 21
301.7214008179
 31
0.0
  0
ARC
  5
64
330
1F
100
AcDbEntity
  8
0
  6
Continuous
 62
     7
370
    15
100
AcDbCircle
 10
1111.3104088789
 20
301.7214042901
 30
0.0
 40
2.0
100
AcDbArc
 50
270.0
 51
0.0
  0
ARC
  5
65
330
1F
100
AcDbEntity
  8
0
  6
Continuous
 62
     7
370
    15
100
AcDbCircle
 10
1058.3104088789
 20
301.7214042901
 30
0.0
 40
2.0
100
AcDbArc
 50
180.0
 51
270.0
  0
LINE
  5
66
330
1F
100
AcDbEntity
  8
0
  6
Continuous
 62
     7
370
    15
100
AcDbLine
 10
365.1104049381
 20
305.7214014735
 30
0.0
 11
365.1104049381
 21
373.721405169
 31
0.0
  0
LINE
  5
67
330
1F
100
AcDbEntity
  8
0
  6
Continuous
 62
     7
370
    15
100
AcDbLine
 10
308.5104005035
 20
373.721405169
 30
0.0
 11
308.5104005035
 21
305.7214014735
 31
0.0
  0
LINE
  5
68
330
1F
100
AcDbEntity
  8
0
  6
Continuous
 62
     7
370
    15
100
AcDbLine
 10
1113.110400885
 20
305.7214014735
 30
0.0
 11
1113.110400885
 21
373.721405169
 31
0.0
  0
LINE
  5
69
330
1F
100
AcDbEntity
  8
0
  6
Continuous
 62
     7
370
    15
100
AcDbLine
 10
1056.5103964504
 20
373.721405169
 30
0.0
 11
1056.5103964504
 21
305.7214014735
 31
0.0
  0
ARC
  5
6A
330
1F
100
AcDbEntity
  8
0
  6
Continuous
 62
     7
370
    15
100
AcDbCircle
 10
1118.2104088789
 20
466.2214042901
 30
0.0
 40
1.5
100
AcDbArc
 50
90.0
 51
180.0
  0
ARC
  5
6B
330
1F
100
AcDbEntity
  8
0
  6
Continuous
 62
     7
370
    15
100
AcDbCircle
 10
1051.4104088789
 20
466.2214042901
 30
0.0
 40
1.500000000000227
100
AcDbArc
 50
0.0
 51
90.0
  0
ARC
  5
6C
330
1F
100
AcDbEntity
  8
0
  6
Continuous
 62
     7
370
    15
100
AcDbCircle
 10
1112.0104088789
 20
379.7539702358
 30
0.0
 40
4.700000000000045
100
AcDbArc
 50
350.5402980318
 51
0.0
  0
ARC
  5
6D
330
1F
100
AcDbEntity
  8
0
  6
Continuous
 62
     7
370
    15
100
AcDbCircle
 10
1057.6104088789
 20
379.7539702358
 30
0.0
 40
4.700000000000244
100
AcDbArc
 50
180.0
 51
189.4597019682
  0
LINE
  5
6E
330
1F
100
AcDbEntity
  8
0
  6
Continuous
 62
     7
370
    15
100
AcDbLine
 10
1116.7104022201
 20
379.7539698463
 30
0.0
 11
1116.7104022201
 21
466.2214063611
 31
0.0
  0
LINE
  5
6F
330
1F
100
AcDbEntity
  8
0
  6
Continuous
 62
     7
370
    15
100
AcDbLine
 10
1052.9103951153
 20
466.2214063611
 30
0.0
 11
1052.9103951153
 21
379.7539698463
 31
0.0
  0
LINE
  5
70
330
1F
100
AcDbEntity
  8
0
  6
Continuous
 62
     7
370
    15
100
AcDbLine
 10
1052.9743210968
 20
378.9815066886
 30
0.0
 11
1053.8507477936
 21
373.721405169
 31
0.0
  0
LINE
  5
71
330
1F
100
AcDbEntity
  8
0
  6
Continuous
 62
     7
370
    15
100
AcDbLine
 10
1115.7700495418
 20
373.721405169
 30
0.0
 11
1116.6465060409
 21
378.9815066886
 31
0.0
  0
ARC
  5
72
330
1F
100
AcDbEntity
  8
0
  6
Continuous
 62
     7
370
    15
100
AcDbCircle
 10
370.2104088789
 20
466.2214042901
 30
0.0
 40
1.500000000000057
100
AcDbArc
 50
90.0
 51
180.0
  0
ARC
  5
73
330
1F
100
AcDbEntity
  8
0
  6
Continuous
 62
     7
370
    15
100
AcDbCircle
 10
303.4104088789
 20
466.2214042901
 30
0.0
 40
1.500000000000057
100
AcDbArc
 50
0.0
 51
90.0
  0
LINE
  5
74
330
1F
100
AcDbEntity
  8
0
  6
Continuous
 62
     7
370
    15
100
AcDbLine
 10
368.7104062732
 20
379.7539698463
 30
0.0
 11
368.7104062732
 21
466.2214063611
 31
0.0
  0
LINE
  5
75
330
1F
100
AcDbEntity
  8
0
  6
Continuous
 62
     7
370
    15
100
AcDbLine
 10
304.9103991684
 20
466.2214063611
 30
0.0
 11
304.9103991684
 21
379.7539698463
 31
0.0
  0
ARC
  5
76
330
1F
100
AcDbEntity
  8
0
  6
Continuous
 62
     7
370
    15
100
AcDbCircle
 10
364.0104088789
 20
379.7539702358
 30
0.0
 40
4.700000000000029
100
AcDbArc
 50
350.5402980318
 51
0.0
  0
ARC
  5
77
330
1F
100
AcDbEntity
  8
0
  6
Continuous
 62
     7
370
    15
100
AcDbCircle
 10
309.6104088789
 20
379.7539702358
 30
0.0
 40
4.700000000000029
100
AcDbArc
 50
180.0
 51
189.4597019682
  0
LINE
  5
78
330
1F
100
AcDbEntity
  8
0
  6
Continuous
 62
     7
370
    15
100
AcDbLine
 10
304.9743251499
 20
378.9815066886
 30
0.0
 11
305.8507518467
 21
373.721405169
 31
0.0
  0
LINE
  5
79
330
1F
100
AcDbEntity
  8
0
  6
Continuous
 62
     7
370
    15
100
AcDbLine
 10
367.7700535949
 20
373.721405169
 30
0.0
 11
368.646510094
 21
378.9815066886
 31
0.0
  0
LWPOLYLINE
  5
7A
330
1F
100
AcDbEntity
  8
0
  6
Continuous
 62
     7
370
    15
100
AcDbPolyline
 90
        3
 70
   128
 43
0.0
 10
315.5103997883
 20
546.5217374768
 10
315.5243472751
 20
546.5171777215
 10
316.7603985962
 20
546.3214062658
  0
LWPOLYLINE
  5
7B
330
1F
100
AcDbEntity
  8
0
  6
Continuous
 62
     7
370
    15
100
AcDbPolyline
 90
        3
 70
   128
 43
0.0
 10
1106.0104148086
 20
546.5217374768
 10
1105.9964673218
 20
546.5171777215
 10
1104.7604160007
 20
546.3214062658
  0
LWPOLYLINE
  5
7C
330
1F
100
AcDbEntity
  8
0
  6
Continuous
 62
     7
370
    15
100
AcDbPolyline
 90
        3
 70
   128
 43
0.0
 10
1100.7604078945
 20
546.3214062658
 10
1099.5243267711
 20
546.5171777215
 10
1099.5104090866
 20
546.5217374768
  0
LINE
  5
7D
330
1F
100
AcDbEntity
  8
0
  6
Continuous
 62
     7
370
    15
100
AcDbLine
 10
316.7603985962
 20
546.3214062658
 30
0.0
 11
320.7604067024
 21
546.3214062658
 31
0.0
  0
LWPOLYLINE
  5
7E
330
1F
100
AcDbEntity
  8
0
  6
Continuous
 62
     7
370
    15
100
AcDbPolyline
 90
        3
 70
   128
 43
0.0
 10
320.7604067024
 20
546.3214062658
 10
321.9964878257
 20
546.5171777215
 10
322.0104055103
 20
546.5217374768
  0
LINE
  5
7F
330
1F
100
AcDbEntity
  8
0
  6
Continuous
 62
     7
370
    15
100
AcDbLine
 10
1104.7604160007
 20
546.3214062658
 30
0.0
 11
1100.7604078945
 21
546.3214062658
 31
0.0
  0
LINE
  5
80
330
1F
100
AcDbEntity
  8
0
  6
Continuous
 62
     7
370
    15
100
AcDbLine
 10
1160.7604102787
 20
1027.9660366979
 30
0.0
 11
1160.7604102787
 21
1045.0568341222
 31
0.0
  0
LINE
  5
81
330
1F
100
AcDbEntity
  8
0
  6
Continuous
 62
     7
370
    15
100
AcDbLine
 10
260.7604043182
 20
1027.9660366979
 30
0.0
 11
260.7604043182
 21
1045.0568341222
 31
0.0
  0
LINE
  5
82
330
1F
100
AcDbEntity
  8
0
  6
Continuous
 62
     7
370
    15
100
AcDbLine
 10
1160.7604102787
 20
1013.1660245862
 30
0.0
 11
1160.7604102787
 21
1027.9660366979
 31
0.0
  0
LINE
  5
83
330
1F
100
AcDbEntity
  8
0
  6
Continuous
 62
     7
370
    15
100
AcDbLine
 10
260.7604043182
 20
1013.1660245862
 30
0.0
 11
260.7604043182
 21
1027.9660366979
 31
0.0
  0
LWPOLYLINE
  5
84
330
1F
100
AcDbEntity
  8
0
  6
Continuous
 62
     7
370
    15
100
AcDbPolyline
 90
       17
 70
   128
 43
0.0
 10
839.2604069408
 20
1048.310234448
 10
840.2225004133
 20
1048.0794452634
 10
840.9070597585
 20
1047.75281181
 10
841.2369416651
 20
1047.367050549
 10
841.1749379333
 20
1046.9657324758
 10
840.7280521091
 20
1046.594037911
 10
839.9466501173
 20
1046.2938689199
 10
838.9188127216
 20
1046.0990809407
 10
837.7604113516
 20
1046.0316084829
 10
836.6019950804
 20
1046.0990809407
 10
835.5741725858
 20
1046.2938689199
 10
834.792770594
 20
1046.594037911
 10
834.3458847698
 20
1046.9657324758
 10
834.2838810381
 20
1047.367050549
 10
834.613755494
 20
1047.75281181
 10
835.2983222898
 20
1048.0794452634
 10
836.2604157623
 20
1048.310234448
  0
LINE
  5
85
330
1F
100
AcDbEntity
  8
0
  6
Continuous
 62
     7
370
    15
100
AcDbLine
 10
839.2604069408
 20
1048.310234448
 30
0.0
 11
839.2604069408
 21
1050.6488226857
 31
0.0
  0
LWPOLYLINE
  5
86
330
1F
100
AcDbEntity
  8
0
  6
Continuous
 62
     7
370
    15
100
AcDbPolyline
 90
        9
 70
   128
 43
0.0
 10
836.2604157623
 20
1050.6548427549
 10
836.3804446157
 20
1050.8500479665
 10
836.70901522
 20
1051.0147952047
 10
837.196462005
 20
1051.1242889371
 10
837.769143432
 20
1051.161899468
 10
838.3404837545
 20
1051.121964356
 10
838.8241605457
 20
1051.0105632749
 10
839.1470687088
 20
1050.8445047345
 10
839.2604069408
 20
1050.6488226857
  0
LINE
  5
87
330
1F
100
AcDbEntity
  8
0
  6
Continuous
 62
     7
370
    15
100
AcDbLine
 10
836.2604157623
 20
1048.310234448
 30
0.0
 11
836.2604157623
 21
1050.6548427549
 31
0.0
  0
LINE
  5
88
330
1F
100
AcDbEntity
  8
0
  6
Continuous
 62
     7
370
    15
100
AcDbLine
 10
1160.7604102787
 20
1045.0568341222
 30
0.0
 11
1160.7604102787
 21
1052.1361969915
 31
0.0
  0
LINE
  5
89
330
1F
100
AcDbEntity
  8
0
  6
Continuous
 62
     7
370
    15
100
AcDbLine
 10
1133.7018983062
 20
1047.4503778424
 30
0.0
 11
1131.3880757984
 21
1048.5965155568
 31
0.0
  0
LINE
  5
8A
330
1F
100
AcDbEntity
  8
0
  6
Continuous
 62
     7
370
    15
100
AcDbLine
 10
1134.2604236301
 20
1050.0428222623
 30
0.0
 11
1131.3880757984
 21
1048.5965155568
 31
0.0
  0
LINE
  5
8B
330
1F
100
AcDbEntity
  8
0
  6
Continuous
 62
     7
370
    15
100
AcDbLine
 10
1129.7923402485
 20
1049.5516203847
 30
0.0
 11
1134.2604236301
 21
1050.0428222623
 31
0.0
  0
LINE
  5
8C
330
1F
100
AcDbEntity
  8
0
  6
Continuous
 62
     7
370
    15
100
AcDbLine
 10
1129.7923402485
 20
1049.5516203847
 30
0.0
 11
1127.1593348678
 21
1051.1343621221
 31
0.0
  0
LINE
  5
8D
330
1F
100
AcDbEntity
  8
0
  6
Continuous
 62
     7
370
    15
100
AcDbLine
 10
1125.5635993179
 20
1049.3878864255
 30
0.0
 11
1127.1593348678
 21
1051.1343621221
 31
0.0
  0
LINE
  5
8E
330
1F
100
AcDbEntity
  8
0
  6
Continuous
 62
     7
370
    15
100
AcDbLine
 10
1125.5635993179
 20
1049.3878864255
 30
0.0
 11
1121.7338220772
 21
1049.5516203847
 31
0.0
  0
LINE
  5
8F
330
1F
100
AcDbEntity
  8
0
  6
Continuous
 62
     7
370
    15
100
AcDbLine
 10
1124.4465784725
 20
1048.5965155568
 30
0.0
 11
1121.7338220772
 21
1049.5516203847
 31
0.0
  0
LINE
  5
90
330
1F
100
AcDbEntity
  8
0
  6
Continuous
 62
     7
370
    15
100
AcDbLine
 10
1117.664672583
 20
1046.38613691
 30
0.0
 11
1124.4465784725
 21
1048.5965155568
 31
0.0
  0
LINE
  5
91
330
1F
100
AcDbEntity
  8
0
  6
Continuous
 62
     7
370
    15
100
AcDbLine
 10
1117.664672583
 20
1046.38613691
 30
0.0
 11
1126.4412777122
 21
1047.7778457608
 31
0.0
  0
LINE
  5
92
330
1F
100
AcDbEntity
  8
0
  6
Continuous
 62
     7
370
    15
100
AcDbLine
 10
1126.4412777122
 20
1047.7778457608
 30
0.0
 11
1128.6753194031
 21
1046.004071137
 31
0.0
  0
LINE
  5
93
330
1F
100
AcDbEntity
  8
0
  6
Continuous
 62
     7
370
    15
100
AcDbLine
 10
1128.9944426712
 20
1047.7778457608
 30
0.0
 11
1128.6753194031
 21
1046.004071137
 31
0.0
  0
LINE
  5
94
330
1F
100
AcDbEntity
  8
0
  6
Continuous
 62
     7
370
    15
100
AcDbLine
 10
1128.9944426712
 20
1047.7778457608
 30
0.0
 11
1133.7018983062
 21
1047.4503778424
 31
0.0
  0
LINE
  5
95
330
1F
100
AcDbEntity
  8
0
  6
Continuous
 62
     7
370
    15
100
AcDbLine
 10
260.7604043182
 20
1045.0568341222
 30
0.0
 11
260.7604043182
 21
1052.1361969915
 31
0.0
  0
LINE
  5
96
330
1F
100
AcDbEntity
  8
0
  6
Continuous
 62
     7
370
    15
100
AcDbLine
 10
1117.7208201584
 20
1046.395018002
 30
0.0
 11
1124.4465784725
 21
1048.587098023
 31
0.0
  0
LINE
  5
97
330
1F
100
AcDbEntity
  8
0
  6
Continuous
 62
     7
370
    15
100
AcDbLine
 10
1125.5635993179
 20
1049.3784688916
 30
0.0
 11
1121.7641906437
 21
1049.5409511533
 31
0.0
  0
LINE
  5
98
330
1F
100
AcDbEntity
  8
0
  6
Continuous
 62
     7
370
    15
100
AcDbLine
 10
1125.5635993179
 20
1049.3784688916
 30
0.0
 11
1127.1593348678
 21
1051.1250041928
 31
0.0
  0
LINE
  5
99
330
1F
100
AcDbEntity
  8
0
  6
Continuous
 62
     7
370
    15
100
AcDbLine
 10
1129.7923402485
 20
1049.5422028508
 30
0.0
 11
1127.1593348678
 21
1051.1250041928
 31
0.0
  0
LINE
  5
9A
330
1F
100
AcDbEntity
  8
0
  6
Continuous
 62
     7
370
    15
100
AcDbLine
 10
1129.7923402485
 20
1049.5422028508
 30
0.0
 11
1134.2365221676
 21
1050.0307821241
 31
0.0
  0
LINE
  5
9B
330
1F
100
AcDbEntity
  8
0
  6
Continuous
 62
     7
370
    15
100
AcDbLine
 10
1133.6798147854
 20
1047.4519275632
 30
0.0
 11
1131.3880757984
 21
1048.587098023
 31
0.0
  0
LINE
  5
9C
330
1F
100
AcDbEntity
  8
0
  6
Continuous
 62
     7
370
    15
100
AcDbLine
 10
1131.8011359867
 20
1049.4038008657
 30
0.0
 11
1130.1854626831
 21
1048.5902570691
 31
0.0
  0
LINE
  5
9D
330
1F
100
AcDbEntity
  8
0
  6
Continuous
 62
     7
370
    15
100
AcDbLine
 10
1125.8535163101
 20
1048.5826276746
 30
0.0
 11
1124.4349555668
 21
1049.0820549932
 31
0.0
  0
LINE
  5
9E
330
1F
100
AcDbEntity
  8
0
  6
Continuous
 62
     7
370
    15
100
AcDbLine
 10
1122.7404253181
 20
1047.5586198774
 30
0.0
 11
1126.9530729946
 21
1048.2266091314
 31
0.0
  0
LINE
  5
9F
330
1F
100
AcDbEntity
  8
0
  6
Continuous
 62
     7
370
    15
100
AcDbLine
 10
1126.9530729946
 20
1048.2266091314
 30
0.0
 11
1127.934761494
 21
1047.4471591916
 31
0.0
  0
LINE
  5
A0
330
1F
100
AcDbEntity
  8
0
  6
Continuous
 62
     7
370
    15
100
AcDbLine
 10
1128.0669645962
 20
1048.1820248571
 30
0.0
 11
1127.934761494
 21
1047.4471591916
 31
0.0
  0
LINE
  5
A1
330
1F
100
AcDbEntity
  8
0
  6
Continuous
 62
     7
370
    15
100
AcDbLine
 10
1128.0669645962
 20
1048.1820248571
 30
0.0
 11
1131.4683930572
 21
1047.9453944173
 31
0.0
  0
LINE
  5
A2
330
1F
100
AcDbEntity
  8
0
  6
Continuous
 62
     7
370
    15
100
AcDbLine
 10
836.2604157623
 20
1048.3008169141
 30
0.0
 11
836.2604157623
 21
1048.310234448
 31
0.0
  0
LWPOLYLINE
  5
A3
330
1F
100
AcDbEntity
  8
0
  6
Continuous
 62
     7
370
    15
100
AcDbPolyline
 90
        5
 70
   128
 43
0.0
 10
839.2604069408
 20
1048.3008169141
 10
840.2225004133
 20
1048.0700873342
 10
840.9070597585
 20
1047.7433942762
 10
841.2369416651
 20
1047.3576926198
 10
841.2604109939
 20
1047.2192906346
  0
LWPOLYLINE
  5
A4
330
1F
100
AcDbEntity
  8
0
  6
Continuous
 62
     7
370
    15
100
AcDbPolyline
 90
        5
 70
   128
 43
0.0
 10
834.2604117092
 20
1047.2192906346
 10
834.2838810381
 20
1047.3576926198
 10
834.613755494
 20
1047.7433942762
 10
835.2983222898
 20
1048.0700873342
 10
836.2604157623
 20
1048.3008169141
  0
LINE
  5
A5
330
1F
100
AcDbEntity
  8
0
  6
Continuous
 62
     7
370
    15
100
AcDbLine
 10
839.2604069408
 20
1048.3008169141
 30
0.0
 11
839.2604069408
 21
1048.310234448
 31
0.0
  0
LWPOLYLINE
  5
A6
330
1F
100
AcDbEntity
  8
0
  6
Continuous
 62
     7
370
    15
100
AcDbPolyline
 90
        9
 70
   128
 43
0.0
 10
836.2604157623
 20
1050.645425221
 10
836.3804446157
 20
1050.8406304326
 10
836.70901522
 20
1051.0053776708
 10
837.196462005
 20
1051.1148714032
 10
837.769143432
 20
1051.1524819341
 10
838.3404837545
 20
1051.1126064267
 10
838.8241605457
 20
1051.001145741
 10
839.1470687088
 20
1050.8350872007
 10
839.2604069408
 20
1050.6394647565
  0
LINE
  5
A7
330
1F
100
AcDbEntity
  8
0
  6
Continuous
 62
     7
370
    15
100
AcDbLine
 10
836.8604110178
 20
1049.1336726155
 30
0.0
 11
837.2604028877
 21
1049.1336726155
 31
0.0
  0
LWPOLYLINE
  5
A8
330
1F
100
AcDbEntity
  8
0
  6
Continuous
 62
     7
370
    15
100
AcDbPolyline
 90
       10
 70
   128
 43
0.0
 10
840.2604089674
 20
1047.2192906346
 10
840.2112202343
 20
1047.0504902806
 10
839.8367689546
 20
1046.7430495229
 10
839.1472475227
 20
1046.5078495946
 10
838.2473216947
 20
1046.380593678
 10
837.2735010084
 20
1046.380593678
 10
836.3735602792
 20
1046.5078495946
 10
835.6840537485
 20
1046.7430495229
 10
835.3095950183
 20
1047.0504902806
 10
835.2604062852
 20
1047.2192906346
  0
LINE
  5
A9
330
1F
100
AcDbEntity
  8
0
  6
Continuous
 62
     7
370
    15
100
AcDbLine
 10
838.2604049143
 20
1049.1336726155
 30
0.0
 11
838.6604116853
 21
1049.1336726155
 31
0.0
  0
LWPOLYLINE
  5
AA
330
1F
100
AcDbEntity
  8
0
  6
Continuous
 62
     7
370
    15
100
AcDbPolyline
 90
        9
 70
   128
 43
0.0
 10
836.8604110178
 20
1050.653471848
 10
836.9334416088
 20
1050.7704161611
 10
837.1311800178
 20
1050.8689426389
 10
837.4237941202
 20
1050.9343289342
 10
837.7671615776
 20
1050.956680676
 10
838.1095008548
 20
1050.9326003995
 10
838.3991943296
 20
1050.8657239881
 10
838.5925517973
 20
1050.7661246267
 10
838.6604116853
 20
1050.6488226857
  0
LINE
  5
AB
330
1F
100
AcDbEntity
  8
0
  6
Continuous
 62
     7
370
    15
100
AcDbLine
 10
838.6604116853
 20
1049.1430305448
 30
0.0
 11
838.6604116853
 21
1050.6488226857
 31
0.0
  0
LINE
  5
AC
330
1F
100
AcDbEntity
  8
0
  6
Continuous
 62
     7
370
    15
100
AcDbLine
 10
838.2604049143
 20
1049.1430305448
 30
0.0
 11
838.6604116853
 21
1049.1430305448
 31
0.0
  0
LINE
  5
AD
330
1F
100
AcDbEntity
  8
0
  6
Continuous
 62
     7
370
    15
100
AcDbLine
 10
838.2604049143
 20
1048.0664514508
 30
0.0
 11
838.2604049143
 21
1049.1430305448
 31
0.0
  0
LWPOLYLINE
  5
AE
330
1F
100
AcDbEntity
  8
0
  6
Continuous
 62
     7
370
    15
100
AcDbPolyline
 90
       16
 70
   128
 43
0.0
 10
838.2604049143
 20
1048.0664514508
 10
839.1583488878
 20
1047.9375266042
 10
839.8441748317
 20
1047.7010749784
 10
840.2138279375
 20
1047.3929785695
 10
840.2112202343
 20
1047.0599078145
 10
839.8367689546
 20
1046.7524074521
 10
839.1472475227
 20
1046.5172671285
 10
838.2473216947
 20
1046.3900112119
 10
837.2735010084
 20
1046.3900112119
 10
836.3735602792
 20
1046.5172671285
 10
835.6840537485
 20
1046.7524074521
 10
835.3095950183
 20
1047.0599078145
 10
835.3069947656
 20
1047.3929785695
 10
835.6766478714
 20
1047.7010749784
 10
836.3624738153
 20
1047.9375266042
 10
837.2604028877
 20
1048.0664514508
  0
LINE
  5
AF
330
1F
100
AcDbEntity
  8
0
  6
Continuous
 62
     7
370
    15
100
AcDbLine
 10
837.2604028877
 20
1048.0664514508
 30
0.0
 11
837.2604028877
 21
1049.1430305448
 31
0.0
  0
LINE
  5
B0
330
1F
100
AcDbEntity
  8
0
  6
Continuous
 62
     7
370
    15
100
AcDbLine
 10
836.8604110178
 20
1049.1430305448
 30
0.0
 11
837.2604028877
 21
1049.1430305448
 31
0.0
  0
LINE
  5
B1
330
1F
100
AcDbEntity
  8
0
  6
Continuous
 62
     7
370
    15
100
AcDbLine
 10
836.8604110178
 20
1049.1430305448
 30
0.0
 11
836.8604110178
 21
1050.653471848
 31
0.0
  0
LINE
  5
B2
330
1F
100
AcDbEntity
  8
0
  6
Continuous
 62
     7
370
    15
100
AcDbLine
 10
1124.4465784725
 20
1048.587098023
 30
0.0
 11
1124.4465784725
 21
1048.5965155568
 31
0.0
  0
LINE
  5
B3
330
1F
100
AcDbEntity
  8
0
  6
Continuous
 62
     7
370
    15
100
AcDbLine
 10
1131.3880757984
 20
1048.587098023
 30
0.0
 11
1131.3880757984
 21
1048.5965155568
 31
0.0
  0
LINE
  5
B4
330
1F
100
AcDbEntity
  8
0
  6
Continuous
 62
     7
370
    15
100
AcDbLine
 10
1126.9530729946
 20
1048.2360266652
 30
0.0
 11
1127.934761494
 21
1047.4565767255
 31
0.0
  0
LINE
  5
B5
330
1F
100
AcDbEntity
  8
0
  6
Continuous
 62
     7
370
    15
100
AcDbLine
 10
1122.7404253181
 20
1047.5679778066
 30
0.0
 11
1126.9530729946
 21
1048.2360266652
 31
0.0
  0
LINE
  5
B6
330
1F
100
AcDbEntity
  8
0
  6
Continuous
 62
     7
370
    15
100
AcDbLine
 10
1122.7404253181
 20
1047.5679778066
 30
0.0
 11
1125.86737439
 21
1048.5871576276
 31
0.0
  0
LINE
  5
B7
330
1F
100
AcDbEntity
  8
0
  6
Continuous
 62
     7
370
    15
100
AcDbLine
 10
1125.86737439
 20
1048.5871576276
 30
0.0
 11
1124.4349555668
 21
1049.091472527
 31
0.0
  0
LINE
  5
B8
330
1F
100
AcDbEntity
  8
0
  6
Continuous
 62
     7
370
    15
100
AcDbLine
 10
1126.2688116726
 20
1049.0130328145
 30
0.0
 11
1124.4349555668
 21
1049.091472527
 31
0.0
  0
LINE
  5
B9
330
1F
100
AcDbEntity
  8
0
  6
Continuous
 62
     7
370
    15
100
AcDbLine
 10
1126.2688116726
 20
1049.0130328145
 30
0.0
 11
1127.4277047809
 21
1050.2814196553
 31
0.0
  0
LINE
  5
BA
330
1F
100
AcDbEntity
  8
0
  6
Continuous
 62
     7
370
    15
100
AcDbLine
 10
1129.3249206241
 20
1049.1410039869
 30
0.0
 11
1127.4277047809
 21
1050.2814196553
 31
0.0
  0
LINE
  5
BB
330
1F
100
AcDbEntity
  8
0
  6
Continuous
 62
     7
370
    15
100
AcDbLine
 10
1129.3249206241
 20
1049.1410039869
 30
0.0
 11
1131.8011359867
 21
1049.4132183995
 31
0.0
  0
LINE
  5
BC
330
1F
100
AcDbEntity
  8
0
  6
Continuous
 62
     7
370
    15
100
AcDbLine
 10
1131.8011359867
 20
1049.4132183995
 30
0.0
 11
1130.1760451492
 21
1048.5949062314
 31
0.0
  0
LINE
  5
BD
330
1F
100
AcDbEntity
  8
0
  6
Continuous
 62
     7
370
    15
100
AcDbLine
 10
1131.4683930572
 20
1047.9547523465
 30
0.0
 11
1130.1760451492
 21
1048.5949062314
 31
0.0
  0
LINE
  5
BE
330
1F
100
AcDbEntity
  8
0
  6
Continuous
 62
     7
370
    15
100
AcDbLine
 10
1128.0669645962
 20
1048.1913827863
 30
0.0
 11
1131.4683930572
 21
1047.9547523465
 31
0.0
  0
LINE
  5
BF
330
1F
100
AcDbEntity
  8
0
  6
Continuous
 62
     7
370
    15
100
AcDbLine
 10
1128.0669645962
 20
1048.1913827863
 30
0.0
 11
1127.934761494
 21
1047.4565767255
 31
0.0
  0
LINE
  5
C0
330
1F
100
AcDbEntity
  8
0
  6
Continuous
 62
     7
370
    15
100
AcDbLine
 10
1127.934761494
 20
1047.4471591916
 30
0.0
 11
1127.934761494
 21
1047.4565767255
 31
0.0
  0
LINE
  5
C1
330
1F
100
AcDbEntity
  8
0
  6
Continuous
 62
     7
370
    15
100
AcDbLine
 10
1126.9530729946
 20
1048.2266091314
 30
0.0
 11
1126.9530729946
 21
1048.2360266652
 31
0.0
  0
LINE
  5
C2
330
1F
100
AcDbEntity
  8
0
  6
Continuous
 62
     7
370
    15
100
AcDbLine
 10
1128.0669645962
 20
1048.1820248571
 30
0.0
 11
1128.0669645962
 21
1048.1913827863
 31
0.0
  0
LINE
  5
C3
330
1F
100
AcDbEntity
  8
0
  6
Continuous
 62
     7
370
    15
100
AcDbLine
 10
1122.7404253181
 20
1047.5586198774
 30
0.0
 11
1122.7404253181
 21
1047.5679778066
 31
0.0
  0
LINE
  5
C4
330
1F
100
AcDbEntity
  8
0
  6
Continuous
 62
     7
370
    15
100
AcDbLine
 10
1160.7604102787
 20
1012.4337219205
 30
0.0
 11
260.7604043182
 21
1012.4337219205
 31
0.0
  0
LINE
  5
C5
330
1F
100
AcDbEntity
  8
0
  6
Continuous
 62
     7
370
    15
100
AcDbLine
 10
1160.7604102787
 20
1012.4337219205
 30
0.0
 11
1160.7604102787
 21
1013.1660245862
 31
0.0
  0
LINE
  5
C6
330
1F
100
AcDbEntity
  8
0
  6
Continuous
 62
     7
370
    15
100
AcDbLine
 10
260.7604043182
 20
1012.4337219205
 30
0.0
 11
260.7604043182
 21
1013.1660245862
 31
0.0
  0
LINE
  5
C7
330
1F
100
AcDbEntity
  8
0
  6
Continuous
 62
     7
370
    15
100
AcDbLine
 10
1131.4683930572
 20
1047.9453944173
 30
0.0
 11
1131.4683930572
 21
1047.9547523465
 31
0.0
  0
LINE
  5
C8
330
1F
100
AcDbEntity
  8
0
  6
Continuous
 62
     7
370
    15
100
AcDbLine
 10
1124.4349555668
 20
1049.0820549932
 30
0.0
 11
1124.4349555668
 21
1049.091472527
 31
0.0
  0
LINE
  5
C9
330
1F
100
AcDbEntity
  8
0
  6
Continuous
 62
     7
370
    15
100
AcDbLine
 10
1131.8011359867
 20
1049.4038008657
 30
0.0
 11
1131.8011359867
 21
1049.4132183995
 31
0.0
  0
LINE
  5
CA
330
1F
100
AcDbEntity
  8
0
  6
Continuous
 62
     7
370
    15
100
AcDbLine
 10
838.6604116853
 20
1049.1336726155
 30
0.0
 11
838.6604116853
 21
1049.1430305448
 31
0.0
  0
LINE
  5
CB
330
1F
100
AcDbEntity
  8
0
  6
Continuous
 62
     7
370
    15
100
AcDbLine
 10
836.8604110178
 20
1049.1336726155
 30
0.0
 11
836.8604110178
 21
1049.1430305448
 31
0.0
  0
LINE
  5
CC
330
1F
100
AcDbEntity
  8
0
  6
Continuous
 62
     7
370
    15
100
AcDbLine
 10
1127.1593348678
 20
1051.1250041928
 30
0.0
 11
1127.1593348678
 21
1051.1343621221
 31
0.0
  0
LINE
  5
CD
330
1F
100
AcDbEntity
  8
0
  6
Continuous
 62
     7
370
    15
100
AcDbLine
 10
1125.5635993179
 20
1049.3784688916
 30
0.0
 11
1125.5635993179
 21
1049.3878864255
 31
0.0
  0
LINE
  5
CE
330
1F
100
AcDbEntity
  8
0
  6
Continuous
 62
     7
370
    15
100
AcDbLine
 10
1129.7923402485
 20
1049.5422028508
 30
0.0
 11
1129.7923402485
 21
1049.5516203847
 31
0.0
  0
LINE
  5
CF
330
1F
100
AcDbEntity
  8
0
  6
Continuous
 62
     7
370
    15
100
AcDbLine
 10
1160.7604102787
 20
1052.1361969915
 30
0.0
 11
1160.7604102787
 21
1058.4429644551
 31
0.0
  0
LINE
  5
D0
330
1F
100
AcDbEntity
  8
0
  6
Continuous
 62
     7
370
    15
100
AcDbLine
 10
260.7604043182
 20
1052.1361969915
 30
0.0
 11
260.7604043182
 21
1058.4429644551
 31
0.0
  0
ARC
  5
D1
330
1F
100
AcDbEntity
  8
0
  6
Continuous
 62
     7
370
    15
100
AcDbCircle
 10
291.5104107555
 20
1131.9670436905
 30
0.0
 40
0.2502153900844768
100
AcDbArc
 50
182.3121376101
 51
357.6878623899
  0
LINE
  5
D2
330
1F
100
AcDbEntity
  8
0
  6
Continuous
 62
     7
370
    15
100
AcDbLine
 10
291.760422438
 20
1131.9569491353
 30
0.0
 11
291.760422438
 21
1133.0273293462
 31
0.0
  0
LINE
  5
D3
330
1F
100
AcDbEntity
  8
0
  6
Continuous
 62
     7
370
    15
100
AcDbLine
 10
311.2604098018
 20
1133.0273293462
 30
0.0
 11
291.760422438
 21
1133.0273293462
 31
0.0
  0
LINE
  5
D4
330
1F
100
AcDbEntity
  8
0
  6
Continuous
 62
     7
370
    15
100
AcDbLine
 10
311.2604098018
 20
1133.3049081769
 30
0.0
 11
311.2604098018
 21
1133.0273293462
 31
0.0
  0
LINE
  5
D5
330
1F
100
AcDbEntity
  8
0
  6
Continuous
 62
     7
370
    15
100
AcDbLine
 10
1110.260404795
 20
1133.3049081769
 30
0.0
 11
1110.260404795
 21
1133.0273293462
 31
0.0
  0
LINE
  5
D6
330
1F
100
AcDbEntity
  8
0
  6
Continuous
 62
     7
370
    15
100
AcDbLine
 10
1129.7604219612
 20
1133.0273293462
 30
0.0
 11
1110.260404795
 21
1133.0273293462
 31
0.0
  0
LINE
  5
D7
330
1F
100
AcDbEntity
  8
0
  6
Continuous
 62
     7
370
    15
100
AcDbLine
 10
1129.7604219612
 20
1133.0273293462
 30
0.0
 11
1129.7604219612
 21
1131.9569491353
 31
0.0
  0
ARC
  5
D8
330
1F
100
AcDbEntity
  8
0
  6
Continuous
 62
     7
370
    15
100
AcDbCircle
 10
1130.0104187425
 20
1131.9670341414
 30
0.0
 40
0.250200115971387
100
AcDbArc
 50
182.3100903186
 51
357.6899096814
  0
ARC
  5
D9
330
1F
100
AcDbEntity
  8
0
  6
Continuous
 62
     7
370
    15
100
AcDbCircle
 10
1145.5103980001
 20
1131.9670236967
 30
0.0
 40
0.2501996951856765
100
AcDbArc
 50
182.3077004189
 51
357.6922995811
  0
LINE
  5
DA
330
1F
100
AcDbEntity
  8
0
  6
Continuous
 62
     7
370
    15
100
AcDbLine
 10
1145.7603947815
 20
1131.9569491353
 30
0.0
 11
1145.7603947815
 21
1133.3049081769
 31
0.0
  0
LINE
  5
DB
330
1F
100
AcDbEntity
  8
0
  6
Continuous
 62
     7
370
    15
100
AcDbLine
 10
1160.7604102787
 20
1058.4429644551
 30
0.0
 11
1160.7604102787
 21
1133.3049081769
 31
0.0
  0
LINE
  5
DC
330
1F
100
AcDbEntity
  8
0
  6
Continuous
 62
     7
370
    15
100
AcDbLine
 10
260.7604043182
 20
1058.4429644551
 30
0.0
 11
260.7604043182
 21
1133.3049081769
 31
0.0
  0
LINE
  5
DD
330
1F
100
AcDbEntity
  8
0
  6
Continuous
 62
     7
370
    15
100
AcDbLine
 10
275.7604198154
 20
1133.3049081769
 30
0.0
 11
275.7604198154
 21
1131.9569491353
 31
0.0
  0
ARC
  5
DE
330
1F
100
AcDbEntity
  8
0
  6
Continuous
 62
     7
370
    15
100
AcDbCircle
 10
276.0104165968
 20
1131.9670341414
 30
0.0
 40
0.250200115971387
100
AcDbArc
 50
182.3100903186
 51
357.6899096814
  0
LINE
  5
DF
330
1F
100
AcDbEntity
  8
0
  6
Continuous
 62
     7
370
    15
100
AcDbLine
 10
281.2604086097
 20
1139.8592137304
 30
0.0
 11
286.2604038414
 21
1139.8592137304
 31
0.0
  0
LINE
  5
E0
330
1F
100
AcDbEntity
  8
0
  6
Continuous
 62
     7
370
    15
100
AcDbLine
 10
281.2604086097
 20
1139.1284011808
 30
0.0
 11
286.2604038414
 21
1139.1284011808
 31
0.0
  0
LWPOLYLINE
  5
E1
330
1F
100
AcDbEntity
  8
0
  6
Continuous
 62
     7
370
    15
100
AcDbPolyline
 90
        9
 70
   128
 43
0.0
 10
276.2604133781
 20
1137.094690701
 10
276.3564960655
 20
1137.4914788213
 10
276.6410188373
 20
1137.8729485479
 10
277.1030740436
 20
1138.2245563474
 10
277.7248696979
 20
1138.5327719655
 10
278.4825639423
 20
1138.7856744733
 10
279.3469803032
 20
1138.9736079183
 10
280.2849487957
 20
1139.0893005338
 10
281.2604086097
 20
1139.1284011808
  0
LWPOLYLINE
  5
E2
330
1F
100
AcDbEntity
  8
0
  6
Continuous
 62
     7
370
    15
100
AcDbPolyline
 90
        9
 70
   128
 43
0.0
 10
286.2604038414
 20
1139.1284011808
 10
287.2358636554
 20
1139.0893005338
 10
288.173832148
 20
1138.9736079183
 10
289.0382485088
 20
1138.7856744733
 10
289.7959427532
 20
1138.5327719655
 10
290.4177682098
 20
1138.2245563474
 10
290.8797936138
 20
1137.8729485479
 10
291.1643461879
 20
1137.4914788213
 10
291.260399073
 20
1137.094690701
  0
LINE
  5
E3
330
1F
100
AcDbEntity
  8
0
  6
Continuous
 62
     7
370
    15
100
AcDbLine
 10
291.260399073
 20
1137.094690701
 30
0.0
 11
291.260399073
 21
1133.4851526227
 31
0.0
  0
LINE
  5
E4
330
1F
100
AcDbEntity
  8
0
  6
Continuous
 62
     7
370
    15
100
AcDbLine
 10
276.2604133781
 20
1133.4851526227
 30
0.0
 11
276.2604133781
 21
1137.094690701
 31
0.0
  0
LWPOLYLINE
  5
E5
330
1F
100
AcDbEntity
  8
0
  6
Continuous
 62
     7
370
    15
100
AcDbPolyline
 90
       19
 70
   128
 43
0.0
 10
283.7604062256
 20
1137.989535233
 10
284.8548667129
 20
1137.9110359159
 10
285.8173327144
 20
1137.6850151029
 10
286.5316943821
 20
1137.3387717214
 10
286.9117932018
 20
1136.9139694181
 10
286.9117932018
 20
1136.4619873967
 10
286.5316943821
 20
1136.0371850934
 10
285.8173327144
 20
1135.6909417119
 10
284.8548667129
 20
1135.4649208989
 10
283.7604062256
 20
1135.3864215818
 10
282.6659457382
 20
1135.4649208989
 10
281.7034797367
 20
1135.6909417119
 10
280.9891180691
 20
1136.0371850934
 10
280.6090192493
 20
1136.4619873967
 10
280.6090192493
 20
1136.9139694181
 10
280.9891180691
 20
1137.3387717214
 10
281.7034797367
 20
1137.6850151029
 10
282.6659457382
 20
1137.9110359159
 10
283.7604062256
 20
1137.989535233
  0
LWPOLYLINE
  5
E6
330
1F
100
AcDbEntity
  8
0
  6
Continuous
 62
     7
370
    15
100
AcDbPolyline
 90
        9
 70
   128
 43
0.0
 10
286.2604038414
 20
1139.8592137304
 10
287.2358636554
 20
1139.820172688
 10
288.173832148
 20
1139.7044204679
 10
289.0382485088
 20
1139.5164870229
 10
289.7959427532
 20
1139.2635845151
 10
290.4177682098
 20
1138.9554285016
 10
290.8797936138
 20
1138.6038207021
 10
291.1643461879
 20
1138.2222913709
 10
291.260399073
 20
1137.8255628553
  0
LINE
  5
E7
330
1F
100
AcDbEntity
  8
0
  6
Continuous
 62
     7
370
    15
100
AcDbLine
 10
291.260399073
 20
1137.8255628553
 30
0.0
 11
291.260399073
 21
1137.094690701
 31
0.0
  0
LINE
  5
E8
330
1F
100
AcDbEntity
  8
0
  6
Continuous
 62
     7
370
    15
100
AcDbLine
 10
276.2604133781
 20
1137.8255628553
 30
0.0
 11
276.2604133781
 21
1137.094690701
 31
0.0
  0
LWPOLYLINE
  5
E9
330
1F
100
AcDbEntity
  8
0
  6
Continuous
 62
     7
370
    15
100
AcDbPolyline
 90
        9
 70
   128
 43
0.0
 10
276.2604133781
 20
1137.8255628553
 10
276.3564960655
 20
1138.2222913709
 10
276.6410188373
 20
1138.6038207021
 10
277.1030740436
 20
1138.9554285016
 10
277.7248696979
 20
1139.2635845151
 10
278.4825639423
 20
1139.5164870229
 10
279.3469803032
 20
1139.7044204679
 10
280.2849487957
 20
1139.820172688
 10
281.2604086097
 20
1139.8592137304
  0
LWPOLYLINE
  5
EA
330
1F
100
AcDbEntity
  8
0
  6
Continuous
 62
     7
370
    15
100
AcDbPolyline
 90
        9
 70
   128
 43
0.0
 10
1130.2604155239
 20
1137.094690701
 10
1130.3564684089
 20
1137.4914788213
 10
1130.6410209831
 20
1137.8729485479
 10
1131.1030463871
 20
1138.2245563474
 10
1131.7248718437
 20
1138.5327719655
 10
1132.4825660881
 20
1138.7856744733
 10
1133.3469824489
 20
1138.9736079183
 10
1134.2849509414
 20
1139.0893005338
 10
1135.2604107555
 20
1139.1284011808
  0
LINE
  5
EB
330
1F
100
AcDbEntity
  8
0
  6
Continuous
 62
     7
370
    15
100
AcDbLine
 10
1135.2604107555
 20
1139.1284011808
 30
0.0
 11
1140.2604059871
 21
1139.1284011808
 31
0.0
  0
LWPOLYLINE
  5
EC
330
1F
100
AcDbEntity
  8
0
  6
Continuous
 62
     7
370
    15
100
AcDbPolyline
 90
        9
 70
   128
 43
0.0
 10
1140.2604059871
 20
1139.1284011808
 10
1141.2358658012
 20
1139.0893005338
 10
1142.1738342937
 20
1138.9736079183
 10
1143.0382506546
 20
1138.7856744733
 10
1143.795944899
 20
1138.5327719655
 10
1144.4177703556
 20
1138.2245563474
 10
1144.8797957596
 20
1137.8729485479
 10
1145.1643483337
 20
1137.4914788213
 10
1145.2604012188
 20
1137.094690701
  0
LINE
  5
ED
330
1F
100
AcDbEntity
  8
0
  6
Continuous
 62
     7
370
    15
100
AcDbLine
 10
1145.2604012188
 20
1137.094690701
 30
0.0
 11
1145.2604012188
 21
1133.4851526227
 31
0.0
  0
LINE
  5
EE
330
1F
100
AcDbEntity
  8
0
  6
Continuous
 62
     7
370
    15
100
AcDbLine
 10
1130.2604155239
 20
1133.4851526227
 30
0.0
 11
1130.2604155239
 21
1137.094690701
 31
0.0
  0
LWPOLYLINE
  5
EF
330
1F
100
AcDbEntity
  8
0
  6
Continuous
 62
     7
370
    15
100
AcDbPolyline
 90
       19
 70
   128
 43
0.0
 10
1137.7604083713
 20
1137.989535233
 10
1138.8548688587
 20
1137.9110359159
 10
1139.8173348602
 20
1137.6850151029
 10
1140.5316965278
 20
1137.3387717214
 10
1140.9117953476
 20
1136.9139694181
 10
1140.9117953476
 20
1136.4619873967
 10
1140.5316965278
 20
1136.0371850934
 10
1139.8173348602
 20
1135.6909417119
 10
1138.8548688587
 20
1135.4649208989
 10
1137.7604083713
 20
1135.3864215818
 10
1136.665947884
 20
1135.4649208989
 10
1135.7034818825
 20
1135.6909417119
 10
1134.9891202148
 20
1136.0371850934
 10
1134.6090213951
 20
1136.4619873967
 10
1134.6090213951
 20
1136.9139694181
 10
1134.9891202148
 20
1137.3387717214
 10
1135.7034818825
 20
1137.6850151029
 10
1136.665947884
 20
1137.9110359159
 10
1137.7604083713
 20
1137.989535233
  0
LINE
  5
F0
330
1F
100
AcDbEntity
  8
0
  6
Continuous
 62
     7
370
    15
100
AcDbLine
 10
1135.2604107555
 20
1139.8592137304
 30
0.0
 11
1140.2604059871
 21
1139.8592137304
 31
0.0
  0
LINE
  5
F1
330
1F
100
AcDbEntity
  8
0
  6
Continuous
 62
     7
370
    15
100
AcDbLine
 10
1130.2604155239
 20
1137.8255628553
 30
0.0
 11
1130.2604155239
 21
1137.094690701
 31
0.0
  0
LWPOLYLINE
  5
F2
330
1F
100
AcDbEntity
  8
0
  6
Continuous
 62
     7
370
    15
100
AcDbPolyline
 90
        9
 70
   128
 43
0.0
 10
1130.2604155239
 20
1137.8255628553
 10
1130.3564684089
 20
1138.2222913709
 10
1130.6410209831
 20
1138.6038207021
 10
1131.1030463871
 20
1138.9554285016
 10
1131.7248718437
 20
1139.2635845151
 10
1132.4825660881
 20
1139.5164870229
 10
1133.3469824489
 20
1139.7044204679
 10
1134.2849509414
 20
1139.820172688
 10
1135.2604107555
 20
1139.8592137304
  0
LWPOLYLINE
  5
F3
330
1F
100
AcDbEntity
  8
0
  6
Continuous
 62
     7
370
    15
100
AcDbPolyline
 90
        9
 70
   128
 43
0.0
 10
1140.2604059871
 20
1139.8592137304
 10
1141.2358658012
 20
1139.820172688
 10
1142.1738342937
 20
1139.7044204679
 10
1143.0382506546
 20
1139.5164870229
 10
1143.795944899
 20
1139.2635845151
 10
1144.4177703556
 20
1138.9554285016
 10
1144.8797957596
 20
1138.6038207021
 10
1145.1643483337
 20
1138.2222913709
 10
1145.2604012188
 20
1137.8255628553
  0
LINE
  5
F4
330
1F
100
AcDbEntity
  8
0
  6
Continuous
 62
     7
370
    15
100
AcDbLine
 10
1145.2604012188
 20
1137.8255628553
 30
0.0
 11
1145.2604012188
 21
1137.094690701
 31
0.0
  0
ARC
  5
F5
330
1F
100
AcDbEntity
  8
0
  6
Continuous
 62
     7
370
    15
100
AcDbCircle
 10
283.7604211267
 20
1141.1114042728
 30
0.0
 40
5.089240133069041
100
AcDbArc
 50
232.8799120347
 51
307.1200879653
  0
ARC
  5
F6
330
1F
100
AcDbEntity
  8
0
  6
Continuous
 62
     7
370
    15
100
AcDbCircle
 10
1137.7604083713
 20
1141.1114688733
 30
0.0
 40
5.089300636472029
100
AcDbArc
 50
232.880217172
 51
307.119782828
  0
LINE
  5
F7
330
1F
100
AcDbEntity
  8
0
  6
Continuous
 62
     7
370
    15
100
AcDbLine
 10
291.260399073
 20
1131.9569491353
 30
0.0
 11
291.260399073
 21
1133.4851526227
 31
0.0
  0
LINE
  5
F8
330
1F
100
AcDbEntity
  8
0
  6
Continuous
 62
     7
370
    15
100
AcDbLine
 10
276.2604133781
 20
1133.4851526227
 30
0.0
 11
276.2604133781
 21
1131.9569491353
 31
0.0
  0
LINE
  5
F9
330
1F
100
AcDbEntity
  8
0
  6
Continuous
 62
     7
370
    15
100
AcDbLine
 10
1145.2604012188
 20
1131.9569491353
 30
0.0
 11
1145.2604012188
 21
1133.4851526227
 31
0.0
  0
LINE
  5
FA
330
1F
100
AcDbEntity
  8
0
  6
Continuous
 62
     7
370
    15
100
AcDbLine
 10
1130.2604155239
 20
1133.4851526227
 30
0.0
 11
1130.2604155239
 21
1131.9569491353
 31
0.0
  0
LINE
  5
FB
330
1F
100
AcDbEntity
  8
0
  6
Continuous
 62
     7
370
    15
100
AcDbLine
 10
1110.260404795
 20
1134.72141256
 30
0.0
 11
311.2604098018
 21
1134.72141256
 31
0.0
  0
LINE
  5
FC
330
1F
100
AcDbEntity
  8
0
  6
Continuous
 62
     7
370
    15
100
AcDbLine
 10
1110.260404795
 20
1134.72141256
 30
0.0
 11
1110.260404795
 21
1133.3049081769
 31
0.0
  0
LINE
  5
FD
330
1F
100
AcDbEntity
  8
0
  6
Continuous
 62
     7
370
    15
100
AcDbLine
 10
311.2604098018
 20
1133.3049081769
 30
0.0
 11
311.2604098018
 21
1134.72141256
 31
0.0
  0
LINE
  5
FE
330
1F
100
AcDbEntity
  8
0
  6
Continuous
 62
     7
370
    15
100
AcDbLine
 10
260.7604043182
 20
1133.3049081769
 30
0.0
 11
260.7604043182
 21
1134.72141256
 31
0.0
  0
LINE
  5
FF
330
1F
100
AcDbEntity
  8
0
  6
Continuous
 62
     7
370
    15
100
AcDbLine
 10
275.7604198154
 20
1134.72141256
 30
0.0
 11
260.7604043182
 21
1134.72141256
 31
0.0
  0
LINE
  5
100
330
1F
100
AcDbEntity
  8
0
  6
Continuous
 62
     7
370
    15
100
AcDbLine
 10
275.7604198154
 20
1134.72141256
 30
0.0
 11
275.7604198154
 21
1133.3049081769
 31
0.0
  0
LINE
  5
101
330
1F
100
AcDbEntity
  8
0
  6
Continuous
 62
     7
370
    15
100
AcDbLine
 10
1160.7604102787
 20
1134.72141256
 30
0.0
 11
1145.7603947815
 21
1134.72141256
 31
0.0
  0
LINE
  5
102
330
1F
100
AcDbEntity
  8
0
  6
Continuous
 62
     7
370
    15
100
AcDbLine
 10
1160.7604102787
 20
1134.72141256
 30
0.0
 11
1160.7604102787
 21
1133.3049081769
 31
0.0
  0
LINE
  5
103
330
1F
100
AcDbEntity
  8
0
  6
Continuous
 62
     7
370
    15
100
AcDbLine
 10
1145.7603947815
 20
1133.3049081769
 30
0.0
 11
1145.7603947815
 21
1134.72141256
 31
0.0
  0
ARC
  5
104
330
1F
100
AcDbEntity
  8
0
  6
Continuous
 62
     7
370
    15
100
AcDbCircle
 10
1127.2603573629
 20
1106.3682915514
 30
0.0
 40
5.404444951393888
100
AcDbArc
 50
2.3136753856
 51
177.6591302783
  0
ARC
  5
105
330
1F
100
AcDbEntity
  8
0
  6
Continuous
 62
     7
370
    15
100
AcDbCircle
 10
1127.2604094442
 20
1102.456606345
 30
0.0
 40
5.403556052459055
100
AcDbArc
 50
182.0825334852
 51
357.9174665148
  0
LWPOLYLINE
  5
106
330
1F
100
AcDbEntity
  8
0
  6
Continuous
 62
     7
370
    15
100
AcDbPolyline
 90
       36
 70
   128
 43
0.0
 10
1138.6895553764
 20
1102.2602461782
 10
1138.5058836635
 20
1100.319399735
 10
1137.9607693847
 20
1098.4408997502
 10
1137.0717363056
 20
1096.6851853337
 10
1135.8673648533
 20
1095.1086424794
 10
1134.3863682445
 20
1093.7619351354
 10
1132.6763109859
 20
1092.6883958783
 10
1130.7922081646
 20
1091.922476193
 10
1128.7945882972
 20
1091.4888524022
 10
1126.7476455864
 20
1091.4014123883
 10
1124.7171835598
 20
1091.6630171743
 10
1122.7684693035
 20
1092.2652029004
 10
1120.9641174968
 20
1093.1886576619
 10
1119.3621532615
 20
1094.403638741
 10
1118.0140452083
 20
1095.8711647
 10
1116.9630961117
 20
1097.5440286603
 10
1116.2431316074
 20
1099.3685268369
 10
1115.8772782978
 20
1101.28588905
 10
1115.8772782978
 20
1103.2346033063
 10
1116.2431316074
 20
1105.1520251241
 10
1116.9630961117
 20
1106.976463696
 10
1118.0140452083
 20
1108.6493276563
 10
1119.3621532615
 20
1110.1168536153
 10
1120.9641174968
 20
1111.331894299
 10
1122.7684693035
 20
1112.2552894559
 10
1124.7171835598
 20
1112.8574751821
 10
1126.7476455864
 20
1113.119079968
 10
1128.7945882972
 20
1113.0316399541
 10
1130.7922081646
 20
1112.5980161634
 10
1132.6763109859
 20
1111.832096478
 10
1134.3863682445
 20
1110.758557221
 10
1135.8673648533
 20
1109.4119094815
 10
1137.0717363056
 20
1107.8353666272
 10
1137.9607693847
 20
1106.0795926061
 10
1138.5058836635
 20
1104.201152226
 10
1138.6895553764
 20
1102.2602461782
  0
LWPOLYLINE
  5
107
330
1F
100
AcDbEntity
  8
0
  6
Continuous
 62
     7
370
    15
100
AcDbPolyline
 90
       39
 70
   128
 43
0.0
 10
1140.3604225811
 20
1102.0341657605
 10
1140.181727856
 20
1099.9835275617
 10
1139.6506206688
 20
1097.9887985196
 10
1138.7815253433
 20
1096.1043976751
 10
1137.5981347259
 20
1094.3817638364
 10
1136.1327843364
 20
1092.8678654637
 10
1134.4254390892
 20
1091.6040085759
 10
1132.5226204094
 20
1090.6247042623
 10
1130.4762737449
 20
1089.9565361943
 10
1128.3421890434
 20
1089.6178626027
 10
1126.178629845
 20
1089.6178626027
 10
1124.0445451435
 20
1089.9565361943
 10
1121.9981984791
 20
1090.6247042623
 10
1120.0953797992
 20
1091.6040085759
 10
1118.388034552
 20
1092.8678654637
 10
1116.9226543602
 20
1094.3817638364
 10
1115.7392935451
 20
1096.1043976751
 10
1114.8701982197
 20
1097.9887985196
 10
1114.3390612301
 20
1099.9835275617
 10
1114.1603963073
 20
1102.0341657605
 10
1114.3390612301
 20
1104.0848039594
 10
1114.8701982197
 20
1106.0795330014
 10
1115.7392935451
 20
1107.963933846
 10
1116.9226543602
 20
1109.6865676847
 10
1118.388034552
 20
1111.2004064527
 10
1120.0953797992
 20
1112.4642633405
 10
1121.9981984791
 20
1113.4436272588
 10
1124.0445451435
 20
1114.1117357221
 10
1126.178629845
 20
1114.4504689183
 10
1128.3421890434
 20
1114.4504689183
 10
1130.4762737449
 20
1114.1117357221
 10
1132.5226204094
 20
1113.4436272588
 10
1134.4254390892
 20
1112.4642633405
 10
1136.1327843364
 20
1111.2004064527
 10
1137.5981347259
 20
1109.6865676847
 10
1138.7815253433
 20
1107.963933846
 10
1139.6506206688
 20
1106.0795330014
 10
1140.181727856
 20
1104.0848039594
 10
1140.3604225811
 20
1102.0341657605
  0
LWPOLYLINE
  5
108
330
1F
100
AcDbEntity
  8
0
  6
Continuous
 62
     7
370
    15
100
AcDbPolyline
 90
       20
 70
   128
 43
0.0
 10
1140.3604225811
 20
1101.2404703107
 10
1140.181727856
 20
1099.1898321119
 10
1139.6506206688
 20
1097.1951030698
 10
1138.7815253433
 20
1095.3107618299
 10
1137.5981347259
 20
1093.5881279912
 10
1136.1327843364
 20
1092.0742296186
 10
1134.4254390892
 20
1090.8103727307
 10
1132.5226204094
 20
1089.8310088124
 10
1130.4762737449
 20
1089.1629003492
 10
1128.3421890434
 20
1088.8242267575
 10
1126.178629845
 20
1088.8242267575
 10
1124.0445451435
 20
1089.1629003492
 10
1121.9981984791
 20
1089.8310088124
 10
1120.0953797992
 20
1090.8103727307
 10
1118.388034552
 20
1092.0742296186
 10
1116.9226543602
 20
1093.5881279912
 10
1115.7392935451
 20
1095.3107618299
 10
1114.8701982197
 20
1097.1951030698
 10
1114.3390612301
 20
1099.1898321119
 10
1114.1603963073
 20
1101.2404703107
  0
LINE
  5
109
330
1F
100
AcDbEntity
  8
0
  6
Continuous
 62
     7
370
    15
100
AcDbLine
 10
752.4604091045
 20
1134.9213861432
 30
0.0
 11
752.4604091045
 21
1134.72141256
 31
0.0
  0
LINE
  5
10A
330
1F
100
AcDbEntity
  8
0
  6
Continuous
 62
     7
370
    15
100
AcDbLine
 10
754.4604094323
 20
1134.9213861432
 30
0.0
 11
754.4604094323
 21
1134.72141256
 31
0.0
  0
LINE
  5
10B
330
1F
100
AcDbEntity
  8
0
  6
Continuous
 62
     7
370
    15
100
AcDbLine
 10
752.4604091045
 20
1135.1124786344
 30
0.0
 11
752.4604091045
 21
1134.9213861432
 31
0.0
  0
LINE
  5
10C
330
1F
100
AcDbEntity
  8
0
  6
Continuous
 62
     7
370
    15
100
AcDbLine
 10
1111.460395306
 20
1140.3073214498
 30
0.0
 11
1111.460395306
 21
1133.0273293462
 31
0.0
  0
LINE
  5
10D
330
1F
100
AcDbEntity
  8
0
  6
Continuous
 62
     7
370
    15
100
AcDbLine
 10
1109.4604210552
 20
1140.4214047399
 30
0.0
 11
1111.1785547432
 21
1140.4214047399
 31
0.0
  0
LINE
  5
10E
330
1F
100
AcDbEntity
  8
0
  6
Continuous
 62
     7
370
    15
100
AcDbLine
 10
1113.9604227241
 20
1133.0273293462
 30
0.0
 11
1113.9604227241
 21
1135.6768154111
 31
0.0
  0
LINE
  5
10F
330
1F
100
AcDbEntity
  8
0
  6
Continuous
 62
     7
370
    15
100
AcDbLine
 10
332.7104227241
 20
646.1225592103
 30
0.0
 11
332.7104227241
 21
590.1196741071
 31
0.0
  0
ARC
  5
110
330
1F
100
AcDbEntity
  8
0
  6
Continuous
 62
     7
370
    15
100
AcDbCircle
 10
294.7124830711
 20
646.1192148721
 30
0.0
 40
2.002096709056924
100
AcDbArc
 50
89.9929362575
 51
179.7789182629
  0
LINE
  5
111
330
1F
100
AcDbEntity
  8
0
  6
Continuous
 62
     7
370
    15
100
AcDbLine
 10
292.7104012665
 20
590.1152931657
 30
0.0
 11
292.7104012665
 21
646.1269401517
 31
0.0
  0
ARC
  5
112
330
1F
100
AcDbEntity
  8
0
  6
Continuous
 62
     7
370
    15
100
AcDbCircle
 10
330.7081191273
 20
646.119008695
 30
0.0
 40
2.002306744754742
100
AcDbArc
 50
0.101597646
 51
89.887295292
  0
LINE
  5
113
330
1F
100
AcDbEntity
  8
0
  6
Continuous
 62
     7
370
    15
100
AcDbLine
 10
294.7127299007
 20
648.1213115659
 30
0.0
 11
330.7120577987
 21
648.1213115659
 31
0.0
  0
LINE
  5
114
330
1F
100
AcDbEntity
  8
0
  6
Continuous
 62
     7
370
    15
100
AcDbLine
 10
330.7120577987
 20
588.1213091817
 30
0.0
 11
294.7127299007
 21
588.1213091817
 31
0.0
  0
ARC
  5
115
330
1F
100
AcDbEntity
  8
0
  6
Continuous
 62
     7
370
    15
100
AcDbCircle
 10
330.7084578826
 20
590.1232740232
 30
0.0
 40
2.001968078190323
100
AcDbArc
 50
270.103028672
 51
359.896971328
  0
ARC
  5
116
330
1F
100
AcDbEntity
  8
0
  6
Continuous
 62
     7
370
    15
100
AcDbCircle
 10
294.7122667358
 20
590.1231901735
 30
0.0
 40
2.001881045399855
100
AcDbArc
 50
180.2260206188
 51
270.0132562309
  0
ARC
  5
117
330
1F
100
AcDbEntity
  8
0
  6
Continuous
 62
     7
370
    15
100
AcDbCircle
 10
294.7096757098
 20
590.1205883043
 30
0.0
 40
1.999281455481661
100
AcDbArc
 50
180.1517492443
 51
270.0875276055
  0
ARC
  5
118
330
1F
100
AcDbEntity
  8
0
  6
Continuous
 62
     7
370
    15
100
AcDbCircle
 10
330.710647943
 20
646.1215370205
 30
0.0
 40
1.999775042409415
100
AcDbArc
 50
0.0292868777
 51
89.9596060603
  0
ARC
  5
119
330
1F
100
AcDbEntity
  8
0
  6
Continuous
 62
     7
370
    15
100
AcDbCircle
 10
330.7109323244
 20
590.1207995814
 30
0.0
 40
1.99949071644662
100
AcDbArc
 50
270.032250678
 51
359.967749322
  0
ARC
  5
11A
330
1F
100
AcDbEntity
  8
0
  6
Continuous
 62
     7
370
    15
100
AcDbCircle
 10
294.7099750156
 20
646.1217329343
 30
0.0
 40
1.999580529321285
100
AcDbArc
 50
89.9210617728
 51
179.8507927476
  0
LWPOLYLINE
  5
11B
330
1F
100
AcDbEntity
  8
0
  6
Continuous
 62
     7
370
    15
100
AcDbPolyline
 90
       23
 70
   128
 43
0.0
 10
1008.3206968006
 20
967.9975651708
 10
1013.8598756489
 20
967.8469442334
 10
1017.7018718418
 20
967.2434472051
 10
1021.5020255741
 20
966.2627719846
 10
1025.7346110042
 20
964.6213792768
 10
1029.762126654
 20
962.3273157087
 10
1032.4756579097
 20
960.1673625913
 10
1034.8697082695
 20
957.5421952214
 10
1036.3439993557
 20
955.266132256
 10
1037.4553875622
 20
952.7142785993
 10
1038.0757229027
 20
950.0705741849
 10
1038.1836073097
 20
947.255983254
 10
1037.8361718353
 20
944.8767446485
 10
1037.0805041488
 20
942.5224803891
 10
1035.9762983021
 20
940.3323077169
 10
1034.5400349792
 20
938.2791065183
 10
1032.0070163902
 20
935.6537007299
 10
1028.9991275963
 20
933.4106587377
 10
1024.4081990417
 20
931.0351752248
 10
1019.3606095012
 20
929.3766163793
 10
1014.1785816845
 20
928.4321807828
 10
1008.8378863033
 20
928.1213425603
 10
1008.8378863033
 20
928.1213425603
  0
LWPOLYLINE
  5
11C
330
1F
100
AcDbEntity
  8
0
  6
Continuous
 62
     7
370
    15
100
AcDbPolyline
 90
       22
 70
   128
 43
0.0
 10
413.0497650799
 20
928.153111836
 10
412.5829116997
 20
928.1213425603
 10
407.582916468
 20
928.3932589498
 10
402.5829212364
 20
929.2495392766
 10
397.7931217846
 20
930.7224892583
 10
393.1800203022
 20
932.9448484388
 10
390.2358488735
 20
934.9676512685
 10
387.5731305774
 20
937.4656223264
 10
385.8189658817
 20
939.735784432
 10
384.4223992523
 20
942.3272155728
 10
383.5427241024
 20
945.0628303495
 10
383.2110540565
 20
948.0332278218
 10
383.4069149193
 20
950.4753493276
 10
384.0357439216
 20
952.920212647
 10
385.0045280155
 20
955.1313065496
 10
386.3141314682
 20
957.2233699765
 10
388.6038438972
 20
959.8447226491
 10
391.3655059036
 20
962.1229909864
 10
395.5964820083
 20
964.579059979
 10
400.2922849354
 20
966.3779281583
 10
407.062091082
 20
967.7887701001
 10
413.1246881183
 20
968.0498980489
  0
LWPOLYLINE
  5
11D
330
1F
100
AcDbEntity
  8
0
  6
Continuous
 62
     7
370
    15
100
AcDbPolyline
 90
        6
 70
   128
 43
0.0
 10
264.7604124244
 20
996.0712932553
 10
264.4906418022
 20
996.7921518293
 10
264.2208115753
 20
997.4211000409
 10
263.9509515461
 20
997.8775524106
 10
263.6810915169
 20
998.1031559911
 10
263.5811047252
 20
998.1213354077
  0
ARC
  5
11E
330
1F
100
AcDbEntity
  8
0
  6
Continuous
 62
     7
370
    15
100
AcDbCircle
 10
262.7433064061
 20
995.3496141175
 30
0.0
 40
2.142320579929214
100
AcDbArc
 50
19.686166999
 51
66.9788763306
  0
LINE
  5
11F
330
1F
100
AcDbEntity
  8
0
  6
Continuous
 62
     7
370
    15
100
AcDbLine
 10
263.5811047252
 20
998.1213354077
 30
0.0
 11
263.5811047252
 21
997.3213218656
 31
0.0
  0
ARC
  5
120
330
1F
100
AcDbEntity
  8
0
  6
Continuous
 62
     7
370
    15
100
AcDbCircle
 10
265.6705829171
 20
1000.0248303332
 30
0.0
 40
4.056952766702645
100
AcDbArc
 50
223.1423767313
 51
257.0354406464
  0
LINE
  5
121
330
1F
100
AcDbEntity
  8
0
  6
Continuous
 62
     7
370
    15
100
AcDbLine
 10
262.7104000744
 20
997.2506307569
 30
0.0
 11
263.5104136165
 21
997.2506307569
 31
0.0
  0
ARC
  5
122
330
1F
100
AcDbEntity
  8
0
  6
Continuous
 62
     7
370
    15
100
AcDbCircle
 10
265.4884862272
 20
998.0951060855
 30
0.0
 40
2.150792838402122
100
AcDbArc
 50
203.1185212056
 51
250.2136262981
  0
LWPOLYLINE
  5
123
330
1F
100
AcDbEntity
  8
0
  6
Continuous
 62
     7
370
    15
100
AcDbPolyline
 90
        6
 70
   128
 43
0.0
 10
264.7604124244
 20
560.1713203397
 10
264.0395538505
 20
559.9015497174
 10
263.4106056389
 20
559.6317045894
 10
262.9541532692
 20
559.3618594613
 10
262.7285496887
 20
559.0919994321
 10
262.7104000744
 20
558.9920275417
  0
LINE
  5
124
330
1F
100
AcDbEntity
  8
0
  6
Continuous
 62
     7
370
    15
100
AcDbLine
 10
262.7104000744
 20
997.2506307569
 30
0.0
 11
262.7104000744
 21
558.9920275417
 31
0.0
  0
LINE
  5
125
330
1F
100
AcDbEntity
  8
0
  6
Continuous
 62
     7
370
    15
100
AcDbLine
 10
263.5811047252
 20
998.1213354077
 30
0.0
 11
1157.8396932777
 21
998.1213354077
 31
0.0
  0
ARC
  5
126
330
1F
100
AcDbEntity
  8
0
  6
Continuous
 62
     7
370
    15
100
AcDbCircle
 10
1160.6132796493
 20
995.1616334873
 30
0.0
 40
4.056182542587031
100
AcDbArc
 50
133.1407018978
 51
167.0403388487
  0
ARC
  5
127
330
1F
100
AcDbEntity
  8
0
  6
Continuous
 62
     7
370
    15
100
AcDbCircle
 10
265.481984012
 20
558.154367561
 30
0.0
 40
2.142140067147025
100
AcDbArc
 50
109.6848392086
 51
156.9808450904
  0
LINE
  5
128
330
1F
100
AcDbEntity
  8
0
  6
Continuous
 62
     7
370
    15
100
AcDbLine
 10
262.7104000744
 20
558.9920275417
 30
0.0
 11
263.5104136165
 21
558.9920275417
 31
0.0
  0
ARC
  5
129
330
1F
100
AcDbEntity
  8
0
  6
Continuous
 62
     7
370
    15
100
AcDbCircle
 10
260.8075142612
 20
561.0810829543
 30
0.0
 40
4.056238639876987
100
AcDbArc
 50
313.1400385578
 51
347.0390304817
  0
LINE
  5
12A
330
1F
100
AcDbEntity
  8
0
  6
Continuous
 62
     7
370
    15
100
AcDbLine
 10
263.5811047252
 20
558.1213079896
 30
0.0
 11
263.5811047252
 21
558.9213066306
 31
0.0
  0
ARC
  5
12B
330
1F
100
AcDbEntity
  8
0
  6
Continuous
 62
     7
370
    15
100
AcDbCircle
 10
262.7367359441
 20
560.8992217909
 30
0.0
 40
2.15060619818813
100
AcDbArc
 50
293.1175575572
 51
340.2167172623
  0
LWPOLYLINE
  5
12C
330
1F
100
AcDbEntity
  8
0
  6
Continuous
 62
     7
370
    15
100
AcDbPolyline
 90
        6
 70
   128
 43
0.0
 10
1156.6604153808
 20
996.0712932553
 10
1157.3812739547
 20
996.3410638776
 10
1158.0102221664
 20
996.6108941045
 10
1158.4666745361
 20
996.880783936
 10
1158.6922483143
 20
997.1506141629
 10
1158.7103979286
 20
997.2506307569
  0
LINE
  5
12D
330
1F
100
AcDbEntity
  8
0
  6
Continuous
 62
     7
370
    15
100
AcDbLine
 10
1158.7103979286
 20
558.9920275417
 30
0.0
 11
1158.7103979286
 21
997.2506307569
 31
0.0
  0
ARC
  5
12E
330
1F
100
AcDbEntity
  8
0
  6
Continuous
 62
     7
370
    15
100
AcDbCircle
 10
1155.7506108384
 20
556.2183890435
 30
0.0
 40
4.056280332765025
100
AcDbArc
 50
43.1404165275
 51
77.0385582993
  0
LWPOLYLINE
  5
12F
330
1F
100
AcDbEntity
  8
0
  6
Continuous
 62
     7
370
    15
100
AcDbPolyline
 90
        6
 70
   128
 43
0.0
 10
1156.6604153808
 20
560.1713203397
 10
1156.9301562008
 20
559.4504617658
 10
1157.20001623
 20
558.821498653
 10
1157.4698762592
 20
558.3650462833
 10
1157.7397064861
 20
558.1394725051
 10
1157.8396932777
 20
558.1213079896
  0
LINE
  5
130
330
1F
100
AcDbEntity
  8
0
  6
Continuous
 62
     7
370
    15
100
AcDbLine
 10
1157.8396932777
 20
558.1213079896
 30
0.0
 11
263.5811047252
 21
558.1213079896
 31
0.0
  0
LINE
  5
131
330
1F
100
AcDbEntity
  8
0
  6
Continuous
 62
     7
370
    15
100
AcDbLine
 10
1157.8396932777
 20
998.1213354077
 30
0.0
 11
1157.8396932777
 21
997.3213218656
 31
0.0
  0
ARC
  5
132
330
1F
100
AcDbEntity
  8
0
  6
Continuous
 62
     7
370
    15
100
AcDbCircle
 10
1158.68404848
 20
995.3434764394
 30
0.0
 40
2.150536732416919
100
AcDbArc
 50
113.1179542752
 51
160.2184478838
  0
ARC
  5
133
330
1F
100
AcDbEntity
  8
0
  6
Continuous
 62
     7
370
    15
100
AcDbCircle
 10
1158.6772794781
 20
560.8927747757
 30
0.0
 40
2.142017107766972
100
AcDbArc
 50
199.6826877401
 51
246.9815919508
  0
LINE
  5
134
330
1F
100
AcDbEntity
  8
0
  6
Continuous
 62
     7
370
    15
100
AcDbLine
 10
1157.8396932777
 20
558.1213079896
 30
0.0
 11
1157.8396932777
 21
558.9213066306
 31
0.0
  0
ARC
  5
135
330
1F
100
AcDbEntity
  8
0
  6
Continuous
 62
     7
370
    15
100
AcDbCircle
 10
1155.9387929872
 20
998.088268133
 30
0.0
 40
2.142177988896544
100
AcDbArc
 50
289.6859195796
 51
336.9819329167
  0
LINE
  5
136
330
1F
100
AcDbEntity
  8
0
  6
Continuous
 62
     7
370
    15
100
AcDbLine
 10
1158.7103979286
 20
997.2506307569
 30
0.0
 11
1157.9104141887
 21
997.2506307569
 31
0.0
  0
LINE
  5
137
330
1F
100
AcDbEntity
  8
0
  6
Continuous
 62
     7
370
    15
100
AcDbLine
 10
1158.7103979286
 20
558.9920275417
 30
0.0
 11
1157.9104141887
 21
558.9920275417
 31
0.0
  0
ARC
  5
138
330
1F
100
AcDbEntity
  8
0
  6
Continuous
 62
     7
370
    15
100
AcDbCircle
 10
1155.9325084734
 20
558.1476523989
 30
0.0
 40
2.150600009378814
100
AcDbArc
 50
23.1178122265
 51
70.2165034745
  0
LINE
  5
139
330
1F
100
AcDbEntity
  8
0
  6
Continuous
 62
     7
370
    15
100
AcDbLine
 10
312.060423344
 20
1134.72141256
 30
0.0
 11
312.060423344
 21
1140.8412598577
 31
0.0
  0
LINE
  5
13A
330
1F
100
AcDbEntity
  8
0
  6
Continuous
 62
     7
370
    15
100
AcDbLine
 10
313.260413855
 20
1134.72141256
 30
0.0
 11
313.260413855
 21
1140.9500383344
 31
0.0
  0
LINE
  5
13B
330
1F
100
AcDbEntity
  8
0
  6
Continuous
 62
     7
370
    15
100
AcDbLine
 10
314.4604043659
 20
1134.72141256
 30
0.0
 11
314.4604043659
 21
1140.9600519147
 31
0.0
  0
LINE
  5
13C
330
1F
100
AcDbEntity
  8
0
  6
Continuous
 62
     7
370
    15
100
AcDbLine
 10
1107.060410231
 20
1140.9600519147
 30
0.0
 11
1107.060410231
 21
1134.72141256
 31
0.0
  0
LINE
  5
13D
330
1F
100
AcDbEntity
  8
0
  6
Continuous
 62
     7
370
    15
100
AcDbLine
 10
1108.2604007419
 20
1137.9214071241
 30
0.0
 11
1109.4604210552
 21
1137.9214071241
 31
0.0
  0
LINE
  5
13E
330
1F
100
AcDbEntity
  8
0
  6
Continuous
 62
     7
370
    15
100
AcDbLine
 10
1108.2604007419
 20
1137.9214071241
 30
0.0
 11
1108.2604007419
 21
1140.9500383344
 31
0.0
  0
LINE
  5
13F
330
1F
100
AcDbEntity
  8
0
  6
Continuous
 62
     7
370
    15
100
AcDbLine
 10
1109.4604210552
 20
1137.9214071241
 30
0.0
 11
1109.4604210552
 21
1140.8412598577
 31
0.0
  0
LINE
  5
140
330
1F
100
AcDbEntity
  8
0
  6
Continuous
 62
     7
370
    15
100
AcDbLine
 10
1108.2604007419
 20
1135.9214328733
 30
0.0
 11
1108.2604007419
 21
1137.9214071241
 31
0.0
  0
LINE
  5
141
330
1F
100
AcDbEntity
  8
0
  6
Continuous
 62
     7
370
    15
100
AcDbLine
 10
1109.4604210552
 20
1137.9214071241
 30
0.0
 11
1109.4604210552
 21
1135.9214328733
 31
0.0
  0
LINE
  5
142
330
1F
100
AcDbEntity
  8
0
  6
Continuous
 62
     7
370
    15
100
AcDbLine
 10
1108.2604007419
 20
1134.72141256
 30
0.0
 11
1108.2604007419
 21
1135.9214328733
 31
0.0
  0
LINE
  5
143
330
1F
100
AcDbEntity
  8
0
  6
Continuous
 62
     7
370
    15
100
AcDbLine
 10
1109.4604210552
 20
1134.72141256
 30
0.0
 11
1109.4604210552
 21
1135.9214328733
 31
0.0
  0
LINE
  5
144
330
1F
100
AcDbEntity
  8
0
  6
Continuous
 62
     7
370
    15
100
AcDbLine
 10
1160.7604102787
 20
1189.7214197126
 30
0.0
 11
1158.3104209598
 21
1189.7214197126
 31
0.0
  0
LINE
  5
145
330
1F
100
AcDbEntity
  8
0
  6
Continuous
 62
     7
370
    15
100
AcDbLine
 10
263.2104234394
 20
1189.7214197126
 30
0.0
 11
260.7604043182
 21
1189.7214197126
 31
0.0
  0
LINE
  5
146
330
1F
100
AcDbEntity
  8
0
  6
Continuous
 62
     7
370
    15
100
AcDbLine
 10
260.7604043182
 20
1189.7214197126
 30
0.0
 11
260.7604043182
 21
1188.4157203641
 31
0.0
  0
LINE
  5
147
330
1F
100
AcDbEntity
  8
0
  6
Continuous
 62
     7
370
    15
100
AcDbLine
 10
1160.7604102787
 20
1189.7214197126
 30
0.0
 11
1160.7604102787
 21
1188.4157203641
 31
0.0
  0
LINE
  5
148
330
1F
100
AcDbEntity
  8
0
  6
Continuous
 62
     7
370
    15
100
AcDbLine
 10
1160.7604102787
 20
1190.9713887181
 30
0.0
 11
1160.7604102787
 21
1189.7214197126
 31
0.0
  0
LINE
  5
149
330
1F
100
AcDbEntity
  8
0
  6
Continuous
 62
     7
370
    15
100
AcDbLine
 10
260.7604043182
 20
1190.9713887181
 30
0.0
 11
260.7604043182
 21
1189.7214197126
 31
0.0
  0
LINE
  5
14A
330
1F
100
AcDbEntity
  8
0
  6
Continuous
 62
     7
370
    15
100
AcDbLine
 10
260.7604043182
 20
1205.8382176366
 30
0.0
 11
260.7604043182
 21
1190.9713887181
 31
0.0
  0
LINE
  5
14B
330
1F
100
AcDbEntity
  8
0
  6
Continuous
 62
     7
370
    15
100
AcDbLine
 10
1160.7604102787
 20
1205.8382176366
 30
0.0
 11
1160.7604102787
 21
1190.9713887181
 31
0.0
  0
LINE
  5
14C
330
1F
100
AcDbEntity
  8
0
  6
Continuous
 62
     7
370
    15
100
AcDbLine
 10
845.7262443002
 20
1230.7590984311
 30
0.0
 11
845.1935277876
 21
1230.7517074552
 31
0.0
  0
LINE
  5
14D
330
1F
100
AcDbEntity
  8
0
  6
Continuous
 62
     7
370
    15
100
AcDbLine
 10
866.4120362695
 20
1230.7517074552
 30
0.0
 11
865.8793197569
 21
1230.7590984311
 31
0.0
  0
LINE
  5
14E
330
1F
100
AcDbEntity
  8
0
  6
Continuous
 62
     7
370
    15
100
AcDbLine
 10
945.1935367283
 20
1230.7517074552
 30
0.0
 11
866.4120362695
 21
1230.7517074552
 31
0.0
  0
LINE
  5
14F
330
1F
100
AcDbEntity
  8
0
  6
Continuous
 62
     7
370
    15
100
AcDbLine
 10
945.7262383398
 20
1230.7590984311
 30
0.0
 11
945.1935367283
 21
1230.7517074552
 31
0.0
  0
LINE
  5
150
330
1F
100
AcDbEntity
  8
0
  6
Continuous
 62
     7
370
    15
100
AcDbLine
 10
966.4120154079
 20
1230.7517074552
 30
0.0
 11
965.8793286976
 21
1230.7590984311
 31
0.0
  0
LINE
  5
151
330
1F
100
AcDbEntity
  8
0
  6
Continuous
 62
     7
370
    15
100
AcDbLine
 10
1045.1935307678
 20
1230.7517074552
 30
0.0
 11
966.4120154079
 21
1230.7517074552
 31
0.0
  0
LINE
  5
152
330
1F
100
AcDbEntity
  8
0
  6
Continuous
 62
     7
370
    15
100
AcDbLine
 10
1045.7262472805
 20
1230.7590984311
 30
0.0
 11
1045.1935307678
 21
1230.7517074552
 31
0.0
  0
LINE
  5
153
330
1F
100
AcDbEntity
  8
0
  6
Continuous
 62
     7
370
    15
100
AcDbLine
 10
1066.4120392498
 20
1230.7517074552
 30
0.0
 11
1065.8793227371
 21
1230.7590984311
 31
0.0
  0
LINE
  5
154
330
1F
100
AcDbEntity
  8
0
  6
Continuous
 62
     7
370
    15
100
AcDbLine
 10
1135.7604043182
 20
1230.7517074552
 30
0.0
 11
1066.4120392498
 21
1230.7517074552
 31
0.0
  0
LINE
  5
155
330
1F
100
AcDbEntity
  8
0
  6
Continuous
 62
     7
370
    15
100
AcDbLine
 10
1136.2931208309
 20
1230.7590984311
 30
0.0
 11
1135.7604043182
 21
1230.7517074552
 31
0.0
  0
ARC
  5
156
330
1F
100
AcDbEntity
  8
0
  6
Continuous
 62
     7
370
    15
100
AcDbCircle
 10
285.7622767562
 20
1250.0881332553
 30
0.0
 40
19.33642589025112
100
AcDbArc
 50
268.4157748465
 51
269.994469439
  0
LINE
  5
157
330
1F
100
AcDbEntity
  8
0
  6
Continuous
 62
     7
370
    15
100
AcDbLine
 10
345.1935426887
 20
1230.7517074552
 30
0.0
 11
285.7604102787
 21
1230.7517074552
 31
0.0
  0
LINE
  5
158
330
1F
100
AcDbEntity
  8
0
  6
Continuous
 62
     7
370
    15
100
AcDbLine
 10
345.7262293991
 20
1230.7590984311
 30
0.0
 11
345.1935426887
 21
1230.7517074552
 31
0.0
  0
LINE
  5
159
330
1F
100
AcDbEntity
  8
0
  6
Continuous
 62
     7
370
    15
100
AcDbLine
 10
366.4120213684
 20
1230.7517074552
 30
0.0
 11
365.879334658
 21
1230.7590984311
 31
0.0
  0
LINE
  5
15A
330
1F
100
AcDbEntity
  8
0
  6
Continuous
 62
     7
370
    15
100
AcDbLine
 10
445.1935367283
 20
1230.7517074552
 30
0.0
 11
366.4120213684
 21
1230.7517074552
 31
0.0
  0
LINE
  5
15B
330
1F
100
AcDbEntity
  8
0
  6
Continuous
 62
     7
370
    15
100
AcDbLine
 10
445.7262532409
 20
1230.7590984311
 30
0.0
 11
445.1935367283
 21
1230.7517074552
 31
0.0
  0
LINE
  5
15C
330
1F
100
AcDbEntity
  8
0
  6
Continuous
 62
     7
370
    15
100
AcDbLine
 10
466.4120303091
 20
1230.7517074552
 30
0.0
 11
465.8793286976
 21
1230.7590984311
 31
0.0
  0
LINE
  5
15D
330
1F
100
AcDbEntity
  8
0
  6
Continuous
 62
     7
370
    15
100
AcDbLine
 10
545.1935307678
 20
1230.7517074552
 30
0.0
 11
466.4120303091
 21
1230.7517074552
 31
0.0
  0
LINE
  5
15E
330
1F
100
AcDbEntity
  8
0
  6
Continuous
 62
     7
370
    15
100
AcDbLine
 10
545.7262323793
 20
1230.7590984311
 30
0.0
 11
545.1935307678
 21
1230.7517074552
 31
0.0
  0
LINE
  5
15F
330
1F
100
AcDbEntity
  8
0
  6
Continuous
 62
     7
370
    15
100
AcDbLine
 10
566.4120243486
 20
1230.7517074552
 30
0.0
 11
565.8793227371
 21
1230.7590984311
 31
0.0
  0
LINE
  5
160
330
1F
100
AcDbEntity
  8
0
  6
Continuous
 62
     7
370
    15
100
AcDbLine
 10
645.1935322579
 20
1230.7517074552
 30
0.0
 11
566.4120243486
 21
1230.7517074552
 31
0.0
  0
LINE
  5
161
330
1F
100
AcDbEntity
  8
0
  6
Continuous
 62
     7
370
    15
100
AcDbLine
 10
645.72624132
 20
1230.7590984311
 30
0.0
 11
645.1935322579
 21
1230.7517074552
 31
0.0
  0
LINE
  5
162
330
1F
100
AcDbEntity
  8
0
  6
Continuous
 62
     7
370
    15
100
AcDbLine
 10
666.412029564
 20
1230.7517074552
 30
0.0
 11
665.8793242272
 21
1230.7590984311
 31
0.0
  0
LINE
  5
163
330
1F
100
AcDbEntity
  8
0
  6
Continuous
 62
     7
370
    15
100
AcDbLine
 10
745.193533748
 20
1230.7517074552
 30
0.0
 11
666.412029564
 21
1230.7517074552
 31
0.0
  0
LINE
  5
164
330
1F
100
AcDbEntity
  8
0
  6
Continuous
 62
     7
370
    15
100
AcDbLine
 10
745.7262390848
 20
1230.7590984311
 30
0.0
 11
745.193533748
 21
1230.7517074552
 31
0.0
  0
LINE
  5
165
330
1F
100
AcDbEntity
  8
0
  6
Continuous
 62
     7
370
    15
100
AcDbLine
 10
766.4120310541
 20
1230.7517074552
 30
0.0
 11
765.8793257173
 21
1230.7590984311
 31
0.0
  0
LINE
  5
166
330
1F
100
AcDbEntity
  8
0
  6
Continuous
 62
     7
370
    15
100
AcDbLine
 10
845.1935277876
 20
1230.7517074552
 30
0.0
 11
766.4120310541
 21
1230.7517074552
 31
0.0
  0
LINE
  5
167
330
1F
100
AcDbEntity
  8
0
  6
Continuous
 62
     7
370
    15
100
AcDbLine
 10
260.7604043182
 20
1230.7590984311
 30
0.0
 11
260.7604043182
 21
1205.8382176366
 31
0.0
  0
LINE
  5
168
330
1F
100
AcDbEntity
  8
0
  6
Continuous
 62
     7
370
    15
100
AcDbLine
 10
1160.7604102787
 20
1230.7590984311
 30
0.0
 11
1160.7604102787
 21
1205.8382176366
 31
0.0
  0
LWPOLYLINE
  5
169
330
1F
100
AcDbEntity
  8
0
  6
Continuous
 62
     7
370
    15
100
AcDbPolyline
 90
        9
 70
   128
 43
0.0
 10
361.9551138576
 20
1232.6324128118
 10
361.542113274
 20
1232.3390983548
 10
361.4124731716
 20
1232.0287369695
 10
361.573733538
 20
1231.7193888631
 10
362.0165364441
 20
1231.4290546384
 10
362.7150730785
 20
1231.1745428052
 10
363.6287526783
 20
1230.9708141294
 10
364.7043482956
 20
1230.8295511213
 10
365.879334658
 20
1230.7590984311
  0
LINE
  5
16A
330
1F
100
AcDbEntity
  8
0
  6
Continuous
 62
     7
370
    15
100
AcDbLine
 10
361.9551138576
 20
1231.8596385923
 30
0.0
 11
361.6400735077
 21
1231.6594861951
 31
0.0
  0
LWPOLYLINE
  5
16B
330
1F
100
AcDbEntity
  8
0
  6
Continuous
 62
     7
370
    15
100
AcDbPolyline
 90
        9
 70
   128
 43
0.0
 10
280.760415047
 20
1232.0458435025
 10
280.8438913521
 20
1231.810345551
 10
281.0916082557
 20
1231.5827154126
 10
281.4952211078
 20
1231.3705228772
 10
282.0412890609
 20
1231.1809205022
 10
282.7115730938
 20
1231.0201667752
 10
283.4836916622
 20
1230.893685719
 10
284.331835955
 20
1230.8057092633
 10
285.227693766
 20
1230.7590984311
  0
LWPOLYLINE
  5
16C
330
1F
100
AcDbEntity
  8
0
  6
Continuous
 62
     7
370
    15
100
AcDbPolyline
 90
        9
 70
   128
 43
0.0
 10
1136.2931208309
 20
1230.7590984311
 10
1137.1889786419
 20
1230.8057092633
 10
1138.0371229347
 20
1230.893685719
 10
1138.8092415031
 20
1231.0201667752
 10
1139.4795255359
 20
1231.1809205022
 10
1140.025593489
 20
1231.3705228772
 10
1140.4292063411
 20
1231.5827154126
 10
1140.6769232448
 20
1231.810345551
 10
1140.7603995498
 20
1232.0458435025
  0
LWPOLYLINE
  5
16D
330
1F
100
AcDbEntity
  8
0
  6
Continuous
 62
     7
370
    15
100
AcDbPolyline
 90
        9
 70
   128
 43
0.0
 10
1061.9551019367
 20
1232.6324128118
 10
1061.542101353
 20
1232.3390983548
 10
1061.4124612507
 20
1232.0287369695
 10
1061.5737216171
 20
1231.7193888631
 10
1062.0165245231
 20
1231.4290546384
 10
1062.7150909599
 20
1231.1745428052
 10
1063.6287407573
 20
1230.9708141294
 10
1064.7043363746
 20
1230.8295511213
 10
1065.8793227371
 20
1230.7590984311
  0
LINE
  5
16E
330
1F
100
AcDbEntity
  8
0
  6
Continuous
 62
     7
370
    15
100
AcDbLine
 10
1061.9551019367
 20
1231.8596385923
 30
0.0
 11
1061.6400913891
 21
1231.6594861951
 31
0.0
  0
LWPOLYLINE
  5
16F
330
1F
100
AcDbEntity
  8
0
  6
Continuous
 62
     7
370
    15
100
AcDbPolyline
 90
        9
 70
   128
 43
0.0
 10
561.9551019367
 20
1232.6324128118
 10
561.542101353
 20
1232.3390983548
 10
561.4124612507
 20
1232.0287369695
 10
561.5737365183
 20
1231.7193888631
 10
562.0165245231
 20
1231.4290546384
 10
562.7150760587
 20
1231.1745428052
 10
563.6287407573
 20
1230.9708141294
 10
564.7043512758
 20
1230.8295511213
 10
565.8793227371
 20
1230.7590984311
  0
LINE
  5
170
330
1F
100
AcDbEntity
  8
0
  6
Continuous
 62
     7
370
    15
100
AcDbLine
 10
561.9551019367
 20
1231.8596385923
 30
0.0
 11
561.6400764879
 21
1231.6594861951
 31
0.0
  0
LWPOLYLINE
  5
171
330
1F
100
AcDbEntity
  8
0
  6
Continuous
 62
     7
370
    15
100
AcDbPolyline
 90
        9
 70
   128
 43
0.0
 10
661.9551034268
 20
1232.6324128118
 10
661.5421028432
 20
1232.3390983548
 10
661.4124664661
 20
1232.0287369695
 10
661.5737342831
 20
1231.7193888631
 10
662.0165260133
 20
1231.4290546384
 10
662.7150775489
 20
1231.1745428052
 10
663.6287385222
 20
1230.9708141294
 10
664.7043490406
 20
1230.8295511213
 10
665.8793242272
 20
1230.7590984311
  0
LINE
  5
172
330
1F
100
AcDbEntity
  8
0
  6
Continuous
 62
     7
370
    15
100
AcDbLine
 10
661.9551034268
 20
1231.8596385923
 30
0.0
 11
661.6400817033
 21
1231.6594861951
 31
0.0
  0
LWPOLYLINE
  5
173
330
1F
100
AcDbEntity
  8
0
  6
Continuous
 62
     7
370
    15
100
AcDbPolyline
 90
        9
 70
   128
 43
0.0
 10
861.9550989565
 20
1232.6324128118
 10
861.5420983728
 20
1232.3390983548
 10
861.4124731716
 20
1232.0287369695
 10
861.573733538
 20
1231.7193888631
 10
862.0165215429
 20
1231.4290546384
 10
862.7150730785
 20
1231.1745428052
 10
863.6287377771
 20
1230.9708141294
 10
864.7043482956
 20
1230.8295511213
 10
865.8793197569
 20
1230.7590984311
  0
LINE
  5
174
330
1F
100
AcDbEntity
  8
0
  6
Continuous
 62
     7
370
    15
100
AcDbLine
 10
861.9550989565
 20
1231.8596385923
 30
0.0
 11
861.6400884088
 21
1231.6594861951
 31
0.0
  0
LWPOLYLINE
  5
175
330
1F
100
AcDbEntity
  8
0
  6
Continuous
 62
     7
370
    15
100
AcDbPolyline
 90
        9
 70
   128
 43
0.0
 10
761.9551049169
 20
1232.6324128118
 10
761.5421043333
 20
1232.3390983548
 10
761.4124642309
 20
1232.0287369695
 10
761.5737357732
 20
1231.7193888631
 10
762.0165275034
 20
1231.4290546384
 10
762.7150753137
 20
1231.1745428052
 10
763.6287400123
 20
1230.9708141294
 10
764.7043505307
 20
1230.8295511213
 10
765.8793257173
 20
1230.7590984311
  0
LINE
  5
176
330
1F
100
AcDbEntity
  8
0
  6
Continuous
 62
     7
370
    15
100
AcDbLine
 10
761.9551049169
 20
1231.8596385923
 30
0.0
 11
761.6400831934
 21
1231.6594861951
 31
0.0
  0
LWPOLYLINE
  5
177
330
1F
100
AcDbEntity
  8
0
  6
Continuous
 62
     7
370
    15
100
AcDbPolyline
 90
        9
 70
   128
 43
0.0
 10
461.9551078972
 20
1232.6324128118
 10
461.5421073135
 20
1232.3390983548
 10
461.4124672111
 20
1232.0287369695
 10
461.5737275776
 20
1231.7193888631
 10
462.0165304836
 20
1231.4290546384
 10
462.7150820192
 20
1231.1745428052
 10
463.6287318166
 20
1230.9708141294
 10
464.7043572363
 20
1230.8295511213
 10
465.8793286976
 20
1230.7590984311
  0
LINE
  5
178
330
1F
100
AcDbEntity
  8
0
  6
Continuous
 62
     7
370
    15
100
AcDbLine
 10
461.9551078972
 20
1231.8596385923
 30
0.0
 11
461.6400824484
 21
1231.6594861951
 31
0.0
  0
LWPOLYLINE
  5
179
330
1F
100
AcDbEntity
  8
0
  6
Continuous
 62
     7
370
    15
100
AcDbPolyline
 90
        9
 70
   128
 43
0.0
 10
961.9551078972
 20
1232.6324128118
 10
961.5421073135
 20
1232.3390983548
 10
961.4124672111
 20
1232.0287369695
 10
961.5737275776
 20
1231.7193888631
 10
962.0165304836
 20
1231.4290546384
 10
962.715067118
 20
1231.1745428052
 10
963.6287467178
 20
1230.9708141294
 10
964.7043423351
 20
1230.8295511213
 10
965.8793286976
 20
1230.7590984311
  0
LINE
  5
17A
330
1F
100
AcDbEntity
  8
0
  6
Continuous
 62
     7
370
    15
100
AcDbLine
 10
961.9551078972
 20
1231.8596385923
 30
0.0
 11
961.6400675472
 21
1231.6594861951
 31
0.0
  0
LINE
  5
17B
330
1F
100
AcDbEntity
  8
0
  6
Continuous
 62
     7
370
    15
100
AcDbLine
 10
749.6504598852
 20
1231.4592741933
 30
0.0
 11
759.5657148954
 21
1236.5062974897
 31
0.0
  0
LWPOLYLINE
  5
17C
330
1F
100
AcDbEntity
  8
0
  6
Continuous
 62
     7
370
    15
100
AcDbPolyline
 90
        9
 70
   128
 43
0.0
 10
759.5657148954
 20
1236.5062974897
 10
759.9934005734
 20
1236.8164204564
 10
760.104809105
 20
1237.1444248166
 10
759.8927320536
 20
1237.4690913167
 10
759.3708971139
 20
1237.7694391217
 10
758.5730963942
 20
1238.0259775129
 10
757.5509847697
 20
1238.2220171895
 10
756.3707420226
 20
1238.3450411763
 10
755.1087887582
 20
1238.386883637
  0
LINE
  5
17D
330
1F
100
AcDbEntity
  8
0
  6
Continuous
 62
     7
370
    15
100
AcDbLine
 10
755.1087887582
 20
1238.386883637
 30
0.0
 11
676.3272845741
 21
1238.386883637
 31
0.0
  0
ARC
  5
17E
330
1F
100
AcDbEntity
  8
0
  6
Continuous
 62
     7
370
    15
100
AcDbCircle
 10
675.8264986298
 20
1227.149664777
 30
0.0
 40
11.24837207189804
100
AcDbArc
 50
87.448305584
 51
110.5918074087
  0
LINE
  5
17F
330
1F
100
AcDbEntity
  8
0
  6
Continuous
 62
     7
370
    15
100
AcDbLine
 10
671.8703584369
 20
1237.6793765035
 30
0.0
 11
661.9551034268
 21
1232.6324128118
 31
0.0
  0
LINE
  5
180
330
1F
100
AcDbEntity
  8
0
  6
Continuous
 62
     7
370
    15
100
AcDbLine
 10
649.6504583951
 20
1231.4592741933
 30
0.0
 11
659.5657134052
 21
1236.5062974897
 31
0.0
  0
LWPOLYLINE
  5
181
330
1F
100
AcDbEntity
  8
0
  6
Continuous
 62
     7
370
    15
100
AcDbPolyline
 90
        9
 70
   128
 43
0.0
 10
659.5657134052
 20
1236.5062974897
 10
659.9933990833
 20
1236.8164204564
 10
660.1048113402
 20
1237.1444248166
 10
659.8927305635
 20
1237.4690913167
 10
659.3708993491
 20
1237.7694391217
 10
658.5730986294
 20
1238.0259775129
 10
657.5509832796
 20
1238.2220171895
 10
656.3707405325
 20
1238.3450411763
 10
655.108787268
 20
1238.386883637
  0
LINE
  5
182
330
1F
100
AcDbEntity
  8
0
  6
Continuous
 62
     7
370
    15
100
AcDbLine
 10
655.108787268
 20
1238.386883637
 30
0.0
 11
576.3272868093
 21
1238.386883637
 31
0.0
  0
ARC
  5
183
330
1F
100
AcDbEntity
  8
0
  6
Continuous
 62
     7
370
    15
100
AcDbCircle
 10
575.8264972045
 20
1227.149708667
 30
0.0
 40
11.24832838847665
100
AcDbArc
 50
87.4482770037
 51
110.5918508198
  0
LINE
  5
184
330
1F
100
AcDbEntity
  8
0
  6
Continuous
 62
     7
370
    15
100
AcDbLine
 10
571.8703643974
 20
1237.6793765035
 30
0.0
 11
561.9551019367
 21
1232.6324128118
 31
0.0
  0
LINE
  5
185
330
1F
100
AcDbEntity
  8
0
  6
Continuous
 62
     7
370
    15
100
AcDbLine
 10
549.6504531797
 20
1231.4592741933
 30
0.0
 11
559.5657156404
 21
1236.5062974897
 31
0.0
  0
LWPOLYLINE
  5
186
330
1F
100
AcDbEntity
  8
0
  6
Continuous
 62
     7
370
    15
100
AcDbPolyline
 90
        9
 70
   128
 43
0.0
 10
559.5657156404
 20
1236.5062974897
 10
559.9933938678
 20
1236.8164204564
 10
560.1048098501
 20
1237.1444248166
 10
559.892736524
 20
1237.4690913167
 10
559.370897859
 20
1237.7694391217
 10
558.5730896887
 20
1238.0259775129
 10
557.55098924
 20
1238.2220171895
 10
556.3707427677
 20
1238.3450411763
 10
555.1087932285
 20
1238.386883637
  0
LINE
  5
187
330
1F
100
AcDbEntity
  8
0
  6
Continuous
 62
     7
370
    15
100
AcDbLine
 10
555.1087932285
 20
1238.386883637
 30
0.0
 11
476.3272778686
 21
1238.386883637
 31
0.0
  0
ARC
  5
188
330
1F
100
AcDbEntity
  8
0
  6
Continuous
 62
     7
370
    15
100
AcDbCircle
 10
475.826501162
 20
1227.149627415
 30
0.0
 40
11.24840898566549
100
AcDbArc
 50
87.448361064
 51
110.5917667595
  0
LINE
  5
189
330
1F
100
AcDbEntity
  8
0
  6
Continuous
 62
     7
370
    15
100
AcDbLine
 10
471.8703554567
 20
1237.6793765035
 30
0.0
 11
461.9551078972
 21
1232.6324128118
 31
0.0
  0
LINE
  5
18A
330
1F
100
AcDbEntity
  8
0
  6
Continuous
 62
     7
370
    15
100
AcDbLine
 10
449.6504740413
 20
1231.4592741933
 30
0.0
 11
459.5657066997
 21
1236.5062974897
 31
0.0
  0
LWPOLYLINE
  5
18B
330
1F
100
AcDbEntity
  8
0
  6
Continuous
 62
     7
370
    15
100
AcDbPolyline
 90
        9
 70
   128
 43
0.0
 10
459.5657066997
 20
1236.5062974897
 10
459.9933998283
 20
1236.8164204564
 10
460.1048009094
 20
1237.1444248166
 10
459.8927275833
 20
1237.4690913167
 10
459.3708889183
 20
1237.7694391217
 10
458.5731105503
 20
1238.0259775129
 10
457.5509802994
 20
1238.2220171895
 10
456.3707487282
 20
1238.3450411763
 10
455.108799189
 20
1238.386883637
  0
LINE
  5
18C
330
1F
100
AcDbEntity
  8
0
  6
Continuous
 62
     7
370
    15
100
AcDbLine
 10
455.108799189
 20
1238.386883637
 30
0.0
 11
376.3272838291
 21
1238.386883637
 31
0.0
  0
ARC
  5
18D
330
1F
100
AcDbEntity
  8
0
  6
Continuous
 62
     7
370
    15
100
AcDbCircle
 10
375.8265170135
 20
1227.1494817842
 30
0.0
 40
11.2485540317135
100
AcDbArc
 50
87.4484444191
 51
110.5916240813
  0
LINE
  5
18E
330
1F
100
AcDbEntity
  8
0
  6
Continuous
 62
     7
370
    15
100
AcDbLine
 10
371.870346516
 20
1237.6793765035
 30
0.0
 11
361.9551138576
 21
1232.6324128118
 31
0.0
  0
LINE
  5
18F
330
1F
100
AcDbEntity
  8
0
  6
Continuous
 62
     7
370
    15
100
AcDbLine
 10
349.6504501995
 20
1231.4592741933
 30
0.0
 11
359.5657126602
 21
1236.5062974897
 31
0.0
  0
LWPOLYLINE
  5
190
330
1F
100
AcDbEntity
  8
0
  6
Continuous
 62
     7
370
    15
100
AcDbPolyline
 90
        9
 70
   128
 43
0.0
 10
359.5657126602
 20
1236.5062974897
 10
359.9934057888
 20
1236.8164204564
 10
360.1048068699
 20
1237.1444248166
 10
359.8927335438
 20
1237.4690913167
 10
359.3708948787
 20
1237.7694391217
 10
358.5730867084
 20
1238.0259775129
 10
357.5509862598
 20
1238.2220171895
 10
356.3707546886
 20
1238.3450411763
 10
355.1087753471
 20
1238.386883637
  0
LINE
  5
191
330
1F
100
AcDbEntity
  8
0
  6
Continuous
 62
     7
370
    15
100
AcDbLine
 10
355.1087753471
 20
1238.386883637
 30
0.0
 11
285.7604102787
 21
1238.386883637
 31
0.0
  0
LWPOLYLINE
  5
192
330
1F
100
AcDbEntity
  8
0
  6
Continuous
 62
     7
370
    15
100
AcDbPolyline
 90
        9
 70
   128
 43
0.0
 10
285.7604102787
 20
1238.386883637
 10
284.7849504646
 20
1238.3620285001
 10
283.8469819721
 20
1238.2884167638
 10
282.9825656112
 20
1238.1687902417
 10
282.2248713669
 20
1238.0078577008
 10
281.6030757126
 20
1237.8117584195
 10
281.1410205063
 20
1237.5880621877
 10
280.8564679321
 20
1237.3452924695
 10
280.760415047
 20
1237.0928071942
  0
LINE
  5
193
330
1F
100
AcDbEntity
  8
0
  6
Continuous
 62
     7
370
    15
100
AcDbLine
 10
280.760415047
 20
1237.0928071942
 30
0.0
 11
280.760415047
 21
1232.0458435025
 31
0.0
  0
LINE
  5
194
330
1F
100
AcDbEntity
  8
0
  6
Continuous
 62
     7
370
    15
100
AcDbLine
 10
260.7604043182
 20
1239.6810196843
 30
0.0
 11
260.7604043182
 21
1230.7590984311
 31
0.0
  0
LINE
  5
195
330
1F
100
AcDbEntity
  8
0
  6
Continuous
 62
     7
370
    15
100
AcDbLine
 10
1160.7604102787
 20
1239.6810196843
 30
0.0
 11
1160.7604102787
 21
1230.7590984311
 31
0.0
  0
LINE
  5
196
330
1F
100
AcDbEntity
  8
0
  6
Continuous
 62
     7
370
    15
100
AcDbLine
 10
1140.7603995498
 20
1232.0458435025
 30
0.0
 11
1140.7603995498
 21
1237.0928071942
 31
0.0
  0
LWPOLYLINE
  5
197
330
1F
100
AcDbEntity
  8
0
  6
Continuous
 62
     7
370
    15
100
AcDbPolyline
 90
        9
 70
   128
 43
0.0
 10
1140.7603995498
 20
1237.0928071942
 10
1140.6643466648
 20
1237.3452924695
 10
1140.3797940906
 20
1237.5880621877
 10
1139.9177686867
 20
1237.8117584195
 10
1139.29594323
 20
1238.0078577008
 10
1138.5382489856
 20
1238.1687902417
 10
1137.6738326248
 20
1238.2884167638
 10
1136.7358641323
 20
1238.3620285001
 10
1135.7604043182
 20
1238.386883637
  0
LINE
  5
198
330
1F
100
AcDbEntity
  8
0
  6
Continuous
 62
     7
370
    15
100
AcDbLine
 10
1135.7604043182
 20
1238.386883637
 30
0.0
 11
1076.3272719082
 21
1238.386883637
 31
0.0
  0
ARC
  5
199
330
1F
100
AcDbEntity
  8
0
  6
Continuous
 62
     7
370
    15
100
AcDbCircle
 10
1075.8264853108
 20
1227.1497730432
 30
0.0
 40
11.24826394216527
100
AcDbArc
 50
87.4482777087
 51
110.5919094382
  0
LINE
  5
19A
330
1F
100
AcDbEntity
  8
0
  6
Continuous
 62
     7
370
    15
100
AcDbLine
 10
1071.8703643974
 20
1237.6793765035
 30
0.0
 11
1061.9551019367
 21
1232.6324128118
 31
0.0
  0
LINE
  5
19B
330
1F
100
AcDbEntity
  8
0
  6
Continuous
 62
     7
370
    15
100
AcDbLine
 10
1049.6504680809
 20
1231.4592741933
 30
0.0
 11
1059.5657007393
 21
1236.5062974897
 31
0.0
  0
LWPOLYLINE
  5
19C
330
1F
100
AcDbEntity
  8
0
  6
Continuous
 62
     7
370
    15
100
AcDbPolyline
 90
        9
 70
   128
 43
0.0
 10
1059.5657007393
 20
1236.5062974897
 10
1059.9933938678
 20
1236.8164204564
 10
1060.1047949489
 20
1237.1444248166
 10
1059.8927216228
 20
1237.4690913167
 10
1059.3709127601
 20
1237.7694391217
 10
1058.5731045898
 20
1238.0259775129
 10
1057.5509743389
 20
1238.2220171895
 10
1056.3707427677
 20
1238.3450411763
 10
1055.1087932285
 20
1238.386883637
  0
LINE
  5
19D
330
1F
100
AcDbEntity
  8
0
  6
Continuous
 62
     7
370
    15
100
AcDbLine
 10
1055.1087932285
 20
1238.386883637
 30
0.0
 11
976.3272778686
 21
1238.386883637
 31
0.0
  0
ARC
  5
19E
330
1F
100
AcDbEntity
  8
0
  6
Continuous
 62
     7
370
    15
100
AcDbCircle
 10
975.8264804508
 20
1227.1498412063
 30
0.0
 40
11.2481963283801
100
AcDbArc
 50
87.4482071882
 51
110.5919799588
  0
LINE
  5
19F
330
1F
100
AcDbEntity
  8
0
  6
Continuous
 62
     7
370
    15
100
AcDbLine
 10
971.8703703579
 20
1237.6793765035
 30
0.0
 11
961.9551078972
 21
1232.6324128118
 31
0.0
  0
LINE
  5
1A0
330
1F
100
AcDbEntity
  8
0
  6
Continuous
 62
     7
370
    15
100
AcDbLine
 10
949.6504591402
 20
1231.4592741933
 30
0.0
 11
959.5657066997
 21
1236.5062974897
 31
0.0
  0
LWPOLYLINE
  5
1A1
330
1F
100
AcDbEntity
  8
0
  6
Continuous
 62
     7
370
    15
100
AcDbPolyline
 90
        9
 70
   128
 43
0.0
 10
959.5657066997
 20
1236.5062974897
 10
959.9933998283
 20
1236.8164204564
 10
960.1048158106
 20
1237.1444248166
 10
959.8927275833
 20
1237.4690913167
 10
959.3709038194
 20
1237.7694391217
 10
958.5730956491
 20
1238.0259775129
 10
957.5509802994
 20
1238.2220171895
 10
956.3707487282
 20
1238.3450411763
 10
955.1087842878
 20
1238.386883637
  0
LINE
  5
1A2
330
1F
100
AcDbEntity
  8
0
  6
Continuous
 62
     7
370
    15
100
AcDbLine
 10
955.1087842878
 20
1238.386883637
 30
0.0
 11
876.3272838291
 21
1238.386883637
 31
0.0
  0
ARC
  5
1A3
330
1F
100
AcDbEntity
  8
0
  6
Continuous
 62
     7
370
    15
100
AcDbCircle
 10
875.8264942243
 20
1227.149708667
 30
0.0
 40
11.24832838847665
100
AcDbArc
 50
87.4482770037
 51
110.5918508198
  0
LINE
  5
1A4
330
1F
100
AcDbEntity
  8
0
  6
Continuous
 62
     7
370
    15
100
AcDbLine
 10
871.8703614172
 20
1237.6793765035
 30
0.0
 11
861.9550989565
 21
1232.6324128118
 31
0.0
  0
LINE
  5
1A5
330
1F
100
AcDbEntity
  8
0
  6
Continuous
 62
     7
370
    15
100
AcDbLine
 10
849.6504651006
 20
1231.4592741933
 30
0.0
 11
859.5657126602
 21
1236.5062974897
 31
0.0
  0
LWPOLYLINE
  5
1A6
330
1F
100
AcDbEntity
  8
0
  6
Continuous
 62
     7
370
    15
100
AcDbPolyline
 90
        9
 70
   128
 43
0.0
 10
859.5657126602
 20
1236.5062974897
 10
859.9934057888
 20
1236.8164204564
 10
860.1048068699
 20
1237.1444248166
 10
859.8927335438
 20
1237.4690913167
 10
859.3708948787
 20
1237.7694391217
 10
858.5731016096
 20
1238.0259775129
 10
857.5509862598
 20
1238.2220171895
 10
856.3707397875
 20
1238.3450411763
 10
855.1087902483
 20
1238.386883637
  0
LINE
  5
1A7
330
1F
100
AcDbEntity
  8
0
  6
Continuous
 62
     7
370
    15
100
AcDbLine
 10
855.1087902483
 20
1238.386883637
 30
0.0
 11
776.327282339
 21
1238.386883637
 31
0.0
  0
ARC
  5
1A8
330
1F
100
AcDbEntity
  8
0
  6
Continuous
 62
     7
370
    15
100
AcDbCircle
 10
775.8264996192
 20
1227.149644464
 30
0.0
 40
11.24839222120858
100
AcDbArc
 50
87.4483265991
 51
110.5917863936
  0
LINE
  5
1A9
330
1F
100
AcDbEntity
  8
0
  6
Continuous
 62
     7
370
    15
100
AcDbLine
 10
771.8703562018
 20
1237.6793765035
 30
0.0
 11
761.9551049169
 21
1232.6324128118
 31
0.0
  0
ARC
  5
1AA
330
1F
100
AcDbEntity
  8
0
  6
Continuous
 62
     7
370
    15
100
AcDbCircle
 10
1045.8957759577
 20
1241.1559300924
 30
0.0
 40
10.39821371996539
100
AcDbArc
 50
269.0658291571
 51
291.1671584322
  0
ARC
  5
1AB
330
1F
100
AcDbEntity
  8
0
  6
Continuous
 62
     7
370
    15
100
AcDbCircle
 10
945.8957842166
 20
1241.1558336955
 30
0.0
 40
10.39811761625757
100
AcDbArc
 50
269.0657257367
 51
291.1672618526
  0
ARC
  5
1AC
330
1F
100
AcDbEntity
  8
0
  6
Continuous
 62
     7
370
    15
100
AcDbCircle
 10
545.895788263
 20
1241.1557776104
 30
0.0
 40
10.39806170177836
100
AcDbArc
 50
269.0656655644
 51
291.1673220249
  0
ARC
  5
1AD
330
1F
100
AcDbEntity
  8
0
  6
Continuous
 62
     7
370
    15
100
AcDbCircle
 10
845.8957646236
 20
1241.1559769127
 30
0.0
 40
10.39826039781621
100
AcDbArc
 50
269.065879388
 51
291.1671082013
  0
ARC
  5
1AE
330
1F
100
AcDbEntity
  8
0
  6
Continuous
 62
     7
370
    15
100
AcDbCircle
 10
745.8957767752
 20
1241.1558795771
 30
0.0
 40
10.39816335833201
100
AcDbArc
 50
269.0657749616
 51
291.1672126278
  0
ARC
  5
1AF
330
1F
100
AcDbEntity
  8
0
  6
Continuous
 62
     7
370
    15
100
AcDbCircle
 10
645.8957798143
 20
1241.1558550947
 30
0.0
 40
10.3981388922154
100
AcDbArc
 50
269.0657683328
 51
291.1672380671
  0
ARC
  5
1B0
330
1F
100
AcDbEntity
  8
0
  6
Continuous
 62
     7
370
    15
100
AcDbCircle
 10
345.8957924748
 20
1241.1557373016
 30
0.0
 40
10.39802151566725
100
AcDbArc
 50
269.0656223177
 51
291.1673652716
  0
ARC
  5
1B1
330
1F
100
AcDbEntity
  8
0
  6
Continuous
 62
     7
370
    15
100
AcDbCircle
 10
445.8957652102
 20
1241.1560237342
 30
0.0
 40
10.39830707690484
100
AcDbArc
 50
269.0659296198
 51
291.1670579695
  0
LINE
  5
1B2
330
1F
100
AcDbEntity
  8
0
  6
Continuous
 62
     7
370
    15
100
AcDbLine
 10
371.870346516
 20
1236.906602284
 30
0.0
 11
361.9551138576
 21
1231.8596385923
 31
0.0
  0
LINE
  5
1B3
330
1F
100
AcDbEntity
  8
0
  6
Continuous
 62
     7
370
    15
100
AcDbLine
 10
1071.8703643974
 20
1236.906602284
 30
0.0
 11
1061.9551019367
 21
1231.8596385923
 31
0.0
  0
LINE
  5
1B4
330
1F
100
AcDbEntity
  8
0
  6
Continuous
 62
     7
370
    15
100
AcDbLine
 10
571.8703643974
 20
1236.906602284
 30
0.0
 11
561.9551019367
 21
1231.8596385923
 31
0.0
  0
LINE
  5
1B5
330
1F
100
AcDbEntity
  8
0
  6
Continuous
 62
     7
370
    15
100
AcDbLine
 10
671.8703584369
 20
1236.906602284
 30
0.0
 11
661.9551034268
 21
1231.8596385923
 31
0.0
  0
LINE
  5
1B6
330
1F
100
AcDbEntity
  8
0
  6
Continuous
 62
     7
370
    15
100
AcDbLine
 10
471.8703554567
 20
1236.906602284
 30
0.0
 11
461.9551078972
 21
1231.8596385923
 31
0.0
  0
LINE
  5
1B7
330
1F
100
AcDbEntity
  8
0
  6
Continuous
 62
     7
370
    15
100
AcDbLine
 10
871.8703614172
 20
1236.906602284
 30
0.0
 11
861.9550989565
 21
1231.8596385923
 31
0.0
  0
LINE
  5
1B8
330
1F
100
AcDbEntity
  8
0
  6
Continuous
 62
     7
370
    15
100
AcDbLine
 10
771.8703562018
 20
1236.906602284
 30
0.0
 11
761.9551049169
 21
1231.8596385923
 31
0.0
  0
LINE
  5
1B9
330
1F
100
AcDbEntity
  8
0
  6
Continuous
 62
     7
370
    15
100
AcDbLine
 10
971.8703703579
 20
1236.906602284
 30
0.0
 11
961.9551078972
 21
1231.8596385923
 31
0.0
  0
ARC
  5
1BA
330
1F
100
AcDbEntity
  8
0
  6
Continuous
 62
     7
370
    15
100
AcDbCircle
 10
355.779599613
 20
1228.1436384887
 30
0.0
 40
9.494258990565895
100
AcDbArc
 50
64.4080994143
 51
94.0516538583
  0
ARC
  5
1BB
330
1F
100
AcDbEntity
  8
0
  6
Continuous
 62
     7
370
    15
100
AcDbCircle
 10
455.7795720901
 20
1228.1433684604
 30
0.0
 40
9.494524715062354
100
AcDbArc
 50
64.4085237407
 51
94.051229532
  0
ARC
  5
1BC
330
1F
100
AcDbEntity
  8
0
  6
Continuous
 62
     7
370
    15
100
AcDbCircle
 10
655.7795896199
 20
1228.1435232848
 30
0.0
 40
9.494372358247347
100
AcDbArc
 50
64.4082804503
 51
94.0514728223
  0
ARC
  5
1BD
330
1F
100
AcDbEntity
  8
0
  6
Continuous
 62
     7
370
    15
100
AcDbCircle
 10
755.7795874029
 20
1228.1435037966
 30
0.0
 40
9.494391535838119
100
AcDbArc
 50
64.4083110744
 51
94.0514421982
  0
ARC
  5
1BE
330
1F
100
AcDbEntity
  8
0
  6
Continuous
 62
     7
370
    15
100
AcDbCircle
 10
855.7795839706
 20
1228.143477919
 30
0.0
 40
9.494417000954106
100
AcDbArc
 50
64.4083517387
 51
94.051401534
  0
ARC
  5
1BF
330
1F
100
AcDbEntity
  8
0
  6
Continuous
 62
     7
370
    15
100
AcDbCircle
 10
955.7795976997
 20
1228.1435814284
 30
0.0
 40
9.494315141352352
100
AcDbArc
 50
64.4081890816
 51
94.051564191
  0
ARC
  5
1C0
330
1F
100
AcDbEntity
  8
0
  6
Continuous
 62
     7
370
    15
100
AcDbCircle
 10
555.7795869509
 20
1228.143477919
 30
0.0
 40
9.49441700095413
100
AcDbArc
 50
64.4083517387
 51
94.051401534
  0
ARC
  5
1C1
330
1F
100
AcDbEntity
  8
0
  6
Continuous
 62
     7
370
    15
100
AcDbCircle
 10
1055.7795957863
 20
1228.1435243674
 30
0.0
 40
9.494371292857211
100
AcDbArc
 50
64.408278749
 51
94.0514745236
  0
LWPOLYLINE
  5
1C2
330
1F
100
AcDbEntity
  8
0
  6
Continuous
 62
     7
370
    15
100
AcDbPolyline
 90
        9
 70
   128
 43
0.0
 10
285.7604102787
 20
1237.6141690221
 10
284.7849504646
 20
1237.5893138852
 10
283.8469819721
 20
1237.5156425443
 10
282.9825656112
 20
1237.3960756269
 10
282.2248713669
 20
1237.235143086
 10
281.6030757126
 20
1237.0390438047
 10
281.1410205063
 20
1236.8152879682
 10
280.8564679321
 20
1236.57251825
 10
280.760415047
 20
1236.3200925794
  0
LWPOLYLINE
  5
1C3
330
1F
100
AcDbEntity
  8
0
  6
Continuous
 62
     7
370
    15
100
AcDbPolyline
 90
        9
 70
   128
 43
0.0
 10
1140.7603995498
 20
1236.3200925794
 10
1140.6643466648
 20
1236.57251825
 10
1140.3797940906
 20
1236.8152879682
 10
1139.9177686867
 20
1237.0390438047
 10
1139.29594323
 20
1237.235143086
 10
1138.5382489856
 20
1237.3960756269
 10
1137.6738326248
 20
1237.5156425443
 10
1136.7358641323
 20
1237.5893138852
 10
1135.7604043182
 20
1237.6141690221
  0
ARC
  5
1C4
330
1F
100
AcDbEntity
  8
0
  6
Continuous
 62
     7
370
    15
100
AcDbCircle
 10
375.8265332349
 20
1226.3775520153
 30
0.0
 40
11.24776924169514
100
AcDbArc
 50
87.4483489852
 51
110.5932143286
  0
ARC
  5
1C5
330
1F
100
AcDbEntity
  8
0
  6
Continuous
 62
     7
370
    15
100
AcDbCircle
 10
1075.8265015279
 20
1226.377843278
 30
0.0
 40
11.2474791487043
100
AcDbArc
 50
87.4481822377
 51
110.5934997322
  0
ARC
  5
1C6
330
1F
100
AcDbEntity
  8
0
  6
Continuous
 62
     7
370
    15
100
AcDbCircle
 10
575.8265134251
 20
1226.3777788848
 30
0.0
 40
11.24754361187122
100
AcDbArc
 50
87.4481815548
 51
110.5934410868
  0
ARC
  5
1C7
330
1F
100
AcDbEntity
  8
0
  6
Continuous
 62
     7
370
    15
100
AcDbCircle
 10
675.8265148498
 20
1226.3777350024
 30
0.0
 40
11.24758728774157
100
AcDbArc
 50
87.4482101326
 51
110.5933976771
  0
ARC
  5
1C8
330
1F
100
AcDbEntity
  8
0
  6
Continuous
 62
     7
370
    15
100
AcDbCircle
 10
875.8265104448
 20
1226.3777788848
 30
0.0
 40
11.24754361187122
100
AcDbArc
 50
87.4481815548
 51
110.5934410868
  0
ARC
  5
1C9
330
1F
100
AcDbEntity
  8
0
  6
Continuous
 62
     7
370
    15
100
AcDbCircle
 10
775.8265158388
 20
1226.3777146932
 30
0.0
 40
11.24760743326886
100
AcDbArc
 50
87.4482311468
 51
110.5933766629
  0
ARC
  5
1CA
330
1F
100
AcDbEntity
  8
0
  6
Continuous
 62
     7
370
    15
100
AcDbCircle
 10
475.8265173813
 20
1226.377697648
 30
0.0
 40
11.24762419392547
100
AcDbArc
 50
87.4482656115
 51
110.5933570302
  0
ARC
  5
1CB
330
1F
100
AcDbEntity
  8
0
  6
Continuous
 62
     7
370
    15
100
AcDbCircle
 10
975.8264966686
 20
1226.3779114309
 30
0.0
 40
11.24741154517521
100
AcDbArc
 50
87.4481117176
 51
110.5935702523
  0
LINE
  5
1CC
330
1F
100
AcDbEntity
  8
0
  6
Continuous
 62
     7
370
    15
100
AcDbLine
 10
355.1087753471
 20
1237.6141690221
 30
0.0
 11
285.7604102787
 21
1237.6141690221
 31
0.0
  0
LINE
  5
1CD
330
1F
100
AcDbEntity
  8
0
  6
Continuous
 62
     7
370
    15
100
AcDbLine
 10
1135.7604043182
 20
1237.6141690221
 30
0.0
 11
1076.3272719082
 21
1237.6141690221
 31
0.0
  0
LINE
  5
1CE
330
1F
100
AcDbEntity
  8
0
  6
Continuous
 62
     7
370
    15
100
AcDbLine
 10
455.108799189
 20
1237.6141690221
 30
0.0
 11
376.3272838291
 21
1237.6141690221
 31
0.0
  0
LINE
  5
1CF
330
1F
100
AcDbEntity
  8
0
  6
Continuous
 62
     7
370
    15
100
AcDbLine
 10
655.108787268
 20
1237.6141690221
 30
0.0
 11
576.3272868093
 21
1237.6141690221
 31
0.0
  0
LINE
  5
1D0
330
1F
100
AcDbEntity
  8
0
  6
Continuous
 62
     7
370
    15
100
AcDbLine
 10
755.1087887582
 20
1237.6141690221
 30
0.0
 11
676.3272845741
 21
1237.6141690221
 31
0.0
  0
LINE
  5
1D1
330
1F
100
AcDbEntity
  8
0
  6
Continuous
 62
     7
370
    15
100
AcDbLine
 10
555.1087932285
 20
1237.6141690221
 30
0.0
 11
476.3272778686
 21
1237.6141690221
 31
0.0
  0
LINE
  5
1D2
330
1F
100
AcDbEntity
  8
0
  6
Continuous
 62
     7
370
    15
100
AcDbLine
 10
855.1087902483
 20
1237.6141690221
 30
0.0
 11
776.327282339
 21
1237.6141690221
 31
0.0
  0
LINE
  5
1D3
330
1F
100
AcDbEntity
  8
0
  6
Continuous
 62
     7
370
    15
100
AcDbLine
 10
955.1087842878
 20
1237.6141690221
 30
0.0
 11
876.3272838291
 21
1237.6141690221
 31
0.0
  0
LINE
  5
1D4
330
1F
100
AcDbEntity
  8
0
  6
Continuous
 62
     7
370
    15
100
AcDbLine
 10
1055.1087932285
 20
1237.6141690221
 30
0.0
 11
976.3272778686
 21
1237.6141690221
 31
0.0
  0
LINE
  5
1D5
330
1F
100
AcDbEntity
  8
0
  6
Continuous
 62
     7
370
    15
100
AcDbLine
 10
1160.7604102787
 20
1239.750876328
 30
0.0
 11
1160.7604102787
 21
1239.6810196843
 31
0.0
  0
LINE
  5
1D6
330
1F
100
AcDbEntity
  8
0
  6
Continuous
 62
     7
370
    15
100
AcDbLine
 10
260.7604043182
 20
1239.750876328
 30
0.0
 11
260.7604043182
 21
1239.6810196843
 31
0.0
  0
LINE
  5
1D7
330
1F
100
AcDbEntity
  8
0
  6
Continuous
 62
     7
370
    15
100
AcDbLine
 10
1159.5604197677
 20
1145.0538777318
 30
0.0
 11
1159.5604197677
 21
1189.7160552945
 31
0.0
  0
LINE
  5
1D8
330
1F
100
AcDbEntity
  8
0
  6
Continuous
 62
     7
370
    15
100
AcDbLine
 10
261.9603948292
 20
1145.0538777318
 30
0.0
 11
261.9603948292
 21
1189.7160552945
 31
0.0
  0
LINE
  5
1D9
330
1F
100
AcDbEntity
  8
0
  6
Continuous
 62
     7
370
    15
100
AcDbLine
 10
261.9603948292
 20
1189.7160552945
 30
0.0
 11
263.2104234394
 21
1189.7160552945
 31
0.0
  0
LINE
  5
1DA
330
1F
100
AcDbEntity
  8
0
  6
Continuous
 62
     7
370
    15
100
AcDbLine
 10
263.2104234394
 20
1189.7160552945
 30
0.0
 11
263.2104234394
 21
1189.7214197126
 31
0.0
  0
LINE
  5
1DB
330
1F
100
AcDbEntity
  8
0
  6
Continuous
 62
     7
370
    15
100
AcDbLine
 10
1158.3104209598
 20
1189.7214197126
 30
0.0
 11
263.2104234394
 21
1189.7214197126
 31
0.0
  0
LINE
  5
1DC
330
1F
100
AcDbEntity
  8
0
  6
Continuous
 62
     7
370
    15
100
AcDbLine
 10
1158.3104209598
 20
1189.7214197126
 30
0.0
 11
1158.3104209598
 21
1189.7160552945
 31
0.0
  0
LINE
  5
1DD
330
1F
100
AcDbEntity
  8
0
  6
Continuous
 62
     7
370
    15
100
AcDbLine
 10
1158.3104209598
 20
1189.7160552945
 30
0.0
 11
1159.5604197677
 21
1189.7160552945
 31
0.0
  0
LINE
  5
1DE
330
1F
100
AcDbEntity
  8
0
  6
Continuous
 62
     7
370
    15
100
AcDbLine
 10
260.7604043182
 20
1146.2460898366
 30
0.0
 11
260.7604043182
 21
1188.4157203641
 31
0.0
  0
LINE
  5
1DF
330
1F
100
AcDbEntity
  8
0
  6
Continuous
 62
     7
370
    15
100
AcDbLine
 10
260.7604043182
 20
1188.4157203641
 30
0.0
 11
261.9603948292
 21
1188.4157203641
 31
0.0
  0
LINE
  5
1E0
330
1F
100
AcDbEntity
  8
0
  6
Continuous
 62
     7
370
    15
100
AcDbLine
 10
1160.7604102787
 20
1188.4157203641
 30
0.0
 11
1159.5604197677
 21
1188.4157203641
 31
0.0
  0
LINE
  5
1E1
330
1F
100
AcDbEntity
  8
0
  6
Continuous
 62
     7
370
    15
100
AcDbLine
 10
1160.7604102787
 20
1146.2460898366
 30
0.0
 11
1160.7604102787
 21
1188.4157203641
 31
0.0
  0
LINE
  5
1E2
330
1F
100
AcDbEntity
  8
0
  6
Continuous
 62
     7
370
    15
100
AcDbLine
 10
764.9604083594
 20
1137.4510668721
 30
0.0
 11
764.9604083594
 21
1138.8865851369
 31
0.0
  0
LWPOLYLINE
  5
1E3
330
1F
100
AcDbEntity
  8
0
  6
Continuous
 62
     7
370
    15
100
AcDbPolyline
 90
       10
 70
   128
 43
0.0
 10
764.9604083594
 20
1138.8865851369
 10
764.7674234208
 20
1139.3229507413
 10
764.2117516693
 20
1139.706745049
 10
763.3604073521
 20
1139.9915956464
 10
762.3160818216
 20
1140.1431702581
 10
761.2047345933
 20
1140.1431702581
 10
760.1604090627
 20
1139.9915956464
 10
759.3090684708
 20
1139.706745049
 10
758.753392994
 20
1139.3229507413
 10
758.5604080554
 20
1138.8865851369
  0
LINE
  5
1E4
330
1F
100
AcDbEntity
  8
0
  6
Continuous
 62
     7
370
    15
100
AcDbLine
 10
758.5604080554
 20
1138.8865851369
 30
0.0
 11
758.5604080554
 21
1137.4510668721
 31
0.0
  0
LWPOLYLINE
  5
1E5
330
1F
100
AcDbEntity
  8
0
  6
Continuous
 62
     7
370
    15
100
AcDbPolyline
 90
       10
 70
   128
 43
0.0
 10
758.5604080554
 20
1137.4510668721
 10
758.753392994
 20
1137.0146416631
 10
759.3090684708
 20
1136.6308473554
 10
760.1604090627
 20
1136.345996758
 10
761.2047345933
 20
1136.194481751
 10
762.3160818216
 20
1136.194481751
 10
763.3604073521
 20
1136.345996758
 10
764.2117516693
 20
1136.6308473554
 10
764.7674234208
 20
1137.0146416631
 10
764.9604083594
 20
1137.4510668721
  0
LWPOLYLINE
  5
1E6
330
1F
100
AcDbEntity
  8
0
  6
Continuous
 62
     7
370
    15
100
AcDbPolyline
 90
        9
 70
   128
 43
0.0
 10
1112.7604024109
 20
1138.9663361516
 10
1112.6643495258
 20
1139.3552564588
 10
1112.3797969516
 20
1139.7292756047
 10
1111.9177715477
 20
1140.0739692655
 10
1111.2959460911
 20
1140.3761052098
 10
1110.5382518467
 20
1140.6240605321
 10
1109.6738354858
 20
1140.8082984891
 10
1108.7358669933
 20
1140.9217261281
 10
1107.7604071792
 20
1140.9600519147
  0
LINE
  5
1E7
330
1F
100
AcDbEntity
  8
0
  6
Continuous
 62
     7
370
    15
100
AcDbLine
 10
1107.7604071792
 20
1140.9600519147
 30
0.0
 11
779.2604120072
 21
1140.9600519147
 31
0.0
  0
LWPOLYLINE
  5
1E8
330
1F
100
AcDbEntity
  8
0
  6
Continuous
 62
     7
370
    15
100
AcDbPolyline
 90
        9
 70
   128
 43
0.0
 10
779.2604120072
 20
1140.9600519147
 10
778.2849596437
 20
1140.9217261281
 10
777.3469911512
 20
1140.8082984891
 10
776.4825598892
 20
1140.6240605321
 10
775.7248730954
 20
1140.3761052098
 10
775.1030625399
 20
1140.0739692655
 10
774.6410147842
 20
1139.7292756047
 10
774.3564845618
 20
1139.3552564588
 10
774.260409325
 20
1138.9663361516
  0
LINE
  5
1E9
330
1F
100
AcDbEntity
  8
0
  6
Continuous
 62
     7
370
    15
100
AcDbLine
 10
774.260409325
 20
1138.9663361516
 30
0.0
 11
774.260409325
 21
1136.9725607839
 31
0.0
  0
LWPOLYLINE
  5
1EA
330
1F
100
AcDbEntity
  8
0
  6
Continuous
 62
     7
370
    15
100
AcDbPolyline
 90
        9
 70
   128
 43
0.0
 10
769.2604103681
 20
1134.9788450208
 10
770.2358590063
 20
1135.0171112027
 10
771.1738274988
 20
1135.1305984464
 10
772.0382587608
 20
1135.3148364034
 10
772.7959418293
 20
1135.5627917257
 10
773.4177561101
 20
1135.86492767
 10
773.8798038658
 20
1136.2096213308
 10
774.1643340882
 20
1136.5835808721
 10
774.260409325
 20
1136.9725607839
  0
LINE
  5
1EB
330
1F
100
AcDbEntity
  8
0
  6
Continuous
 62
     7
370
    15
100
AcDbLine
 10
769.2604103681
 20
1134.9788450208
 30
0.0
 11
754.260409772
 21
1134.9788450208
 31
0.0
  0
LWPOLYLINE
  5
1EC
330
1F
100
AcDbEntity
  8
0
  6
Continuous
 62
     7
370
    15
100
AcDbPolyline
 90
        9
 70
   128
 43
0.0
 10
749.2604070898
 20
1136.9725607839
 10
749.3564823266
 20
1136.5835808721
 10
749.641012549
 20
1136.2096213308
 10
750.1030603048
 20
1135.86492767
 10
750.7248745855
 20
1135.5627917257
 10
751.482557654
 20
1135.3148364034
 10
752.3469926413
 20
1135.1305984464
 10
753.2849574085
 20
1135.0171112027
 10
754.260409772
 20
1134.9788450208
  0
LINE
  5
1ED
330
1F
100
AcDbEntity
  8
0
  6
Continuous
 62
     7
370
    15
100
AcDbLine
 10
749.2604070898
 20
1136.9725607839
 30
0.0
 11
749.2604070898
 21
1138.9663361516
 31
0.0
  0
LWPOLYLINE
  5
1EE
330
1F
100
AcDbEntity
  8
0
  6
Continuous
 62
     7
370
    15
100
AcDbPolyline
 90
        9
 70
   128
 43
0.0
 10
749.2604070898
 20
1138.9663361516
 10
749.1643355783
 20
1139.3552564588
 10
748.8798053559
 20
1139.7292756047
 10
748.4177576002
 20
1140.0739692655
 10
747.7959433194
 20
1140.3761052098
 10
747.0382602509
 20
1140.6240605321
 10
746.1738252636
 20
1140.8082984891
 10
745.2358604964
 20
1140.9217261281
 10
744.2604081329
 20
1140.9600519147
  0
LINE
  5
1EF
330
1F
100
AcDbEntity
  8
0
  6
Continuous
 62
     7
370
    15
100
AcDbLine
 10
744.2604081329
 20
1140.9600519147
 30
0.0
 11
313.7604074177
 21
1140.9600519147
 31
0.0
  0
LWPOLYLINE
  5
1F0
330
1F
100
AcDbEntity
  8
0
  6
Continuous
 62
     7
370
    15
100
AcDbPolyline
 90
        9
 70
   128
 43
0.0
 10
313.7604074177
 20
1140.9600519147
 10
312.7849476036
 20
1140.9217261281
 10
311.8469791111
 20
1140.8082984891
 10
310.9825627502
 20
1140.6240605321
 10
310.2248685058
 20
1140.3761052098
 10
309.6030728515
 20
1140.0739692655
 10
309.1410176452
 20
1139.7292756047
 10
308.8564948734
 20
1139.3552564588
 10
308.760412186
 20
1138.9663361516
  0
LINE
  5
1F1
330
1F
100
AcDbEntity
  8
0
  6
Continuous
 62
     7
370
    15
100
AcDbLine
 10
308.760412186
 20
1138.9663361516
 30
0.0
 11
308.760412186
 21
1136.9725607839
 31
0.0
  0
LWPOLYLINE
  5
1F2
330
1F
100
AcDbEntity
  8
0
  6
Continuous
 62
     7
370
    15
100
AcDbPolyline
 90
        9
 70
   128
 43
0.0
 10
303.7604169544
 20
1134.9788450208
 10
304.7358469661
 20
1135.0171112027
 10
305.6738154587
 20
1135.1305984464
 10
306.5382616218
 20
1135.3148364034
 10
307.2959558662
 20
1135.5627917257
 10
307.9177515205
 20
1135.86492767
 10
308.3798067268
 20
1136.2096213308
 10
308.6643294986
 20
1136.5835808721
 10
308.760412186
 20
1136.9725607839
  0
LINE
  5
1F3
330
1F
100
AcDbEntity
  8
0
  6
Continuous
 62
     7
370
    15
100
AcDbLine
 10
303.7604169544
 20
1134.9788450208
 30
0.0
 11
291.260399073
 21
1134.9788450208
 31
0.0
  0
LINE
  5
1F4
330
1F
100
AcDbEntity
  8
0
  6
Continuous
 62
     7
370
    15
100
AcDbLine
 10
276.2604133781
 20
1134.9788450208
 30
0.0
 11
261.9603948292
 21
1134.9788450208
 31
0.0
  0
LINE
  5
1F5
330
1F
100
AcDbEntity
  8
0
  6
Continuous
 62
     7
370
    15
100
AcDbLine
 10
1159.5604197677
 20
1134.9788450208
 30
0.0
 11
1145.2604012188
 21
1134.9788450208
 31
0.0
  0
LINE
  5
1F6
330
1F
100
AcDbEntity
  8
0
  6
Continuous
 62
     7
370
    15
100
AcDbLine
 10
1130.2604155239
 20
1134.9788450208
 30
0.0
 11
1117.7603976425
 21
1134.9788450208
 31
0.0
  0
LWPOLYLINE
  5
1F7
330
1F
100
AcDbEntity
  8
0
  6
Continuous
 62
     7
370
    15
100
AcDbPolyline
 90
        9
 70
   128
 43
0.0
 10
1112.7604024109
 20
1136.9725607839
 10
1112.8564850982
 20
1136.5835808721
 10
1113.1410078701
 20
1136.2096213308
 10
1113.6030630764
 20
1135.86492767
 10
1114.224888533
 20
1135.5627917257
 10
1114.9825529751
 20
1135.3148364034
 10
1115.8469991382
 20
1135.1305984464
 10
1116.7849676307
 20
1135.0171112027
 10
1117.7603976425
 20
1134.9788450208
  0
LINE
  5
1F8
330
1F
100
AcDbEntity
  8
0
  6
Continuous
 62
     7
370
    15
100
AcDbLine
 10
1112.7604024109
 20
1136.9725607839
 30
0.0
 11
1112.7604024109
 21
1138.9663361516
 31
0.0
  0
LINE
  5
1F9
330
1F
100
AcDbEntity
  8
0
  6
Continuous
 62
     7
370
    15
100
AcDbLine
 10
1159.5604197677
 20
1134.9788450208
 30
0.0
 11
1159.5604197677
 21
1145.0538777318
 31
0.0
  0
LINE
  5
1FA
330
1F
100
AcDbEntity
  8
0
  6
Continuous
 62
     7
370
    15
100
AcDbLine
 10
261.9603948292
 20
1134.9788450208
 30
0.0
 11
261.9603948292
 21
1145.0538777318
 31
0.0
  0
LINE
  5
1FB
330
1F
100
AcDbEntity
  8
0
  6
Continuous
 62
     7
370
    15
100
AcDbLine
 10
1160.7604102787
 20
1134.72141256
 30
0.0
 11
1160.7604102787
 21
1146.2460898366
 31
0.0
  0
LINE
  5
1FC
330
1F
100
AcDbEntity
  8
0
  6
Continuous
 62
     7
370
    15
100
AcDbLine
 10
1159.5604197677
 20
1134.72141256
 30
0.0
 11
1159.5604197677
 21
1134.9788450208
 31
0.0
  0
LINE
  5
1FD
330
1F
100
AcDbEntity
  8
0
  6
Continuous
 62
     7
370
    15
100
AcDbLine
 10
260.7604043182
 20
1134.72141256
 30
0.0
 11
260.7604043182
 21
1146.2460898366
 31
0.0
  0
LINE
  5
1FE
330
1F
100
AcDbEntity
  8
0
  6
Continuous
 62
     7
370
    15
100
AcDbLine
 10
261.9603948292
 20
1134.72141256
 30
0.0
 11
261.9603948292
 21
1134.9788450208
 31
0.0
  0
LINE
  5
1FF
330
1F
100
AcDbEntity
  8
0
  6
Continuous
 62
     7
370
    15
100
AcDbLine
 10
263.2104234394
 20
1189.7214197126
 30
0.0
 11
263.0483584102
 21
1189.7160552945
 31
0.0
  0
ARC
  5
200
330
1F
100
AcDbEntity
  8
0
  6
Continuous
 62
     7
370
    15
100
AcDbCircle
 10
263.2104088789
 20
1187.2714042901
 30
0.0
 40
2.45000000000002
100
AcDbArc
 50
120.6774244726
 51
152.1558358072
  0
ARC
  5
201
330
1F
100
AcDbEntity
  8
0
  6
Continuous
 62
     7
370
    15
100
AcDbCircle
 10
1158.3104088789
 20
1187.2714042901
 30
0.0
 40
2.450000000000165
100
AcDbArc
 50
27.8441641928
 51
59.3225755274
  0
LINE
  5
202
330
1F
100
AcDbEntity
  8
0
  6
Continuous
 62
     7
370
    15
100
AcDbLine
 10
1158.4724561867
 20
1189.7160552945
 30
0.0
 11
1158.3104209598
 21
1189.7214197126
 31
0.0
  0
ARC
  5
203
330
1F
100
AcDbEntity
  8
0
  6
Continuous
 62
     7
370
    15
100
AcDbCircle
 10
1137.7737147815
 20
1144.1921933284
 30
0.0
 40
6.929794125972314
100
AcDbArc
 50
251.2802658862
 51
283.2678777922
  0
ARC
  5
204
330
1F
100
AcDbEntity
  8
0
  6
Continuous
 62
     7
370
    15
100
AcDbCircle
 10
283.7701275457
 20
1144.1661496774
 30
0.0
 40
6.904359274016567
100
AcDbArc
 50
251.3299746193
 51
286.4343522183
  0
LWPOLYLINE
  5
205
330
1F
100
AcDbEntity
  8
0
  6
Continuous
 62
     7
370
    15
100
AcDbPolyline
 90
       10
 70
   128
 43
0.0
 10
758.5604080554
 20
1138.5515474286
 10
758.753392994
 20
1138.1151222196
 10
759.3090684708
 20
1137.7313279119
 10
760.1604090627
 20
1137.4464773145
 10
761.2047345933
 20
1137.2949027028
 10
762.3160818216
 20
1137.2949027028
 10
763.3604073521
 20
1137.4464773145
 10
764.2117516693
 20
1137.7313279119
 10
764.7674234208
 20
1138.1151222196
 10
764.9604083594
 20
1138.5515474286
  0
LINE
  5
206
330
1F
100
AcDbEntity
  8
0
  6
Continuous
 62
     7
370
    15
100
AcDbLine
 10
1131.6225306686
 20
1140.5565284696
 30
0.0
 11
1142.7225248512
 21
1140.5565284696
 31
0.0
  0
LINE
  5
207
330
1F
100
AcDbEntity
  8
0
  6
Continuous
 62
     7
370
    15
100
AcDbLine
 10
1131.6225306686
 20
1140.9600519147
 30
0.0
 11
1142.7225248512
 21
1140.9600519147
 31
0.0
  0
LINE
  5
208
330
1F
100
AcDbEntity
  8
0
  6
Continuous
 62
     7
370
    15
100
AcDbLine
 10
1142.7225248512
 20
1140.5565284696
 30
0.0
 11
1142.7225248512
 21
1140.9600519147
 31
0.0
  0
LINE
  5
209
330
1F
100
AcDbEntity
  8
0
  6
Continuous
 62
     7
370
    15
100
AcDbLine
 10
1131.6225306686
 20
1140.5565284696
 30
0.0
 11
1131.6225306686
 21
1140.9600519147
 31
0.0
  0
LWPOLYLINE
  5
20A
330
1F
100
AcDbEntity
  8
0
  6
Continuous
 62
     7
370
    15
100
AcDbPolyline
 90
       13
 70
   128
 43
0.0
 10
1134.9253134426
 20
1137.2915648427
 10
1134.9225418266
 20
1137.2469209638
 10
1135.0938157734
 20
1136.9035982099
 10
1135.5815307792
 20
1136.6125487294
 10
1136.3114790615
 20
1136.4180587735
 10
1137.1725277599
 20
1136.3497518506
 10
1138.0335764583
 20
1136.4180587735
 10
1138.7635247406
 20
1136.6125487294
 10
1139.2512695488
 20
1136.9035982099
 10
1139.4225434955
 20
1137.2469209638
 10
1139.2512695488
 20
1137.5902437177
 10
1138.7635247406
 20
1137.8813528028
 10
1138.5836975273
 20
1137.9457258191
  0
LINE
  5
20B
330
1F
100
AcDbEntity
  8
0
  6
Continuous
 62
     7
370
    15
100
AcDbLine
 10
1142.7225248512
 20
1139.5955823865
 30
0.0
 11
1142.7225248512
 21
1140.5565284696
 31
0.0
  0
LINE
  5
20C
330
1F
100
AcDbEntity
  8
0
  6
Continuous
 62
     7
370
    15
100
AcDbLine
 10
1131.6225306686
 20
1139.2207287755
 30
0.0
 11
1131.6225306686
 21
1140.5565284696
 31
0.0
  0
ARC
  5
20D
330
1F
100
AcDbEntity
  8
0
  6
Continuous
 62
     7
370
    15
100
AcDbCircle
 10
1137.1499104833
 20
1140.1952211683
 30
0.0
 40
3.528944698236821
100
AcDbArc
 50
233.1826752872
 51
308.8619063957
  0
LINE
  5
20E
330
1F
100
AcDbEntity
  8
0
  6
Continuous
 62
     7
370
    15
100
AcDbLine
 10
278.0502812561
 20
1140.5565284696
 30
0.0
 11
289.1502754387
 21
1140.5565284696
 31
0.0
  0
LINE
  5
20F
330
1F
100
AcDbEntity
  8
0
  6
Continuous
 62
     7
370
    15
100
AcDbLine
 10
278.0502812561
 20
1140.9600519147
 30
0.0
 11
289.1502754387
 21
1140.9600519147
 31
0.0
  0
LINE
  5
210
330
1F
100
AcDbEntity
  8
0
  6
Continuous
 62
     7
370
    15
100
AcDbLine
 10
278.0502812561
 20
1140.5565284696
 30
0.0
 11
278.0502812561
 21
1140.9600519147
 31
0.0
  0
LINE
  5
211
330
1F
100
AcDbEntity
  8
0
  6
Continuous
 62
     7
370
    15
100
AcDbLine
 10
289.1502754387
 20
1140.5565284696
 30
0.0
 11
289.1502754387
 21
1140.9600519147
 31
0.0
  0
LWPOLYLINE
  5
212
330
1F
100
AcDbEntity
  8
0
  6
Continuous
 62
     7
370
    15
100
AcDbPolyline
 90
       11
 70
   128
 43
0.0
 10
281.3502626117
 20
1137.2469209638
 10
281.5215365585
 20
1136.9035982099
 10
282.0092813667
 20
1136.6125487294
 10
282.7392296489
 20
1136.4180587735
 10
283.6002783474
 20
1136.3497518506
 10
284.4612972435
 20
1136.4180587735
 10
285.191275328
 20
1136.6125487294
 10
285.6789903339
 20
1136.9035982099
 10
285.8502642807
 20
1137.2469209638
 10
285.6789903339
 20
1137.5902437177
 10
285.3239552673
 20
1137.823595902
  0
LWPOLYLINE
  5
213
330
1F
100
AcDbEntity
  8
0
  6
Continuous
 62
     7
370
    15
100
AcDbPolyline
 90
        3
 70
   128
 43
0.0
 10
281.5599219497
 20
1137.6251124349
 10
281.5215365585
 20
1137.5902437177
 10
281.3502626117
 20
1137.2469209638
  0
LINE
  5
214
330
1F
100
AcDbEntity
  8
0
  6
Continuous
 62
     7
370
    15
100
AcDbLine
 10
278.0502812561
 20
1139.3847607579
 30
0.0
 11
278.0502812561
 21
1140.5565284696
 31
0.0
  0
LINE
  5
215
330
1F
100
AcDbEntity
  8
0
  6
Continuous
 62
     7
370
    15
100
AcDbLine
 10
289.1502754387
 20
1139.4851349797
 30
0.0
 11
289.1502754387
 21
1140.5565284696
 31
0.0
  0
ARC
  5
216
330
1F
100
AcDbEntity
  8
0
  6
Continuous
 62
     7
370
    15
100
AcDbCircle
 10
283.6002783474
 20
1140.0934010301
 30
0.0
 40
3.435266598964622
100
AcDbArc
 50
230.3424685214
 51
309.6575314786
  0
ARC
  5
217
330
1F
100
AcDbEntity
  8
0
  6
Continuous
 62
     7
370
    15
100
AcDbCircle
 10
828.5613772724
 20
1080.268430911
 30
0.0
 40
0.0662918513767206
100
AcDbArc
 50
295.4141558556
 51
333.597410308
  0
ARC
  5
218
330
1F
100
AcDbEntity
  8
0
  6
Continuous
 62
     7
370
    15
100
AcDbCircle
 10
812.7604091164
 20
1105.3098393579
 30
0.0
 40
29.67566322321552
100
AcDbArc
 50
237.7635751065
 51
302.2364248935
  0
ARC
  5
219
330
1F
100
AcDbEntity
  8
0
  6
Continuous
 62
     7
370
    15
100
AcDbCircle
 10
796.9611946856
 20
1080.2702151545
 30
0.0
 40
0.0686609344088112
100
AcDbArc
 50
207.0854503321
 51
243.9029835044
  0
LINE
  5
21A
330
1F
100
AcDbEntity
  8
0
  6
Continuous
 62
     7
370
    15
100
AcDbLine
 10
824.3790940937
 20
1093.9927839246
 30
0.0
 11
824.3742288645
 21
1094.0165065732
 31
0.0
  0
LINE
  5
21B
330
1F
100
AcDbEntity
  8
0
  6
Continuous
 62
     7
370
    15
100
AcDbLine
 10
824.3635819849
 20
1094.0560840573
 30
0.0
 11
826.8552871045
 21
1082.585229775
 31
0.0
  0
LINE
  5
21C
330
1F
100
AcDbEntity
  8
0
  6
Continuous
 62
     7
370
    15
100
AcDbLine
 10
798.6655311283
 20
1082.585229775
 30
0.0
 11
801.1572362479
 21
1094.0560840573
 31
0.0
  0
LINE
  5
21D
330
1F
100
AcDbEntity
  8
0
  6
Continuous
 62
     7
370
    15
100
AcDbLine
 10
801.1417241391
 20
1093.9927839246
 30
0.0
 11
801.1465893682
 21
1094.0165065732
 31
0.0
  0
ARC
  5
21E
330
1F
100
AcDbEntity
  8
0
  6
Continuous
 62
     7
370
    15
100
AcDbCircle
 10
747.3305488877
 20
1108.6250685659
 30
0.0
 40
55.76349685756372
100
AcDbArc
 50
344.8549337107
 51
15.1450662893
  0
ARC
  5
21F
330
1F
100
AcDbEntity
  8
0
  6
Continuous
 62
     7
370
    15
100
AcDbCircle
 10
747.2263030742
 20
1103.6491061878
 30
0.0
 40
55.58765197422348
100
AcDbArc
 50
359.3366458795
 51
16.8658549072
  0
ARC
  5
220
330
1F
100
AcDbEntity
  8
0
  6
Continuous
 62
     7
370
    15
100
AcDbCircle
 10
878.1902693451
 20
1108.6250685659
 30
0.0
 40
55.76349685756361
100
AcDbArc
 50
164.8549337107
 51
195.1450662893
  0
ARC
  5
221
330
1F
100
AcDbEntity
  8
0
  6
Continuous
 62
     7
370
    15
100
AcDbCircle
 10
878.3636361066
 20
1103.6399515974
 30
0.0
 40
55.65666319297284
100
AcDbArc
 50
162.321170039
 51
180.6531067421
  0
ARC
  5
222
330
1F
100
AcDbEntity
  8
0
  6
Continuous
 62
     7
370
    15
100
AcDbCircle
 10
812.7604091164
 20
1092.8213563308
 30
0.0
 40
1.501222952724385
100
AcDbArc
 50
182.3135082113
 51
357.6864917887
  0
LINE
  5
223
330
1F
100
AcDbEntity
  8
0
  6
Continuous
 62
     7
370
    15
100
AcDbLine
 10
814.2604084309
 20
1092.7607559171
 30
0.0
 11
814.2604084309
 21
1126.8025182691
 31
0.0
  0
LINE
  5
224
330
1F
100
AcDbEntity
  8
0
  6
Continuous
 62
     7
370
    15
100
AcDbLine
 10
811.2604098018
 20
1126.8025182691
 30
0.0
 11
811.2604098018
 21
1092.7607559171
 31
0.0
  0
ARC
  5
225
330
1F
100
AcDbEntity
  8
0
  6
Continuous
 62
     7
370
    15
100
AcDbCircle
 10
812.8196930285
 20
1107.1152561842
 30
0.0
 40
20.42585347744794
100
AcDbArc
 50
57.1163156368
 51
85.9553459333
  0
LINE
  5
226
330
1F
100
AcDbEntity
  8
0
  6
Continuous
 62
     7
370
    15
100
AcDbLine
 10
814.2604084309
 20
1126.8025182691
 30
0.0
 11
814.2604084309
 21
1127.4902366605
 31
0.0
  0
ARC
  5
227
330
1F
100
AcDbEntity
  8
0
  6
Continuous
 62
     7
370
    15
100
AcDbCircle
 10
812.7011252043
 20
1107.1152561842
 30
0.0
 40
20.42585347744771
100
AcDbArc
 50
94.0446540667
 51
122.8836843632
  0
LINE
  5
228
330
1F
100
AcDbEntity
  8
0
  6
Continuous
 62
     7
370
    15
100
AcDbLine
 10
811.2604098018
 20
1127.4902366605
 30
0.0
 11
811.2604098018
 21
1126.8025182691
 31
0.0
  0
ARC
  5
229
330
1F
100
AcDbEntity
  8
0
  6
Continuous
 62
     7
370
    15
100
AcDbCircle
 10
828.5110942508
 20
1125.1470072111
 30
0.0
 40
0.1616632212328281
100
AcDbArc
 50
47.2871691103
 51
60.8553013803
  0
LINE
  5
22A
330
1F
100
AcDbEntity
  8
0
  6
Continuous
 62
     7
370
    15
100
AcDbLine
 10
813.0255343016
 20
1129.7727369275
 30
0.0
 11
814.2604084309
 21
1127.6521824804
 31
0.0
  0
ARC
  5
22B
330
1F
100
AcDbEntity
  8
0
  6
Continuous
 62
     7
370
    15
100
AcDbCircle
 10
812.8432740071
 20
1129.2437332344
 30
0.0
 40
0.559520975737469
100
AcDbArc
 50
70.9893770757
 51
96.9003419877
  0
ELLIPSE
  5
22C
330
1F
100
AcDbEntity
  8
0
  6
Continuous
 62
     7
370
    15
100
AcDbEllipse
 10
812.7604088789
 20
1091.1226350424
 30
0.0
 11
0.0
 21
38.67659121471888
 31
0.0
210
0.0
220
0.0
230
1.0
 40
0.8983300055
 41
6.282735029799743
 42
6.283635584559445
  0
ARC
  5
22D
330
1F
100
AcDbEntity
  8
0
  6
Continuous
 62
     7
370
    15
100
AcDbCircle
 10
812.7006727997
 20
1129.0256982393
 30
0.0
 40
0.7747589231590374
100
AcDbArc
 50
86.7373647141
 51
105.3729162226
  0
LINE
  5
22E
330
1F
100
AcDbEntity
  8
0
  6
Continuous
 62
     7
370
    15
100
AcDbLine
 10
812.4952839311
 20
1129.7727369275
 30
0.0
 11
811.2604098018
 21
1127.6521824804
 31
0.0
  0
ARC
  5
22F
330
1F
100
AcDbEntity
  8
0
  6
Continuous
 62
     7
370
    15
100
AcDbCircle
 10
797.0038417677
 20
1125.1551245885
 30
0.0
 40
0.1517134481883567
100
AcDbArc
 50
118.6974783657
 51
133.1600511435
  0
ARC
  5
230
330
1F
100
AcDbEntity
  8
0
  6
Continuous
 62
     7
370
    15
100
AcDbCircle
 10
812.7604091164
 20
1100.1864037557
 30
0.0
 40
29.67609775627883
100
AcDbArc
 50
57.7641041683
 51
122.2358958317
  0
LINE
  5
231
330
1F
100
AcDbEntity
  8
0
  6
Continuous
 62
     7
370
    15
100
AcDbLine
 10
814.2604084309
 20
1127.4902366605
 30
0.0
 11
814.2604084309
 21
1127.6521824804
 31
0.0
  0
ARC
  5
232
330
1F
100
AcDbEntity
  8
0
  6
Continuous
 62
     7
370
    15
100
AcDbCircle
 10
812.2664933405
 20
1127.1553624151
 30
0.0
 40
0.966175562920483
100
AcDbArc
 50
227.8763323399
 51
267.7057304772
  0
LWPOLYLINE
  5
233
330
1F
100
AcDbEntity
  8
0
  6
Continuous
 62
     7
370
    15
100
AcDbPolyline
 90
        3
 70
   128
 43
0.0
 10
812.2278155383
 20
1126.1899613347
 10
812.2559340295
 20
1126.185550591
 10
812.2604118284
 20
1126.1848353353
  0
LWPOLYLINE
  5
234
330
1F
100
AcDbEntity
  8
0
  6
Continuous
 62
     7
370
    15
100
AcDbPolyline
 90
        3
 70
   128
 43
0.0
 10
813.2604064044
 20
1126.1848353353
 10
813.2648842033
 20
1126.185550591
 10
813.2930026945
 20
1126.1899613347
  0
ARC
  5
235
330
1F
100
AcDbEntity
  8
0
  6
Continuous
 62
     7
370
    15
100
AcDbCircle
 10
813.2143521677
 20
1127.2369734919
 30
0.0
 40
1.049962076788932
100
AcDbArc
 50
274.295934445
 51
307.3840087853
  0
LINE
  5
236
330
1F
100
AcDbEntity
  8
0
  6
Continuous
 62
     7
370
    15
100
AcDbLine
 10
812.4952839311
 20
1129.5138143506
 30
0.0
 11
812.4952839311
 21
1129.7727369275
 31
0.0
  0
ARC
  5
237
330
1F
100
AcDbEntity
  8
0
  6
Continuous
 62
     7
370
    15
100
AcDbCircle
 10
827.1170349882
 20
1080.7242760249
 30
0.0
 40
1.58009833516459
100
AcDbArc
 50
342.1125817019
 51
20.7904317756
  0
ARC
  5
238
330
1F
100
AcDbEntity
  8
0
  6
Continuous
 62
     7
370
    15
100
AcDbCircle
 10
798.4031561402
 20
1080.7242919151
 30
0.0
 40
1.579506438128832
100
AcDbArc
 50
159.2020327183
 51
197.8949538042
  0
LWPOLYLINE
  5
239
330
1F
100
AcDbEntity
  8
0
  6
Continuous
 62
     7
370
    15
100
AcDbPolyline
 90
       61
 70
   128
 43
0.0
 10
812.7604053911
 20
1130.567505261
 10
816.1575870212
 20
1130.3981684652
 10
819.5175381001
 20
1129.8920654264
 10
822.8034602102
 20
1129.0547393766
 10
825.979352146
 20
1127.8952502217
 10
829.0104122456
 20
1126.4264725652
 10
831.8634332713
 20
1124.6643804517
 10
834.5071525868
 20
1122.6282857862
 10
836.9126097854
 20
1120.3405403104
 10
839.0534596142
 20
1117.8262375798
 10
840.9062401947
 20
1115.1128553357
 10
842.4506412443
 20
1112.2301362958
 10
843.669749945
 20
1109.2096709218
 10
844.5501999553
 20
1106.0845993962
 10
845.0823651251
 20
1102.8890751805
 10
845.260404199
 20
1099.6582054105
 10
845.0823651251
 20
1096.4272760358
 10
844.5501999553
 20
1093.2317518201
 10
843.669749945
 20
1090.1066802945
 10
842.4506412443
 20
1087.0862149205
 10
840.9062401947
 20
1084.2034958806
 10
839.0534596142
 20
1081.4901136365
 10
836.9126097854
 20
1078.9758109059
 10
834.5071525868
 20
1076.6880654302
 10
831.8634332713
 20
1074.6520303693
 10
829.0104122456
 20
1072.8899382558
 10
825.979352146
 20
1071.4211009946
 10
822.8034602102
 20
1070.2616714444
 10
819.5175381001
 20
1069.42428579
 10
816.1575870212
 20
1068.9181827512
 10
812.7604053911
 20
1068.7488459554
 10
809.3632312115
 20
1068.9181827512
 10
806.0032801326
 20
1069.42428579
 10
802.7173580226
 20
1070.2616714444
 10
799.5414660867
 20
1071.4211009946
 10
796.5104059871
 20
1072.8899382558
 10
793.6573849615
 20
1074.6520303693
 10
791.013665646
 20
1076.6880654302
 10
788.6082009968
 20
1078.9758109059
 10
786.4673586186
 20
1081.4901136365
 10
784.6145854887
 20
1084.2034958806
 10
783.0701844391
 20
1087.0862149205
 10
781.8510757383
 20
1090.1066802945
 10
780.9706108268
 20
1093.2317518201
 10
780.4384456571
 20
1096.4272760358
 10
780.2604065832
 20
1099.6582054105
 10
780.4384456571
 20
1102.8890751805
 10
780.9706108268
 20
1106.0845993962
 10
781.8510757383
 20
1109.2096709218
 10
783.0701844391
 20
1112.2301362958
 10
784.6145854887
 20
1115.1128553357
 10
786.4673586186
 20
1117.8262375798
 10
788.6082009968
 20
1120.3405403104
 10
791.013665646
 20
1122.6282857862
 10
793.6573849615
 20
1124.6643804517
 10
796.5104059871
 20
1126.4264725652
 10
799.5414660867
 20
1127.8952502217
 10
802.7173580226
 20
1129.0547393766
 10
806.0032801326
 20
1129.8920654264
 10
809.3632312115
 20
1130.3981684652
 10
812.7604053911
 20
1130.567505261
  0
ARC
  5
23A
330
1F
100
AcDbEntity
  8
0
  6
Continuous
 62
     7
370
    15
100
AcDbCircle
 10
814.472886461
 20
1102.2417837869
 30
0.0
 40
27.08234241591635
100
AcDbArc
 50
12.3490378426
 51
53.6110777248
  0
ARC
  5
23B
330
1F
100
AcDbEntity
  8
0
  6
Continuous
 62
     7
370
    15
100
AcDbCircle
 10
811.1261768926
 20
1102.2020132002
 30
0.0
 40
27.16081102869486
100
AcDbArc
 50
126.4720357439
 51
170.1534939891
  0
LWPOLYLINE
  5
23C
330
1F
100
AcDbEntity
  8
0
  6
Continuous
 62
     7
370
    15
100
AcDbPolyline
 90
        3
 70
   128
 43
0.0
 10
842.2632740434
 20
1094.5161127057
 10
842.0680986341
 20
1094.554498097
 10
841.889955252
 20
1094.6977280584
  0
LWPOLYLINE
  5
23D
330
1F
100
AcDbEntity
  8
0
  6
Continuous
 62
     7
370
    15
100
AcDbPolyline
 90
        6
 70
   128
 43
0.0
 10
841.5952102836
 20
1096.0476540532
 10
841.652192324
 20
1096.2543629613
 10
841.726146787
 20
1096.4263819661
 10
841.8140934404
 20
1096.5418361631
 10
841.9094608721
 20
1096.5960167852
 10
841.9747130569
 20
1096.5843938794
  0
ARC
  5
23E
330
1F
100
AcDbEntity
  8
0
  6
Continuous
 62
     7
370
    15
100
AcDbCircle
 10
842.9144427534
 20
1095.6285568112
 30
0.0
 40
1.384202589062846
100
AcDbArc
 50
162.375851449
 51
222.2576545686
  0
LINE
  5
23F
330
1F
100
AcDbEntity
  8
0
  6
Continuous
 62
     7
370
    15
100
AcDbLine
 10
842.1507404741
 20
1097.5611351934
 30
0.0
 11
842.3035965856
 21
1098.64480724
 31
0.0
  0
LINE
  5
240
330
1F
100
AcDbEntity
  8
0
  6
Continuous
 62
     7
370
    15
100
AcDbLine
 10
841.875068992
 20
1097.2821258512
 30
0.0
 11
841.9517652687
 21
1097.7442406621
 31
0.0
  0
LINE
  5
241
330
1F
100
AcDbEntity
  8
0
  6
Continuous
 62
     7
370
    15
100
AcDbLine
 10
842.0740739998
 20
1097.0990203824
 30
0.0
 11
841.875068992
 21
1097.2821258512
 31
0.0
  0
LINE
  5
242
330
1F
100
AcDbEntity
  8
0
  6
Continuous
 62
     7
370
    15
100
AcDbLine
 10
842.0350776609
 20
1096.8783043828
 30
0.0
 11
842.0740739998
 21
1097.0990203824
 31
0.0
  0
LINE
  5
243
330
1F
100
AcDbEntity
  8
0
  6
Continuous
 62
     7
370
    15
100
AcDbLine
 10
842.2057406601
 20
1096.7214845624
 30
0.0
 11
842.0350776609
 21
1096.8783043828
 31
0.0
  0
LINE
  5
244
330
1F
100
AcDbEntity
  8
0
  6
Continuous
 62
     7
370
    15
100
AcDbLine
 10
842.8687976297
 20
1096.3689230886
 30
0.0
 11
842.2447071966
 21
1096.942200562
 31
0.0
  0
LINE
  5
245
330
1F
100
AcDbEntity
  8
0
  6
Continuous
 62
     7
370
    15
100
AcDbLine
 10
842.8894208368
 20
1099.7029088941
 30
0.0
 11
842.9164813455
 21
1100.1632355657
 31
0.0
  0
ARC
  5
246
330
1F
100
AcDbEntity
  8
0
  6
Continuous
 62
     7
370
    15
100
AcDbCircle
 10
842.3739614455
 20
1099.2913069244
 30
0.0
 40
0.6596321440532089
100
AcDbArc
 50
352.3278568103
 51
38.6078841784
  0
LWPOLYLINE
  5
247
330
1F
100
AcDbEntity
  8
0
  6
Continuous
 62
     7
370
    15
100
AcDbPolyline
 90
        8
 70
   128
 43
0.0
 10
842.8703622516
 20
1098.9709638562
 10
842.8967671093
 20
1098.9548109975
 10
842.9233209785
 20
1098.9517711606
 10
842.9489062723
 20
1098.9635728803
 10
842.9724203047
 20
1098.9899777379
 10
842.9927454885
 20
1099.0290783849
 10
843.0090175565
 20
1099.0793847051
 10
843.0276887115
 20
1099.2032431569
  0
LINE
  5
248
330
1F
100
AcDbEntity
  8
0
  6
Continuous
 62
     7
370
    15
100
AcDbLine
 10
842.1310709413
 20
1099.066808125
 30
0.0
 11
842.2624842819
 21
1100.7859848943
 31
0.0
  0
LINE
  5
249
330
1F
100
AcDbEntity
  8
0
  6
Continuous
 62
     7
370
    15
100
AcDbLine
 10
842.3017935451
 20
1098.9223860707
 30
0.0
 11
842.1310709413
 21
1099.066808125
 31
0.0
  0
LINE
  5
24A
330
1F
100
AcDbEntity
  8
0
  6
Continuous
 62
     7
370
    15
100
AcDbLine
 10
842.4736784395
 20
1099.4317077604
 30
0.0
 11
842.3812763389
 21
1099.8071574178
 31
0.0
  0
ARC
  5
24B
330
1F
100
AcDbEntity
  8
0
  6
Continuous
 62
     7
370
    15
100
AcDbCircle
 10
844.3572636432
 20
1099.6216990812
 30
0.0
 40
1.893142868813052
100
AcDbArc
 50
185.7597644417
 51
216.7269016133
  0
LINE
  5
24C
330
1F
100
AcDbEntity
  8
0
  6
Continuous
 62
     7
370
    15
100
AcDbLine
 10
842.9594562944
 20
1098.4586619344
 30
0.0
 11
842.8399191793
 21
1098.489596745
 31
0.0
  0
LWPOLYLINE
  5
24D
330
1F
100
AcDbEntity
  8
0
  6
Continuous
 62
     7
370
    15
100
AcDbPolyline
 90
        3
 70
   128
 43
0.0
 10
840.6894282993
 20
1112.4913238492
 10
840.6375573572
 20
1112.4629520383
 10
840.4898719486
 20
1112.5033639875
  0
LWPOLYLINE
  5
24E
330
1F
100
AcDbEntity
  8
0
  6
Continuous
 62
     7
370
    15
100
AcDbPolyline
 90
        6
 70
   128
 43
0.0
 10
839.6596090492
 20
1113.4968542066
 10
839.5720796283
 20
1113.693609139
 10
839.5090477165
 20
1113.8688467946
 10
839.4814209636
 20
1114.0036128965
 10
839.4893781837
 20
1114.0898012128
 10
839.5310865339
 20
1114.1142987218
  0
ARC
  5
24F
330
1F
100
AcDbEntity
  8
0
  6
Continuous
 62
     7
370
    15
100
AcDbCircle
 10
841.4626803243
 20
1114.1600147724
 30
0.0
 40
1.921157973489773
100
AcDbArc
 50
200.1932688233
 51
239.5779517661
  0
LINE
  5
250
330
1F
100
AcDbEntity
  8
0
  6
Continuous
 62
     7
370
    15
100
AcDbLine
 10
839.6042512354
 20
1114.7552274671
 30
0.0
 11
839.0779273208
 21
1115.6686686483
 31
0.0
  0
LINE
  5
251
330
1F
100
AcDbEntity
  8
0
  6
Continuous
 62
     7
370
    15
100
AcDbLine
 10
838.6145459112
 20
1115.4890798536
 30
0.0
 11
838.4762929376
 21
1115.814521214
 31
0.0
  0
LINE
  5
252
330
1F
100
AcDbEntity
  8
0
  6
Continuous
 62
     7
370
    15
100
AcDbLine
 10
839.9569170173
 20
1114.2039441075
 30
0.0
 11
838.6145459112
 21
1115.4890798536
 31
0.0
  0
LINE
  5
253
330
1F
100
AcDbEntity
  8
0
  6
Continuous
 62
     7
370
    15
100
AcDbLine
 10
840.0424794849
 20
1114.172830483
 30
0.0
 11
839.9569319185
 21
1114.2039441075
 31
0.0
  0
LINE
  5
254
330
1F
100
AcDbEntity
  8
0
  6
Continuous
 62
     7
370
    15
100
AcDbLine
 10
838.0777017769
 20
1117.0857094731
 30
0.0
 11
837.8081099685
 21
1117.4746297803
 31
0.0
  0
ARC
  5
255
330
1F
100
AcDbEntity
  8
0
  6
Continuous
 62
     7
370
    15
100
AcDbCircle
 10
837.5560495274
 20
1116.2223532527
 30
0.0
 40
1.008714544748641
100
AcDbArc
 50
30.5056111854
 51
58.8590245726
  0
LWPOLYLINE
  5
256
330
1F
100
AcDbEntity
  8
0
  6
Continuous
 62
     7
370
    15
100
AcDbPolyline
 90
        8
 70
   128
 43
0.0
 10
838.5069595274
 20
1116.4757751432
 10
838.5259138044
 20
1116.4738081899
 10
838.53714928
 20
1116.4827488866
 10
838.5393099483
 20
1116.503491303
 10
838.532157391
 20
1116.5351413694
 10
838.5163174566
 20
1116.5757917371
 10
838.4920136627
 20
1116.6245483365
 10
838.4251372513
 20
1116.7343996968
  0
LINE
  5
257
330
1F
100
AcDbEntity
  8
0
  6
Continuous
 62
     7
370
    15
100
AcDbLine
 10
838.185317963
 20
1116.2355088201
 30
0.0
 11
837.2059093412
 21
1117.7064322438
 31
0.0
  0
LINE
  5
258
330
1F
100
AcDbEntity
  8
0
  6
Continuous
 62
     7
370
    15
100
AcDbLine
 10
838.3312003311
 20
1116.1901496854
 30
0.0
 11
838.185317963
 21
1116.2355088201
 31
0.0
  0
LINE
  5
259
330
1F
100
AcDbEntity
  8
0
  6
Continuous
 62
     7
370
    15
100
AcDbLine
 10
838.0938844379
 20
1116.6845702138
 30
0.0
 11
837.8377185758
 21
1116.9542812314
 31
0.0
  0
ARC
  5
25A
330
1F
100
AcDbEntity
  8
0
  6
Continuous
 62
     7
370
    15
100
AcDbCircle
 10
840.0924633886
 20
1118.2057793619
 30
0.0
 40
2.511651865651498
100
AcDbArc
 50
217.2764095496
 51
238.4600898874
  0
LINE
  5
25B
330
1F
100
AcDbEntity
  8
0
  6
Continuous
 62
     7
370
    15
100
AcDbLine
 10
838.8400600847
 20
1116.0911463704
 30
0.0
 11
838.7786374983
 21
1116.0651587453
 31
0.0
  0
LINE
  5
25C
330
1F
100
AcDbEntity
  8
0
  6
Continuous
 62
     7
370
    15
100
AcDbLine
 10
831.9499196109
 20
1079.2722844091
 30
0.0
 11
831.811227053
 21
1079.5164250341
 31
0.0
  0
LWPOLYLINE
  5
25D
330
1F
100
AcDbEntity
  8
0
  6
Continuous
 62
     7
370
    15
100
AcDbPolyline
 90
        6
 70
   128
 43
0.0
 10
832.1744503077
 20
1080.8521055188
 10
832.3554100093
 20
1080.985143086
 10
832.5389625128
 20
1081.0771130529
 10
832.7049018439
 20
1081.1115049329
 10
832.8557015952
 20
1081.0901664701
 10
832.9717294868
 20
1081.002249619
  0
ARC
  5
25E
330
1F
100
AcDbEntity
  8
0
  6
Continuous
 62
     7
370
    15
100
AcDbCircle
 10
832.7844387856
 20
1079.9689985492
 30
0.0
 40
1.073295794744531
100
AcDbArc
 50
124.6340013403
 51
204.9398827043
  0
LINE
  5
25F
330
1F
100
AcDbEntity
  8
0
  6
Continuous
 62
     7
370
    15
100
AcDbLine
 10
834.3954534825
 20
1081.1218165364
 30
0.0
 11
834.773354381
 21
1081.4916037526
 31
0.0
  0
LINE
  5
260
330
1F
100
AcDbEntity
  8
0
  6
Continuous
 62
     7
370
    15
100
AcDbLine
 10
833.4744052585
 20
1081.9476388898
 30
0.0
 11
833.8262291249
 21
1082.2825573888
 31
0.0
  0
LINE
  5
261
330
1F
100
AcDbEntity
  8
0
  6
Continuous
 62
     7
370
    15
100
AcDbLine
 10
834.1675029691
 20
1080.5341743436
 30
0.0
 11
833.4744052585
 21
1081.9476388898
 31
0.0
  0
LINE
  5
262
330
1F
100
AcDbEntity
  8
0
  6
Continuous
 62
     7
370
    15
100
AcDbLine
 10
835.8651177582
 20
1082.9674743619
 30
0.0
 11
836.1774311956
 21
1083.3231352773
 31
0.0
  0
ARC
  5
263
330
1F
100
AcDbEntity
  8
0
  6
Continuous
 62
     7
370
    15
100
AcDbCircle
 10
835.4050391537
 20
1082.8109808243
 30
0.0
 40
0.4859655847920082
100
AcDbArc
 50
313.8724963931
 51
18.7854911433
  0
LWPOLYLINE
  5
264
330
1F
100
AcDbEntity
  8
0
  6
Continuous
 62
     7
370
    15
100
AcDbPolyline
 90
        8
 70
   128
 43
0.0
 10
835.4057745632
 20
1082.3829316106
 10
835.429512113
 20
1082.3508047071
 10
835.4611025747
 20
1082.329168221
 10
835.5000989135
 20
1082.3206447568
 10
835.5455921587
 20
1082.3254131284
 10
835.5945126709
 20
1082.3428176847
 10
835.6446401771
 20
1082.3724411931
 10
835.7418404516
 20
1082.4606560674
  0
LINE
  5
265
330
1F
100
AcDbEntity
  8
0
  6
Continuous
 62
     7
370
    15
100
AcDbLine
 10
834.5324547585
 20
1082.987263104
 30
0.0
 11
835.7219921049
 21
1084.2999361959
 31
0.0
  0
LINE
  5
266
330
1F
100
AcDbEntity
  8
0
  6
Continuous
 62
     7
370
    15
100
AcDbLine
 10
834.6625716981
 20
1082.7471159902
 30
0.0
 11
834.5324547585
 21
1082.987263104
 31
0.0
  0
LINE
  5
267
330
1F
100
AcDbEntity
  8
0
  6
Continuous
 62
     7
370
    15
100
AcDbLine
 10
835.1773397621
 20
1083.0429934468
 30
0.0
 11
835.2835850414
 21
1083.416476151
 31
0.0
  0
ARC
  5
268
330
1F
100
AcDbEntity
  8
0
  6
Continuous
 62
     7
370
    15
100
AcDbCircle
 10
836.4971707786
 20
1082.4055160434
 30
0.0
 40
1.465718715156527
100
AcDbArc
 50
154.2194917962
 51
195.689484352
  0
LINE
  5
269
330
1F
100
AcDbEntity
  8
0
  6
Continuous
 62
     7
370
    15
100
AcDbLine
 10
835.2180571851
 20
1081.898941895
 30
0.0
 11
835.0860626992
 21
1082.0091508832
 31
0.0
  0
ARC
  5
26A
330
1F
100
AcDbEntity
  8
0
  6
Continuous
 62
     7
370
    15
100
AcDbCircle
 10
815.4866556626
 20
1073.2892269611
 30
0.0
 40
0.7604109918508053
100
AcDbArc
 50
7.9616120202
 51
104.7873194579
  0
ARC
  5
26B
330
1F
100
AcDbEntity
  8
0
  6
Continuous
 62
     7
370
    15
100
AcDbCircle
 10
815.2618035547
 20
1073.1779472658
 30
0.0
 40
0.8470648884111367
100
AcDbArc
 50
87.918176235
 51
186.8946305722
  0
ARC
  5
26C
330
1F
100
AcDbEntity
  8
0
  6
Continuous
 62
     7
370
    15
100
AcDbCircle
 10
817.1004549923
 20
1072.8721652848
 30
0.0
 40
0.4125095125029112
100
AcDbArc
 50
118.9119881917
 51
181.5965218175
  0
ARC
  5
26D
330
1F
100
AcDbEntity
  8
0
  6
Continuous
 62
     7
370
    15
100
AcDbCircle
 10
817.8756323361
 20
1073.033650107
 30
0.0
 40
0.3780343562066455
100
AcDbArc
 50
8.6868770485
 51
73.5232804358
  0
LWPOLYLINE
  5
26E
330
1F
100
AcDbEntity
  8
0
  6
Continuous
 62
     7
370
    15
100
AcDbPolyline
 90
        7
 70
   128
 43
0.0
 10
817.3426018652
 20
1074.2612623182
 10
817.685961872
 20
1074.290826222
 10
817.8545983132
 20
1074.2784284558
 10
817.9988043007
 20
1074.2415331807
 10
818.1212769445
 20
1074.1789483037
 10
818.2141707834
 20
1074.0969323125
 10
818.2993085679
 20
1073.8921903577
  0
LWPOLYLINE
  5
26F
330
1F
100
AcDbEntity
  8
0
  6
Continuous
 62
     7
370
    15
100
AcDbPolyline
 90
        7
 70
   128
 43
0.0
 10
816.4887504276
 20
1073.6202143636
 10
816.5378497537
 20
1073.8414072004
 10
816.6138531264
 20
1073.9478014913
 10
816.7195172604
 20
1074.0437649694
 10
816.8516458567
 20
1074.1235755887
 10
817.0083688196
 20
1074.186458489
 10
817.3426018652
 20
1074.2612623182
  0
LINE
  5
270
330
1F
100
AcDbEntity
  8
0
  6
Continuous
 62
     7
370
    15
100
AcDbLine
 10
819.7009490427
 20
1073.2675932851
 30
0.0
 11
820.2249483761
 21
1073.3873390165
 31
0.0
  0
LINE
  5
271
330
1F
100
AcDbEntity
  8
0
  6
Continuous
 62
     7
370
    15
100
AcDbLine
 10
819.0414012965
 20
1074.521376988
 30
0.0
 11
819.5239754018
 21
1074.6254466977
 31
0.0
  0
LINE
  5
272
330
1F
100
AcDbEntity
  8
0
  6
Continuous
 62
     7
370
    15
100
AcDbLine
 10
819.2566485699
 20
1072.8678249326
 30
0.0
 11
819.0414012965
 21
1074.521376988
 31
0.0
  0
LWPOLYLINE
  5
273
330
1F
100
AcDbEntity
  8
0
  6
Continuous
 62
     7
370
    15
100
AcDbPolyline
 90
        3
 70
   128
 43
0.0
 10
797.7314369377
 20
1076.8831514325
 10
797.5917609032
 20
1076.5820883718
 10
797.5729407366
 20
1076.5666507688
  0
ARC
  5
274
330
1F
100
AcDbEntity
  8
0
  6
Continuous
 62
     7
370
    15
100
AcDbCircle
 10
796.771625275
 20
1077.2176694244
 30
0.0
 40
1.016435297888319
100
AcDbArc
 50
340.7852964016
 51
65.3883587723
  0
LWPOLYLINE
  5
275
330
1F
100
AcDbEntity
  8
0
  6
Continuous
 62
     7
370
    15
100
AcDbPolyline
 90
        6
 70
   128
 43
0.0
 10
796.2662355598
 20
1078.0570649114
 10
796.4643688496
 20
1078.2544754949
 10
796.6119574007
 20
1078.3058546987
 10
796.7896910008
 20
1078.3046030011
 10
796.991229206
 20
1078.2448791471
 10
797.1949355301
 20
1078.1417631116
  0
LINE
  5
276
330
1F
100
AcDbEntity
  8
0
  6
Continuous
 62
     7
370
    15
100
AcDbLine
 10
799.0922035273
 20
1076.3299011197
 30
0.0
 11
799.4399444755
 21
1076.0999464002
 31
0.0
  0
ARC
  5
277
330
1F
100
AcDbEntity
  8
0
  6
Continuous
 62
     7
370
    15
100
AcDbCircle
 10
798.9949105649
 20
1076.7910923337
 30
0.0
 40
0.4713419739402851
100
AcDbArc
 50
243.2822174125
 51
281.9124572623
  0
ARC
  5
278
330
1F
100
AcDbEntity
  8
0
  6
Continuous
 62
     7
370
    15
100
AcDbCircle
 10
798.9289506802
 20
1076.7452769655
 30
0.0
 40
0.4025906845971066
100
AcDbArc
 50
174.4507928495
 51
248.7439651343
  0
ARC
  5
279
330
1F
100
AcDbEntity
  8
0
  6
Continuous
 62
     7
370
    15
100
AcDbCircle
 10
798.6581046385
 20
1076.135281324
 30
0.0
 40
1.072095514151626
100
AcDbArc
 50
10.1352567397
 51
69.116524213
  0
ARC
  5
27A
330
1F
100
AcDbEntity
  8
0
  6
Continuous
 62
     7
370
    15
100
AcDbCircle
 10
798.5960394556
 20
1076.5093743523
 30
0.0
 40
0.7688901875491441
100
AcDbArc
 50
54.7068961826
 51
120.0767285516
  0
LINE
  5
27B
330
1F
100
AcDbEntity
  8
0
  6
Continuous
 62
     7
370
    15
100
AcDbLine
 10
798.6552716788
 20
1075.800135037
 30
0.0
 11
798.8316641744
 21
1076.0402225461
 31
0.0
  0
LINE
  5
27C
330
1F
100
AcDbEntity
  8
0
  6
Continuous
 62
     7
370
    15
100
AcDbLine
 10
797.9019285735
 20
1076.1850022283
 30
0.0
 11
798.6552716788
 21
1075.800135037
 31
0.0
  0
LINE
  5
27D
330
1F
100
AcDbEntity
  8
0
  6
Continuous
 62
     7
370
    15
100
AcDbLine
 10
800.6844671067
 20
1074.8745941129
 30
0.0
 11
801.1844606694
 21
1074.6724747625
 31
0.0
  0
LINE
  5
27E
330
1F
100
AcDbEntity
  8
0
  6
Continuous
 62
     7
370
    15
100
AcDbLine
 10
801.0028304156
 20
1076.1987112966
 30
0.0
 11
800.6844671067
 21
1074.8745941129
 31
0.0
  0
LINE
  5
27F
330
1F
100
AcDbEntity
  8
0
  6
Continuous
 62
     7
370
    15
100
AcDbLine
 10
800.5465792116
 20
1076.3899826017
 30
0.0
 11
801.0028304156
 21
1076.1987112966
 31
0.0
  0
LWPOLYLINE
  5
280
330
1F
100
AcDbEntity
  8
0
  6
Continuous
 62
     7
370
    15
100
AcDbPolyline
 90
        3
 70
   128
 43
0.0
 10
785.2636428174
 20
1090.1584171262
 10
785.060331374
 20
1089.9666093793
 10
784.9422247704
 20
1089.9424098935
  0
ARC
  5
281
330
1F
100
AcDbEntity
  8
0
  6
Continuous
 62
     7
370
    15
100
AcDbCircle
 10
784.2299708954
 20
1090.9389071035
 30
0.0
 40
1.295238297353725
100
AcDbArc
 50
322.9448062386
 51
27.9543289641
  0
ARC
  5
282
330
1F
100
AcDbEntity
  8
0
  6
Continuous
 62
     7
370
    15
100
AcDbCircle
 10
784.7564603614
 20
1091.4212275339
 30
0.0
 40
0.630114116490757
100
AcDbArc
 50
11.4277036122
 51
72.9615457854
  0
LINE
  5
283
330
1F
100
AcDbEntity
  8
0
  6
Continuous
 62
     7
370
    15
100
AcDbLine
 10
785.7652680572
 20
1088.5949276891
 30
0.0
 11
785.9859170016
 21
1088.179483315
 31
0.0
  0
LWPOLYLINE
  5
284
330
1F
100
AcDbEntity
  8
0
  6
Continuous
 62
     7
370
    15
100
AcDbPolyline
 90
        7
 70
   128
 43
0.0
 10
785.4470090564
 20
1088.725998303
 10
785.4851485785
 20
1088.6604331937
 10
785.5283172425
 20
1088.6054777112
 10
785.5727152523
 20
1088.5672711339
 10
785.6184320148
 20
1088.544263741
 10
785.7000829276
 20
1088.5447405782
 10
785.7652680572
 20
1088.5949276891
  0
ARC
  5
285
330
1F
100
AcDbEntity
  8
0
  6
Continuous
 62
     7
370
    15
100
AcDbCircle
 10
785.8542658549
 20
1088.9930638811
 30
0.0
 40
0.4870134729932873
100
AcDbArc
 50
156.1760601481
 51
213.2555412365
  0
LINE
  5
286
330
1F
100
AcDbEntity
  8
0
  6
Continuous
 62
     7
370
    15
100
AcDbLine
 10
785.5098100003
 20
1089.2480157819
 30
0.0
 11
785.4087503251
 21
1089.1897820439
 31
0.0
  0
LINE
  5
287
330
1F
100
AcDbEntity
  8
0
  6
Continuous
 62
     7
370
    15
100
AcDbLine
 10
786.6151855882
 20
1088.904693028
 30
0.0
 11
786.5349502858
 21
1088.7988351789
 31
0.0
  0
LINE
  5
288
330
1F
100
AcDbEntity
  8
0
  6
Continuous
 62
     7
370
    15
100
AcDbLine
 10
785.819418877
 20
1090.46401014
 30
0.0
 11
786.6151855882
 21
1088.904693028
 31
0.0
  0
LINE
  5
289
330
1F
100
AcDbEntity
  8
0
  6
Continuous
 62
     7
370
    15
100
AcDbLine
 10
785.8307810124
 20
1089.5701192823
 30
0.0
 11
786.0627622899
 21
1089.45472469
 31
0.0
  0
LWPOLYLINE
  5
28A
330
1F
100
AcDbEntity
  8
0
  6
Continuous
 62
     7
370
    15
100
AcDbPolyline
 90
        3
 70
   128
 43
0.0
 10
785.3198127445
 20
1089.6945141759
 10
785.4799778756
 20
1089.7031568494
 10
785.8307810124
 20
1089.5701192823
  0
LINE
  5
28B
330
1F
100
AcDbEntity
  8
0
  6
Continuous
 62
     7
370
    15
100
AcDbLine
 10
785.9859170016
 20
1088.179483315
 30
0.0
 11
785.8523131903
 21
1088.0897783246
 31
0.0
  0
LINE
  5
28C
330
1F
100
AcDbEntity
  8
0
  6
Continuous
 62
     7
370
    15
100
AcDbLine
 10
786.5468712147
 20
1086.8324779477
 30
0.0
 11
786.8223415312
 21
1086.3880657163
 31
0.0
  0
LINE
  5
28D
330
1F
100
AcDbEntity
  8
0
  6
Continuous
 62
     7
370
    15
100
AcDbLine
 10
787.2429789599
 20
1087.8313325849
 30
0.0
 11
786.5468712147
 21
1086.8324779477
 31
0.0
  0
LINE
  5
28E
330
1F
100
AcDbEntity
  8
0
  6
Continuous
 62
     7
370
    15
100
AcDbLine
 10
786.9965584573
 20
1088.2417105642
 30
0.0
 11
787.2429789599
 21
1087.8313325849
 31
0.0
  0
LINE
  5
28F
330
1F
100
AcDbEntity
  8
0
  6
Continuous
 62
     7
370
    15
100
AcDbLine
 10
829.8346699771
 20
1125.4463337865
 30
0.0
 11
827.2157983478
 21
1126.9163631406
 31
0.0
  0
LINE
  5
290
330
1F
100
AcDbEntity
  8
0
  6
Continuous
 62
     7
370
    15
100
AcDbLine
 10
830.5561991032
 20
1124.8544596639
 30
0.0
 11
829.6307177838
 21
1125.4280351606
 31
0.0
  0
LINE
  5
291
330
1F
100
AcDbEntity
  8
0
  6
Continuous
 62
     7
370
    15
100
AcDbLine
 10
830.6525276598
 20
1124.8637579885
 30
0.0
 11
830.5561991032
 21
1124.8544596639
 31
0.0
  0
LINE
  5
292
330
1F
100
AcDbEntity
  8
0
  6
Continuous
 62
     7
370
    15
100
AcDbLine
 10
830.7043017443
 20
1124.9035142865
 30
0.0
 11
830.6525276598
 21
1124.8637579885
 31
0.0
  0
LWPOLYLINE
  5
293
330
1F
100
AcDbEntity
  8
0
  6
Continuous
 62
     7
370
    15
100
AcDbPolyline
 90
        7
 70
   128
 43
0.0
 10
826.5463934835
 20
1126.7791532483
 10
826.1112125214
 20
1126.9995712247
 10
825.9115071591
 20
1127.1037005391
 10
825.7499487694
 20
1127.1946572271
 10
825.6616817411
 20
1127.2577189412
 10
825.6369458135
 20
1127.2943757978
 10
825.6454841789
 20
1127.2988461461
  0
LINE
  5
294
330
1F
100
AcDbEntity
  8
0
  6
Continuous
 62
     7
370
    15
100
AcDbLine
 10
828.8493232425
 20
1125.4905008283
 30
0.0
 11
826.5463934835
 21
1126.7791532483
 31
0.0
  0
ARC
  5
295
330
1F
100
AcDbEntity
  8
0
  6
Continuous
 62
     7
370
    15
100
AcDbCircle
 10
831.2920903854
 20
1128.6244172037
 30
0.0
 40
3.973479981401966
100
AcDbArc
 50
232.0649572178
 51
253.3754721608
  0
LINE
  5
296
330
1F
100
AcDbEntity
  8
0
  6
Continuous
 62
     7
370
    15
100
AcDbLine
 10
830.2780018743
 20
1124.8288296666
 30
0.0
 11
830.1552833613
 21
1124.817027947
 31
0.0
  0
LINE
  5
297
330
1F
100
AcDbEntity
  8
0
  6
Continuous
 62
     7
370
    15
100
AcDbLine
 10
827.2157983478
 20
1126.9163631406
 30
0.0
 11
826.5696318444
 21
1126.8581294027
 31
0.0
  0
ARC
  5
298
330
1F
100
AcDbEntity
  8
0
  6
Continuous
 62
     7
370
    15
100
AcDbCircle
 10
813.5977778971
 20
1144.5203960189
 30
0.0
 40
14.47435490411668
100
AcDbArc
 50
266.6834643877
 51
276.5863619223
  0
ARC
  5
299
330
1F
100
AcDbEntity
  8
0
  6
Continuous
 62
     7
370
    15
100
AcDbCircle
 10
811.9227635195
 20
1144.5782166889
 30
0.0
 40
14.53209464287893
100
AcDbArc
 50
263.4521685499
 51
273.3044073142
  0
LWPOLYLINE
  5
29A
330
1F
100
AcDbEntity
  8
0
  6
Continuous
 62
     7
370
    15
100
AcDbPolyline
 90
        5
 70
   128
 43
0.0
 10
842.7906112369
 20
1108.5406087842
 10
842.9160045084
 20
1108.2961105313
 10
843.0439309772
 20
1108.1177734342
 10
843.1559877094
 20
1108.0331944432
 10
843.2353214916
 20
1108.0553077665
  0
ARC
  5
29B
330
1F
100
AcDbEntity
  8
0
  6
Continuous
 62
     7
370
    15
100
AcDbCircle
 10
843.9349427786
 20
1109.2121294963
 30
0.0
 40
1.326813756343279
100
AcDbArc
 50
171.7199031341
 51
210.4054149684
  0
ARC
  5
29C
330
1F
100
AcDbEntity
  8
0
  6
Continuous
 62
     7
370
    15
100
AcDbCircle
 10
844.6207678401
 20
1102.4015543196
 30
0.0
 40
0.7621040199264317
100
AcDbArc
 50
186.2625642924
 51
233.0328983678
  0
LWPOLYLINE
  5
29D
330
1F
100
AcDbEntity
  8
0
  6
Continuous
 62
     7
370
    15
100
AcDbPolyline
 90
        6
 70
   128
 43
0.0
 10
843.9712302383
 20
1103.2614850011
 10
843.8787387308
 20
1103.2355569806
 10
843.8161836561
 20
1103.1019829717
 10
843.7918202575
 20
1102.8809093442
 10
843.8083605465
 20
1102.6057743039
 10
843.8632117208
 20
1102.3184203115
  0
LWPOLYLINE
  5
29E
330
1F
100
AcDbEntity
  8
0
  6
Continuous
 62
     7
370
    15
100
AcDbPolyline
 90
        5
 70
   128
 43
0.0
 10
840.2707354721
 20
1114.2414354291
 10
840.5965642627
 20
1113.7904070821
 10
840.8986108001
 20
1113.4547733274
 10
841.134421676
 20
1113.2919930425
 10
841.2249909338
 20
1113.3148216214
  0
ARC
  5
29F
330
1F
100
AcDbEntity
  8
0
  6
Continuous
 62
     7
370
    15
100
AcDbCircle
 10
841.8766797853
 20
1115.8246249795
 30
0.0
 40
2.255115582305307
100
AcDbArc
 50
180.8624898989
 51
224.5911962926
  0
LWPOLYLINE
  5
2A0
330
1F
100
AcDbEntity
  8
0
  6
Continuous
 62
     7
370
    15
100
AcDbPolyline
 90
        6
 70
   128
 43
0.0
 10
785.3206397589
 20
1087.1567272153
 10
785.1964758333
 20
1087.7156399694
 10
784.9743963774
 20
1088.251128098
 10
784.6866922077
 20
1088.6809371915
 10
784.3762935694
 20
1088.9394425359
 10
784.0855048593
 20
1088.9873646703
  0
LWPOLYLINE
  5
2A1
330
1F
100
AcDbEntity
  8
0
  6
Continuous
 62
     7
370
    15
100
AcDbPolyline
 90
        5
 70
   128
 43
0.0
 10
784.9911527332
 20
1086.1455344167
 10
785.1924376186
 20
1086.2938903775
 10
785.3192837533
 20
1086.65926685
 10
785.3366585072
 20
1086.8975662198
 10
785.3206397589
 20
1087.1567272153
  0
LWPOLYLINE
  5
2A2
330
1F
100
AcDbEntity
  8
0
  6
Continuous
 62
     7
370
    15
100
AcDbPolyline
 90
        7
 70
   128
 43
0.0
 10
799.3398235735
 20
1074.0947865453
 10
799.0406231579
 20
1074.5182179418
 10
798.6002640423
 20
1074.8884223905
 10
798.0834470686
 20
1075.1497291532
 10
797.5706534084
 20
1075.2632760015
 10
797.1371935304
 20
1075.2101086583
 10
796.8482898172
 20
1074.9927901235
  0
ARC
  5
2A3
330
1F
100
AcDbEntity
  8
0
  6
Continuous
 62
     7
370
    15
100
AcDbCircle
 10
798.6856360624
 20
1073.7197122068
 30
0.0
 40
0.7540835888713597
100
AcDbArc
 50
332.1598436778
 51
29.8275349995
  0
LWPOLYLINE
  5
2A4
330
1F
100
AcDbEntity
  8
0
  6
Continuous
 62
     7
370
    15
100
AcDbPolyline
 90
        4
 70
   128
 43
0.0
 10
788.4039954838
 20
1081.4253233876
 10
788.5313035544
 20
1081.5171145406
 10
788.5879354175
 20
1081.6958092656
 10
788.5655464228
 20
1081.9342874494
  0
ARC
  5
2A5
330
1F
100
AcDbEntity
  8
0
  6
Continuous
 62
     7
370
    15
100
AcDbCircle
 10
842.2778311621
 20
1089.8056376938
 30
0.0
 40
0.4811089823009996
100
AcDbArc
 50
165.2236174295
 51
236.5835933057
  0
LWPOLYLINE
  5
2A6
330
1F
100
AcDbEntity
  8
0
  6
Continuous
 62
     7
370
    15
100
AcDbPolyline
 90
        6
 70
   128
 43
0.0
 10
842.3356489834
 20
1090.8661030736
 10
842.2055916485
 20
1090.84154596
 10
842.0654015239
 20
1090.7080911603
 10
841.9417665895
 20
1090.4876731839
 10
841.8528960642
 20
1090.2138494458
 10
841.8126331266
 20
1089.9283431974
  0
LWPOLYLINE
  5
2A7
330
1F
100
AcDbEntity
  8
0
  6
Continuous
 62
     7
370
    15
100
AcDbPolyline
 90
        4
 70
   128
 43
0.0
 10
838.7827949222
 20
1084.3178175893
 10
838.7710081037
 20
1084.0734981504
 10
838.8308511671
 20
1083.8930748906
 10
838.9535771307
 20
1083.8038467374
  0
LWPOLYLINE
  5
2A8
330
1F
100
AcDbEntity
  8
0
  6
Continuous
 62
     7
370
    15
100
AcDbPolyline
 90
        7
 70
   128
 43
0.0
 10
839.5369724926
 20
1085.1721309629
 10
839.5113573965
 20
1085.190906426
 10
839.3495009836
 20
1085.1730250325
 10
839.1701506075
 20
1085.0521468129
 10
838.9996068176
 20
1084.8471068349
 10
838.8634251055
 20
1084.5893167463
 10
838.7827949222
 20
1084.3178175893
  0
LWPOLYLINE
  5
2A9
330
1F
100
AcDbEntity
  8
0
  6
Continuous
 62
     7
370
    15
100
AcDbPolyline
 90
        7
 70
   128
 43
0.0
 10
793.1514681872
 20
1077.5559090581
 10
793.0253671106
 20
1077.7961157766
 10
792.833216637
 20
1078.0160569158
 10
792.6047743853
 20
1078.1826518979
 10
792.3747079071
 20
1078.270389935
 10
792.17737928
 20
1078.2653235402
 10
792.0419873294
 20
1078.1673931089
  0
LWPOLYLINE
  5
2AA
330
1F
100
AcDbEntity
  8
0
  6
Continuous
 62
     7
370
    15
100
AcDbPolyline
 90
        4
 70
   128
 43
0.0
 10
793.1004987653
 20
1077.1276496854
 10
793.138735145
 20
1077.1554254499
 10
793.1915076073
 20
1077.3311399427
 10
793.1514681872
 20
1077.5559090581
  0
LWPOLYLINE
  5
2AB
330
1F
100
AcDbEntity
  8
0
  6
Continuous
 62
     7
370
    15
100
AcDbPolyline
 90
        3
 70
   128
 43
0.0
 10
829.3920831379
 20
1075.5136751142
 10
829.3447794017
 20
1075.2970718351
 10
829.3967919048
 20
1075.1221918073
  0
LWPOLYLINE
  5
2AC
330
1F
100
AcDbEntity
  8
0
  6
Continuous
 62
     7
370
    15
100
AcDbPolyline
 90
        7
 70
   128
 43
0.0
 10
830.559969097
 20
1076.0554217305
 10
830.4414825138
 20
1076.1425637212
 10
830.2321361002
 20
1076.1600278821
 10
829.9858869609
 20
1076.0892175641
 10
829.7396899756
 20
1075.941576859
 10
829.5310066637
 20
1075.7396959272
 10
829.3920831379
 20
1075.5136751142
  0
LWPOLYLINE
  5
2AD
330
1F
100
AcDbEntity
  8
0
  6
Continuous
 62
     7
370
    15
100
AcDbPolyline
 90
        3
 70
   128
 43
0.0
 10
823.4541715678
 20
1072.7139257398
 10
823.3982028064
 20
1072.5116275754
 10
823.450543135
 20
1072.3360322919
  0
LWPOLYLINE
  5
2AE
330
1F
100
AcDbEntity
  8
0
  6
Continuous
 62
     7
370
    15
100
AcDbPolyline
 90
        8
 70
   128
 43
0.0
 10
824.7701676186
 20
1073.0219029393
 10
824.7588874396
 20
1073.0598114934
 10
824.6078939732
 20
1073.1783055272
 10
824.3806587156
 20
1073.2229494062
 10
824.1113053259
 20
1073.1877826657
 10
823.8405437764
 20
1073.0788849797
 10
823.6096577343
 20
1072.9127668348
 10
823.4541715678
 20
1072.7139257398
  0
ARC
  5
2AF
330
1F
100
AcDbEntity
  8
0
  6
Continuous
 62
     7
370
    15
100
AcDbCircle
 10
844.4022571386
 20
1095.6917379072
 30
0.0
 40
1.169412730969815
100
AcDbArc
 50
174.5004774023
 51
234.090608547
  0
LWPOLYLINE
  5
2B0
330
1F
100
AcDbEntity
  8
0
  6
Continuous
 62
     7
370
    15
100
AcDbPolyline
 90
        7
 70
   128
 43
0.0
 10
843.8032047447
 20
1097.7114581075
 10
843.6456994709
 20
1097.6721190419
 10
843.450747579
 20
1097.3974608388
 10
843.3066086467
 20
1096.9460748639
 10
843.2324306663
 20
1096.3860296216
 10
843.2243691381
 20
1096.0894965139
 10
843.238227218
 20
1095.8038114515
  0
LWPOLYLINE
  5
2B1
330
1F
100
AcDbEntity
  8
0
  6
Continuous
 62
     7
370
    15
100
AcDbPolyline
 90
        4
 70
   128
 43
0.0
 10
834.0390251573
 20
1079.3166302648
 10
833.971880525
 20
1078.8576745
 10
834.0775744613
 20
1078.5034440961
 10
834.1811896857
 20
1078.4289382901
  0
LWPOLYLINE
  5
2B2
330
1F
100
AcDbEntity
  8
0
  6
Continuous
 62
     7
370
    15
100
AcDbPolyline
 90
        8
 70
   128
 43
0.0
 10
835.9693960842
 20
1080.7643674817
 10
835.8463571962
 20
1080.8527015653
 10
835.4772852358
 20
1080.8434032407
 10
835.0501732525
 20
1080.641164681
 10
834.6270100769
 20
1080.2800201383
 10
834.2719824609
 20
1079.8149846997
 10
834.1354654726
 20
1079.5633338895
 10
834.0390251573
 20
1079.3166302648
  0
LWPOLYLINE
  5
2B3
330
1F
100
AcDbEntity
  8
0
  6
Continuous
 62
     7
370
    15
100
AcDbPolyline
 90
        9
 70
   128
 43
0.0
 10
819.1478626426
 20
1071.3845037427
 10
819.0875129398
 20
1071.5865634885
 10
818.7727929648
 20
1071.857466599
 10
818.2975055274
 20
1072.0069550481
 10
817.7322597798
 20
1072.0151208844
 10
817.1631024774
 20
1071.8836926427
 10
816.6775630411
 20
1071.630611321
 10
816.4869101342
 20
1071.4687251058
 10
816.3475917276
 20
1071.292831799
  0
LWPOLYLINE
  5
2B4
330
1F
100
AcDbEntity
  8
0
  6
Continuous
 62
     7
370
    15
100
AcDbPolyline
 90
        7
 70
   128
 43
0.0
 10
805.4252789911
 20
1071.732296845
 10
805.2643762525
 20
1071.9166540113
 10
805.0258906182
 20
1072.0628642049
 10
804.7464044389
 20
1072.1495293584
 10
804.4685350355
 20
1072.1636556592
 10
804.2344154414
 20
1072.1025608983
 10
804.079353958
 20
1071.9744109121
  0
LWPOLYLINE
  5
2B5
330
1F
100
AcDbEntity
  8
0
  6
Continuous
 62
     7
370
    15
100
AcDbPolyline
 90
        3
 70
   128
 43
0.0
 10
805.4308296736
 20
1071.3596486058
 10
805.4837884005
 20
1071.5369128194
 10
805.4252789911
 20
1071.732296845
  0
LWPOLYLINE
  5
2B6
330
1F
100
AcDbEntity
  8
0
  6
Continuous
 62
     7
370
    15
100
AcDbPolyline
 90
        9
 70
   128
 43
0.0
 10
811.5006835755
 20
1070.8953880277
 10
811.3354893025
 20
1071.055068871
 10
811.0906036195
 20
1071.1661123243
 10
810.803391188
 20
1071.2125443425
 10
810.5176018175
 20
1071.1876892057
 10
810.2767394479
 20
1071.0947655645
 10
810.1173789796
 20
1070.9470056501
 10
810.0636975464
 20
1070.7658671346
 10
810.0878895816
 20
1070.6905268636
  0
LWPOLYLINE
  5
2B7
330
1F
100
AcDbEntity
  8
0
  6
Continuous
 62
     7
370
    15
100
AcDbPolyline
 90
        3
 70
   128
 43
0.0
 10
811.5231321748
 20
1070.5818079915
 10
811.5609811243
 20
1070.7103156057
 10
811.5006835755
 20
1070.8953880277
  0
ARC
  5
2B8
330
1F
100
AcDbEntity
  8
0
  6
Continuous
 62
     7
370
    15
100
AcDbCircle
 10
825.5895158946
 20
1129.945092895
 30
0.0
 40
2.106258431937187
100
AcDbArc
 50
242.6344968681
 51
265.3064514746
  0
LWPOLYLINE
  5
2B9
330
1F
100
AcDbEntity
  8
0
  6
Continuous
 62
     7
370
    15
100
AcDbPolyline
 90
        8
 70
   128
 43
0.0
 10
823.8318414983
 20
1128.4397982564
 10
823.8272891935
 20
1128.43920221
 10
823.843516558
 20
1128.4188174215
 10
823.8922880586
 20
1128.3875249829
 10
824.0708337721
 20
1128.2996081319
 10
824.3259416517
 20
1128.1902336087
 10
824.470684081
 20
1128.1323574987
 10
824.6213422712
 20
1128.0745409932
  0
ARC
  5
2BA
330
1F
100
AcDbEntity
  8
0
  6
Continuous
 62
     7
370
    15
100
AcDbCircle
 10
815.2356857463
 20
1073.049010533
 30
0.0
 40
0.8145439093247011
100
AcDbArc
 50
178.6196051478
 51
281.3868282024
  0
ARC
  5
2BB
330
1F
100
AcDbEntity
  8
0
  6
Continuous
 62
     7
370
    15
100
AcDbCircle
 10
815.2623324553
 20
1073.1702602669
 30
0.0
 40
0.8470726787871525
100
AcDbArc
 50
87.9000347709
 51
186.8906421464
  0
LWPOLYLINE
  5
2BC
330
1F
100
AcDbEntity
  8
0
  6
Continuous
 62
     7
370
    15
100
AcDbPolyline
 90
        7
 70
   128
 43
0.0
 10
815.2933718261
 20
1074.0167640653
 10
815.5256734785
 20
1074.0209959951
 10
815.7454954084
 20
1073.9878558126
 10
815.9245850142
 20
1073.9150189367
 10
816.0690294203
 20
1073.8019489255
 10
816.2190170583
 20
1073.5313438382
 10
816.2635789808
 20
1073.2361220327
  0
LWPOLYLINE
  5
2BD
330
1F
100
AcDbEntity
  8
0
  6
Continuous
 62
     7
370
    15
100
AcDbPolyline
 90
        3
 70
   128
 43
0.0
 10
816.2635789808
 20
1073.2361220327
 10
816.2411750849
 20
1072.8852890935
 10
816.0752059516
 20
1072.5418471303
  0
ARC
  5
2BE
330
1F
100
AcDbEntity
  8
0
  6
Continuous
 62
     7
370
    15
100
AcDbCircle
 10
815.3476729975
 20
1073.3004540856
 30
0.0
 40
1.051089297708231
100
AcDbArc
 50
272.662710756
 51
313.8021654505
  0
ARC
  5
2BF
330
1F
100
AcDbEntity
  8
0
  6
Continuous
 62
     7
370
    15
100
AcDbCircle
 10
815.32639334
 20
1073.3268682065
 30
0.0
 40
0.3932206053462586
100
AcDbArc
 50
92.3641369564
 51
139.6707895248
  0
LWPOLYLINE
  5
2C0
330
1F
100
AcDbEntity
  8
0
  6
Continuous
 62
     7
370
    15
100
AcDbPolyline
 90
        3
 70
   128
 43
0.0
 10
815.0266261395
 20
1073.5813521352
 10
814.9299697574
 20
1073.3454965558
 10
814.9196954068
 20
1073.1048726049
  0
LWPOLYLINE
  5
2C1
330
1F
100
AcDbEntity
  8
0
  6
Continuous
 62
     7
370
    15
100
AcDbPolyline
 90
        7
 70
   128
 43
0.0
 10
814.9196954068
 20
1073.1048726049
 10
814.9904684719
 20
1072.7555893865
 10
815.0442691144
 20
1072.6722620931
 10
815.1217775043
 20
1072.6075314489
 10
815.2335138615
 20
1072.5619338956
 10
815.2997644242
 20
1072.5528739896
 10
815.3688685592
 20
1072.5538872686
  0
LWPOLYLINE
  5
2C2
330
1F
100
AcDbEntity
  8
0
  6
Continuous
 62
     7
370
    15
100
AcDbPolyline
 90
        7
 70
   128
 43
0.0
 10
815.3688685592
 20
1072.5538872686
 10
815.507881492
 20
1072.5836895909
 10
815.5696095523
 20
1072.6119421926
 10
815.621256977
 20
1072.6469897237
 10
815.6867326792
 20
1072.7217339482
 10
815.7338427004
 20
1072.8230618444
 10
815.7650382813
 20
1073.1939219442
  0
LWPOLYLINE
  5
2C3
330
1F
100
AcDbEntity
  8
0
  6
Continuous
 62
     7
370
    15
100
AcDbPolyline
 90
        6
 70
   128
 43
0.0
 10
815.7650382813
 20
1073.1939219442
 10
815.6918437775
 20
1073.5338472333
 10
815.6387136873
 20
1073.6103199926
 10
815.5555950102
 20
1073.6733817067
 10
815.4430912431
 20
1073.7137936559
 10
815.3101728853
 20
1073.7197541204
  0
ARC
  5
2C4
330
1F
100
AcDbEntity
  8
0
  6
Continuous
 62
     7
370
    15
100
AcDbCircle
 10
816.9530941981
 20
1073.693058926
 30
0.0
 40
0.4701203474065751
100
AcDbArc
 50
189.856279924
 51
263.7967390737
  0
LWPOLYLINE
  5
2C5
330
1F
100
AcDbEntity
  8
0
  6
Continuous
 62
     7
370
    15
100
AcDbPolyline
 90
        7
 70
   128
 43
0.0
 10
816.4899127182
 20
1073.6125849691
 10
816.538892835
 20
1073.8334797826
 10
816.6151122745
 20
1073.9402317014
 10
816.7207615074
 20
1074.0361355748
 10
816.852919906
 20
1074.1159461942
 10
817.0097024735
 20
1074.1788290944
 10
817.3440472778
 20
1074.2536925283
  0
LWPOLYLINE
  5
2C6
330
1F
100
AcDbEntity
  8
0
  6
Continuous
 62
     7
370
    15
100
AcDbPolyline
 90
        7
 70
   128
 43
0.0
 10
817.3440472778
 20
1074.2536925283
 10
817.6875115927
 20
1074.2832564321
 10
817.8561852869
 20
1074.2709182706
 10
818.000450879
 20
1074.2339633908
 10
818.1229607757
 20
1074.1713785138
 10
818.2158769664
 20
1074.0894221273
 10
818.3010371026
 20
1073.8846801725
  0
ARC
  5
2C7
330
1F
100
AcDbEntity
  8
0
  6
Continuous
 62
     7
370
    15
100
AcDbCircle
 10
817.6921533471
 20
1073.9241750771
 30
0.0
 40
0.6101633184487513
100
AcDbArc
 50
298.6252249596
 51
356.2887403581
  0
ARC
  5
2C8
330
1F
100
AcDbEntity
  8
0
  6
Continuous
 62
     7
370
    15
100
AcDbCircle
 10
817.8848786154
 20
1073.0326469014
 30
0.0
 40
0.3696137427337516
100
AcDbArc
 50
7.866795718
 51
74.3687250883
  0
LWPOLYLINE
  5
2C9
330
1F
100
AcDbEntity
  8
0
  6
Continuous
 62
     7
370
    15
100
AcDbPolyline
 90
        7
 70
   128
 43
0.0
 10
818.2510139045
 20
1073.0832361188
 10
818.2102964815
 20
1072.8851698842
 10
818.1447984275
 20
1072.7884315458
 10
818.0528061088
 20
1072.7012895551
 10
817.9379554089
 20
1072.6263665166
 10
817.8035320338
 20
1072.5649737325
 10
817.5112755593
 20
1072.4910043683
  0
LWPOLYLINE
  5
2CA
330
1F
100
AcDbEntity
  8
0
  6
Continuous
 62
     7
370
    15
100
AcDbPolyline
 90
        7
 70
   128
 43
0.0
 10
817.5112755593
 20
1072.4910043683
 10
817.2144593295
 20
1072.4775933232
 10
817.0746938881
 20
1072.4987529721
 10
816.9503138956
 20
1072.5398205724
 10
816.8472425636
 20
1072.5988291707
 10
816.7662547525
 20
1072.6738714185
 10
816.6893126067
 20
1072.8531025853
  0
ARC
  5
2CB
330
1F
100
AcDbEntity
  8
0
  6
Continuous
 62
     7
370
    15
100
AcDbCircle
 10
817.1169852144
 20
1072.8558004142
 30
0.0
 40
0.4276811167717416
100
AcDbArc
 50
120.1315384138
 51
180.361426363
  0
LWPOLYLINE
  5
2CC
330
1F
100
AcDbEntity
  8
0
  6
Continuous
 62
     7
370
    15
100
AcDbPolyline
 90
        8
 70
   128
 43
0.0
 10
817.4553887542
 20
1073.1758617368
 10
817.3424006995
 20
1073.1455825772
 10
817.29313001
 20
1073.1204294171
 10
817.2509373721
 20
1073.0892561879
 10
817.2184900936
 20
1073.05450668
 10
817.1966002878
 20
1073.0168365445
 10
817.1862737831
 20
1072.9784511533
 10
817.1856479343
 20
1072.9404233899
  0
LWPOLYLINE
  5
2CD
330
1F
100
AcDbEntity
  8
0
  6
Continuous
 62
     7
370
    15
100
AcDbPolyline
 90
        8
 70
   128
 43
0.0
 10
817.1856479343
 20
1072.9404233899
 10
817.2121496495
 20
1072.8705071416
 10
817.241914719
 20
1072.8417180982
 10
817.2822670635
 20
1072.8189491239
 10
817.3297719654
 20
1072.8036307302
 10
817.3842431601
 20
1072.7956437078
 10
817.4410985407
 20
1072.7953456845
 10
817.4988926944
 20
1072.8015445676
  0
LWPOLYLINE
  5
2CE
330
1F
100
AcDbEntity
  8
0
  6
Continuous
 62
     7
370
    15
100
AcDbPolyline
 90
        8
 70
   128
 43
0.0
 10
817.4988926944
 20
1072.8015445676
 10
817.607849985
 20
1072.8308700528
 10
817.6559434828
 20
1072.8554867711
 10
817.6966236528
 20
1072.8854083028
 10
817.7285940942
 20
1072.9193233457
 10
817.7503870424
 20
1072.9556225743
 10
817.7610935267
 20
1072.9928158727
 10
817.7620099481
 20
1073.0295919385
  0
LWPOLYLINE
  5
2CF
330
1F
100
AcDbEntity
  8
0
  6
Continuous
 62
     7
370
    15
100
AcDbPolyline
 90
        8
 70
   128
 43
0.0
 10
817.7620099481
 20
1073.0295919385
 10
817.7355678376
 20
1073.0993889775
 10
817.7068533
 20
1073.127999207
 10
817.6676706966
 20
1073.1517814603
 10
817.6207841929
 20
1073.1694244352
 10
817.5695540007
 20
1073.1793784108
 10
817.5132276114
 20
1073.1812261548
 10
817.4553887542
 20
1073.1758617368
  0
LWPOLYLINE
  5
2D0
330
1F
100
AcDbEntity
  8
0
  6
Continuous
 62
     7
370
    15
100
AcDbPolyline
 90
        8
 70
   128
 43
0.0
 10
817.3790724572
 20
1073.9523314443
 10
817.2265441712
 20
1073.9163898435
 10
817.1560691293
 20
1073.8872431722
 10
817.094005793
 20
1073.8502882924
 10
817.0423732694
 20
1073.8063000646
 10
817.0068041977
 20
1073.7584375348
 10
816.9878573712
 20
1073.7075351682
 10
816.9849441942
 20
1073.6567520108
  0
LWPOLYLINE
  5
2D1
330
1F
100
AcDbEntity
  8
0
  6
Continuous
 62
     7
370
    15
100
AcDbPolyline
 90
        7
 70
   128
 43
0.0
 10
816.9849441942
 20
1073.6567520108
 10
817.0247302946
 20
1073.5635303464
 10
817.067288011
 20
1073.5266946759
 10
817.1244563159
 20
1073.4967135396
 10
817.2625975307
 20
1073.4653614965
 10
817.3392416533
 20
1073.4643482175
 10
817.4172715839
 20
1073.472156426
  0
LWPOLYLINE
  5
2D2
330
1F
100
AcDbEntity
  8
0
  6
Continuous
 62
     7
370
    15
100
AcDbPolyline
 90
        7
 70
   128
 43
0.0
 10
817.4172715839
 20
1073.472156426
 10
817.5694347914
 20
1073.5105418172
 10
817.7005873617
 20
1073.5801004377
 10
817.75446251
 20
1073.6256383863
 10
817.7921102937
 20
1073.6725472417
 10
817.8147824105
 20
1073.7238668409
 10
817.8188653287
 20
1073.7750672307
  0
LWPOLYLINE
  5
2D3
330
1F
100
AcDbEntity
  8
0
  6
Continuous
 62
     7
370
    15
100
AcDbPolyline
 90
        8
 70
   128
 43
0.0
 10
817.8188653287
 20
1073.7750672307
 10
817.8068698939
 20
1073.8238834348
 10
817.7781851586
 20
1073.8684081044
 10
817.7339510616
 20
1073.9048265424
 10
817.6761941608
 20
1073.9333771672
 10
817.6091240343
 20
1073.9525698629
 10
817.5356240567
 20
1073.9615701642
 10
817.3790724572
 20
1073.9523314443
  0
LWPOLYLINE
  5
2D4
330
1F
100
AcDbEntity
  8
0
  6
Continuous
 62
     7
370
    15
100
AcDbPolyline
 90
        3
 70
   128
 43
0.0
 10
815.2933718261
 20
1074.0167640653
 10
815.2929694947
 20
1074.0205787625
 10
815.2925746139
 20
1074.0244530645
  0
LWPOLYLINE
  5
2D5
330
1F
100
AcDbEntity
  8
0
  6
Continuous
 62
     7
370
    15
100
AcDbPolyline
 90
        3
 70
   128
 43
0.0
 10
814.4213782247
 20
1073.0686329808
 10
814.421124905
 20
1073.0724476781
 10
814.4208641347
 20
1073.0762623754
  0
LINE
  5
2D6
330
1F
100
AcDbEntity
  8
0
  6
Continuous
 62
     7
370
    15
100
AcDbLine
 10
819.9859188493
 20
1073.0195187535
 30
0.0
 11
819.2586229738
 21
1072.860374352
 31
0.0
  0
LINE
  5
2D7
330
1F
100
AcDbEntity
  8
0
  6
Continuous
 62
     7
370
    15
100
AcDbLine
 10
819.2586229738
 20
1072.860374352
 30
0.0
 11
819.0433757004
 21
1074.5139264074
 31
0.0
  0
LINE
  5
2D8
330
1F
100
AcDbEntity
  8
0
  6
Continuous
 62
     7
370
    15
100
AcDbLine
 10
819.0433757004
 20
1074.5139264074
 30
0.0
 11
819.5260988172
 21
1074.6179961171
 31
0.0
  0
LINE
  5
2D9
330
1F
100
AcDbEntity
  8
0
  6
Continuous
 62
     7
370
    15
100
AcDbLine
 10
819.5260988172
 20
1074.6179961171
 30
0.0
 11
819.7030799087
 21
1073.2601427045
 31
0.0
  0
LINE
  5
2DA
330
1F
100
AcDbEntity
  8
0
  6
Continuous
 62
     7
370
    15
100
AcDbLine
 10
819.7030799087
 20
1073.2601427045
 30
0.0
 11
820.2272357043
 21
1073.3798884359
 31
0.0
  0
LINE
  5
2DB
330
1F
100
AcDbEntity
  8
0
  6
Continuous
 62
     7
370
    15
100
AcDbLine
 10
820.2272357043
 20
1073.3798884359
 30
0.0
 11
819.9859188493
 21
1073.0195187535
 31
0.0
  0
LINE
  5
2DC
330
1F
100
AcDbEntity
  8
0
  6
Continuous
 62
     7
370
    15
100
AcDbLine
 10
819.0433757004
 20
1074.5139264074
 30
0.0
 11
819.0414012965
 21
1074.521376988
 31
0.0
  0
LINE
  5
2DD
330
1F
100
AcDbEntity
  8
0
  6
Continuous
 62
     7
370
    15
100
AcDbLine
 10
819.2586229738
 20
1072.860374352
 30
0.0
 11
819.2566485699
 21
1072.8678249326
 31
0.0
  0
LWPOLYLINE
  5
2DE
330
1F
100
AcDbEntity
  8
0
  6
Continuous
 62
     7
370
    15
100
AcDbPolyline
 90
        3
 70
   128
 43
0.0
 10
817.3440472778
 20
1074.2536925283
 10
817.3433245715
 20
1074.2575072255
 10
817.3426018652
 20
1074.2612623182
  0
LINE
  5
2DF
330
1F
100
AcDbEntity
  8
0
  6
Continuous
 62
     7
370
    15
100
AcDbLine
 10
816.4899127182
 20
1073.6125849691
 30
0.0
 11
816.4887504276
 21
1073.6202143636
 31
0.0
  0
LWPOLYLINE
  5
2E0
330
1F
100
AcDbEntity
  8
0
  6
Continuous
 62
     7
370
    15
100
AcDbPolyline
 90
        7
 70
   128
 43
0.0
 10
814.9190323051
 20
1073.112561604
 10
814.9897830185
 20
1072.7632783857
 10
815.0435687598
 20
1072.6799510923
 10
815.1210473474
 20
1072.615220448
 10
815.2327539023
 20
1072.5695632901
 10
815.2989895638
 20
1072.5605033841
 10
815.3680713471
 20
1072.5615166631
  0
LWPOLYLINE
  5
2E1
330
1F
100
AcDbEntity
  8
0
  6
Continuous
 62
     7
370
    15
100
AcDbPolyline
 90
        7
 70
   128
 43
0.0
 10
815.3680713471
 20
1072.5615166631
 10
815.507047027
 20
1072.5913785901
 10
815.5687452849
 20
1072.6196311917
 10
815.6203778085
 20
1072.6546191182
 10
815.685831159
 20
1072.7293633428
 10
815.7329337295
 20
1072.8306912389
 10
815.7641144093
 20
1073.2015513387
  0
LINE
  5
2E2
330
1F
100
AcDbEntity
  8
0
  6
Continuous
 62
     7
370
    15
100
AcDbLine
 10
819.5260988172
 20
1074.6179961171
 30
0.0
 11
819.5239754018
 21
1074.6254466977
 31
0.0
  0
LWPOLYLINE
  5
2E3
330
1F
100
AcDbEntity
  8
0
  6
Continuous
 62
     7
370
    15
100
AcDbPolyline
 90
        7
 70
   128
 43
0.0
 10
816.9836254414
 20
1073.6643218007
 10
817.0234115418
 20
1073.5711001363
 10
817.065954357
 20
1073.5342644658
 10
817.1231003102
 20
1073.5042833295
 10
817.2612042721
 20
1073.4729312864
 10
817.3378185924
 20
1073.471977612
 10
817.4158261713
 20
1073.4797262159
  0
LWPOLYLINE
  5
2E4
330
1F
100
AcDbEntity
  8
0
  6
Continuous
 62
     7
370
    15
100
AcDbPolyline
 90
        7
 70
   128
 43
0.0
 10
817.4158261713
 20
1073.4797262159
 10
817.5679446753
 20
1073.5181116071
 10
817.6990599927
 20
1073.5876106229
 10
817.7529053386
 20
1073.6332081762
 10
817.7905456718
 20
1073.6801170316
 10
817.813210338
 20
1073.7314366307
 10
817.8172932562
 20
1073.7826370206
  0
LWPOLYLINE
  5
2E5
330
1F
100
AcDbEntity
  8
0
  6
Continuous
 62
     7
370
    15
100
AcDbPolyline
 90
        3
 70
   128
 43
0.0
 10
817.8172932562
 20
1073.7826370206
 10
817.8180755671
 20
1073.7788223233
 10
817.8188653287
 20
1073.7750672307
  0
LINE
  5
2E6
330
1F
100
AcDbEntity
  8
0
  6
Continuous
 62
     7
370
    15
100
AcDbLine
 10
800.8435519036
 20
1074.4846605268
 30
0.0
 11
800.1549692448
 21
1074.770703217
 31
0.0
  0
LINE
  5
2E7
330
1F
100
AcDbEntity
  8
0
  6
Continuous
 62
     7
370
    15
100
AcDbLine
 10
800.1549692448
 20
1074.770703217
 30
0.0
 11
800.542734712
 21
1076.3831280675
 31
0.0
  0
LINE
  5
2E8
330
1F
100
AcDbEntity
  8
0
  6
Continuous
 62
     7
370
    15
100
AcDbLine
 10
800.542734712
 20
1076.3831280675
 30
0.0
 11
800.999127477
 21
1076.1917375531
 31
0.0
  0
LINE
  5
2E9
330
1F
100
AcDbEntity
  8
0
  6
Continuous
 62
     7
370
    15
100
AcDbLine
 10
800.999127477
 20
1076.1917375531
 30
0.0
 11
800.6807716187
 21
1074.8676799741
 31
0.0
  0
LINE
  5
2EA
330
1F
100
AcDbEntity
  8
0
  6
Continuous
 62
     7
370
    15
100
AcDbLine
 10
800.6807716187
 20
1074.8676799741
 30
0.0
 11
801.1809216436
 21
1074.6654414144
 31
0.0
  0
LINE
  5
2EB
330
1F
100
AcDbEntity
  8
0
  6
Continuous
 62
     7
370
    15
100
AcDbLine
 10
801.1809216436
 20
1074.6654414144
 30
0.0
 11
800.8435519036
 21
1074.4846605268
 31
0.0
  0
LINE
  5
2EC
330
1F
100
AcDbEntity
  8
0
  6
Continuous
 62
     7
370
    15
100
AcDbLine
 10
800.6807716187
 20
1074.8676799741
 30
0.0
 11
800.6844671067
 21
1074.8745941129
 31
0.0
  0
LINE
  5
2ED
330
1F
100
AcDbEntity
  8
0
  6
Continuous
 62
     7
370
    15
100
AcDbLine
 10
800.999127477
 20
1076.1917375531
 30
0.0
 11
801.0028304156
 21
1076.1987112966
 31
0.0
  0
LINE
  5
2EE
330
1F
100
AcDbEntity
  8
0
  6
Continuous
 62
     7
370
    15
100
AcDbLine
 10
798.9038826522
 20
1075.3544115033
 30
0.0
 11
797.8190483149
 21
1075.9022377935
 31
0.0
  0
LINE
  5
2EF
330
1F
100
AcDbEntity
  8
0
  6
Continuous
 62
     7
370
    15
100
AcDbLine
 10
797.8190483149
 20
1075.9022377935
 30
0.0
 11
797.8973837193
 21
1076.178505322
 31
0.0
  0
LINE
  5
2F0
330
1F
100
AcDbEntity
  8
0
  6
Continuous
 62
     7
370
    15
100
AcDbLine
 10
797.8973837193
 20
1076.178505322
 30
0.0
 11
798.6509503421
 21
1075.7934593167
 31
0.0
  0
LINE
  5
2F1
330
1F
100
AcDbEntity
  8
0
  6
Continuous
 62
     7
370
    15
100
AcDbLine
 10
798.6509503421
 20
1075.7934593167
 30
0.0
 11
798.8273800906
 21
1076.0335468259
 31
0.0
  0
LINE
  5
2F2
330
1F
100
AcDbEntity
  8
0
  6
Continuous
 62
     7
370
    15
100
AcDbLine
 10
798.8273800906
 20
1076.0335468259
 30
0.0
 11
798.6728252467
 21
1076.0935090985
 31
0.0
  0
ARC
  5
2F3
330
1F
100
AcDbEntity
  8
0
  6
Continuous
 62
     7
370
    15
100
AcDbCircle
 10
798.952686918
 20
1076.9117573504
 30
0.0
 40
0.86478480368861
100
AcDbArc
 50
174.9303959384
 51
251.1180100272
  0
LWPOLYLINE
  5
2F4
330
1F
100
AcDbEntity
  8
0
  6
Continuous
 62
     7
370
    15
100
AcDbPolyline
 90
        6
 70
   128
 43
0.0
 10
798.0912850794
 20
1076.9881748166
 10
798.2061506804
 20
1077.1681808438
 10
798.3036266264
 20
1077.2244476285
 10
798.427187055
 20
1077.2565149274
 10
798.7177149948
 20
1077.2449516263
 10
799.0359590944
 20
1077.1302722898
  0
ARC
  5
2F5
330
1F
100
AcDbEntity
  8
0
  6
Continuous
 62
     7
370
    15
100
AcDbCircle
 10
798.6537649683
 20
1076.1282927456
 30
0.0
 40
1.072397014621741
100
AcDbArc
 50
10.1428874828
 51
69.1211956107
  0
LINE
  5
2F6
330
1F
100
AcDbEntity
  8
0
  6
Continuous
 62
     7
370
    15
100
AcDbLine
 10
799.7094021734
 20
1076.3171457257
 30
0.0
 11
799.2404477295
 21
1076.5413783994
 31
0.0
  0
ARC
  5
2F7
330
1F
100
AcDbEntity
  8
0
  6
Continuous
 62
     7
370
    15
100
AcDbCircle
 10
798.7157959632
 20
1076.3473677255
 30
0.0
 40
0.5593743088515417
100
AcDbArc
 50
20.2938606401
 51
65.532493982
  0
LWPOLYLINE
  5
2F8
330
1F
100
AcDbEntity
  8
0
  6
Continuous
 62
     7
370
    15
100
AcDbPolyline
 90
        7
 70
   128
 43
0.0
 10
798.9474685487
 20
1076.8565081563
 10
798.801809698
 20
1076.9074701276
 10
798.7336368855
 20
1076.9143246617
 10
798.6701430377
 20
1076.9086622205
 10
798.6165808138
 20
1076.8913768735
 10
798.5735239085
 20
1076.8622898069
 10
798.5238210853
 20
1076.7775916066
  0
ARC
  5
2F9
330
1F
100
AcDbEntity
  8
0
  6
Continuous
 62
     7
370
    15
100
AcDbCircle
 10
798.924635714
 20
1076.7387064447
 30
0.0
 40
0.402696439512757
100
AcDbArc
 50
174.4587724759
 51
248.7465708498
  0
ARC
  5
2FA
330
1F
100
AcDbEntity
  8
0
  6
Continuous
 62
     7
370
    15
100
AcDbCircle
 10
798.9906421907
 20
1076.7846651071
 30
0.0
 40
0.471591101431134
100
AcDbArc
 50
243.2892348061
 51
281.9096721379
  0
LINE
  5
2FB
330
1F
100
AcDbEntity
  8
0
  6
Continuous
 62
     7
370
    15
100
AcDbLine
 10
799.087964147
 20
1076.3232253995
 30
0.0
 11
799.4358094033
 21
1076.0932110753
 31
0.0
  0
LINE
  5
2FC
330
1F
100
AcDbEntity
  8
0
  6
Continuous
 62
     7
370
    15
100
AcDbLine
 10
799.4358094033
 20
1076.0932110753
 30
0.0
 11
798.9038826522
 21
1075.3544115033
 31
0.0
  0
LWPOLYLINE
  5
2FD
330
1F
100
AcDbEntity
  8
0
  6
Continuous
 62
     7
370
    15
100
AcDbPolyline
 90
        3
 70
   128
 43
0.0
 10
817.4158261713
 20
1073.4797262159
 10
817.4165488776
 20
1073.4759115186
 10
817.4172715839
 20
1073.472156426
  0
LWPOLYLINE
  5
2FE
330
1F
100
AcDbEntity
  8
0
  6
Continuous
 62
     7
370
    15
100
AcDbPolyline
 90
        3
 70
   128
 43
0.0
 10
816.9836254414
 20
1073.6643218007
 10
816.9842885431
 20
1073.6605071035
 10
816.9849441942
 20
1073.6567520108
  0
LINE
  5
2FF
330
1F
100
AcDbEntity
  8
0
  6
Continuous
 62
     7
370
    15
100
AcDbLine
 10
800.542734712
 20
1076.3831280675
 30
0.0
 11
800.5465792116
 21
1076.3899826017
 31
0.0
  0
LINE
  5
300
330
1F
100
AcDbEntity
  8
0
  6
Continuous
 62
     7
370
    15
100
AcDbLine
 10
799.7094021734
 20
1076.3171457257
 30
0.0
 11
799.7134701904
 21
1076.3239406552
 31
0.0
  0
LWPOLYLINE
  5
301
330
1F
100
AcDbEntity
  8
0
  6
Continuous
 62
     7
370
    15
100
AcDbPolyline
 90
        3
 70
   128
 43
0.0
 10
799.0359590944
 20
1077.1302722898
 10
799.0381123122
 20
1077.1336101499
 10
799.0402729806
 20
1077.13694801
  0
LWPOLYLINE
  5
302
330
1F
100
AcDbEntity
  8
0
  6
Continuous
 62
     7
370
    15
100
AcDbPolyline
 90
        3
 70
   128
 43
0.0
 10
815.3680713471
 20
1072.5615166631
 10
815.3684736785
 20
1072.5577019658
 10
815.3688685592
 20
1072.5538872686
  0
ARC
  5
303
330
1F
100
AcDbEntity
  8
0
  6
Continuous
 62
     7
370
    15
100
AcDbCircle
 10
797.1227584118
 20
1077.4312997569
 30
0.0
 40
1.041101624865385
100
AcDbArc
 50
159.9105955912
 51
243.9652922471
  0
LWPOLYLINE
  5
304
330
1F
100
AcDbEntity
  8
0
  6
Continuous
 62
     7
370
    15
100
AcDbPolyline
 90
        7
 70
   128
 43
0.0
 10
796.1449997123
 20
1077.7889036145
 10
796.2611095604
 20
1078.0508660283
 10
796.4592652019
 20
1078.2482170072
 10
796.6068910059
 20
1078.299596211
 10
796.7846693095
 20
1078.2983445134
 10
796.9862671193
 20
1078.2386206594
 10
797.190033048
 20
1078.1354450193
  0
ARC
  5
305
330
1F
100
AcDbEntity
  8
0
  6
Continuous
 62
     7
370
    15
100
AcDbCircle
 10
796.7665427387
 20
1077.2110338458
 30
0.0
 40
1.016798927903411
100
AcDbArc
 50
340.800712097
 51
65.3865852123
  0
LWPOLYLINE
  5
306
330
1F
100
AcDbEntity
  8
0
  6
Continuous
 62
     7
370
    15
100
AcDbPolyline
 90
        3
 70
   128
 43
0.0
 10
797.7267877754
 20
1076.8766545262
 10
797.5870968398
 20
1076.5755914655
 10
797.3298133906
 20
1076.364591023
  0
ARC
  5
307
330
1F
100
AcDbEntity
  8
0
  6
Continuous
 62
     7
370
    15
100
AcDbCircle
 10
797.1548836927
 20
1077.2248949315
 30
0.0
 40
0.8779069470590346
100
AcDbArc
 50
236.1445999818
 51
281.4930570999
  0
ARC
  5
308
330
1F
100
AcDbEntity
  8
0
  6
Continuous
 62
     7
370
    15
100
AcDbCircle
 10
796.9222228452
 20
1077.6073664081
 30
0.0
 40
0.3095366891172039
100
AcDbArc
 50
54.6685598329
 51
109.3874049117
  0
LWPOLYLINE
  5
309
330
1F
100
AcDbEntity
  8
0
  6
Continuous
 62
     7
370
    15
100
AcDbPolyline
 90
        3
 70
   128
 43
0.0
 10
796.8194709715
 20
1077.8993510213
 10
796.6586948928
 20
1077.7438425031
 10
796.5670527514
 20
1077.5346301999
  0
LWPOLYLINE
  5
30A
330
1F
100
AcDbEntity
  8
0
  6
Continuous
 62
     7
370
    15
100
AcDbPolyline
 90
        7
 70
   128
 43
0.0
 10
796.5670527514
 20
1077.5346301999
 10
796.5051011738
 20
1077.1815918889
 10
796.5190263089
 20
1077.0808004346
 10
796.5621353682
 20
1076.9737504926
 10
796.6385410722
 20
1076.8686675038
 10
796.6899873313
 20
1076.8222950902
 10
796.7474462088
 20
1076.7833732572
  0
LWPOLYLINE
  5
30B
330
1F
100
AcDbEntity
  8
0
  6
Continuous
 62
     7
370
    15
100
AcDbPolyline
 90
        6
 70
   128
 43
0.0
 10
796.7474462088
 20
1076.7833732572
 10
796.872630864
 20
1076.7301463094
 10
796.9884426888
 20
1076.721146008
 10
797.0672251281
 20
1076.7492197957
 10
797.1427740153
 20
1076.8133543935
 10
797.2967253622
 20
1077.1267556157
  0
LWPOLYLINE
  5
30C
330
1F
100
AcDbEntity
  8
0
  6
Continuous
 62
     7
370
    15
100
AcDbPolyline
 90
        6
 70
   128
 43
0.0
 10
797.2967253622
 20
1077.1267556157
 10
797.3533870276
 20
1077.4731182065
 10
797.3358185586
 20
1077.5721811261
 10
797.2885073718
 20
1077.6766084638
 10
797.2091735896
 20
1077.777757546
 10
797.1012295779
 20
1077.8598927465
  0
LWPOLYLINE
  5
30D
330
1F
100
AcDbEntity
  8
0
  6
Continuous
 62
     7
370
    15
100
AcDbPolyline
 90
        3
 70
   128
 43
0.0
 10
797.7267877754
 20
1076.8766545262
 10
797.7291123565
 20
1076.8798731771
 10
797.7314369377
 20
1076.8831514325
  0
LINE
  5
30E
330
1F
100
AcDbEntity
  8
0
  6
Continuous
 62
     7
370
    15
100
AcDbLine
 10
797.190033048
 20
1078.1354450193
 30
0.0
 11
797.1949355301
 21
1078.1417631116
 31
0.0
  0
LWPOLYLINE
  5
30F
330
1F
100
AcDbEntity
  8
0
  6
Continuous
 62
     7
370
    15
100
AcDbPolyline
 90
        3
 70
   128
 43
0.0
 10
816.6893126067
 20
1072.8531025853
 10
816.6887091097
 20
1072.856857678
 10
816.6881056126
 20
1072.8606723752
  0
LWPOLYLINE
  5
310
330
1F
100
AcDbEntity
  8
0
  6
Continuous
 62
     7
370
    15
100
AcDbPolyline
 90
        8
 70
   128
 43
0.0
 10
817.1842919286
 20
1072.9479931798
 10
817.2107861933
 20
1072.8780769315
 10
817.2405438122
 20
1072.8492878881
 10
817.2808812555
 20
1072.8265189138
 10
817.3283712562
 20
1072.8112005201
 10
817.3828275498
 20
1072.8032134977
 10
817.4396680292
 20
1072.8029750791
 10
817.4974472817
 20
1072.8091143575
  0
LWPOLYLINE
  5
311
330
1F
100
AcDbEntity
  8
0
  6
Continuous
 62
     7
370
    15
100
AcDbPolyline
 90
        8
 70
   128
 43
0.0
 10
817.4974472817
 20
1072.8091143575
 10
817.6063673195
 20
1072.8384398427
 10
817.6544459161
 20
1072.863056561
 10
817.695111185
 20
1072.8929780927
 10
817.7270741757
 20
1072.9268931356
 10
817.7488596734
 20
1072.9631923642
 10
817.7595587071
 20
1073.0003856626
 10
817.7604751285
 20
1073.0371617284
  0
LWPOLYLINE
  5
312
330
1F
100
AcDbEntity
  8
0
  6
Continuous
 62
     7
370
    15
100
AcDbPolyline
 90
        3
 70
   128
 43
0.0
 10
798.5238210853
 20
1076.7775916066
 10
798.5260339078
 20
1076.7808698621
 10
798.5282467302
 20
1076.7842077222
  0
LWPOLYLINE
  5
313
330
1F
100
AcDbEntity
  8
0
  6
Continuous
 62
     7
370
    15
100
AcDbPolyline
 90
        3
 70
   128
 43
0.0
 10
817.7604751285
 20
1073.0371617284
 10
817.7612425383
 20
1073.0334066358
 10
817.7620099481
 20
1073.0295919385
  0
LWPOLYLINE
  5
314
330
1F
100
AcDbEntity
  8
0
  6
Continuous
 62
     7
370
    15
100
AcDbPolyline
 90
        7
 70
   128
 43
0.0
 10
796.5720669922
 20
1077.5408886876
 10
796.5101005133
 20
1077.1878503766
 10
796.5240032967
 20
1077.087118527
 10
796.5670974549
 20
1076.9800685849
 10
796.6434733566
 20
1076.8749855962
 10
796.6948972639
 20
1076.8286727872
 10
796.7523412403
 20
1076.7897509542
  0
LWPOLYLINE
  5
315
330
1F
100
AcDbEntity
  8
0
  6
Continuous
 62
     7
370
    15
100
AcDbPolyline
 90
        3
 70
   128
 43
0.0
 10
796.8244479593
 20
1077.9056691137
 10
796.6636942323
 20
1077.7501605954
 10
796.5720669922
 20
1077.5408886876
  0
LWPOLYLINE
  5
316
330
1F
100
AcDbEntity
  8
0
  6
Continuous
 62
     7
370
    15
100
AcDbPolyline
 90
        6
 70
   128
 43
0.0
 10
796.7523412403
 20
1076.7897509542
 10
796.8774960932
 20
1076.7365240064
 10
796.993270665
 20
1076.727523705
 10
797.0720382031
 20
1076.7555974927
 10
797.1475721892
 20
1076.8197320905
 10
797.1608863767
 20
1076.8468522039
  0
LWPOLYLINE
  5
317
330
1F
100
AcDbEntity
  8
0
  6
Continuous
 62
     7
370
    15
100
AcDbPolyline
 90
        3
 70
   128
 43
0.0
 10
817.4974472817
 20
1072.8091143575
 10
817.498169988
 20
1072.8053592649
 10
817.4988926944
 20
1072.8015445676
  0
LWPOLYLINE
  5
318
330
1F
100
AcDbEntity
  8
0
  6
Continuous
 62
     7
370
    15
100
AcDbPolyline
 90
        3
 70
   128
 43
0.0
 10
817.1842919286
 20
1072.9479931798
 10
817.1849699315
 20
1072.9442380872
 10
817.1856479343
 20
1072.9404233899
  0
LWPOLYLINE
  5
319
330
1F
100
AcDbEntity
  8
0
  6
Continuous
 62
     7
370
    15
100
AcDbPolyline
 90
        3
 70
   128
 43
0.0
 10
798.7786681947
 20
1076.3633989301
 10
798.780828863
 20
1076.3667367902
 10
798.782996982
 20
1076.3700746503
  0
LWPOLYLINE
  5
31A
330
1F
100
AcDbEntity
  8
0
  6
Continuous
 62
     7
370
    15
100
AcDbPolyline
 90
        7
 70
   128
 43
0.0
 10
832.8690604862
 20
1079.320623776
 10
832.6845915612
 20
1079.1881822553
 10
832.4961440262
 20
1079.1006826368
 10
832.321733385
 20
1079.0711187329
 10
832.1705834564
 20
1079.0985964742
 10
831.9558204707
 20
1079.2666219678
 10
831.8171204623
 20
1079.5107029882
  0
ARC
  5
31B
330
1F
100
AcDbEntity
  8
0
  6
Continuous
 62
     7
370
    15
100
AcDbCircle
 10
832.7906382794
 20
1079.96325222
 30
0.0
 40
1.073563108245776
100
AcDbArc
 50
124.6299860437
 51
204.9318193543
  0
LWPOLYLINE
  5
31C
330
1F
100
AcDbEntity
  8
0
  6
Continuous
 62
     7
370
    15
100
AcDbPolyline
 90
        7
 70
   128
 43
0.0
 10
832.1805597838
 20
1080.8466218915
 10
832.36157909
 20
1080.9796594587
 10
832.5451762971
 20
1081.0716890302
 10
832.711152881
 20
1081.1060809102
 10
832.8619898852
 20
1081.084802052
 10
833.0722601708
 20
1080.9255384412
 10
833.2085685428
 20
1080.6855105367
  0
ARC
  5
31D
330
1F
100
AcDbEntity
  8
0
  6
Continuous
 62
     7
370
    15
100
AcDbCircle
 10
832.2455372825
 20
1080.1951189213
 30
0.0
 40
1.080700302946852
100
AcDbArc
 50
347.3565811829
 51
26.9859549607
  0
ARC
  5
31E
330
1F
100
AcDbEntity
  8
0
  6
Continuous
 62
     7
370
    15
100
AcDbCircle
 10
832.0642767497
 20
1080.3288494669
 30
0.0
 40
1.290037172501529
100
AcDbArc
 50
308.5974918704
 51
343.3198718913
  0
ARC
  5
31F
330
1F
100
AcDbEntity
  8
0
  6
Continuous
 62
     7
370
    15
100
AcDbCircle
 10
832.6107109204
 20
1080.1983810213
 30
0.0
 40
0.5023333537761268
100
AcDbArc
 50
128.7825554893
 51
167.3984725265
  0
LWPOLYLINE
  5
320
330
1F
100
AcDbEntity
  8
0
  6
Continuous
 62
     7
370
    15
100
AcDbPolyline
 90
        3
 70
   128
 43
0.0
 10
832.1204783019
 20
1080.3079747167
 10
832.1252168711
 20
1080.0428532567
 10
832.199670523
 20
1079.8214220014
  0
LWPOLYLINE
  5
321
330
1F
100
AcDbEntity
  8
0
  6
Continuous
 62
     7
370
    15
100
AcDbPolyline
 90
        7
 70
   128
 43
0.0
 10
832.199670523
 20
1079.8214220014
 10
832.3752360042
 20
1079.5475982633
 10
832.4427531656
 20
1079.5039080587
 10
832.5295300778
 20
1079.4878148046
 10
832.6332421597
 20
1079.5091532674
 10
832.6884956654
 20
1079.5378231015
 10
832.742490023
 20
1079.5771025624
  0
LWPOLYLINE
  5
322
330
1F
100
AcDbEntity
  8
0
  6
Continuous
 62
     7
370
    15
100
AcDbPolyline
 90
        7
 70
   128
 43
0.0
 10
832.742490023
 20
1079.5771025624
 10
832.8414560851
 20
1079.6811722722
 10
832.8805492815
 20
1079.7408365216
 10
832.908928543
 20
1079.8007987943
 10
832.9355718192
 20
1079.9146436658
 10
832.9367564615
 20
1080.0212763753
 10
832.8334467109
 20
1080.3711556401
  0
LWPOLYLINE
  5
323
330
1F
100
AcDbEntity
  8
0
  6
Continuous
 62
     7
370
    15
100
AcDbPolyline
 90
        6
 70
   128
 43
0.0
 10
832.8334467109
 20
1080.3711556401
 10
832.6594607528
 20
1080.6353830304
 10
832.5914518532
 20
1080.6743048635
 10
832.5046972927
 20
1080.6847356763
 10
832.4025423821
 20
1080.6583904233
 10
832.2960661348
 20
1080.5899642911
  0
LWPOLYLINE
  5
324
330
1F
100
AcDbEntity
  8
0
  6
Continuous
 62
     7
370
    15
100
AcDbPolyline
 90
        3
 70
   128
 43
0.0
 10
799.087964147
 20
1076.3232253995
 10
799.0900801119
 20
1076.3265632596
 10
799.0922035273
 20
1076.3299011197
  0
LINE
  5
325
330
1F
100
AcDbEntity
  8
0
  6
Continuous
 62
     7
370
    15
100
AcDbLine
 10
799.4358094033
 20
1076.0932110753
 30
0.0
 11
799.4399444755
 21
1076.0999464002
 31
0.0
  0
LINE
  5
326
330
1F
100
AcDbEntity
  8
0
  6
Continuous
 62
     7
370
    15
100
AcDbLine
 10
832.1805597838
 20
1080.8466218915
 30
0.0
 11
832.1744503077
 21
1080.8521055188
 31
0.0
  0
LINE
  5
327
330
1F
100
AcDbEntity
  8
0
  6
Continuous
 62
     7
370
    15
100
AcDbLine
 10
820.2272357043
 20
1073.3798884359
 30
0.0
 11
820.2249483761
 21
1073.3873390165
 31
0.0
  0
LWPOLYLINE
  5
328
330
1F
100
AcDbEntity
  8
0
  6
Continuous
 62
     7
370
    15
100
AcDbPolyline
 90
        3
 70
   128
 43
0.0
 10
796.7523412403
 20
1076.7897509542
 10
796.7498899993
 20
1076.786591908
 10
796.7474462088
 20
1076.7833732572
  0
LINE
  5
329
330
1F
100
AcDbEntity
  8
0
  6
Continuous
 62
     7
370
    15
100
AcDbLine
 10
798.6509503421
 20
1075.7934593167
 30
0.0
 11
798.6552716788
 21
1075.800135037
 31
0.0
  0
ARC
  5
32A
330
1F
100
AcDbEntity
  8
0
  6
Continuous
 62
     7
370
    15
100
AcDbCircle
 10
832.5244554169
 20
1079.8006793375
 30
0.0
 40
0.3041001180899516
100
AcDbArc
 50
253.23097196
 51
314.1782275983
  0
LINE
  5
32B
330
1F
100
AcDbEntity
  8
0
  6
Continuous
 62
     7
370
    15
100
AcDbLine
 10
832.8272329267
 20
1080.3765796628
 30
0.0
 11
832.6598034796
 21
1080.6308530774
 31
0.0
  0
LWPOLYLINE
  5
32C
330
1F
100
AcDbEntity
  8
0
  6
Continuous
 62
     7
370
    15
100
AcDbPolyline
 90
        7
 70
   128
 43
0.0
 10
832.7363805469
 20
1079.5825861898
 10
832.8353093561
 20
1079.6865962949
 10
832.8743951019
 20
1079.746320149
 10
832.9027594622
 20
1079.806222817
 10
832.9293803867
 20
1079.9200676885
 10
832.9305575784
 20
1080.026700398
 10
832.8272329267
 20
1080.3765796628
  0
LINE
  5
32D
330
1F
100
AcDbEntity
  8
0
  6
Continuous
 62
     7
370
    15
100
AcDbLine
 10
801.1809216436
 20
1074.6654414144
 30
0.0
 11
801.1844606694
 21
1074.6724747625
 31
0.0
  0
LWPOLYLINE
  5
32E
330
1F
100
AcDbEntity
  8
0
  6
Continuous
 62
     7
370
    15
100
AcDbPolyline
 90
       17
 70
   128
 43
0.0
 10
816.3486646112
 20
1071.2852024045
 10
816.2309752401
 20
1070.908918282
 10
816.3359539207
 20
1070.5468796697
 10
816.6546227034
 20
1070.2591084447
 10
817.1346114572
 20
1070.09209623
 10
817.7025245126
 20
1070.073976418
 10
818.2708398994
 20
1070.2111863103
 10
818.7543304261
 20
1070.4801820722
 10
819.0781401094
 20
1070.8379887548
 10
819.1956730183
 20
1071.2249421086
 10
819.0882579979
 20
1071.5807222333
 10
818.7724576887
 20
1071.8510292974
 10
818.2959260043
 20
1071.9999217
 10
817.7298904952
 20
1072.007133862
 10
817.160107344
 20
1071.8745135274
 10
816.6739197072
 20
1071.6195248571
 10
816.3486646112
 20
1071.2852024045
  0
LINE
  5
32F
330
1F
100
AcDbEntity
  8
0
  6
Continuous
 62
     7
370
    15
100
AcDbLine
 10
834.7027377781
 20
1081.035807034
 30
0.0
 11
834.1740222272
 21
1080.5290483442
 31
0.0
  0
LINE
  5
330
330
1F
100
AcDbEntity
  8
0
  6
Continuous
 62
     7
370
    15
100
AcDbLine
 10
834.1740222272
 20
1080.5290483442
 30
0.0
 11
833.480917066
 21
1081.9425128904
 31
0.0
  0
LINE
  5
331
330
1F
100
AcDbEntity
  8
0
  6
Continuous
 62
     7
370
    15
100
AcDbLine
 10
833.480917066
 20
1081.9425128904
 30
0.0
 11
833.8328526911
 21
1082.2775505986
 31
0.0
  0
LINE
  5
332
330
1F
100
AcDbEntity
  8
0
  6
Continuous
 62
     7
370
    15
100
AcDbLine
 10
833.8328526911
 20
1082.2775505986
 30
0.0
 11
834.4020770487
 21
1081.1167501416
 31
0.0
  0
LINE
  5
333
330
1F
100
AcDbEntity
  8
0
  6
Continuous
 62
     7
370
    15
100
AcDbLine
 10
834.4020770487
 20
1081.1167501416
 30
0.0
 11
834.7800897058
 21
1081.4867161718
 31
0.0
  0
LINE
  5
334
330
1F
100
AcDbEntity
  8
0
  6
Continuous
 62
     7
370
    15
100
AcDbLine
 10
834.7800897058
 20
1081.4867161718
 30
0.0
 11
834.7027377781
 21
1081.035807034
 31
0.0
  0
LINE
  5
335
330
1F
100
AcDbEntity
  8
0
  6
Continuous
 62
     7
370
    15
100
AcDbLine
 10
833.480917066
 20
1081.9425128904
 30
0.0
 11
833.4744052585
 21
1081.9476388898
 31
0.0
  0
LINE
  5
336
330
1F
100
AcDbEntity
  8
0
  6
Continuous
 62
     7
370
    15
100
AcDbLine
 10
834.1740222272
 20
1080.5290483442
 30
0.0
 11
834.1675029691
 21
1080.5341743436
 31
0.0
  0
LINE
  5
337
330
1F
100
AcDbEntity
  8
0
  6
Continuous
 62
     7
370
    15
100
AcDbLine
 10
833.8328526911
 20
1082.2775505986
 30
0.0
 11
833.8262291249
 21
1082.2825573888
 31
0.0
  0
LINE
  5
338
330
1F
100
AcDbEntity
  8
0
  6
Continuous
 62
     7
370
    15
100
AcDbLine
 10
797.8973837193
 20
1076.178505322
 30
0.0
 11
797.9019285735
 21
1076.1850022283
 31
0.0
  0
LINE
  5
339
330
1F
100
AcDbEntity
  8
0
  6
Continuous
 62
     7
370
    15
100
AcDbLine
 10
835.872225612
 20
1082.9629444089
 30
0.0
 11
836.1846284565
 21
1083.3187245336
 31
0.0
  0
ARC
  5
33A
330
1F
100
AcDbEntity
  8
0
  6
Continuous
 62
     7
370
    15
100
AcDbCircle
 10
835.1363605233
 20
1083.0097370237
 30
0.0
 40
1.092858152309518
100
AcDbArc
 50
311.4251543901
 51
16.4234109988
  0
LWPOLYLINE
  5
33B
330
1F
100
AcDbEntity
  8
0
  6
Continuous
 62
     7
370
    15
100
AcDbPolyline
 90
        6
 70
   128
 43
0.0
 10
835.8594404157
 20
1082.1902893987
 10
835.6410340961
 20
1081.9933556523
 10
835.5275766548
 20
1081.9267772641
 10
835.4173676666
 20
1081.8879150357
 10
835.2249266204
 20
1081.8941735234
 10
835.0929172333
 20
1082.0043825116
  0
ARC
  5
33C
330
1F
100
AcDbEntity
  8
0
  6
Continuous
 62
     7
370
    15
100
AcDbCircle
 10
836.5038953667
 20
1082.400634232
 30
0.0
 40
1.465562935807745
100
AcDbArc
 50
154.2090368878
 51
195.6865884997
  0
LINE
  5
33D
330
1F
100
AcDbEntity
  8
0
  6
Continuous
 62
     7
370
    15
100
AcDbLine
 10
835.1843209561
 20
1083.0382846799
 30
0.0
 11
835.2906258401
 21
1083.4118269887
 31
0.0
  0
LINE
  5
33E
330
1F
100
AcDbEntity
  8
0
  6
Continuous
 62
     7
370
    15
100
AcDbLine
 10
835.2906258401
 20
1083.4118269887
 30
0.0
 11
834.6694187816
 21
1082.742288014
 31
0.0
  0
LINE
  5
33F
330
1F
100
AcDbEntity
  8
0
  6
Continuous
 62
     7
370
    15
100
AcDbLine
 10
834.6694187816
 20
1082.742288014
 30
0.0
 11
834.5393018421
 21
1082.9824351278
 31
0.0
  0
LINE
  5
340
330
1F
100
AcDbEntity
  8
0
  6
Continuous
 62
     7
370
    15
100
AcDbLine
 10
834.5393018421
 20
1082.9824351278
 30
0.0
 11
835.7292042669
 21
1084.2955254522
 31
0.0
  0
LINE
  5
341
330
1F
100
AcDbEntity
  8
0
  6
Continuous
 62
     7
370
    15
100
AcDbLine
 10
835.7292042669
 20
1084.2955254522
 30
0.0
 11
835.7965724167
 21
1084.1714285817
 31
0.0
  0
LINE
  5
342
330
1F
100
AcDbEntity
  8
0
  6
Continuous
 62
     7
370
    15
100
AcDbLine
 10
835.7965724167
 20
1084.1714285817
 30
0.0
 11
835.5076090988
 21
1083.1493281331
 31
0.0
  0
ARC
  5
343
330
1F
100
AcDbEntity
  8
0
  6
Continuous
 62
     7
370
    15
100
AcDbCircle
 10
836.5881841739
 20
1082.6249863898
 30
0.0
 40
1.201073168716381
100
AcDbArc
 50
154.1153334985
 51
191.8559922165
  0
LWPOLYLINE
  5
344
330
1F
100
AcDbEntity
  8
0
  6
Continuous
 62
     7
370
    15
100
AcDbPolyline
 90
        8
 70
   128
 43
0.0
 10
835.4127334055
 20
1082.3782228437
 10
835.468061417
 20
1082.3245190587
 10
835.5070577558
 20
1082.3159955945
 10
835.5525659021
 20
1082.3207639661
 10
835.6014864143
 20
1082.3381685224
 10
835.6516437229
 20
1082.3677920308
 10
835.7012645897
 20
1082.4082635846
 10
835.7488737997
 20
1082.4560069051
  0
ARC
  5
345
330
1F
100
AcDbEntity
  8
0
  6
Continuous
 62
     7
370
    15
100
AcDbCircle
 10
835.4316600239
 20
1082.8016699188
 30
0.0
 40
0.4691561559112866
100
AcDbArc
 50
312.5424971982
 51
20.1057778844
  0
LINE
  5
346
330
1F
100
AcDbEntity
  8
0
  6
Continuous
 62
     7
370
    15
100
AcDbLine
 10
834.5393018421
 20
1082.9824351278
 30
0.0
 11
834.5324547585
 21
1082.987263104
 31
0.0
  0
LINE
  5
347
330
1F
100
AcDbEntity
  8
0
  6
Continuous
 62
     7
370
    15
100
AcDbLine
 10
834.6694187816
 20
1082.742288014
 30
0.0
 11
834.6625716981
 21
1082.7471159902
 31
0.0
  0
LINE
  5
348
330
1F
100
AcDbEntity
  8
0
  6
Continuous
 62
     7
370
    15
100
AcDbLine
 10
835.7292042669
 20
1084.2955254522
 30
0.0
 11
835.7219921049
 21
1084.2999361959
 31
0.0
  0
LWPOLYLINE
  5
349
330
1F
100
AcDbEntity
  8
0
  6
Continuous
 62
     7
370
    15
100
AcDbPolyline
 90
       17
 70
   128
 43
0.0
 10
811.5003110465
 20
1070.8876990285
 10
811.3350646194
 20
1071.0474394765
 10
811.0901118811
 20
1071.1584233251
 10
810.8028025922
 20
1071.204914948
 10
810.5169312652
 20
1071.1800002065
 10
810.2760018405
 20
1071.0871361699
 10
810.1165966686
 20
1070.9393166509
 10
810.0629003342
 20
1070.7581781354
 10
810.123056322
 20
1070.5709599462
 10
810.2879525717
 20
1070.4066299405
 10
810.5325774845
 20
1070.2912353482
 10
810.8197601136
 20
1070.2432536092
 10
811.1057953533
 20
1070.2703141179
 10
811.3470824059
 20
1070.3678273168
 10
811.5068154033
 20
1070.5199979749
 10
811.5606234964
 20
1070.7026862111
 10
811.5003110465
 20
1070.8876990285
  0
LINE
  5
34A
330
1F
100
AcDbEntity
  8
0
  6
Continuous
 62
     7
370
    15
100
AcDbLine
 10
832.7363805469
 20
1079.5825861898
 30
0.0
 11
832.742490023
 21
1079.5771025624
 31
0.0
  0
LWPOLYLINE
  5
34B
330
1F
100
AcDbEntity
  8
0
  6
Continuous
 62
     7
370
    15
100
AcDbPolyline
 90
       17
 70
   128
 43
0.0
 10
799.3358151611
 20
1074.0879916158
 10
799.0376503762
 20
1074.5102309194
 10
798.5959725078
 20
1074.8817466703
 10
798.0783955749
 20
1075.1433514562
 10
797.5654156502
 20
1075.2567790952
 10
797.1317993101
 20
1075.2033733335
 10
796.8431116637
 20
1074.9856971708
 10
796.7390419539
 20
1074.6361159291
 10
796.8383134898
 20
1074.2064856496
 10
797.1250565346
 20
1073.7660073247
 10
797.5599543747
 20
1073.3844183889
 10
798.0768756565
 20
1073.123648068
 10
798.598297089
 20
1073.0216049161
 10
799.0418525037
 20
1073.0932496991
 10
799.3384452161
 20
1073.323323628
 10
799.4394899901
 20
1073.6758254972
 10
799.3358151611
 20
1074.0879916158
  0
LWPOLYLINE
  5
34C
330
1F
100
AcDbEntity
  8
0
  6
Continuous
 62
     7
370
    15
100
AcDbPolyline
 90
       17
 70
   128
 43
0.0
 10
805.423095971
 20
1071.724905869
 10
805.2621485289
 20
1071.9092034307
 10
805.0235809382
 20
1072.0554136243
 10
804.7440128025
 20
1072.1421383825
 10
804.4660614427
 20
1072.1563242879
 10
804.231882244
 20
1072.0951699224
 10
804.0767760571
 20
1071.9670795407
 10
804.0240855511
 20
1071.7906497922
 10
804.081753045
 20
1071.592523953
 10
804.2412252721
 20
1071.403577229
 10
804.4785486158
 20
1071.2534927335
 10
804.7578485306
 20
1071.1659335103
 10
805.0366567072
 20
1071.1544894185
 10
805.272326022
 20
1071.2202333417
 10
805.4286690053
 20
1071.3521980252
 10
805.4816351827
 20
1071.5294622388
 10
805.423095971
 20
1071.724905869
  0
LINE
  5
34D
330
1F
100
AcDbEntity
  8
0
  6
Continuous
 62
     7
370
    15
100
AcDbLine
 10
835.0929172333
 20
1082.0043825116
 30
0.0
 11
835.0860626992
 21
1082.0091508832
 31
0.0
  0
LWPOLYLINE
  5
34E
330
1F
100
AcDbEntity
  8
0
  6
Continuous
 62
     7
370
    15
100
AcDbPolyline
 90
       17
 70
   128
 43
0.0
 10
823.4573529657
 20
1072.7067731824
 10
823.4013544019
 20
1072.5044154134
 10
823.4537021812
 20
1072.3288797345
 10
823.6063794788
 20
1072.2068690267
 10
823.8357977566
 20
1072.157814404
 10
824.1065891083
 20
1072.1901201215
 10
824.3772314485
 20
1072.29943504
 10
824.6065379676
 20
1072.469069859
 10
824.7599528726
 20
1072.672440907
 10
824.8145879801
 20
1072.877659699
 10
824.7624413666
 20
1073.0527781453
 10
824.6114180979
 20
1073.1713317838
 10
824.3841232356
 20
1073.2158564534
 10
824.11469534
 20
1073.180689713
 10
823.8438518342
 20
1073.071792027
 10
823.6128912863
 20
1072.9056142774
 10
823.4573529657
 20
1072.7067731824
  0
LINE
  5
34F
330
1F
100
AcDbEntity
  8
0
  6
Continuous
 62
     7
370
    15
100
AcDbLine
 10
786.5145282444
 20
1086.4045165982
 30
0.0
 11
786.1407624181
 21
1087.0221399274
 31
0.0
  0
LINE
  5
350
330
1F
100
AcDbEntity
  8
0
  6
Continuous
 62
     7
370
    15
100
AcDbLine
 10
786.1407624181
 20
1087.0221399274
 30
0.0
 11
786.9884596761
 21
1088.238551518
 31
0.0
  0
LINE
  5
351
330
1F
100
AcDbEntity
  8
0
  6
Continuous
 62
     7
370
    15
100
AcDbLine
 10
786.9884596761
 20
1088.238551518
 30
0.0
 11
787.2349546846
 21
1087.8280543294
 31
0.0
  0
LINE
  5
352
330
1F
100
AcDbEntity
  8
0
  6
Continuous
 62
     7
370
    15
100
AcDbLine
 10
787.2349546846
 20
1087.8280543294
 30
0.0
 11
786.5388469394
 21
1086.8291400876
 31
0.0
  0
LINE
  5
353
330
1F
100
AcDbEntity
  8
0
  6
Continuous
 62
     7
370
    15
100
AcDbLine
 10
786.5388469394
 20
1086.8291400876
 30
0.0
 11
786.8144066628
 21
1086.3846682515
 31
0.0
  0
LINE
  5
354
330
1F
100
AcDbEntity
  8
0
  6
Continuous
 62
     7
370
    15
100
AcDbLine
 10
786.8144066628
 20
1086.3846682515
 30
0.0
 11
786.5145282444
 21
1086.4045165982
 31
0.0
  0
LINE
  5
355
330
1F
100
AcDbEntity
  8
0
  6
Continuous
 62
     7
370
    15
100
AcDbLine
 10
786.5388469394
 20
1086.8291400876
 30
0.0
 11
786.5468712147
 21
1086.8324779477
 31
0.0
  0
LINE
  5
356
330
1F
100
AcDbEntity
  8
0
  6
Continuous
 62
     7
370
    15
100
AcDbLine
 10
787.2349546846
 20
1087.8280543294
 30
0.0
 11
787.2429789599
 21
1087.8313325849
 31
0.0
  0
LINE
  5
357
330
1F
100
AcDbEntity
  8
0
  6
Continuous
 62
     7
370
    15
100
AcDbLine
 10
834.7800897058
 20
1081.4867161718
 30
0.0
 11
834.773354381
 21
1081.4916037526
 31
0.0
  0
LINE
  5
358
330
1F
100
AcDbEntity
  8
0
  6
Continuous
 62
     7
370
    15
100
AcDbLine
 10
786.9884596761
 20
1088.238551518
 30
0.0
 11
786.9965584573
 21
1088.2417105642
 31
0.0
  0
LINE
  5
359
330
1F
100
AcDbEntity
  8
0
  6
Continuous
 62
     7
370
    15
100
AcDbLine
 10
835.7488737997
 20
1082.4560069051
 30
0.0
 11
835.7418404516
 21
1082.4606560674
 31
0.0
  0
LWPOLYLINE
  5
35A
330
1F
100
AcDbEntity
  8
0
  6
Continuous
 62
     7
370
    15
100
AcDbPolyline
 90
        3
 70
   128
 43
0.0
 10
835.872225612
 20
1082.9629444089
 10
835.8686791357
 20
1082.9652093854
 10
835.8651177582
 20
1082.9674743619
  0
LWPOLYLINE
  5
35B
330
1F
100
AcDbEntity
  8
0
  6
Continuous
 62
     7
370
    15
100
AcDbPolyline
 90
       17
 70
   128
 43
0.0
 10
829.3970303234
 20
1075.5073570218
 10
829.3496893343
 20
1075.2906941381
 10
829.4017018374
 20
1075.1158141103
 10
829.5451851186
 20
1075.0093006101
 10
829.7578246888
 20
1074.9879025426
 10
830.0065697726
 20
1075.0557326284
 10
830.2530349787
 20
1075.2031945195
 10
830.4596395787
 20
1075.4077576604
 10
830.595374256
 20
1075.6377719846
 10
830.6402789053
 20
1075.8573554959
 10
830.5880652364
 20
1076.0324739423
 10
830.4467426237
 20
1076.1364244428
 10
830.2373366054
 20
1076.1538289991
 10
829.9910278615
 20
1076.0830186811
 10
829.7447563704
 20
1075.9353183713
 10
829.5360060033
 20
1075.7333778348
 10
829.3970303234
 20
1075.5073570218
  0
LINE
  5
35C
330
1F
100
AcDbEntity
  8
0
  6
Continuous
 62
     7
370
    15
100
AcDbLine
 10
836.1846284565
 20
1083.3187245336
 30
0.0
 11
836.1774311956
 21
1083.3231352773
 31
0.0
  0
LINE
  5
35D
330
1F
100
AcDbEntity
  8
0
  6
Continuous
 62
     7
370
    15
100
AcDbLine
 10
785.7569681104
 20
1088.5921262708
 30
0.0
 11
785.97768411
 21
1088.1765626874
 31
0.0
  0
LWPOLYLINE
  5
35E
330
1F
100
AcDbEntity
  8
0
  6
Continuous
 62
     7
370
    15
100
AcDbPolyline
 90
        7
 70
   128
 43
0.0
 10
785.97768411
 20
1088.1765626874
 10
785.8296634253
 20
1088.0772017446
 10
785.7391835746
 20
1088.0723737683
 10
785.6426762041
 20
1088.1032489743
 10
785.5419294533
 20
1088.1697081533
 10
785.4433880743
 20
1088.269426724
 10
785.2679418024
 20
1088.5442041364
  0
ARC
  5
35F
330
1F
100
AcDbEntity
  8
0
  6
Continuous
 62
     7
370
    15
100
AcDbCircle
 10
786.2453768925
 20
1089.1586746376
 30
0.0
 40
1.154535990023846
100
AcDbArc
 50
157.6108752101
 51
212.1557711185
  0
LWPOLYLINE
  5
360
330
1F
100
AcDbEntity
  8
0
  6
Continuous
 62
     7
370
    15
100
AcDbPolyline
 90
        4
 70
   128
 43
0.0
 10
785.1778717335
 20
1089.5984314885
 10
785.3113563355
 20
1089.6920107808
 10
785.4715363678
 20
1089.7006534543
 10
785.8223991092
 20
1089.5674370732
  0
LINE
  5
361
330
1F
100
AcDbEntity
  8
0
  6
Continuous
 62
     7
370
    15
100
AcDbLine
 10
785.8223991092
 20
1089.5674370732
 30
0.0
 11
786.054410189
 21
1089.452042481
 31
0.0
  0
LINE
  5
362
330
1F
100
AcDbEntity
  8
0
  6
Continuous
 62
     7
370
    15
100
AcDbLine
 10
786.054410189
 20
1089.452042481
 30
0.0
 11
785.6560276445
 21
1090.2574800458
 31
0.0
  0
LINE
  5
363
330
1F
100
AcDbEntity
  8
0
  6
Continuous
 62
     7
370
    15
100
AcDbLine
 10
785.6560276445
 20
1090.2574800458
 30
0.0
 11
785.8109475669
 21
1090.4615663495
 31
0.0
  0
LINE
  5
364
330
1F
100
AcDbEntity
  8
0
  6
Continuous
 62
     7
370
    15
100
AcDbLine
 10
785.8109475669
 20
1090.4615663495
 30
0.0
 11
786.6069601473
 21
1088.9017127958
 31
0.0
  0
LINE
  5
365
330
1F
100
AcDbEntity
  8
0
  6
Continuous
 62
     7
370
    15
100
AcDbLine
 10
786.6069601473
 20
1088.9017127958
 30
0.0
 11
786.5267248448
 21
1088.7958549466
 31
0.0
  0
LINE
  5
366
330
1F
100
AcDbEntity
  8
0
  6
Continuous
 62
     7
370
    15
100
AcDbLine
 10
786.5267248448
 20
1088.7958549466
 30
0.0
 11
785.8829052743
 21
1089.1237400975
 31
0.0
  0
LWPOLYLINE
  5
367
330
1F
100
AcDbEntity
  8
0
  6
Continuous
 62
     7
370
    15
100
AcDbPolyline
 90
        4
 70
   128
 43
0.0
 10
785.8829052743
 20
1089.1237400975
 10
785.6226490434
 20
1089.2358564344
 10
785.501413196
 20
1089.2453931775
 10
785.4003535207
 20
1089.1871594396
  0
ARC
  5
368
330
1F
100
AcDbEntity
  8
0
  6
Continuous
 62
     7
370
    15
100
AcDbCircle
 10
785.8856308079
 20
1088.9937224843
 30
0.0
 40
0.5224097061817463
100
AcDbArc
 50
158.2672208893
 51
211.1723149886
  0
LWPOLYLINE
  5
369
330
1F
100
AcDbEntity
  8
0
  6
Continuous
 62
     7
370
    15
100
AcDbPolyline
 90
        7
 70
   128
 43
0.0
 10
785.4386569556
 20
1088.7233160939
 10
785.4768039283
 20
1088.65769138
 10
785.5199800428
 20
1088.6027358976
 10
785.5643780526
 20
1088.5644697156
 10
785.6101171669
 20
1088.5414623227
 10
785.6917755302
 20
1088.5419391599
 10
785.7569681104
 20
1088.5921262708
  0
LINE
  5
36A
330
1F
100
AcDbEntity
  8
0
  6
Continuous
 62
     7
370
    15
100
AcDbLine
 10
786.5267248448
 20
1088.7958549466
 30
0.0
 11
786.5349428352
 21
1088.7988351789
 31
0.0
  0
LINE
  5
36B
330
1F
100
AcDbEntity
  8
0
  6
Continuous
 62
     7
370
    15
100
AcDbLine
 10
786.6069601473
 20
1088.9017127958
 30
0.0
 11
786.6151855882
 21
1088.904693028
 31
0.0
  0
LINE
  5
36C
330
1F
100
AcDbEntity
  8
0
  6
Continuous
 62
     7
370
    15
100
AcDbLine
 10
785.8109475669
 20
1090.4615663495
 30
0.0
 11
785.819418877
 21
1090.46401014
 31
0.0
  0
LWPOLYLINE
  5
36D
330
1F
100
AcDbEntity
  8
0
  6
Continuous
 62
     7
370
    15
100
AcDbPolyline
 90
       17
 70
   128
 43
0.0
 10
834.0453879532
 20
1079.3113254514
 10
833.9781390127
 20
1078.8536213842
 10
834.0838702019
 20
1078.4980796781
 10
834.3525381383
 20
1078.3051394429
 10
834.7387389835
 20
1078.3035897222
 10
835.1806254681
 20
1078.4950994458
 10
835.6074319776
 20
1078.8544558492
 10
835.9543608125
 20
1079.3261670079
 10
836.1688481268
 20
1079.837753674
 10
836.2232373651
 20
1080.307915112
 10
836.1113445457
 20
1080.6634568181
 10
835.8515577015
 20
1080.8484100309
 10
835.481651276
 20
1080.8379196134
 10
835.054017752
 20
1080.6343101468
 10
834.6304522451
 20
1080.2716158834
 10
834.274999946
 20
1079.8041366544
 10
834.0453879532
 20
1079.3113254514
  0
LWPOLYLINE
  5
36E
330
1F
100
AcDbEntity
  8
0
  6
Continuous
 62
     7
370
    15
100
AcDbPolyline
 90
       17
 70
   128
 43
0.0
 10
793.1456343826
 20
1077.5501870122
 10
793.0194811519
 20
1077.7904533353
 10
792.8272636231
 20
1078.0103944745
 10
792.5987543162
 20
1078.1770490613
 10
792.3686356839
 20
1078.2648467031
 10
792.1712623533
 20
1078.2597803083
 10
792.035848051
 20
1078.1619094815
 10
791.982516795
 20
1077.9856585469
 10
792.0195312794
 20
1077.7580284085
 10
792.1419219669
 20
1077.5141858068
 10
792.3318745192
 20
1077.2920989003
 10
792.5609500703
 20
1077.12604036
 10
792.7941234406
 20
1077.0411037412
 10
792.9952593144
 20
1077.04968681
 10
793.1329311427
 20
1077.1496437993
 10
793.1857036051
 20
1077.3254178968
 10
793.1456343826
 20
1077.5501870122
  0
ARC
  5
36F
330
1F
100
AcDbEntity
  8
0
  6
Continuous
 62
     7
370
    15
100
AcDbCircle
 10
785.5934785199
 20
1090.9655473047
 30
0.0
 40
1.317164245078929
100
AcDbArc
 50
141.7940673845
 51
206.6570240918
  0
LWPOLYLINE
  5
370
330
1F
100
AcDbEntity
  8
0
  6
Continuous
 62
     7
370
    15
100
AcDbPolyline
 90
        7
 70
   128
 43
0.0
 10
784.558460265
 20
1091.7801999059
 10
784.730956107
 20
1091.9504307714
 10
784.9323825535
 20
1092.0217775312
 10
785.0520835813
 20
1091.9878624883
 10
785.1618902382
 20
1091.897978684
 10
785.2707506713
 20
1091.7405032125
 10
785.3654624518
 20
1091.543927094
  0
ARC
  5
371
330
1F
100
AcDbEntity
  8
0
  6
Continuous
 62
     7
370
    15
100
AcDbCircle
 10
784.2212031876
 20
1090.9365557162
 30
0.0
 40
1.295464879573553
100
AcDbArc
 50
322.9505550576
 51
27.9593063302
  0
LWPOLYLINE
  5
372
330
1F
100
AcDbEntity
  8
0
  6
Continuous
 62
     7
370
    15
100
AcDbPolyline
 90
        3
 70
   128
 43
0.0
 10
785.2551342543
 20
1090.1560329404
 10
785.0518153604
 20
1089.9642847982
 10
784.8038749393
 20
1089.9135016408
  0
ARC
  5
373
330
1F
100
AcDbEntity
  8
0
  6
Continuous
 62
     7
370
    15
100
AcDbCircle
 10
785.1909745854
 20
1090.6322817024
 30
0.0
 40
0.8163889471353938
100
AcDbArc
 50
198.3989752203
 51
241.6952753621
  0
ARC
  5
374
330
1F
100
AcDbEntity
  8
0
  6
Continuous
 62
     7
370
    15
100
AcDbCircle
 10
784.9530792601
 20
1091.2805390255
 30
0.0
 40
0.2613591193994688
100
AcDbArc
 50
14.8516327484
 51
71.4028387243
  0
LWPOLYLINE
  5
375
330
1F
100
AcDbEntity
  8
0
  6
Continuous
 62
     7
370
    15
100
AcDbPolyline
 90
        3
 70
   128
 43
0.0
 10
785.0364299115
 20
1091.5282510724
 10
784.8739700016
 20
1091.4753221479
 10
784.7367377576
 20
1091.3388275113
  0
ARC
  5
376
330
1F
100
AcDbEntity
  8
0
  6
Continuous
 62
     7
370
    15
100
AcDbCircle
 10
785.2157863777
 20
1090.8423814176
 30
0.0
 40
0.6898886174064939
100
AcDbArc
 50
133.9782659711
 51
201.9421705078
  0
LWPOLYLINE
  5
377
330
1F
100
AcDbEntity
  8
0
  6
Continuous
 62
     7
370
    15
100
AcDbPolyline
 90
        7
 70
   128
 43
0.0
 10
784.5758722719
 20
1090.5845903363
 10
784.63795796
 20
1090.4727720227
 10
784.6741528805
 20
1090.4317044225
 10
784.7107203301
 20
1090.4045247045
 10
784.7803907093
 20
1090.3890274968
 10
784.8461122807
 20
1090.4057167974
 10
785.0630582865
 20
1090.6013392415
  0
ARC
  5
378
330
1F
100
AcDbEntity
  8
0
  6
Continuous
 62
     7
370
    15
100
AcDbCircle
 10
784.577178491
 20
1091.0809549213
 30
0.0
 40
0.6827227665897125
100
AcDbArc
 50
315.3717286822
 51
22.9830280427
  0
LINE
  5
379
330
1F
100
AcDbEntity
  8
0
  6
Continuous
 62
     7
370
    15
100
AcDbLine
 10
785.2551342543
 20
1090.1560329404
 30
0.0
 11
785.2636428174
 21
1090.1584171262
 31
0.0
  0
LWPOLYLINE
  5
37A
330
1F
100
AcDbEntity
  8
0
  6
Continuous
 62
     7
370
    15
100
AcDbPolyline
 90
        3
 70
   128
 43
0.0
 10
785.3654624518
 20
1091.543927094
 10
785.3697688874
 20
1091.5449999776
 10
785.3740827736
 20
1091.5460728612
  0
ARC
  5
37B
330
1F
100
AcDbEntity
  8
0
  6
Continuous
 62
     7
370
    15
100
AcDbCircle
 10
785.2242256109
 20
1090.8444149944
 30
0.0
 40
0.6896787253008977
100
AcDbArc
 50
133.9681656046
 51
201.9391468708
  0
LWPOLYLINE
  5
37C
330
1F
100
AcDbEntity
  8
0
  6
Continuous
 62
     7
370
    15
100
AcDbPolyline
 90
        3
 70
   128
 43
0.0
 10
785.0450874861
 20
1091.5302776303
 10
784.8826350268
 20
1091.4773487058
 10
784.7454102334
 20
1091.3407944646
  0
ARC
  5
37D
330
1F
100
AcDbEntity
  8
0
  6
Continuous
 62
     7
370
    15
100
AcDbCircle
 10
784.8259328504
 20
1090.6345751046
 30
0.0
 40
0.2461340439598629
100
AcDbArc
 50
191.2074311481
 51
261.3621447334
  0
LWPOLYLINE
  5
37E
330
1F
100
AcDbEntity
  8
0
  6
Continuous
 62
     7
370
    15
100
AcDbPolyline
 90
        3
 70
   128
 43
0.0
 10
785.4003535207
 20
1089.1871594396
 10
785.4045556482
 20
1089.1884707418
 10
785.4087503251
 20
1089.1897820439
  0
LINE
  5
37F
330
1F
100
AcDbEntity
  8
0
  6
Continuous
 62
     7
370
    15
100
AcDbLine
 10
786.8144066628
 20
1086.3846682515
 30
0.0
 11
786.8223415312
 21
1086.3880657163
 31
0.0
  0
LINE
  5
380
330
1F
100
AcDbEntity
  8
0
  6
Continuous
 62
     7
370
    15
100
AcDbLine
 10
785.97768411
 20
1088.1765626874
 30
0.0
 11
785.9859170016
 21
1088.179483315
 31
0.0
  0
LWPOLYLINE
  5
381
330
1F
100
AcDbEntity
  8
0
  6
Continuous
 62
     7
370
    15
100
AcDbPolyline
 90
        3
 70
   128
 43
0.0
 10
785.7569681104
 20
1088.5921262708
 10
785.7611180838
 20
1088.5935567823
 10
785.7652680572
 20
1088.5949276891
  0
LWPOLYLINE
  5
382
330
1F
100
AcDbEntity
  8
0
  6
Continuous
 62
     7
370
    15
100
AcDbPolyline
 90
        3
 70
   128
 43
0.0
 10
785.438649505
 20
1088.7233160939
 10
785.4428292807
 20
1088.7246870008
 10
785.4470090564
 20
1088.725998303
  0
LWPOLYLINE
  5
383
330
1F
100
AcDbEntity
  8
0
  6
Continuous
 62
     7
370
    15
100
AcDbPolyline
 90
        3
 70
   128
 43
0.0
 10
784.5844925936
 20
1090.5867361036
 10
784.5801787075
 20
1090.5856632199
 10
784.5758722719
 20
1090.5845903363
  0
LWPOLYLINE
  5
384
330
1F
100
AcDbEntity
  8
0
  6
Continuous
 62
     7
370
    15
100
AcDbPolyline
 90
       17
 70
   128
 43
0.0
 10
788.558349162
 20
1081.9298767057
 10
788.461193591
 20
1082.1924947705
 10
788.305059224
 20
1082.4398540464
 10
788.114212602
 20
1082.6345228162
 10
787.917398065
 20
1082.746639153
 10
787.7436803278
 20
1082.7586196866
 10
787.6185254749
 20
1082.6681398359
 10
787.5605152544
 20
1082.4886106458
 10
787.5788064297
 20
1082.247629067
 10
787.6715214547
 20
1081.9823883977
 10
787.8254951533
 20
1081.7337774244
 10
788.0177275833
 20
1081.5399431195
 10
788.2186622914
 20
1081.4302705732
 10
788.3968205746
 20
1081.4208530393
 10
788.5241435465
 20
1081.5126441922
 10
788.5807605084
 20
1081.6913389173
 10
788.558349162
 20
1081.9298767057
  0
LWPOLYLINE
  5
385
330
1F
100
AcDbEntity
  8
0
  6
Continuous
 62
     7
370
    15
100
AcDbPolyline
 90
        7
 70
   128
 43
0.0
 10
842.6089213785
 20
1095.060899159
 10
842.5489293035
 20
1094.8528193441
 10
842.4690441784
 20
1094.6810983625
 10
842.3736469444
 20
1094.5664190259
 10
842.2723041471
 20
1094.5152186361
 10
842.0771138366
 20
1094.553484818
 10
841.8989704546
 20
1094.6967147794
  0
ARC
  5
386
330
1F
100
AcDbEntity
  8
0
  6
Continuous
 62
     7
370
    15
100
AcDbCircle
 10
842.9239209298
 20
1095.6276788773
 30
0.0
 40
1.384636280154987
100
AcDbArc
 50
162.3744894868
 51
222.2489167832
  0
LWPOLYLINE
  5
387
330
1F
100
AcDbEntity
  8
0
  6
Continuous
 62
     7
370
    15
100
AcDbPolyline
 90
        7
 70
   128
 43
0.0
 10
841.6042850908
 20
1096.0469387975
 10
841.6612820324
 20
1096.2537073102
 10
841.7352513965
 20
1096.4258455243
 10
841.8231980499
 20
1096.5412997213
 10
841.9185803827
 20
1096.595539948
 10
842.1054409441
 20
1096.5621613469
 10
842.2799782451
 20
1096.4211367574
  0
ARC
  5
388
330
1F
100
AcDbEntity
  8
0
  6
Continuous
 62
     7
370
    15
100
AcDbCircle
 10
841.4496017413
 20
1095.551478675
 30
0.0
 40
1.202426845348054
100
AcDbArc
 50
13.558601795
 51
46.3236602714
  0
ARC
  5
389
330
1F
100
AcDbEntity
  8
0
  6
Continuous
 62
     7
370
    15
100
AcDbCircle
 10
840.9016558445
 20
1095.4684059498
 30
0.0
 40
1.75522573712305
100
AcDbArc
 50
346.5752707275
 51
12.00124995
  0
ARC
  5
38A
330
1F
100
AcDbEntity
  8
0
  6
Continuous
 62
     7
370
    15
100
AcDbCircle
 10
842.4579740196
 20
1095.7200235519
 30
0.0
 40
0.7035420337302172
100
AcDbArc
 50
166.7980379361
 51
194.3241725807
  0
LWPOLYLINE
  5
38B
330
1F
100
AcDbEntity
  8
0
  6
Continuous
 62
     7
370
    15
100
AcDbPolyline
 90
        3
 70
   128
 43
0.0
 10
841.7763040956
 20
1095.5459617582
 10
841.8813125786
 20
1095.3167222943
 10
842.011608332
 20
1095.1608561483
  0
LWPOLYLINE
  5
38C
330
1F
100
AcDbEntity
  8
0
  6
Continuous
 62
     7
370
    15
100
AcDbPolyline
 90
        7
 70
   128
 43
0.0
 10
842.011608332
 20
1095.1608561483
 10
842.2235177454
 20
1095.0105332341
 10
842.281170338
 20
1095.006360909
 10
842.3398064073
 20
1095.0364612546
 10
842.3941509422
 20
1095.1069139447
 10
842.4163834747
 20
1095.1596640554
 10
842.4336539205
 20
1095.2210568395
  0
ARC
  5
38D
330
1F
100
AcDbEntity
  8
0
  6
Continuous
 62
     7
370
    15
100
AcDbCircle
 10
841.7192452671
 20
1095.3882994449
 30
0.0
 40
0.7337232538478281
100
AcDbArc
 50
346.8243610885
 51
51.122916908
  0
LWPOLYLINE
  5
38E
330
1F
100
AcDbEntity
  8
0
  6
Continuous
 62
     7
370
    15
100
AcDbPolyline
 90
        6
 70
   128
 43
0.0
 10
842.1797679361
 20
1095.9594987836
 10
841.9730888304
 20
1096.1022519078
 10
841.9173435863
 20
1096.1021923032
 10
841.8614195284
 20
1096.0679196325
 10
841.8103383478
 20
1095.9940694776
 10
841.7730258402
 20
1095.8807014432
  0
LWPOLYLINE
  5
38F
330
1F
100
AcDbEntity
  8
0
  6
Continuous
 62
     7
370
    15
100
AcDbPolyline
 90
        3
 70
   128
 43
0.0
 10
841.6042850908
 20
1096.0469387975
 10
841.5997551378
 20
1096.0472964254
 10
841.5952102836
 20
1096.0476540532
  0
ARC
  5
390
330
1F
100
AcDbEntity
  8
0
  6
Continuous
 62
     7
370
    15
100
AcDbCircle
 10
842.1608867638
 20
1095.2476830643
 30
0.0
 40
0.2649623247982153
100
AcDbArc
 50
294.8201706902
 51
354.3880110928
  0
LINE
  5
391
330
1F
100
AcDbEntity
  8
0
  6
Continuous
 62
     7
370
    15
100
AcDbLine
 10
842.1706633266
 20
1095.9600948301
 30
0.0
 11
841.9639842209
 21
1096.1028479543
 31
0.0
  0
ARC
  5
392
330
1F
100
AcDbEntity
  8
0
  6
Continuous
 62
     7
370
    15
100
AcDbCircle
 10
841.7103063566
 20
1095.3889506324
 30
0.0
 40
0.7335763316176438
100
AcDbArc
 50
346.8268140309
 51
51.1302889316
  0
LWPOLYLINE
  5
393
330
1F
100
AcDbEntity
  8
0
  6
Continuous
 62
     7
370
    15
100
AcDbPolyline
 90
       17
 70
   128
 43
0.0
 10
838.7905435261
 20
1084.3141221013
 10
838.7787269052
 20
1084.0697430577
 10
838.8385550674
 20
1083.889319798
 10
838.9613108333
 20
1083.8000916448
 10
839.1278313097
 20
1083.815827271
 10
839.3118010458
 20
1083.9346789327
 10
839.4842223819
 20
1084.1389440503
 10
839.6184669431
 20
1084.3976878133
 10
839.6944926676
 20
1084.6713923421
 10
839.7017197307
 20
1084.9178575483
 10
839.6400587257
 20
1085.099115273
 10
839.5192997154
 20
1085.1874493566
 10
839.3574135002
 20
1085.1695679631
 10
839.1780333217
 20
1085.0486301389
 10
839.0074299272
 20
1084.8435305562
 10
838.8712035116
 20
1084.5856808629
 10
838.7905435261
 20
1084.3141221013
  0
LWPOLYLINE
  5
394
330
1F
100
AcDbEntity
  8
0
  6
Continuous
 62
     7
370
    15
100
AcDbPolyline
 90
       17
 70
   128
 43
0.0
 10
785.312414318
 20
1087.1538065877
 10
785.1887197789
 20
1087.7111100164
 10
784.9660144743
 20
1088.248445889
 10
784.6779079732
 20
1088.6788510289
 10
784.3673901256
 20
1088.937237164
 10
784.0764300522
 20
1088.9848612752
 10
783.8461028036
 20
1088.8107561078
 10
783.708863109
 20
1088.4434126821
 10
783.6893798407
 20
1087.937190434
 10
783.7935613092
 20
1087.3724364247
 10
784.0106339749
 20
1086.8349217382
 10
784.3080909547
 20
1086.4088081327
 10
784.6391649541
 20
1086.1561440435
 10
784.9486471709
 20
1086.1162685361
 10
785.1857320961
 20
1086.2930559125
 10
785.3118480738
 20
1086.6612338033
 10
785.312414318
 20
1087.1538065877
  0
LINE
  5
395
330
1F
100
AcDbEntity
  8
0
  6
Continuous
 62
     7
370
    15
100
AcDbLine
 10
842.9562376436
 20
1096.8414687123
 30
0.0
 11
842.8779618438
 21
1096.3685654607
 31
0.0
  0
LINE
  5
396
330
1F
100
AcDbEntity
  8
0
  6
Continuous
 62
     7
370
    15
100
AcDbLine
 10
842.8779618438
 20
1096.3685654607
 30
0.0
 11
842.2538714107
 21
1096.9418429341
 31
0.0
  0
LINE
  5
397
330
1F
100
AcDbEntity
  8
0
  6
Continuous
 62
     7
370
    15
100
AcDbLine
 10
842.2538714107
 20
1096.9418429341
 30
0.0
 11
842.2148750719
 21
1096.7210673299
 31
0.0
  0
LINE
  5
398
330
1F
100
AcDbEntity
  8
0
  6
Continuous
 62
     7
370
    15
100
AcDbLine
 10
842.2148750719
 20
1096.7210673299
 30
0.0
 11
842.0442120727
 21
1096.8778871503
 31
0.0
  0
LINE
  5
399
330
1F
100
AcDbEntity
  8
0
  6
Continuous
 62
     7
370
    15
100
AcDbLine
 10
842.0442120727
 20
1096.8778871503
 30
0.0
 11
842.0832382139
 21
1097.0986627546
 31
0.0
  0
LINE
  5
39A
330
1F
100
AcDbEntity
  8
0
  6
Continuous
 62
     7
370
    15
100
AcDbLine
 10
842.0832382139
 20
1097.0986627546
 30
0.0
 11
841.884218305
 21
1097.2817682233
 31
0.0
  0
LINE
  5
39B
330
1F
100
AcDbEntity
  8
0
  6
Continuous
 62
     7
370
    15
100
AcDbLine
 10
841.884218305
 20
1097.2817682233
 30
0.0
 11
841.960944384
 21
1097.7440618482
 31
0.0
  0
LINE
  5
39C
330
1F
100
AcDbEntity
  8
0
  6
Continuous
 62
     7
370
    15
100
AcDbLine
 10
841.960944384
 20
1097.7440618482
 30
0.0
 11
842.1599195894
 21
1097.5609563794
 31
0.0
  0
LINE
  5
39D
330
1F
100
AcDbEntity
  8
0
  6
Continuous
 62
     7
370
    15
100
AcDbLine
 10
842.1599195894
 20
1097.5609563794
 30
0.0
 11
842.3128204044
 21
1098.6449264493
 31
0.0
  0
LINE
  5
39E
330
1F
100
AcDbEntity
  8
0
  6
Continuous
 62
     7
370
    15
100
AcDbLine
 10
842.3128204044
 20
1098.6449264493
 30
0.0
 11
842.4834983047
 21
1098.4881066289
 31
0.0
  0
LINE
  5
39F
330
1F
100
AcDbEntity
  8
0
  6
Continuous
 62
     7
370
    15
100
AcDbLine
 10
842.4834983047
 20
1098.4881066289
 30
0.0
 11
842.9562376436
 21
1096.8414687123
 31
0.0
  0
LINE
  5
3A0
330
1F
100
AcDbEntity
  8
0
  6
Continuous
 62
     7
370
    15
100
AcDbLine
 10
842.4153552946
 20
1097.9716323819
 30
0.0
 11
842.3305080827
 21
1097.404136559
 31
0.0
  0
LINE
  5
3A1
330
1F
100
AcDbEntity
  8
0
  6
Continuous
 62
     7
370
    15
100
AcDbLine
 10
842.3305080827
 20
1097.404136559
 30
0.0
 11
842.6554577049
 21
1097.105636498
 31
0.0
  0
LINE
  5
3A2
330
1F
100
AcDbEntity
  8
0
  6
Continuous
 62
     7
370
    15
100
AcDbLine
 10
842.6554577049
 20
1097.105636498
 30
0.0
 11
842.4153552946
 21
1097.9716323819
 31
0.0
  0
LINE
  5
3A3
330
1F
100
AcDbEntity
  8
0
  6
Continuous
 62
     7
370
    15
100
AcDbLine
 10
841.884218305
 20
1097.2817682233
 30
0.0
 11
841.875068992
 21
1097.2821258512
 31
0.0
  0
LINE
  5
3A4
330
1F
100
AcDbEntity
  8
0
  6
Continuous
 62
     7
370
    15
100
AcDbLine
 10
842.0832382139
 20
1097.0986627546
 30
0.0
 11
842.0740739998
 21
1097.0990203824
 31
0.0
  0
LINE
  5
3A5
330
1F
100
AcDbEntity
  8
0
  6
Continuous
 62
     7
370
    15
100
AcDbLine
 10
841.960944384
 20
1097.7440618482
 30
0.0
 11
841.9517652687
 21
1097.7442406621
 31
0.0
  0
LINE
  5
3A6
330
1F
100
AcDbEntity
  8
0
  6
Continuous
 62
     7
370
    15
100
AcDbLine
 10
842.0442120727
 20
1096.8778871503
 30
0.0
 11
842.0350776609
 21
1096.8783043828
 31
0.0
  0
LINE
  5
3A7
330
1F
100
AcDbEntity
  8
0
  6
Continuous
 62
     7
370
    15
100
AcDbLine
 10
842.2148750719
 20
1096.7210673299
 30
0.0
 11
842.2057406601
 21
1096.7214845624
 31
0.0
  0
LWPOLYLINE
  5
3A8
330
1F
100
AcDbEntity
  8
0
  6
Continuous
 62
     7
370
    15
100
AcDbPolyline
 90
        3
 70
   128
 43
0.0
 10
842.4245791134
 20
1095.2217720952
 10
842.4291239675
 20
1095.2214144674
 10
842.4336539205
 20
1095.2210568395
  0
LINE
  5
3A9
330
1F
100
AcDbEntity
  8
0
  6
Continuous
 62
     7
370
    15
100
AcDbLine
 10
842.8986893591
 20
1099.7035049405
 30
0.0
 11
842.925764769
 21
1100.1640104261
 31
0.0
  0
ARC
  5
3AA
330
1F
100
AcDbEntity
  8
0
  6
Continuous
 62
     7
370
    15
100
AcDbCircle
 10
841.7349454945
 20
1099.2661125541
 30
0.0
 40
1.491399052153164
100
AcDbArc
 50
350.7853798478
 51
37.0169112062
  0
LWPOLYLINE
  5
3AB
330
1F
100
AcDbEntity
  8
0
  6
Continuous
 62
     7
370
    15
100
AcDbPolyline
 90
        6
 70
   128
 43
0.0
 10
843.2070986923
 20
1099.0272902455
 10
843.1641833481
 20
1098.7495922055
 10
843.1270794567
 20
1098.6359857526
 10
843.080513328
 20
1098.5479496923
 10
842.9686950144
 20
1098.4589599576
 10
842.8491578993
 20
1098.4898351636
  0
ARC
  5
3AC
330
1F
100
AcDbEntity
  8
0
  6
Continuous
 62
     7
370
    15
100
AcDbCircle
 10
844.3670501933
 20
1099.6220845935
 30
0.0
 40
1.89366992582302
100
AcDbArc
 50
185.7571913244
 51
216.720556577
  0
LINE
  5
3AD
330
1F
100
AcDbEntity
  8
0
  6
Continuous
 62
     7
370
    15
100
AcDbLine
 10
842.4829320606
 20
1099.4321249929
 30
0.0
 11
842.39052996
 21
1099.8076938596
 31
0.0
  0
LINE
  5
3AE
330
1F
100
AcDbEntity
  8
0
  6
Continuous
 62
     7
370
    15
100
AcDbLine
 10
842.39052996
 20
1099.8076938596
 30
0.0
 11
842.3110322651
 21
1098.9226244893
 31
0.0
  0
LINE
  5
3AF
330
1F
100
AcDbEntity
  8
0
  6
Continuous
 62
     7
370
    15
100
AcDbLine
 10
842.3110322651
 20
1098.9226244893
 30
0.0
 11
842.1403096613
 21
1099.0670465436
 31
0.0
  0
LINE
  5
3B0
330
1F
100
AcDbEntity
  8
0
  6
Continuous
 62
     7
370
    15
100
AcDbLine
 10
842.1403096613
 20
1099.0670465436
 30
0.0
 11
842.2717528042
 21
1100.7867597547
 31
0.0
  0
LINE
  5
3B1
330
1F
100
AcDbEntity
  8
0
  6
Continuous
 62
     7
370
    15
100
AcDbLine
 10
842.2717528042
 20
1100.7867597547
 30
0.0
 11
842.3601911958
 21
1100.7121943441
 31
0.0
  0
LINE
  5
3B2
330
1F
100
AcDbEntity
  8
0
  6
Continuous
 62
     7
370
    15
100
AcDbLine
 10
842.3601911958
 20
1100.7121943441
 30
0.0
 11
842.6191286739
 21
1099.6863984075
 31
0.0
  0
ARC
  5
3B3
330
1F
100
AcDbEntity
  8
0
  6
Continuous
 62
     7
370
    15
100
AcDbCircle
 10
844.2042248908
 20
1099.8589055577
 30
0.0
 40
1.594455623020923
100
AcDbArc
 50
186.2110958016
 51
213.8231726747
  0
LWPOLYLINE
  5
3B4
330
1F
100
AcDbEntity
  8
0
  6
Continuous
 62
     7
370
    15
100
AcDbPolyline
 90
        8
 70
   128
 43
0.0
 10
842.8796158727
 20
1098.9713810887
 10
842.9325745996
 20
1098.9521883931
 10
842.9581449922
 20
1098.9639901128
 10
842.9816739258
 20
1098.9903949704
 10
843.0019991096
 20
1099.0295552221
 10
843.0182711776
 20
1099.0798615422
 10
843.0298046764
 20
1099.1389893499
 10
843.0369572338
 20
1099.2037199941
  0
ARC
  5
3B5
330
1F
100
AcDbEntity
  8
0
  6
Continuous
 62
     7
370
    15
100
AcDbCircle
 10
842.382929564
 20
1099.2918093455
 30
0.0
 40
0.6599253208786728
100
AcDbArc
 50
352.3342661033
 51
38.5979616866
  0
LINE
  5
3B6
330
1F
100
AcDbEntity
  8
0
  6
Continuous
 62
     7
370
    15
100
AcDbLine
 10
842.1403096613
 20
1099.0670465436
 30
0.0
 11
842.1310709413
 21
1099.066808125
 31
0.0
  0
LINE
  5
3B7
330
1F
100
AcDbEntity
  8
0
  6
Continuous
 62
     7
370
    15
100
AcDbLine
 10
842.3110322651
 20
1098.9226244893
 30
0.0
 11
842.3017935451
 21
1098.9223860707
 31
0.0
  0
LINE
  5
3B8
330
1F
100
AcDbEntity
  8
0
  6
Continuous
 62
     7
370
    15
100
AcDbLine
 10
842.2717528042
 20
1100.7867597547
 30
0.0
 11
842.2624842819
 21
1100.7859848943
 31
0.0
  0
LINE
  5
3B9
330
1F
100
AcDbEntity
  8
0
  6
Continuous
 62
     7
370
    15
100
AcDbLine
 10
842.3128204044
 20
1098.6449264493
 30
0.0
 11
842.3035965856
 21
1098.64480724
 31
0.0
  0
LINE
  5
3BA
330
1F
100
AcDbEntity
  8
0
  6
Continuous
 62
     7
370
    15
100
AcDbLine
 10
842.8779618438
 20
1096.3685654607
 30
0.0
 11
842.8687976297
 21
1096.3689230886
 31
0.0
  0
LINE
  5
3BB
330
1F
100
AcDbEntity
  8
0
  6
Continuous
 62
     7
370
    15
100
AcDbLine
 10
842.6462785896
 20
1097.1058153119
 30
0.0
 11
842.406146377
 21
1097.9716323819
 31
0.0
  0
LINE
  5
3BC
330
1F
100
AcDbEntity
  8
0
  6
Continuous
 62
     7
370
    15
100
AcDbLine
 10
842.8491578993
 20
1098.4898351636
 30
0.0
 11
842.8399191793
 21
1098.489596745
 31
0.0
  0
LWPOLYLINE
  5
3BD
330
1F
100
AcDbEntity
  8
0
  6
Continuous
 62
     7
370
    15
100
AcDbPolyline
 90
       17
 70
   128
 43
0.0
 10
841.8212758001
 20
1089.9263166394
 10
841.8367879089
 20
1089.6722816434
 10
841.9068829712
 20
1089.4882225003
 10
842.0215027031
 20
1089.4019149747
 10
842.1628849205
 20
1089.4267105069
 10
842.3084692653
 20
1089.5590328183
 10
842.4349354204
 20
1089.7789143529
 10
842.5224499401
 20
1090.0530957189
 10
842.5579743084
 20
1090.3397344556
 10
842.5370977815
 20
1090.5949019399
 10
842.4641863998
 20
1090.779616734
 10
842.3509524759
 20
1090.8655666318
 10
842.2143535312
 20
1090.8397578206
 10
842.0741336044
 20
1090.706303021
 10
841.9504837688
 20
1090.4857658353
 10
841.8615834411
 20
1090.2118824926
 10
841.8212758001
 20
1089.9263166394
  0
LINE
  5
3BE
330
1F
100
AcDbEntity
  8
0
  6
Continuous
 62
     7
370
    15
100
AcDbLine
 10
843.0369572338
 20
1099.2037199941
 30
0.0
 11
843.0276887115
 21
1099.2032431569
 31
0.0
  0
LINE
  5
3BF
330
1F
100
AcDbEntity
  8
0
  6
Continuous
 62
     7
370
    15
100
AcDbLine
 10
842.8986893591
 20
1099.7035049405
 30
0.0
 11
842.8894208368
 21
1099.7029088941
 31
0.0
  0
LINE
  5
3C0
330
1F
100
AcDbEntity
  8
0
  6
Continuous
 62
     7
370
    15
100
AcDbLine
 10
842.925764769
 20
1100.1640104261
 30
0.0
 11
842.9164813455
 21
1100.1632355657
 31
0.0
  0
ARC
  5
3C1
330
1F
100
AcDbEntity
  8
0
  6
Continuous
 62
     7
370
    15
100
AcDbCircle
 10
827.7266864545
 20
1124.910037292
 30
0.0
 40
0.9622464831313118
100
AcDbArc
 50
334.36880944
 51
21.6978537085
  0
ARC
  5
3C2
330
1F
100
AcDbEntity
  8
0
  6
Continuous
 62
     7
370
    15
100
AcDbCircle
 10
797.7941317782
 20
1124.910037292
 30
0.0
 40
0.9622464831312061
100
AcDbArc
 50
158.3021462915
 51
205.63119056
  0
LWPOLYLINE
  5
3C3
330
1F
100
AcDbEntity
  8
0
  6
Continuous
 62
     7
370
    15
100
AcDbPolyline
 90
       17
 70
   128
 43
0.0
 10
843.247376531
 20
1095.8034538236
 10
843.3388994631
 20
1095.289423367
 10
843.5053156313
 20
1094.9145101514
 10
843.7257932123
 20
1094.7439812627
 10
843.9651654657
 20
1094.8009633031
 10
844.1836909946
 20
1095.0755619016
 10
844.342358559
 20
1095.5279015508
 10
844.4149570163
 20
1096.0878275838
 10
844.3896399435
 20
1096.6707014051
 10
844.2751692232
 20
1097.1869968381
 10
844.093136638
 20
1097.5586317983
 10
843.8751773533
 20
1097.7280281987
 10
843.6536268886
 20
1097.6713441816
 10
843.4588240083
 20
1097.395076653
 10
843.3149234947
 20
1096.9418429341
 10
843.2411776479
 20
1096.3790558782
 10
843.247376531
 20
1095.8034538236
  0
LINE
  5
3C4
330
1F
100
AcDbEntity
  8
0
  6
Continuous
 62
     7
370
    15
100
AcDbLine
 10
839.6680729088
 20
1113.5016225782
 30
0.0
 11
839.6596090492
 21
1113.4968542066
 31
0.0
  0
ARC
  5
3C5
330
1F
100
AcDbEntity
  8
0
  6
Continuous
 62
     7
370
    15
100
AcDbCircle
 10
841.4715948233
 20
1114.1648789034
 30
0.0
 40
1.921613969901169
100
AcDbArc
 50
200.1913104209
 51
239.5744756932
  0
LWPOLYLINE
  5
3C6
330
1F
100
AcDbEntity
  8
0
  6
Continuous
 62
     7
370
    15
100
AcDbPolyline
 90
        7
 70
   128
 43
0.0
 10
840.5943141874
 20
1113.1240271535
 10
840.6807707247
 20
1112.9247092214
 10
840.7389150556
 20
1112.7470277753
 10
840.7603280243
 20
1112.6136325803
 10
840.7459335026
 20
1112.5221394506
 10
840.646140426
 20
1112.467541596
 10
840.4984550174
 20
1112.5078939405
  0
LWPOLYLINE
  5
3C7
330
1F
100
AcDbEntity
  8
0
  6
Continuous
 62
     7
370
    15
100
AcDbPolyline
 90
        7
 70
   128
 43
0.0
 10
839.6680729088
 20
1113.5016225782
 10
839.5805136856
 20
1113.6984371152
 10
839.5174519714
 20
1113.8737343755
 10
839.4897954162
 20
1114.008560082
 10
839.4977526363
 20
1114.094808003
 10
839.5889477428
 20
1114.148332974
 10
839.7334741052
 20
1114.1077422109
  0
LWPOLYLINE
  5
3C8
330
1F
100
AcDbEntity
  8
0
  6
Continuous
 62
     7
370
    15
100
AcDbPolyline
 90
        3
 70
   128
 43
0.0
 10
839.7334741052
 20
1114.1077422109
 10
839.9335370954
 20
1113.997473618
 10
840.1836083826
 20
1113.7697242704
  0
ARC
  5
3C9
330
1F
100
AcDbEntity
  8
0
  6
Continuous
 62
     7
370
    15
100
AcDbCircle
 10
837.9484443856
 20
1111.8945465607
 30
0.0
 40
2.917575969227979
100
AcDbArc
 50
24.9233118203
 51
39.9947711763
  0
ARC
  5
3CA
330
1F
100
AcDbEntity
  8
0
  6
Continuous
 62
     7
370
    15
100
AcDbCircle
 10
840.8987785277
 20
1113.9352500007
 30
0.0
 40
1.184172763891847
100
AcDbArc
 50
204.8437068719
 51
220.8132360201
  0
LWPOLYLINE
  5
3CB
330
1F
100
AcDbEntity
  8
0
  6
Continuous
 62
     7
370
    15
100
AcDbPolyline
 90
        3
 70
   128
 43
0.0
 10
840.0025443729
 20
1113.1612800565
 10
840.166174024
 20
1113.0166195836
 10
840.3011338409
 20
1112.9444979634
  0
LWPOLYLINE
  5
3CC
330
1F
100
AcDbEntity
  8
0
  6
Continuous
 62
     7
370
    15
100
AcDbPolyline
 90
        7
 70
   128
 43
0.0
 10
840.3011338409
 20
1112.9444979634
 10
840.4663579162
 20
1112.9125498738
 10
840.4916004833
 20
1112.9349612203
 10
840.4993192848
 20
1112.9858635869
 10
840.4835091528
 20
1113.0687736478
 10
840.4646442827
 20
1113.1221794095
 10
840.4388205703
 20
1113.1808899846
  0
ARC
  5
3CD
330
1F
100
AcDbEntity
  8
0
  6
Continuous
 62
     7
370
    15
100
AcDbCircle
 10
839.5644397738
 20
1112.8118893935
 30
0.0
 40
0.949053851763201
100
AcDbArc
 50
22.8804064181
 51
66.463303491
  0
LWPOLYLINE
  5
3CE
330
1F
100
AcDbEntity
  8
0
  6
Continuous
 62
     7
370
    15
100
AcDbPolyline
 90
        6
 70
   128
 43
0.0
 10
839.9434314665
 20
1113.6819862333
 10
839.7851811346
 20
1113.7097023931
 10
839.7632466253
 20
1113.6850856748
 10
839.7593723234
 20
1113.6321567502
 10
839.7786842283
 20
1113.5482334104
 10
839.8241923746
 20
1113.437726399
  0
ARC
  5
3CF
330
1F
100
AcDbEntity
  8
0
  6
Continuous
 62
     7
370
    15
100
AcDbCircle
 10
840.1009675894
 20
1112.9768826057
 30
0.0
 40
0.3849589267819262
100
AcDbArc
 50
353.0426658058
 51
31.1686647421
  0
LINE
  5
3D0
330
1F
100
AcDbEntity
  8
0
  6
Continuous
 62
     7
370
    15
100
AcDbLine
 10
839.9350272115
 20
1113.6770986524
 30
0.0
 11
839.7767619785
 21
1113.7048744168
 31
0.0
  0
ARC
  5
3D1
330
1F
100
AcDbEntity
  8
0
  6
Continuous
 62
     7
370
    15
100
AcDbCircle
 10
839.5562831966
 20
1112.8072629065
 30
0.0
 40
0.9487155809844378
100
AcDbArc
 50
22.8797271917
 51
66.4707202184
  0
LINE
  5
3D2
330
1F
100
AcDbEntity
  8
0
  6
Continuous
 62
     7
370
    15
100
AcDbLine
 10
838.6226819452
 20
1115.4945038762
 30
0.0
 11
838.6145459112
 21
1115.4890798536
 31
0.0
  0
LINE
  5
3D3
330
1F
100
AcDbEntity
  8
0
  6
Continuous
 62
     7
370
    15
100
AcDbLine
 10
839.9652318653
 20
1114.209070107
 30
0.0
 11
838.6226819452
 21
1115.4945038762
 31
0.0
  0
LINE
  5
3D4
330
1F
100
AcDbEntity
  8
0
  6
Continuous
 62
     7
370
    15
100
AcDbLine
 10
839.9652318653
 20
1114.209070107
 30
0.0
 11
839.9569170173
 21
1114.2039441075
 31
0.0
  0
LINE
  5
3D5
330
1F
100
AcDbEntity
  8
0
  6
Continuous
 62
     7
370
    15
100
AcDbLine
 10
839.239157885
 20
1115.6183623281
 30
0.0
 11
840.0507794317
 21
1114.1779564824
 31
0.0
  0
LINE
  5
3D6
330
1F
100
AcDbEntity
  8
0
  6
Continuous
 62
     7
370
    15
100
AcDbLine
 10
840.0507794317
 20
1114.1779564824
 30
0.0
 11
839.9652318653
 21
1114.209070107
 31
0.0
  0
LINE
  5
3D7
330
1F
100
AcDbEntity
  8
0
  6
Continuous
 62
     7
370
    15
100
AcDbLine
 10
838.6226819452
 20
1115.4945038762
 30
0.0
 11
838.484369367
 21
1115.8200048413
 31
0.0
  0
LINE
  5
3D8
330
1F
100
AcDbEntity
  8
0
  6
Continuous
 62
     7
370
    15
100
AcDbLine
 10
838.484369367
 20
1115.8200048413
 30
0.0
 11
839.6124766763
 21
1114.7604726758
 31
0.0
  0
LINE
  5
3D9
330
1F
100
AcDbEntity
  8
0
  6
Continuous
 62
     7
370
    15
100
AcDbLine
 10
839.6124766763
 20
1114.7604726758
 30
0.0
 11
839.085988849
 21
1115.6742118802
 31
0.0
  0
LINE
  5
3DA
330
1F
100
AcDbEntity
  8
0
  6
Continuous
 62
     7
370
    15
100
AcDbLine
 10
839.085988849
 20
1115.6742118802
 30
0.0
 11
839.239157885
 21
1115.6183623281
 31
0.0
  0
LWPOLYLINE
  5
3DB
330
1F
100
AcDbEntity
  8
0
  6
Continuous
 62
     7
370
    15
100
AcDbPolyline
 90
       17
 70
   128
 43
0.0
 10
843.8724802431
 20
1102.3200892415
 10
843.9581619199
 20
1102.0644449201
 10
844.0629170831
 20
1101.8797301259
 10
844.1717551645
 20
1101.7941974607
 10
844.2681507763
 20
1101.8209003415
 10
844.3365918096
 20
1101.9556068387
 10
844.3653659519
 20
1102.1776341405
 10
844.3491832908
 20
1102.4529479947
 10
844.2904131111
 20
1102.7395867314
 10
844.1988454756
 20
1102.9940985646
 10
844.0896646675
 20
1103.1779788938
 10
843.9804689583
 20
1103.2634519544
 10
843.8879774507
 20
1103.2374643293
 10
843.8254372772
 20
1103.1038903203
 10
843.8010738786
 20
1102.8826974836
 10
843.8176290687
 20
1102.607443234
 10
843.8724802431
 20
1102.3200892415
  0
LINE
  5
3DC
330
1F
100
AcDbEntity
  8
0
  6
Continuous
 62
     7
370
    15
100
AcDbLine
 10
838.484369367
 20
1115.8200048413
 30
0.0
 11
838.4762929376
 21
1115.814521214
 31
0.0
  0
LINE
  5
3DD
330
1F
100
AcDbEntity
  8
0
  6
Continuous
 62
     7
370
    15
100
AcDbLine
 10
837.2135983404
 20
1117.7125715223
 30
0.0
 11
837.2059093412
 21
1117.7064322438
 31
0.0
  0
LINE
  5
3DE
330
1F
100
AcDbEntity
  8
0
  6
Continuous
 62
     7
370
    15
100
AcDbLine
 10
838.1933049854
 20
1116.2411712613
 30
0.0
 11
837.2135983404
 21
1117.7125715223
 31
0.0
  0
LINE
  5
3DF
330
1F
100
AcDbEntity
  8
0
  6
Continuous
 62
     7
370
    15
100
AcDbLine
 10
838.1933049854
 20
1116.2411712613
 30
0.0
 11
838.185317963
 21
1116.2355088201
 31
0.0
  0
LINE
  5
3E0
330
1F
100
AcDbEntity
  8
0
  6
Continuous
 62
     7
370
    15
100
AcDbLine
 10
838.085480183
 20
1117.0916699376
 30
0.0
 11
837.8158138689
 21
1117.4807094541
 31
0.0
  0
ARC
  5
3E1
330
1F
100
AcDbEntity
  8
0
  6
Continuous
 62
     7
370
    15
100
AcDbCircle
 10
836.6084861432
 20
1115.5360054792
 30
0.0
 40
2.288998424450937
100
AcDbArc
 50
29.6426640195
 51
58.1668094241
  0
LWPOLYLINE
  5
3E2
330
1F
100
AcDbEntity
  8
0
  6
Continuous
 62
     7
370
    15
100
AcDbPolyline
 90
        6
 70
   128
 43
0.0
 10
838.5979162153
 20
1116.6681193319
 10
838.7474046644
 20
1116.42093887
 10
838.8015852865
 20
1116.3103722539
 10
838.8360367712
 20
1116.2188195195
 10
838.8480471071
 20
1116.0968088117
 10
838.7866245207
 20
1116.0708211866
  0
ARC
  5
3E3
330
1F
100
AcDbEntity
  8
0
  6
Continuous
 62
     7
370
    15
100
AcDbCircle
 10
840.0998084558
 20
1118.2107759613
 30
0.0
 40
2.510748590690328
100
AcDbArc
 50
217.2695851378
 51
238.4646271416
  0
LINE
  5
3E4
330
1F
100
AcDbEntity
  8
0
  6
Continuous
 62
     7
370
    15
100
AcDbLine
 10
838.1017671522
 20
1116.6903518644
 30
0.0
 11
837.8455565866
 21
1116.9601820913
 31
0.0
  0
LINE
  5
3E5
330
1F
100
AcDbEntity
  8
0
  6
Continuous
 62
     7
370
    15
100
AcDbLine
 10
837.8455565866
 20
1116.9601820913
 30
0.0
 11
838.3391873535
 21
1116.1958121267
 31
0.0
  0
LINE
  5
3E6
330
1F
100
AcDbEntity
  8
0
  6
Continuous
 62
     7
370
    15
100
AcDbLine
 10
838.3391873535
 20
1116.1958121267
 30
0.0
 11
838.1933049854
 21
1116.2411712613
 31
0.0
  0
LINE
  5
3E7
330
1F
100
AcDbEntity
  8
0
  6
Continuous
 62
     7
370
    15
100
AcDbLine
 10
837.2135983404
 20
1117.7125715223
 30
0.0
 11
837.2892366346
 21
1117.6889084783
 31
0.0
  0
LINE
  5
3E8
330
1F
100
AcDbEntity
  8
0
  6
Continuous
 62
     7
370
    15
100
AcDbLine
 10
837.2892366346
 20
1117.6889084783
 30
0.0
 11
837.9983530935
 21
1116.9579767194
 31
0.0
  0
ARC
  5
3E9
330
1F
100
AcDbEntity
  8
0
  6
Continuous
 62
     7
370
    15
100
AcDbCircle
 10
839.7425932064
 20
1118.3307801156
 30
0.0
 40
2.219676268328292
100
AcDbArc
 50
218.2044986982
 51
236.419026874
  0
LWPOLYLINE
  5
3EA
330
1F
100
AcDbEntity
  8
0
  6
Continuous
 62
     7
370
    15
100
AcDbPolyline
 90
        8
 70
   128
 43
0.0
 10
838.5148571428
 20
1116.4815567937
 10
838.5450468954
 20
1116.4885305371
 10
838.5472224649
 20
1116.5092729535
 10
838.5400550064
 20
1116.5409230199
 10
838.5242001709
 20
1116.5815733876
 10
838.499896377
 20
1116.6303895917
 10
838.4689615663
 20
1116.6839145627
 10
838.4329901632
 20
1116.740240952
  0
ARC
  5
3EB
330
1F
100
AcDbEntity
  8
0
  6
Continuous
 62
     7
370
    15
100
AcDbCircle
 10
837.5633359202
 20
1116.2278166016
 30
0.0
 40
1.009394480521647
100
AcDbArc
 50
30.5077691983
 51
58.8497137099
  0
LINE
  5
3EC
330
1F
100
AcDbEntity
  8
0
  6
Continuous
 62
     7
370
    15
100
AcDbLine
 10
838.3391873535
 20
1116.1958121267
 30
0.0
 11
838.3312003311
 21
1116.1901496854
 31
0.0
  0
LINE
  5
3ED
330
1F
100
AcDbEntity
  8
0
  6
Continuous
 62
     7
370
    15
100
AcDbLine
 10
840.4303567108
 20
1113.176121613
 30
0.0
 11
840.4388205703
 21
1113.1808899846
 31
0.0
  0
LWPOLYLINE
  5
3EE
330
1F
100
AcDbEntity
  8
0
  6
Continuous
 62
     7
370
    15
100
AcDbPolyline
 90
        3
 70
   128
 43
0.0
 10
838.7866245207
 20
1116.0708211866
 10
838.7826310095
 20
1116.0680197683
 10
838.7786374983
 20
1116.0651587453
  0
LWPOLYLINE
  5
3EF
330
1F
100
AcDbEntity
  8
0
  6
Continuous
 62
     7
370
    15
100
AcDbPolyline
 90
       17
 70
   128
 43
0.0
 10
842.7995668348
 20
1108.5441254583
 10
842.9249750074
 20
1108.2995079961
 10
843.0529163774
 20
1108.1211112943
 10
843.1649731096
 20
1108.0365323033
 10
843.2443068918
 20
1108.0587052312
 10
843.2781772312
 20
1108.1839941945
 10
843.260221332
 20
1108.3929084745
 10
843.1921677288
 20
1108.6531423536
 10
843.0841045078
 20
1108.9249991384
 10
842.9531382021
 20
1109.1674112287
 10
842.8203986582
 20
1109.3438409772
 10
842.7071200308
 20
1109.427943131
 10
842.6308409866
 20
1109.4070219007
 10
842.6025138792
 20
1109.2839383092
 10
842.6252679523
 20
1109.0769909825
 10
842.6945583519
 20
1108.8172339406
 10
842.7995668348
 20
1108.5441254583
  0
LINE
  5
3F0
330
1F
100
AcDbEntity
  8
0
  6
Continuous
 62
     7
370
    15
100
AcDbLine
 10
839.085988849
 20
1115.6742118802
 30
0.0
 11
839.0779273208
 21
1115.6686686483
 31
0.0
  0
LINE
  5
3F1
330
1F
100
AcDbEntity
  8
0
  6
Continuous
 62
     7
370
    15
100
AcDbLine
 10
840.0507794317
 20
1114.1779564824
 30
0.0
 11
840.0424794849
 21
1114.172830483
 31
0.0
  0
LWPOLYLINE
  5
3F2
330
1F
100
AcDbEntity
  8
0
  6
Continuous
 62
     7
370
    15
100
AcDbPolyline
 90
        3
 70
   128
 43
0.0
 10
838.4329901632
 20
1116.740240952
 10
838.4290711578
 20
1116.7373203244
 10
838.4251372513
 20
1116.7343996968
  0
LINE
  5
3F3
330
1F
100
AcDbEntity
  8
0
  6
Continuous
 62
     7
370
    15
100
AcDbLine
 10
838.085480183
 20
1117.0916699376
 30
0.0
 11
838.0777017769
 21
1117.0857094731
 31
0.0
  0
LINE
  5
3F4
330
1F
100
AcDbEntity
  8
0
  6
Continuous
 62
     7
370
    15
100
AcDbLine
 10
837.8158138689
 20
1117.4807094541
 30
0.0
 11
837.8081099685
 21
1117.4746297803
 31
0.0
  0
LWPOLYLINE
  5
3F5
330
1F
100
AcDbEntity
  8
0
  6
Continuous
 62
     7
370
    15
100
AcDbPolyline
 90
       17
 70
   128
 43
0.0
 10
840.2790205177
 20
1114.2465614286
 10
840.6039403375
 20
1113.7966059652
 10
840.9070150551
 20
1113.4597205129
 10
841.1430494484
 20
1113.2968210187
 10
841.2784861025
 20
1113.331332108
 10
841.2918524441
 20
1113.555505177
 10
841.1754147705
 20
1113.9342330899
 10
840.9442381557
 20
1114.4061230626
 10
840.6307773288
 20
1114.8989342656
 10
840.2856366333
 20
1115.3380416837
 10
839.96465072
 20
1115.6596683469
 10
839.7217766937
 20
1115.8166669812
 10
839.5942525562
 20
1115.7880567517
 10
839.6013157066
 20
1115.5752681699
 10
839.7371546921
 20
1115.2084015813
 10
839.9782256778
 20
1114.7388361898
 10
840.2790205177
 20
1114.2465614286
  0
LINE
  5
3F6
330
1F
100
AcDbEntity
  8
0
  6
Continuous
 62
     7
370
    15
100
AcDbLine
 10
829.8397736248
 20
1125.4548572507
 30
0.0
 11
827.2201196846
 21
1126.925363442
 31
0.0
  0
LINE
  5
3F7
330
1F
100
AcDbEntity
  8
0
  6
Continuous
 62
     7
370
    15
100
AcDbLine
 10
827.2201196846
 20
1126.925363442
 30
0.0
 11
826.57393828
 21
1126.867129704
 31
0.0
  0
LINE
  5
3F8
330
1F
100
AcDbEntity
  8
0
  6
Continuous
 62
     7
370
    15
100
AcDbLine
 10
826.57393828
 20
1126.867129704
 30
0.0
 11
829.1937263306
 21
1125.3970407453
 31
0.0
  0
LINE
  5
3F9
330
1F
100
AcDbEntity
  8
0
  6
Continuous
 62
     7
370
    15
100
AcDbLine
 10
829.1937263306
 20
1125.3970407453
 30
0.0
 11
829.4318766888
 21
1125.4182599988
 31
0.0
  0
LINE
  5
3FA
330
1F
100
AcDbEntity
  8
0
  6
Continuous
 62
     7
370
    15
100
AcDbLine
 10
829.4318766888
 20
1125.4182599988
 30
0.0
 11
830.2833886441
 21
1124.8371743169
 31
0.0
  0
LINE
  5
3FB
330
1F
100
AcDbEntity
  8
0
  6
Continuous
 62
     7
370
    15
100
AcDbLine
 10
830.2833886441
 20
1124.8371743169
 30
0.0
 11
830.1606701311
 21
1124.8253129926
 31
0.0
  0
ARC
  5
3FC
330
1F
100
AcDbEntity
  8
0
  6
Continuous
 62
     7
370
    15
100
AcDbCircle
 10
831.2986838204
 20
1128.6348171531
 30
0.0
 40
3.975851745980277
100
AcDbArc
 50
232.0636972724
 51
253.3675294836
  0
LINE
  5
3FD
330
1F
100
AcDbEntity
  8
0
  6
Continuous
 62
     7
370
    15
100
AcDbLine
 10
828.8543896373
 20
1125.4990838971
 30
0.0
 11
826.5507297214
 21
1126.788093945
 31
0.0
  0
LWPOLYLINE
  5
3FE
330
1F
100
AcDbEntity
  8
0
  6
Continuous
 62
     7
370
    15
100
AcDbPolyline
 90
        7
 70
   128
 43
0.0
 10
826.5507297214
 20
1126.788093945
 10
826.1154071983
 20
1127.0086311307
 10
825.9156422313
 20
1127.1127604451
 10
825.754024237
 20
1127.2037767377
 10
825.6657125052
 20
1127.2667788472
 10
825.6409616765
 20
1127.3034953084
 10
825.6948815283
 20
1127.3315690961
  0
LINE
  5
3FF
330
1F
100
AcDbEntity
  8
0
  6
Continuous
 62
     7
370
    15
100
AcDbLine
 10
825.6948815283
 20
1127.3315690961
 30
0.0
 11
826.1920289692
 21
1127.3788355794
 31
0.0
  0
ARC
  5
400
330
1F
100
AcDbEntity
  8
0
  6
Continuous
 62
     7
370
    15
100
AcDbCircle
 10
825.2930704722
 20
1123.0942897961
 30
0.0
 40
4.377837245520171
100
AcDbArc
 50
59.6955810275
 51
78.1504178031
  0
LINE
  5
401
330
1F
100
AcDbEntity
  8
0
  6
Continuous
 62
     7
370
    15
100
AcDbLine
 10
827.5021018084
 20
1126.8739246335
 30
0.0
 11
829.8054860529
 21
1125.5842589345
 31
0.0
  0
LWPOLYLINE
  5
402
330
1F
100
AcDbEntity
  8
0
  6
Continuous
 62
     7
370
    15
100
AcDbPolyline
 90
        7
 70
   128
 43
0.0
 10
829.8054935034
 20
1125.5842589345
 10
830.2301840481
 20
1125.3138326612
 10
830.4249869283
 20
1125.1797222104
 10
830.5862398442
 20
1125.0568174329
 10
830.6800277528
 20
1124.9662779775
 10
830.7096587118
 20
1124.9118589368
 10
830.6578995284
 20
1124.8721026387
  0
LINE
  5
403
330
1F
100
AcDbEntity
  8
0
  6
Continuous
 62
     7
370
    15
100
AcDbLine
 10
830.6578995284
 20
1124.8721026387
 30
0.0
 11
830.5615709718
 21
1124.8628043142
 31
0.0
  0
LINE
  5
404
330
1F
100
AcDbEntity
  8
0
  6
Continuous
 62
     7
370
    15
100
AcDbLine
 10
830.5615709718
 20
1124.8628043142
 30
0.0
 11
829.6358214315
 21
1125.4365586248
 31
0.0
  0
LINE
  5
405
330
1F
100
AcDbEntity
  8
0
  6
Continuous
 62
     7
370
    15
100
AcDbLine
 10
829.6358214315
 20
1125.4365586248
 30
0.0
 11
829.8397736248
 21
1125.4548572507
 31
0.0
  0
LINE
  5
406
330
1F
100
AcDbEntity
  8
0
  6
Continuous
 62
     7
370
    15
100
AcDbLine
 10
830.2833886441
 20
1124.8371743169
 30
0.0
 11
830.2780018743
 21
1124.8288296666
 31
0.0
  0
LINE
  5
407
330
1F
100
AcDbEntity
  8
0
  6
Continuous
 62
     7
370
    15
100
AcDbLine
 10
827.2201196846
 20
1126.925363442
 30
0.0
 11
827.2157983478
 21
1126.9163631406
 31
0.0
  0
LWPOLYLINE
  5
408
330
1F
100
AcDbEntity
  8
0
  6
Continuous
 62
     7
370
    15
100
AcDbPolyline
 90
       17
 70
   128
 43
0.0
 10
812.7604053911
 20
1130.0802372899
 10
813.7174324688
 20
1130.0786279645
 10
814.5281003412
 20
1130.0805353131
 10
815.0690646466
 20
1130.1010393109
 10
815.2587564286
 20
1130.1516436544
 10
815.0686101612
 20
1130.2298449483
 10
814.527161568
 20
1130.3170465436
 10
813.7161807712
 20
1130.3857110944
 10
812.7590642866
 20
1130.4117583242
 10
811.8021713194
 20
1130.3855918851
 10
810.9918014702
 20
1130.316808125
 10
810.4512618479
 20
1130.2296065297
 10
810.2621586617
 20
1130.1514648404
 10
810.4529158767
 20
1130.1009797063
 10
810.994558185
 20
1130.0805353131
 10
811.8064330515
 20
1130.0786875692
 10
812.7604053911
 20
1130.0802372899
  0
LINE
  5
409
330
1F
100
AcDbEntity
  8
0
  6
Continuous
 62
     7
370
    15
100
AcDbLine
 10
829.6358214315
 20
1125.4365586248
 30
0.0
 11
829.6307177838
 21
1125.4280351606
 31
0.0
  0
LINE
  5
40A
330
1F
100
AcDbEntity
  8
0
  6
Continuous
 62
     7
370
    15
100
AcDbLine
 10
830.5615709718
 20
1124.8628043142
 30
0.0
 11
830.5561991032
 21
1124.8544596639
 31
0.0
  0
LWPOLYLINE
  5
40B
330
1F
100
AcDbEntity
  8
0
  6
Continuous
 62
     7
370
    15
100
AcDbPolyline
 90
       21
 70
   128
 43
0.0
 10
824.6248887476
 20
1128.0838393178
 10
824.9258475002
 20
1127.9751204457
 10
825.1866997775
 20
1127.8902434316
 10
825.2869398888
 20
1127.8627060857
 10
825.3602685031
 20
1127.8476261106
 10
825.4209087785
 20
1127.8551362958
 10
825.3635244068
 20
1127.9098533597
 10
825.1908944544
 20
1128.0043267217
 10
824.9338792261
 20
1128.1210326162
 10
824.7856946286
 20
1128.1815313306
 10
824.6305362877
 20
1128.2406591382
 10
824.3242876228
 20
1128.3460401502
 10
824.0636439618
 20
1128.4218572583
 10
823.8917292651
 20
1128.4567259755
 10
823.830567449
 20
1128.4486197438
 10
823.8468246158
 20
1128.4281753507
 10
823.895603567
 20
1128.3969425168
 10
824.0742088851
 20
1128.3089660611
 10
824.3293987211
 20
1128.199591538
 10
824.4741784033
 20
1128.1417154279
 10
824.6248887476
 20
1128.0838393178
  0
LWPOLYLINE
  5
40C
330
1F
100
AcDbEntity
  8
0
  6
Continuous
 62
     7
370
    15
100
AcDbPolyline
 90
       17
 70
   128
 43
0.0
 10
824.6277125176
 20
1128.1255029645
 10
824.7693629559
 20
1128.0747794118
 10
824.889682382
 20
1128.0368708577
 10
824.9704243239
 20
1128.0179165807
 10
824.9995411929
 20
1128.0210756269
 10
824.9724285301
 20
1128.0459903684
 10
824.8932735618
 20
1128.0885480848
 10
824.7739301618
 20
1128.1418942418
 10
824.6324957904
 20
1128.1976841893
 10
824.4904653724
 20
1128.2473944631
 10
824.3695349988
 20
1128.2836936917
 10
824.2882789668
 20
1128.3013366666
 10
824.2591322955
 20
1128.2979392018
 10
824.2866025861
 20
1128.2741569486
 10
824.3663834032
 20
1128.2332085576
 10
824.4861961898
 20
1128.1811737027
 10
824.6277125176
 20
1128.1255029645
  0
LWPOLYLINE
  5
40D
330
1F
100
AcDbEntity
  8
0
  6
Continuous
 62
     7
370
    15
100
AcDbPolyline
 90
       17
 70
   128
 43
0.0
 10
824.624188393
 20
1128.1162046399
 10
824.765809029
 20
1128.0654810872
 10
824.8860986527
 20
1128.0275725331
 10
824.9668107923
 20
1128.0086778608
 10
824.9959202107
 20
1128.0118369069
 10
824.9688373502
 20
1128.0366920438
 10
824.8897270855
 20
1128.0791901555
 10
824.7704060372
 20
1128.1325959172
 10
824.6290014681
 20
1128.1883858648
 10
824.4870008525
 20
1128.2380365338
 10
824.3661002811
 20
1128.2743357625
 10
824.2848740515
 20
1128.2919787374
 10
824.2557273802
 20
1128.2885812726
 10
824.2831753191
 20
1128.2647990194
 10
824.3629188832
 20
1128.223910233
 10
824.4826869663
 20
1128.1718157735
 10
824.624188393
 20
1128.1162046399
  0
LINE
  5
40E
330
1F
100
AcDbEntity
  8
0
  6
Continuous
 62
     7
370
    15
100
AcDbLine
 10
1088.460423201
 20
547.9214035478
 30
0.0
 11
1088.460423201
 21
548.3214103189
 31
0.0
  0
LINE
  5
40F
330
1F
100
AcDbEntity
  8
0
  6
Continuous
 62
     7
370
    15
100
AcDbLine
 10
333.0604211982
 20
548.3214103189
 30
0.0
 11
333.0604211982
 21
547.9214035478
 31
0.0
  0
ARC
  5
410
330
1F
100
AcDbEntity
  8
0
  6
Continuous
 62
     7
370
    15
100
AcDbCircle
 10
1158.3703410083
 20
530.3689428189
 30
0.0
 40
3.122002013035218
100
AcDbArc
 50
277.1773331518
 51
321.4049739631
  0
ARC
  5
411
330
1F
100
AcDbEntity
  8
0
  6
Continuous
 62
     7
370
    15
100
AcDbCircle
 10
1158.0663455142
 20
529.2801659495
 30
0.0
 40
2.125286843493576
100
AcDbArc
 50
289.0608851842
 51
336.1671379742
  0
LINE
  5
412
330
1F
100
AcDbEntity
  8
0
  6
Continuous
 62
     7
370
    15
100
AcDbLine
 10
1160.8104185756
 20
528.4214012828
 30
0.0
 11
1160.0104050335
 21
528.4214012828
 31
0.0
  0
LINE
  5
413
330
1F
100
AcDbEntity
  8
0
  6
Continuous
 62
     7
370
    15
100
AcDbLine
 10
1158.7604062256
 20
470.9714048114
 30
0.0
 11
1158.7604062256
 21
468.9214073625
 31
0.0
  0
LINE
  5
414
330
1F
100
AcDbEntity
  8
0
  6
Continuous
 62
     7
370
    15
100
AcDbLine
 10
1158.7604062256
 20
468.9214073625
 30
0.0
 11
262.8603951629
 21
468.9214073625
 31
0.0
  0
LINE
  5
415
330
1F
100
AcDbEntity
  8
0
  6
Continuous
 62
     7
370
    15
100
AcDbLine
 10
262.8603951629
 20
468.9214073625
 30
0.0
 11
262.8603951629
 21
470.9714048114
 31
0.0
  0
LINE
  5
416
330
1F
100
AcDbEntity
  8
0
  6
Continuous
 62
     7
370
    15
100
AcDbLine
 10
1160.8104185756
 20
528.4214012828
 30
0.0
 11
1160.8104185756
 21
469.7314046827
 31
0.0
  0
ARC
  5
417
330
1F
100
AcDbEntity
  8
0
  6
Continuous
 62
     7
370
    15
100
AcDbCircle
 10
1158.1225468768
 20
467.6022962742
 30
0.0
 40
3.428958571390503
100
AcDbArc
 50
38.3833372411
 51
79.2793174689
  0
LINE
  5
418
330
1F
100
AcDbEntity
  8
0
  6
Continuous
 62
     7
370
    15
100
AcDbLine
 10
1160.8104185756
 20
469.7314046827
 30
0.0
 11
1160.0104050335
 21
469.7314046827
 31
0.0
  0
ARC
  5
419
330
1F
100
AcDbEntity
  8
0
  6
Continuous
 62
     7
370
    15
100
AcDbCircle
 10
1158.0781212941
 20
469.0335791896
 30
0.0
 40
2.054429572447299
100
AcDbArc
 50
19.8566928787
 51
70.603451123
  0
ARC
  5
41A
330
1F
100
AcDbEntity
  8
0
  6
Continuous
 62
     7
370
    15
100
AcDbCircle
 10
263.3018723101
 20
467.9270222004
 30
0.0
 40
3.076226187008092
100
AcDbArc
 50
98.2511552879
 51
144.0869277462
  0
LINE
  5
41B
330
1F
100
AcDbEntity
  8
0
  6
Continuous
 62
     7
370
    15
100
AcDbLine
 10
260.8104126152
 20
469.7314046827
 30
0.0
 11
260.8104126152
 21
528.4214012828
 31
0.0
  0
ARC
  5
41C
330
1F
100
AcDbEntity
  8
0
  6
Continuous
 62
     7
370
    15
100
AcDbCircle
 10
263.4401181737
 20
530.706963186
 30
0.0
 40
3.484127514573946
100
AcDbArc
 50
220.9949578488
 51
260.4220242017
  0
ARC
  5
41D
330
1F
100
AcDbEntity
  8
0
  6
Continuous
 62
     7
370
    15
100
AcDbCircle
 10
263.6409910075
 20
468.9344755514
 30
0.0
 40
2.181378161316806
100
AcDbArc
 50
110.9679251556
 51
158.5719308427
  0
LINE
  5
41E
330
1F
100
AcDbEntity
  8
0
  6
Continuous
 62
     7
370
    15
100
AcDbLine
 10
260.8104126152
 20
469.7314046827
 30
0.0
 11
261.610396355
 21
469.7314046827
 31
0.0
  0
LINE
  5
41F
330
1F
100
AcDbEntity
  8
0
  6
Continuous
 62
     7
370
    15
100
AcDbLine
 10
1158.7604062256
 20
529.3214016166
 30
0.0
 11
262.8603951629
 21
529.3214016166
 31
0.0
  0
LINE
  5
420
330
1F
100
AcDbEntity
  8
0
  6
Continuous
 62
     7
370
    15
100
AcDbLine
 10
1158.7604062256
 20
529.3214016166
 30
0.0
 11
1158.7604062256
 21
527.2714041677
 31
0.0
  0
LINE
  5
421
330
1F
100
AcDbEntity
  8
0
  6
Continuous
 62
     7
370
    15
100
AcDbLine
 10
262.8603951629
 20
527.2714041677
 30
0.0
 11
262.8603951629
 21
529.3214016166
 31
0.0
  0
LINE
  5
422
330
1F
100
AcDbEntity
  8
0
  6
Continuous
 62
     7
370
    15
100
AcDbLine
 10
260.8104126152
 20
528.4214012828
 30
0.0
 11
261.610396355
 21
528.4214012828
 31
0.0
  0
ARC
  5
423
330
1F
100
AcDbEntity
  8
0
  6
Continuous
 62
     7
370
    15
100
AcDbCircle
 10
263.5471113923
 20
529.2721828045
 30
0.0
 40
2.115347331568313
100
AcDbArc
 50
203.7154527284
 51
251.0565241132
  0
LINE
  5
424
330
1F
100
AcDbEntity
  8
0
  6
Continuous
 62
     7
370
    15
100
AcDbLine
 10
262.8603951629
 20
528.5214029756
 30
0.0
 11
261.610396355
 21
528.5214029756
 31
0.0
  0
LINE
  5
425
330
1F
100
AcDbEntity
  8
0
  6
Continuous
 62
     7
370
    15
100
AcDbLine
 10
261.610396355
 20
528.5214029756
 30
0.0
 11
261.610396355
 21
529.3214016166
 31
0.0
  0
LINE
  5
426
330
1F
100
AcDbEntity
  8
0
  6
Continuous
 62
     7
370
    15
100
AcDbLine
 10
262.8603951629
 20
529.3214016166
 30
0.0
 11
261.610396355
 21
529.3214016166
 31
0.0
  0
LINE
  5
427
330
1F
100
AcDbEntity
  8
0
  6
Continuous
 62
     7
370
    15
100
AcDbLine
 10
1160.0104050335
 20
469.7214060035
 30
0.0
 11
1160.0104050335
 21
468.9214073625
 31
0.0
  0
LINE
  5
428
330
1F
100
AcDbEntity
  8
0
  6
Continuous
 62
     7
370
    15
100
AcDbLine
 10
1160.0104050335
 20
468.9214073625
 30
0.0
 11
1158.7604062256
 21
468.9214073625
 31
0.0
  0
LINE
  5
429
330
1F
100
AcDbEntity
  8
0
  6
Continuous
 62
     7
370
    15
100
AcDbLine
 10
1160.0104050335
 20
469.7214060035
 30
0.0
 11
1158.7604062256
 21
469.7214060035
 31
0.0
  0
LINE
  5
42A
330
1F
100
AcDbEntity
  8
0
  6
Continuous
 62
     7
370
    15
100
AcDbLine
 10
262.8603951629
 20
468.9214073625
 30
0.0
 11
261.610396355
 21
468.9214073625
 31
0.0
  0
LINE
  5
42B
330
1F
100
AcDbEntity
  8
0
  6
Continuous
 62
     7
370
    15
100
AcDbLine
 10
261.610396355
 20
468.9214073625
 30
0.0
 11
261.610396355
 21
469.7214060035
 31
0.0
  0
LINE
  5
42C
330
1F
100
AcDbEntity
  8
0
  6
Continuous
 62
     7
370
    15
100
AcDbLine
 10
262.8603951629
 20
469.7214060035
 30
0.0
 11
261.610396355
 21
469.7214060035
 31
0.0
  0
LINE
  5
42D
330
1F
100
AcDbEntity
  8
0
  6
Continuous
 62
     7
370
    15
100
AcDbLine
 10
1160.0104050335
 20
528.5214029756
 30
0.0
 11
1158.7604062256
 21
528.5214029756
 31
0.0
  0
LINE
  5
42E
330
1F
100
AcDbEntity
  8
0
  6
Continuous
 62
     7
370
    15
100
AcDbLine
 10
1160.0104050335
 20
529.3214016166
 30
0.0
 11
1158.7604062256
 21
529.3214016166
 31
0.0
  0
LINE
  5
42F
330
1F
100
AcDbEntity
  8
0
  6
Continuous
 62
     7
370
    15
100
AcDbLine
 10
1160.0104050335
 20
529.3214016166
 30
0.0
 11
1160.0104050335
 21
528.5214029756
 31
0.0
  0
LINE
  5
430
330
1F
100
AcDbEntity
  8
0
  6
Continuous
 62
     7
370
    15
100
AcDbLine
 10
262.8603951629
 20
528.4214012828
 30
0.0
 11
261.610396355
 21
528.4214012828
 31
0.0
  0
LINE
  5
431
330
1F
100
AcDbEntity
  8
0
  6
Continuous
 62
     7
370
    15
100
AcDbLine
 10
261.610396355
 20
469.7314046827
 30
0.0
 11
262.8603951629
 21
469.7314046827
 31
0.0
  0
LINE
  5
432
330
1F
100
AcDbEntity
  8
0
  6
Continuous
 62
     7
370
    15
100
AcDbLine
 10
1160.0104050335
 20
528.4214012828
 30
0.0
 11
1158.7604062256
 21
528.4214012828
 31
0.0
  0
LINE
  5
433
330
1F
100
AcDbEntity
  8
0
  6
Continuous
 62
     7
370
    15
100
AcDbLine
 10
1158.7604062256
 20
469.7314046827
 30
0.0
 11
1160.0104050335
 21
469.7314046827
 31
0.0
  0
LINE
  5
434
330
1F
100
AcDbEntity
  8
0
  6
Continuous
 62
     7
370
    15
100
AcDbLine
 10
1090.8103959259
 20
529.3214016166
 30
0.0
 11
1090.8103959259
 21
530.5714004245
 31
0.0
  0
LINE
  5
435
330
1F
100
AcDbEntity
  8
0
  6
Continuous
 62
     7
370
    15
100
AcDbLine
 10
330.8104054626
 20
530.5714004245
 30
0.0
 11
330.8104054626
 21
529.3214016166
 31
0.0
  0
LINE
  5
436
330
1F
100
AcDbEntity
  8
0
  6
Continuous
 62
     7
370
    15
100
AcDbLine
 10
1090.8103959259
 20
558.1213079896
 30
0.0
 11
1090.8103959259
 21
548.3214103189
 31
0.0
  0
LINE
  5
437
330
1F
100
AcDbEntity
  8
0
  6
Continuous
 62
     7
370
    15
100
AcDbLine
 10
1090.8103959259
 20
548.3214103189
 30
0.0
 11
1088.7604133781
 21
548.3214103189
 31
0.0
  0
LINE
  5
438
330
1F
100
AcDbEntity
  8
0
  6
Continuous
 62
     7
370
    15
100
AcDbLine
 10
1090.8103959259
 20
530.5714004245
 30
0.0
 11
1090.8103959259
 21
547.9214035478
 31
0.0
  0
LINE
  5
439
330
1F
100
AcDbEntity
  8
0
  6
Continuous
 62
     7
370
    15
100
AcDbLine
 10
330.8104054626
 20
547.9214035478
 30
0.0
 11
330.8104054626
 21
530.5714004245
 31
0.0
  0
LINE
  5
43A
330
1F
100
AcDbEntity
  8
0
  6
Continuous
 62
     7
370
    15
100
AcDbLine
 10
330.8104054626
 20
547.9214035478
 30
0.0
 11
333.2603947815
 21
547.9214035478
 31
0.0
  0
LINE
  5
43B
330
1F
100
AcDbEntity
  8
0
  6
Continuous
 62
     7
370
    15
100
AcDbLine
 10
333.2603947815
 20
547.9214035478
 30
0.0
 11
333.2603947815
 21
548.3214103189
 31
0.0
  0
LINE
  5
43C
330
1F
100
AcDbEntity
  8
0
  6
Continuous
 62
     7
370
    15
100
AcDbLine
 10
333.2603947815
 20
548.3214103189
 30
0.0
 11
332.8604178127
 21
548.3214103189
 31
0.0
  0
LINE
  5
43D
330
1F
100
AcDbEntity
  8
0
  6
Continuous
 62
     7
370
    15
100
AcDbLine
 10
1088.360406607
 20
548.3214103189
 30
0.0
 11
1088.360406607
 21
547.9214035478
 31
0.0
  0
LINE
  5
43E
330
1F
100
AcDbEntity
  8
0
  6
Continuous
 62
     7
370
    15
100
AcDbLine
 10
1088.360406607
 20
547.9214035478
 30
0.0
 11
1090.8103959259
 21
547.9214035478
 31
0.0
  0
LINE
  5
43F
330
1F
100
AcDbEntity
  8
0
  6
Continuous
 62
     7
370
    15
100
AcDbLine
 10
1088.7604133781
 20
548.3214103189
 30
0.0
 11
1088.360406607
 21
548.3214103189
 31
0.0
  0
LINE
  5
440
330
1F
100
AcDbEntity
  8
0
  6
Continuous
 62
     7
370
    15
100
AcDbLine
 10
330.8104054626
 20
558.1213079896
 30
0.0
 11
330.8104054626
 21
548.3214103189
 31
0.0
  0
LINE
  5
441
330
1F
100
AcDbEntity
  8
0
  6
Continuous
 62
     7
370
    15
100
AcDbLine
 10
332.8604178127
 20
548.3214103189
 30
0.0
 11
330.8104054626
 21
548.3214103189
 31
0.0
  0
LINE
  5
442
330
1F
100
AcDbEntity
  8
0
  6
Continuous
 62
     7
370
    15
100
AcDbLine
 10
270.7603947815
 20
1134.72141256
 30
0.0
 11
270.7603947815
 21
1134.9788450208
 31
0.0
  0
LINE
  5
443
330
1F
100
AcDbEntity
  8
0
  6
Continuous
 62
     7
370
    15
100
AcDbLine
 10
329.5604066547
 20
998.1213354077
 30
0.0
 11
329.5604066547
 21
1012.4337219205
 31
0.0
  0
LINE
  5
444
330
1F
100
AcDbEntity
  8
0
  6
Continuous
 62
     7
370
    15
100
AcDbLine
 10
328.3104078468
 20
544.7214089837
 30
0.0
 11
327.9104010757
 21
544.7214089837
 31
0.0
  0
LINE
  5
445
330
1F
100
AcDbEntity
  8
0
  6
Continuous
 62
     7
370
    15
100
AcDbLine
 10
327.9104010757
 20
544.7214089837
 30
0.0
 11
327.9104010757
 21
544.3214022126
 31
0.0
  0
LINE
  5
446
330
1F
100
AcDbEntity
  8
0
  6
Continuous
 62
     7
370
    15
100
AcDbLine
 10
327.9104010757
 20
544.3214022126
 30
0.0
 11
329.5604066547
 21
544.3214022126
 31
0.0
  0
LINE
  5
447
330
1F
100
AcDbEntity
  8
0
  6
Continuous
 62
     7
370
    15
100
AcDbLine
 10
329.5604066547
 20
529.3214016166
 30
0.0
 11
329.5604066547
 21
544.3214022126
 31
0.0
  0
CIRCLE
  5
448
330
1F
100
AcDbEntity
  8
0
  6
Continuous
 62
     7
370
    15
100
AcDbCircle
 10
318.7604088789
 20
537.1214042901
 30
0.0
 40
5.0
  0
ARC
  5
449
330
1F
100
AcDbEntity
  8
0
  6
Continuous
 62
     7
370
    15
100
AcDbCircle
 10
318.7604088789
 20
1014.5214042901
 30
0.0
 40
5.000000000000066
100
AcDbArc
 50
204.6790533021
 51
335.3209466979
  0
ARC
  5
44A
330
1F
100
AcDbEntity
  8
0
  6
Continuous
 62
     7
370
    15
100
AcDbCircle
 10
278.7604088789
 20
1014.5214042901
 30
0.0
 40
5.000000000000023
100
AcDbArc
 50
204.6790533021
 51
335.3209466979
  0
ARC
  5
44B
330
1F
100
AcDbEntity
  8
0
  6
Continuous
 62
     7
370
    15
100
AcDbCircle
 10
318.7604088789
 20
550.3214042901
 30
0.0
 40
5.000000000000077
100
AcDbArc
 50
224.1465629839
 51
315.8534370162
  0
LINE
  5
44C
330
1F
100
AcDbEntity
  8
0
  6
Continuous
 62
     7
370
    15
100
AcDbLine
 10
260.7604043182
 20
470.9714048114
 30
0.0
 11
260.7604043182
 21
1012.4337219205
 31
0.0
  0
LINE
  5
44D
330
1F
100
AcDbEntity
  8
0
  6
Continuous
 62
     7
370
    15
100
AcDbLine
 10
330.3604201969
 20
544.7214089837
 30
0.0
 11
330.3604201969
 21
558.1213079896
 31
0.0
  0
LINE
  5
44E
330
1F
100
AcDbEntity
  8
0
  6
Continuous
 62
     7
370
    15
100
AcDbLine
 10
330.3604201969
 20
544.7214089837
 30
0.0
 11
328.3104078468
 21
544.7214089837
 31
0.0
  0
LWPOLYLINE
  5
44F
330
1F
100
AcDbEntity
  8
0
  6
Continuous
 62
     7
370
    15
100
AcDbPolyline
 90
        3
 70
   128
 43
0.0
 10
261.610396355
 20
469.3550758567
 10
261.3608317074
 20
469.5218347516
 10
261.2208203968
 20
469.7314046827
  0
LINE
  5
450
330
1F
100
AcDbEntity
  8
0
  6
Continuous
 62
     7
370
    15
100
AcDbLine
 10
260.8104126152
 20
470.7200371232
 30
0.0
 11
260.7604043182
 21
470.9714048114
 31
0.0
  0
LINE
  5
451
330
1F
100
AcDbEntity
  8
0
  6
Continuous
 62
     7
370
    15
100
AcDbLine
 10
1160.7604102787
 20
1012.4337219205
 30
0.0
 11
1160.7604102787
 21
528.4214012828
 31
0.0
  0
LINE
  5
452
330
1F
100
AcDbEntity
  8
0
  6
Continuous
 62
     7
370
    15
100
AcDbLine
 10
1091.9604079422
 20
544.3214022126
 30
0.0
 11
1091.9604079422
 21
529.3214016166
 31
0.0
  0
LINE
  5
453
330
1F
100
AcDbEntity
  8
0
  6
Continuous
 62
     7
370
    15
100
AcDbLine
 10
1091.9604079422
 20
544.3214022126
 30
0.0
 11
1093.6104135212
 21
544.3214022126
 31
0.0
  0
LINE
  5
454
330
1F
100
AcDbEntity
  8
0
  6
Continuous
 62
     7
370
    15
100
AcDbLine
 10
1093.6104135212
 20
544.3214022126
 30
0.0
 11
1093.6104135212
 21
544.7214089837
 31
0.0
  0
LINE
  5
455
330
1F
100
AcDbEntity
  8
0
  6
Continuous
 62
     7
370
    15
100
AcDbLine
 10
1093.6104135212
 20
544.7214089837
 30
0.0
 11
1093.2104067501
 21
544.7214089837
 31
0.0
  0
LINE
  5
456
330
1F
100
AcDbEntity
  8
0
  6
Continuous
 62
     7
370
    15
100
AcDbLine
 10
1091.9604079422
 20
1012.4337219205
 30
0.0
 11
1091.9604079422
 21
998.1213354077
 31
0.0
  0
LINE
  5
457
330
1F
100
AcDbEntity
  8
0
  6
Continuous
 62
     7
370
    15
100
AcDbLine
 10
1150.7604198154
 20
1134.9788450208
 30
0.0
 11
1150.7604198154
 21
1134.72141256
 31
0.0
  0
ARC
  5
458
330
1F
100
AcDbEntity
  8
0
  6
Continuous
 62
     7
370
    15
100
AcDbCircle
 10
1102.7604088789
 20
550.3214042901
 30
0.0
 40
5.000000000000149
100
AcDbArc
 50
224.146562984
 51
315.853437016
  0
ARC
  5
459
330
1F
100
AcDbEntity
  8
0
  6
Continuous
 62
     7
370
    15
100
AcDbCircle
 10
1102.7604088789
 20
1014.5214042901
 30
0.0
 40
5.000000000000233
100
AcDbArc
 50
204.6790533022
 51
335.3209466978
  0
ARC
  5
45A
330
1F
100
AcDbEntity
  8
0
  6
Continuous
 62
     7
370
    15
100
AcDbCircle
 10
1142.7604088789
 20
1014.5214042901
 30
0.0
 40
5.000000000000233
100
AcDbArc
 50
204.6790533022
 51
335.3209466978
  0
CIRCLE
  5
45B
330
1F
100
AcDbEntity
  8
0
  6
Continuous
 62
     7
370
    15
100
AcDbCircle
 10
1102.7604088789
 20
537.1214042901
 30
0.0
 40
5.000000000000227
  0
LINE
  5
45C
330
1F
100
AcDbEntity
  8
0
  6
Continuous
 62
     7
370
    15
100
AcDbLine
 10
1093.2104067501
 20
544.7214089837
 30
0.0
 11
1091.1603944
 21
544.7214089837
 31
0.0
  0
LINE
  5
45D
330
1F
100
AcDbEntity
  8
0
  6
Continuous
 62
     7
370
    15
100
AcDbLine
 10
1091.1603944
 20
558.1213079896
 30
0.0
 11
1091.1603944
 21
544.7214089837
 31
0.0
  0
LWPOLYLINE
  5
45E
330
1F
100
AcDbEntity
  8
0
  6
Continuous
 62
     7
370
    15
100
AcDbPolyline
 90
        3
 70
   128
 43
0.0
 10
1160.0104050335
 20
469.3987213578
 10
1160.0602345165
 20
469.4285162296
 10
1160.3013353046
 20
469.7314046827
  0
ARC
  5
45F
330
1F
100
AcDbEntity
  8
0
  6
Continuous
 62
     7
370
    15
100
AcDbCircle
 10
1035.7604088789
 20
1014.5214042901
 30
0.0
 40
4.000000000000091
100
AcDbArc
 50
211.4610377374
 51
328.5389622626
  0
ARC
  5
460
330
1F
100
AcDbEntity
  8
0
  6
Continuous
 62
     7
370
    15
100
AcDbCircle
 10
385.7604088789
 20
1014.5214042901
 30
0.0
 40
4.000000000000055
100
AcDbArc
 50
211.4610377373
 51
328.5389622627
  0
ARC
  5
461
330
1F
100
AcDbEntity
  8
0
  6
Continuous
 62
     7
370
    15
100
AcDbCircle
 10
710.7604088789
 20
1014.5214042901
 30
0.0
 40
4.000000000000029
100
AcDbArc
 50
211.4610377373
 51
328.5389622627
  0
LINE
  5
462
330
1F
100
AcDbEntity
  8
0
  6
Continuous
 62
     7
370
    15
100
AcDbLine
 10
699.5604086291
 20
998.1213354077
 30
0.0
 11
699.5604086291
 21
998.7447999921
 31
0.0
  0
LINE
  5
463
330
1F
100
AcDbEntity
  8
0
  6
Continuous
 62
     7
370
    15
100
AcDbLine
 10
700.7604084533
 20
998.1213354077
 30
0.0
 11
700.7604084533
 21
999.1213821378
 31
0.0
  0
LINE
  5
464
330
1F
100
AcDbEntity
  8
0
  6
Continuous
 62
     7
370
    15
100
AcDbLine
 10
721.9604087617
 20
998.7447999921
 30
0.0
 11
721.9604087617
 21
998.1213354077
 31
0.0
  0
LINE
  5
465
330
1F
100
AcDbEntity
  8
0
  6
Continuous
 62
     7
370
    15
100
AcDbLine
 10
720.7604089376
 20
999.1213821378
 30
0.0
 11
720.7604089376
 21
998.1213354077
 31
0.0
  0
LINE
  5
466
330
1F
100
AcDbEntity
  8
0
  6
Continuous
 62
     7
370
    15
100
AcDbLine
 10
1148.7604157623
 20
1134.72141256
 30
0.0
 11
1148.7604157623
 21
1134.9788450208
 31
0.0
  0
LWPOLYLINE
  5
467
330
1F
100
AcDbEntity
  8
0
  6
Continuous
 62
     7
370
    15
100
AcDbPolyline
 90
        3
 70
   128
 43
0.0
 10
1115.3617577251
 20
1135.2232240644
 10
1114.8034708198
 20
1134.8438405004
 10
1113.9604227241
 20
1134.2129849401
  0
LINE
  5
468
330
1F
100
AcDbEntity
  8
0
  6
Continuous
 62
     7
370
    15
100
AcDbLine
 10
272.7603988346
 20
1134.9788450208
 30
0.0
 11
272.7603988346
 21
1134.72141256
 31
0.0
  0
LINE
  5
469
330
1F
100
AcDbEntity
  8
0
  6
Continuous
 62
     7
370
    15
100
AcDbLine
 10
330.3604201969
 20
547.7214001622
 30
0.0
 11
330.8104054626
 21
547.7214001622
 31
0.0
  0
LINE
  5
46A
330
1F
100
AcDbEntity
  8
0
  6
Continuous
 62
     7
370
    15
100
AcDbLine
 10
1090.8103959259
 20
547.7214001622
 30
0.0
 11
1091.1603944
 21
547.7214001622
 31
0.0
  0
LINE
  5
46B
330
1F
100
AcDbEntity
  8
0
  6
Continuous
 62
     7
370
    15
100
AcDbLine
 10
1144.4058494266
 20
1012.1714018788
 30
0.0
 11
1144.557304829
 21
1012.4337219205
 31
0.0
  0
LINE
  5
46C
330
1F
100
AcDbEntity
  8
0
  6
Continuous
 62
     7
370
    15
100
AcDbLine
 10
1140.9635023769
 20
1012.4337219205
 30
0.0
 11
1141.1149577793
 21
1012.1714018788
 31
0.0
  0
ARC
  5
46D
330
1F
100
AcDbEntity
  8
0
  6
Continuous
 62
     7
370
    15
100
AcDbCircle
 10
1142.7604088789
 20
1015.0214042901
 30
0.0
 40
4.249999999999922
100
AcDbArc
 50
270.0
 51
322.4925490335
  0
ARC
  5
46E
330
1F
100
AcDbEntity
  8
0
  6
Continuous
 62
     7
370
    15
100
AcDbCircle
 10
1142.7604088789
 20
1015.0214042901
 30
0.0
 40
4.249999999999922
100
AcDbArc
 50
217.5074509665
 51
270.0
  0
LINE
  5
46F
330
1F
100
AcDbEntity
  8
0
  6
Continuous
 62
     7
370
    15
100
AcDbLine
 10
1141.1149577793
 20
1012.1714018788
 30
0.0
 11
1144.4058494266
 21
1012.1714018788
 31
0.0
  0
LINE
  5
470
330
1F
100
AcDbEntity
  8
0
  6
Continuous
 62
     7
370
    15
100
AcDbLine
 10
1104.4058577713
 20
1012.1714018788
 30
0.0
 11
1104.5573131737
 21
1012.4337219205
 31
0.0
  0
LINE
  5
471
330
1F
100
AcDbEntity
  8
0
  6
Continuous
 62
     7
370
    15
100
AcDbLine
 10
1100.9635107216
 20
1012.4337219205
 30
0.0
 11
1101.1149661239
 21
1012.1714018788
 31
0.0
  0
LINE
  5
472
330
1F
100
AcDbEntity
  8
0
  6
Continuous
 62
     7
370
    15
100
AcDbLine
 10
1101.1149661239
 20
1012.1714018788
 30
0.0
 11
1104.4058577713
 21
1012.1714018788
 31
0.0
  0
ARC
  5
473
330
1F
100
AcDbEntity
  8
0
  6
Continuous
 62
     7
370
    15
100
AcDbCircle
 10
1102.7604088789
 20
1015.0214042901
 30
0.0
 40
4.250000000000176
100
AcDbArc
 50
270.0
 51
322.4925490336
  0
ARC
  5
474
330
1F
100
AcDbEntity
  8
0
  6
Continuous
 62
     7
370
    15
100
AcDbCircle
 10
1102.7604088789
 20
1015.0214042901
 30
0.0
 40
4.250000000000114
100
AcDbArc
 50
217.5074509664
 51
270.0
  0
LINE
  5
475
330
1F
100
AcDbEntity
  8
0
  6
Continuous
 62
     7
370
    15
100
AcDbLine
 10
723.4162726995
 20
998.1213354077
 30
0.0
 11
722.4058575552
 21
999.871387383
 31
0.0
  0
LINE
  5
476
330
1F
100
AcDbEntity
  8
0
  6
Continuous
 62
     7
370
    15
100
AcDbLine
 10
719.1149603199
 20
999.871387383
 30
0.0
 11
718.1045451757
 21
998.1213354077
 31
0.0
  0
LINE
  5
477
330
1F
100
AcDbEntity
  8
0
  6
Continuous
 62
     7
370
    15
100
AcDbLine
 10
722.4058575552
 20
999.871387383
 30
0.0
 11
719.1149603199
 21
999.871387383
 31
0.0
  0
ARC
  5
478
330
1F
100
AcDbEntity
  8
0
  6
Continuous
 62
     7
370
    15
100
AcDbCircle
 10
720.7604088789
 20
997.0214042901
 30
0.0
 40
4.249999999999936
100
AcDbArc
 50
14.9990012348
 51
165.0009987652
  0
ARC
  5
479
330
1F
100
AcDbEntity
  8
0
  6
Continuous
 62
     7
370
    15
100
AcDbCircle
 10
720.7604088789
 20
997.0214042901
 30
0.0
 40
2.524999999999941
100
AcDbArc
 50
25.8239675258
 51
154.1760324742
  0
ARC
  5
47A
330
1F
100
AcDbEntity
  8
0
  6
Continuous
 62
     7
370
    15
100
AcDbCircle
 10
720.7604088789
 20
997.0214042901
 30
0.0
 40
2.10000000000005
100
AcDbArc
 50
31.5852330859
 51
148.4147669141
  0
LINE
  5
47B
330
1F
100
AcDbEntity
  8
0
  6
Continuous
 62
     7
370
    15
100
AcDbLine
 10
703.4162722152
 20
998.1213354077
 30
0.0
 11
702.4058570709
 21
999.871387383
 31
0.0
  0
LINE
  5
47C
330
1F
100
AcDbEntity
  8
0
  6
Continuous
 62
     7
370
    15
100
AcDbLine
 10
702.4058570709
 20
999.871387383
 30
0.0
 11
699.114960767
 21
999.871387383
 31
0.0
  0
LINE
  5
47D
330
1F
100
AcDbEntity
  8
0
  6
Continuous
 62
     7
370
    15
100
AcDbLine
 10
699.114960767
 20
999.871387383
 30
0.0
 11
698.1045456227
 21
998.1213354077
 31
0.0
  0
ARC
  5
47E
330
1F
100
AcDbEntity
  8
0
  6
Continuous
 62
     7
370
    15
100
AcDbCircle
 10
700.7604088789
 20
997.0214042901
 30
0.0
 40
4.250000000000127
100
AcDbArc
 50
14.9990012348
 51
165.0009987652
  0
ARC
  5
47F
330
1F
100
AcDbEntity
  8
0
  6
Continuous
 62
     7
370
    15
100
AcDbCircle
 10
700.7604088789
 20
997.0214042901
 30
0.0
 40
2.525000000000096
100
AcDbArc
 50
25.8239675258
 51
154.1760324742
  0
ARC
  5
480
330
1F
100
AcDbEntity
  8
0
  6
Continuous
 62
     7
370
    15
100
AcDbCircle
 10
700.7604088789
 20
997.0214042901
 30
0.0
 40
2.100000000000006
100
AcDbArc
 50
31.5852330859
 51
148.4147669141
  0
LINE
  5
481
330
1F
100
AcDbEntity
  8
0
  6
Continuous
 62
     7
370
    15
100
AcDbLine
 10
668.4162729975
 20
998.1213354077
 30
0.0
 11
667.4058587846
 21
999.871387383
 31
0.0
  0
LINE
  5
482
330
1F
100
AcDbEntity
  8
0
  6
Continuous
 62
     7
370
    15
100
AcDbLine
 10
667.4058587846
 20
999.871387383
 30
0.0
 11
664.1149596866
 21
999.871387383
 31
0.0
  0
LINE
  5
483
330
1F
100
AcDbEntity
  8
0
  6
Continuous
 62
     7
370
    15
100
AcDbLine
 10
664.1149596866
 20
999.871387383
 30
0.0
 11
663.1045454737
 21
998.1213354077
 31
0.0
  0
ARC
  5
484
330
1F
100
AcDbEntity
  8
0
  6
Continuous
 62
     7
370
    15
100
AcDbCircle
 10
665.7604088789
 20
997.0214042901
 30
0.0
 40
4.250000000000015
100
AcDbArc
 50
14.9990012349
 51
165.0009987651
  0
ARC
  5
485
330
1F
100
AcDbEntity
  8
0
  6
Continuous
 62
     7
370
    15
100
AcDbCircle
 10
665.7604088789
 20
997.0214042901
 30
0.0
 40
2.52500000000008
100
AcDbArc
 50
25.823967526
 51
154.176032474
  0
ARC
  5
486
330
1F
100
AcDbEntity
  8
0
  6
Continuous
 62
     7
370
    15
100
AcDbCircle
 10
665.7604088789
 20
997.0214042901
 30
0.0
 40
2.099999999999929
100
AcDbArc
 50
31.585233086
 51
148.414766914
  0
ARC
  5
487
330
1F
100
AcDbEntity
  8
0
  6
Continuous
 62
     7
370
    15
100
AcDbCircle
 10
318.7604088789
 20
1015.0214042901
 30
0.0
 40
4.249999999999986
100
AcDbArc
 50
270.0
 51
322.4925490335
  0
ARC
  5
488
330
1F
100
AcDbEntity
  8
0
  6
Continuous
 62
     7
370
    15
100
AcDbCircle
 10
318.7604088789
 20
1015.0214042901
 30
0.0
 40
4.24999999999994
100
AcDbArc
 50
217.5074509665
 51
270.0
  0
LINE
  5
489
330
1F
100
AcDbEntity
  8
0
  6
Continuous
 62
     7
370
    15
100
AcDbLine
 10
320.405848473
 20
1012.1714018788
 30
0.0
 11
320.5573038753
 21
1012.4337219205
 31
0.0
  0
LINE
  5
48A
330
1F
100
AcDbEntity
  8
0
  6
Continuous
 62
     7
370
    15
100
AcDbLine
 10
316.9635014232
 20
1012.4337219205
 30
0.0
 11
317.1149568256
 21
1012.1714018788
 31
0.0
  0
LINE
  5
48B
330
1F
100
AcDbEntity
  8
0
  6
Continuous
 62
     7
370
    15
100
AcDbLine
 10
317.1149568256
 20
1012.1714018788
 30
0.0
 11
320.405848473
 21
1012.1714018788
 31
0.0
  0
LINE
  5
48C
330
1F
100
AcDbEntity
  8
0
  6
Continuous
 62
     7
370
    15
100
AcDbLine
 10
276.9635097679
 20
1012.4337219205
 30
0.0
 11
277.1149651703
 21
1012.1714018788
 31
0.0
  0
LINE
  5
48D
330
1F
100
AcDbEntity
  8
0
  6
Continuous
 62
     7
370
    15
100
AcDbLine
 10
280.4058568176
 20
1012.1714018788
 30
0.0
 11
280.55731222
 21
1012.4337219205
 31
0.0
  0
ARC
  5
48E
330
1F
100
AcDbEntity
  8
0
  6
Continuous
 62
     7
370
    15
100
AcDbCircle
 10
278.7604088789
 20
1015.0214042901
 30
0.0
 40
4.249999999999979
100
AcDbArc
 50
270.0
 51
322.4925490336
  0
ARC
  5
48F
330
1F
100
AcDbEntity
  8
0
  6
Continuous
 62
     7
370
    15
100
AcDbCircle
 10
278.7604088789
 20
1015.0214042901
 30
0.0
 40
4.249999999999979
100
AcDbArc
 50
217.5074509664
 51
270.0
  0
LINE
  5
490
330
1F
100
AcDbEntity
  8
0
  6
Continuous
 62
     7
370
    15
100
AcDbLine
 10
277.1149651703
 20
1012.1714018788
 30
0.0
 11
280.4058568176
 21
1012.1714018788
 31
0.0
  0
LINE
  5
491
330
1F
100
AcDbEntity
  8
0
  6
Continuous
 62
     7
370
    15
100
AcDbLine
 10
754.1149595376
 20
999.871387383
 30
0.0
 11
753.1045453247
 21
998.1213354077
 31
0.0
  0
LINE
  5
492
330
1F
100
AcDbEntity
  8
0
  6
Continuous
 62
     7
370
    15
100
AcDbLine
 10
757.4058586355
 20
999.871387383
 30
0.0
 11
754.1149595376
 21
999.871387383
 31
0.0
  0
LINE
  5
493
330
1F
100
AcDbEntity
  8
0
  6
Continuous
 62
     7
370
    15
100
AcDbLine
 10
758.4162728485
 20
998.1213354077
 30
0.0
 11
757.4058586355
 21
999.871387383
 31
0.0
  0
ARC
  5
494
330
1F
100
AcDbEntity
  8
0
  6
Continuous
 62
     7
370
    15
100
AcDbCircle
 10
755.7604088789
 20
997.0214042901
 30
0.0
 40
4.249999999999957
100
AcDbArc
 50
14.9990012348
 51
165.0009987652
  0
ARC
  5
495
330
1F
100
AcDbEntity
  8
0
  6
Continuous
 62
     7
370
    15
100
AcDbCircle
 10
755.7604088789
 20
997.0214042901
 30
0.0
 40
2.525000000000099
100
AcDbArc
 50
25.8239675258
 51
154.1760324742
  0
ARC
  5
496
330
1F
100
AcDbEntity
  8
0
  6
Continuous
 62
     7
370
    15
100
AcDbCircle
 10
755.7604088789
 20
997.0214042901
 30
0.0
 40
2.100000000000006
100
AcDbArc
 50
31.5852330859
 51
148.4147669141
  0
LINE
  5
497
330
1F
100
AcDbEntity
  8
0
  6
Continuous
 62
     7
370
    15
100
AcDbLine
 10
1091.1603944
 20
544.7214089837
 30
0.0
 11
1090.8103959259
 21
544.7214089837
 31
0.0
  0
LINE
  5
498
330
1F
100
AcDbEntity
  8
0
  6
Continuous
 62
     7
370
    15
100
AcDbLine
 10
330.8104054626
 20
544.7214089837
 30
0.0
 11
330.3604201969
 21
544.7214089837
 31
0.0
  0
LINE
  5
499
330
1F
100
AcDbEntity
  8
0
  6
Continuous
 62
     7
370
    15
100
AcDbLine
 10
363.3104042705
 20
299.7214042154
 30
0.0
 11
310.3104011711
 21
299.7214042154
 31
0.0
  0
LINE
  5
49A
330
1F
100
AcDbEntity
  8
0
  6
Continuous
 62
     7
370
    15
100
AcDbLine
 10
365.3104083236
 20
305.7214014735
 30
0.0
 11
308.310397118
 21
305.7214014735
 31
0.0
  0
LINE
  5
49B
330
1F
100
AcDbEntity
  8
0
  6
Continuous
 62
     7
370
    15
100
AcDbLine
 10
1113.3104042705
 20
305.7214014735
 30
0.0
 11
1056.3104228672
 21
305.7214014735
 31
0.0
  0
LINE
  5
49C
330
1F
100
AcDbEntity
  8
0
  6
Continuous
 62
     7
370
    15
100
AcDbLine
 10
1111.3104002174
 20
299.7214042154
 30
0.0
 11
1058.310397118
 21
299.7214042154
 31
0.0
  0
LINE
  5
49D
330
1F
100
AcDbEntity
  8
0
  6
Continuous
 62
     7
370
    15
100
AcDbLine
 10
1129.8104004558
 20
467.7214019504
 30
0.0
 11
1129.8104004558
 21
468.9214073625
 31
0.0
  0
LINE
  5
49E
330
1F
100
AcDbEntity
  8
0
  6
Continuous
 62
     7
370
    15
100
AcDbLine
 10
1039.8103968796
 20
467.7214019504
 30
0.0
 11
1129.8104004558
 21
467.7214019504
 31
0.0
  0
LINE
  5
49F
330
1F
100
AcDbEntity
  8
0
  6
Continuous
 62
     7
370
    15
100
AcDbLine
 10
1039.8103968796
 20
467.7214019504
 30
0.0
 11
1039.8103968796
 21
468.9214073625
 31
0.0
  0
LINE
  5
4A0
330
1F
100
AcDbEntity
  8
0
  6
Continuous
 62
     7
370
    15
100
AcDbLine
 10
1115.7700495418
 20
373.721405169
 30
0.0
 11
1053.8507477936
 21
373.721405169
 31
0.0
  0
LINE
  5
4A1
330
1F
100
AcDbEntity
  8
0
  6
Continuous
 62
     7
370
    15
100
AcDbLine
 10
291.8104009327
 20
467.7214019504
 30
0.0
 11
291.8104009327
 21
468.9214073625
 31
0.0
  0
LINE
  5
4A2
330
1F
100
AcDbEntity
  8
0
  6
Continuous
 62
     7
370
    15
100
AcDbLine
 10
381.8104045089
 20
467.7214019504
 30
0.0
 11
381.8104045089
 21
468.9214073625
 31
0.0
  0
LINE
  5
4A3
330
1F
100
AcDbEntity
  8
0
  6
Continuous
 62
     7
370
    15
100
AcDbLine
 10
291.8104009327
 20
467.7214019504
 30
0.0
 11
381.8104045089
 21
467.7214019504
 31
0.0
  0
LINE
  5
4A4
330
1F
100
AcDbEntity
  8
0
  6
Continuous
 62
     7
370
    15
100
AcDbLine
 10
367.7700535949
 20
373.721405169
 30
0.0
 11
305.8507518467
 21
373.721405169
 31
0.0
  0
LINE
  5
4A5
330
1F
100
AcDbEntity
  8
0
  6
CENTERX2
 62
     7
370
     0
100
AcDbLine
 10
336.8104088789
 20
300.240655314
 30
0.0
 11
336.8104088789
 21
496.2214042901
 31
0.0
  0
LINE
  5
4A6
330
1F
100
AcDbEntity
  8
0
  6
CENTERX2
 62
     7
370
     0
100
AcDbLine
 10
1084.8104088789
 20
300.1807261112
 30
0.0
 11
1084.8104088789
 21
475.0381666224
 31
0.0
  0
ENDSEC
  0
SECTION
  2
OBJECTS
  0
DICTIONARY
  5
C
330
0
100
AcDbDictionary
281
     1
  3
ACAD_GROUP
350
D
  3
ACAD_LAYOUT
350
1A
  3
ACAD_MLINESTYLE
350
17
  3
ACAD_PLOTSETTINGS
350
19
  3
ACAD_PLOTSTYLENAME
350
E
  0
DICTIONARY
  5
D
102
{ACAD_REACTORS
330
C
102
}
330
C
100
AcDbDictionary
281
     1
  0
DICTIONARY
  5
1A
102
{ACAD_REACTORS
330
C
102
}
330
C
100
AcDbDictionary
281
     1
  3
Layout1
350
1E
  3
Layout2
350
26
  3
Model
350
22
  0
DICTIONARY
  5
17
102
{ACAD_REACTORS
330
C
102
}
330
C
100
AcDbDictionary
281
     1
  3
Standard
350
18
  0
DICTIONARY
  5
19
102
{ACAD_REACTORS
330
C
102
}
330
C
100
AcDbDictionary
281
     1
  0
ACDBDICTIONARYWDFLT
  5
E
102
{ACAD_REACTORS
330
C
102
}
330
C
100
AcDbDictionary
281
     1
  3
Normal
350
F
100
AcDbDictionaryWithDefault
340
F
  0
LAYOUT
  5
1E
102
{ACAD_REACTORS
330
1A
102
}
330
1A
100
AcDbPlotSettings
  1

  2
none_device
  4

  6

 40
0.0
 41
0.0
 42
0.0
 43
0.0
 44
0.0
 45
0.0
 46
0.0
 47
0.0
 48
0.0
 49
0.0
140
0.0
141
0.0
142
1.0
143
1.0
 70
   688
 72
     0
 73
     0
 74
     5
  7

 75
    16
147
1.0
148
0.0
149
0.0
100
AcDbLayout
  1
Layout1
 70
     1
 71
     1
 10
0.0
 20
0.0
 11
420.0
 21
297.0
 12
0.0
 22
0.0
 32
0.0
 14
1.0000000000E+20
 24
1.0000000000E+20
 34
1.0000000000E+20
 15
-1.0000000000E+20
 25
-1.0000000000E+20
 35
-1.0000000000E+20
146
0.0
 13
0.0
 23
0.0
 33
0.0
 16
1.0
 26
0.0
 36
0.0
 17
0.0
 27
1.0
 37
0.0
 76
     0
330
1B
  0
LAYOUT
  5
26
102
{ACAD_REACTORS
330
1A
102
}
330
1A
100
AcDbPlotSettings
  1

  2
none_device
  4

  6

 40
0.0
 41
0.0
 42
0.0
 43
0.0
 44
0.0
 45
0.0
 46
0.0
 47
0.0
 48
0.0
 49
0.0
140
0.0
141
0.0
142
1.0
143
1.0
 70
   688
 72
     0
 73
     0
 74
     5
  7

 75
    16
147
1.0
148
0.0
149
0.0
100
AcDbLayout
  1
Layout2
 70
     1
 71
     2
 10
0.0
 20
0.0
 11
0.0
 21
0.0
 12
0.0
 22
0.0
 32
0.0
 14
0.0
 24
0.0
 34
0.0
 15
0.0
 25
0.0
 35
0.0
146
0.0
 13
0.0
 23
0.0
 33
0.0
 16
1.0
 26
0.0
 36
0.0
 17
0.0
 27
1.0
 37
0.0
 76
     0
330
23
  0
LAYOUT
  5
22
102
{ACAD_REACTORS
330
1A
102
}
330
1A
100
AcDbPlotSettings
  1

  2
none_device
  4

  6

 40
0.0
 41
0.0
 42
0.0
 43
0.0
 44
0.0
 45
0.0
 46
0.0
 47
0.0
 48
0.0
 49
0.0
140
0.0
141
0.0
142
1.0
143
1.0
 70
  1712
 72
     0
 73
     0
 74
     0
  7

 75
     0
147
1.0
148
0.0
149
0.0
100
AcDbLayout
  1
Model
 70
     1
 71
     0
 10
0.0
 20
0.0
 11
1500.0
 21
1500.0
 12
0.0
 22
0.0
 32
0.0
 14
0.0
 24
0.0
 34
0.0
 15
1500.0
 25
1500.0
 35
0.0
146
0.0
 13
0.0
 23
0.0
 33
0.0
 16
1.0
 26
0.0
 36
0.0
 17
0.0
 27
1.0
 37
0.0
 76
     0
330
1F
331
29
  0
MLINESTYLE
  5
18
102
{ACAD_REACTORS
330
17
102
}
330
17
100
AcDbMlineStyle
  2
Standard
 70
     0
  3

 62
   256
 51
90.0
 52
90.0
 71
     2
 49
0.5
 62
   256
  6
BYLAYER
 49
-0.5
 62
   256
  6
BYLAYER
  0
ACDBPLACEHOLDER
  5
F
102
{ACAD_REACTORS
330
E
102
}
330
E
  0
ENDSEC
  0
EOF
