  0
SECTION
  2
HEADER
  9
$ACADVER
  1
AC1015
  9
$ACADMAINTVER
 70
     6
  9
$DWGCODEPAGE
  3
ANSI_1252
  9
$INSBASE
 10
0.0
 20
0.0
 30
0.0
  9
$EXTMIN
 10
0.0
 20
0.0
 30
0.0
  9
$EXTMAX
 10
2000.0
 20
2000.0
 30
0.0
  9
$LIMMIN
 10
0.0
 20
0.0
  9
$LIMMAX
 10
2000.0
 20
2000.0
  9
$ORTHOMODE
 70
     0
  9
$REGENMODE
 70
     1
  9
$FILLMODE
 70
     1
  9
$QTEXTMODE
 70
     0
  9
$MIRRTEXT
 70
     1
  9
$LTSCALE
 40
1.0
  9
$ATTMODE
 70
     1
  9
$TEXTSIZE
 40
3.5
  9
$TRACEWID
 40
1.0
  9
$TEXTSTYLE
  7
STANDARD
  9
$CLAYER
  8
0
  9
$CELTYPE
  6
ByLayer
  9
$CECOLOR
 62
   256
  9
$CELTSCALE
 40
1.0
  9
$DISPSILH
 70
     0
  9
$DIMSCALE
 40
1.0
  9
$DIMASZ
 40
3.302
  9
$DIMEXO
 40
1.0
  9
$DIMDLI
 40
3.75
  9
$DIMRND
 40
0.0
  9
$DIMDLE
 40
0.0
  9
$DIMEXE
 40
1.0
  9
$DIMTP
 40
0.0
  9
$DIMTM
 40
0.0
  9
$DIMTXT
 40
3.5
  9
$DIMCEN
 40
2.5
  9
$DIMTSZ
 40
0.0
  9
$DIMTOL
 70
     0
  9
$DIMLIM
 70
     0
  9
$DIMTIH
 70
     1
  9
$DIMTOH
 70
     1
  9
$DIMSE1
 70
     0
  9
$DIMSE2
 70
     0
  9
$DIMTAD
 70
     1
  9
$DIMZIN
 70
     0
  9
$DIMBLK
  1

  9
$DIMASO
 70
     1
  9
$DIMSHO
 70
     1
  9
$DIMPOST
  1

  9
$DIMAPOST
  1

  9
$DIMALT
 70
     0
  9
$DIMALTD
 70
     3
  9
$DIMALTF
 40
0.0393700787
  9
$DIMLFAC
 40
1.0
  9
$DIMTOFL
 70
     1
  9
$DIMTVP
 40
0.0
  9
$DIMTIX
 70
     0
  9
$DIMSOXD
 70
     0
  9
$DIMSAH
 70
     0
  9
$DIMBLK1
  1

  9
$DIMBLK2
  1

  9
$DIMSTYLE
  2
ISO-25
  9
$DIMCLRD
 70
     0
  9
$DIMCLRE
 70
     0
  9
$DIMCLRT
 70
     0
  9
$DIMTFAC
 40
1.0
  9
$DIMGAP
 40
1.524
  9
$DIMJUST
 70
     0
  9
$DIMSD1
 70
     0
  9
$DIMSD2
 70
     0
  9
$DIMTOLJ
 70
     0
  9
$DIMTZIN
 70
     0
  9
$DIMALTZ
 70
     0
  9
$DIMALTTZ
 70
     0
  9
$DIMUPT
 70
     0
  9
$DIMDEC
 70
     1
  9
$DIMTDEC
 70
     1
  9
$DIMALTU
 70
     2
  9
$DIMALTTD
 70
     3
  9
$DIMTXSTY
  7
STANDARD
  9
$DIMAUNIT
 70
     0
  9
$DIMADEC
 70
     1
  9
$DIMALTRND
 40
0.0
  9
$DIMAZIN
 70
     0
  9
$DIMDSEP
 70
    44
  9
$DIMATFIT
 70
     3
  9
$DIMFRAC
 70
     0
  9
$DIMLDRBLK
  1

  9
$DIMLUNIT
 70
     2
  9
$DIMLWD
 70
    -2
  9
$DIMLWE
 70
    -2
  9
$DIMTMOVE
 70
     0
  9
$LUNITS
 70
     2
  9
$LUPREC
 70
     1
  9
$SKETCHINC
 40
1.0
  9
$FILLETRAD
 40
10.0
  9
$AUNITS
 70
     0
  9
$AUPREC
 70
     1
  9
$MENU
  1
.
  9
$ELEVATION
 40
0.0
  9
$PELEVATION
 40
0.0
  9
$THICKNESS
 40
0.0
  9
$LIMCHECK
 70
     0
  9
$CHAMFERA
 40
10.0
  9
$CHAMFERB
 40
10.0
  9
$CHAMFERC
 40
20.0
  9
$CHAMFERD
 40
0.0
  9
$SKPOLY
 70
     0
  9
$TDCREATE
 40
2455671.283192454
  9
$TDUCREATE
 40
2455671.241525787
  9
$TDUPDATE
 40
2455671.283192465
  9
$TDUUPDATE
 40
2455671.241525799
  9
$TDINDWG
 40
0.0000000116
  9
$TDUSRTIMER
 40
0.0000000116
  9
$USRTIMER
 70
     1
  9
$ANGBASE
 50
0.0
  9
$ANGDIR
 70
     0
  9
$PDMODE
 70
     0
  9
$PDSIZE
 40
-1.0
  9
$PLINEWID
 40
0.0
  9
$SPLFRAME
 70
     0
  9
$SPLINETYPE
 70
     6
  9
$SPLINESEGS
 70
     8
  9
$HANDSEED
  5
314
  9
$SURFTAB1
 70
     6
  9
$SURFTAB2
 70
     6
  9
$SURFTYPE
 70
     6
  9
$SURFU
 70
     6
  9
$SURFV
 70
     6
  9
$UCSBASE
  2

  9
$UCSNAME
  2

  9
$UCSORG
 10
0.0
 20
0.0
 30
0.0
  9
$UCSXDIR
 10
1.0
 20
0.0
 30
0.0
  9
$UCSYDIR
 10
0.0
 20
1.0
 30
0.0
  9
$UCSORTHOREF
  2

  9
$UCSORTHOVIEW
 70
     0
  9
$UCSORGTOP
 10
0.0
 20
0.0
 30
0.0
  9
$UCSORGBOTTOM
 10
0.0
 20
0.0
 30
0.0
  9
$UCSORGLEFT
 10
0.0
 20
0.0
 30
0.0
  9
$UCSORGRIGHT
 10
0.0
 20
0.0
 30
0.0
  9
$UCSORGFRONT
 10
0.0
 20
0.0
 30
0.0
  9
$UCSORGBACK
 10
0.0
 20
0.0
 30
0.0
  9
$PUCSBASE
  2

  9
$PUCSNAME
  2

  9
$PUCSORG
 10
0.0
 20
0.0
 30
0.0
  9
$PUCSXDIR
 10
1.0
 20
0.0
 30
0.0
  9
$PUCSYDIR
 10
0.0
 20
1.0
 30
0.0
  9
$PUCSORTHOREF
  2

  9
$PUCSORTHOVIEW
 70
     0
  9
$PUCSORGTOP
 10
0.0
 20
0.0
 30
0.0
  9
$PUCSORGBOTTOM
 10
0.0
 20
0.0
 30
0.0
  9
$PUCSORGLEFT
 10
0.0
 20
0.0
 30
0.0
  9
$PUCSORGRIGHT
 10
0.0
 20
0.0
 30
0.0
  9
$PUCSORGFRONT
 10
0.0
 20
0.0
 30
0.0
  9
$PUCSORGBACK
 10
0.0
 20
0.0
 30
0.0
  9
$USERI1
 70
     0
  9
$USERI2
 70
     0
  9
$USERI3
 70
     0
  9
$USERI4
 70
     0
  9
$USERI5
 70
     0
  9
$USERR1
 40
0.0
  9
$USERR2
 40
0.0
  9
$USERR3
 40
0.0
  9
$USERR4
 40
0.0
  9
$USERR5
 40
0.0
  9
$WORLDVIEW
 70
     1
  9
$SHADEDGE
 70
     3
  9
$SHADEDIF
 70
    70
  9
$TILEMODE
 70
     1
  9
$MAXACTVP
 70
    64
  9
$PINSBASE
 10
0.0
 20
0.0
 30
0.0
  9
$PLIMCHECK
 70
     0
  9
$PEXTMIN
 10
1.0000000000E+20
 20
1.0000000000E+20
 30
1.0000000000E+20
  9
$PEXTMAX
 10
-1.0000000000E+20
 20
-1.0000000000E+20
 30
-1.0000000000E+20
  9
$PLIMMIN
 10
0.0
 20
0.0
  9
$PLIMMAX
 10
420.0
 20
297.0
  9
$UNITMODE
 70
     0
  9
$VISRETAIN
 70
     1
  9
$PLINEGEN
 70
     0
  9
$PSLTSCALE
 70
     1
  9
$TREEDEPTH
 70
  3020
  9
$CMLSTYLE
  2
Standard
  9
$CMLJUST
 70
     0
  9
$CMLSCALE
 40
20.0
  9
$PROXYGRAPHICS
 70
     1
  9
$MEASUREMENT
 70
     1
  9
$CELWEIGHT
370
    -1
  9
$ENDCAPS
280
     0
  9
$JOINSTYLE
280
     0
  9
$LWDISPLAY
290
     1
  9
$INSUNITS
 70
     4
  9
$HYPERLINKBASE
  1

  9
$STYLESHEET
  1

  9
$XEDIT
290
     1
  9
$CEPSNTYPE
380
     0
  9
$PSTYLEMODE
290
     1
  9
$FINGERPRINTGUID
  2
{3608422F-A387-48DE-8D57-D07DDE2EB3CB}
  9
$VERSIONGUID
  2
{FAEB1C32-E019-11D5-929B-00C0DF256EC4}
  9
$EXTNAMES
290
     1
  9
$PSVPSCALE
 40
0.0
  9
$OLESTARTUP
290
     0
  0
ENDSEC
  0
SECTION
  2
CLASSES
  0
CLASS
  1
ACDBDICTIONARYWDFLT
  2
AcDbDictionaryWithDefault
  3
ObjectDBX Classes
 90
        0
280
     0
281
     0
  0
CLASS
  1
VISUALSTYLE
  2
AcDbVisualStyle
  3
ObjectDBX Classes
 90
     4095
280
     0
281
     0
  0
CLASS
  1
MATERIAL
  2
AcDbMaterial
  3
ObjectDBX Classes
 90
     1153
280
     0
281
     0
  0
CLASS
  1
ACDBPLACEHOLDER
  2
AcDbPlaceHolder
  3
ObjectDBX Classes
 90
        0
280
     0
281
     0
  0
CLASS
  1
LAYOUT
  2
AcDbLayout
  3
ObjectDBX Classes
 90
        0
280
     0
281
     0
  0
ENDSEC
  0
SECTION
  2
TABLES
  0
TABLE
  2
VPORT
  5
8
330
0
100
AcDbSymbolTable
 70
     1
  0
VPORT
  5
29
330
8
100
AcDbSymbolTableRecord
100
AcDbViewportTableRecord
  2
*Active
 70
     0
 10
0.0
 20
0.0
 11
1.0
 21
1.0
 12
1000.0
 22
1000.0
 13
0.0
 23
0.0
 14
10.0
 24
10.0
 15
10.0
 25
10.0
 16
0.0
 26
0.0
 36
1.0
 17
0.0
 27
0.0
 37
0.0
 40
2000.0
 41
1.0
 42
50.0
 43
0.0
 44
0.0
 50
0.0
 51
0.0
 71
     0
 72
  2000
 73
     1
 74
     3
 75
     0
 76
     0
 77
     0
 78
     0
281
     0
 65
     1
110
0.0
120
0.0
130
0.0
111
1.0
121
0.0
131
0.0
112
0.0
122
1.0
132
0.0
 79
     0
146
0.0
  0
ENDTAB
  0
TABLE
  2
LTYPE
  5
5
330
0
100
AcDbSymbolTable
 70
     8
  0
LTYPE
  5
14
330
5
100
AcDbSymbolTableRecord
100
AcDbLinetypeTableRecord
  2
ByBlock
 70
     0
  3

 72
    65
 73
     0
 40
0.0
  0
LTYPE
  5
15
330
5
100
AcDbSymbolTableRecord
100
AcDbLinetypeTableRecord
  2
ByLayer
 70
     0
  3

 72
    65
 73
     0
 40
0.0
  0
LTYPE
  5
16
330
5
100
AcDbSymbolTableRecord
100
AcDbLinetypeTableRecord
  2
Continuous
 70
     0
  3
Solid line
 72
    65
 73
     0
 40
0.0
  0
LTYPE
  5
3F
330
5
100
AcDbSymbolTableRecord
100
AcDbLinetypeTableRecord
  2
SLD-Solid
 70
     0
  3
SolidWorks Line Style
 72
    65
 73
     0
 40
0.0
  0
LTYPE
  5
40
330
5
100
AcDbSymbolTableRecord
100
AcDbLinetypeTableRecord
  2
SLD-Dashed
 70
     0
  3
SolidWorks Line Style
 72
    65
 73
     2
 40
1.905
 49
1.27
 74
     0
 49
-0.635
 74
     0
  0
LTYPE
  5
41
330
5
100
AcDbSymbolTableRecord
100
AcDbLinetypeTableRecord
  2
SLD-Phantom
 70
     0
  3
SolidWorks Line Style
 72
    65
 73
     6
 40
12.7
 49
6.35
 74
     0
 49
-1.27
 74
     0
 49
1.27
 74
     0
 49
-1.27
 74
     0
 49
1.27
 74
     0
 49
-1.27
 74
     0
  0
LTYPE
  5
42
330
5
100
AcDbSymbolTableRecord
100
AcDbLinetypeTableRecord
  2
SLD-Chain
 70
     0
  3
SolidWorks Line Style
 72
    65
 73
     4
 40
10.16
 49
6.35
 74
     0
 49
-1.27
 74
     0
 49
1.27
 74
     0
 49
-1.27
 74
     0
  0
LTYPE
  5
43
330
5
100
AcDbSymbolTableRecord
100
AcDbLinetypeTableRecord
  2
SLD-Center
 70
     0
  3
SolidWorks Line Style
 72
    65
 73
     4
 40
19.05
 49
15.24
 74
     0
 49
-1.27
 74
     0
 49
1.27
 74
     0
 49
-1.27
 74
     0
  0
LTYPE
  5
44
330
5
100
AcDbSymbolTableRecord
100
AcDbLinetypeTableRecord
  2
SLD-Stitch
 70
     0
  3
SolidWorks Line Style
 72
    65
 73
     2
 40
0.635
 49
0.0
 74
     0
 49
-0.635
 74
     0
  0
LTYPE
  5
45
330
5
100
AcDbSymbolTableRecord
100
AcDbLinetypeTableRecord
  2
SLD-Thin-Thick-Chain
 70
     0
  3
SolidWorks Line Style
 72
    65
 73
     4
 40
10.16
 49
6.35
 74
     0
 49
-1.27
 74
     0
 49
1.27
 74
     0
 49
-1.27
 74
     0
  0
ENDTAB
  0
TABLE
  2
LAYER
  5
2
330
0
100
AcDbSymbolTable
 70
     4
  0
LAYER
  5
10
330
2
100
AcDbSymbolTableRecord
100
AcDbLayerTableRecord
  2
0
 70
     0
 62
     7
  6
Continuous
370
    -3
390
F
  0
LAYER
  5
46
330
2
100
AcDbSymbolTableRecord
100
AcDbLayerTableRecord
  2
FORMAT
 70
     0
 62
     7
  6
SLD-Solid
370
    -3
390
F
  0
LAYER
  5
47
330
2
100
AcDbSymbolTableRecord
100
AcDbLayerTableRecord
  2
SLD-0
 70
     0
 62
     1
  6
SLD-Solid
370
    -3
390
F
  0
LAYER
  5
48
330
2
100
AcDbSymbolTableRecord
100
AcDbLayerTableRecord
  2
WATERMARK
 70
     0
 62
    20
  6
SLD-Solid
370
    -3
390
F
  0
ENDTAB
  0
TABLE
  2
STYLE
  5
3
330
0
100
AcDbSymbolTable
 70
     1
  0
STYLE
  5
11
330
3
100
AcDbSymbolTableRecord
100
AcDbTextStyleTableRecord
  2
STANDARD
 70
     0
 40
0.0
 41
1.0
 50
0.0
 71
     0
 42
2.5
  3
GOTHIC.TTF
  4

1001
ACAD
1000
CENTURY GOTHIC
1071
       34
  0
ENDTAB
  0
TABLE
  2
VIEW
  5
6
330
0
100
AcDbSymbolTable
 70
     0
  0
ENDTAB
  0
TABLE
  2
UCS
  5
7
330
0
100
AcDbSymbolTable
 70
     0
  0
ENDTAB
  0
TABLE
  2
APPID
  5
9
330
0
100
AcDbSymbolTable
 70
     1
  0
APPID
  5
12
330
9
100
AcDbSymbolTableRecord
100
AcDbRegAppTableRecord
  2
ACAD
 70
     0
  0
ENDTAB
  0
TABLE
  2
DIMSTYLE
  5
A
330
0
100
AcDbSymbolTable
 70
     1
100
AcDbDimStyleTable
  0
DIMSTYLE
105
27
330
A
100
AcDbSymbolTableRecord
100
AcDbDimStyleTableRecord
  2
ISO-25
 70
     0
 41
2.5
 42
0.625
 43
3.75
 44
1.25
 73
     0
 74
     0
 77
     1
 78
     8
140
2.5
141
2.5
143
0.0393700787
147
0.625
171
     3
172
     1
271
     2
272
     2
274
     3
278
    44
283
     0
284
     8
340
11
  0
ENDTAB
  0
TABLE
  2
BLOCK_RECORD
  5
1
330
0
100
AcDbSymbolTable
 70
     1
  0
BLOCK_RECORD
  5
1F
330
1
100
AcDbSymbolTableRecord
100
AcDbBlockTableRecord
  2
*Model_Space
340
22
  0
BLOCK_RECORD
  5
1B
330
1
100
AcDbSymbolTableRecord
100
AcDbBlockTableRecord
  2
*Paper_Space
340
1E
  0
BLOCK_RECORD
  5
23
330
1
100
AcDbSymbolTableRecord
100
AcDbBlockTableRecord
  2
*Paper_Space0
340
26
  0
ENDTAB
  0
ENDSEC
  0
SECTION
  2
BLOCKS
  0
BLOCK
  5
20
330
1F
100
AcDbEntity
  8
0
100
AcDbBlockBegin
  2
*Model_Space
 70
     0
 10
0.0
 20
0.0
 30
0.0
  3
*Model_Space
  1

  0
ENDBLK
  5
21
330
1F
100
AcDbEntity
  8
0
100
AcDbBlockEnd
  0
BLOCK
  5
1C
330
1B
100
AcDbEntity
 67
     1
  8
0
100
AcDbBlockBegin
  2
*Paper_Space
 70
     0
 10
0.0
 20
0.0
 30
0.0
  3
*Paper_Space
  1

  0
ENDBLK
  5
1D
330
1B
100
AcDbEntity
 67
     1
  8
0
100
AcDbBlockEnd
  0
BLOCK
  5
24
330
23
100
AcDbEntity
  8
0
100
AcDbBlockBegin
  2
*Paper_Space0
 70
     0
 10
0.0
 20
0.0
 30
0.0
  3
*Paper_Space0
  1

  0
ENDBLK
  5
25
330
23
100
AcDbEntity
  8
0
100
AcDbBlockEnd
  0
ENDSEC
  0
SECTION
  2
ENTITIES
  0
LINE
  5
49
330
1F
100
AcDbEntity
  8
0
  6
SLD-Solid
 62
     7
370
    15
100
AcDbLine
 10
1318.8822462741
 20
1216.5470925438
 30
0.0
 11
1316.0290911379
 21
1215.6200615036
 31
0.0
  0
LINE
  5
4A
330
1F
100
AcDbEntity
  8
0
  6
SLD-Solid
 62
     7
370
    15
100
AcDbLine
 10
1322.1939697447
 20
1196.6464725601
 30
0.0
 11
1325.0471546832
 21
1197.5735036003
 31
0.0
  0
LWPOLYLINE
  5
4B
330
1F
100
AcDbEntity
  8
0
  6
SLD-Solid
 62
     7
370
    15
100
AcDbPolyline
 90
        3
 70
   128
 43
0.0
 10
1323.4560384932
 20
1215.8335057365
 10
1323.4234347525
 20
1215.8307043182
 10
1323.3276798907
 20
1215.8097234833
  0
ARC
  5
4C
330
1F
100
AcDbEntity
  8
0
  6
SLD-Solid
 62
     7
370
    15
100
AcDbCircle
 10
1328.0556525824
 20
1201.2585456659
 30
0.0
 40
0.5000000000001985
100
AcDbArc
 50
288.0
 51
18.0
  0
LINE
  5
4D
330
1F
100
AcDbEntity
  8
0
  6
SLD-Solid
 62
     7
370
    15
100
AcDbLine
 10
1323.3276798907
 20
1215.8097234833
 30
0.0
 11
1319.5234730425
 21
1214.5736423599
 31
0.0
  0
LINE
  5
4E
330
1F
100
AcDbEntity
  8
0
  6
SLD-Solid
 62
     7
370
    15
100
AcDbLine
 10
1324.4059279147
 20
1199.5469537842
 30
0.0
 11
1328.2101645651
 21
1200.7830349075
 31
0.0
  0
LINE
  5
4F
330
1F
100
AcDbEntity
  8
0
  6
SLD-Solid
 62
     7
370
    15
100
AcDbLine
 10
1327.4093761626
 20
1215.0067297088
 30
0.0
 11
1325.5072727385
 21
1214.3886891472
 31
0.0
  0
LINE
  5
50
330
1F
100
AcDbEntity
  8
0
  6
SLD-Solid
 62
     7
370
    15
100
AcDbLine
 10
1328.059931058
 20
1202.8634158241
 30
0.0
 11
1331.0403123084
 21
1203.8318124878
 31
0.0
  0
LWPOLYLINE
  5
51
330
1F
100
AcDbEntity
  8
0
  6
SLD-Solid
 62
     7
370
    15
100
AcDbPolyline
 90
        7
 70
   128
 43
0.0
 10
566.5242567244
 20
636.8559208977
 10
566.5246143523
 20
636.8640271293
 10
566.5433600131
 20
636.8935463297
 10
566.5869012061
 20
636.9277593958
 10
566.6491582575
 20
636.9553861486
 10
566.7330219927
 20
636.9723883736
 10
566.7731955233
 20
636.9723883736
  0
LINE
  5
52
330
1F
100
AcDbEntity
  8
0
  6
SLD-Solid
 62
     7
370
    15
100
AcDbLine
 10
566.7731955233
 20
636.974280821
 30
0.0
 11
571.8732073489
 21
636.974280821
 31
0.0
  0
ARC
  5
53
330
1F
100
AcDbEntity
  8
0
  6
SLD-Solid
 62
     7
370
    15
100
AcDbCircle
 10
571.8731993797
 20
637.2242784342
 30
0.0
 40
0.25
100
AcDbArc
 50
270.0
 51
0.0
  0
ARC
  5
54
330
1F
100
AcDbEntity
  8
0
  6
SLD-Solid
 62
     7
370
    15
100
AcDbCircle
 10
571.8731993797
 20
642.0504454064
 30
0.0
 40
0.2499999999998863
100
AcDbArc
 50
0.0
 51
90.0
  0
LINE
  5
55
330
1F
100
AcDbEntity
  8
0
  6
SLD-Solid
 62
     7
370
    15
100
AcDbLine
 10
571.8732073489
 20
642.30044757
 30
0.0
 11
566.7731955233
 21
642.30044757
 31
0.0
  0
ARC
  5
56
330
1F
100
AcDbEntity
  8
0
  6
SLD-Solid
 62
     7
370
    15
100
AcDbCircle
 10
565.5731993797
 20
641.7498690983
 30
0.0
 40
0.25
100
AcDbArc
 50
90.0
 51
180.0
  0
LINE
  5
57
330
1F
100
AcDbEntity
  8
0
  6
SLD-Solid
 62
     7
370
    15
100
AcDbLine
 10
565.8364191237
 20
641.9998762476
 30
0.0
 11
565.5732050124
 21
641.9998762476
 31
0.0
  0
ARC
  5
58
330
1F
100
AcDbEntity
  8
0
  6
SLD-Solid
 62
     7
370
    15
100
AcDbCircle
 10
571.8731993797
 20
624.5492927902
 30
0.0
 40
0.25
100
AcDbArc
 50
270.0
 51
0.0
  0
LINE
  5
59
330
1F
100
AcDbEntity
  8
0
  6
SLD-Solid
 62
     7
370
    15
100
AcDbLine
 10
567.3447146597
 20
624.2992935049
 30
0.0
 11
571.8732073489
 21
624.2992935049
 31
0.0
  0
LWPOLYLINE
  5
5A
330
1F
100
AcDbEntity
  8
0
  6
SLD-Solid
 62
     7
370
    15
100
AcDbPolyline
 90
        7
 70
   128
 43
0.0
 10
566.520799655
 20
628.9619264471
 10
566.520054597
 20
628.9398727285
 10
566.483725566
 20
628.8825479614
 10
566.4313330832
 20
628.8448480236
 10
566.3648142996
 20
628.8190094101
 10
566.2826492968
 20
628.8074163067
 10
566.2734999838
 20
628.8078931438
  0
LINE
  5
5B
330
1F
100
AcDbEntity
  8
0
  6
SLD-Solid
 62
     7
370
    15
100
AcDbLine
 10
566.2732019606
 20
628.8072523939
 30
0.0
 11
561.1731901351
 21
628.8072523939
 31
0.0
  0
ARC
  5
5C
330
1F
100
AcDbEntity
  8
0
  6
SLD-Solid
 62
     7
370
    15
100
AcDbCircle
 10
561.1731993797
 20
628.5572512029
 30
0.0
 40
0.2500000000001137
100
AcDbArc
 50
90.0
 51
180.0
  0
ARC
  5
5D
330
1F
100
AcDbEntity
  8
0
  6
SLD-Solid
 62
     7
370
    15
100
AcDbCircle
 10
561.1731993797
 20
624.1194299882
 30
0.0
 40
0.2500000000001137
100
AcDbArc
 50
180.0
 51
270.0
  0
LINE
  5
5E
330
1F
100
AcDbEntity
  8
0
  6
SLD-Solid
 62
     7
370
    15
100
AcDbLine
 10
561.1731901351
 20
623.8694322574
 30
0.0
 11
566.2732019606
 21
623.8694322574
 31
0.0
  0
ARC
  5
5F
330
1F
100
AcDbEntity
  8
0
  6
SLD-Solid
 62
     7
370
    15
100
AcDbCircle
 10
567.4731993797
 20
624.8498690983
 30
0.0
 40
0.25
100
AcDbArc
 50
301.0756875734
 51
0.0
  0
ARC
  5
60
330
1F
100
AcDbEntity
  8
0
  6
SLD-Solid
 62
     7
370
    15
100
AcDbCircle
 10
561.1731993797
 20
642.4803082083
 30
0.0
 40
0.25
100
AcDbArc
 50
90.0
 51
180.0
  0
LINE
  5
61
330
1F
100
AcDbEntity
  8
0
  6
SLD-Solid
 62
     7
370
    15
100
AcDbLine
 10
566.2732019606
 20
642.730301367
 30
0.0
 11
561.1731901351
 21
642.730301367
 31
0.0
  0
LINE
  5
62
330
1F
100
AcDbEntity
  8
0
  6
SLD-Solid
 62
     7
370
    15
100
AcDbLine
 10
573.1731846514
 20
628.2998678552
 30
0.0
 11
573.3695521536
 21
627.9597712027
 31
0.0
  0
LINE
  5
63
330
1F
100
AcDbEntity
  8
0
  6
SLD-Solid
 62
     7
370
    15
100
AcDbLine
 10
573.3695521536
 20
638.6399624216
 30
0.0
 11
573.1731846514
 21
638.2998732197
 31
0.0
  0
LINE
  5
64
330
1F
100
AcDbEntity
  8
0
  6
SLD-Solid
 62
     7
370
    15
100
AcDbLine
 10
572.9232027712
 20
638.2998732197
 30
0.0
 11
572.834987897
 21
638.4526399242
 31
0.0
  0
LINE
  5
65
330
1F
100
AcDbEntity
  8
0
  6
SLD-Solid
 62
     7
370
    15
100
AcDbLine
 10
572.834987897
 20
628.1470937001
 30
0.0
 11
572.9232027712
 21
628.2998678552
 31
0.0
  0
LINE
  5
66
330
1F
100
AcDbEntity
  8
0
  6
SLD-Solid
 62
     7
370
    15
100
AcDbLine
 10
567.7232041541
 20
628.2998678552
 30
0.0
 11
567.8114190283
 21
628.1470937001
 31
0.0
  0
LINE
  5
67
330
1F
100
AcDbEntity
  8
0
  6
SLD-Solid
 62
     7
370
    15
100
AcDbLine
 10
573.1731846514
 20
636.2998691666
 30
0.0
 11
572.9232027712
 21
636.2998691666
 31
0.0
  0
LINE
  5
68
330
1F
100
AcDbEntity
  8
0
  6
SLD-Solid
 62
     7
370
    15
100
AcDbLine
 10
572.9232027712
 20
630.2998719084
 30
0.0
 11
573.1731846514
 21
630.2998719084
 31
0.0
  0
LINE
  5
69
330
1F
100
AcDbEntity
  8
0
  6
SLD-Solid
 62
     7
370
    15
100
AcDbLine
 10
1319.4567158404
 20
1205.0708738434
 30
0.0
 11
1327.6679113093
 21
1207.7388373482
 31
0.0
  0
LINE
  5
6A
330
1F
100
AcDbEntity
  8
0
  6
SLD-Solid
 62
     7
370
    15
100
AcDbLine
 10
1324.8867585841
 20
1216.2983623611
 30
0.0
 11
1316.6755631152
 21
1213.6303988563
 31
0.0
  0
LINE
  5
6B
330
1F
100
AcDbEntity
  8
0
  6
SLD-Solid
 62
     7
370
    15
100
AcDbLine
 10
1338.2225229922
 20
1181.7273107635
 30
0.0
 11
1346.4970185938
 21
1188.6217204201
 31
0.0
  0
LINE
  5
6C
330
1F
100
AcDbEntity
  8
0
  6
SLD-Solid
 62
     7
370
    15
100
AcDbLine
 10
1320.6310763541
 20
1243.380209552
 30
0.0
 11
1318.136413354
 21
1243.5459700691
 31
0.0
  0
LINE
  5
6D
330
1F
100
AcDbEntity
  8
0
  6
SLD-Solid
 62
     7
370
    15
100
AcDbLine
 10
1328.8830414
 20
1242.8319064247
 30
0.0
 11
1325.6198957148
 21
1243.0487481224
 31
0.0
  0
LINE
  5
6E
330
1F
100
AcDbEntity
  8
0
  6
SLD-Solid
 62
     7
370
    15
100
AcDbLine
 10
1346.4970185938
 20
1188.6217204201
 30
0.0
 11
1362.2582152072
 21
1202.9270139801
 31
0.0
  0
LINE
  5
6F
330
1F
100
AcDbEntity
  8
0
  6
SLD-Solid
 62
     7
370
    15
100
AcDbLine
 10
1329.3800845328
 20
1242.777666198
 30
0.0
 11
1328.8830414
 21
1242.8319064247
 31
0.0
  0
ARC
  5
70
330
1F
100
AcDbEntity
  8
0
  6
SLD-Solid
 62
     7
370
    15
100
AcDbCircle
 10
1361.5861233169
 20
1203.6674810129
 30
0.0
 40
1.000000000000397
100
AcDbArc
 50
312.2277453179
 51
18.0
  0
LINE
  5
71
330
1F
100
AcDbEntity
  8
0
  6
SLD-Solid
 62
     7
370
    15
100
AcDbLine
 10
1328.4750178042
 20
1205.2548733818
 30
0.0
 11
1330.387909669
 21
1205.8397141563
 31
0.0
  0
LINE
  5
72
330
1F
100
AcDbEntity
  8
0
  6
SLD-Solid
 62
     7
370
    15
100
AcDbLine
 10
1325.6233825865
 20
1243.0585232841
 30
0.0
 11
1320.6289603892
 21
1243.3904019462
 31
0.0
  0
LINE
  5
73
330
1F
100
AcDbEntity
  8
0
  6
SLD-Solid
 62
     7
370
    15
100
AcDbLine
 10
578.1232013884
 20
1239.3998709785
 30
0.0
 11
577.2232010546
 21
1239.3998709785
 31
0.0
  0
LINE
  5
74
330
1F
100
AcDbEntity
  8
0
  6
SLD-Solid
 62
     7
370
    15
100
AcDbLine
 10
577.2232010546
 20
1207.3998657333
 30
0.0
 11
578.1232013884
 21
1207.3998657333
 31
0.0
  0
ARC
  5
75
330
1F
100
AcDbEntity
  8
0
  6
SLD-Solid
 62
     7
370
    15
100
AcDbCircle
 10
676.9231993797
 20
414.6998690983
 30
0.0
 40
2.0
100
AcDbArc
 50
270.0
 51
0.0
  0
ARC
  5
76
330
1F
100
AcDbEntity
  8
0
  6
SLD-Solid
 62
     7
370
    15
100
AcDbCircle
 10
623.9231993797
 20
414.6998690983
 30
0.0
 40
2.0
100
AcDbArc
 50
180.0
 51
270.0
  0
LINE
  5
77
330
1F
100
AcDbEntity
  8
0
  6
SLD-Solid
 62
     7
370
    15
100
AcDbLine
 10
678.9232089701
 20
414.699865626
 30
0.0
 11
678.9232089701
 21
418.6998662817
 31
0.0
  0
LINE
  5
78
330
1F
100
AcDbEntity
  8
0
  6
SLD-Solid
 62
     7
370
    15
100
AcDbLine
 10
621.9231977645
 20
418.6998662817
 30
0.0
 11
621.9231977645
 21
414.699865626
 31
0.0
  0
LINE
  5
79
330
1F
100
AcDbEntity
  8
0
  6
SLD-Solid
 62
     7
370
    15
100
AcDbLine
 10
1267.9231956187
 20
414.699865626
 30
0.0
 11
1267.9231956187
 21
418.6998662817
 31
0.0
  0
LINE
  5
7A
330
1F
100
AcDbEntity
  8
0
  6
SLD-Solid
 62
     7
370
    15
100
AcDbLine
 10
1210.9231993142
 20
418.6998662817
 30
0.0
 11
1210.9231993142
 21
414.699865626
 31
0.0
  0
ARC
  5
7B
330
1F
100
AcDbEntity
  8
0
  6
SLD-Solid
 62
     7
370
    15
100
AcDbCircle
 10
1265.9231993797
 20
414.6998690983
 30
0.0
 40
2.0
100
AcDbArc
 50
270.0
 51
0.0
  0
ARC
  5
7C
330
1F
100
AcDbEntity
  8
0
  6
SLD-Solid
 62
     7
370
    15
100
AcDbCircle
 10
1212.9231993797
 20
414.6998690983
 30
0.0
 40
2.0
100
AcDbArc
 50
180.0
 51
270.0
  0
LINE
  5
7D
330
1F
100
AcDbEntity
  8
0
  6
SLD-Solid
 62
     7
370
    15
100
AcDbLine
 10
678.7232055846
 20
418.6998662817
 30
0.0
 11
678.7232055846
 21
486.6998699772
 31
0.0
  0
LINE
  5
7E
330
1F
100
AcDbEntity
  8
0
  6
SLD-Solid
 62
     7
370
    15
100
AcDbLine
 10
622.12320115
 20
486.6998699772
 30
0.0
 11
622.12320115
 21
418.6998662817
 31
0.0
  0
LINE
  5
7F
330
1F
100
AcDbEntity
  8
0
  6
SLD-Solid
 62
     7
370
    15
100
AcDbLine
 10
1267.7231922331
 20
418.6998662817
 30
0.0
 11
1267.7231922331
 21
486.6998699772
 31
0.0
  0
LINE
  5
80
330
1F
100
AcDbEntity
  8
0
  6
SLD-Solid
 62
     7
370
    15
100
AcDbLine
 10
1211.1232026997
 20
486.6998699772
 30
0.0
 11
1211.1232026997
 21
418.6998662817
 31
0.0
  0
ARC
  5
81
330
1F
100
AcDbEntity
  8
0
  6
SLD-Solid
 62
     7
370
    15
100
AcDbCircle
 10
683.8231993797
 20
579.1998690983
 30
0.0
 40
1.5
100
AcDbArc
 50
90.0
 51
180.0
  0
ARC
  5
82
330
1F
100
AcDbEntity
  8
0
  6
SLD-Solid
 62
     7
370
    15
100
AcDbCircle
 10
617.0231993797
 20
579.1998690983
 30
0.0
 40
1.500000000000114
100
AcDbArc
 50
0.0
 51
90.0
  0
ARC
  5
83
330
1F
100
AcDbEntity
  8
0
  6
SLD-Solid
 62
     7
370
    15
100
AcDbCircle
 10
677.6231993797
 20
492.732435044
 30
0.0
 40
4.700000000000045
100
AcDbArc
 50
350.5402980318
 51
0.0
  0
ARC
  5
84
330
1F
100
AcDbEntity
  8
0
  6
SLD-Solid
 62
     7
370
    15
100
AcDbCircle
 10
623.2231993797
 20
492.732435044
 30
0.0
 40
4.699999999999932
100
AcDbArc
 50
180.0
 51
189.4597019682
  0
LINE
  5
85
330
1F
100
AcDbEntity
  8
0
  6
SLD-Solid
 62
     7
370
    15
100
AcDbLine
 10
682.3232069197
 20
492.7324346545
 30
0.0
 11
682.3232069197
 21
579.1998711693
 31
0.0
  0
LINE
  5
86
330
1F
100
AcDbEntity
  8
0
  6
SLD-Solid
 62
     7
370
    15
100
AcDbLine
 10
618.5231998149
 20
579.1998711693
 30
0.0
 11
618.5231998149
 21
492.7324346545
 31
0.0
  0
LINE
  5
87
330
1F
100
AcDbEntity
  8
0
  6
SLD-Solid
 62
     7
370
    15
100
AcDbLine
 10
618.5871257964
 20
491.9599714967
 30
0.0
 11
619.4635524932
 21
486.6998699772
 31
0.0
  0
LINE
  5
88
330
1F
100
AcDbEntity
  8
0
  6
SLD-Solid
 62
     7
370
    15
100
AcDbLine
 10
681.3828542414
 20
486.6998699772
 30
0.0
 11
682.2592809382
 21
491.9599714967
 31
0.0
  0
ARC
  5
89
330
1F
100
AcDbEntity
  8
0
  6
SLD-Solid
 62
     7
370
    15
100
AcDbCircle
 10
1272.8231993797
 20
579.1998690983
 30
0.0
 40
1.5
100
AcDbArc
 50
90.0
 51
180.0
  0
ARC
  5
8A
330
1F
100
AcDbEntity
  8
0
  6
SLD-Solid
 62
     7
370
    15
100
AcDbCircle
 10
1206.0231993797
 20
579.1998690983
 30
0.0
 40
1.5
100
AcDbArc
 50
0.0
 51
90.0
  0
ARC
  5
8B
330
1F
100
AcDbEntity
  8
0
  6
SLD-Solid
 62
     7
370
    15
100
AcDbCircle
 10
1266.6231993797
 20
492.732435044
 30
0.0
 40
4.700000000000273
100
AcDbArc
 50
350.5402980318
 51
0.0
  0
ARC
  5
8C
330
1F
100
AcDbEntity
  8
0
  6
SLD-Solid
 62
     7
370
    15
100
AcDbCircle
 10
1212.2231993797
 20
492.732435044
 30
0.0
 40
4.700000000000045
100
AcDbArc
 50
180.0
 51
189.4597019682
  0
LINE
  5
8D
330
1F
100
AcDbEntity
  8
0
  6
SLD-Solid
 62
     7
370
    15
100
AcDbLine
 10
1271.3231935683
 20
492.7324346545
 30
0.0
 11
1271.3231935683
 21
579.1998711693
 31
0.0
  0
LINE
  5
8E
330
1F
100
AcDbEntity
  8
0
  6
SLD-Solid
 62
     7
370
    15
100
AcDbLine
 10
1207.5232013646
 20
579.1998711693
 30
0.0
 11
1207.5232013646
 21
492.7324346545
 31
0.0
  0
LINE
  5
8F
330
1F
100
AcDbEntity
  8
0
  6
SLD-Solid
 62
     7
370
    15
100
AcDbLine
 10
1207.5871124449
 20
491.9599714967
 30
0.0
 11
1208.4635540429
 21
486.6998699772
 31
0.0
  0
LINE
  5
90
330
1F
100
AcDbEntity
  8
0
  6
SLD-Solid
 62
     7
370
    15
100
AcDbLine
 10
1270.38284089
 20
486.6998699772
 30
0.0
 11
1271.2592973891
 21
491.9599714967
 31
0.0
  0
LWPOLYLINE
  5
91
330
1F
100
AcDbEntity
  8
0
  6
SLD-Solid
 62
     7
370
    15
100
AcDbPolyline
 90
        5
 70
   128
 43
0.0
 10
1344.7243764582
 20
1047.1261349785
 10
1348.9282324496
 20
1047.1266714203
 10
1364.377070922
 20
1047.2278205025
 10
1373.9115491095
 20
1047.1535531151
 10
1379.3072297755
 20
1046.9601956474
  0
LWPOLYLINE
  5
92
330
1F
100
AcDbEntity
  8
0
  6
SLD-Solid
 62
     7
370
    15
100
AcDbPolyline
 90
        5
 70
   128
 43
0.0
 10
1379.303117055
 20
1076.4228311645
 10
1373.0583980265
 20
1076.2297121155
 10
1363.7467220011
 20
1076.1735645401
 10
1352.7272536936
 20
1076.2512293922
 10
1344.7232141677
 20
1076.2621370422
  0
LWPOLYLINE
  5
93
330
1F
100
AcDbEntity
  8
0
  6
SLD-Solid
 62
     7
370
    15
100
AcDbPolyline
 90
       15
 70
   128
 43
0.0
 10
1380.8468475524
 20
1047.1464005577
 10
1380.8307841006
 20
1047.1452680694
 10
1381.0229792777
 20
1047.1408573257
 10
1381.5434470358
 20
1047.1213666069
 10
1382.0390894595
 20
1047.1118894684
 10
1382.3044791403
 20
1047.1117106544
 10
1382.530559558
 20
1047.1116510498
 10
1385.3500082675
 20
1047.1110550033
 10
1387.8553703013
 20
1047.1105781662
 10
1390.0461092177
 20
1047.1102205383
 10
1391.9224932376
 20
1047.1099821197
 10
1393.4844031516
 20
1047.1099225151
 10
1393.6624422255
 20
1047.1099225151
 10
1393.8413157645
 20
1047.1114722359
 10
1393.8253119174
 20
1047.1113530266
  0
LWPOLYLINE
  5
94
330
1F
100
AcDbEntity
  8
0
  6
SLD-Solid
 62
     7
370
    15
100
AcDbPolyline
 90
       18
 70
   128
 43
0.0
 10
1394.0208449545
 20
1076.2382951843
 10
1394.0382793131
 20
1076.2369242775
 10
1393.8242390338
 20
1076.2565342056
 10
1393.2971849623
 20
1076.2863961326
 10
1393.0827870551
 20
1076.2897339928
 10
1393.0170431319
 20
1076.2897935974
 10
1392.9743960085
 20
1076.2897935974
 10
1391.3013532343
 20
1076.2896743881
 10
1389.3134489241
 20
1076.2893763649
 10
1387.0111003104
 20
1076.289018737
 10
1384.3954100791
 20
1076.2884822952
 10
1381.4651861373
 20
1076.2878862488
 10
1380.4738416854
 20
1076.2847272026
 10
1380.3919449034
 20
1076.2832370865
 10
1380.6049122992
 20
1076.2768593895
 10
1381.1387016955
 20
1076.2176123726
 10
1381.4816072169
 20
1076.147398101
 10
1381.6017999831
 20
1076.1147347557
  0
LINE
  5
95
330
1F
100
AcDbEntity
  8
0
  6
SLD-Solid
 62
     7
370
    15
100
AcDbLine
 10
1384.7194805327
 20
1048.3831373321
 30
0.0
 11
1384.6956386748
 21
1048.3886805641
 31
0.0
  0
ARC
  5
96
330
1F
100
AcDbEntity
  8
0
  6
SLD-Solid
 62
     7
370
    15
100
AcDbCircle
 10
1382.8723292526
 20
1428.240683691
 30
0.0
 40
351.960815554358
100
AcDbArc
 50
269.4345847422
 51
271.7887821748
  0
LWPOLYLINE
  5
97
330
1F
100
AcDbEntity
  8
0
  6
SLD-Solid
 62
     7
370
    15
100
AcDbPolyline
 90
        3
 70
   128
 43
0.0
 10
1375.2081289473
 20
1076.2961712944
 10
1361.4290251914
 20
1076.296409713
 10
1344.7244658652
 20
1076.2965885269
  0
LWPOLYLINE
  5
98
330
1F
100
AcDbEntity
  8
0
  6
SLD-Solid
 62
     7
370
    15
100
AcDbPolyline
 90
        3
 70
   128
 43
0.0
 10
1344.7230949584
 20
1047.1031275856
 10
1368.4386804286
 20
1047.1034256088
 10
1375.3555014315
 20
1047.1018162834
  0
LWPOLYLINE
  5
99
330
1F
100
AcDbEntity
  8
0
  6
SLD-Solid
 62
     7
370
    15
100
AcDbPolyline
 90
        4
 70
   128
 43
0.0
 10
1380.0318732443
 20
1047.1006837952
 10
1385.773350257
 20
1047.099372493
 10
1393.9869001093
 20
1046.9433275329
 10
1394.0726413909
 20
1046.9405261146
  0
ARC
  5
9A
330
1F
100
AcDbEntity
  8
0
  6
SLD-Solid
 62
     7
370
    15
100
AcDbCircle
 10
1394.1563087935
 20
1069.5513711737
 30
0.0
 40
6.901591421820601
100
AcDbArc
 50
12.4404712316
 51
93.1641501641
  0
ARC
  5
9B
330
1F
100
AcDbEntity
  8
0
  6
SLD-Solid
 62
     7
370
    15
100
AcDbCircle
 10
1394.1564111248
 20
1053.8482325506
 30
0.0
 40
6.901425340489163
100
AcDbArc
 50
266.8349227596
 51
347.5606868137
  0
ARC
  5
9C
330
1F
100
AcDbEntity
  8
0
  6
SLD-Solid
 62
     7
370
    15
100
AcDbCircle
 10
1355.6630340008
 20
1061.6998690984
 30
0.0
 40
46.24999970944311
100
AcDbArc
 50
348.5111848764
 51
11.4945663561
  0
LINE
  5
9D
330
1F
100
AcDbEntity
  8
0
  6
SLD-Solid
 62
     7
370
    15
100
AcDbLine
 10
1326.2232139292
 20
587.1998724806
 30
0.0
 11
1326.2232139292
 21
585.6998694407
 31
0.0
  0
LINE
  5
9E
330
1F
100
AcDbEntity
  8
0
  6
SLD-Solid
 62
     7
370
    15
100
AcDbLine
 10
1343.2232036772
 20
585.6998694407
 30
0.0
 11
1343.2232036772
 21
587.1998724806
 31
0.0
  0
LINE
  5
9F
330
1F
100
AcDbEntity
  8
0
  6
SLD-Solid
 62
     7
370
    15
100
AcDbLine
 10
1343.2232036772
 20
587.1998724806
 30
0.0
 11
1342.7232101145
 21
587.6998660433
 31
0.0
  0
LINE
  5
A0
330
1F
100
AcDbEntity
  8
0
  6
SLD-Solid
 62
     7
370
    15
100
AcDbLine
 10
1326.7232074919
 20
587.6998660433
 30
0.0
 11
1326.2232139292
 21
587.1998724806
 31
0.0
  0
LINE
  5
A1
330
1F
100
AcDbEntity
  8
0
  6
SLD-Solid
 62
     7
370
    15
100
AcDbLine
 10
1326.2232139292
 20
585.6998694407
 30
0.0
 11
1326.7232074919
 21
585.1998684275
 31
0.0
  0
LINE
  5
A2
330
1F
100
AcDbEntity
  8
0
  6
SLD-Solid
 62
     7
370
    15
100
AcDbLine
 10
1342.7232101145
 20
585.1998684275
 30
0.0
 11
1343.2232036772
 21
585.6998694407
 31
0.0
  0
LINE
  5
A3
330
1F
100
AcDbEntity
  8
0
  6
SLD-Solid
 62
     7
370
    15
100
AcDbLine
 10
1328.22318818
 20
588.5705781447
 30
0.0
 11
1328.22318818
 21
588.4998721349
 31
0.0
  0
LINE
  5
A4
330
1F
100
AcDbEntity
  8
0
  6
SLD-Solid
 62
     7
370
    15
100
AcDbLine
 10
1341.2231996241
 20
588.4998721349
 30
0.0
 11
1341.2231996241
 21
588.5705781447
 31
0.0
  0
LINE
  5
A5
330
1F
100
AcDbEntity
  8
0
  6
SLD-Solid
 62
     7
370
    15
100
AcDbLine
 10
1343.2232036772
 20
1112.1998635399
 30
0.0
 11
1343.2232036772
 21
1113.6998740303
 31
0.0
  0
LINE
  5
A6
330
1F
100
AcDbEntity
  8
0
  6
SLD-Solid
 62
     7
370
    15
100
AcDbLine
 10
1326.2232139292
 20
1113.6998740303
 30
0.0
 11
1326.2232139292
 21
1112.1998635399
 31
0.0
  0
LINE
  5
A7
330
1F
100
AcDbEntity
  8
0
  6
SLD-Solid
 62
     7
370
    15
100
AcDbLine
 10
1343.2232036772
 20
1113.6998740303
 30
0.0
 11
1342.7232101145
 21
1114.1998973953
 31
0.0
  0
LINE
  5
A8
330
1F
100
AcDbEntity
  8
0
  6
SLD-Solid
 62
     7
370
    15
100
AcDbLine
 10
1326.7232074919
 20
1114.1998973953
 30
0.0
 11
1326.2232139292
 21
1113.6998740303
 31
0.0
  0
LINE
  5
A9
330
1F
100
AcDbEntity
  8
0
  6
SLD-Solid
 62
     7
370
    15
100
AcDbLine
 10
1326.2232139292
 20
1112.1998635399
 30
0.0
 11
1326.7232074919
 21
1111.6998401749
 31
0.0
  0
LINE
  5
AA
330
1F
100
AcDbEntity
  8
0
  6
SLD-Solid
 62
     7
370
    15
100
AcDbLine
 10
1342.7232101145
 20
1111.6998401749
 30
0.0
 11
1343.2232036772
 21
1112.1998635399
 31
0.0
  0
LINE
  5
AB
330
1F
100
AcDbEntity
  8
0
  6
SLD-Solid
 62
     7
370
    15
100
AcDbLine
 10
1341.2231996241
 20
1110.829135524
 30
0.0
 11
1341.2231996241
 21
1110.8998862373
 31
0.0
  0
LINE
  5
AC
330
1F
100
AcDbEntity
  8
0
  6
SLD-Solid
 62
     7
370
    15
100
AcDbLine
 10
1328.22318818
 20
1110.8998862373
 30
0.0
 11
1328.22318818
 21
1110.829135524
 31
0.0
  0
LINE
  5
AD
330
1F
100
AcDbEntity
  8
0
  6
SLD-Solid
 62
     7
370
    15
100
AcDbLine
 10
1342.7232101145
 20
582.6998708116
 30
0.0
 11
1342.7232101145
 21
585.1998684275
 31
0.0
  0
LINE
  5
AE
330
1F
100
AcDbEntity
  8
0
  6
SLD-Solid
 62
     7
370
    15
100
AcDbLine
 10
1342.7232101145
 20
1114.9998513328
 30
0.0
 11
1342.7232101145
 21
1117.4998489487
 31
0.0
  0
LINE
  5
AF
330
1F
100
AcDbEntity
  8
0
  6
SLD-Solid
 62
     7
370
    15
100
AcDbLine
 10
1338.6231854144
 20
582.1998697984
 30
0.0
 11
1338.6231854144
 21
582.6998708116
 31
0.0
  0
LINE
  5
B0
330
1F
100
AcDbEntity
  8
0
  6
SLD-Solid
 62
     7
370
    15
100
AcDbLine
 10
1330.8232023898
 20
582.6998708116
 30
0.0
 11
1330.8232023898
 21
582.1998697984
 31
0.0
  0
LINE
  5
B1
330
1F
100
AcDbEntity
  8
0
  6
SLD-Solid
 62
     7
370
    15
100
AcDbLine
 10
1329.7231986704
 20
1114.9998513328
 30
0.0
 11
1329.7231986704
 21
1114.1998973953
 31
0.0
  0
LINE
  5
B2
330
1F
100
AcDbEntity
  8
0
  6
SLD-Solid
 62
     7
370
    15
100
AcDbLine
 10
1339.7231891337
 20
1114.1998973953
 30
0.0
 11
1339.7231891337
 21
1114.9998513328
 31
0.0
  0
LINE
  5
B3
330
1F
100
AcDbEntity
  8
0
  6
SLD-Solid
 62
     7
370
    15
100
AcDbLine
 10
1330.8232023898
 20
1117.9998723137
 30
0.0
 11
1330.8232023898
 21
1117.4998489487
 31
0.0
  0
LINE
  5
B4
330
1F
100
AcDbEntity
  8
0
  6
SLD-Solid
 62
     7
370
    15
100
AcDbLine
 10
1338.6231854144
 20
1117.4998489487
 30
0.0
 11
1338.6231854144
 21
1117.9998723137
 31
0.0
  0
LWPOLYLINE
  5
B5
330
1F
100
AcDbEntity
  8
0
  6
SLD-Solid
 62
     7
370
    15
100
AcDbPolyline
 90
        9
 70
   128
 43
0.0
 10
1342.3025801364
 20
1118.6838952171
 10
1343.219210166
 20
1119.0175620186
 10
1344.1006138507
 20
1119.3383542168
 10
1344.9129059497
 20
1119.6339932548
 10
1345.6249132338
 20
1119.8931542503
 10
1346.2092175665
 20
1120.1058236229
 10
1346.6434076014
 20
1120.2638355362
 10
1346.9107642356
 20
1120.3611699211
 10
1347.0010354701
 20
1120.3940120804
  0
LINE
  5
B6
330
1F
100
AcDbEntity
  8
0
  6
SLD-Solid
 62
     7
370
    15
100
AcDbLine
 10
1347.0010354701
 20
1120.3940120804
 30
0.0
 11
1347.6850881758
 21
1118.514618026
 31
0.0
  0
LWPOLYLINE
  5
B7
330
1F
100
AcDbEntity
  8
0
  6
SLD-Solid
 62
     7
370
    15
100
AcDbPolyline
 90
        9
 70
   128
 43
0.0
 10
1347.6850881758
 20
1118.514618026
 10
1347.5948169413
 20
1118.4817758667
 10
1347.3274305049
 20
1118.3844414818
 10
1346.89324047
 20
1118.2264295685
 10
1346.3089361373
 20
1118.0137601959
 10
1345.5969586554
 20
1117.7545992004
 10
1344.7846367541
 20
1117.4589601623
 10
1343.9032628718
 20
1117.1381679642
 10
1342.9866328421
 20
1116.8045011627
  0
ARC
  5
B8
330
1F
100
AcDbEntity
  8
0
  6
SLD-Solid
 62
     7
370
    15
100
AcDbCircle
 10
1288.4231993797
 20
1114.4998690991
 30
0.0
 40
1.5
100
AcDbArc
 50
102.0966648329
 51
180.0
  0
ARC
  5
B9
330
1F
100
AcDbEntity
  8
0
  6
SLD-Solid
 62
     7
370
    15
100
AcDbCircle
 10
1307.9929138299
 20
1119.4998690991
 30
0.0
 40
1.500000000000227
100
AcDbArc
 50
270.0
 51
333.2563160496
  0
ARC
  5
BA
330
1F
100
AcDbEntity
  8
0
  6
SLD-Solid
 62
     7
370
    15
100
AcDbCircle
 10
1340.1587089086
 20
1119.4998690991
 30
0.0
 40
1.500000000000227
100
AcDbArc
 50
270.0
 51
290.0
  0
ARC
  5
BB
330
1F
100
AcDbEntity
  8
0
  6
SLD-Solid
 62
     7
370
    15
100
AcDbCircle
 10
1288.4231993797
 20
1114.4998690991
 30
0.0
 40
3.499999999999944
100
AcDbArc
 50
121.0987555517
 51
140.4823472028
  0
LINE
  5
BC
330
1F
100
AcDbEntity
  8
0
  6
SLD-Solid
 62
     7
370
    15
100
AcDbLine
 10
1342.3025801364
 20
1118.6838952171
 30
0.0
 11
1340.6717374507
 21
1118.0903521644
 31
0.0
  0
LWPOLYLINE
  5
BD
330
1F
100
AcDbEntity
  8
0
  6
SLD-Solid
 62
     7
370
    15
100
AcDbPolyline
 90
        3
 70
   128
 43
0.0
 10
1310.8651831332
 20
1117.4998489487
 10
1310.8721270743
 20
1117.509862529
 10
1311.1185028735
 20
1117.9248896705
  0
LINE
  5
BE
330
1F
100
AcDbEntity
  8
0
  6
SLD-Solid
 62
     7
370
    15
100
AcDbLine
 10
1340.1587202731
 20
1117.9998723137
 30
0.0
 11
1338.6231854144
 21
1117.9998723137
 31
0.0
  0
LINE
  5
BF
330
1F
100
AcDbEntity
  8
0
  6
SLD-Solid
 62
     7
370
    15
100
AcDbLine
 10
1330.8232023898
 20
1117.9998723137
 30
0.0
 11
1325.8534863177
 21
1117.9998723137
 31
0.0
  0
LINE
  5
C0
330
1F
100
AcDbEntity
  8
0
  6
SLD-Solid
 62
     7
370
    15
100
AcDbLine
 10
1286.9231894198
 20
1104.9998608696
 30
0.0
 11
1286.9231894198
 21
1114.4998875725
 31
0.0
  0
LINE
  5
C1
330
1F
100
AcDbEntity
  8
0
  6
SLD-Solid
 62
     7
370
    15
100
AcDbLine
 10
1307.9929247084
 20
1117.9998723137
 30
0.0
 11
1289.5648970786
 21
1117.9998723137
 31
0.0
  0
ARC
  5
C2
330
1F
100
AcDbEntity
  8
0
  6
SLD-Solid
 62
     7
370
    15
100
AcDbCircle
 10
1325.8534849294
 20
1119.4998690991
 30
0.0
 40
1.500000000000227
100
AcDbArc
 50
206.7436839504
 51
270.0
  0
ARC
  5
C3
330
1F
100
AcDbEntity
  8
0
  6
SLD-Solid
 62
     7
370
    15
100
AcDbCircle
 10
1316.9231993797
 20
1114.9998690991
 30
0.0
 40
6.49999999999998
100
AcDbArc
 50
26.7436839504
 51
153.2563160496
  0
LWPOLYLINE
  5
C4
330
1F
100
AcDbEntity
  8
0
  6
SLD-Solid
 62
     7
370
    15
100
AcDbPolyline
 90
        3
 70
   128
 43
0.0
 10
1322.7278783503
 20
1117.9248896705
 10
1322.9742541495
 20
1117.509862529
 10
1322.9811980906
 20
1117.4998489487
  0
ARC
  5
C5
330
1F
100
AcDbEntity
  8
0
  6
SLD-Solid
 62
     7
370
    15
100
AcDbCircle
 10
1316.9231993797
 20
1114.9998690991
 30
0.0
 40
8.50000000000013
100
AcDbArc
 50
26.7436839504
 51
153.2563160496
  0
LINE
  5
C6
330
1F
100
AcDbEntity
  8
0
  6
SLD-Solid
 62
     7
370
    15
100
AcDbLine
 10
1285.7231989089
 20
1104.9998608696
 30
0.0
 11
1286.9231894198
 21
1104.9998608696
 31
0.0
  0
LINE
  5
C7
330
1F
100
AcDbEntity
  8
0
  6
SLD-Solid
 62
     7
370
    15
100
AcDbLine
 10
1342.7232101145
 20
1116.7086568939
 30
0.0
 11
1342.9866328421
 21
1116.8045011627
 31
0.0
  0
LWPOLYLINE
  5
C8
330
1F
100
AcDbEntity
  8
0
  6
SLD-Solid
 62
     7
370
    15
100
AcDbPolyline
 90
        6
 70
   128
 43
0.0
 10
1319.5287182513
 20
1214.5574298965
 10
1319.4538250151
 20
1214.7879806625
 10
1319.1608085814
 20
1215.689798938
 10
1318.9691498461
 20
1216.2796465027
 10
1318.8857331458
 20
1216.5363637077
 10
1318.8822462741
 20
1216.5470925438
  0
LWPOLYLINE
  5
C9
330
1F
100
AcDbEntity
  8
0
  6
SLD-Solid
 62
     7
370
    15
100
AcDbPolyline
 90
       10
 70
   128
 43
0.0
 10
1325.0471546832
 20
1197.5735036003
 10
1325.0436678115
 20
1197.5842324364
 10
1324.9602511111
 20
1197.8409496414
 10
1324.7685923758
 20
1198.4307972061
 10
1324.4755759421
 20
1199.3326154816
 10
1324.091841239
 20
1200.5136815178
 10
1323.6311867419
 20
1201.9313779938
 10
1323.1103315535
 20
1203.5343853103
 10
1322.548051137
 20
1205.2648869621
 10
1322.3098709765
 20
1205.9979048836
  0
LWPOLYLINE
  5
CA
330
1F
100
AcDbEntity
  8
0
  6
SLD-Solid
 62
     7
370
    15
100
AcDbPolyline
 90
        7
 70
   128
 43
0.0
 10
1328.5311951819
 20
1201.4130560028
 10
1328.3706202689
 20
1201.907178508
 10
1328.1584277335
 20
1202.5602666008
 10
1327.8614177886
 20
1203.4743634331
 10
1327.4957730952
 20
1204.5996991264
 10
1327.0861997786
 20
1205.8602777588
 10
1326.589633483
 20
1207.3884812462
  0
LINE
  5
CB
330
1F
100
AcDbEntity
  8
0
  6
SLD-Solid
 62
     7
370
    15
100
AcDbLine
 10
1202.8732046071
 20
1282.6998439895
 30
0.0
 11
1198.4231963339
 21
1282.6998439895
 31
0.0
  0
LINE
  5
CC
330
1F
100
AcDbEntity
  8
0
  6
SLD-Solid
 62
     7
370
    15
100
AcDbLine
 10
683.4232106391
 20
1282.6998439895
 30
0.0
 11
679.3731942359
 21
1282.6998439895
 31
0.0
  0
LWPOLYLINE
  5
CD
330
1F
100
AcDbEntity
  8
0
  6
SLD-Solid
 62
     7
370
    15
100
AcDbPolyline
 90
        6
 70
   128
 43
0.0
 10
659.4802632514
 20
1282.6998439895
 10
659.1922536078
 20
1282.8327027428
 10
658.904124755
 20
1283.2141128647
 10
658.6159959021
 20
1283.7946621048
 10
658.3278670493
 20
1284.4990697967
 10
658.2302644435
 20
1284.749886142
  0
LWPOLYLINE
  5
CE
330
1F
100
AcDbEntity
  8
0
  6
SLD-Solid
 62
     7
370
    15
100
AcDbPolyline
 90
        6
 70
   128
 43
0.0
 10
1223.6161276284
 20
1284.749886142
 10
1223.3281030837
 20
1284.0240207779
 10
1223.039989132
 20
1283.3919731247
 10
1222.7518602791
 20
1282.9359975921
 10
1222.4637314263
 20
1282.7152815925
 10
1222.3661288205
 20
1282.6998439895
  0
LWPOLYLINE
  5
CF
330
1F
100
AcDbEntity
  8
0
  6
SLD-Solid
 62
     7
370
    15
100
AcDbPolyline
 90
        6
 70
   128
 43
0.0
 10
1222.3731919709
 20
1302.6998845207
 10
1222.6593836728
 20
1302.5672641861
 10
1222.9456647816
 20
1302.186390506
 10
1223.2319458905
 20
1301.6065565216
 10
1223.5182269993
 20
1300.9028640854
 10
1223.6161276284
 20
1300.6498423683
  0
LWPOLYLINE
  5
D0
330
1F
100
AcDbEntity
  8
0
  6
SLD-Solid
 62
     7
370
    15
100
AcDbPolyline
 90
        6
 70
   128
 43
0.0
 10
658.2302644435
 20
1300.6498423683
 10
658.5164561453
 20
1301.3752308952
 10
658.8027372542
 20
1302.0069209205
 10
659.0890183631
 20
1302.4629560577
 10
659.3752994719
 20
1302.6842084991
 10
659.473200101
 20
1302.6998845207
  0
LINE
  5
D1
330
1F
100
AcDbEntity
  8
0
  6
SLD-Solid
 62
     7
370
    15
100
AcDbLine
 10
659.473200101
 20
1302.6998845207
 30
0.0
 11
1222.3731919709
 21
1302.6998845207
 31
0.0
  0
LINE
  5
D2
330
1F
100
AcDbEntity
  8
0
  6
SLD-Solid
 62
     7
370
    15
100
AcDbLine
 10
1223.6161276284
 20
1284.749886142
 30
0.0
 11
1223.6161276284
 21
1300.6498423683
 31
0.0
  0
LINE
  5
D3
330
1F
100
AcDbEntity
  8
0
  6
SLD-Solid
 62
     7
370
    15
100
AcDbLine
 10
658.2302644435
 20
1284.749886142
 30
0.0
 11
658.2302644435
 21
1300.6498423683
 31
0.0
  0
LINE
  5
D4
330
1F
100
AcDbEntity
  8
0
  6
SLD-Solid
 62
     7
370
    15
100
AcDbLine
 10
1223.62320568
 20
1284.749886142
 30
0.0
 11
1224.423204321
 21
1284.749886142
 31
0.0
  0
ARC
  5
D5
330
1F
100
AcDbEntity
  8
0
  6
SLD-Solid
 62
     7
370
    15
100
AcDbCircle
 10
1222.5824588305
 20
1284.6662616873
 30
0.0
 40
1.044101074675318
100
AcDbArc
 50
310.6814755625
 51
4.5938710561
  0
ARC
  5
D6
330
1F
100
AcDbEntity
  8
0
  6
SLD-Solid
 62
     7
370
    15
100
AcDbCircle
 10
1222.3730984857
 20
1284.7499498236
 30
0.0
 40
2.050105836214766
100
AcDbArc
 50
270.0026126964
 51
359.9982202424
  0
LINE
  5
D7
330
1F
100
AcDbEntity
  8
0
  6
SLD-Solid
 62
     7
370
    15
100
AcDbLine
 10
658.223201293
 20
1284.749886142
 30
0.0
 11
657.4231877509
 21
1284.749886142
 31
0.0
  0
LWPOLYLINE
  5
D8
330
1F
100
AcDbEntity
  8
0
  6
SLD-Solid
 62
     7
370
    15
100
AcDbPolyline
 90
        3
 70
   128
 43
0.0
 10
658.223201293
 20
1284.749886142
 10
658.3219661894
 20
1284.2629161941
 10
658.583541173
 20
1283.8809100258
  0
ARC
  5
D9
330
1F
100
AcDbEntity
  8
0
  6
SLD-Solid
 62
     7
370
    15
100
AcDbCircle
 10
659.4733417995
 20
1284.7499980363
 30
0.0
 40
2.050154051681944
100
AcDbArc
 50
180.003127119
 51
269.9960399421
  0
LINE
  5
DA
330
1F
100
AcDbEntity
  8
0
  6
SLD-Solid
 62
     7
370
    15
100
AcDbLine
 10
1224.423204321
 20
1300.6498423683
 30
0.0
 11
1223.62320568
 21
1300.6498423683
 31
0.0
  0
LWPOLYLINE
  5
DB
330
1F
100
AcDbEntity
  8
0
  6
SLD-Solid
 62
     7
370
    15
100
AcDbPolyline
 90
        3
 70
   128
 43
0.0
 10
1223.62320568
 20
1300.6498423683
 10
1223.5247537079
 20
1301.1360970604
 10
1223.2740863743
 20
1301.502963649
  0
ARC
  5
DC
330
1F
100
AcDbEntity
  8
0
  6
SLD-Solid
 62
     7
370
    15
100
AcDbCircle
 10
1222.3731709741
 20
1300.6498511739
 30
0.0
 40
2.0500333468738
100
AcDbArc
 50
359.9997538938
 51
89.9994131674
  0
ARC
  5
DD
330
1F
100
AcDbEntity
  8
0
  6
SLD-Solid
 62
     7
370
    15
100
AcDbCircle
 10
659.261068525
 20
1300.7346893086
 30
0.0
 40
1.041329628138336
100
AcDbArc
 50
130.4709709975
 51
184.673608249
  0
LINE
  5
DE
330
1F
100
AcDbEntity
  8
0
  6
SLD-Solid
 62
     7
370
    15
100
AcDbLine
 10
657.4231877509
 20
1300.6498423683
 30
0.0
 11
658.223201293
 21
1300.6498423683
 31
0.0
  0
ARC
  5
DF
330
1F
100
AcDbEntity
  8
0
  6
SLD-Solid
 62
     7
370
    15
100
AcDbCircle
 10
659.4732263925
 20
1300.6498458793
 30
0.0
 40
2.050038641595047
100
AcDbArc
 50
90.0007348118
 51
180.000098127
  0
LINE
  5
E0
330
1F
100
AcDbEntity
  8
0
  6
SLD-Solid
 62
     7
370
    15
100
AcDbLine
 10
1223.62320568
 20
1300.6498423683
 30
0.0
 11
1223.62320568
 21
1284.749886142
 31
0.0
  0
LINE
  5
E1
330
1F
100
AcDbEntity
  8
0
  6
SLD-Solid
 62
     7
370
    15
100
AcDbLine
 10
1224.423204321
 20
1284.749886142
 30
0.0
 11
1224.423204321
 21
1300.6498423683
 31
0.0
  0
LINE
  5
E2
330
1F
100
AcDbEntity
  8
0
  6
SLD-Solid
 62
     7
370
    15
100
AcDbLine
 10
657.4231877509
 20
1284.749886142
 30
0.0
 11
657.4231877509
 21
1300.6498423683
 31
0.0
  0
LINE
  5
E3
330
1F
100
AcDbEntity
  8
0
  6
SLD-Solid
 62
     7
370
    15
100
AcDbLine
 10
658.223201293
 20
1300.6498423683
 30
0.0
 11
658.223201293
 21
1284.749886142
 31
0.0
  0
LWPOLYLINE
  5
E4
330
1F
100
AcDbEntity
  8
0
  6
SLD-Solid
 62
     7
370
    15
100
AcDbPolyline
 90
        7
 70
   128
 43
0.0
 10
566.2732019606
 20
636.5720239746
 10
566.3455321971
 20
636.5746912824
 10
566.4094581786
 20
636.5820822584
 10
566.4629831496
 20
636.5936604606
 10
566.5040507498
 20
636.6100219356
 10
566.5231838408
 20
636.6325375902
 10
566.5232136431
 20
636.6331783401
  0
LINE
  5
E5
330
1F
100
AcDbEntity
  8
0
  6
SLD-Solid
 62
     7
370
    15
100
AcDbLine
 10
566.5232136431
 20
636.6331783401
 30
0.0
 11
566.5232136431
 21
629.1300115454
 31
0.0
  0
LWPOLYLINE
  5
E6
330
1F
100
AcDbEntity
  8
0
  6
SLD-Solid
 62
     7
370
    15
100
AcDbPolyline
 90
        7
 70
   128
 43
0.0
 10
565.3231933299
 20
636.6331783401
 10
565.3232231322
 20
636.6325375902
 10
565.3423562232
 20
636.6100219356
 10
565.3834238234
 20
636.5936604606
 10
565.4369487944
 20
636.5820822584
 10
565.5008747759
 20
636.5746912824
 10
565.5732050124
 20
636.5720239746
  0
LINE
  5
E7
330
1F
100
AcDbEntity
  8
0
  6
SLD-Solid
 62
     7
370
    15
100
AcDbLine
 10
565.3231933299
 20
628.8072523939
 30
0.0
 11
565.3231933299
 21
636.6331783401
 31
0.0
  0
LINE
  5
E8
330
1F
100
AcDbEntity
  8
0
  6
SLD-Solid
 62
     7
370
    15
100
AcDbLine
 10
566.2732019606
 20
636.5720239746
 30
0.0
 11
565.5732050124
 21
636.5720239746
 31
0.0
  0
ARC
  5
E9
330
1F
100
AcDbEntity
  8
0
  6
SLD-Solid
 62
     7
370
    15
100
AcDbCircle
 10
566.6003608942
 20
640.99255437
 30
0.0
 40
1.289384405893345
100
AcDbArc
 50
82.2966400154
 51
172.1065038621
  0
LWPOLYLINE
  5
EA
330
1F
100
AcDbEntity
  8
0
  6
SLD-Solid
 62
     7
370
    15
100
AcDbPolyline
 90
        6
 70
   128
 43
0.0
 10
565.3231933299
 20
636.8556675779
 10
565.4123320761
 20
637.197619425
 10
565.6749799433
 20
637.5030187237
 10
566.0693540755
 20
637.7229300606
 10
566.5306046191
 20
637.8339288103
 10
566.7731955233
 20
637.847950803
  0
LINE
  5
EB
330
1F
100
AcDbEntity
  8
0
  6
SLD-Solid
 62
     7
370
    15
100
AcDbLine
 10
565.3231933299
 20
636.8556675779
 30
0.0
 11
565.3231933299
 21
641.1696282493
 31
0.0
  0
LINE
  5
EC
330
1F
100
AcDbEntity
  8
0
  6
SLD-Solid
 62
     7
370
    15
100
AcDbLine
 10
572.1231892291
 20
642.0504507887
 30
0.0
 11
572.1231892291
 21
637.7364752161
 31
0.0
  0
LINE
  5
ED
330
1F
100
AcDbEntity
  8
0
  6
SLD-Solid
 62
     7
370
    15
100
AcDbLine
 10
572.1231892291
 20
637.7364752161
 30
0.0
 11
572.1231892291
 21
637.2242776024
 31
0.0
  0
LINE
  5
EE
330
1F
100
AcDbEntity
  8
0
  6
SLD-Solid
 62
     7
370
    15
100
AcDbLine
 10
566.5232136431
 20
636.8556675779
 30
0.0
 11
566.5232136431
 21
636.6331783401
 31
0.0
  0
LINE
  5
EF
330
1F
100
AcDbEntity
  8
0
  6
SLD-Solid
 62
     7
370
    15
100
AcDbLine
 10
565.3231933299
 20
636.6331783401
 30
0.0
 11
565.3231933299
 21
636.8556675779
 31
0.0
  0
LINE
  5
F0
330
1F
100
AcDbEntity
  8
0
  6
SLD-Solid
 62
     7
370
    15
100
AcDbLine
 10
566.7731955233
 20
642.30044757
 30
0.0
 11
566.7731955233
 21
642.2703025209
 31
0.0
  0
LINE
  5
F1
330
1F
100
AcDbEntity
  8
0
  6
SLD-Solid
 62
     7
370
    15
100
AcDbLine
 10
565.3231933299
 20
641.1696282493
 30
0.0
 11
565.3231933299
 21
641.7498645651
 31
0.0
  0
LINE
  5
F2
330
1F
100
AcDbEntity
  8
0
  6
SLD-Solid
 62
     7
370
    15
100
AcDbLine
 10
572.1231892291
 20
625.0614953505
 30
0.0
 11
572.1231892291
 21
624.5492902862
 31
0.0
  0
LINE
  5
F3
330
1F
100
AcDbEntity
  8
0
  6
SLD-Solid
 62
     7
370
    15
100
AcDbLine
 10
572.1231892291
 20
627.7985480892
 30
0.0
 11
572.1231892291
 21
625.0614953505
 31
0.0
  0
ARC
  5
F4
330
1F
100
AcDbEntity
  8
0
  6
SLD-Solid
 62
     7
370
    15
100
AcDbCircle
 10
566.7034202055
 20
628.7797876028
 30
0.0
 40
0.4632443741556104
100
AcDbArc
 50
81.336960404
 51
112.8928950595
  0
LINE
  5
F5
330
1F
100
AcDbEntity
  8
0
  6
SLD-Solid
 62
     7
370
    15
100
AcDbLine
 10
566.5232136431
 20
629.2065439092
 30
0.0
 11
566.5232136431
 21
636.6331783401
 31
0.0
  0
ARC
  5
F6
330
1F
100
AcDbEntity
  8
0
  6
SLD-Solid
 62
     7
370
    15
100
AcDbCircle
 10
567.5424876867
 20
628.7757686888
 30
0.0
 40
0.4671463712266994
100
AcDbArc
 50
67.2412424909
 51
98.5305809161
  0
LINE
  5
F7
330
1F
100
AcDbEntity
  8
0
  6
SLD-Solid
 62
     7
370
    15
100
AcDbLine
 10
567.7232041541
 20
636.974280821
 30
0.0
 11
567.7232041541
 21
629.2065439092
 31
0.0
  0
LINE
  5
F8
330
1F
100
AcDbEntity
  8
0
  6
SLD-Solid
 62
     7
370
    15
100
AcDbLine
 10
566.7731955233
 20
629.2377469408
 30
0.0
 11
567.4731924716
 21
629.2377469408
 31
0.0
  0
ARC
  5
F9
330
1F
100
AcDbEntity
  8
0
  6
SLD-Solid
 62
     7
370
    15
100
AcDbCircle
 10
566.403152436
 20
625.207967014
 30
0.0
 40
1.325585563196522
100
AcDbArc
 50
264.3741153191
 51
354.7628085469
  0
ARC
  5
FA
330
1F
100
AcDbEntity
  8
0
  6
SLD-Solid
 62
     7
370
    15
100
AcDbCircle
 10
566.3950373719
 20
629.2062178366
 30
0.0
 40
1.350405912100207
100
AcDbArc
 50
264.823660095
 51
349.5873281316
  0
LINE
  5
FB
330
1F
100
AcDbEntity
  8
0
  6
SLD-Solid
 62
     7
370
    15
100
AcDbLine
 10
567.7232041541
 20
628.9621499645
 30
0.0
 11
567.7232041541
 21
625.0869688856
 31
0.0
  0
LINE
  5
FC
330
1F
100
AcDbEntity
  8
0
  6
SLD-Solid
 62
     7
370
    15
100
AcDbLine
 10
560.9232082549
 20
624.1194290387
 30
0.0
 11
560.9232082549
 21
627.9946101176
 31
0.0
  0
LINE
  5
FD
330
1F
100
AcDbEntity
  8
0
  6
SLD-Solid
 62
     7
370
    15
100
AcDbLine
 10
560.9232082549
 20
627.9946101176
 30
0.0
 11
560.9232082549
 21
628.5572556125
 31
0.0
  0
LINE
  5
FE
330
1F
100
AcDbEntity
  8
0
  6
SLD-Solid
 62
     7
370
    15
100
AcDbLine
 10
567.7232041541
 20
629.2065439092
 30
0.0
 11
567.7232041541
 21
628.9621499645
 31
0.0
  0
LINE
  5
FF
330
1F
100
AcDbEntity
  8
0
  6
SLD-Solid
 62
     7
370
    15
100
AcDbLine
 10
566.5232136431
 20
628.9621499645
 30
0.0
 11
566.5232136431
 21
629.2065439092
 31
0.0
  0
LINE
  5
100
330
1F
100
AcDbEntity
  8
0
  6
SLD-Solid
 62
     7
370
    15
100
AcDbLine
 10
566.2732019606
 20
623.8694322574
 30
0.0
 11
566.2732019606
 21
623.888766514
 31
0.0
  0
LINE
  5
101
330
1F
100
AcDbEntity
  8
0
  6
SLD-Solid
 62
     7
370
    15
100
AcDbLine
 10
567.7232041541
 20
625.0869688856
 30
0.0
 11
567.7232041541
 21
624.8498690593
 31
0.0
  0
ARC
  5
102
330
1F
100
AcDbEntity
  8
0
  6
SLD-Solid
 62
     7
370
    15
100
AcDbCircle
 10
566.3398994967
 20
641.281424998
 30
0.0
 40
1.431104648238736
100
AcDbArc
 50
45.4022116933
 51
92.6712736297
  0
LINE
  5
103
330
1F
100
AcDbEntity
  8
0
  6
SLD-Solid
 62
     7
370
    15
100
AcDbLine
 10
560.9232082549
 20
641.9176665413
 30
0.0
 11
560.9232082549
 21
642.4803045856
 31
0.0
  0
LINE
  5
104
330
1F
100
AcDbEntity
  8
0
  6
SLD-Solid
 62
     7
370
    15
100
AcDbLine
 10
560.9232082549
 20
638.6165824997
 30
0.0
 11
560.9232082549
 21
641.9176665413
 31
0.0
  0
LINE
  5
105
330
1F
100
AcDbEntity
  8
0
  6
SLD-Solid
 62
     7
370
    15
100
AcDbLine
 10
564.8766055289
 20
637.9074511396
 30
0.0
 11
565.3231933299
 21
635.2490988838
 31
0.0
  0
LWPOLYLINE
  5
106
330
1F
100
AcDbEntity
  8
0
  6
SLD-Solid
 62
     7
370
    15
100
AcDbPolyline
 90
        3
 70
   128
 43
0.0
 10
565.3231933299
 20
635.2490988838
 10
565.3207793418
 20
635.0601223575
 10
564.8766055289
 20
632.590746628
  0
LINE
  5
107
330
1F
100
AcDbEntity
  8
0
  6
SLD-Solid
 62
     7
370
    15
100
AcDbLine
 10
564.8766055289
 20
632.590746628
 30
0.0
 11
560.5697825137
 21
632.590746628
 31
0.0
  0
LWPOLYLINE
  5
108
330
1F
100
AcDbEntity
  8
0
  6
SLD-Solid
 62
     7
370
    15
100
AcDbPolyline
 90
        3
 70
   128
 43
0.0
 10
560.1231947127
 20
635.2490988838
 10
560.1256385031
 20
635.0601223575
 10
560.5697825137
 20
632.590746628
  0
LINE
  5
109
330
1F
100
AcDbEntity
  8
0
  6
SLD-Solid
 62
     7
370
    15
100
AcDbLine
 10
560.5697825137
 20
637.9074511396
 30
0.0
 11
560.1231947127
 21
635.2490988838
 31
0.0
  0
LINE
  5
10A
330
1F
100
AcDbEntity
  8
0
  6
SLD-Solid
 62
     7
370
    15
100
AcDbLine
 10
564.8766055289
 20
637.9074511396
 30
0.0
 11
560.5697825137
 21
637.9074511396
 31
0.0
  0
LWPOLYLINE
  5
10B
330
1F
100
AcDbEntity
  8
0
  6
SLD-Solid
 62
     7
370
    15
100
AcDbPolyline
 90
        3
 70
   128
 43
0.0
 10
560.1231947127
 20
630.2869526016
 10
560.1585998717
 20
630.9139040577
 10
560.5697825137
 20
632.590746628
  0
LINE
  5
10C
330
1F
100
AcDbEntity
  8
0
  6
SLD-Solid
 62
     7
370
    15
100
AcDbLine
 10
560.1231947127
 20
630.2869526016
 30
0.0
 11
560.1231947127
 21
635.2490988838
 31
0.0
  0
LWPOLYLINE
  5
10D
330
1F
100
AcDbEntity
  8
0
  6
SLD-Solid
 62
     7
370
    15
100
AcDbPolyline
 90
        3
 70
   128
 43
0.0
 10
565.3231933299
 20
630.2869526016
 10
565.2877881709
 20
630.9139040577
 10
564.8766055289
 20
632.590746628
  0
LINE
  5
10E
330
1F
100
AcDbEntity
  8
0
  6
SLD-Solid
 62
     7
370
    15
100
AcDbLine
 10
565.1021197024
 20
628.8072523939
 30
0.0
 11
565.3231933299
 21
630.2869526016
 31
0.0
  0
LINE
  5
10F
330
1F
100
AcDbEntity
  8
0
  6
SLD-Solid
 62
     7
370
    15
100
AcDbLine
 10
560.9232082549
 20
627.9831660258
 30
0.0
 11
560.5697825137
 21
627.9831660258
 31
0.0
  0
LWPOLYLINE
  5
110
330
1F
100
AcDbEntity
  8
0
  6
SLD-Solid
 62
     7
370
    15
100
AcDbPolyline
 90
        3
 70
   128
 43
0.0
 10
560.5697825137
 20
627.9831660258
 10
560.3804185572
 20
628.5653171408
 10
560.1231947127
 20
630.2869526016
  0
LWPOLYLINE
  5
111
330
1F
100
AcDbEntity
  8
0
  6
SLD-Solid
 62
     7
370
    15
100
AcDbPolyline
 90
        3
 70
   128
 43
0.0
 10
560.1231947127
 20
638.2620093691
 10
560.1256385031
 20
638.2368115055
 10
560.5697825137
 20
637.9074511396
  0
LINE
  5
112
330
1F
100
AcDbEntity
  8
0
  6
SLD-Solid
 62
     7
370
    15
100
AcDbLine
 10
560.1231947127
 20
635.2490988838
 30
0.0
 11
560.1231947127
 21
638.2620093691
 31
0.0
  0
LWPOLYLINE
  5
113
330
1F
100
AcDbEntity
  8
0
  6
SLD-Solid
 62
     7
370
    15
100
AcDbPolyline
 90
        3
 70
   128
 43
0.0
 10
565.3231933299
 20
638.2620093691
 10
565.3207793418
 20
638.2368115055
 10
564.8766055289
 20
637.9074511396
  0
LINE
  5
114
330
1F
100
AcDbEntity
  8
0
  6
SLD-Solid
 62
     7
370
    15
100
AcDbLine
 10
560.5697825137
 20
627.9831660258
 30
0.0
 11
560.1231947127
 21
628.3377242553
 31
0.0
  0
LINE
  5
115
330
1F
100
AcDbEntity
  8
0
  6
SLD-Solid
 62
     7
370
    15
100
AcDbLine
 10
560.1231947127
 20
630.2869526016
 30
0.0
 11
560.1231947127
 21
628.3000168669
 31
0.0
  0
LINE
  5
116
330
1F
100
AcDbEntity
  8
0
  6
SLD-Solid
 62
     7
370
    15
100
AcDbLine
 10
564.8766055289
 20
638.6165824997
 30
0.0
 11
565.3231933299
 21
638.2620093691
 31
0.0
  0
LINE
  5
117
330
1F
100
AcDbEntity
  8
0
  6
SLD-Solid
 62
     7
370
    15
100
AcDbLine
 10
560.5697825137
 20
638.6165824997
 30
0.0
 11
560.1231947127
 21
638.2620093691
 31
0.0
  0
LINE
  5
118
330
1F
100
AcDbEntity
  8
0
  6
SLD-Solid
 62
     7
370
    15
100
AcDbLine
 10
564.8766055289
 20
638.6165824997
 30
0.0
 11
560.5697825137
 21
638.6165824997
 31
0.0
  0
LINE
  5
119
330
1F
100
AcDbEntity
  8
0
  6
SLD-Solid
 62
     7
370
    15
100
AcDbLine
 10
577.9266252699
 20
631.3960311281
 30
0.0
 11
578.1232013884
 21
630.5666175949
 31
0.0
  0
LINE
  5
11A
330
1F
100
AcDbEntity
  8
0
  6
SLD-Solid
 62
     7
370
    15
100
AcDbLine
 10
578.1232013884
 20
628.4022909867
 30
0.0
 11
577.9266252699
 21
627.6276168691
 31
0.0
  0
LINE
  5
11B
330
1F
100
AcDbEntity
  8
0
  6
SLD-Solid
 62
     7
370
    15
100
AcDbLine
 10
577.9266252699
 20
627.6276168691
 30
0.0
 11
573.6197724524
 21
627.6276168691
 31
0.0
  0
LWPOLYLINE
  5
11C
330
1F
100
AcDbEntity
  8
0
  6
SLD-Solid
 62
     7
370
    15
100
AcDbPolyline
 90
        3
 70
   128
 43
0.0
 10
573.1731846514
 20
629.5118239986
 10
573.1756284419
 20
629.3778923618
 10
573.6197724524
 20
627.6276168691
  0
LINE
  5
11D
330
1F
100
AcDbEntity
  8
0
  6
SLD-Solid
 62
     7
370
    15
100
AcDbLine
 10
573.6197724524
 20
631.3960311281
 30
0.0
 11
573.1731846514
 21
629.5118239986
 31
0.0
  0
LINE
  5
11E
330
1F
100
AcDbEntity
  8
0
  6
SLD-Solid
 62
     7
370
    15
100
AcDbLine
 10
577.9266252699
 20
631.3960311281
 30
0.0
 11
573.6197724524
 21
631.3960311281
 31
0.0
  0
LWPOLYLINE
  5
11F
330
1F
100
AcDbEntity
  8
0
  6
SLD-Solid
 62
     7
370
    15
100
AcDbPolyline
 90
        3
 70
   128
 43
0.0
 10
573.6197724524
 20
631.3960311281
 10
573.4304382983
 20
632.1127173769
 10
573.1731846514
 20
634.2321691381
  0
LINE
  5
120
330
1F
100
AcDbEntity
  8
0
  6
SLD-Solid
 62
     7
370
    15
100
AcDbLine
 10
573.1731846514
 20
629.5118239986
 30
0.0
 11
573.1731846514
 21
634.2321691381
 31
0.0
  0
LWPOLYLINE
  5
121
330
1F
100
AcDbEntity
  8
0
  6
SLD-Solid
 62
     7
370
    15
100
AcDbPolyline
 90
        3
 70
   128
 43
0.0
 10
577.9266252699
 20
631.3960311281
 10
578.1159594241
 20
632.1127173769
 10
578.1232013884
 20
632.1722773182
  0
LWPOLYLINE
  5
122
330
1F
100
AcDbEntity
  8
0
  6
SLD-Solid
 62
     7
370
    15
100
AcDbPolyline
 90
        3
 70
   128
 43
0.0
 10
573.1731846514
 20
634.2321691381
 10
573.2086196128
 20
635.0039896833
 10
573.6197724524
 20
637.068292247
  0
LINE
  5
123
330
1F
100
AcDbEntity
  8
0
  6
SLD-Solid
 62
     7
370
    15
100
AcDbLine
 10
577.9266252699
 20
637.068292247
 30
0.0
 11
573.6197724524
 21
637.068292247
 31
0.0
  0
LINE
  5
124
330
1F
100
AcDbEntity
  8
0
  6
SLD-Solid
 62
     7
370
    15
100
AcDbLine
 10
578.1232013884
 20
636.0813287365
 30
0.0
 11
577.9266252699
 21
637.068292247
 31
0.0
  0
LINE
  5
125
330
1F
100
AcDbEntity
  8
0
  6
SLD-Solid
 62
     7
370
    15
100
AcDbLine
 10
578.1232013884
 20
637.4596563446
 30
0.0
 11
577.9266252699
 21
637.068292247
 31
0.0
  0
LWPOLYLINE
  5
126
330
1F
100
AcDbEntity
  8
0
  6
SLD-Solid
 62
     7
370
    15
100
AcDbPolyline
 90
        3
 70
   128
 43
0.0
 10
573.1731846514
 20
638.0202082264
 10
573.1756284419
 20
637.9525420534
 10
573.6197724524
 20
637.068292247
  0
LINE
  5
127
330
1F
100
AcDbEntity
  8
0
  6
SLD-Solid
 62
     7
370
    15
100
AcDbLine
 10
573.1731846514
 20
634.2321691381
 30
0.0
 11
573.1731846514
 21
638.0202082264
 31
0.0
  0
LINE
  5
128
330
1F
100
AcDbEntity
  8
0
  6
SLD-Solid
 62
     7
370
    15
100
AcDbLine
 10
577.9266252699
 20
638.9721242058
 30
0.0
 11
578.102548379
 21
638.5970768797
 31
0.0
  0
LINE
  5
129
330
1F
100
AcDbEntity
  8
0
  6
SLD-Solid
 62
     7
370
    15
100
AcDbLine
 10
573.6197724524
 20
638.9721242058
 30
0.0
 11
573.1731846514
 21
638.0202082264
 31
0.0
  0
LINE
  5
12A
330
1F
100
AcDbEntity
  8
0
  6
SLD-Solid
 62
     7
370
    15
100
AcDbLine
 10
577.9266252699
 20
638.9721242058
 30
0.0
 11
573.6197724524
 21
638.9721242058
 31
0.0
  0
LINE
  5
12B
330
1F
100
AcDbEntity
  8
0
  6
SLD-Solid
 62
     7
370
    15
100
AcDbLine
 10
573.6197724524
 20
627.6276168691
 30
0.0
 11
573.4438493434
 21
628.0026567447
 31
0.0
  0
LINE
  5
12C
330
1F
100
AcDbEntity
  8
0
  6
SLD-Solid
 62
     7
370
    15
100
AcDbLine
 10
573.1731846514
 20
628.2998678552
 30
0.0
 11
573.1731846514
 21
629.5118239986
 31
0.0
  0
LINE
  5
12D
330
1F
100
AcDbEntity
  8
0
  6
SLD-Solid
 62
     7
370
    15
100
AcDbLine
 10
577.9266252699
 20
627.6276168691
 30
0.0
 11
578.102548379
 21
628.0026567447
 31
0.0
  0
LINE
  5
12E
330
1F
100
AcDbEntity
  8
0
  6
SLD-Solid
 62
     7
370
    15
100
AcDbLine
 10
573.1731846514
 20
638.0202082264
 30
0.0
 11
573.1731846514
 21
638.2998732197
 31
0.0
  0
LINE
  5
12F
330
1F
100
AcDbEntity
  8
0
  6
SLD-Solid
 62
     7
370
    15
100
AcDbLine
 10
572.4766149703
 20
638.8011929857
 30
0.0
 11
572.9232027712
 21
636.6673019993
 31
0.0
  0
LWPOLYLINE
  5
130
330
1F
100
AcDbEntity
  8
0
  6
SLD-Solid
 62
     7
370
    15
100
AcDbPolyline
 90
        3
 70
   128
 43
0.0
 10
572.9232027712
 20
636.6673019993
 10
572.9207589808
 20
636.5156230795
 10
572.4766149703
 20
634.5334110128
  0
LINE
  5
131
330
1F
100
AcDbEntity
  8
0
  6
SLD-Solid
 62
     7
370
    15
100
AcDbLine
 10
572.4766149703
 20
634.5334110128
 30
0.0
 11
568.1697919551
 21
634.5334110128
 31
0.0
  0
LWPOLYLINE
  5
132
330
1F
100
AcDbEntity
  8
0
  6
SLD-Solid
 62
     7
370
    15
100
AcDbPolyline
 90
        3
 70
   128
 43
0.0
 10
567.7232041541
 20
636.6673019993
 10
567.7256181422
 20
636.5156230795
 10
568.1697919551
 20
634.5334110128
  0
LINE
  5
133
330
1F
100
AcDbEntity
  8
0
  6
SLD-Solid
 62
     7
370
    15
100
AcDbLine
 10
567.7874579611
 20
636.974280821
 30
0.0
 11
567.7232041541
 21
636.6673019993
 31
0.0
  0
LINE
  5
134
330
1F
100
AcDbEntity
  8
0
  6
SLD-Solid
 62
     7
370
    15
100
AcDbLine
 10
572.4766149703
 20
638.8011929857
 30
0.0
 11
572.1231892291
 21
638.8011929857
 31
0.0
  0
LWPOLYLINE
  5
135
330
1F
100
AcDbEntity
  8
0
  6
SLD-Solid
 62
     7
370
    15
100
AcDbPolyline
 90
        3
 70
   128
 43
0.0
 10
567.7232041541
 20
631.7827609646
 10
567.7586093131
 20
632.5313207971
 10
568.1697919551
 20
634.5334110128
  0
LWPOLYLINE
  5
136
330
1F
100
AcDbEntity
  8
0
  6
SLD-Solid
 62
     7
370
    15
100
AcDbPolyline
 90
        3
 70
   128
 43
0.0
 10
572.9232027712
 20
631.7827609646
 10
572.8877976122
 20
632.5313207971
 10
572.4766149703
 20
634.5334110128
  0
LINE
  5
137
330
1F
100
AcDbEntity
  8
0
  6
SLD-Solid
 62
     7
370
    15
100
AcDbLine
 10
572.9232027712
 20
631.7827609646
 30
0.0
 11
572.9232027712
 21
636.6673019993
 31
0.0
  0
LWPOLYLINE
  5
138
330
1F
100
AcDbEntity
  8
0
  6
SLD-Solid
 62
     7
370
    15
100
AcDbPolyline
 90
        3
 70
   128
 43
0.0
 10
572.4766149703
 20
629.0320960152
 10
572.6659789267
 20
629.7271904814
 10
572.9232027712
 20
631.7827609646
  0
LINE
  5
139
330
1F
100
AcDbEntity
  8
0
  6
SLD-Solid
 62
     7
370
    15
100
AcDbLine
 10
572.4766149703
 20
629.0320960152
 30
0.0
 11
568.1697919551
 21
629.0320960152
 31
0.0
  0
LWPOLYLINE
  5
13A
330
1F
100
AcDbEntity
  8
0
  6
SLD-Solid
 62
     7
370
    15
100
AcDbPolyline
 90
        3
 70
   128
 43
0.0
 10
568.1697919551
 20
629.0320960152
 10
567.9804279986
 20
629.7271904814
 10
567.7232041541
 20
631.7827609646
  0
LINE
  5
13B
330
1F
100
AcDbEntity
  8
0
  6
SLD-Solid
 62
     7
370
    15
100
AcDbLine
 10
568.1697919551
 20
629.0320960152
 30
0.0
 11
567.7232041541
 21
628.4153220522
 31
0.0
  0
LINE
  5
13C
330
1F
100
AcDbEntity
  8
0
  6
SLD-Solid
 62
     7
370
    15
100
AcDbLine
 10
572.4766149703
 20
629.0320960152
 30
0.0
 11
572.9232027712
 21
628.4153220522
 31
0.0
  0
LINE
  5
13D
330
1F
100
AcDbEntity
  8
0
  6
SLD-Solid
 62
     7
370
    15
100
AcDbLine
 10
572.9232027712
 20
631.7827609646
 30
0.0
 11
572.9232027712
 21
628.4153220522
 31
0.0
  0
LINE
  5
13E
330
1F
100
AcDbEntity
  8
0
  6
SLD-Solid
 62
     7
370
    15
100
AcDbLine
 10
572.77407195
 20
638.4174731838
 30
0.0
 11
572.4766149703
 21
638.8011929857
 31
0.0
  0
LINE
  5
13F
330
1F
100
AcDbEntity
  8
0
  6
SLD-Solid
 62
     7
370
    15
100
AcDbLine
 10
572.9232027712
 20
638.2998732197
 30
0.0
 11
572.9232027712
 21
636.6673019993
 31
0.0
  0
LWPOLYLINE
  5
140
330
1F
100
AcDbEntity
  8
0
  6
SLD-Solid
 62
     7
370
    15
100
AcDbPolyline
 90
        3
 70
   128
 43
0.0
 10
572.9232027712
 20
628.4153220522
 10
572.9207589808
 20
628.3714828359
 10
572.4766149703
 20
627.7985480892
  0
LINE
  5
141
330
1F
100
AcDbEntity
  8
0
  6
SLD-Solid
 62
     7
370
    15
100
AcDbLine
 10
572.4766149703
 20
627.7985480892
 30
0.0
 11
568.1697919551
 21
627.7985480892
 31
0.0
  0
LINE
  5
142
330
1F
100
AcDbEntity
  8
0
  6
SLD-Solid
 62
     7
370
    15
100
AcDbLine
 10
567.872305173
 20
628.1822604405
 30
0.0
 11
568.1697919551
 21
627.7985480892
 31
0.0
  0
LINE
  5
143
330
1F
100
AcDbEntity
  8
0
  6
SLD-Solid
 62
     7
370
    15
100
AcDbLine
 10
572.9232027712
 20
628.4153220522
 30
0.0
 11
572.9232027712
 21
628.2998678552
 31
0.0
  0
LINE
  5
144
330
1F
100
AcDbEntity
  8
0
  6
SLD-Solid
 62
     7
370
    15
100
AcDbLine
 10
683.4232106391
 20
1285.6998649704
 30
0.0
 11
683.4232106391
 21
1266.9498530495
 31
0.0
  0
ARC
  5
145
330
1F
100
AcDbEntity
  8
0
  6
SLD-Solid
 62
     7
370
    15
100
AcDbCircle
 10
688.4231993797
 20
1285.6998690983
 30
0.0
 40
5.0
100
AcDbArc
 50
90.0
 51
180.0
  0
LINE
  5
146
330
1F
100
AcDbEntity
  8
0
  6
SLD-Solid
 62
     7
370
    15
100
AcDbLine
 10
1193.4232011023
 20
1290.699860202
 30
0.0
 11
688.4232058707
 21
1290.699860202
 31
0.0
  0
ARC
  5
147
330
1F
100
AcDbEntity
  8
0
  6
SLD-Solid
 62
     7
370
    15
100
AcDbCircle
 10
1193.4231993797
 20
1285.6998690983
 30
0.0
 40
5.000000000000227
100
AcDbArc
 50
0.0
 51
90.0
  0
LINE
  5
148
330
1F
100
AcDbEntity
  8
0
  6
SLD-Solid
 62
     7
370
    15
100
AcDbLine
 10
1198.4231963339
 20
1266.9498530495
 30
0.0
 11
1198.4231963339
 21
1285.6998649704
 31
0.0
  0
LINE
  5
149
330
1F
100
AcDbEntity
  8
0
  6
SLD-Solid
 62
     7
370
    15
100
AcDbLine
 10
683.4232106391
 20
1264.9498787987
 30
0.0
 11
683.4232106391
 21
1266.9498530495
 31
0.0
  0
LINE
  5
14A
330
1F
100
AcDbEntity
  8
0
  6
SLD-Solid
 62
     7
370
    15
100
AcDbLine
 10
1198.4231963339
 20
1266.9498530495
 30
0.0
 11
1198.4231963339
 21
1264.9498787987
 31
0.0
  0
LINE
  5
14B
330
1F
100
AcDbEntity
  8
0
  6
SLD-Solid
 62
     7
370
    15
100
AcDbLine
 10
1285.7231989089
 20
1127.6859847175
 30
0.0
 11
1285.7231989089
 21
1246.3736740219
 31
0.0
  0
ARC
  5
14C
330
1F
100
AcDbEntity
  8
0
  6
SLD-Solid
 62
     7
370
    15
100
AcDbCircle
 10
1286.7231993797
 20
1127.6859852779
 30
0.0
 40
1.000000000000227
100
AcDbArc
 50
180.0
 51
270.0
  0
ARC
  5
14D
330
1F
100
AcDbEntity
  8
0
  6
SLD-Solid
 62
     7
370
    15
100
AcDbCircle
 10
1286.7231993797
 20
1246.3736598051
 30
0.0
 40
1.0
100
AcDbArc
 50
90.0
 51
180.0
  0
LINE
  5
14E
330
1F
100
AcDbEntity
  8
0
  6
SLD-Solid
 62
     7
370
    15
100
AcDbLine
 10
1329.4753029528
 20
1171.6479865181
 30
0.0
 11
1305.1511838618
 21
1246.5099302399
 31
0.0
  0
LINE
  5
14F
330
1F
100
AcDbEntity
  8
0
  6
SLD-Solid
 62
     7
370
    15
100
AcDbLine
 10
1330.2361562434
 20
1171.8952265846
 30
0.0
 11
1305.9120371523
 21
1246.7571703064
 31
0.0
  0
ARC
  5
150
330
1F
100
AcDbEntity
  8
0
  6
SLD-Solid
 62
     7
370
    15
100
AcDbCircle
 10
1339.7467081705
 20
1174.985380283
 30
0.0
 40
10.80000000000002
100
AcDbArc
 50
198.0
 51
250.0
  0
ARC
  5
151
330
1F
100
AcDbEntity
  8
0
  6
SLD-Solid
 62
     7
370
    15
100
AcDbCircle
 10
1339.7467081705
 20
1174.985380283
 30
0.0
 40
10.00000000000003
100
AcDbArc
 50
198.0
 51
250.0
  0
ARC
  5
152
330
1F
100
AcDbEntity
  8
0
  6
SLD-Solid
 62
     7
370
    15
100
AcDbCircle
 10
1346.3672686805
 20
1127.9359852779
 30
0.0
 40
2.04999999999998
100
AcDbArc
 50
270.0
 51
320.0
  0
ARC
  5
153
330
1F
100
AcDbEntity
  8
0
  6
SLD-Solid
 62
     7
370
    15
100
AcDbCircle
 10
1346.3672686805
 20
1127.9359852779
 30
0.0
 40
1.250000000000015
100
AcDbArc
 50
270.0
 51
320.0
  0
LINE
  5
154
330
1F
100
AcDbEntity
  8
0
  6
SLD-Solid
 62
     7
370
    15
100
AcDbLine
 10
1285.7231989089
 20
1125.88598405
 30
0.0
 11
1346.3672592822
 21
1125.88598405
 31
0.0
  0
LINE
  5
155
330
1F
100
AcDbEntity
  8
0
  6
SLD-Solid
 62
     7
370
    15
100
AcDbLine
 10
1285.7231989089
 20
1126.6859975921
 30
0.0
 11
1346.3672592822
 21
1126.6859975921
 31
0.0
  0
LINE
  5
156
330
1F
100
AcDbEntity
  8
0
  6
SLD-Solid
 62
     7
370
    15
100
AcDbLine
 10
1285.7231989089
 20
1126.6859975921
 30
0.0
 11
1285.7231989089
 21
1125.88598405
 31
0.0
  0
LINE
  5
157
330
1F
100
AcDbEntity
  8
0
  6
SLD-Solid
 62
     7
370
    15
100
AcDbLine
 10
1355.7768955412
 20
1158.5090962517
 30
0.0
 11
1336.3264992419
 21
1165.5884591209
 31
0.0
  0
LINE
  5
158
330
1F
100
AcDbEntity
  8
0
  6
SLD-Solid
 62
     7
370
    15
100
AcDbLine
 10
1355.5032804194
 20
1157.7573624718
 30
0.0
 11
1336.05288412
 21
1164.836725341
 31
0.0
  0
LINE
  5
159
330
1F
100
AcDbEntity
  8
0
  6
SLD-Solid
 62
     7
370
    15
100
AcDbLine
 10
1347.3248377028
 20
1127.1324959862
 30
0.0
 11
1359.7435250464
 21
1141.9325080978
 31
0.0
  0
LINE
  5
15A
330
1F
100
AcDbEntity
  8
0
  6
SLD-Solid
 62
     7
370
    15
100
AcDbLine
 10
1347.9376628581
 20
1126.6182867157
 30
0.0
 11
1360.3563502017
 21
1141.4182988273
 31
0.0
  0
ARC
  5
15B
330
1F
100
AcDbEntity
  8
0
  6
SLD-Solid
 62
     7
370
    15
100
AcDbCircle
 10
1352.0830819497
 20
1148.3604097611
 30
0.0
 40
10.80000000000014
100
AcDbArc
 50
320.0
 51
70.0
  0
ARC
  5
15C
330
1F
100
AcDbEntity
  8
0
  6
SLD-Solid
 62
     7
370
    15
100
AcDbCircle
 10
1352.0830819497
 20
1148.3604097611
 30
0.0
 40
10.00000000000018
100
AcDbArc
 50
320.0
 51
70.0
  0
ARC
  5
15D
330
1F
100
AcDbEntity
  8
0
  6
SLD-Solid
 62
     7
370
    15
100
AcDbCircle
 10
1303.9623601956
 20
1246.1236598051
 30
0.0
 40
2.049999999999984
100
AcDbArc
 50
18.0
 51
90.0
  0
ARC
  5
15E
330
1F
100
AcDbEntity
  8
0
  6
SLD-Solid
 62
     7
370
    15
100
AcDbCircle
 10
1303.9623601956
 20
1246.1236598051
 30
0.0
 40
1.25
100
AcDbArc
 50
18.0
 51
90.0
  0
LINE
  5
15F
330
1F
100
AcDbEntity
  8
0
  6
SLD-Solid
 62
     7
370
    15
100
AcDbLine
 10
1285.7231989089
 20
1247.3736611473
 30
0.0
 11
1303.9623692217
 21
1247.3736611473
 31
0.0
  0
LINE
  5
160
330
1F
100
AcDbEntity
  8
0
  6
SLD-Solid
 62
     7
370
    15
100
AcDbLine
 10
1285.7231989089
 20
1248.1736746895
 30
0.0
 11
1303.9623692217
 21
1248.1736746895
 31
0.0
  0
LINE
  5
161
330
1F
100
AcDbEntity
  8
0
  6
SLD-Solid
 62
     7
370
    15
100
AcDbLine
 10
1285.7231989089
 20
1248.1736746895
 30
0.0
 11
1285.7231989089
 21
1247.3736611473
 31
0.0
  0
LINE
  5
162
330
1F
100
AcDbEntity
  8
0
  6
SLD-Solid
 62
     7
370
    15
100
AcDbLine
 10
1305.5156662646
 20
1247.9770389664
 30
0.0
 11
1305.9120371523
 21
1246.7571703064
 31
0.0
  0
LWPOLYLINE
  5
163
330
1F
100
AcDbEntity
  8
0
  6
SLD-Solid
 62
     7
370
    15
100
AcDbPolyline
 90
        3
 70
   128
 43
0.0
 10
1304.9673631373
 20
1249.451836692
 10
1304.8317029658
 20
1249.1971460449
 10
1304.7173514548
 20
1248.8671151268
  0
LWPOLYLINE
  5
164
330
1F
100
AcDbEntity
  8
0
  6
SLD-Solid
 62
     7
370
    15
100
AcDbPolyline
 90
        3
 70
   128
 43
0.0
 10
1306.1960532847
 20
1249.5052424538
 10
1305.9964671317
 20
1249.3934837448
 10
1305.865783948
 20
1249.2901888954
  0
ARC
  5
165
330
1F
100
AcDbEntity
  8
0
  6
SLD-Solid
 62
     7
370
    15
100
AcDbCircle
 10
1306.7044789118
 20
1248.3633105009
 30
0.0
 40
1.249999999999923
100
AcDbArc
 50
165.3068750746
 51
198.0
  0
LINE
  5
166
330
1F
100
AcDbEntity
  8
0
  6
SLD-Solid
 62
     7
370
    15
100
AcDbLine
 10
1306.1960532847
 20
1249.5052424538
 30
0.0
 11
1309.8044588748
 21
1251.111826049
 31
0.0
  0
LINE
  5
167
330
1F
100
AcDbEntity
  8
0
  6
SLD-Solid
 62
     7
370
    15
100
AcDbLine
 10
1284.2731967154
 20
1265.0998440849
 30
0.0
 11
1201.6332044783
 21
1265.0998440849
 31
0.0
  0
LINE
  5
168
330
1F
100
AcDbEntity
  8
0
  6
SLD-Solid
 62
     7
370
    15
100
AcDbLine
 10
1201.6332044783
 20
1265.0998440849
 30
0.0
 11
1201.6332044783
 21
1267.5498930084
 31
0.0
  0
LINE
  5
169
330
1F
100
AcDbEntity
  8
0
  6
SLD-Solid
 62
     7
370
    15
100
AcDbLine
 10
1284.2731967154
 20
1267.5498930084
 30
0.0
 11
1284.2731967154
 21
1265.0998440849
 31
0.0
  0
LINE
  5
16A
330
1F
100
AcDbEntity
  8
0
  6
SLD-Solid
 62
     7
370
    15
100
AcDbLine
 10
1201.6332044783
 20
1280.2498546707
 30
0.0
 11
1201.6332044783
 21
1267.5498930084
 31
0.0
  0
ARC
  5
16B
330
1F
100
AcDbEntity
  8
0
  6
SLD-Solid
 62
     7
370
    15
100
AcDbCircle
 10
1202.8731993797
 20
1280.2498690983
 30
0.0
 40
1.240000000000236
100
AcDbArc
 50
90.0
 51
180.0
  0
LINE
  5
16C
330
1F
100
AcDbEntity
  8
0
  6
SLD-Solid
 62
     7
370
    15
100
AcDbLine
 10
1224.6732011023
 20
1281.4898697006
 30
0.0
 11
1202.8732046071
 21
1281.4898697006
 31
0.0
  0
ARC
  5
16D
330
1F
100
AcDbEntity
  8
0
  6
SLD-Solid
 62
     7
370
    15
100
AcDbCircle
 10
1224.6731993797
 20
1283.9498690983
 30
0.0
 40
2.459999999999809
100
AcDbArc
 50
270.0
 51
0.0
  0
LINE
  5
16E
330
1F
100
AcDbEntity
  8
0
  6
SLD-Solid
 62
     7
370
    15
100
AcDbLine
 10
1227.1332040015
 20
1300.1998869049
 30
0.0
 11
1227.1332040015
 21
1283.9498725998
 31
0.0
  0
LINE
  5
16F
330
1F
100
AcDbEntity
  8
0
  6
SLD-Solid
 62
     7
370
    15
100
AcDbLine
 10
1228.3732041302
 20
1300.1998869049
 30
0.0
 11
1227.1332040015
 21
1300.1998869049
 31
0.0
  0
LINE
  5
170
330
1F
100
AcDbEntity
  8
0
  6
SLD-Solid
 62
     7
370
    15
100
AcDbLine
 10
1228.3732041302
 20
1300.2498952019
 30
0.0
 11
1228.3732041302
 21
1300.1998869049
 31
0.0
  0
LINE
  5
171
330
1F
100
AcDbEntity
  8
0
  6
SLD-Solid
 62
     7
370
    15
100
AcDbLine
 10
1319.69000842
 20
1300.1998869049
 30
0.0
 11
1319.69000842
 21
1300.2498952019
 31
0.0
  0
LINE
  5
172
330
1F
100
AcDbEntity
  8
0
  6
SLD-Solid
 62
     7
370
    15
100
AcDbLine
 10
1320.1900019827
 20
1300.1998869049
 30
0.0
 11
1319.69000842
 21
1300.1998869049
 31
0.0
  0
LINE
  5
173
330
1F
100
AcDbEntity
  8
0
  6
SLD-Solid
 62
     7
370
    15
100
AcDbLine
 10
1320.1900019827
 20
1301.3941851723
 30
0.0
 11
1320.1900019827
 21
1300.1998869049
 31
0.0
  0
ARC
  5
174
330
1F
100
AcDbEntity
  8
0
  6
SLD-Solid
 62
     7
370
    15
100
AcDbCircle
 10
1319.6900078782
 20
1279.3998690983
 30
0.0
 40
22.00000000000029
100
AcDbArc
 50
293.5
 51
88.6977110648
  0
LINE
  5
175
330
1F
100
AcDbEntity
  8
0
  6
SLD-Solid
 62
     7
370
    15
100
AcDbLine
 10
1304.9673631373
 20
1249.0085569488
 30
0.0
 11
1304.9673631373
 21
1250.149866687
 31
0.0
  0
LINE
  5
176
330
1F
100
AcDbEntity
  8
0
  6
SLD-Solid
 62
     7
370
    15
100
AcDbLine
 10
1284.5232083979
 20
1267.5998417007
 30
0.0
 11
1284.5232083979
 21
1250.149866687
 31
0.0
  0
LINE
  5
177
330
1F
100
AcDbEntity
  8
0
  6
SLD-Solid
 62
     7
370
    15
100
AcDbLine
 10
1284.5127775851
 20
1267.5998417007
 30
0.0
 11
1284.5232083979
 21
1267.5998417007
 31
0.0
  0
ARC
  5
178
330
1F
100
AcDbEntity
  8
0
  6
SLD-Solid
 62
     7
370
    15
100
AcDbCircle
 10
1284.3981993797
 20
1267.5498690983
 30
0.0
 40
0.1250000000000312
100
AcDbArc
 50
23.5781784782
 51
156.4218215218
  0
LINE
  5
179
330
1F
100
AcDbEntity
  8
0
  6
SLD-Solid
 62
     7
370
    15
100
AcDbLine
 10
1284.2731967154
 20
1267.5998417007
 30
0.0
 11
1284.2836275282
 21
1267.5998417007
 31
0.0
  0
LINE
  5
17A
330
1F
100
AcDbEntity
  8
0
  6
SLD-Solid
 62
     7
370
    15
100
AcDbLine
 10
1284.2731967154
 20
1267.5498930084
 30
0.0
 11
1284.2731967154
 21
1267.5998417007
 31
0.0
  0
ARC
  5
17B
330
1F
100
AcDbEntity
  8
0
  6
SLD-Solid
 62
     7
370
    15
100
AcDbCircle
 10
1307.682071016
 20
1264.092668737
 30
0.0
 40
0.250000000000152
100
AcDbArc
 50
99.9421486626
 51
279.9421486628
  0
ARC
  5
17C
330
1F
100
AcDbEntity
  8
0
  6
SLD-Solid
 62
     7
370
    15
100
AcDbCircle
 10
1307.1900078782
 20
1266.8998690983
 30
0.0
 40
3.100000000000089
100
AcDbArc
 50
279.9421486627
 51
80.0578513373
  0
ARC
  5
17D
330
1F
100
AcDbEntity
  8
0
  6
SLD-Solid
 62
     7
370
    15
100
AcDbCircle
 10
1307.682071016
 20
1269.7070694596
 30
0.0
 40
0.2500000000001912
100
AcDbArc
 50
80.0578513373
 51
260.0578513373
  0
ARC
  5
17E
330
1F
100
AcDbEntity
  8
0
  6
SLD-Solid
 62
     7
370
    15
100
AcDbCircle
 10
1307.1900078782
 20
1266.8998690983
 30
0.0
 40
2.59999999999993
100
AcDbArc
 50
279.9421486627
 51
80.0578513373
  0
ARC
  5
17F
330
1F
100
AcDbEntity
  8
0
  6
SLD-Solid
 62
     7
370
    15
100
AcDbCircle
 10
1306.6979447404
 20
1269.7070694596
 30
0.0
 40
0.2500000000001912
100
AcDbArc
 50
279.9421486627
 51
99.9421486627
  0
ARC
  5
180
330
1F
100
AcDbEntity
  8
0
  6
SLD-Solid
 62
     7
370
    15
100
AcDbCircle
 10
1307.1900078782
 20
1266.8998690983
 30
0.0
 40
3.100000000000049
100
AcDbArc
 50
99.9421486627
 51
260.0578513373
  0
ARC
  5
181
330
1F
100
AcDbEntity
  8
0
  6
SLD-Solid
 62
     7
370
    15
100
AcDbCircle
 10
1306.6979447404
 20
1264.092668737
 30
0.0
 40
0.2500000000001912
100
AcDbArc
 50
260.0578513374
 51
80.0578513373
  0
ARC
  5
182
330
1F
100
AcDbEntity
  8
0
  6
SLD-Solid
 62
     7
370
    15
100
AcDbCircle
 10
1307.1900078782
 20
1266.8998690983
 30
0.0
 40
2.59999999999993
100
AcDbArc
 50
99.9421486627
 51
260.0578513373
  0
LINE
  5
183
330
1F
100
AcDbEntity
  8
0
  6
SLD-Solid
 62
     7
370
    15
100
AcDbLine
 10
1304.9673631373
 20
1249.0085569488
 30
0.0
 11
1328.4625008288
 21
1259.2245546448
 31
0.0
  0
ARC
  5
184
330
1F
100
AcDbEntity
  8
0
  6
SLD-Solid
 62
     7
370
    15
100
AcDbCircle
 10
1304.8423528075
 20
1250.1498690983
 30
0.0
 40
0.125
100
AcDbArc
 50
0.0
 51
180.0
  0
LINE
  5
185
330
1F
100
AcDbEntity
  8
0
  6
SLD-Solid
 62
     7
370
    15
100
AcDbLine
 10
1304.7173514548
 20
1250.149866687
 30
0.0
 11
1304.7173514548
 21
1248.0295506584
 31
0.0
  0
LINE
  5
186
330
1F
100
AcDbEntity
  8
0
  6
SLD-Solid
 62
     7
370
    15
100
AcDbLine
 10
1284.5232083979
 20
1249.2170539963
 30
0.0
 11
1284.5232083979
 21
1250.149866687
 31
0.0
  0
LINE
  5
187
330
1F
100
AcDbEntity
  8
0
  6
SLD-Solid
 62
     7
370
    15
100
AcDbLine
 10
1319.69000842
 20
1302.6998845207
 30
0.0
 11
1319.69000842
 21
1300.2498952019
 31
0.0
  0
LINE
  5
188
330
1F
100
AcDbEntity
  8
0
  6
SLD-Solid
 62
     7
370
    15
100
AcDbLine
 10
1228.3732041302
 20
1300.2498952019
 30
0.0
 11
1228.3732041302
 21
1302.6998845207
 31
0.0
  0
LINE
  5
189
330
1F
100
AcDbEntity
  8
0
  6
SLD-Solid
 62
     7
370
    15
100
AcDbLine
 10
1228.3732041302
 20
1302.6998845207
 30
0.0
 11
1319.69000842
 21
1302.6998845207
 31
0.0
  0
LINE
  5
18A
330
1F
100
AcDbEntity
  8
0
  6
SLD-Solid
 62
     7
370
    15
100
AcDbLine
 10
1227.1232053223
 20
1300.2498952019
 30
0.0
 11
1227.1232053223
 21
1283.9498725998
 31
0.0
  0
LINE
  5
18B
330
1F
100
AcDbEntity
  8
0
  6
SLD-Solid
 62
     7
370
    15
100
AcDbLine
 10
1225.9231999102
 20
1300.2498952019
 30
0.0
 11
1225.9231999102
 21
1283.9498725998
 31
0.0
  0
LINE
  5
18C
330
1F
100
AcDbEntity
  8
0
  6
SLD-Solid
 62
     7
370
    15
100
AcDbLine
 10
1227.1232053223
 20
1300.2498952019
 30
0.0
 11
1225.9231999102
 21
1300.2498952019
 31
0.0
  0
ARC
  5
18D
330
1F
100
AcDbEntity
  8
0
  6
SLD-Solid
 62
     7
370
    15
100
AcDbCircle
 10
1224.6731993797
 20
1283.9498690983
 30
0.0
 40
2.450000000000273
100
AcDbArc
 50
270.0
 51
0.0
  0
ARC
  5
18E
330
1F
100
AcDbEntity
  8
0
  6
SLD-Solid
 62
     7
370
    15
100
AcDbCircle
 10
1224.6731993797
 20
1283.9498690983
 30
0.0
 40
1.25
100
AcDbArc
 50
270.0
 51
0.0
  0
LINE
  5
18F
330
1F
100
AcDbEntity
  8
0
  6
SLD-Solid
 62
     7
370
    15
100
AcDbLine
 10
1201.6232057992
 20
1280.2498546707
 30
0.0
 11
1201.6232057992
 21
1273.6998406517
 31
0.0
  0
LINE
  5
190
330
1F
100
AcDbEntity
  8
0
  6
SLD-Solid
 62
     7
370
    15
100
AcDbLine
 10
1200.4232003871
 20
1280.2498546707
 30
0.0
 11
1200.4232003871
 21
1273.6998406517
 31
0.0
  0
LINE
  5
191
330
1F
100
AcDbEntity
  8
0
  6
SLD-Solid
 62
     7
370
    15
100
AcDbLine
 10
1201.6232057992
 20
1272.6998535263
 30
0.0
 11
1200.4232003871
 21
1272.6998535263
 31
0.0
  0
LINE
  5
192
330
1F
100
AcDbEntity
  8
0
  6
SLD-Solid
 62
     7
370
    15
100
AcDbLine
 10
1201.6232057992
 20
1273.6998406517
 30
0.0
 11
1201.6232057992
 21
1272.6998535263
 31
0.0
  0
LINE
  5
193
330
1F
100
AcDbEntity
  8
0
  6
SLD-Solid
 62
     7
370
    15
100
AcDbLine
 10
1200.4232003871
 20
1272.6998535263
 30
0.0
 11
1200.4232003871
 21
1273.6998406517
 31
0.0
  0
LINE
  5
194
330
1F
100
AcDbEntity
  8
0
  6
SLD-Solid
 62
     7
370
    15
100
AcDbLine
 10
1224.6732011023
 20
1281.4998832809
 30
0.0
 11
1202.8732046071
 21
1281.4998832809
 31
0.0
  0
LINE
  5
195
330
1F
100
AcDbEntity
  8
0
  6
SLD-Solid
 62
     7
370
    15
100
AcDbLine
 10
1224.6732011023
 20
1282.6998439895
 30
0.0
 11
1202.8732046071
 21
1282.6998439895
 31
0.0
  0
ARC
  5
196
330
1F
100
AcDbEntity
  8
0
  6
SLD-Solid
 62
     7
370
    15
100
AcDbCircle
 10
1202.8731993797
 20
1280.2498690983
 30
0.0
 40
1.25
100
AcDbArc
 50
90.0
 51
180.0
  0
ARC
  5
197
330
1F
100
AcDbEntity
  8
0
  6
SLD-Solid
 62
     7
370
    15
100
AcDbCircle
 10
1202.8731993797
 20
1280.2498690983
 30
0.0
 40
2.450000000000045
100
AcDbArc
 50
90.0
 51
180.0
  0
LINE
  5
198
330
1F
100
AcDbEntity
  8
0
  6
SLD-Solid
 62
     7
370
    15
100
AcDbLine
 10
1320.1900019827
 20
1301.4942017662
 30
0.0
 11
1320.1900019827
 21
1302.6945201027
 31
0.0
  0
ARC
  5
199
330
1F
100
AcDbEntity
  8
0
  6
SLD-Solid
 62
     7
370
    15
100
AcDbCircle
 10
1319.6900078782
 20
1279.3998690983
 30
0.0
 40
23.30000000000013
100
AcDbArc
 50
293.5
 51
88.7703824493
  0
ARC
  5
19A
330
1F
100
AcDbEntity
  8
0
  6
SLD-Solid
 62
     7
370
    15
100
AcDbCircle
 10
1319.6900078782
 20
1279.3998690983
 30
0.0
 40
22.10000000000001
100
AcDbArc
 50
293.5
 51
88.703604783
  0
LINE
  5
19B
330
1F
100
AcDbEntity
  8
0
  6
SLD-Solid
 62
     7
370
    15
100
AcDbLine
 10
1306.7268326464
 20
1248.3560649025
 30
0.0
 11
1328.9808526221
 21
1258.03234254
 31
0.0
  0
LINE
  5
19C
330
1F
100
AcDbEntity
  8
0
  6
SLD-Solid
 62
     7
370
    15
100
AcDbLine
 10
1306.2483265582
 20
1249.4564858543
 30
0.0
 11
1328.5023763362
 21
1259.1328230965
 31
0.0
  0
LINE
  5
19D
330
1F
100
AcDbEntity
  8
0
  6
SLD-Solid
 62
     7
370
    15
100
AcDbLine
 10
1305.8097555819
 20
1247.9573098289
 30
0.0
 11
1305.3312494937
 21
1249.0577307808
 31
0.0
  0
LWPOLYLINE
  5
19E
330
1F
100
AcDbEntity
  8
0
  6
SLD-Solid
 62
     7
370
    15
100
AcDbPolyline
 90
        9
 70
   128
 43
0.0
 10
1306.7268326464
 20
1248.3560649025
 10
1306.5478995028
 20
1248.2782212364
 10
1306.375880498
 20
1248.2034174072
 10
1306.2173321429
 20
1248.1345144379
 10
1306.0783639136
 20
1248.074075328
 10
1305.9643104258
 20
1248.0244842636
 10
1305.8795526209
 20
1247.9876485931
 10
1305.8273687544
 20
1247.9649392235
 10
1305.8097555819
 20
1247.9573098289
  0
LWPOLYLINE
  5
19F
330
1F
100
AcDbEntity
  8
0
  6
SLD-Solid
 62
     7
370
    15
100
AcDbPolyline
 90
        9
 70
   128
 43
0.0
 10
1305.3312494937
 20
1249.0577307808
 10
1305.3488924685
 20
1249.06541978
 10
1305.401076335
 20
1249.0881291496
 10
1305.4858043376
 20
1249.1249648201
 10
1305.5998578253
 20
1249.1745558845
 10
1305.7388260546
 20
1249.2349949943
 10
1305.8973744097
 20
1249.3038979637
 10
1306.0694232169
 20
1249.3787017929
 10
1306.2483265582
 20
1249.4564858543
  0
ARC
  5
1A0
330
1F
100
AcDbEntity
  8
0
  6
SLD-Solid
 62
     7
370
    15
100
AcDbCircle
 10
1228.3731993797
 20
1300.2498690983
 30
0.0
 40
1.25
100
AcDbArc
 50
90.0
 51
180.0
  0
ARC
  5
1A1
330
1F
100
AcDbEntity
  8
0
  6
SLD-Solid
 62
     7
370
    15
100
AcDbCircle
 10
1228.3731993797
 20
1300.2498690983
 30
0.0
 40
2.450000000000045
100
AcDbArc
 50
90.0
 51
180.0
  0
ARC
  5
1A2
330
1F
100
AcDbEntity
  8
0
  6
SLD-Solid
 62
     7
370
    15
100
AcDbCircle
 10
1319.6900078782
 20
1279.3998690983
 30
0.0
 40
23.30000000000013
100
AcDbArc
 50
88.7703824493
 51
90.0
  0
ARC
  5
1A3
330
1F
100
AcDbEntity
  8
0
  6
SLD-Solid
 62
     7
370
    15
100
AcDbCircle
 10
1319.6900078782
 20
1279.3998690983
 30
0.0
 40
22.10000000000014
100
AcDbArc
 50
88.703604783
 51
90.0
  0
LWPOLYLINE
  5
1A4
330
1F
100
AcDbEntity
  8
0
  6
SLD-Solid
 62
     7
370
    15
100
AcDbPolyline
 90
        7
 70
   128
 43
0.0
 10
1324.8867585841
 20
1216.2983623611
 10
1324.9009146872
 20
1216.2547913658
 10
1325.0124349776
 20
1215.9116474258
 10
1325.2264156523
 20
1215.2530161011
 10
1325.5255415621
 20
1214.3324223625
 10
1325.8855834189
 20
1213.2243720161
 10
1325.8910670462
 20
1213.207444297
  0
LWPOLYLINE
  5
1A5
330
1F
100
AcDbEntity
  8
0
  6
SLD-Solid
 62
     7
370
    15
100
AcDbPolyline
 90
        6
 70
   128
 43
0.0
 10
1330.3663923922
 20
1238.2666674721
 10
1329.8423483554
 20
1239.8794499504
 10
1329.4270529929
 20
1241.157611953
 10
1329.1262283507
 20
1242.0834509003
 10
1328.9440467539
 20
1242.6441517937
 10
1328.8830414
 20
1242.8319064247
  0
LWPOLYLINE
  5
1A6
330
1F
100
AcDbEntity
  8
0
  6
SLD-Solid
 62
     7
370
    15
100
AcDbPolyline
 90
        6
 70
   128
 43
0.0
 10
1346.4970185938
 20
1188.6217204201
 10
1346.4360132399
 20
1188.8094750511
 10
1346.2538316432
 20
1189.3701759445
 10
1345.953007001
 20
1190.2960148918
 10
1345.5376818362
 20
1191.5741768944
 10
1345.0136676016
 20
1193.1870189773
  0
LWPOLYLINE
  5
1A7
330
1F
100
AcDbEntity
  8
0
  6
SLD-Solid
 62
     7
370
    15
100
AcDbPolyline
 90
        7
 70
   128
 43
0.0
 10
1340.8794298354
 20
1189.4806233513
 10
1340.8609225932
 20
1189.6144357788
 10
1340.8924236479
 20
1189.7775140869
 10
1340.9749462786
 20
1189.9529901611
 10
1341.1092355433
 20
1190.1426521408
 10
1341.4401903334
 20
1190.4792395698
 10
1341.8065204802
 20
1190.7735673057
  0
LINE
  5
1A8
330
1F
100
AcDbEntity
  8
0
  6
SLD-Solid
 62
     7
370
    15
100
AcDbLine
 10
1340.9286930743
 20
1189.3919316398
 30
0.0
 11
1340.8794298354
 21
1189.4806233513
 31
0.0
  0
LWPOLYLINE
  5
1A9
330
1F
100
AcDbEntity
  8
0
  6
SLD-Solid
 62
     7
370
    15
100
AcDbPolyline
 90
        7
 70
   128
 43
0.0
 10
1341.8065204802
 20
1190.7735673057
 10
1342.1818509284
 20
1191.0355297195
 10
1342.5601020041
 20
1191.232940303
 10
1342.7405848685
 20
1191.2843195068
 10
1342.8901031199
 20
1191.2830678093
 10
1342.9959013644
 20
1191.2233439552
 10
1342.9979279223
 20
1191.2198272812
  0
LINE
  5
1AA
330
1F
100
AcDbEntity
  8
0
  6
SLD-Solid
 62
     7
370
    15
100
AcDbLine
 10
1341.3324251357
 20
1188.3395520317
 30
0.0
 11
1341.1479785624
 21
1188.8872591125
 31
0.0
  0
LWPOLYLINE
  5
1AB
330
1F
100
AcDbEntity
  8
0
  6
SLD-Solid
 62
     7
370
    15
100
AcDbPolyline
 90
        4
 70
   128
 43
0.0
 10
1342.355151433
 20
1189.3485394585
 10
1342.3783972445
 20
1189.3162933456
 10
1342.4185111704
 20
1189.3007365333
 10
1342.5289883795
 20
1189.3083659279
  0
ARC
  5
1AC
330
1F
100
AcDbEntity
  8
0
  6
SLD-Solid
 62
     7
370
    15
100
AcDbCircle
 10
1342.6210823798
 20
1189.8299148802
 30
0.0
 40
0.3959439211156102
100
AcDbArc
 50
309.9942123316
 51
1.6982099774
  0
LINE
  5
1AD
330
1F
100
AcDbEntity
  8
0
  6
SLD-Solid
 62
     7
370
    15
100
AcDbLine
 10
1342.9457440558
 20
1189.3024054634
 30
0.0
 11
1342.8755595866
 21
1189.5265785324
 31
0.0
  0
LWPOLYLINE
  5
1AE
330
1F
100
AcDbEntity
  8
0
  6
SLD-Solid
 62
     7
370
    15
100
AcDbPolyline
 90
        6
 70
   128
 43
0.0
 10
1342.5321176234
 20
1189.9731365311
 10
1342.8142562094
 20
1190.1532021629
 10
1342.9486646834
 20
1190.2094689476
 10
1343.0757417861
 20
1190.2415362465
 10
1343.2770564738
 20
1190.23003255
 10
1343.3280482474
 20
1190.1735273468
  0
ARC
  5
1AF
330
1F
100
AcDbEntity
  8
0
  6
SLD-Solid
 62
     7
370
    15
100
AcDbCircle
 10
1343.0482440009
 20
1189.0410069038
 30
0.0
 40
1.065482087882773
100
AcDbArc
 50
118.9735908253
 51
177.9753595983
  0
LINE
  5
1B0
330
1F
100
AcDbEntity
  8
0
  6
SLD-Solid
 62
     7
370
    15
100
AcDbLine
 10
1342.0272662821
 20
1189.0186873543
 30
0.0
 11
1341.9834270659
 21
1189.0786496269
 31
0.0
  0
LINE
  5
1B1
330
1F
100
AcDbEntity
  8
0
  6
SLD-Solid
 62
     7
370
    15
100
AcDbLine
 10
1341.6383757773
 20
1188.7785998451
 30
0.0
 11
1342.0272662821
 21
1189.0186873543
 31
0.0
  0
LINE
  5
1B2
330
1F
100
AcDbEntity
  8
0
  6
SLD-Solid
 62
     7
370
    15
100
AcDbLine
 10
1341.1479785624
 20
1188.8872591125
 30
0.0
 11
1341.5069475356
 21
1189.1634670364
 31
0.0
  0
LINE
  5
1B3
330
1F
100
AcDbEntity
  8
0
  6
SLD-Solid
 62
     7
370
    15
100
AcDbLine
 10
1341.6012122813
 20
1187.4700990784
 30
0.0
 11
1341.5063216868
 21
1187.7560225593
 31
0.0
  0
LINE
  5
1B4
330
1F
100
AcDbEntity
  8
0
  6
SLD-Solid
 62
     7
370
    15
100
AcDbLine
 10
1341.5063216868
 20
1187.7560225593
 30
0.0
 11
1343.5572877112
 21
1189.3684474098
 31
0.0
  0
LWPOLYLINE
  5
1B5
330
1F
100
AcDbEntity
  8
0
  6
SLD-Solid
 62
     7
370
    15
100
AcDbPolyline
 90
        7
 70
   128
 43
0.0
 10
1336.3785042945
 20
1203.3552137482
 10
1336.3330259505
 20
1203.5738435852
 10
1336.3430693331
 20
1203.8046327698
 10
1336.4121213141
 20
1204.021712886
 10
1336.5408971491
 20
1204.2281237709
 10
1336.8808820429
 20
1204.5363989937
 10
1337.269146699
 20
1204.7605720627
  0
ARC
  5
1B6
330
1F
100
AcDbEntity
  8
0
  6
SLD-Solid
 62
     7
370
    15
100
AcDbCircle
 10
1336.9966981596
 20
1203.5197039502
 30
0.0
 40
0.639703588774029
100
AcDbArc
 50
194.900132677
 51
242.6029885191
  0
ARC
  5
1B7
330
1F
100
AcDbEntity
  8
0
  6
SLD-Solid
 62
     7
370
    15
100
AcDbCircle
 10
1337.9650413959
 20
1203.8739770361
 30
0.0
 40
1.127084810574909
100
AcDbArc
 50
63.0283538932
 51
128.1286188178
  0
LWPOLYLINE
  5
1B8
330
1F
100
AcDbEntity
  8
0
  6
SLD-Solid
 62
     7
370
    15
100
AcDbPolyline
 90
        7
 70
   128
 43
0.0
 10
1337.3758092108
 20
1201.7044631111
 10
1337.4051644984
 20
1201.6388980018
 10
1337.4489143077
 20
1201.5839425194
 10
1337.5039889994
 20
1201.5457359421
 10
1337.5699117365
 20
1201.5227285492
 10
1337.7112641516
 20
1201.5232053863
 10
1337.8528847876
 20
1201.5733924972
  0
LINE
  5
1B9
330
1F
100
AcDbEntity
  8
0
  6
SLD-Solid
 62
     7
370
    15
100
AcDbLine
 10
1338.5975256148
 20
1203.2383886444
 30
0.0
 11
1338.9833166781
 21
1203.4424749481
 31
0.0
  0
LINE
  5
1BA
330
1F
100
AcDbEntity
  8
0
  6
SLD-Solid
 62
     7
370
    15
100
AcDbLine
 10
1338.8630941096
 20
1202.4331894981
 30
0.0
 11
1338.5975256148
 21
1203.2383886444
 31
0.0
  0
LINE
  5
1BB
330
1F
100
AcDbEntity
  8
0
  6
SLD-Solid
 62
     7
370
    15
100
AcDbLine
 10
1338.5214104834
 20
1202.5485840904
 30
0.0
 11
1338.8630941096
 21
1202.4331894981
 31
0.0
  0
ARC
  5
1BC
330
1F
100
AcDbEntity
  8
0
  6
SLD-Solid
 62
     7
370
    15
100
AcDbCircle
 10
1337.923247008
 20
1201.3471202796
 30
0.0
 40
1.342130706026178
100
AcDbArc
 50
63.5330198588
 51
113.3426675839
  0
ARC
  5
1BD
330
1F
100
AcDbEntity
  8
0
  6
SLD-Solid
 62
     7
370
    15
100
AcDbCircle
 10
1337.8287854636
 20
1201.7984468882
 30
0.0
 40
0.8950669469376948
100
AcDbArc
 50
119.2486288179
 51
197.7649068158
  0
ARC
  5
1BE
330
1F
100
AcDbEntity
  8
0
  6
SLD-Solid
 62
     7
370
    15
100
AcDbCircle
 10
1337.5841659521
 20
1201.6716832145
 30
0.0
 40
0.625135477091488
100
AcDbArc
 50
193.5374309909
 51
249.9126121486
  0
LINE
  5
1BF
330
1F
100
AcDbEntity
  8
0
  6
SLD-Solid
 62
     7
370
    15
100
AcDbLine
 10
1337.7362384978
 20
1199.3863192665
 30
0.0
 11
1337.5364735308
 21
1200.0037637817
 31
0.0
  0
LINE
  5
1C0
330
1F
100
AcDbEntity
  8
0
  6
SLD-Solid
 62
     7
370
    15
100
AcDbLine
 10
1337.5364735308
 20
1200.0037637817
 30
0.0
 11
1339.7090628329
 21
1201.2201753723
 31
0.0
  0
LWPOLYLINE
  5
1C1
330
1F
100
AcDbEntity
  8
0
  6
SLD-Solid
 62
     7
370
    15
100
AcDbPolyline
 90
       10
 70
   128
 43
0.0
 10
1320.6310763541
 20
1243.380209552
 10
1320.6309869471
 20
1243.380209552
 10
1320.8203211012
 20
1243.3541027176
 10
1321.3589980784
 20
1243.2853785621
 10
1322.1659257594
 20
1243.1982365715
 10
1323.1192424479
 20
1243.1200948822
 10
1324.0743472758
 20
1243.0695501434
 10
1324.8857155028
 20
1243.0490461456
 10
1325.4283859912
 20
1243.047138797
 10
1325.6198957148
 20
1243.0487481224
  0
LWPOLYLINE
  5
1C2
330
1F
100
AcDbEntity
  8
0
  6
SLD-Solid
 62
     7
370
    15
100
AcDbPolyline
 90
       10
 70
   128
 43
0.0
 10
1335.7354595843
 20
1201.8260565864
 10
1335.5851068678
 20
1201.917907344
 10
1335.0795402709
 20
1201.9658294784
 10
1334.5706954184
 20
1201.7922011482
 10
1334.1359987441
 20
1201.4255729782
 10
1333.8419094267
 20
1200.9201851951
 10
1333.7289586249
 20
1200.3556696045
 10
1333.8133289996
 20
1199.8185125458
 10
1334.0811922732
 20
1199.3918624985
 10
1334.2977955523
 20
1199.2582884895
  0
LWPOLYLINE
  5
1C3
330
1F
100
AcDbEntity
  8
0
  6
SLD-Solid
 62
     7
370
    15
100
AcDbPolyline
 90
       12
 70
   128
 43
0.0
 10
1340.2191295806
 20
1187.0732513534
 10
1340.4907181445
 20
1187.4966827499
 10
1340.5967846099
 20
1187.8668871986
 10
1340.513785142
 20
1188.1281939613
 10
1340.2563824835
 20
1188.2417408096
 10
1339.866687316
 20
1188.1885734665
 10
1339.4068374816
 20
1187.9712549316
 10
1338.9491632166
 20
1187.6221505272
 10
1338.5638489905
 20
1187.1931162941
 10
1338.3061483088
 20
1186.7526379692
 10
1338.2128074351
 20
1186.3711682426
 10
1338.2955982867
 20
1186.110517131
  0
LWPOLYLINE
  5
1C4
330
1F
100
AcDbEntity
  8
0
  6
SLD-Solid
 62
     7
370
    15
100
AcDbPolyline
 90
        9
 70
   128
 43
0.0
 10
1337.2831537905
 20
1195.6457105743
 10
1337.144900817
 20
1195.7292762863
 10
1336.9097008887
 20
1195.7412568199
 10
1336.66114952
 20
1195.6507173645
 10
1336.4373936835
 20
1195.4712477791
 10
1336.2723484221
 20
1195.2302662002
 10
1336.1904218379
 20
1194.9650851356
 10
1336.2034156504
 20
1194.7165337669
 10
1336.3090648833
 20
1194.5227590668
  0
LWPOLYLINE
  5
1C5
330
1F
100
AcDbEntity
  8
0
  6
SLD-Solid
 62
     7
370
    15
100
AcDbPolyline
 90
        9
 70
   128
 43
0.0
 10
1338.7825980368
 20
1191.1686268913
 10
1338.6379971686
 20
1191.2488547432
 10
1338.4219899359
 20
1191.2437883484
 10
1338.1817236128
 20
1191.145857917
 10
1337.9542722884
 20
1190.9696069824
 10
1337.7741470519
 20
1190.741976844
 10
1337.6681401911
 20
1190.4981938469
 10
1337.6515700999
 20
1190.2761665451
 10
1337.726552743
 20
1190.1101080047
  0
LWPOLYLINE
  5
1C6
330
1F
100
AcDbEntity
  8
0
  6
SLD-Solid
 62
     7
370
    15
100
AcDbPolyline
 90
       12
 70
   128
 43
0.0
 10
1340.5369117442
 20
1184.7107616531
 10
1340.6974270526
 20
1184.8951188194
 10
1340.7833769503
 20
1185.041329013
 10
1340.7808735552
 20
1185.1279941666
 10
1340.6901850882
 20
1185.1421204674
 10
1340.5255868617
 20
1185.0810257065
 10
1340.3130665007
 20
1184.9528757202
 10
1340.0856151763
 20
1184.7764459717
 10
1339.8780718032
 20
1184.5783797371
 10
1339.7214904013
 20
1184.3894330131
 10
1339.6388485613
 20
1184.2393485176
 10
1339.6420672122
 20
1184.1517892944
  0
LWPOLYLINE
  5
1C7
330
1F
100
AcDbEntity
  8
0
  6
SLD-Solid
 62
     7
370
    15
100
AcDbPolyline
 90
        3
 70
   128
 43
0.0
 10
1340.7619192782
 20
1183.8738528358
 10
1340.9431472006
 20
1184.0335336792
 10
1341.0586610022
 20
1184.1445771324
  0
LWPOLYLINE
  5
1C8
330
1F
100
AcDbEntity
  8
0
  6
SLD-Solid
 62
     7
370
    15
100
AcDbPolyline
 90
       10
 70
   128
 43
0.0
 10
1341.0890891734
 20
1184.1896978485
 10
1341.0900130454
 20
1184.1910091507
 10
1341.0321965399
 20
1184.1661540138
 10
1340.8943906012
 20
1184.0732303726
 10
1340.6984403315
 20
1183.9254704582
 10
1340.4749825183
 20
1183.7443319427
 10
1340.2582600299
 20
1183.5571137535
 10
1340.080876607
 20
1183.3927837478
 10
1339.9690284911
 20
1183.2773891556
 10
1339.9389579478
 20
1183.2293478119
  0
LWPOLYLINE
  5
1C9
330
1F
100
AcDbEntity
  8
0
  6
SLD-Solid
 62
     7
370
    15
100
AcDbPolyline
 90
       31
 70
   128
 43
0.0
 10
1338.2225229922
 20
1181.7273107635
 10
1338.1675079051
 20
1181.8966475593
 10
1338.0030586901
 20
1182.4027505981
 10
1337.7309634867
 20
1183.2401362526
 10
1337.3542323294
 20
1184.3995658027
 10
1336.877007741
 20
1185.8684030639
 10
1336.3044455233
 20
1187.6304951774
 10
1335.642893571
 20
1189.6665302383
 10
1334.899564046
 20
1191.9542757141
 10
1334.0826227847
 20
1194.4685784447
 10
1333.2009806815
 20
1197.1819606888
 10
1332.2643234912
 20
1200.0646797287
 10
1331.2829330149
 20
1203.0851451027
 10
1330.2675380889
 20
1206.2102166283
 10
1329.2292549792
 20
1209.4057408439
 10
1328.1794681731
 20
1212.6366702186
 10
1327.129681367
 20
1215.8675399887
 10
1326.0913982573
 20
1219.0630642044
 10
1325.0759735289
 20
1222.18813573
 10
1324.0945830527
 20
1225.208601104
 10
1323.1579258624
 20
1228.0913201439
 10
1322.2763135615
 20
1230.804702388
 10
1321.4593424979
 20
1233.3190051185
 10
1320.7160129729
 20
1235.6067505943
 10
1320.0544610205
 20
1237.6428452598
 10
1319.4819286051
 20
1239.4049373733
 10
1319.0046742144
 20
1240.8737150299
 10
1318.6279430571
 20
1242.0332041847
 10
1318.355877656
 20
1242.8705302345
 10
1318.1914284411
 20
1243.3766332733
 10
1318.136413354
 20
1243.5459700691
  0
LWPOLYLINE
  5
1CA
330
1F
100
AcDbEntity
  8
0
  6
SLD-Solid
 62
     7
370
    15
100
AcDbPolyline
 90
       17
 70
   128
 43
0.0
 10
1336.2433805647
 20
1200.1322713959
 10
1336.3648548308
 20
1200.6895748245
 10
1336.2863555136
 20
1201.2269106972
 10
1336.0124721709
 20
1201.6573158371
 10
1335.5891599837
 20
1201.9157019722
 10
1335.0831463519
 20
1201.9633260834
 10
1334.5742418948
 20
1201.789220916
 10
1334.1395750228
 20
1201.4218774902
 10
1333.845813531
 20
1200.9156552421
 10
1333.7336375895
 20
1200.3509012329
 10
1333.8190212432
 20
1199.8133865463
 10
1334.0877785864
 20
1199.3872729408
 10
1334.4996466818
 20
1199.1346088516
 10
1334.9948420706
 20
1199.0947333443
 10
1335.5004086676
 20
1199.2715207207
 10
1335.9402015391
 20
1199.6396986114
 10
1336.2433805647
 20
1200.1322713959
  0
LWPOLYLINE
  5
1CB
330
1F
100
AcDbEntity
  8
0
  6
SLD-Solid
 62
     7
370
    15
100
AcDbPolyline
 90
       17
 70
   128
 43
0.0
 10
1330.933232564
 20
1236.5220395195
 10
1331.5759196463
 20
1234.5440593826
 10
1332.2966292086
 20
1232.3259917366
 10
1333.086122531
 20
1229.8961487877
 10
1333.9343860331
 20
1227.2854653465
 10
1334.8305418673
 20
1224.5273796188
 10
1335.7632055464
 20
1221.6569987404
 10
1336.7204263392
 20
1218.7109199631
 10
1337.6900150958
 20
1215.7268134224
 10
1338.6596336547
 20
1212.7427068817
 10
1339.6168544474
 20
1209.7966281044
 10
1340.5494883242
 20
1206.9262472259
 10
1341.4456739607
 20
1204.1681614982
 10
1342.2939076605
 20
1201.5575376617
 10
1343.0834307852
 20
1199.1276351082
 10
1343.8041105452
 20
1196.9095674621
 10
1344.4467976275
 20
1194.9315873253
  0
LWPOLYLINE
  5
1CC
330
1F
100
AcDbEntity
  8
0
  6
SLD-Solid
 62
     7
370
    15
100
AcDbPolyline
 90
        7
 70
   128
 43
0.0
 10
1336.3831236544
 20
1203.3530679809
 10
1336.3376155081
 20
1203.5718170273
 10
1336.3476290885
 20
1203.8026062118
 10
1336.4166810694
 20
1204.0196863281
 10
1336.5454271021
 20
1204.2261568176
 10
1336.8854119959
 20
1204.534491645
 10
1337.2736468497
 20
1204.758664714
  0
LWPOLYLINE
  5
1CD
330
1F
100
AcDbEntity
  8
0
  6
SLD-Solid
 62
     7
370
    15
100
AcDbPolyline
 90
        7
 70
   128
 43
0.0
 10
1337.2736468497
 20
1204.758664714
 10
1337.677647132
 20
1204.9288955795
 10
1338.0955352965
 20
1205.0002423393
 10
1338.3104994479
 20
1204.9663272964
 10
1338.480789918
 20
1204.8764434921
 10
1338.6168375197
 20
1204.7189680206
 10
1338.704962987
 20
1204.5223919021
  0
LWPOLYLINE
  5
1CE
330
1F
100
AcDbEntity
  8
0
  6
SLD-Solid
 62
     7
370
    15
100
AcDbPolyline
 90
        7
 70
   128
 43
0.0
 10
1338.704962987
 20
1204.5223919021
 10
1338.7508883658
 20
1204.3070403206
 10
1338.7431099597
 20
1204.0801850426
 10
1338.6746242228
 20
1203.8674560654
 10
1338.5460272017
 20
1203.6621180641
 10
1338.2090821448
 20
1203.3559290039
 10
1337.8246619883
 20
1203.1344977486
  0
LWPOLYLINE
  5
1CF
330
1F
100
AcDbEntity
  8
0
  6
SLD-Solid
 62
     7
370
    15
100
AcDbPolyline
 90
        3
 70
   128
 43
0.0
 10
1337.8246619883
 20
1203.1344977486
 10
1337.3572125617
 20
1202.9427496063
 10
1336.8788852873
 20
1202.891966449
  0
ARC
  5
1D0
330
1F
100
AcDbEntity
  8
0
  6
SLD-Solid
 62
     7
370
    15
100
AcDbCircle
 10
1337.0066499342
 20
1203.5263992136
 30
0.0
 40
0.6471697905319844
100
AcDbArc
 50
195.5351567281
 51
258.6138370141
  0
ARC
  5
1D1
330
1F
100
AcDbEntity
  8
0
  6
SLD-Solid
 62
     7
370
    15
100
AcDbCircle
 10
1338.069035657
 20
1204.250096753
 30
0.0
 40
0.2567813080482336
100
AcDbArc
 50
17.1919522254
 51
87.9635296352
  0
LWPOLYLINE
  5
1D2
330
1F
100
AcDbEntity
  8
0
  6
SLD-Solid
 62
     7
370
    15
100
AcDbPolyline
 90
        3
 70
   128
 43
0.0
 10
1338.0781605425
 20
1204.5067158806
 10
1337.7465799037
 20
1204.453786956
 10
1337.4254002753
 20
1204.3172923195
  0
LWPOLYLINE
  5
1D3
330
1F
100
AcDbEntity
  8
0
  6
SLD-Solid
 62
     7
370
    15
100
AcDbPolyline
 90
        7
 70
   128
 43
0.0
 10
1337.4254002753
 20
1204.3172923195
 10
1336.9761898699
 20
1204.0392366516
 10
1336.8795409384
 20
1203.9435115921
 10
1336.805273551
 20
1203.826746093
 10
1336.7657556716
 20
1203.6946025955
 10
1336.7657556716
 20
1203.627070533
 10
1336.7796733561
 20
1203.5630551445
  0
LWPOLYLINE
  5
1D4
330
1F
100
AcDbEntity
  8
0
  6
SLD-Solid
 62
     7
370
    15
100
AcDbPolyline
 90
        7
 70
   128
 43
0.0
 10
1336.7796733561
 20
1203.5630551445
 10
1336.843450326
 20
1203.4512368309
 10
1336.891521472
 20
1203.4101692306
 10
1336.9465961638
 20
1203.3829895126
 10
1337.0685174647
 20
1203.367492305
 10
1337.198336381
 20
1203.3841816055
 10
1337.6943364325
 20
1203.5798040497
  0
LWPOLYLINE
  5
1D5
330
1F
100
AcDbEntity
  8
0
  6
SLD-Solid
 62
     7
370
    15
100
AcDbPolyline
 90
        6
 70
   128
 43
0.0
 10
1337.6943364325
 20
1203.5798040497
 10
1338.1326987925
 20
1203.85493909
 10
1338.2251157942
 20
1203.9514390098
 10
1338.294793624
 20
1204.0677276718
 10
1338.329274911
 20
1204.1977254021
 10
1338.3143439475
 20
1204.3259945976
  0
LWPOLYLINE
  5
1D6
330
1F
100
AcDbEntity
  8
0
  6
SLD-Solid
 62
     7
370
    15
100
AcDbPolyline
 90
        3
 70
   128
 43
0.0
 10
1336.3831236544
 20
1203.3530679809
 10
1336.3808288756
 20
1203.3541408645
 10
1336.3785042945
 20
1203.3552137482
  0
ARC
  5
1D7
330
1F
100
AcDbEntity
  8
0
  6
SLD-Solid
 62
     7
370
    15
100
AcDbCircle
 10
1338.0644835733
 20
1204.2521221807
 30
0.0
 40
0.256781108660894
100
AcDbArc
 50
17.2200754239
 51
87.9718948935
  0
LWPOLYLINE
  5
1D8
330
1F
100
AcDbEntity
  8
0
  6
SLD-Solid
 62
     7
370
    15
100
AcDbPolyline
 90
        6
 70
   128
 43
0.0
 10
1337.6897170725
 20
1203.5820094215
 10
1338.1280496302
 20
1203.8571444618
 10
1338.2204964343
 20
1203.9536443817
 10
1338.290174264
 20
1204.0699330437
 10
1338.324655551
 20
1204.1999307739
 10
1338.3097543898
 20
1204.3281403648
  0
LWPOLYLINE
  5
1D9
330
1F
100
AcDbEntity
  8
0
  6
SLD-Solid
 62
     7
370
    15
100
AcDbPolyline
 90
        7
 70
   128
 43
0.0
 10
1336.7750539961
 20
1203.5652009117
 10
1336.8388309661
 20
1203.4534422027
 10
1336.8869021121
 20
1203.4123746025
 10
1336.9419768038
 20
1203.3851948845
 10
1337.0638981047
 20
1203.3696976768
 10
1337.1936872187
 20
1203.386446582
 10
1337.6897170725
 20
1203.5820094215
  0
LINE
  5
1DA
330
1F
100
AcDbEntity
  8
0
  6
SLD-Solid
 62
     7
370
    15
100
AcDbLine
 10
1338.3097543898
 20
1204.3281403648
 30
0.0
 11
1338.3143439475
 21
1204.3259945976
 31
0.0
  0
LINE
  5
1DB
330
1F
100
AcDbEntity
  8
0
  6
SLD-Solid
 62
     7
370
    15
100
AcDbLine
 10
1337.8577127638
 20
1201.5705910789
 30
0.0
 11
1337.9886045638
 21
1201.1550274956
 31
0.0
  0
ARC
  5
1DC
330
1F
100
AcDbEntity
  8
0
  6
SLD-Solid
 62
     7
370
    15
100
AcDbCircle
 10
1337.6183221886
 20
1201.7045005139
 30
0.0
 40
0.662593114383049
100
AcDbArc
 50
195.9277017529
 51
303.975492868
  0
ARC
  5
1DD
330
1F
100
AcDbEntity
  8
0
  6
SLD-Solid
 62
     7
370
    15
100
AcDbCircle
 10
1337.8336166358
 20
1201.7958971628
 30
0.0
 40
0.8951671817497613
100
AcDbArc
 50
119.2540156968
 51
197.7717557468
  0
ARC
  5
1DE
330
1F
100
AcDbEntity
  8
0
  6
SLD-Solid
 62
     7
370
    15
100
AcDbCircle
 10
1337.9278144348
 20
1201.3452444465
 30
0.0
 40
1.34149851113045
100
AcDbArc
 50
63.5099874292
 51
113.3477452719
  0
LINE
  5
1DF
330
1F
100
AcDbEntity
  8
0
  6
SLD-Solid
 62
     7
370
    15
100
AcDbLine
 10
1338.526178855
 20
1202.5459018814
 30
0.0
 11
1338.8678922835
 21
1202.4305072891
 31
0.0
  0
LINE
  5
1E0
330
1F
100
AcDbEntity
  8
0
  6
SLD-Solid
 62
     7
370
    15
100
AcDbLine
 10
1338.8678922835
 20
1202.4305072891
 30
0.0
 11
1338.6022343817
 21
1203.235944854
 31
0.0
  0
LINE
  5
1E1
330
1F
100
AcDbEntity
  8
0
  6
SLD-Solid
 62
     7
370
    15
100
AcDbLine
 10
1338.6022343817
 20
1203.235944854
 30
0.0
 11
1338.988025445
 21
1203.4400311577
 31
0.0
  0
LINE
  5
1E2
330
1F
100
AcDbEntity
  8
0
  6
SLD-Solid
 62
     7
370
    15
100
AcDbLine
 10
1338.988025445
 20
1203.4400311577
 30
0.0
 11
1339.4927277747
 21
1201.8801776039
 31
0.0
  0
LINE
  5
1E3
330
1F
100
AcDbEntity
  8
0
  6
SLD-Solid
 62
     7
370
    15
100
AcDbLine
 10
1339.4927277747
 20
1201.8801776039
 30
0.0
 11
1339.2928435984
 21
1201.7743197548
 31
0.0
  0
LINE
  5
1E4
330
1F
100
AcDbEntity
  8
0
  6
SLD-Solid
 62
     7
370
    15
100
AcDbLine
 10
1339.2928435984
 20
1201.7743197548
 30
0.0
 11
1338.3823230448
 21
1202.1022049057
 31
0.0
  0
ARC
  5
1E5
330
1F
100
AcDbEntity
  8
0
  6
SLD-Solid
 62
     7
370
    15
100
AcDbCircle
 10
1337.9077177126
 20
1201.2480471228
 30
0.0
 40
0.9771569676340387
100
AcDbArc
 50
60.9416423639
 51
110.1111499127
  0
ARC
  5
1E6
330
1F
100
AcDbEntity
  8
0
  6
SLD-Solid
 62
     7
370
    15
100
AcDbCircle
 10
1337.7474859535
 20
1201.8219087798
 30
0.0
 40
0.3860448047102189
100
AcDbArc
 50
117.0825840779
 51
198.1301159272
  0
LWPOLYLINE
  5
1E7
330
1F
100
AcDbEntity
  8
0
  6
SLD-Solid
 62
     7
370
    15
100
AcDbPolyline
 90
        7
 70
   128
 43
0.0
 10
1337.3806073847
 20
1201.7017809021
 10
1337.40993287
 20
1201.6361561882
 10
1337.4537124816
 20
1201.5812007057
 10
1337.5087871733
 20
1201.5429345238
 10
1337.5747099105
 20
1201.5199271309
 10
1337.7160623255
 20
1201.520403968
 10
1337.8577127638
 20
1201.5705910789
  0
LINE
  5
1E8
330
1F
100
AcDbEntity
  8
0
  6
SLD-Solid
 62
     7
370
    15
100
AcDbLine
 10
1337.396164197
 20
1202.5768962967
 30
0.0
 11
1337.3914554301
 21
1202.5793996918
 31
0.0
  0
LWPOLYLINE
  5
1E9
330
1F
100
AcDbEntity
  8
0
  6
SLD-Solid
 62
     7
370
    15
100
AcDbPolyline
 90
        3
 70
   128
 43
0.0
 10
1336.9811668578
 20
1201.5226689445
 10
1336.978782672
 20
1201.5240398514
 10
1336.9763984862
 20
1201.5253511535
  0
LWPOLYLINE
  5
1EA
330
1F
100
AcDbEntity
  8
0
  6
SLD-Solid
 62
     7
370
    15
100
AcDbPolyline
 90
        3
 70
   128
 43
0.0
 10
1337.8577127638
 20
1201.5705910789
 10
1337.8552987757
 20
1201.5720215904
 10
1337.8528847876
 20
1201.5733924972
  0
LINE
  5
1EB
330
1F
100
AcDbEntity
  8
0
  6
SLD-Solid
 62
     7
370
    15
100
AcDbLine
 10
1338.988025445
 20
1203.4400311577
 30
0.0
 11
1338.9833166781
 21
1203.4424749481
 31
0.0
  0
LINE
  5
1EC
330
1F
100
AcDbEntity
  8
0
  6
SLD-Solid
 62
     7
370
    15
100
AcDbLine
 10
1338.6022343817
 20
1203.235944854
 30
0.0
 11
1338.5975256148
 21
1203.2383886444
 31
0.0
  0
LINE
  5
1ED
330
1F
100
AcDbEntity
  8
0
  6
SLD-Solid
 62
     7
370
    15
100
AcDbLine
 10
1338.8678922835
 20
1202.4305072891
 30
0.0
 11
1338.8630941096
 21
1202.4331894981
 31
0.0
  0
LINE
  5
1EE
330
1F
100
AcDbEntity
  8
0
  6
SLD-Solid
 62
     7
370
    15
100
AcDbLine
 10
1339.7139802161
 20
1201.2170163261
 30
0.0
 11
1339.7090628329
 21
1201.2201753723
 31
0.0
  0
LINE
  5
1EF
330
1F
100
AcDbEntity
  8
0
  6
SLD-Solid
 62
     7
370
    15
100
AcDbLine
 10
1337.5414207163
 20
1200.0006047356
 30
0.0
 11
1339.7139802161
 21
1201.2170163261
 31
0.0
  0
LINE
  5
1F0
330
1F
100
AcDbEntity
  8
0
  6
SLD-Solid
 62
     7
370
    15
100
AcDbLine
 10
1337.5414207163
 20
1200.0006047356
 30
0.0
 11
1337.5364735308
 21
1200.0037637817
 31
0.0
  0
LINE
  5
1F1
330
1F
100
AcDbEntity
  8
0
  6
SLD-Solid
 62
     7
370
    15
100
AcDbLine
 10
1337.7412154856
 20
1199.3829814064
 30
0.0
 11
1337.5414207163
 21
1200.0006047356
 31
0.0
  0
LINE
  5
1F2
330
1F
100
AcDbEntity
  8
0
  6
SLD-Solid
 62
     7
370
    15
100
AcDbLine
 10
1339.7139802161
 20
1201.2170163261
 30
0.0
 11
1339.8475244227
 21
1200.8065191376
 31
0.0
  0
LINE
  5
1F3
330
1F
100
AcDbEntity
  8
0
  6
SLD-Solid
 62
     7
370
    15
100
AcDbLine
 10
1339.8475244227
 20
1200.8065191376
 30
0.0
 11
1338.0634679976
 21
1199.8076048958
 31
0.0
  0
LINE
  5
1F4
330
1F
100
AcDbEntity
  8
0
  6
SLD-Solid
 62
     7
370
    15
100
AcDbLine
 10
1338.0634679976
 20
1199.8076048958
 30
0.0
 11
1338.2047310057
 21
1199.3631330597
 31
0.0
  0
LINE
  5
1F5
330
1F
100
AcDbEntity
  8
0
  6
SLD-Solid
 62
     7
370
    15
100
AcDbLine
 10
1338.2047310057
 20
1199.3631330597
 30
0.0
 11
1337.7412154856
 21
1199.3829814064
 31
0.0
  0
LINE
  5
1F6
330
1F
100
AcDbEntity
  8
0
  6
SLD-Solid
 62
     7
370
    15
100
AcDbLine
 10
1337.7412154856
 20
1199.3829814064
 30
0.0
 11
1337.7362384978
 21
1199.3863192665
 31
0.0
  0
LWPOLYLINE
  5
1F7
330
1F
100
AcDbEntity
  8
0
  6
SLD-Solid
 62
     7
370
    15
100
AcDbPolyline
 90
       17
 70
   128
 43
0.0
 10
1337.3685374442
 20
1194.9083415138
 10
1337.4536826792
 20
1195.1709595787
 10
1337.4422087851
 20
1195.4183188545
 10
1337.3355462733
 20
1195.6129876243
 10
1337.150175828
 20
1195.7251039612
 10
1336.9149460974
 20
1195.7370844948
 10
1336.6663947287
 20
1195.646604644
 10
1336.4426686946
 20
1195.4670754539
 10
1336.2775936308
 20
1195.2260938751
 10
1336.1956968489
 20
1194.9608532059
 10
1336.2087204638
 20
1194.7122422325
 10
1336.3143696967
 20
1194.5184079277
 10
1336.4967599097
 20
1194.4087353813
 10
1336.7287709895
 20
1194.3993178474
 10
1336.9757726374
 20
1194.4911090004
 10
1337.2004821482
 20
1194.6698037254
 10
1337.3685374442
 20
1194.9083415138
  0
LWPOLYLINE
  5
1F8
330
1F
100
AcDbEntity
  8
0
  6
SLD-Solid
 62
     7
370
    15
100
AcDbPolyline
 90
       17
 70
   128
 43
0.0
 10
1338.7490704241
 20
1190.5286518204
 10
1338.8586833659
 20
1190.7689181434
 10
1338.8773992243
 20
1190.9888592827
 10
1338.8018801394
 20
1191.1555138695
 10
1338.6437192145
 20
1191.2433115112
 10
1338.4276821795
 20
1191.2382451164
 10
1338.1874158564
 20
1191.1403742897
 10
1337.959964532
 20
1190.9641233551
 10
1337.7798392954
 20
1190.7364932167
 10
1337.6738324347
 20
1190.4926506149
 10
1337.6572921458
 20
1190.2705637085
 10
1337.7322747889
 20
1190.1045051681
 10
1337.8875150862
 20
1190.0195685493
 10
1338.0999460402
 20
1190.0281516182
 10
1338.3380367938
 20
1190.1281086075
 10
1338.5659947577
 20
1190.3038827049
 10
1338.7490704241
 20
1190.5286518204
  0
ARC
  5
1F9
330
1F
100
AcDbEntity
  8
0
  6
SLD-Solid
 62
     7
370
    15
100
AcDbCircle
 10
1344.0155735673
 20
1193.8693499158
 30
0.0
 40
1.195364756529201
100
AcDbArc
 50
326.9491051268
 51
19.2574927188
  0
ARC
  5
1FA
330
1F
100
AcDbEntity
  8
0
  6
SLD-Solid
 62
     7
370
    15
100
AcDbCircle
 10
1345.0454625501
 20
1193.198440144
 30
0.0
 40
0.033784046422382
100
AcDbArc
 50
145.8251125083
 51
199.7589605063
  0
ARC
  5
1FB
330
1F
100
AcDbEntity
  8
0
  6
SLD-Solid
 62
     7
370
    15
100
AcDbCircle
 10
1329.9598020853
 20
1237.1276801973
 30
0.0
 40
1.195641620704604
100
AcDbArc
 50
16.7498556802
 51
69.0466255783
  0
ARC
  5
1FC
330
1F
100
AcDbEntity
  8
0
  6
SLD-Solid
 62
     7
370
    15
100
AcDbCircle
 10
1330.3997354153
 20
1238.2768557275
 30
0.0
 40
0.0348648495404131
100
AcDbArc
 50
196.9909953285
 51
249.2326286584
  0
LWPOLYLINE
  5
1FD
330
1F
100
AcDbEntity
  8
0
  6
SLD-Solid
 62
     7
370
    15
100
AcDbPolyline
 90
        7
 70
   128
 43
0.0
 10
1340.8854201022
 20
1189.4743052589
 10
1340.8668532553
 20
1189.6081176864
 10
1340.8983841124
 20
1189.7712555992
 10
1340.9808769408
 20
1189.9467316734
 10
1341.1151662055
 20
1190.1364532577
 10
1341.4461209956
 20
1190.4729810821
 10
1341.8124511424
 20
1190.7673684227
  0
LWPOLYLINE
  5
1FE
330
1F
100
AcDbEntity
  8
0
  6
SLD-Solid
 62
     7
370
    15
100
AcDbPolyline
 90
        7
 70
   128
 43
0.0
 10
1341.8124511424
 20
1190.7673684227
 10
1342.1877815905
 20
1191.0293308365
 10
1342.5660326663
 20
1191.2266818153
 10
1342.7465155306
 20
1191.2780610191
 10
1342.8960337821
 20
1191.2768093216
 10
1343.0018618289
 20
1191.2170854675
 10
1343.0607512179
 20
1191.1139098274
  0
LWPOLYLINE
  5
1FF
330
1F
100
AcDbEntity
  8
0
  6
SLD-Solid
 62
     7
370
    15
100
AcDbPolyline
 90
        7
 70
   128
 43
0.0
 10
1343.0607512179
 20
1191.1139098274
 10
1343.0796756926
 20
1190.9836140739
 10
1343.0490091029
 20
1190.8268538582
 10
1342.9663076583
 20
1190.6581727135
 10
1342.8313627425
 20
1190.4736367332
 10
1342.5016000453
 20
1190.1447383034
 10
1342.1386673632
 20
1189.8551193344
  0
LWPOLYLINE
  5
200
330
1F
100
AcDbEntity
  8
0
  6
SLD-Solid
 62
     7
370
    15
100
AcDbPolyline
 90
        3
 70
   128
 43
0.0
 10
1342.1386673632
 20
1189.8551193344
 10
1341.7055800143
 20
1189.5540562736
 10
1341.2775292578
 20
1189.3430558311
  0
LWPOLYLINE
  5
201
330
1F
100
AcDbEntity
  8
0
  6
SLD-Solid
 62
     7
370
    15
100
AcDbPolyline
 90
        6
 70
   128
 43
0.0
 10
1341.2775292578
 20
1189.3430558311
 10
1341.1361768427
 20
1189.3174854385
 10
1341.0187258902
 20
1189.330836879
 10
1340.9346535388
 20
1189.3854943382
 10
1340.9060731116
 20
1189.4264427292
 10
1340.8854201022
 20
1189.4743052589
  0
LWPOLYLINE
  5
202
330
1F
100
AcDbEntity
  8
0
  6
SLD-Solid
 62
     7
370
    15
100
AcDbPolyline
 90
        5
 70
   128
 43
0.0
 10
1342.6945700827
 20
1190.8383575546
 10
1342.6704003993
 20
1190.8759084808
 10
1342.6271274272
 20
1190.8946243393
 10
1342.5694599333
 20
1190.8942071068
 10
1342.5032093707
 20
1190.8778158295
  0
LWPOLYLINE
  5
203
330
1F
100
AcDbEntity
  8
0
  6
SLD-Solid
 62
     7
370
    15
100
AcDbPolyline
 90
        3
 70
   128
 43
0.0
 10
1342.5032093707
 20
1190.8778158295
 10
1342.2038450423
 20
1190.7223073112
 10
1341.9054939929
 20
1190.5130950081
  0
LWPOLYLINE
  5
204
330
1F
100
AcDbEntity
  8
0
  6
SLD-Solid
 62
     7
370
    15
100
AcDbPolyline
 90
        7
 70
   128
 43
0.0
 10
1341.9054939929
 20
1190.5130950081
 10
1341.4800360385
 20
1190.1600566971
 10
1341.3850262347
 20
1190.0592652428
 10
1341.3075699988
 20
1189.9522153007
 10
1341.2594690505
 20
1189.847132312
 10
1341.252674121
 20
1189.8007598984
 10
1341.2584855738
 20
1189.7618380653
  0
LWPOLYLINE
  5
205
330
1F
100
AcDbEntity
  8
0
  6
SLD-Solid
 62
     7
370
    15
100
AcDbPolyline
 90
        6
 70
   128
 43
0.0
 10
1341.2584855738
 20
1189.7618380653
 10
1341.3039639178
 20
1189.7086111175
 10
1341.3881852809
 20
1189.6996108162
 10
1341.4816751662
 20
1189.7276846039
 10
1341.6109278384
 20
1189.7918192016
 10
1342.0697941962
 20
1190.1052204239
  0
LWPOLYLINE
  5
206
330
1F
100
AcDbEntity
  8
0
  6
SLD-Solid
 62
     7
370
    15
100
AcDbPolyline
 90
        6
 70
   128
 43
0.0
 10
1342.0697941962
 20
1190.1052204239
 10
1342.4861624423
 20
1190.4515830147
 10
1342.5780728045
 20
1190.5506459343
 10
1342.6515951338
 20
1190.6550732719
 10
1342.6952555361
 20
1190.7562223541
 10
1342.6945700827
 20
1190.8383575546
  0
LWPOLYLINE
  5
207
330
1F
100
AcDbEntity
  8
0
  6
SLD-Solid
 62
     7
370
    15
100
AcDbPolyline
 90
        3
 70
   128
 43
0.0
 10
1340.8854201022
 20
1189.4743052589
 10
1340.8824100676
 20
1189.4774643051
 10
1340.8794298354
 20
1189.4806233513
  0
LWPOLYLINE
  5
208
330
1F
100
AcDbEntity
  8
0
  6
SLD-Solid
 62
     7
370
    15
100
AcDbPolyline
 90
        6
 70
   128
 43
0.0
 10
1342.0638039294
 20
1190.1116577255
 10
1342.4801721755
 20
1190.4580203163
 10
1342.5720825377
 20
1190.5570236313
 10
1342.645604867
 20
1190.6614509689
 10
1342.6892950717
 20
1190.7626000511
 10
1342.6886096182
 20
1190.844675647
  0
LWPOLYLINE
  5
209
330
1F
100
AcDbEntity
  8
0
  6
SLD-Solid
 62
     7
370
    15
100
AcDbPolyline
 90
        6
 70
   128
 43
0.0
 10
1341.252495307
 20
1189.7682157623
 10
1341.297973651
 20
1189.7149888145
 10
1341.3821950141
 20
1189.7059885132
 10
1341.4756848994
 20
1189.7340623009
 10
1341.6049375716
 20
1189.7981968986
 10
1342.0638039294
 20
1190.1116577255
  0
LWPOLYLINE
  5
20A
330
1F
100
AcDbEntity
  8
0
  6
SLD-Solid
 62
     7
370
    15
100
AcDbPolyline
 90
       17
 70
   128
 43
0.0
 10
1340.2252390566
 20
1187.0664564239
 10
1340.4962315741
 20
1187.4886957275
 10
1340.6028642836
 20
1187.8602114784
 10
1340.5196263972
 20
1188.1218162643
 10
1340.2619555178
 20
1188.2352439033
 10
1339.8718729201
 20
1188.1818381416
 10
1339.4117846671
 20
1187.9641619789
 10
1338.9539315882
 20
1187.6145807373
 10
1338.5686173621
 20
1187.1849504577
 10
1338.3114829245
 20
1186.7444721329
 10
1338.2188275042
 20
1186.362883197
 10
1338.3028104487
 20
1186.1021128761
 10
1338.5494842711
 20
1186.0000697243
 10
1338.9246359053
 20
1186.0717145073
 10
1339.3742635432
 20
1186.3017884361
 10
1339.8330106917
 20
1186.6542903053
 10
1340.2252390566
 20
1187.0664564239
  0
ARC
  5
20B
330
1F
100
AcDbEntity
  8
0
  6
SLD-Solid
 62
     7
370
    15
100
AcDbCircle
 10
1332.5047494061
 20
1269.1801125817
 30
0.0
 40
26.58670166863203
100
AcDbArc
 50
263.2505790852
 51
263.7545850803
  0
LINE
  5
20C
330
1F
100
AcDbEntity
  8
0
  6
SLD-Solid
 62
     7
370
    15
100
AcDbLine
 10
1329.6124532405
 20
1242.7512017357
 30
0.0
 11
1348.590303916
 21
1240.6306472885
 31
0.0
  0
LINE
  5
20D
330
1F
100
AcDbEntity
  8
0
  6
SLD-Solid
 62
     7
370
    15
100
AcDbLine
 10
1348.590303916
 20
1240.6306472885
 30
0.0
 11
1350.0601544562
 21
1240.4687014686
 31
0.0
  0
LWPOLYLINE
  5
20E
330
1F
100
AcDbEntity
  8
0
  6
SLD-Solid
 62
     7
370
    15
100
AcDbPolyline
 90
        3
 70
   128
 43
0.0
 10
1341.252495307
 20
1189.7682157623
 10
1341.2555053416
 20
1189.7650567161
 10
1341.2584855738
 20
1189.7618380653
  0
LINE
  5
20F
330
1F
100
AcDbEntity
  8
0
  6
SLD-Solid
 62
     7
370
    15
100
AcDbLine
 10
1342.6886096182
 20
1190.844675647
 30
0.0
 11
1342.6945700827
 21
1190.8383575546
 31
0.0
  0
LINE
  5
210
330
1F
100
AcDbEntity
  8
0
  6
SLD-Solid
 62
     7
370
    15
100
AcDbLine
 10
1341.3385346118
 20
1188.3328763115
 30
0.0
 11
1341.1539986315
 21
1188.8807026016
 31
0.0
  0
LINE
  5
211
330
1F
100
AcDbEntity
  8
0
  6
SLD-Solid
 62
     7
370
    15
100
AcDbLine
 10
1341.1539986315
 20
1188.8807026016
 30
0.0
 11
1341.5129676047
 21
1189.1569701301
 31
0.0
  0
LINE
  5
212
330
1F
100
AcDbEntity
  8
0
  6
SLD-Solid
 62
     7
370
    15
100
AcDbLine
 10
1341.5129676047
 20
1189.1569701301
 30
0.0
 11
1341.6444554511
 21
1188.7719241249
 31
0.0
  0
LINE
  5
213
330
1F
100
AcDbEntity
  8
0
  6
SLD-Solid
 62
     7
370
    15
100
AcDbLine
 10
1341.6444554511
 20
1188.7719241249
 30
0.0
 11
1342.0333459559
 21
1189.012011634
 31
0.0
  0
LINE
  5
214
330
1F
100
AcDbEntity
  8
0
  6
SLD-Solid
 62
     7
370
    15
100
AcDbLine
 10
1342.0333459559
 20
1189.012011634
 30
0.0
 11
1341.9894769374
 21
1189.0719739067
 31
0.0
  0
ARC
  5
215
330
1F
100
AcDbEntity
  8
0
  6
SLD-Solid
 62
     7
370
    15
100
AcDbCircle
 10
1343.0544558634
 20
1189.0344181555
 30
0.0
 40
1.065640909161668
100
AcDbArc
 50
118.9788184277
 51
177.9803405621
  0
LWPOLYLINE
  5
216
330
1F
100
AcDbEntity
  8
0
  6
SLD-Solid
 62
     7
370
    15
100
AcDbPolyline
 90
        6
 70
   128
 43
0.0
 10
1342.5381674948
 20
1189.9666396248
 10
1342.8203060809
 20
1190.146645652
 10
1342.9546847525
 20
1190.2029124367
 10
1343.0817916575
 20
1190.2349797356
 10
1343.2831063452
 20
1190.2234164345
 10
1343.3865800086
 20
1190.1087370979
  0
ARC
  5
217
330
1F
100
AcDbEntity
  8
0
  6
SLD-Solid
 62
     7
370
    15
100
AcDbCircle
 10
1342.4220546601
 20
1190.1016333416
 30
0.0
 40
0.9645515077630347
100
AcDbArc
 50
303.3169225167
 51
0.4219773956
  0
LINE
  5
218
330
1F
100
AcDbEntity
  8
0
  6
SLD-Solid
 62
     7
370
    15
100
AcDbLine
 10
1342.9518535319
 20
1189.2956105339
 30
0.0
 11
1342.8816690627
 21
1189.5198432075
 31
0.0
  0
ARC
  5
219
330
1F
100
AcDbEntity
  8
0
  6
SLD-Solid
 62
     7
370
    15
100
AcDbCircle
 10
1342.626920736
 20
1189.8232658879
 30
0.0
 40
0.3961843420494853
100
AcDbArc
 50
310.0162263319
 51
1.6933120777
  0
LWPOLYLINE
  5
21A
330
1F
100
AcDbEntity
  8
0
  6
SLD-Solid
 62
     7
370
    15
100
AcDbPolyline
 90
        7
 70
   128
 43
0.0
 10
1343.0229320708
 20
1189.8349729645
 10
1342.9746225062
 20
1189.8859349357
 10
1342.9329290572
 20
1189.8927894699
 10
1342.8807153884
 20
1189.8871270286
 10
1342.8228392783
 20
1189.8698416817
 10
1342.7596583548
 20
1189.840754615
 10
1342.6307633105
 20
1189.7560564148
  0
LWPOLYLINE
  5
21B
330
1F
100
AcDbEntity
  8
0
  6
SLD-Solid
 62
     7
370
    15
100
AcDbPolyline
 90
        7
 70
   128
 43
0.0
 10
1342.6307633105
 20
1189.7560564148
 10
1342.5148322764
 20
1189.6540728676
 10
1342.4210443678
 20
1189.539572345
 10
1342.3868909064
 20
1189.4814578163
 10
1342.3646583739
 20
1189.4282308685
 10
1342.3561051074
 20
1189.3807259666
 10
1342.3612311068
 20
1189.3418637382
  0
LWPOLYLINE
  5
21C
330
1F
100
AcDbEntity
  8
0
  6
SLD-Solid
 62
     7
370
    15
100
AcDbPolyline
 90
        4
 70
   128
 43
0.0
 10
1342.3612311068
 20
1189.3418637382
 10
1342.3844769183
 20
1189.3096176254
 10
1342.4245610419
 20
1189.2940608131
 10
1342.5350680533
 20
1189.3016902077
  0
LINE
  5
21D
330
1F
100
AcDbEntity
  8
0
  6
SLD-Solid
 62
     7
370
    15
100
AcDbLine
 10
1342.5350680533
 20
1189.3016902077
 30
0.0
 11
1342.5197496596
 21
1189.0716758835
 31
0.0
  0
LINE
  5
21E
330
1F
100
AcDbEntity
  8
0
  6
SLD-Solid
 62
     7
370
    15
100
AcDbLine
 10
1342.5197496596
 20
1189.0716758835
 30
0.0
 11
1341.3385346118
 21
1188.3328763115
 31
0.0
  0
LINE
  5
21F
330
1F
100
AcDbEntity
  8
0
  6
SLD-Solid
 62
     7
370
    15
100
AcDbLine
 10
1341.5129676047
 20
1189.1569701301
 30
0.0
 11
1341.5069475356
 21
1189.1634670364
 31
0.0
  0
LINE
  5
220
330
1F
100
AcDbEntity
  8
0
  6
SLD-Solid
 62
     7
370
    15
100
AcDbLine
 10
1341.1539986315
 20
1188.8807026016
 30
0.0
 11
1341.1479785624
 21
1188.8872591125
 31
0.0
  0
LINE
  5
221
330
1F
100
AcDbEntity
  8
0
  6
SLD-Solid
 62
     7
370
    15
100
AcDbLine
 10
1341.3385346118
 20
1188.3328763115
 30
0.0
 11
1341.3324251357
 21
1188.3395520317
 31
0.0
  0
LWPOLYLINE
  5
222
330
1F
100
AcDbEntity
  8
0
  6
SLD-Solid
 62
     7
370
    15
100
AcDbPolyline
 90
        3
 70
   128
 43
0.0
 10
1342.5381674948
 20
1189.9666396248
 10
1342.5351276579
 20
1189.9699178802
 10
1342.5321176234
 20
1189.9731365311
  0
LINE
  5
223
330
1F
100
AcDbEntity
  8
0
  6
SLD-Solid
 62
     7
370
    15
100
AcDbLine
 10
1341.9894769374
 20
1189.0719739067
 30
0.0
 11
1341.9834270659
 21
1189.0786496269
 31
0.0
  0
LINE
  5
224
330
1F
100
AcDbEntity
  8
0
  6
SLD-Solid
 62
     7
370
    15
100
AcDbLine
 10
1343.0229320708
 20
1189.8349729645
 30
0.0
 11
1343.016852397
 21
1189.8416486847
 31
0.0
  0
LINE
  5
225
330
1F
100
AcDbEntity
  8
0
  6
SLD-Solid
 62
     7
370
    15
100
AcDbLine
 10
1342.0333459559
 20
1189.012011634
 30
0.0
 11
1342.0272662821
 21
1189.0186873543
 31
0.0
  0
LINE
  5
226
330
1F
100
AcDbEntity
  8
0
  6
SLD-Solid
 62
     7
370
    15
100
AcDbLine
 10
1342.5350680533
 20
1189.3016902077
 30
0.0
 11
1342.5289883795
 21
1189.3083659279
 31
0.0
  0
LINE
  5
227
330
1F
100
AcDbEntity
  8
0
  6
SLD-Solid
 62
     7
370
    15
100
AcDbLine
 10
1342.3612311068
 20
1189.3418637382
 30
0.0
 11
1342.355151433
 21
1189.3485394585
 31
0.0
  0
LINE
  5
228
330
1F
100
AcDbEntity
  8
0
  6
SLD-Solid
 62
     7
370
    15
100
AcDbLine
 10
1342.8816690627
 20
1189.5198432075
 30
0.0
 11
1342.8755595866
 21
1189.5265785324
 31
0.0
  0
LWPOLYLINE
  5
229
330
1F
100
AcDbEntity
  8
0
  6
SLD-Solid
 62
     7
370
    15
100
AcDbPolyline
 90
        3
 70
   128
 43
0.0
 10
1342.9518535319
 20
1189.2956105339
 10
1342.948813695
 20
1189.2990079986
 10
1342.9457440558
 20
1189.3024054634
  0
LINE
  5
22A
330
1F
100
AcDbEntity
  8
0
  6
SLD-Solid
 62
     7
370
    15
100
AcDbLine
 10
1343.5634567919
 20
1189.3615928757
 30
0.0
 11
1343.5572877112
 21
1189.3684474098
 31
0.0
  0
LINE
  5
22B
330
1F
100
AcDbEntity
  8
0
  6
SLD-Solid
 62
     7
370
    15
100
AcDbLine
 10
1341.5124609652
 20
1187.7491680252
 30
0.0
 11
1343.5634567919
 21
1189.3615928757
 31
0.0
  0
LINE
  5
22C
330
1F
100
AcDbEntity
  8
0
  6
SLD-Solid
 62
     7
370
    15
100
AcDbLine
 10
1341.5124609652
 20
1187.7491680252
 30
0.0
 11
1341.5063216868
 21
1187.7560225593
 31
0.0
  0
LINE
  5
22D
330
1F
100
AcDbEntity
  8
0
  6
SLD-Solid
 62
     7
370
    15
100
AcDbLine
 10
1341.607381362
 20
1187.4631253349
 30
0.0
 11
1341.5124609652
 21
1187.7491680252
 31
0.0
  0
LINE
  5
22E
330
1F
100
AcDbEntity
  8
0
  6
SLD-Solid
 62
     7
370
    15
100
AcDbLine
 10
1343.5634567919
 20
1189.3615928757
 30
0.0
 11
1343.627710599
 21
1189.1702023613
 31
0.0
  0
LINE
  5
22F
330
1F
100
AcDbEntity
  8
0
  6
SLD-Solid
 62
     7
370
    15
100
AcDbLine
 10
1343.627710599
 20
1189.1702023613
 30
0.0
 11
1341.9433429423
 21
1187.8461447822
 31
0.0
  0
LINE
  5
230
330
1F
100
AcDbEntity
  8
0
  6
SLD-Solid
 62
     7
370
    15
100
AcDbLine
 10
1341.9433429423
 20
1187.8461447822
 30
0.0
 11
1342.0078649703
 21
1187.6439062225
 31
0.0
  0
LINE
  5
231
330
1F
100
AcDbEntity
  8
0
  6
SLD-Solid
 62
     7
370
    15
100
AcDbLine
 10
1342.0078649703
 20
1187.6439062225
 30
0.0
 11
1341.607381362
 21
1187.4631253349
 31
0.0
  0
LINE
  5
232
330
1F
100
AcDbEntity
  8
0
  6
SLD-Solid
 62
     7
370
    15
100
AcDbLine
 10
1341.607381362
 20
1187.4631253349
 30
0.0
 11
1341.6012122813
 21
1187.4700990784
 31
0.0
  0
LWPOLYLINE
  5
233
330
1F
100
AcDbEntity
  8
0
  6
SLD-Solid
 62
     7
370
    15
100
AcDbPolyline
 90
        9
 70
   128
 43
0.0
 10
1351.900477666
 20
1236.7128935921
 10
1353.0864014807
 20
1233.0630031692
 10
1354.2866602126
 20
1229.3690053093
 10
1355.4965152922
 20
1225.6454435455
 10
1356.7111685458
 20
1221.9071594345
 10
1357.925791997
 20
1218.1688753235
 10
1359.1356470767
 20
1214.4453135597
 10
1360.3359058085
 20
1210.7513156998
 10
1361.5218296233
 20
1207.1014252769
  0
LWPOLYLINE
  5
234
330
1F
100
AcDbEntity
  8
0
  6
SLD-Solid
 62
     7
370
    15
100
AcDbPolyline
 90
        5
 70
   128
 43
0.0
 10
1361.5218296233
 20
1207.1014252769
 10
1361.9584932509
 20
1205.7575789558
 10
1362.2775569144
 20
1204.7755328285
 10
1362.4718978587
 20
1204.1774002182
 10
1362.5371649447
 20
1203.9764729606
  0
LWPOLYLINE
  5
235
330
1F
100
AcDbEntity
  8
0
  6
SLD-Solid
 62
     7
370
    15
100
AcDbPolyline
 90
        9
 70
   128
 43
0.0
 10
1350.9035899821
 20
1239.7809830772
 10
1350.9459390822
 20
1239.6506873237
 10
1351.0125770751
 20
1239.4455281364
 10
1351.1032953444
 20
1239.1663995849
 10
1351.2176468554
 20
1238.8144937622
 10
1351.3551547709
 20
1238.3912411796
 10
1351.5152826491
 20
1237.8984299766
 10
1351.6973152342
 20
1237.3382059204
 10
1351.900477666
 20
1236.7128935921
  0
ARC
  5
236
330
1F
100
AcDbEntity
  8
0
  6
SLD-Solid
 62
     7
370
    15
100
AcDbCircle
 10
1349.9491585428
 20
1239.4715085169
 30
0.0
 40
1.003351322221717
100
AcDbArc
 50
17.9652955111
 51
83.6486447146
  0
LWPOLYLINE
  5
237
330
1F
100
AcDbEntity
  8
0
  6
SLD-Solid
 62
     7
370
    15
100
AcDbPolyline
 90
       17
 70
   128
 43
0.0
 10
1340.5432298365
 20
1184.7033706772
 10
1340.7037451449
 20
1184.8876682388
 10
1340.7896652403
 20
1185.0338784324
 10
1340.7871916476
 20
1185.1206031906
 10
1340.6964733782
 20
1185.1347890961
 10
1340.5318751517
 20
1185.0736347305
 10
1340.3193547907
 20
1184.9455443489
 10
1340.0919034663
 20
1184.7691146004
 10
1339.8843600932
 20
1184.5709887611
 10
1339.7277786913
 20
1184.3820420372
 10
1339.6451666537
 20
1184.2319575416
 10
1339.6483853045
 20
1184.1443983185
 10
1339.7367789927
 20
1184.1329542267
 10
1339.8974135104
 20
1184.1986981499
 10
1340.1066556159
 20
1184.3306628334
 10
1340.3333916846
 20
1184.507927047
 10
1340.5432298365
 20
1184.7033706772
  0
LWPOLYLINE
  5
238
330
1F
100
AcDbEntity
  8
0
  6
SLD-Solid
 62
     7
370
    15
100
AcDbPolyline
 90
        9
 70
   128
 43
0.0
 10
1325.8910670462
 20
1213.207444297
 10
1325.8933022204
 20
1213.2005897629
 10
1325.8998885337
 20
1213.1803241836
 10
1325.910647172
 20
1213.1471840011
 10
1325.9253099146
 20
1213.102063285
 10
1325.9433999243
 20
1213.0463925468
 10
1325.9644403639
 20
1212.9816619026
 10
1325.9878053847
 20
1212.9097190964
 10
1326.0128393355
 20
1212.8327098953
  0
LWPOLYLINE
  5
239
330
1F
100
AcDbEntity
  8
0
  6
SLD-Solid
 62
     7
370
    15
100
AcDbPolyline
 90
        9
 70
   128
 43
0.0
 10
1325.8910670462
 20
1213.207444297
 10
1325.8914544764
 20
1213.2075635063
 10
1325.8929445925
 20
1213.2080403435
 10
1325.8965804759
 20
1213.2092324364
 10
1325.9034648123
 20
1213.2114378082
 10
1325.9177103224
 20
1213.2160869705
 10
1325.9743943396
 20
1213.2345048057
 10
1326.090355176
 20
1213.2721749412
 10
1327.7932002726
 20
1213.8254848587
  0
LWPOLYLINE
  5
23A
330
1F
100
AcDbEntity
  8
0
  6
SLD-Solid
 62
     7
370
    15
100
AcDbPolyline
 90
        9
 70
   128
 43
0.0
 10
1326.0128393355
 20
1212.8327098953
 10
1326.074083108
 20
1212.6441804039
 10
1326.1356547061
 20
1212.4546972381
 10
1326.197494525
 20
1212.2643796074
 10
1326.2595429602
 20
1212.0734063255
 10
1326.3217702094
 20
1211.8818369972
 10
1326.3841464701
 20
1211.689910041
 10
1326.4466121379
 20
1211.4976850616
 10
1326.5091076079
 20
1211.3053408729
  0
LWPOLYLINE
  5
23B
330
1F
100
AcDbEntity
  8
0
  6
SLD-Solid
 62
     7
370
    15
100
AcDbPolyline
 90
        9
 70
   128
 43
0.0
 10
1326.5091076079
 20
1211.3053408729
 10
1326.5392377558
 20
1211.212536441
 10
1326.5682354155
 20
1211.1233678924
 10
1326.5949382964
 20
1211.0411134827
 10
1326.6183629218
 20
1210.9690514671
 10
1326.6375854197
 20
1210.9099236595
 10
1326.6518607321
 20
1210.8659950363
 10
1326.6606524172
 20
1210.8389345276
 10
1326.6636028472
 20
1210.8298150169
  0
LINE
  5
23C
330
1F
100
AcDbEntity
  8
0
  6
SLD-Solid
 62
     7
370
    15
100
AcDbLine
 10
1328.5765245143
 20
1211.4146557915
 30
0.0
 11
1326.6636028472
 21
1210.8298150169
 31
0.0
  0
LINE
  5
23D
330
1F
100
AcDbEntity
  8
0
  6
SLD-Solid
 62
     7
370
    15
100
AcDbLine
 10
1329.4961943808
 20
1208.5841504204
 30
0.0
 11
1327.5929286662
 21
1207.9696265327
 31
0.0
  0
LWPOLYLINE
  5
23E
330
1F
100
AcDbEntity
  8
0
  6
SLD-Solid
 62
     7
370
    15
100
AcDbPolyline
 90
        9
 70
   128
 43
0.0
 10
1326.6636028472
 20
1210.8298150169
 10
1326.790977973
 20
1210.4377952682
 10
1326.9161775294
 20
1210.0524512398
 10
1327.0386650744
 20
1209.6754518616
 10
1327.1579339686
 20
1209.308406459
 10
1327.2734775725
 20
1208.9528051483
 10
1327.3848190489
 20
1208.6101976501
 10
1327.4914517584
 20
1208.282014476
 10
1327.5929286662
 20
1207.9696265327
  0
LWPOLYLINE
  5
23F
330
1F
100
AcDbEntity
  8
0
  6
SLD-Solid
 62
     7
370
    15
100
AcDbPolyline
 90
        9
 70
   128
 43
0.0
 10
1327.9389932337
 20
1206.9045511352
 10
1327.9613747779
 20
1206.8357077705
 10
1327.9851570311
 20
1206.7624536621
 10
1328.0097737494
 20
1206.6868153679
 10
1328.034509677
 20
1206.6105810272
 10
1328.0587985697
 20
1206.5358368027
 10
1328.0820145789
 20
1206.4644304382
 10
1328.1035020533
 20
1206.3982692825
 10
1328.1227543536
 20
1206.3390222656
  0
LINE
  5
240
330
1F
100
AcDbEntity
  8
0
  6
SLD-Solid
 62
     7
370
    15
100
AcDbLine
 10
1327.5929286662
 20
1207.9696265327
 30
0.0
 11
1327.9389932337
 21
1206.9045511352
 31
0.0
  0
LWPOLYLINE
  5
241
330
1F
100
AcDbEntity
  8
0
  6
SLD-Solid
 62
     7
370
    15
100
AcDbPolyline
 90
        9
 70
   128
 43
0.0
 10
1328.1227543536
 20
1206.3390222656
 10
1328.1679346743
 20
1206.200024234
 10
1328.2118930998
 20
1206.0647216904
 10
1328.2545998278
 20
1205.9332934486
 10
1328.2960548583
 20
1205.8057395088
 10
1328.3361985865
 20
1205.6821790802
 10
1328.3750012103
 20
1205.5627313721
 10
1328.4124627295
 20
1205.4474559891
 10
1328.4485235396
 20
1205.3364125358
  0
LWPOLYLINE
  5
242
330
1F
100
AcDbEntity
  8
0
  6
SLD-Solid
 62
     7
370
    15
100
AcDbPolyline
 90
        4
 70
   128
 43
0.0
 10
1328.4485235396
 20
1205.3364125358
 10
1328.4634545031
 20
1205.2904573547
 10
1328.4723951998
 20
1205.2629200088
 10
1328.4750178042
 20
1205.2548733818
  0
LWPOLYLINE
  5
243
330
1F
100
AcDbEntity
  8
0
  6
SLD-Solid
 62
     7
370
    15
100
AcDbPolyline
 90
       17
 70
   128
 43
0.0
 10
1340.7683267775
 20
1183.8661638367
 10
1340.9495547
 20
1184.0259042847
 10
1341.0650386992
 20
1184.1368881332
 10
1341.0964205447
 20
1184.1833797561
 10
1341.0386040393
 20
1184.1584650146
 10
1340.9007981005
 20
1184.0656009781
 10
1340.7048478308
 20
1183.917781459
 10
1340.4813602152
 20
1183.7366429436
 10
1340.2646377268
 20
1183.5494247543
 10
1340.0872841063
 20
1183.3850947487
 10
1339.9754359904
 20
1183.2697001564
 10
1339.9453654471
 20
1183.2217184173
 10
1340.0013640109
 20
1183.2487789261
 10
1340.1352956477
 20
1183.3462921249
 10
1340.327610034
 20
1183.498462783
 10
1340.5497863474
 20
1183.6811510193
 10
1340.7683267775
 20
1183.8661638367
  0
ARC
  5
244
330
1F
100
AcDbEntity
  8
0
  6
SLD-Solid
 62
     7
370
    15
100
AcDbCircle
 10
1325.3180182516
 20
1276.2096584063
 30
0.0
 40
33.15233699864796
100
AcDbArc
 50
261.8735163446
 51
270.5229139297
  0
LINE
  5
245
330
1F
100
AcDbEntity
  8
0
  6
SLD-Solid
 62
     7
370
    15
100
AcDbLine
 10
577.2232010546
 20
1239.3998709785
 30
0.0
 11
577.2232010546
 21
1207.3998657333
 31
0.0
  0
LINE
  5
246
330
1F
100
AcDbEntity
  8
0
  6
SLD-Solid
 62
     7
370
    15
100
AcDbLine
 10
679.6232059184
 20
1265.499850856
 30
0.0
 11
578.22318818
 21
1265.499850856
 31
0.0
  0
ARC
  5
247
330
1F
100
AcDbEntity
  8
0
  6
SLD-Solid
 62
     7
370
    15
100
AcDbCircle
 10
578.2231993797
 20
1266.4998690983
 30
0.0
 40
1.000000000000114
100
AcDbArc
 50
180.0
 51
270.0
  0
ARC
  5
248
330
1F
100
AcDbEntity
  8
0
  6
SLD-Solid
 62
     7
370
    15
100
AcDbCircle
 10
679.6231993797
 20
1266.4998690983
 30
0.0
 40
0.9999999999998863
100
AcDbArc
 50
270.0
 51
0.0
  0
LINE
  5
249
330
1F
100
AcDbEntity
  8
0
  6
SLD-Solid
 62
     7
370
    15
100
AcDbLine
 10
680.6231930438
 20
1271.8998399841
 30
0.0
 11
680.6231930438
 21
1266.499897586
 31
0.0
  0
LINE
  5
24A
330
1F
100
AcDbEntity
  8
0
  6
SLD-Solid
 62
     7
370
    15
100
AcDbLine
 10
577.2232010546
 20
1266.499897586
 30
0.0
 11
577.2232010546
 21
1301.8998709785
 31
0.0
  0
ARC
  5
24B
330
1F
100
AcDbEntity
  8
0
  6
SLD-Solid
 62
     7
370
    15
100
AcDbCircle
 10
578.4731993797
 20
1350.6793242581
 30
0.0
 40
2.049999999999955
100
AcDbArc
 50
75.0
 51
180.0
  0
ARC
  5
24C
330
1F
100
AcDbEntity
  8
0
  6
SLD-Solid
 62
     7
370
    15
100
AcDbCircle
 10
578.4731993797
 20
1350.6793242581
 30
0.0
 40
1.25
100
AcDbArc
 50
75.0
 51
180.0
  0
LINE
  5
24D
330
1F
100
AcDbEntity
  8
0
  6
SLD-Solid
 62
     7
370
    15
100
AcDbLine
 10
657.1732058707
 20
1282.6998439895
 30
0.0
 11
679.3731942359
 21
1282.6998439895
 31
0.0
  0
LINE
  5
24E
330
1F
100
AcDbEntity
  8
0
  6
SLD-Solid
 62
     7
370
    15
100
AcDbLine
 10
657.1732058707
 20
1281.899890052
 30
0.0
 11
679.3731942359
 21
1281.899890052
 31
0.0
  0
LINE
  5
24F
330
1F
100
AcDbEntity
  8
0
  6
SLD-Solid
 62
     7
370
    15
100
AcDbLine
 10
576.4231875125
 20
1301.8998709785
 30
0.0
 11
577.2232010546
 21
1301.8998709785
 31
0.0
  0
LINE
  5
250
330
1F
100
AcDbEntity
  8
0
  6
SLD-Solid
 62
     7
370
    15
100
AcDbLine
 10
577.2232010546
 20
1301.8998709785
 30
0.0
 11
577.2232010546
 21
1350.6792989837
 31
0.0
  0
LINE
  5
251
330
1F
100
AcDbEntity
  8
0
  6
SLD-Solid
 62
     7
370
    15
100
AcDbLine
 10
576.4231875125
 20
1301.8998709785
 30
0.0
 11
576.4231875125
 21
1350.6792989837
 31
0.0
  0
ARC
  5
252
330
1F
100
AcDbEntity
  8
0
  6
SLD-Solid
 62
     7
370
    15
100
AcDbCircle
 10
679.3731993797
 20
1280.6498690983
 30
0.0
 40
2.049999999999955
100
AcDbArc
 50
0.0
 51
90.0
  0
ARC
  5
253
330
1F
100
AcDbEntity
  8
0
  6
SLD-Solid
 62
     7
370
    15
100
AcDbCircle
 10
679.3731993797
 20
1280.6498690983
 30
0.0
 40
1.25
100
AcDbArc
 50
0.0
 51
90.0
  0
LINE
  5
254
330
1F
100
AcDbEntity
  8
0
  6
SLD-Solid
 62
     7
370
    15
100
AcDbLine
 10
680.6231930438
 20
1280.6498614418
 30
0.0
 11
680.6231930438
 21
1271.8998399841
 31
0.0
  0
LINE
  5
255
330
1F
100
AcDbEntity
  8
0
  6
SLD-Solid
 62
     7
370
    15
100
AcDbLine
 10
681.4232065859
 20
1280.6498614418
 30
0.0
 11
681.4232065859
 21
1271.8998399841
 31
0.0
  0
LINE
  5
256
330
1F
100
AcDbEntity
  8
0
  6
SLD-Solid
 62
     7
370
    15
100
AcDbLine
 10
680.6231930438
 20
1271.8998399841
 30
0.0
 11
681.4232065859
 21
1271.8998399841
 31
0.0
  0
ARC
  5
257
330
1F
100
AcDbEntity
  8
0
  6
SLD-Solid
 62
     7
370
    15
100
AcDbCircle
 10
632.6731993797
 20
1303.9498690983
 30
0.0
 40
2.050000000000068
100
AcDbArc
 50
180.0
 51
270.0
  0
ARC
  5
258
330
1F
100
AcDbEntity
  8
0
  6
SLD-Solid
 62
     7
370
    15
100
AcDbCircle
 10
632.6731993797
 20
1303.9498690983
 30
0.0
 40
1.250000000000114
100
AcDbArc
 50
180.0
 51
270.0
  0
LINE
  5
259
330
1F
100
AcDbEntity
  8
0
  6
SLD-Solid
 62
     7
370
    15
100
AcDbLine
 10
630.6232109252
 20
1318.8166824447
 30
0.0
 11
630.6232109252
 21
1303.9498535263
 31
0.0
  0
LINE
  5
25A
330
1F
100
AcDbEntity
  8
0
  6
SLD-Solid
 62
     7
370
    15
100
AcDbLine
 10
631.423194665
 20
1318.8166824447
 30
0.0
 11
631.423194665
 21
1303.9498535263
 31
0.0
  0
LINE
  5
25B
330
1F
100
AcDbEntity
  8
0
  6
SLD-Solid
 62
     7
370
    15
100
AcDbLine
 10
578.7967338744
 20
1351.886710273
 30
0.0
 11
612.0936765853
 21
1342.9648486244
 31
0.0
  0
LINE
  5
25C
330
1F
100
AcDbEntity
  8
0
  6
SLD-Solid
 62
     7
370
    15
100
AcDbLine
 10
579.003770608
 20
1352.6594844925
 30
0.0
 11
612.3007431212
 21
1343.7375632393
 31
0.0
  0
LINE
  5
25D
330
1F
100
AcDbEntity
  8
0
  6
SLD-Solid
 62
     7
370
    15
100
AcDbLine
 10
632.6731934729
 20
1302.6998845207
 30
0.0
 11
653.8731947127
 21
1302.6998845207
 31
0.0
  0
LINE
  5
25E
330
1F
100
AcDbEntity
  8
0
  6
SLD-Solid
 62
     7
370
    15
100
AcDbLine
 10
632.6731934729
 20
1301.8998709785
 30
0.0
 11
653.8731947127
 21
1301.8998709785
 31
0.0
  0
ARC
  5
25F
330
1F
100
AcDbEntity
  8
0
  6
SLD-Solid
 62
     7
370
    15
100
AcDbCircle
 10
657.1731993797
 20
1283.9498690983
 30
0.0
 40
1.25
100
AcDbArc
 50
180.0
 51
270.0
  0
ARC
  5
260
330
1F
100
AcDbEntity
  8
0
  6
SLD-Solid
 62
     7
370
    15
100
AcDbCircle
 10
657.1731993797
 20
1283.9498690983
 30
0.0
 40
2.050000000000068
100
AcDbArc
 50
180.0
 51
270.0
  0
ARC
  5
261
330
1F
100
AcDbEntity
  8
0
  6
SLD-Solid
 62
     7
370
    15
100
AcDbCircle
 10
653.8731993797
 20
1300.6498690983
 30
0.0
 40
2.050000000000068
100
AcDbArc
 50
0.0
 51
90.0
  0
ARC
  5
262
330
1F
100
AcDbEntity
  8
0
  6
SLD-Solid
 62
     7
370
    15
100
AcDbCircle
 10
653.8731993797
 20
1300.6498690983
 30
0.0
 40
1.250000000000227
100
AcDbArc
 50
0.0
 51
90.0
  0
LINE
  5
263
330
1F
100
AcDbEntity
  8
0
  6
SLD-Solid
 62
     7
370
    15
100
AcDbLine
 10
655.9232070628
 20
1300.6498423683
 30
0.0
 11
655.9232070628
 21
1283.9498725998
 31
0.0
  0
LINE
  5
264
330
1F
100
AcDbEntity
  8
0
  6
SLD-Solid
 62
     7
370
    15
100
AcDbLine
 10
655.1231935206
 20
1300.6498423683
 30
0.0
 11
655.1231935206
 21
1283.9498725998
 31
0.0
  0
ARC
  5
265
330
1F
100
AcDbEntity
  8
0
  6
SLD-Solid
 62
     7
370
    15
100
AcDbCircle
 10
605.6231993797
 20
1318.8166943988
 30
0.0
 40
25.79999999999995
100
AcDbArc
 50
0.0
 51
75.0
  0
ARC
  5
266
330
1F
100
AcDbEntity
  8
0
  6
SLD-Solid
 62
     7
370
    15
100
AcDbCircle
 10
605.6231993797
 20
1318.8166943988
 30
0.0
 40
25.00000000000001
100
AcDbArc
 50
0.0
 51
75.0
  0
LINE
  5
267
330
1F
100
AcDbEntity
  8
0
  6
SLD-Solid
 62
     7
370
    15
100
AcDbLine
 10
579.7231986704
 20
1265.499850856
 30
0.0
 11
579.7231986704
 21
1264.9998870956
 31
0.0
  0
LINE
  5
268
330
1F
100
AcDbEntity
  8
0
  6
SLD-Solid
 62
     7
370
    15
100
AcDbLine
 10
579.7231986704
 20
1263.6416760551
 30
0.0
 11
579.7231986704
 21
1263.22724496
 31
0.0
  0
LINE
  5
269
330
1F
100
AcDbEntity
  8
0
  6
SLD-Solid
 62
     7
370
    15
100
AcDbLine
 10
578.9231851283
 20
1265.499850856
 30
0.0
 11
578.9231851283
 21
1265.1599851715
 31
0.0
  0
LINE
  5
26A
330
1F
100
AcDbEntity
  8
0
  6
SLD-Solid
 62
     7
370
    15
100
AcDbLine
 10
579.7231986704
 20
583.2998660671
 30
0.0
 11
578.9231851283
 21
583.2998660671
 31
0.0
  0
LINE
  5
26B
330
1F
100
AcDbEntity
  8
0
  6
SLD-Solid
 62
     7
370
    15
100
AcDbLine
 10
579.7231986704
 20
583.6630744206
 30
0.0
 11
579.7231986704
 21
583.2998660671
 31
0.0
  0
LINE
  5
26C
330
1F
100
AcDbEntity
  8
0
  6
SLD-Solid
 62
     7
370
    15
100
AcDbLine
 10
676.923204917
 20
412.6998690235
 30
0.0
 11
623.9232018176
 21
412.6998690235
 31
0.0
  0
LINE
  5
26D
330
1F
100
AcDbEntity
  8
0
  6
SLD-Solid
 62
     7
370
    15
100
AcDbLine
 10
678.9232089701
 20
418.6998662817
 30
0.0
 11
621.9231977645
 21
418.6998662817
 31
0.0
  0
LINE
  5
26E
330
1F
100
AcDbEntity
  8
0
  6
SLD-Solid
 62
     7
370
    15
100
AcDbLine
 10
1267.9231956187
 20
418.6998662817
 30
0.0
 11
1210.9231993142
 21
418.6998662817
 31
0.0
  0
LINE
  5
26F
330
1F
100
AcDbEntity
  8
0
  6
SLD-Solid
 62
     7
370
    15
100
AcDbLine
 10
1265.9231915656
 20
412.6998690235
 30
0.0
 11
1212.9232033673
 21
412.6998690235
 31
0.0
  0
LINE
  5
270
330
1F
100
AcDbEntity
  8
0
  6
SLD-Solid
 62
     7
370
    15
100
AcDbLine
 10
685.4231848899
 20
580.6998667585
 30
0.0
 11
685.4231848899
 21
581.8998721706
 31
0.0
  0
LINE
  5
271
330
1F
100
AcDbEntity
  8
0
  6
SLD-Solid
 62
     7
370
    15
100
AcDbLine
 10
615.4231920424
 20
580.6998667585
 30
0.0
 11
615.4231920424
 21
581.8998721706
 31
0.0
  0
LINE
  5
272
330
1F
100
AcDbEntity
  8
0
  6
SLD-Solid
 62
     7
370
    15
100
AcDbLine
 10
615.4231920424
 20
580.6998667585
 30
0.0
 11
685.4231848899
 21
580.6998667585
 31
0.0
  0
LINE
  5
273
330
1F
100
AcDbEntity
  8
0
  6
SLD-Solid
 62
     7
370
    15
100
AcDbLine
 10
681.3828542414
 20
486.6998699772
 30
0.0
 11
619.4635524932
 21
486.6998699772
 31
0.0
  0
LINE
  5
274
330
1F
100
AcDbEntity
  8
0
  6
SLD-Solid
 62
     7
370
    15
100
AcDbLine
 10
1274.4232013407
 20
580.6998667585
 30
0.0
 11
1274.4232013407
 21
581.8998721706
 31
0.0
  0
LINE
  5
275
330
1F
100
AcDbEntity
  8
0
  6
SLD-Solid
 62
     7
370
    15
100
AcDbLine
 10
1204.4231935921
 20
580.6998667585
 30
0.0
 11
1274.4232013407
 21
580.6998667585
 31
0.0
  0
LINE
  5
276
330
1F
100
AcDbEntity
  8
0
  6
SLD-Solid
 62
     7
370
    15
100
AcDbLine
 10
1204.4231935921
 20
580.6998667585
 30
0.0
 11
1204.4231935921
 21
581.8998721706
 31
0.0
  0
LINE
  5
277
330
1F
100
AcDbEntity
  8
0
  6
SLD-Solid
 62
     7
370
    15
100
AcDbLine
 10
1270.38284089
 20
486.6998699772
 30
0.0
 11
1208.4635540429
 21
486.6998699772
 31
0.0
  0
ARC
  5
278
330
1F
100
AcDbEntity
  8
0
  6
SLD-Solid
 62
     7
370
    15
100
AcDbCircle
 10
1283.9231993797
 20
668.2998690981
 30
0.0
 40
9.0
100
AcDbArc
 50
281.5369590328
 51
0.0
  0
ARC
  5
279
330
1F
100
AcDbEntity
  8
0
  6
SLD-Solid
 62
     7
370
    15
100
AcDbCircle
 10
1288.9231993797
 20
1095.0381615506
 30
0.0
 40
4.000000000000045
100
AcDbArc
 50
0.0
 51
143.1301023541
  0
LINE
  5
27A
330
1F
100
AcDbEntity
  8
0
  6
SLD-Solid
 62
     7
370
    15
100
AcDbLine
 10
1344.7232141677
 20
677.6998696195
 30
0.0
 11
1346.3232114497
 21
677.6998696195
 31
0.0
  0
LINE
  5
27B
330
1F
100
AcDbEntity
  8
0
  6
SLD-Solid
 62
     7
370
    15
100
AcDbLine
 10
1346.3232114497
 20
675.7054982054
 30
0.0
 11
1346.3232114497
 21
677.6998696195
 31
0.0
  0
LINE
  5
27C
330
1F
100
AcDbEntity
  8
0
  6
SLD-Solid
 62
     7
370
    15
100
AcDbLine
 10
1346.3232114497
 20
619.6938512194
 30
0.0
 11
1346.3232114497
 21
675.7054982054
 31
0.0
  0
LINE
  5
27D
330
1F
100
AcDbEntity
  8
0
  6
SLD-Solid
 62
     7
370
    15
100
AcDbLine
 10
1344.7232141677
 20
617.6998672354
 30
0.0
 11
1346.3232114497
 21
617.6998672354
 31
0.0
  0
LINE
  5
27E
330
1F
100
AcDbEntity
  8
0
  6
SLD-Solid
 62
     7
370
    15
100
AcDbLine
 10
1346.3232114497
 20
617.6998672354
 30
0.0
 11
1346.3232114497
 21
619.6938512194
 31
0.0
  0
LINE
  5
27F
330
1F
100
AcDbEntity
  8
0
  6
SLD-Solid
 62
     7
370
    15
100
AcDbLine
 10
1347.7232053462
 20
675.1621571647
 30
0.0
 11
1347.7232053462
 21
620.2375871407
 31
0.0
  0
ARC
  5
280
330
1F
100
AcDbEntity
  8
0
  6
SLD-Solid
 62
     7
370
    15
100
AcDbCircle
 10
1344.7231604203
 20
675.1621331752
 30
0.0
 40
3.000044925967322
100
AcDbArc
 50
0.0004581606
 51
57.7684362187
  0
ARC
  5
281
330
1F
100
AcDbEntity
  8
0
  6
SLD-Solid
 62
     7
370
    15
100
AcDbCircle
 10
1344.7231183974
 20
620.2376268626
 30
0.0
 40
3.00008694898648
100
AcDbArc
 50
302.2320065256
 51
359.9992413903
  0
LINE
  5
282
330
1F
100
AcDbEntity
  8
0
  6
SLD-Solid
 62
     7
370
    15
100
AcDbLine
 10
1304.72319271
 20
1112.6998869049
 30
0.0
 11
1304.72319271
 21
1111.6998401749
 31
0.0
  0
ARC
  5
283
330
1F
100
AcDbEntity
  8
0
  6
SLD-Solid
 62
     7
370
    15
100
AcDbCircle
 10
1306.7231993797
 20
1112.6998690984
 30
0.0
 40
2.0
100
AcDbArc
 50
90.0
 51
180.0
  0
LINE
  5
284
330
1F
100
AcDbEntity
  8
0
  6
SLD-Solid
 62
     7
370
    15
100
AcDbLine
 10
1306.7231967631
 20
1114.6998611557
 30
0.0
 11
1307.7232136908
 21
1114.6998611557
 31
0.0
  0
LINE
  5
285
330
1F
100
AcDbEntity
  8
0
  6
SLD-Solid
 62
     7
370
    15
100
AcDbLine
 10
1307.7232136908
 20
1114.6998611557
 30
0.0
 11
1329.7231986704
 21
1114.6998611557
 31
0.0
  0
LINE
  5
286
330
1F
100
AcDbEntity
  8
0
  6
SLD-Solid
 62
     7
370
    15
100
AcDbLine
 10
1312.5994696799
 20
1114.6998611557
 30
0.0
 11
1312.7306893054
 21
1114.9998513328
 31
0.0
  0
ARC
  5
287
330
1F
100
AcDbEntity
  8
0
  6
SLD-Solid
 62
     7
370
    15
100
AcDbCircle
 10
1318.7231993797
 20
1112.1998690984
 30
0.0
 40
6.61437827766143
100
AcDbArc
 50
53.2529562252
 51
126.7470437748
  0
LINE
  5
288
330
1F
100
AcDbEntity
  8
0
  6
SLD-Solid
 62
     7
370
    15
100
AcDbLine
 10
1324.7156932536
 20
1114.9998513328
 30
0.0
 11
1324.846912879
 21
1114.6998611557
 31
0.0
  0
LINE
  5
289
330
1F
100
AcDbEntity
  8
0
  6
SLD-Solid
 62
     7
370
    15
100
AcDbLine
 10
1320.3102543536
 20
1114.6244016754
 30
0.0
 11
1320.2794387522
 21
1114.9998513328
 31
0.0
  0
LINE
  5
28A
330
1F
100
AcDbEntity
  8
0
  6
SLD-Solid
 62
     7
370
    15
100
AcDbLine
 10
1317.155231494
 20
1114.9998513328
 30
0.0
 11
1317.1471550646
 21
1114.6998611557
 31
0.0
  0
LINE
  5
28B
330
1F
100
AcDbEntity
  8
0
  6
SLD-Solid
 62
     7
370
    15
100
AcDbLine
 10
1319.7232082072
 20
1114.6998611557
 30
0.0
 11
1319.6771338168
 21
1114.9998513328
 31
0.0
  0
LINE
  5
28C
330
1F
100
AcDbEntity
  8
0
  6
SLD-Solid
 62
     7
370
    15
100
AcDbLine
 10
1317.7692487422
 20
1114.9998513328
 30
0.0
 11
1317.7232041541
 21
1114.6998611557
 31
0.0
  0
LINE
  5
28D
330
1F
100
AcDbEntity
  8
0
  6
SLD-Solid
 62
     7
370
    15
100
AcDbLine
 10
1325.2231970015
 20
1114.6998611557
 30
0.0
 11
1325.2162828627
 21
1114.9998513328
 31
0.0
  0
ARC
  5
28E
330
1F
100
AcDbEntity
  8
0
  6
SLD-Solid
 62
     7
370
    15
100
AcDbCircle
 10
1318.7231993797
 20
1114.6998690984
 30
0.0
 40
6.500000000000208
100
AcDbArc
 50
88.6070213869
 51
154.483612639
  0
LINE
  5
28F
330
1F
100
AcDbEntity
  8
0
  6
SLD-Solid
 62
     7
370
    15
100
AcDbLine
 10
1312.2301294985
 20
1114.9998513328
 30
0.0
 11
1312.2231855574
 21
1114.6998611557
 31
0.0
  0
ARC
  5
290
330
1F
100
AcDbEntity
  8
0
  6
SLD-Solid
 62
     7
370
    15
100
AcDbCircle
 10
1318.7231993797
 20
1114.6998690984
 30
0.0
 40
4.999999999999958
100
AcDbArc
 50
34.0557977351
 51
145.9442022649
  0
LINE
  5
291
330
1F
100
AcDbEntity
  8
0
  6
SLD-Solid
 62
     7
370
    15
100
AcDbLine
 10
1379.3078258219
 20
1047.0422116386
 30
0.0
 11
1379.2035474959
 21
1047.0013228523
 31
0.0
  0
LINE
  5
292
330
1F
100
AcDbEntity
  8
0
  6
SLD-Solid
 62
     7
370
    15
100
AcDbLine
 10
1380.4484501067
 20
1076.2490240204
 30
0.0
 11
1380.8543279353
 21
1076.2491432297
 31
0.0
  0
LWPOLYLINE
  5
293
330
1F
100
AcDbEntity
  8
0
  6
SLD-Solid
 62
     7
370
    15
100
AcDbPolyline
 90
        6
 70
   128
 43
0.0
 10
1385.1131394091
 20
1048.2909289467
 10
1385.0284710112
 20
1048.3137575256
 10
1384.8835125151
 20
1048.3491626846
 10
1384.711284894
 20
1048.3904687034
 10
1384.711284894
 20
1048.3905283081
 10
1384.711284894
 20
1048.3905283081
  0
LINE
  5
294
330
1F
100
AcDbEntity
  8
0
  6
SLD-Solid
 62
     7
370
    15
100
AcDbLine
 10
1385.1798370066
 20
1048.2197013962
 30
0.0
 11
1385.3146329108
 21
1048.2188669311
 31
0.0
  0
LINE
  5
295
330
1F
100
AcDbEntity
  8
0
  6
SLD-Solid
 62
     7
370
    15
100
AcDbLine
 10
1381.62370469
 20
1076.1080590355
 30
0.0
 11
1379.2035474959
 21
1076.3983932602
 31
0.0
  0
ARC
  5
296
330
1F
100
AcDbEntity
  8
0
  6
SLD-Solid
 62
     7
370
    15
100
AcDbCircle
 10
1379.5940032891
 20
1053.8173977121
 30
0.0
 40
6.827249242636278
100
AcDbArc
 50
266.7214200612
 51
349.571674499
  0
LWPOLYLINE
  5
297
330
1F
100
AcDbEntity
  8
0
  6
SLD-Solid
 62
     7
370
    15
100
AcDbPolyline
 90
       10
 70
   128
 43
0.0
 10
1386.3084807578
 20
1052.5816289055
 10
1386.8732943717
 20
1052.741607772
 10
1388.9264955702
 20
1052.7584162819
 10
1392.6219239417
 20
1052.7575222122
 10
1395.7777514639
 20
1052.7568665611
 10
1398.7722590151
 20
1052.756389724
 10
1399.9946012679
 20
1052.7563301193
 10
1400.5369141284
 20
1052.7563301193
 10
1400.7848396483
 20
1052.7258125412
 10
1400.9883001032
 20
1052.5307861435
  0
ARC
  5
298
330
1F
100
AcDbEntity
  8
0
  6
SLD-Solid
 62
     7
370
    15
100
AcDbCircle
 10
1394.136653101
 20
1053.9438400097
 30
0.0
 40
6.995840755180597
100
AcDbArc
 50
267.0397271227
 51
348.3469481179
  0
ARC
  5
299
330
1F
100
AcDbEntity
  8
0
  6
SLD-Solid
 62
     7
370
    15
100
AcDbCircle
 10
1394.1365239853
 20
1069.4557837242
 30
0.0
 40
6.995985869004936
100
AcDbArc
 50
11.6535792663
 51
92.9591525743
  0
LWPOLYLINE
  5
29A
330
1F
100
AcDbEntity
  8
0
  6
SLD-Solid
 62
     7
370
    15
100
AcDbPolyline
 90
        3
 70
   128
 43
0.0
 10
1384.0065791789
 20
1048.6082044708
 10
1384.2955126944
 20
1048.497757064
 10
1385.3146329108
 20
1048.2188669311
  0
LINE
  5
29B
330
1F
100
AcDbEntity
  8
0
  6
SLD-Solid
 62
     7
370
    15
100
AcDbLine
 10
1400.8093371573
 20
1071.0185376274
 30
0.0
 11
1400.9883001032
 21
1070.868929969
 31
0.0
  0
LINE
  5
29C
330
1F
100
AcDbEntity
  8
0
  6
SLD-Solid
 62
     7
370
    15
100
AcDbLine
 10
1400.9883001032
 20
1052.5307861435
 30
0.0
 11
1400.809307355
 21
1052.3811784851
 31
0.0
  0
LINE
  5
29D
330
1F
100
AcDbEntity
  8
0
  6
SLD-Solid
 62
     7
370
    15
100
AcDbLine
 10
1379.5942261401
 20
1047.1509305107
 30
0.0
 11
1379.5277669612
 21
1047.1509901153
 31
0.0
  0
LWPOLYLINE
  5
29E
330
1F
100
AcDbEntity
  8
0
  6
SLD-Solid
 62
     7
370
    15
100
AcDbPolyline
 90
        4
 70
   128
 43
0.0
 10
1379.2035474959
 20
1047.0013228523
 10
1379.4852092448
 20
1047.1404400932
 10
1379.5277669612
 20
1047.1509901153
 10
1379.5277669612
 20
1047.1509901153
  0
LINE
  5
29F
330
1F
100
AcDbEntity
  8
0
  6
SLD-Solid
 62
     7
370
    15
100
AcDbLine
 10
1341.8391242209
 20
587.1998724806
 30
0.0
 11
1343.2232036772
 21
587.1998724806
 31
0.0
  0
LINE
  5
2A0
330
1F
100
AcDbEntity
  8
0
  6
SLD-Solid
 62
     7
370
    15
100
AcDbLine
 10
1326.2232139292
 20
587.1998724806
 30
0.0
 11
1341.8391242209
 21
587.1998724806
 31
0.0
  0
LINE
  5
2A1
330
1F
100
AcDbEntity
  8
0
  6
SLD-Solid
 62
     7
370
    15
100
AcDbLine
 10
1341.8391242209
 20
585.6998694407
 30
0.0
 11
1343.2232036772
 21
585.6998694407
 31
0.0
  0
LINE
  5
2A2
330
1F
100
AcDbEntity
  8
0
  6
SLD-Solid
 62
     7
370
    15
100
AcDbLine
 10
1326.2232139292
 20
585.6998694407
 30
0.0
 11
1341.8391242209
 21
585.6998694407
 31
0.0
  0
LINE
  5
2A3
330
1F
100
AcDbEntity
  8
0
  6
SLD-Solid
 62
     7
370
    15
100
AcDbLine
 10
1342.6732018176
 20
587.6998660433
 30
0.0
 11
1342.7232101145
 21
587.6998660433
 31
0.0
  0
LWPOLYLINE
  5
2A4
330
1F
100
AcDbEntity
  8
0
  6
SLD-Solid
 62
     7
370
    15
100
AcDbPolyline
 90
        3
 70
   128
 43
0.0
 10
1330.1815881911
 20
587.6998660433
 10
1330.0771310511
 20
587.5089747178
 10
1330.0721540633
 20
587.4998701083
  0
LINE
  5
2A5
330
1F
100
AcDbEntity
  8
0
  6
SLD-Solid
 62
     7
370
    15
100
AcDbLine
 10
1330.4070129576
 20
587.4998701083
 30
0.0
 11
1330.0721540633
 21
587.4998701083
 31
0.0
  0
LWPOLYLINE
  5
2A6
330
1F
100
AcDbEntity
  8
0
  6
SLD-Solid
 62
     7
370
    15
100
AcDbPolyline
 90
        3
 70
   128
 43
0.0
 10
1330.4070129576
 20
587.4998701083
 10
1330.4120197478
 20
587.5089747178
 10
1330.5164470854
 20
587.6998660433
  0
LINE
  5
2A7
330
1F
100
AcDbEntity
  8
0
  6
SLD-Solid
 62
     7
370
    15
100
AcDbLine
 10
1341.420550603
 20
585.1998684275
 30
0.0
 11
1342.7232101145
 21
585.1998684275
 31
0.0
  0
LINE
  5
2A8
330
1F
100
AcDbEntity
  8
0
  6
SLD-Solid
 62
     7
370
    15
100
AcDbLine
 10
1334.7231939021
 20
585.1998684275
 30
0.0
 11
1341.420550603
 21
585.1998684275
 31
0.0
  0
LINE
  5
2A9
330
1F
100
AcDbEntity
  8
0
  6
SLD-Solid
 62
     7
370
    15
100
AcDbLine
 10
1330.1815881911
 20
587.4998701083
 30
0.0
 11
1330.1815881911
 21
587.6998660433
 31
0.0
  0
LINE
  5
2AA
330
1F
100
AcDbEntity
  8
0
  6
SLD-Solid
 62
     7
370
    15
100
AcDbLine
 10
1336.0295787039
 20
1112.1998635399
 30
0.0
 11
1326.2232139292
 21
1112.1998635399
 31
0.0
  0
LINE
  5
2AB
330
1F
100
AcDbEntity
  8
0
  6
SLD-Solid
 62
     7
370
    15
100
AcDbLine
 10
1343.2232036772
 20
1112.1998635399
 30
0.0
 11
1336.0295787039
 21
1112.1998635399
 31
0.0
  0
LINE
  5
2AC
330
1F
100
AcDbEntity
  8
0
  6
SLD-Solid
 62
     7
370
    15
100
AcDbLine
 10
1336.0295787039
 20
1113.6998740303
 30
0.0
 11
1326.2232139292
 21
1113.6998740303
 31
0.0
  0
LINE
  5
2AD
330
1F
100
AcDbEntity
  8
0
  6
SLD-Solid
 62
     7
370
    15
100
AcDbLine
 10
1343.2232036772
 20
1113.6998740303
 30
0.0
 11
1336.0295787039
 21
1113.6998740303
 31
0.0
  0
LINE
  5
2AE
330
1F
100
AcDbEntity
  8
0
  6
SLD-Solid
 62
     7
370
    15
100
AcDbLine
 10
1335.9527483168
 20
1114.1998973953
 30
0.0
 11
1326.7232074919
 21
1114.1998973953
 31
0.0
  0
LINE
  5
2AF
330
1F
100
AcDbEntity
  8
0
  6
SLD-Solid
 62
     7
370
    15
100
AcDbLine
 10
1342.7232101145
 20
1114.1998973953
 30
0.0
 11
1335.9527483168
 21
1114.1998973953
 31
0.0
  0
LINE
  5
2B0
330
1F
100
AcDbEntity
  8
0
  6
SLD-Solid
 62
     7
370
    15
100
AcDbLine
 10
1342.7232101145
 20
1111.6998401749
 30
0.0
 11
1342.6732018176
 21
1111.6998401749
 31
0.0
  0
ARC
  5
2B1
330
1F
100
AcDbEntity
  8
0
  6
SLD-Solid
 62
     7
370
    15
100
AcDbCircle
 10
1295.2223428342
 20
1106.2721335567
 30
0.0
 40
2.906280957899904
100
AcDbArc
 50
99.8893198655
 51
142.2878597578
  0
LINE
  5
2B2
330
1F
100
AcDbEntity
  8
0
  6
SLD-Solid
 62
     7
370
    15
100
AcDbLine
 10
1292.9232015792
 20
591.3498682248
 30
0.0
 11
1292.9232015792
 21
1108.0498901474
 31
0.0
  0
ARC
  5
2B3
330
1F
100
AcDbEntity
  8
0
  6
SLD-Solid
 62
     7
370
    15
100
AcDbCircle
 10
1294.9946603674
 20
592.7491172349
 30
0.0
 40
2.499767849940656
100
AcDbArc
 50
214.038619766
 51
263.7657663114
  0
ARC
  5
2B4
330
1F
100
AcDbEntity
  8
0
  6
SLD-Solid
 62
     7
370
    15
100
AcDbCircle
 10
1294.7494905711
 20
1108.410361993
 30
0.0
 40
0.840079093679114
100
AcDbArc
 50
91.793231112
 51
146.6890316949
  0
ARC
  5
2B5
330
1F
100
AcDbEntity
  8
0
  6
SLD-Solid
 62
     7
370
    15
100
AcDbCircle
 10
1294.8961796382
 20
1108.0886903137
 30
0.0
 40
1.97335954009482
100
AcDbArc
 50
95.0287898773
 51
181.126621376
  0
ARC
  5
2B6
330
1F
100
AcDbEntity
  8
0
  6
SLD-Solid
 62
     7
370
    15
100
AcDbCircle
 10
1294.7501180069
 20
590.989436426
 30
0.0
 40
0.840273029852701
100
AcDbArc
 50
213.3012908543
 51
268.1643784185
  0
ARC
  5
2B7
330
1F
100
AcDbEntity
  8
0
  6
SLD-Solid
 62
     7
370
    15
100
AcDbCircle
 10
1294.882897035
 20
591.3033282316
 30
0.0
 40
1.960248007421777
100
AcDbArc
 50
178.639562059
 51
265.3271276661
  0
LINE
  5
2B8
330
1F
100
AcDbEntity
  8
0
  6
SLD-Solid
 62
     7
370
    15
100
AcDbLine
 10
1294.7232022467
 20
1110.829135524
 30
0.0
 11
1294.7232022467
 21
588.5705781447
 31
0.0
  0
LINE
  5
2B9
330
1F
100
AcDbEntity
  8
0
  6
SLD-Solid
 62
     7
370
    15
100
AcDbLine
 10
1342.6732018176
 20
1110.829135524
 30
0.0
 11
1294.7232022467
 21
1110.829135524
 31
0.0
  0
CIRCLE
  5
2BA
330
1F
100
AcDbEntity
  8
0
  6
SLD-Solid
 62
     7
370
    15
100
AcDbCircle
 10
1314.7231993797
 20
849.6998690984
 30
0.0
 40
1.599999999999909
  0
CIRCLE
  5
2BB
330
1F
100
AcDbEntity
  8
0
  6
SLD-Solid
 62
     7
370
    15
100
AcDbCircle
 10
1314.7231993797
 20
617.6998690984
 30
0.0
 40
1.600000000000136
  0
CIRCLE
  5
2BC
330
1F
100
AcDbEntity
  8
0
  6
SLD-Solid
 62
     7
370
    15
100
AcDbCircle
 10
1314.7231993797
 20
1081.6998690984
 30
0.0
 40
1.600000000000136
  0
LINE
  5
2BD
330
1F
100
AcDbEntity
  8
0
  6
SLD-Solid
 62
     7
370
    15
100
AcDbLine
 10
1342.6732018176
 20
588.5705781447
 30
0.0
 11
1294.7232022467
 21
588.5705781447
 31
0.0
  0
LWPOLYLINE
  5
2BE
330
1F
100
AcDbEntity
  8
0
  6
SLD-Solid
 62
     7
370
    15
100
AcDbPolyline
 90
        6
 70
   128
 43
0.0
 10
1344.7232141677
 20
1109.6498576271
 10
1344.523479003
 20
1110.1780739891
 10
1344.1849246207
 20
1110.4746667015
 10
1343.6317339125
 20
1110.6735077965
 10
1343.2026996794
 20
1110.7567158806
 10
1342.6732018176
 20
1110.829135524
  0
LINE
  5
2BF
330
1F
100
AcDbEntity
  8
0
  6
SLD-Solid
 62
     7
370
    15
100
AcDbLine
 10
1344.7232141677
 20
1109.6498576271
 30
0.0
 11
1344.7232141677
 21
589.7498709428
 31
0.0
  0
LWPOLYLINE
  5
2C0
330
1F
100
AcDbEntity
  8
0
  6
SLD-Solid
 62
     7
370
    15
100
AcDbPolyline
 90
        6
 70
   128
 43
0.0
 10
1342.6732018176
 20
588.5705781447
 10
1343.1692614737
 20
588.6270982491
 10
1343.5888483706
 20
588.7040627467
 10
1344.1761329356
 20
588.9193100201
 10
1344.5394828501
 20
589.2385152447
 10
1344.7232141677
 20
589.7498709428
  0
LINE
  5
2C1
330
1F
100
AcDbEntity
  8
0
  6
SLD-Solid
 62
     7
370
    15
100
AcDbLine
 10
1342.6732018176
 20
588.4998721349
 30
0.0
 11
1342.6732018176
 21
587.6998660433
 31
0.0
  0
ARC
  5
2C2
330
1F
100
AcDbEntity
  8
0
  6
SLD-Solid
 62
     7
370
    15
100
AcDbCircle
 10
1342.7029790588
 20
589.5766991052
 30
0.0
 40
1.077238603120513
100
AcDbArc
 50
268.4160170362
 51
299.4610984715
  0
ARC
  5
2C3
330
1F
100
AcDbEntity
  8
0
  6
SLD-Solid
 62
     7
370
    15
100
AcDbCircle
 10
1342.6731763226
 20
589.7499038884
 30
0.0
 40
2.050037845310567
100
AcDbArc
 50
270.0007125497
 51
359.9990792137
  0
ARC
  5
2C4
330
1F
100
AcDbEntity
  8
0
  6
SLD-Solid
 62
     7
370
    15
100
AcDbCircle
 10
1342.7020369875
 20
1109.7737442197
 30
0.0
 40
1.126511123248317
100
AcDbArc
 50
59.2855164476
 51
91.4667533878
  0
LINE
  5
2C5
330
1F
100
AcDbEntity
  8
0
  6
SLD-Solid
 62
     7
370
    15
100
AcDbLine
 10
1342.6732018176
 20
1110.8998862373
 30
0.0
 11
1342.6732018176
 21
1111.6998401749
 31
0.0
  0
ARC
  5
2C6
330
1F
100
AcDbEntity
  8
0
  6
SLD-Solid
 62
     7
370
    15
100
AcDbCircle
 10
1342.6732646805
 20
1109.6498906884
 30
0.0
 40
2.049949487428316
100
AcDbArc
 50
359.9990759418
 51
90.0017570092
  0
LINE
  5
2C7
330
1F
100
AcDbEntity
  8
0
  6
SLD-Solid
 62
     7
370
    15
100
AcDbLine
 10
1342.6732018176
 20
1110.8998862373
 30
0.0
 11
1294.7232022467
 21
1110.8998862373
 31
0.0
  0
LINE
  5
2C8
330
1F
100
AcDbEntity
  8
0
  6
SLD-Solid
 62
     7
370
    15
100
AcDbLine
 10
1294.7232022467
 20
1111.6998401749
 30
0.0
 11
1294.7232022467
 21
1110.8998862373
 31
0.0
  0
LINE
  5
2C9
330
1F
100
AcDbEntity
  8
0
  6
SLD-Solid
 62
     7
370
    15
100
AcDbLine
 10
1342.6732018176
 20
1111.6998401749
 30
0.0
 11
1294.7232022467
 21
1111.6998401749
 31
0.0
  0
LINE
  5
2CA
330
1F
100
AcDbEntity
  8
0
  6
SLD-Solid
 62
     7
370
    15
100
AcDbLine
 10
1342.6732018176
 20
587.6998660433
 30
0.0
 11
1294.7232022467
 21
587.6998660433
 31
0.0
  0
LINE
  5
2CB
330
1F
100
AcDbEntity
  8
0
  6
SLD-Solid
 62
     7
370
    15
100
AcDbLine
 10
1294.7232022467
 20
587.6998660433
 30
0.0
 11
1294.7232022467
 21
588.4998721349
 31
0.0
  0
LINE
  5
2CC
330
1F
100
AcDbEntity
  8
0
  6
SLD-Solid
 62
     7
370
    15
100
AcDbLine
 10
1342.6732018176
 20
588.4998721349
 30
0.0
 11
1294.7232022467
 21
588.4998721349
 31
0.0
  0
LINE
  5
2CD
330
1F
100
AcDbEntity
  8
0
  6
SLD-Solid
 62
     7
370
    15
100
AcDbLine
 10
1293.6732068244
 20
1110.829135524
 30
0.0
 11
1293.6732068244
 21
1109.6498576271
 31
0.0
  0
LINE
  5
2CE
330
1F
100
AcDbEntity
  8
0
  6
SLD-Solid
 62
     7
370
    15
100
AcDbLine
 10
1294.7232022467
 20
1110.829135524
 30
0.0
 11
1293.6732068244
 21
1110.829135524
 31
0.0
  0
LINE
  5
2CF
330
1F
100
AcDbEntity
  8
0
  6
SLD-Solid
 62
     7
370
    15
100
AcDbLine
 10
1292.9232015792
 20
663.1998625862
 30
0.0
 11
1291.6231944743
 21
663.1998625862
 31
0.0
  0
LINE
  5
2D0
330
1F
100
AcDbEntity
  8
0
  6
SLD-Solid
 62
     7
370
    15
100
AcDbLine
 10
1291.6231944743
 20
1109.6498576271
 30
0.0
 11
1291.6231944743
 21
1097.9894605743
 31
0.0
  0
LINE
  5
2D1
330
1F
100
AcDbEntity
  8
0
  6
SLD-Solid
 62
     7
370
    15
100
AcDbLine
 10
1291.6231944743
 20
663.6404750215
 30
0.0
 11
1291.6231944743
 21
663.1998625862
 31
0.0
  0
LINE
  5
2D2
330
1F
100
AcDbEntity
  8
0
  6
SLD-Solid
 62
     7
370
    15
100
AcDbLine
 10
1291.6231944743
 20
1109.6498576271
 30
0.0
 11
1293.6732068244
 21
1109.6498576271
 31
0.0
  0
LINE
  5
2D3
330
1F
100
AcDbEntity
  8
0
  6
SLD-Solid
 62
     7
370
    15
100
AcDbLine
 10
1291.2231877032
 20
582.6998708116
 30
0.0
 11
1334.7231939021
 21
582.6998708116
 31
0.0
  0
LINE
  5
2D4
330
1F
100
AcDbEntity
  8
0
  6
SLD-Solid
 62
     7
370
    15
100
AcDbLine
 10
1291.2231877032
 20
585.1998684275
 30
0.0
 11
1334.7231939021
 21
585.1998684275
 31
0.0
  0
ARC
  5
2D5
330
1F
100
AcDbEntity
  8
0
  6
SLD-Solid
 62
     7
370
    15
100
AcDbCircle
 10
1291.2231993797
 20
588.1998690984
 30
0.0
 40
5.5
100
AcDbArc
 50
180.0
 51
270.0
  0
ARC
  5
2D6
330
1F
100
AcDbEntity
  8
0
  6
SLD-Solid
 62
     7
370
    15
100
AcDbCircle
 10
1291.2231993797
 20
588.1998690984
 30
0.0
 40
3.0
100
AcDbArc
 50
180.0
 51
270.0
  0
LINE
  5
2D7
330
1F
100
AcDbEntity
  8
0
  6
SLD-Solid
 62
     7
370
    15
100
AcDbLine
 10
1288.2231965247
 20
588.1998670565
 30
0.0
 11
1288.2231965247
 21
598.199872421
 31
0.0
  0
LINE
  5
2D8
330
1F
100
AcDbEntity
  8
0
  6
SLD-Solid
 62
     7
370
    15
100
AcDbLine
 10
1334.7231939021
 20
582.6998708116
 30
0.0
 11
1342.7232101145
 21
582.6998708116
 31
0.0
  0
LINE
  5
2D9
330
1F
100
AcDbEntity
  8
0
  6
SLD-Solid
 62
     7
370
    15
100
AcDbLine
 10
1334.7231939021
 20
585.1998684275
 30
0.0
 11
1342.7232101145
 21
585.1998684275
 31
0.0
  0
LINE
  5
2DA
330
1F
100
AcDbEntity
  8
0
  6
SLD-Solid
 62
     7
370
    15
100
AcDbLine
 10
1285.7231989089
 20
603.1998676526
 30
0.0
 11
1288.2231965247
 21
603.1998676526
 31
0.0
  0
LINE
  5
2DB
330
1F
100
AcDbEntity
  8
0
  6
SLD-Solid
 62
     7
370
    15
100
AcDbLine
 10
1288.2231965247
 20
598.199872421
 30
0.0
 11
1288.2231965247
 21
603.1998676526
 31
0.0
  0
LINE
  5
2DC
330
1F
100
AcDbEntity
  8
0
  6
SLD-Solid
 62
     7
370
    15
100
AcDbLine
 10
1334.7231939021
 20
1117.4998489487
 30
0.0
 11
1342.7232101145
 21
1117.4998489487
 31
0.0
  0
LINE
  5
2DD
330
1F
100
AcDbEntity
  8
0
  6
SLD-Solid
 62
     7
370
    15
100
AcDbLine
 10
1334.7231939021
 20
1114.9998513328
 30
0.0
 11
1342.7232101145
 21
1114.9998513328
 31
0.0
  0
LINE
  5
2DE
330
1F
100
AcDbEntity
  8
0
  6
SLD-Solid
 62
     7
370
    15
100
AcDbLine
 10
1288.2231965247
 20
1120.4998699295
 30
0.0
 11
1288.2231965247
 21
1125.88598405
 31
0.0
  0
LINE
  5
2DF
330
1F
100
AcDbEntity
  8
0
  6
SLD-Solid
 62
     7
370
    15
100
AcDbLine
 10
1291.2231877032
 20
1117.4998489487
 30
0.0
 11
1334.7231939021
 21
1117.4998489487
 31
0.0
  0
LINE
  5
2E0
330
1F
100
AcDbEntity
  8
0
  6
SLD-Solid
 62
     7
370
    15
100
AcDbLine
 10
1291.2231877032
 20
1114.9998513328
 30
0.0
 11
1334.7231939021
 21
1114.9998513328
 31
0.0
  0
ARC
  5
2E1
330
1F
100
AcDbEntity
  8
0
  6
SLD-Solid
 62
     7
370
    15
100
AcDbCircle
 10
1291.2231993797
 20
1120.4998690978
 30
0.0
 40
3.0
100
AcDbArc
 50
180.0
 51
270.0
  0
ARC
  5
2E2
330
1F
100
AcDbEntity
  8
0
  6
SLD-Solid
 62
     7
370
    15
100
AcDbCircle
 10
1291.2231993797
 20
1120.4998690978
 30
0.0
 40
5.5
100
AcDbArc
 50
180.0
 51
270.0
  0
LINE
  5
2E3
330
1F
100
AcDbEntity
  8
0
  6
SLD-Solid
 62
     7
370
    15
100
AcDbLine
 10
1330.8232023898
 20
582.1998697984
 30
0.0
 11
1338.6231854144
 21
582.1998697984
 31
0.0
  0
LINE
  5
2E4
330
1F
100
AcDbEntity
  8
0
  6
SLD-Solid
 62
     7
370
    15
100
AcDbLine
 10
1338.6231854144
 20
1117.9998723137
 30
0.0
 11
1330.8232023898
 21
1117.9998723137
 31
0.0
  0
ARC
  5
2E5
330
1F
100
AcDbEntity
  8
0
  6
SLD-Solid
 62
     7
370
    15
100
AcDbCircle
 10
580.6545124399
 20
580.7417525533
 30
0.0
 40
3.244019659384493
100
AcDbArc
 50
98.5321828727
 51
141.2881222509
  0
LINE
  5
2E6
330
1F
100
AcDbEntity
  8
0
  6
SLD-Solid
 62
     7
370
    15
100
AcDbLine
 10
578.1232013884
 20
1264.1291824447
 30
0.0
 11
578.1232013884
 21
582.7705768215
 31
0.0
  0
ARC
  5
2E7
330
1F
100
AcDbEntity
  8
0
  6
SLD-Solid
 62
     7
370
    15
100
AcDbCircle
 10
580.6546949698
 20
1266.1582023935
 30
0.0
 40
3.244284467299291
100
AcDbArc
 50
218.7125582928
 51
261.4652590849
  0
ARC
  5
2E8
330
1F
100
AcDbEntity
  8
0
  6
SLD-Solid
 62
     7
370
    15
100
AcDbCircle
 10
576.220364198
 20
1262.0401533271
 30
0.0
 40
4.056175332256667
100
AcDbArc
 50
12.9601462215
 51
46.8600647006
  0
LINE
  5
2E9
330
1F
100
AcDbEntity
  8
0
  6
SLD-Solid
 62
     7
370
    15
100
AcDbLine
 10
1284.5232083979
 20
1264.9998870956
 30
0.0
 11
1198.4231963339
 21
1264.9998870956
 31
0.0
  0
LINE
  5
2EA
330
1F
100
AcDbEntity
  8
0
  6
SLD-Solid
 62
     7
370
    15
100
AcDbLine
 10
683.4232106391
 20
1264.9998870956
 30
0.0
 11
578.9939060393
 21
1264.9998870956
 31
0.0
  0
ARC
  5
2EB
330
1F
100
AcDbEntity
  8
0
  6
SLD-Solid
 62
     7
370
    15
100
AcDbCircle
 10
1290.0727486537
 20
1261.1138317649
 30
0.0
 40
6.657727795394114
100
AcDbArc
 50
146.4650185275
 51
163.9919899042
  0
LINE
  5
2EC
330
1F
100
AcDbEntity
  8
0
  6
SLD-Solid
 62
     7
370
    15
100
AcDbLine
 10
578.9231851283
 20
1264.1291824447
 30
0.0
 11
578.1232013884
 21
1264.1291824447
 31
0.0
  0
ARC
  5
2ED
330
1F
100
AcDbEntity
  8
0
  6
SLD-Solid
 62
     7
370
    15
100
AcDbCircle
 10
580.8977490738
 20
1264.9699571924
 30
0.0
 40
2.146113918544013
100
AcDbArc
 50
203.0644379822
 51
250.2690732339
  0
ARC
  5
2EE
330
1F
100
AcDbEntity
  8
0
  6
SLD-Solid
 62
     7
370
    15
100
AcDbCircle
 10
578.149503794
 20
1262.2219354992
 30
0.0
 40
2.150640392597025
100
AcDbArc
 50
19.7831813589
 51
66.8818619707
  0
LINE
  5
2EF
330
1F
100
AcDbEntity
  8
0
  6
SLD-Solid
 62
     7
370
    15
100
AcDbLine
 10
578.9939060393
 20
1264.9998870956
 30
0.0
 11
578.9939060393
 21
1264.1998735535
 31
0.0
  0
ARC
  5
2F0
330
1F
100
AcDbEntity
  8
0
  6
SLD-Solid
 62
     7
370
    15
100
AcDbCircle
 10
1286.8814700823
 20
584.4312972262
 30
0.0
 40
3.244203401060139
100
AcDbArc
 50
188.533998106
 51
231.2872928796
  0
LINE
  5
2F1
330
1F
100
AcDbEntity
  8
0
  6
SLD-Solid
 62
     7
370
    15
100
AcDbLine
 10
578.9939060393
 20
581.8998721706
 30
0.0
 11
1284.852494258
 21
581.8998721706
 31
0.0
  0
LWPOLYLINE
  5
2F2
330
1F
100
AcDbEntity
  8
0
  6
SLD-Solid
 62
     7
370
    15
100
AcDbPolyline
 90
        6
 70
   128
 43
0.0
 10
580.1732137385
 20
583.9498696195
 10
579.9034431162
 20
583.2290110456
 10
579.633583087
 20
582.6000553834
 10
579.3637528601
 20
582.1436104643
 10
579.0938928309
 20
581.918021785
 10
578.9939060393
 20
581.8998721706
  0
LINE
  5
2F3
330
1F
100
AcDbEntity
  8
0
  6
SLD-Solid
 62
     7
370
    15
100
AcDbLine
 10
578.9939060393
 20
581.8998721706
 30
0.0
 11
578.9939060393
 21
582.6998708116
 31
0.0
  0
ARC
  5
2F4
330
1F
100
AcDbEntity
  8
0
  6
SLD-Solid
 62
     7
370
    15
100
AcDbCircle
 10
578.1562066622
 20
584.6715024196
 30
0.0
 40
2.142211811129479
100
AcDbArc
 50
293.0194845013
 51
340.3141084587
  0
ARC
  5
2F5
330
1F
100
AcDbEntity
  8
0
  6
SLD-Solid
 62
     7
370
    15
100
AcDbCircle
 10
580.8975658979
 20
581.9299196614
 30
0.0
 40
2.145899318287887
100
AcDbArc
 50
109.7277859926
 51
156.936534597
  0
LINE
  5
2F6
330
1F
100
AcDbEntity
  8
0
  6
SLD-Solid
 62
     7
370
    15
100
AcDbLine
 10
578.9231851283
 20
582.7705768215
 30
0.0
 11
578.1232013884
 21
582.7705768215
 31
0.0
  0
ARC
  5
2F7
330
1F
100
AcDbEntity
  8
0
  6
SLD-Solid
 62
     7
370
    15
100
AcDbCircle
 10
1274.0201102732
 20
1289.6968981465
 30
0.0
 40
28.43565959903253
100
AcDbArc
 50
289.8446360055
 51
291.6763753488
  0
LINE
  5
2F8
330
1F
100
AcDbEntity
  8
0
  6
SLD-Solid
 62
     7
370
    15
100
AcDbLine
 10
1285.7231989089
 20
582.7705768215
 30
0.0
 11
1285.7231989089
 21
1125.88598405
 31
0.0
  0
LINE
  5
2F9
330
1F
100
AcDbEntity
  8
0
  6
SLD-Solid
 62
     7
370
    15
100
AcDbLine
 10
1285.7231989089
 20
1126.6859975921
 30
0.0
 11
1285.7231989089
 21
1127.6859847175
 31
0.0
  0
LINE
  5
2FA
330
1F
100
AcDbEntity
  8
0
  6
SLD-Solid
 62
     7
370
    15
100
AcDbLine
 10
1285.7231989089
 20
1246.3736740219
 30
0.0
 11
1285.7231989089
 21
1247.3736611473
 31
0.0
  0
ARC
  5
2FB
330
1F
100
AcDbEntity
  8
0
  6
SLD-Solid
 62
     7
370
    15
100
AcDbCircle
 10
1283.3373450021
 20
580.9946065888
 30
0.0
 40
2.97428464204287
100
AcDbArc
 50
36.6630788816
 51
83.5166159948
  0
ARC
  5
2FC
330
1F
100
AcDbEntity
  8
0
  6
SLD-Solid
 62
     7
370
    15
100
AcDbCircle
 10
1280.181265742
 20
1269.1431164167
 30
0.0
 40
7.109860936448161
100
AcDbArc
 50
299.4153873964
 51
307.6396318335
  0
ARC
  5
2FD
330
1F
100
AcDbEntity
  8
0
  6
SLD-Solid
 62
     7
370
    15
100
AcDbCircle
 10
1287.0054700613
 20
1261.3112374914
 30
0.0
 40
3.713374169448691
100
AcDbArc
 50
131.9487237634
 51
153.8149422892
  0
LINE
  5
2FE
330
1F
100
AcDbEntity
  8
0
  6
SLD-Solid
 62
     7
370
    15
100
AcDbLine
 10
1284.9231853667
 20
582.7705768215
 30
0.0
 11
1285.7231989089
 21
582.7705768215
 31
0.0
  0
ARC
  5
2FF
330
1F
100
AcDbEntity
  8
0
  6
SLD-Solid
 62
     7
370
    15
100
AcDbCircle
 10
1282.9516825756
 20
581.9329884985
 30
0.0
 40
2.142049825283547
100
AcDbArc
 50
23.0180979332
 51
70.3162177677
  0
ARC
  5
300
330
1F
100
AcDbEntity
  8
0
  6
SLD-Solid
 62
     7
370
    15
100
AcDbCircle
 10
1285.6931384249
 20
584.6742806729
 30
0.0
 40
2.145920994777755
100
AcDbArc
 50
199.7292489659
 51
246.9371580741
  0
LINE
  5
301
330
1F
100
AcDbEntity
  8
0
  6
SLD-Solid
 62
     7
370
    15
100
AcDbLine
 10
1284.852494258
 20
582.6998708116
 30
0.0
 11
1284.852494258
 21
581.8998721706
 31
0.0
  0
LINE
  5
302
330
1F
100
AcDbEntity
  8
0
  6
SLD-Solid
 62
     7
370
    15
100
AcDbLine
 10
1236.973200697
 20
1264.9998870956
 30
0.0
 11
1236.973200697
 21
1265.0998440849
 31
0.0
  0
LINE
  5
303
330
1F
100
AcDbEntity
  8
0
  6
SLD-Solid
 62
     7
370
    15
100
AcDbLine
 10
1203.9232000294
 20
1281.4898697006
 30
0.0
 11
1203.9232000294
 21
1281.4998832809
 31
0.0
  0
LINE
  5
304
330
1F
100
AcDbEntity
  8
0
  6
SLD-Solid
 62
     7
370
    15
100
AcDbLine
 10
1224.8947813693
 20
1281.4998832809
 30
0.0
 11
1224.6732011023
 21
1281.4998832809
 31
0.0
  0
LINE
  5
305
330
1F
100
AcDbEntity
  8
0
  6
SLD-Solid
 62
     7
370
    15
100
AcDbLine
 10
1322.4511339846
 20
1256.5016952621
 30
0.0
 11
1322.1371665183
 21
1256.4742175209
 31
0.0
  0
LINE
  5
306
330
1F
100
AcDbEntity
  8
0
  6
SLD-Solid
 62
     7
370
    15
100
AcDbLine
 10
1323.2208087626
 20
1256.9453922378
 30
0.0
 11
1323.2299878779
 21
1256.8403688537
 31
0.0
  0
LINE
  5
307
330
1F
100
AcDbEntity
  8
0
  6
SLD-Solid
 62
     7
370
    15
100
AcDbLine
 10
644.9231996718
 20
1264.9998870956
 30
0.0
 11
644.9231996718
 21
1265.499850856
 31
0.0
  0
LINE
  5
308
330
1F
100
AcDbEntity
  8
0
  6
SLD-Solid
 62
     7
370
    15
100
AcDbLine
 10
633.7231888953
 20
1264.9998870956
 30
0.0
 11
633.7231888953
 21
1265.499850856
 31
0.0
  0
LINE
  5
309
330
1F
100
AcDbEntity
  8
0
  6
SLD-Solid
 62
     7
370
    15
100
AcDbLine
 10
583.7232067767
 20
1265.499850856
 30
0.0
 11
583.7232067767
 21
1264.9998870956
 31
0.0
  0
LINE
  5
30A
330
1F
100
AcDbEntity
  8
0
  6
SLD-Solid
 62
     7
370
    15
100
AcDbLine
 10
1286.3991751853
 20
656.178003298
 30
0.0
 11
1286.3503291789
 21
647.1781340706
 31
0.0
  0
ARC
  5
30B
330
1F
100
AcDbEntity
  8
0
  6
SLD-Solid
 62
     7
370
    15
100
AcDbCircle
 10
1283.6992040705
 20
656.1926502369
 30
0.0
 40
2.699999999999955
100
AcDbArc
 50
359.6890354576
 51
41.4418449496
  0
LINE
  5
30C
330
1F
100
AcDbEntity
  8
0
  6
SLD-Solid
 62
     7
370
    15
100
AcDbLine
 10
1286.3231792632
 20
642.1781984436
 30
0.0
 11
1285.7231989089
 21
642.1814617979
 31
0.0
  0
LWPOLYLINE
  5
30D
330
1F
100
AcDbEntity
  8
0
  6
SLD-Solid
 62
     7
370
    15
100
AcDbPolyline
 90
        9
 70
   128
 43
0.0
 10
1286.3503291789
 20
647.1781340706
 10
1286.3450243655
 20
646.2026891577
 10
1286.3399281684
 20
645.2647355663
 10
1286.3352492037
 20
644.4003192055
 10
1286.3311364833
 20
643.6426398622
 10
1286.3277688208
 20
643.0208442079
 10
1286.3252356234
 20
642.5588039028
 10
1286.323715705
 20
642.274281131
 10
1286.3231792632
 20
642.1781984436
  0
LWPOLYLINE
  5
30E
330
1F
100
AcDbEntity
  8
0
  6
SLD-Solid
 62
     7
370
    15
100
AcDbPolyline
 90
        3
 70
   128
 43
0.0
 10
1284.090955514
 20
583.302354561
 10
1284.3177511874
 20
583.5053232776
 10
1284.3335762206
 20
583.5212973224
  0
LINE
  5
30F
330
1F
100
AcDbEntity
  8
0
  6
SLD-Solid
 62
     7
370
     0
100
AcDbLine
 10
578.0101533854
 20
1352.6998690983
 30
0.0
 11
577.4637772657
 21
1352.6998690983
 31
0.0
  0
LINE
  5
310
330
1F
100
AcDbEntity
  8
0
  6
SLD-Center
 62
     7
370
     0
100
AcDbLine
 10
650.4231993797
 20
581.6980744725
 30
0.0
 11
650.4231993797
 21
411.9625591869
 31
0.0
  0
LINE
  5
311
330
1F
100
AcDbEntity
  8
0
  6
SLD-Center
 62
     7
370
     0
100
AcDbLine
 10
1239.4231993797
 20
580.1714530817
 30
0.0
 11
1239.4231993797
 21
412.4450366532
 31
0.0
  0
LINE
  5
312
330
1F
100
AcDbEntity
  8
0
  6
SLD-Center
 62
     7
370
     0
100
AcDbLine
 10
1288.9231993797
 20
618.2998690981
 30
0.0
 11
1288.9231993797
 21
1133.0381615506
 31
0.0
  0
LINE
  5
313
330
1F
100
AcDbEntity
  8
0
  6
SLD-Center
 62
     7
370
     0
100
AcDbLine
 10
527.2231993776
 20
1223.3998690984
 30
0.0
 11
735.2231993776
 21
1223.3998690984
 31
0.0
  0
ENDSEC
  0
SECTION
  2
OBJECTS
  0
DICTIONARY
  5
C
330
0
100
AcDbDictionary
281
     1
  3
ACAD_GROUP
350
D
  3
ACAD_LAYOUT
350
1A
  3
ACAD_MLINESTYLE
350
17
  3
ACAD_PLOTSETTINGS
350
19
  3
ACAD_PLOTSTYLENAME
350
E
  0
DICTIONARY
  5
D
102
{ACAD_REACTORS
330
C
102
}
330
C
100
AcDbDictionary
281
     1
  0
DICTIONARY
  5
1A
102
{ACAD_REACTORS
330
C
102
}
330
C
100
AcDbDictionary
281
     1
  3
Layout1
350
1E
  3
Layout2
350
26
  3
Model
350
22
  0
DICTIONARY
  5
17
102
{ACAD_REACTORS
330
C
102
}
330
C
100
AcDbDictionary
281
     1
  3
Standard
350
18
  0
DICTIONARY
  5
19
102
{ACAD_REACTORS
330
C
102
}
330
C
100
AcDbDictionary
281
     1
  0
ACDBDICTIONARYWDFLT
  5
E
102
{ACAD_REACTORS
330
C
102
}
330
C
100
AcDbDictionary
281
     1
  3
Normal
350
F
100
AcDbDictionaryWithDefault
340
F
  0
LAYOUT
  5
1E
102
{ACAD_REACTORS
330
1A
102
}
330
1A
100
AcDbPlotSettings
  1

  2
none_device
  4

  6

 40
0.0
 41
0.0
 42
0.0
 43
0.0
 44
0.0
 45
0.0
 46
0.0
 47
0.0
 48
0.0
 49
0.0
140
0.0
141
0.0
142
1.0
143
1.0
 70
   688
 72
     0
 73
     0
 74
     5
  7

 75
    16
147
1.0
148
0.0
149
0.0
100
AcDbLayout
  1
Layout1
 70
     1
 71
     1
 10
0.0
 20
0.0
 11
420.0
 21
297.0
 12
0.0
 22
0.0
 32
0.0
 14
1.0000000000E+20
 24
1.0000000000E+20
 34
1.0000000000E+20
 15
-1.0000000000E+20
 25
-1.0000000000E+20
 35
-1.0000000000E+20
146
0.0
 13
0.0
 23
0.0
 33
0.0
 16
1.0
 26
0.0
 36
0.0
 17
0.0
 27
1.0
 37
0.0
 76
     0
330
1B
  0
LAYOUT
  5
26
102
{ACAD_REACTORS
330
1A
102
}
330
1A
100
AcDbPlotSettings
  1

  2
none_device
  4

  6

 40
0.0
 41
0.0
 42
0.0
 43
0.0
 44
0.0
 45
0.0
 46
0.0
 47
0.0
 48
0.0
 49
0.0
140
0.0
141
0.0
142
1.0
143
1.0
 70
   688
 72
     0
 73
     0
 74
     5
  7

 75
    16
147
1.0
148
0.0
149
0.0
100
AcDbLayout
  1
Layout2
 70
     1
 71
     2
 10
0.0
 20
0.0
 11
0.0
 21
0.0
 12
0.0
 22
0.0
 32
0.0
 14
0.0
 24
0.0
 34
0.0
 15
0.0
 25
0.0
 35
0.0
146
0.0
 13
0.0
 23
0.0
 33
0.0
 16
1.0
 26
0.0
 36
0.0
 17
0.0
 27
1.0
 37
0.0
 76
     0
330
23
  0
LAYOUT
  5
22
102
{ACAD_REACTORS
330
1A
102
}
330
1A
100
AcDbPlotSettings
  1

  2
none_device
  4

  6

 40
0.0
 41
0.0
 42
0.0
 43
0.0
 44
0.0
 45
0.0
 46
0.0
 47
0.0
 48
0.0
 49
0.0
140
0.0
141
0.0
142
1.0
143
1.0
 70
  1712
 72
     0
 73
     0
 74
     0
  7

 75
     0
147
1.0
148
0.0
149
0.0
100
AcDbLayout
  1
Model
 70
     1
 71
     0
 10
0.0
 20
0.0
 11
2000.0
 21
2000.0
 12
0.0
 22
0.0
 32
0.0
 14
0.0
 24
0.0
 34
0.0
 15
2000.0
 25
2000.0
 35
0.0
146
0.0
 13
0.0
 23
0.0
 33
0.0
 16
1.0
 26
0.0
 36
0.0
 17
0.0
 27
1.0
 37
0.0
 76
     0
330
1F
331
29
  0
MLINESTYLE
  5
18
102
{ACAD_REACTORS
330
17
102
}
330
17
100
AcDbMlineStyle
  2
Standard
 70
     0
  3

 62
   256
 51
90.0
 52
90.0
 71
     2
 49
0.5
 62
   256
  6
BYLAYER
 49
-0.5
 62
   256
  6
BYLAYER
  0
ACDBPLACEHOLDER
  5
F
102
{ACAD_REACTORS
330
E
102
}
330
E
  0
ENDSEC
  0
EOF
