  0
SECTION
  2
HEADER
  9
$ACADVER
  1
AC1015
  9
$ACADMAINTVER
 70
     6
  9
$DWGCODEPAGE
  3
ANSI_1252
  9
$INSBASE
 10
0.0
 20
0.0
 30
0.0
  9
$EXTMIN
 10
0.0
 20
0.0
 30
0.0
  9
$EXTMAX
 10
1500.0
 20
1500.0
 30
0.0
  9
$LIMMIN
 10
0.0
 20
0.0
  9
$LIMMAX
 10
1500.0
 20
1500.0
  9
$ORTHOMODE
 70
     0
  9
$REGENMODE
 70
     1
  9
$FILLMODE
 70
     1
  9
$QTEXTMODE
 70
     0
  9
$MIRRTEXT
 70
     1
  9
$LTSCALE
 40
1.0
  9
$ATTMODE
 70
     1
  9
$TEXTSIZE
 40
3.5
  9
$TRACEWID
 40
1.0
  9
$TEXTSTYLE
  7
Standard
  9
$CLAYER
  8
0
  9
$CELTYPE
  6
ByLayer
  9
$CECOLOR
 62
   256
  9
$CELTSCALE
 40
1.0
  9
$DISPSILH
 70
     0
  9
$DIMSCALE
 40
1.0
  9
$DIMASZ
 40
3.302
  9
$DIMEXO
 40
1.0
  9
$DIMDLI
 40
3.75
  9
$DIMRND
 40
0.0
  9
$DIMDLE
 40
0.0
  9
$DIMEXE
 40
1.0
  9
$DIMTP
 40
0.0
  9
$DIMTM
 40
0.0
  9
$DIMTXT
 40
3.5
  9
$DIMCEN
 40
2.5
  9
$DIMTSZ
 40
0.0
  9
$DIMTOL
 70
     0
  9
$DIMLIM
 70
     0
  9
$DIMTIH
 70
     1
  9
$DIMTOH
 70
     1
  9
$DIMSE1
 70
     0
  9
$DIMSE2
 70
     0
  9
$DIMTAD
 70
     1
  9
$DIMZIN
 70
     0
  9
$DIMBLK
  1

  9
$DIMASO
 70
     1
  9
$DIMSHO
 70
     1
  9
$DIMPOST
  1

  9
$DIMAPOST
  1

  9
$DIMALT
 70
     0
  9
$DIMALTD
 70
     3
  9
$DIMALTF
 40
0.0393700787
  9
$DIMLFAC
 40
1.0
  9
$DIMTOFL
 70
     1
  9
$DIMTVP
 40
0.0
  9
$DIMTIX
 70
     0
  9
$DIMSOXD
 70
     0
  9
$DIMSAH
 70
     0
  9
$DIMBLK1
  1

  9
$DIMBLK2
  1

  9
$DIMSTYLE
  2
ISO-25
  9
$DIMCLRD
 70
     0
  9
$DIMCLRE
 70
     0
  9
$DIMCLRT
 70
     0
  9
$DIMTFAC
 40
1.0
  9
$DIMGAP
 40
1.524
  9
$DIMJUST
 70
     0
  9
$DIMSD1
 70
     0
  9
$DIMSD2
 70
     0
  9
$DIMTOLJ
 70
     0
  9
$DIMTZIN
 70
     0
  9
$DIMALTZ
 70
     0
  9
$DIMALTTZ
 70
     0
  9
$DIMUPT
 70
     0
  9
$DIMDEC
 70
     1
  9
$DIMTDEC
 70
     1
  9
$DIMALTU
 70
     2
  9
$DIMALTTD
 70
     3
  9
$DIMTXSTY
  7
Standard
  9
$DIMAUNIT
 70
     0
  9
$DIMADEC
 70
     1
  9
$DIMALTRND
 40
0.0
  9
$DIMAZIN
 70
     0
  9
$DIMDSEP
 70
    44
  9
$DIMATFIT
 70
     3
  9
$DIMFRAC
 70
     0
  9
$DIMLDRBLK
  1

  9
$DIMLUNIT
 70
     2
  9
$DIMLWD
 70
    -2
  9
$DIMLWE
 70
    -2
  9
$DIMTMOVE
 70
     0
  9
$LUNITS
 70
     2
  9
$LUPREC
 70
     1
  9
$SKETCHINC
 40
1.0
  9
$FILLETRAD
 40
10.0
  9
$AUNITS
 70
     0
  9
$AUPREC
 70
     1
  9
$MENU
  1
.
  9
$ELEVATION
 40
0.0
  9
$PELEVATION
 40
0.0
  9
$THICKNESS
 40
0.0
  9
$LIMCHECK
 70
     0
  9
$CHAMFERA
 40
10.0
  9
$CHAMFERB
 40
10.0
  9
$CHAMFERC
 40
20.0
  9
$CHAMFERD
 40
0.0
  9
$SKPOLY
 70
     0
  9
$TDCREATE
 40
2456049.563918264
  9
$TDUCREATE
 40
2456049.522251597
  9
$TDUPDATE
 40
2456049.563918993
  9
$TDUUPDATE
 40
2456049.522252326
  9
$TDINDWG
 40
0.0000000116
  9
$TDUSRTIMER
 40
0.0000000116
  9
$USRTIMER
 70
     1
  9
$ANGBASE
 50
0.0
  9
$ANGDIR
 70
     0
  9
$PDMODE
 70
     0
  9
$PDSIZE
 40
-1.0
  9
$PLINEWID
 40
0.0
  9
$SPLFRAME
 70
     0
  9
$SPLINETYPE
 70
     6
  9
$SPLINESEGS
 70
     8
  9
$HANDSEED
  5
2C8
  9
$SURFTAB1
 70
     6
  9
$SURFTAB2
 70
     6
  9
$SURFTYPE
 70
     6
  9
$SURFU
 70
     6
  9
$SURFV
 70
     6
  9
$UCSBASE
  2

  9
$UCSNAME
  2

  9
$UCSORG
 10
0.0
 20
0.0
 30
0.0
  9
$UCSXDIR
 10
1.0
 20
0.0
 30
0.0
  9
$UCSYDIR
 10
0.0
 20
1.0
 30
0.0
  9
$UCSORTHOREF
  2

  9
$UCSORTHOVIEW
 70
     0
  9
$UCSORGTOP
 10
0.0
 20
0.0
 30
0.0
  9
$UCSORGBOTTOM
 10
0.0
 20
0.0
 30
0.0
  9
$UCSORGLEFT
 10
0.0
 20
0.0
 30
0.0
  9
$UCSORGRIGHT
 10
0.0
 20
0.0
 30
0.0
  9
$UCSORGFRONT
 10
0.0
 20
0.0
 30
0.0
  9
$UCSORGBACK
 10
0.0
 20
0.0
 30
0.0
  9
$PUCSBASE
  2

  9
$PUCSNAME
  2

  9
$PUCSORG
 10
0.0
 20
0.0
 30
0.0
  9
$PUCSXDIR
 10
1.0
 20
0.0
 30
0.0
  9
$PUCSYDIR
 10
0.0
 20
1.0
 30
0.0
  9
$PUCSORTHOREF
  2

  9
$PUCSORTHOVIEW
 70
     0
  9
$PUCSORGTOP
 10
0.0
 20
0.0
 30
0.0
  9
$PUCSORGBOTTOM
 10
0.0
 20
0.0
 30
0.0
  9
$PUCSORGLEFT
 10
0.0
 20
0.0
 30
0.0
  9
$PUCSORGRIGHT
 10
0.0
 20
0.0
 30
0.0
  9
$PUCSORGFRONT
 10
0.0
 20
0.0
 30
0.0
  9
$PUCSORGBACK
 10
0.0
 20
0.0
 30
0.0
  9
$USERI1
 70
     0
  9
$USERI2
 70
     0
  9
$USERI3
 70
     0
  9
$USERI4
 70
     0
  9
$USERI5
 70
     0
  9
$USERR1
 40
0.0
  9
$USERR2
 40
0.0
  9
$USERR3
 40
0.0
  9
$USERR4
 40
0.0
  9
$USERR5
 40
0.0
  9
$WORLDVIEW
 70
     1
  9
$SHADEDGE
 70
     3
  9
$SHADEDIF
 70
    70
  9
$TILEMODE
 70
     1
  9
$MAXACTVP
 70
    64
  9
$PINSBASE
 10
0.0
 20
0.0
 30
0.0
  9
$PLIMCHECK
 70
     0
  9
$PEXTMIN
 10
1.0000000000E+20
 20
1.0000000000E+20
 30
1.0000000000E+20
  9
$PEXTMAX
 10
-1.0000000000E+20
 20
-1.0000000000E+20
 30
-1.0000000000E+20
  9
$PLIMMIN
 10
0.0
 20
0.0
  9
$PLIMMAX
 10
420.0
 20
297.0
  9
$UNITMODE
 70
     0
  9
$VISRETAIN
 70
     1
  9
$PLINEGEN
 70
     0
  9
$PSLTSCALE
 70
     1
  9
$TREEDEPTH
 70
  3020
  9
$CMLSTYLE
  2
Standard
  9
$CMLJUST
 70
     0
  9
$CMLSCALE
 40
20.0
  9
$PROXYGRAPHICS
 70
     1
  9
$MEASUREMENT
 70
     1
  9
$CELWEIGHT
370
    -1
  9
$ENDCAPS
280
     0
  9
$JOINSTYLE
280
     0
  9
$LWDISPLAY
290
     1
  9
$INSUNITS
 70
     4
  9
$HYPERLINKBASE
  1

  9
$STYLESHEET
  1

  9
$XEDIT
290
     1
  9
$CEPSNTYPE
380
     0
  9
$PSTYLEMODE
290
     1
  9
$FINGERPRINTGUID
  2
{F38D24FF-B1CA-452E-9A32-0B75538F4053}
  9
$VERSIONGUID
  2
{FAEB1C32-E019-11D5-929B-00C0DF256EC4}
  9
$EXTNAMES
290
     1
  9
$PSVPSCALE
 40
0.0
  9
$OLESTARTUP
290
     0
  0
ENDSEC
  0
SECTION
  2
CLASSES
  0
CLASS
  1
ACDBDICTIONARYWDFLT
  2
AcDbDictionaryWithDefault
  3
ObjectDBX Classes
 90
        0
280
     0
281
     0
  0
CLASS
  1
VISUALSTYLE
  2
AcDbVisualStyle
  3
ObjectDBX Classes
 90
     4095
280
     0
281
     0
  0
CLASS
  1
MATERIAL
  2
AcDbMaterial
  3
ObjectDBX Classes
 90
     1153
280
     0
281
     0
  0
CLASS
  1
ACDBPLACEHOLDER
  2
AcDbPlaceHolder
  3
ObjectDBX Classes
 90
        0
280
     0
281
     0
  0
CLASS
  1
LAYOUT
  2
AcDbLayout
  3
ObjectDBX Classes
 90
        0
280
     0
281
     0
  0
ENDSEC
  0
SECTION
  2
TABLES
  0
TABLE
  2
VPORT
  5
8
330
0
100
AcDbSymbolTable
 70
     1
  0
VPORT
  5
29
330
8
100
AcDbSymbolTableRecord
100
AcDbViewportTableRecord
  2
*Active
 70
     0
 10
0.0
 20
0.0
 11
1.0
 21
1.0
 12
750.0
 22
750.0
 13
0.0
 23
0.0
 14
10.0
 24
10.0
 15
10.0
 25
10.0
 16
0.0
 26
0.0
 36
1.0
 17
0.0
 27
0.0
 37
0.0
 40
1500.0
 41
1.0
 42
50.0
 43
0.0
 44
0.0
 50
0.0
 51
0.0
 71
     0
 72
  2000
 73
     1
 74
     3
 75
     0
 76
     0
 77
     0
 78
     0
281
     0
 65
     1
110
0.0
120
0.0
130
0.0
111
1.0
121
0.0
131
0.0
112
0.0
122
1.0
132
0.0
 79
     0
146
0.0
  0
ENDTAB
  0
TABLE
  2
LTYPE
  5
5
330
0
100
AcDbSymbolTable
 70
     6
  0
LTYPE
  5
14
330
5
100
AcDbSymbolTableRecord
100
AcDbLinetypeTableRecord
  2
ByBlock
 70
     0
  3

 72
    65
 73
     0
 40
0.0
  0
LTYPE
  5
15
330
5
100
AcDbSymbolTableRecord
100
AcDbLinetypeTableRecord
  2
ByLayer
 70
     0
  3

 72
    65
 73
     0
 40
0.0
  0
LTYPE
  5
16
330
5
100
AcDbSymbolTableRecord
100
AcDbLinetypeTableRecord
  2
Continuous
 70
     0
  3
Solid line
 72
    65
 73
     0
 40
0.0
  0
LTYPE
  5
3F
330
5
100
AcDbSymbolTableRecord
100
AcDbLinetypeTableRecord
  2
HIDDEN
 70
     0
  3
Hidden __ __ __ __ __ __ __ __ __ __ __ __ __ __
 72
    65
 73
     2
 40
1.905
 49
1.27
 74
     0
 49
-0.635
 74
     0
  0
LTYPE
  5
40
330
5
100
AcDbSymbolTableRecord
100
AcDbLinetypeTableRecord
  2
PHANTOM
 70
     0
  3
Phantom ______  __  __  ______  __  __  ______
 72
    65
 73
     6
 40
12.7
 49
6.35
 74
     0
 49
-1.27
 74
     0
 49
1.27
 74
     0
 49
-1.27
 74
     0
 49
1.27
 74
     0
 49
-1.27
 74
     0
  0
LTYPE
  5
41
330
5
100
AcDbSymbolTableRecord
100
AcDbLinetypeTableRecord
  2
CENTER
 70
     0
  3
Center ____ _ ____ _ ____ _ ____ _ ____ _ ____
 72
    65
 73
     4
 40
10.16
 49
6.35
 74
     0
 49
-1.27
 74
     0
 49
1.27
 74
     0
 49
-1.27
 74
     0
  0
LTYPE
  5
42
330
5
100
AcDbSymbolTableRecord
100
AcDbLinetypeTableRecord
  2
CENTERX2
 70
     0
  3
Center (2x) ________  __  ________  __  _____
 72
    65
 73
     4
 40
20.32
 49
12.7
 74
     0
 49
-2.54
 74
     0
 49
2.54
 74
     0
 49
-2.54
 74
     0
  0
LTYPE
  5
43
330
5
100
AcDbSymbolTableRecord
100
AcDbLinetypeTableRecord
  2
DOT2
 70
     0
  3
Dot (.5x) ........................................
 72
    65
 73
     2
 40
0.635
 49
0.0
 74
     0
 49
-0.635
 74
     0
  0
ENDTAB
  0
TABLE
  2
LAYER
  5
2
330
0
100
AcDbSymbolTable
 70
     4
  0
LAYER
  5
10
330
2
100
AcDbSymbolTableRecord
100
AcDbLayerTableRecord
  2
0
 70
     0
 62
     7
  6
Continuous
370
    -3
390
F
  0
LAYER
  5
44
330
2
100
AcDbSymbolTableRecord
100
AcDbLayerTableRecord
  2
FORMAT
 70
     0
 62
     7
  6
Continuous
370
    -3
390
F
  0
LAYER
  5
45
330
2
100
AcDbSymbolTableRecord
100
AcDbLayerTableRecord
  2
SLD-0
 70
     0
 62
     1
  6
Continuous
370
    -3
390
F
  0
LAYER
  5
46
330
2
100
AcDbSymbolTableRecord
100
AcDbLayerTableRecord
  2
WATERMARK
 70
     0
 62
    20
  6
Continuous
370
    -3
390
F
  0
ENDTAB
  0
TABLE
  2
STYLE
  5
3
330
0
100
AcDbSymbolTable
 70
     1
  0
STYLE
  5
11
330
3
100
AcDbSymbolTableRecord
100
AcDbTextStyleTableRecord
  2
Standard
 70
     0
 40
0.0
 41
1.0
 50
0.0
 71
     0
 42
3.5
  3
txt
  4

  0
ENDTAB
  0
TABLE
  2
VIEW
  5
6
330
0
100
AcDbSymbolTable
 70
     0
  0
ENDTAB
  0
TABLE
  2
UCS
  5
7
330
0
100
AcDbSymbolTable
 70
     0
  0
ENDTAB
  0
TABLE
  2
APPID
  5
9
330
0
100
AcDbSymbolTable
 70
     1
  0
APPID
  5
12
330
9
100
AcDbSymbolTableRecord
100
AcDbRegAppTableRecord
  2
ACAD
 70
     0
  0
ENDTAB
  0
TABLE
  2
DIMSTYLE
  5
A
330
0
100
AcDbSymbolTable
 70
     1
100
AcDbDimStyleTable
  0
DIMSTYLE
105
27
330
A
100
AcDbSymbolTableRecord
100
AcDbDimStyleTableRecord
  2
ISO-25
 70
     0
 41
2.5
 42
0.625
 43
3.75
 44
1.25
 73
     0
 74
     0
 77
     1
 78
     8
140
2.5
141
2.5
143
0.0393700787
147
0.625
171
     3
172
     1
178
     0
271
     2
272
     2
274
     3
278
    44
283
     0
284
     8
340
11
  0
ENDTAB
  0
TABLE
  2
BLOCK_RECORD
  5
1
330
0
100
AcDbSymbolTable
 70
     1
  0
BLOCK_RECORD
  5
1F
330
1
100
AcDbSymbolTableRecord
100
AcDbBlockTableRecord
  2
*Model_Space
340
22
  0
BLOCK_RECORD
  5
1B
330
1
100
AcDbSymbolTableRecord
100
AcDbBlockTableRecord
  2
*Paper_Space
340
1E
  0
BLOCK_RECORD
  5
23
330
1
100
AcDbSymbolTableRecord
100
AcDbBlockTableRecord
  2
*Paper_Space0
340
26
  0
ENDTAB
  0
ENDSEC
  0
SECTION
  2
BLOCKS
  0
BLOCK
  5
20
330
1F
100
AcDbEntity
  8
0
100
AcDbBlockBegin
  2
*Model_Space
 70
     0
 10
0.0
 20
0.0
 30
0.0
  3
*Model_Space
  1

  0
ENDBLK
  5
21
330
1F
100
AcDbEntity
  8
0
100
AcDbBlockEnd
  0
BLOCK
  5
1C
330
1B
100
AcDbEntity
 67
     1
  8
0
100
AcDbBlockBegin
  2
*Paper_Space
 70
     0
 10
0.0
 20
0.0
 30
0.0
  3
*Paper_Space
  1

  0
ENDBLK
  5
1D
330
1B
100
AcDbEntity
 67
     1
  8
0
100
AcDbBlockEnd
  0
BLOCK
  5
24
330
23
100
AcDbEntity
  8
0
100
AcDbBlockBegin
  2
*Paper_Space0
 70
     0
 10
0.0
 20
0.0
 30
0.0
  3
*Paper_Space0
  1

  0
ENDBLK
  5
25
330
23
100
AcDbEntity
  8
0
100
AcDbBlockEnd
  0
ENDSEC
  0
SECTION
  2
ENTITIES
  0
ARC
  5
47
330
1F
100
AcDbEntity
  8
0
  6
Continuous
 62
     7
370
    15
100
AcDbCircle
 10
204.2674082812
 20
766.2663335867
 30
0.0
 40
903.8000000000001
100
AcDbArc
 50
347.0068597461
 51
12.9931402539
  0
ARC
  5
48
330
1F
100
AcDbEntity
  8
0
  6
Continuous
 62
     7
370
    15
100
AcDbCircle
 10
204.2674082812
 20
766.2663335867
 30
0.0
 40
923.8000000000001
100
AcDbArc
 50
342.4210288232
 51
17.5789711768
  0
CIRCLE
  5
49
330
1F
100
AcDbEntity
  8
0
  6
Continuous
 62
     7
370
    15
100
AcDbCircle
 10
662.9675253652
 20
766.26633359
 30
0.0
 40
5.804247641507118
  0
LINE
  5
4A
330
1F
100
AcDbEntity
  8
0
  6
Continuous
 62
     7
370
    15
100
AcDbLine
 10
1068.096664127
 20
693.7663340957
 30
0.0
 11
1068.09323686
 21
693.7663340957
 31
0.0
  0
LINE
  5
4B
330
1F
100
AcDbEntity
  8
0
  6
Continuous
 62
     7
370
    15
100
AcDbLine
 10
1068.096664127
 20
692.7663320691
 30
0.0
 11
1068.09323686
 21
692.7663320691
 31
0.0
  0
LINE
  5
4C
330
1F
100
AcDbEntity
  8
0
  6
Continuous
 62
     7
370
    15
100
AcDbLine
 10
1068.096664127
 20
691.2663364799
 30
0.0
 11
1068.09323686
 21
691.2663364799
 31
0.0
  0
LINE
  5
4D
330
1F
100
AcDbEntity
  8
0
  6
Continuous
 62
     7
370
    15
100
AcDbLine
 10
1068.09323686
 20
687.2663358242
 30
0.0
 11
1068.096664127
 21
687.2663358242
 31
0.0
  0
LINE
  5
4E
330
1F
100
AcDbEntity
  8
0
  6
Continuous
 62
     7
370
    15
100
AcDbLine
 10
1068.096664127
 20
690.2663344533
 30
0.0
 11
1068.09323686
 21
690.2663344533
 31
0.0
  0
LINE
  5
4F
330
1F
100
AcDbEntity
  8
0
  6
Continuous
 62
     7
370
    15
100
AcDbLine
 10
1068.09323686
 20
688.2663304002
 30
0.0
 11
1068.096664127
 21
688.2663304002
 31
0.0
  0
LINE
  5
50
330
1F
100
AcDbEntity
  8
0
  6
Continuous
 62
     7
370
    15
100
AcDbLine
 10
1071.4308883511
 20
889.7653901965
 30
0.0
 11
1071.4343156182
 21
889.7653901965
 31
0.0
  0
LINE
  5
51
330
1F
100
AcDbEntity
  8
0
  6
Continuous
 62
     7
370
    15
100
AcDbLine
 10
1071.4343156182
 20
895.7653949053
 30
0.0
 11
1071.4308883511
 21
895.7653949053
 31
0.0
  0
LINE
  5
52
330
1F
100
AcDbEntity
  8
0
  6
Continuous
 62
     7
370
    15
100
AcDbLine
 10
1071.4308883511
 20
890.7653922231
 30
0.0
 11
1071.4343156182
 21
890.7653922231
 31
0.0
  0
LINE
  5
53
330
1F
100
AcDbEntity
  8
0
  6
Continuous
 62
     7
370
    15
100
AcDbLine
 10
1084.9274064862
 20
316.2663290293
 30
0.0
 11
1084.9274064862
 21
652.4976128728
 31
0.0
  0
LINE
  5
54
330
1F
100
AcDbEntity
  8
0
  6
Continuous
 62
     7
370
    15
100
AcDbLine
 10
1084.9274064862
 20
676.0169500501
 30
0.0
 11
1084.9274064862
 21
1216.2663349898
 31
0.0
  0
ARC
  5
55
330
1F
100
AcDbEntity
  8
0
  6
Continuous
 62
     7
370
    15
100
AcDbCircle
 10
1075.8567249063
 20
674.9011368505
 30
0.0
 40
0.9999999999998994
100
AcDbArc
 50
50.2453421196
 51
82.9728344126
  0
ARC
  5
56
330
1F
100
AcDbEntity
  8
0
  6
Continuous
 62
     7
370
    15
100
AcDbCircle
 10
1075.8567249063
 20
653.6315303296
 30
0.0
 40
1.000000000000005
100
AcDbArc
 50
277.0271655874
 51
309.7546578804
  0
SPLINE
  5
57
330
1F
100
AcDbEntity
  8
0
  6
Continuous
 62
     7
370
    15
100
AcDbSpline
210
0.0
220
0.0
230
1.0
 70
     8
 71
     3
 72
    13
 73
     9
 74
     0
 42
0.00000001
 43
0.00000001
 12
1.0
 22
0.0
 32
0.0
 13
1.0
 23
0.0
 33
0.0
 40
0.0
 40
0.0
 40
0.0
 40
0.0
 40
0.0946411579275869
 40
0.2757595799033446
 40
0.4575385793082647
 40
0.6403456779934884
 40
0.8245229505586773
 40
1.0
 40
1.0
 40
1.0
 40
1.0
 10
1069.374736722641
 20
681.7078897745251
 30
0.0
 10
1069.271175883775
 20
682.1193262524118
 30
0.0
 10
1068.969426686646
 20
683.3181445338378
 30
0.0
 10
1068.408219975111
 20
685.15218129514
 30
0.0
 10
1067.669915560924
 20
687.1210524231575
 30
0.0
 10
1066.854145310665
 20
688.8421305164078
 30
0.0
 10
1065.986612793031
 20
690.3051576882859
 30
0.0
 10
1065.346594466856
 20
691.0408406317129
 30
0.0
 10
1065.034326490097
 20
691.399783828938
 30
0.0
  0
SPLINE
  5
58
330
1F
100
AcDbEntity
  8
0
  6
Continuous
 62
     7
370
    15
100
AcDbSpline
210
0.0
220
0.0
230
1.0
 70
     8
 71
     3
 72
    14
 73
    10
 74
     0
 42
0.00000001
 43
0.00000001
 12
1.0
 22
0.0
 32
0.0
 13
1.0
 23
0.0
 33
0.0
 40
0.0
 40
0.0
 40
0.0
 40
0.0
 40
0.0695392297012055
 40
0.2516263131587256
 40
0.4367306972275033
 40
0.6209892900129317
 40
0.8040054516624416
 40
0.9758768508760332
 40
1.0
 40
1.0
 40
1.0
 40
1.0
 10
1065.034326490097
 20
637.1643105537535
 30
0.0
 10
1065.162919168901
 20
637.2900415331309
 30
0.0
 10
1065.628229207645
 20
637.7449965696842
 30
0.0
 10
1066.350796586625
 20
638.8211187281117
 30
0.0
 10
1067.212040286683
 20
640.3875327517118
 30
0.0
 10
1067.99926488434
 20
642.2367987968664
 30
0.0
 10
1068.6977148342
 20
644.2774539112384
 30
0.0
 10
1069.137926306812
 20
645.8602331226064
 30
0.0
 10
1069.348784184335
 20
646.7190716048399
 30
0.0
 10
1069.374736722641
 20
646.8247780592084
 30
0.0
  0
SPLINE
  5
59
330
1F
100
AcDbEntity
  8
0
  6
Continuous
 62
     7
370
    15
100
AcDbSpline
210
0.0
220
0.0
230
1.0
 70
     8
 71
     3
 72
    12
 73
     8
 74
     0
 42
0.00000001
 43
0.00000001
 12
1.0
 22
0.0
 32
0.0
 13
1.0
 23
0.0
 33
0.0
 40
0.0
 40
0.0
 40
0.0
 40
0.0
 40
0.1457377796970824
 40
0.4224080307968403
 40
0.702563663304532
 40
0.9915695136637052
 40
1.0
 40
1.0
 40
1.0
 40
1.0
 10
1076.49624007576
 20
652.8627434761166
 30
0.0
 10
1076.709541596054
 20
653.0316914687146
 30
0.0
 10
1077.327777137592
 20
653.5213722433823
 30
0.0
 10
1078.34245866398
 20
654.1088349518648
 30
0.0
 10
1079.535099861034
 20
654.4976991306972
 30
0.0
 10
1080.328360451314
 20
654.653927465304
 30
0.0
 10
1080.740566627613
 20
654.5969898249917
 30
0.0
 10
1080.752250131302
 20
654.5953759939313
 30
0.0
  0
SPLINE
  5
5A
330
1F
100
AcDbEntity
  8
0
  6
Continuous
 62
     7
370
    15
100
AcDbSpline
210
0.0
220
0.0
230
1.0
 70
     8
 71
     3
 72
    11
 73
     7
 74
     0
 42
0.00000001
 43
0.00000001
 12
1.0
 22
0.0
 32
0.0
 13
1.0
 23
0.0
 33
0.0
 40
0.0
 40
0.0
 40
0.0
 40
0.0
 40
0.2706749752926148
 40
0.5972775752690563
 40
0.9114941619946881
 40
1.0
 40
1.0
 40
1.0
 40
1.0
 10
1080.401357587509
 20
673.9617893488049
 30
0.0
 10
1080.059405968314
 20
673.9911234802483
 30
0.0
 10
1079.304847724608
 20
674.055852843878
 30
0.0
 10
1078.123650521457
 20
674.5350114833166
 30
0.0
 10
1077.154726534348
 20
675.136618009401
 30
0.0
 10
1076.614881245769
 20
675.5738372045702
 30
0.0
 10
1076.49624007576
 20
675.6699243576169
 30
0.0
  0
ARC
  5
5B
330
1F
100
AcDbEntity
  8
0
  6
Continuous
 62
     7
370
    15
100
AcDbCircle
 10
1085.4780710062
 20
674.9011368505
 30
0.0
 40
1.000000000000058
100
AcDbArc
 50
11.9201320981
 51
80.5845175716
  0
ARC
  5
5C
330
1F
100
AcDbEntity
  8
0
  6
Continuous
 62
     7
370
    15
100
AcDbCircle
 10
1085.4780710062
 20
653.6315303296
 30
0.0
 40
1.000000000000081
100
AcDbArc
 50
279.4154824284
 51
348.0798679019
  0
SPLINE
  5
5D
330
1F
100
AcDbEntity
  8
0
  6
Continuous
 62
     7
370
    15
100
AcDbSpline
210
0.0
220
0.0
230
1.0
 70
     8
 71
     3
 72
     9
 73
     5
 74
     0
 42
0.00000001
 43
0.00000001
 12
1.0
 22
0.0
 32
0.0
 13
1.0
 23
0.0
 33
0.0
 40
0.0
 40
0.0
 40
0.0
 40
0.0
 40
0.520843370304989
 40
0.9999999999999999
 40
0.9999999999999999
 40
0.9999999999999999
 40
0.9999999999999999
 10
1085.641291316681
 20
675.8888000638127
 30
0.0
 10
1083.388311708923
 20
676.2760029511493
 30
0.0
 10
1079.062674221326
 20
677.0194181684916
 30
0.0
 10
1074.661822081886
 20
677.9671032259286
 30
0.0
 10
1072.553124602967
 20
678.4211928040623
 30
0.0
  0
LINE
  5
5E
330
1F
100
AcDbEntity
  8
0
  6
Continuous
 62
     7
370
    15
100
AcDbLine
 10
1085.0875343644
 20
652.5240847857
 30
0.0
 11
1085.6282080972
 21
652.6134694011
 31
0.0
  0
SPLINE
  5
5F
330
1F
100
AcDbEntity
  8
0
  6
Continuous
 62
     7
370
    15
100
AcDbSpline
210
0.0
220
0.0
230
1.0
 70
     8
 71
     3
 72
    10
 73
     6
 74
     0
 42
0.00000001
 43
0.00000001
 12
1.0
 22
0.0
 32
0.0
 13
1.0
 23
0.0
 33
0.0
 40
0.0
 40
0.0
 40
0.0
 40
0.0
 40
0.1150633635580924
 40
0.7493552547686686
 40
1.0
 40
1.0
 40
1.0
 40
1.0
 10
1072.555270370179
 20
650.1181432993054
 30
0.0
 10
1073.040952276204
 20
650.2263962299908
 30
0.0
 10
1076.203977214569
 20
650.9313982388383
 30
0.0
 10
1080.407528426956
 20
651.7670430712874
 30
0.0
 10
1084.054566657455
 20
652.3569910566794
 30
0.0
 10
1085.087534364395
 20
652.5240847856641
 30
0.0
  0
SPLINE
  5
60
330
1F
100
AcDbEntity
  8
0
  6
Continuous
 62
     7
370
    15
100
AcDbSpline
210
0.0
220
0.0
230
1.0
 70
     8
 71
     3
 72
    11
 73
     7
 74
     0
 42
0.00000001
 43
0.00000001
 12
1.0
 22
0.0
 32
0.0
 13
1.0
 23
0.0
 33
0.0
 40
0.0
 40
0.0
 40
0.0
 40
0.0
 40
0.092553886865322
 40
0.424980995230223
 40
0.7579051825475913
 40
1.0
 40
1.0
 40
1.0
 40
1.0
 10
1087.35325592392
 20
668.2596514017224
 30
0.0
 10
1087.341275067008
 20
668.4868452755456
 30
0.0
 10
1087.286262396376
 20
669.5300546088077
 30
0.0
 10
1087.089578473575
 20
671.3203686498871
 30
0.0
 10
1086.799575416783
 20
673.386016545704
 30
0.0
 10
1086.558149370135
 20
674.5975856878538
 30
0.0
 10
1086.456504043274
 20
675.1076811940312
 30
0.0
  0
SPLINE
  5
61
330
1F
100
AcDbEntity
  8
0
  6
Continuous
 62
     7
370
    15
100
AcDbSpline
210
0.0
220
0.0
230
1.0
 70
     8
 71
     3
 72
    12
 73
     8
 74
     0
 42
0.00000001
 43
0.00000001
 12
1.0
 22
0.0
 32
0.0
 13
1.0
 23
0.0
 33
0.0
 40
0.0
 40
0.0
 40
0.0
 40
0.0
 40
0.1036838002102754
 40
0.3447564372142682
 40
0.5855731129962757
 40
0.8263050515727611
 40
1.0
 40
1.0
 40
1.0
 40
1.0
 10
1087.166931804352
 20
658.1122064978719
 30
0.0
 10
1087.205101600453
 20
658.4469680263958
 30
0.0
 10
1087.332019044511
 20
659.5600752973124
 30
0.0
 10
1087.447244847106
 20
661.5482507314834
 30
0.0
 10
1087.508289056584
 20
664.0212634508785
 30
0.0
 10
1087.480086802174
 20
666.2801442319742
 30
0.0
 10
1087.390713949673
 20
667.6750269667041
 30
0.0
 10
1087.35325592392
 20
668.2596514017224
 30
0.0
  0
SPLINE
  5
62
330
1F
100
AcDbEntity
  8
0
  6
Continuous
 62
     7
370
    15
100
AcDbSpline
210
0.0
220
0.0
230
1.0
 70
     8
 71
     3
 72
    10
 73
     6
 74
     0
 42
0.00000001
 43
0.00000001
 12
1.0
 22
0.0
 32
0.0
 13
1.0
 23
0.0
 33
0.0
 40
0.0
 40
0.0
 40
0.0
 40
0.0
 40
0.2502360260437442
 40
0.7279671502962252
 40
1.0
 40
1.0
 40
1.0
 40
1.0
 10
1086.456504043274
 20
653.4249791891217
 30
0.0
 10
1086.530295572816
 20
653.792260859852
 30
0.0
 10
1086.74496414123
 20
654.8607280802782
 30
0.0
 10
1086.995469888413
 20
656.4195783372379
 30
0.0
 10
1087.121283518383
 20
657.6615782992278
 30
0.0
 10
1087.166931804352
 20
658.1122064978719
 30
0.0
  0
SPLINE
  5
63
330
1F
100
AcDbEntity
  8
0
  6
Continuous
 62
     7
370
    15
100
AcDbSpline
210
0.0
220
0.0
230
1.0
 70
     8
 71
     3
 72
    11
 73
     7
 74
     0
 42
0.00000001
 43
0.00000001
 12
1.0
 22
0.0
 32
0.0
 13
1.0
 23
0.0
 33
0.0
 40
0.0
 40
0.0
 40
0.0
 40
0.0
 40
0.2290604589474105
 40
0.4874211498551981
 40
0.7563618982662867
 40
1.0
 40
1.0
 40
1.0
 40
1.0
 10
1070.120718654328
 20
648.3312631041646
 30
0.0
 10
1070.286232570946
 20
648.5459852890954
 30
0.0
 10
1070.638432090347
 20
649.0028958128904
 30
0.0
 10
1071.294862008823
 20
649.5559816668881
 30
0.0
 10
1071.972000356202
 20
649.9627048376017
 30
0.0
 10
1072.36533228077
 20
650.0655137837745
 30
0.0
 10
1072.55229013794
 20
650.114380756104
 30
0.0
  0
SPLINE
  5
64
330
1F
100
AcDbEntity
  8
0
  6
Continuous
 62
     7
370
    15
100
AcDbSpline
210
0.0
220
0.0
230
1.0
 70
     8
 71
     3
 72
    12
 73
     8
 74
     0
 42
0.00000001
 43
0.00000001
 12
1.0
 22
0.0
 32
0.0
 13
1.0
 23
0.0
 33
0.0
 40
0.0
 40
0.0
 40
0.0
 40
0.0
 40
0.0486792471093307
 40
0.3517264337710384
 40
0.6171120243113258
 40
0.8686353812703667
 40
0.9999999999999999
 40
0.9999999999999999
 40
0.9999999999999999
 40
0.9999999999999999
 10
1072.55366104477
 20
678.4122074038625
 30
0.0
 10
1072.518844981082
 20
678.4184160692812
 30
0.0
 10
1072.267285422422
 20
678.4632760840905
 30
0.0
 10
1071.735015242005
 20
678.6914824515609
 30
0.0
 10
1071.027057902943
 20
679.184749880986
 30
0.0
 10
1070.473416860888
 20
679.711600783786
 30
0.0
 10
1070.218225839654
 20
680.0795528483112
 30
0.0
 10
1070.130672630005
 20
680.2057931215405
 30
0.0
  0
SPLINE
  5
65
330
1F
100
AcDbEntity
  8
0
  6
Continuous
 62
     7
370
    15
100
AcDbSpline
210
0.0
220
0.0
230
1.0
 70
     8
 71
     3
 72
    10
 73
     6
 74
     0
 42
0.00000001
 43
0.00000001
 12
1.0
 22
0.0
 32
0.0
 13
1.0
 23
0.0
 33
0.0
 40
0.0
 40
0.0
 40
0.0
 40
0.0
 40
0.0832717441106061
 40
0.5575779313571018
 40
1.0
 40
1.0
 40
1.0
 40
1.0
 10
1070.119615968399
 20
680.2007416278958
 30
0.0
 10
1070.087432175127
 20
680.242353525508
 30
0.0
 10
1069.871933231665
 20
680.5209819610982
 30
0.0
 10
1069.571057759921
 20
681.0685244781153
 30
0.0
 10
1069.440350519334
 20
681.4987474641053
 30
0.0
 10
1069.377269920044
 20
681.706377306664
 30
0.0
  0
SPLINE
  5
66
330
1F
100
AcDbEntity
  8
0
  6
Continuous
 62
     7
370
    15
100
AcDbSpline
210
0.0
220
0.0
230
1.0
 70
     8
 71
     3
 72
    10
 73
     6
 74
     0
 42
0.00000001
 43
0.00000001
 12
1.0
 22
0.0
 32
0.0
 13
1.0
 23
0.0
 33
0.0
 40
0.0
 40
0.0
 40
0.0
 40
0.0
 40
0.1500723459746818
 40
0.6251866059369535
 40
1.0
 40
1.0
 40
1.0
 40
1.0
 10
1069.380995210343
 20
646.8291590005994
 30
0.0
 10
1069.396698572468
 20
646.8949743563668
 30
0.0
 10
1069.462117231753
 20
647.1691546433713
 30
0.0
 10
1069.681954339413
 20
647.7000042457751
 30
0.0
 10
1069.989026722327
 20
648.1373055232256
 30
0.0
 10
1070.124443944626
 20
648.3301529676556
 30
0.0
  0
LINE
  5
67
330
1F
100
AcDbEntity
  8
0
  6
Continuous
 62
     7
370
    15
100
AcDbLine
 10
305.8777417504
 20
1166.9663200171
 30
0.0
 11
334.1380025708
 21
1166.9663200171
 31
0.0
  0
LINE
  5
68
330
1F
100
AcDbEntity
  8
0
  6
Continuous
 62
     7
370
    15
100
AcDbLine
 10
1065.0343264901
 20
317.4663195402
 30
0.0
 11
1065.0343264901
 21
1215.0663444788
 31
0.0
  0
LINE
  5
69
330
1F
100
AcDbEntity
  8
0
  6
Continuous
 62
     7
370
    15
100
AcDbLine
 10
1063.7343193852
 20
1215.0663444788
 30
0.0
 11
1063.7343193852
 21
1216.2663349898
 31
0.0
  0
LINE
  5
6A
330
1F
100
AcDbEntity
  8
0
  6
Continuous
 62
     7
370
    15
100
AcDbLine
 10
1063.7343193852
 20
316.2663290293
 30
0.0
 11
1063.7343193852
 21
317.4663195402
 31
0.0
  0
ARC
  5
6B
330
1F
100
AcDbEntity
  8
0
  6
Continuous
 62
     7
370
    15
100
AcDbCircle
 10
1072.993750806
 20
878.9011368505
 30
0.0
 40
0.9999999999999273
100
AcDbArc
 50
50.2453421196
 51
82.9728344126
  0
ARC
  5
6C
330
1F
100
AcDbEntity
  8
0
  6
Continuous
 62
     7
370
    15
100
AcDbCircle
 10
1072.993750806
 20
857.6315303296
 30
0.0
 40
1.00000000000004
100
AcDbArc
 50
277.0271655874
 51
309.7546578804
  0
SPLINE
  5
6D
330
1F
100
AcDbEntity
  8
0
  6
Continuous
 62
     7
370
    15
100
AcDbSpline
210
0.0
220
0.0
230
1.0
 70
     8
 71
     3
 72
    11
 73
     7
 74
     0
 42
0.00000001
 43
0.00000001
 12
1.0
 22
0.0
 32
0.0
 13
1.0
 23
0.0
 33
0.0
 40
0.0
 40
0.0
 40
0.0
 40
0.0
 40
0.0535341677604364
 40
0.5105622541494872
 40
0.9397614013186489
 40
1.0
 40
1.0
 40
1.0
 40
1.0
 10
1065.034326490097
 20
846.0667589695096
 30
0.0
 10
1065.065036819419
 20
846.1378369657792
 30
0.0
 10
1065.357925186233
 20
846.8157169723996
 30
0.0
 10
1065.830153580094
 20
848.2932382506999
 30
0.0
 10
1066.275143184175
 20
849.8598245962565
 30
0.0
 10
1066.485817613593
 20
850.7190261707816
 30
0.0
 10
1066.511746820145
 20
850.8247742445112
 30
0.0
  0
SPLINE
  5
6E
330
1F
100
AcDbEntity
  8
0
  6
Continuous
 62
     7
370
    15
100
AcDbSpline
210
0.0
220
0.0
230
1.0
 70
     8
 71
     3
 72
    10
 73
     6
 74
     0
 42
0.00000001
 43
0.00000001
 12
1.0
 22
0.0
 32
0.0
 13
1.0
 23
0.0
 33
0.0
 40
0.0
 40
0.0
 40
0.0
 40
0.0
 40
0.2372368807184768
 40
0.6912571826127489
 40
1.0
 40
1.0
 40
1.0
 40
1.0
 10
1066.511746820145
 20
885.7078934104086
 30
0.0
 10
1066.407992150843
 20
886.1186777261017
 30
0.0
 10
1066.105673387555
 20
887.3156147616403
 30
0.0
 10
1065.622677483284
 20
888.9359113552437
 30
0.0
 10
1065.203853449335
 20
890.0081640159563
 30
0.0
 10
1065.034326490097
 20
890.4421785862088
 30
0.0
  0
SPLINE
  5
6F
330
1F
100
AcDbEntity
  8
0
  6
Continuous
 62
     7
370
    15
100
AcDbSpline
210
0.0
220
0.0
230
1.0
 70
     8
 71
     3
 72
    11
 73
     7
 74
     0
 42
0.00000001
 43
0.00000001
 12
1.0
 22
0.0
 32
0.0
 13
1.0
 23
0.0
 33
0.0
 40
0.0
 40
0.0
 40
0.0
 40
0.0
 40
0.2706719248407366
 40
0.5972756057161681
 40
0.9114970303105328
 40
1.0
 40
1.0
 40
1.0
 40
1.0
 10
1077.538397487335
 20
877.9617855341077
 30
0.0
 10
1077.196446199452
 20
877.9911223146141
 30
0.0
 10
1076.441882671239
 20
878.0558580398174
 30
0.0
 10
1075.260661932236
 20
878.5350318502611
 30
0.0
 10
1074.291822644261
 20
879.136586929579
 30
0.0
 10
1073.751903211986
 20
879.5738375240431
 30
0.0
 10
1073.633250173264
 20
879.6699279935002
 30
0.0
  0
SPLINE
  5
70
330
1F
100
AcDbEntity
  8
0
  6
Continuous
 62
     7
370
    15
100
AcDbSpline
210
0.0
220
0.0
230
1.0
 70
     8
 71
     3
 72
    12
 73
     8
 74
     0
 42
0.00000001
 43
0.00000001
 12
1.0
 22
0.0
 32
0.0
 13
1.0
 23
0.0
 33
0.0
 40
0.0
 40
0.0
 40
0.0
 40
0.0
 40
0.1457388167942373
 40
0.4224064778578761
 40
0.7025631025860888
 40
0.9915736069110498
 40
1.0
 40
1.0
 40
1.0
 40
1.0
 10
1073.633250173264
 20
856.8627396614194
 30
0.0
 10
1073.846562267328
 20
857.0316871565142
 30
0.0
 10
1074.464821783358
 20
857.5213612043466
 30
0.0
 10
1075.479519586447
 20
858.108840168655
 30
0.0
 10
1076.672088208138
 20
858.4976842109427
 30
0.0
 10
1077.465532553628
 20
858.653950565879
 30
0.0
 10
1077.877586726085
 20
858.5969859868654
 30
0.0
 10
1077.889260228806
 20
858.595372179234
 30
0.0
  0
ARC
  5
71
330
1F
100
AcDbEntity
  8
0
  6
Continuous
 62
     7
370
    15
100
AcDbCircle
 10
1082.6150969059
 20
878.9011368505
 30
0.0
 40
1.000000000000058
100
AcDbArc
 50
11.9201320981
 51
80.5845175716
  0
ARC
  5
72
330
1F
100
AcDbEntity
  8
0
  6
Continuous
 62
     7
370
    15
100
AcDbCircle
 10
1082.6150969059
 20
857.6315303296
 30
0.0
 40
1.000000000000105
100
AcDbArc
 50
279.4154824284
 51
348.0798679019
  0
SPLINE
  5
73
330
1F
100
AcDbEntity
  8
0
  6
Continuous
 62
     7
370
    15
100
AcDbSpline
210
0.0
220
0.0
230
1.0
 70
     8
 71
     3
 72
     9
 73
     5
 74
     0
 42
0.00000001
 43
0.00000001
 12
1.0
 22
0.0
 32
0.0
 13
1.0
 23
0.0
 33
0.0
 40
0.0
 40
0.0
 40
0.0
 40
0.0
 40
0.5208428869767201
 40
1.0
 40
1.0
 40
1.0
 40
1.0
 10
1082.778301414185
 20
879.8887962491154
 30
0.0
 10
1080.525317835094
 20
880.2759993939684
 30
0.0
 10
1076.199668708603
 20
881.0194157956026
 30
0.0
 10
1071.798848708822
 20
881.9670995686247
 30
0.0
 10
1069.690164502793
 20
882.4211889893652
 30
0.0
  0
LINE
  5
74
330
1F
100
AcDbEntity
  8
0
  6
Continuous
 62
     7
370
    15
100
AcDbLine
 10
1082.2245742642
 20
856.5240884215
 30
0.0
 11
1082.7652181947
 21
856.6134655864
 31
0.0
  0
SPLINE
  5
75
330
1F
100
AcDbEntity
  8
0
  6
Continuous
 62
     7
370
    15
100
AcDbSpline
210
0.0
220
0.0
230
1.0
 70
     8
 71
     3
 72
    10
 73
     6
 74
     0
 42
0.00000001
 43
0.00000001
 12
1.0
 22
0.0
 32
0.0
 13
1.0
 23
0.0
 33
0.0
 40
0.0
 40
0.0
 40
0.0
 40
0.0
 40
0.115063293626783
 40
0.749353957706867
 40
1.0
 40
1.0
 40
1.0
 40
1.0
 10
1069.692310270005
 20
854.1181469351889
 30
0.0
 10
1070.177992378282
 20
854.2263970735022
 30
0.0
 10
1073.341015081297
 20
854.9313801051077
 30
0.0
 10
1077.544536283661
 20
855.7670537369313
 30
0.0
 10
1081.191595382685
 20
856.3569955806245
 30
0.0
 10
1082.224574264221
 20
856.5240884215474
 30
0.0
  0
SPLINE
  5
76
330
1F
100
AcDbEntity
  8
0
  6
Continuous
 62
     7
370
    15
100
AcDbSpline
210
0.0
220
0.0
230
1.0
 70
     8
 71
     3
 72
    11
 73
     7
 74
     0
 42
0.00000001
 43
0.00000001
 12
1.0
 22
0.0
 32
0.0
 13
1.0
 23
0.0
 33
0.0
 40
0.0
 40
0.0
 40
0.0
 40
0.0
 40
0.0925527917982534
 40
0.4249777844492086
 40
0.7579015665495972
 40
1.0
 40
1.0
 40
1.0
 40
1.0
 10
1084.490266021424
 20
872.2596550376057
 30
0.0
 10
1084.478284719172
 20
872.4868461577024
 30
0.0
 10
1084.423269768389
 20
873.530047307979
 30
0.0
 10
1084.226630624223
 20
875.3203816195203
 30
0.0
 10
1083.936610018815
 20
877.3860369919328
 30
0.0
 10
1083.695188369296
 20
878.5975909471591
 30
0.0
 10
1083.5935439431
 20
879.1076848299147
 30
0.0
  0
SPLINE
  5
77
330
1F
100
AcDbEntity
  8
0
  6
Continuous
 62
     7
370
    15
100
AcDbSpline
210
0.0
220
0.0
230
1.0
 70
     8
 71
     3
 72
    12
 73
     8
 74
     0
 42
0.00000001
 43
0.00000001
 12
1.0
 22
0.0
 32
0.0
 13
1.0
 23
0.0
 33
0.0
 40
0.0
 40
0.0
 40
0.0
 40
0.0
 40
0.1036840523291549
 40
0.3447574848551824
 40
0.5855727732341197
 40
0.8263051182142499
 40
1.0
 40
1.0
 40
1.0
 40
1.0
 10
1084.303971704178
 20
862.1122026831746
 30
0.0
 10
1084.342130143962
 20
862.4469672589851
 30
0.0
 10
1084.469009904451
 20
863.5600853382115
 30
0.0
 10
1084.584251285072
 20
865.5482402932266
 30
0.0
 10
1084.645334732766
 20
868.0212683482191
 30
0.0
 10
1084.617136695895
 20
870.2801461448158
 30
0.0
 10
1084.52773576875
 20
871.6750305895065
 30
0.0
 10
1084.490266021424
 20
872.2596550376057
 30
0.0
  0
SPLINE
  5
78
330
1F
100
AcDbEntity
  8
0
  6
Continuous
 62
     7
370
    15
100
AcDbSpline
210
0.0
220
0.0
230
1.0
 70
     8
 71
     3
 72
    10
 73
     6
 74
     0
 42
0.00000001
 43
0.00000001
 12
1.0
 22
0.0
 32
0.0
 13
1.0
 23
0.0
 33
0.0
 40
0.0
 40
0.0
 40
0.0
 40
0.0
 40
0.2502351329110219
 40
0.7279719635441552
 40
1.0
 40
1.0
 40
1.0
 40
1.0
 10
1083.5935439431
 20
857.424982825005
 30
0.0
 10
1083.667322570509
 20
857.7922662795673
 30
0.0
 10
1083.881955790223
 20
858.860749567604
 30
0.0
 10
1084.132513935487
 20
860.4195512298467
 30
0.0
 10
1084.258325154872
 20
861.6615745278455
 30
0.0
 10
1084.303971704178
 20
862.1122026831746
 30
0.0
  0
SPLINE
  5
79
330
1F
100
AcDbEntity
  8
0
  6
Continuous
 62
     7
370
    15
100
AcDbSpline
210
0.0
220
0.0
230
1.0
 70
     8
 71
     3
 72
    12
 73
     8
 74
     0
 42
0.00000001
 43
0.00000001
 12
1.0
 22
0.0
 32
0.0
 13
1.0
 23
0.0
 33
0.0
 40
0.0
 40
0.0
 40
0.0
 40
0.0
 40
0.0486611320730805
 40
0.3517293847669877
 40
0.6171031828166473
 40
0.8686353025211431
 40
1.0
 40
1.0
 40
1.0
 40
1.0
 10
1069.690671142273
 20
882.4122110397458
 30
0.0
 10
1069.655864402519
 20
882.4184177502815
 30
0.0
 10
1069.404276479302
 20
882.4632807114402
 30
0.0
 10
1068.872067201308
 20
882.6914555260903
 30
0.0
 10
1068.164080042945
 20
883.1847750975822
 30
0.0
 10
1067.61043196545
 20
883.7115849918918
 30
0.0
 10
1067.355235749988
 20
884.0795480881727
 30
0.0
 10
1067.267682727509
 20
884.2057893068433
 30
0.0
  0
SPLINE
  5
7A
330
1F
100
AcDbEntity
  8
0
  6
Continuous
 62
     7
370
    15
100
AcDbSpline
210
0.0
220
0.0
230
1.0
 70
     8
 71
     3
 72
    11
 73
     7
 74
     0
 42
0.00000001
 43
0.00000001
 12
1.0
 22
0.0
 32
0.0
 13
1.0
 23
0.0
 33
0.0
 40
0.0
 40
0.0
 40
0.0
 40
0.0
 40
0.2290644888843918
 40
0.487416700227972
 40
0.7563593499206401
 40
1.0
 40
1.0
 40
1.0
 40
1.0
 10
1067.257758554154
 20
852.3312592894673
 30
0.0
 10
1067.423272189966
 20
852.5459820181925
 30
0.0
 10
1067.775461700454
 20
853.0028814896422
 30
0.0
 10
1068.431879913757
 20
853.5560025981403
 30
0.0
 10
1069.109011983779
 20
853.9626971887708
 30
0.0
 10
1069.502342645834
 20
854.0655086748789
 30
0.0
 10
1069.689300235443
 20
854.1143769414067
 30
0.0
  0
SPLINE
  5
7B
330
1F
100
AcDbEntity
  8
0
  6
Continuous
 62
     7
370
    15
100
AcDbSpline
210
0.0
220
0.0
230
1.0
 70
     8
 71
     3
 72
    10
 73
     6
 74
     0
 42
0.00000001
 43
0.00000001
 12
1.0
 22
0.0
 32
0.0
 13
1.0
 23
0.0
 33
0.0
 40
0.0
 40
0.0
 40
0.0
 40
0.0
 40
0.0832654952934244
 40
0.5575772200046544
 40
1.0
 40
1.0
 40
1.0
 40
1.0
 10
1067.256626065903
 20
884.2007452637791
 30
0.0
 10
1067.224441870577
 20
884.242354757305
 30
0.0
 10
1067.008924337242
 20
884.5209876489262
 30
0.0
 10
1066.70812477528
 20
885.0685267472458
 30
0.0
 10
1066.577378922707
 20
885.4987463591935
 30
0.0
 10
1066.514280017548
 20
885.7063734919667
 30
0.0
  0
SPLINE
  5
7C
330
1F
100
AcDbEntity
  8
0
  6
Continuous
 62
     7
370
    15
100
AcDbSpline
210
0.0
220
0.0
230
1.0
 70
     8
 71
     3
 72
    10
 73
     6
 74
     0
 42
0.00000001
 43
0.00000001
 12
1.0
 22
0.0
 32
0.0
 13
1.0
 23
0.0
 33
0.0
 40
0.0
 40
0.0
 40
0.0
 40
0.0
 40
0.150068672357953
 40
0.62518556559009
 40
1.0
 40
1.0
 40
1.0
 40
1.0
 10
1066.518035110169
 20
850.8291551859021
 30
0.0
 10
1066.533726811861
 20
850.8949709143625
 30
0.0
 10
1066.59909838638
 20
851.1691590095572
 30
0.0
 10
1066.819009574801
 20
851.6999951576108
 30
0.0
 10
1067.126071460708
 20
852.1373054720955
 30
0.0
 10
1067.261483844452
 20
852.330156603539
 30
0.0
  0
ARC
  5
7D
330
1F
100
AcDbEntity
  8
0
  6
Continuous
 62
     7
370
    15
100
AcDbCircle
 10
287.6175253652
 20
1142.71633359
 30
0.0
 40
0.25
100
AcDbArc
 50
90.0
 51
119.4734267883
  0
LINE
  5
7E
330
1F
100
AcDbEntity
  8
0
  6
Continuous
 62
     7
370
    15
100
AcDbLine
 10
288.3175279462
 20
1142.9663309843
 30
0.0
 11
287.6175309979
 21
1142.9663309843
 31
0.0
  0
SPLINE
  5
7F
330
1F
100
AcDbEntity
  8
0
  6
Continuous
 62
     7
370
    15
100
AcDbSpline
210
0.0
220
0.0
230
1.0
 70
     8
 71
     3
 72
    13
 73
     9
 74
     0
 42
0.00000001
 43
0.00000001
 12
1.0
 22
0.0
 32
0.0
 13
1.0
 23
0.0
 33
0.0
 40
0.0
 40
0.0
 40
0.0
 40
0.0
 40
0.0546612534549905
 40
0.2134744966573553
 40
0.3745709143105033
 40
0.5445179829680316
 40
0.7475376233923858
 40
1.0
 40
1.0
 40
1.0
 40
1.0
 10
288.8174321018982
 20
1130.312056282246
 30
0.0
 10
288.8078531652753
 20
1130.311560893068
 30
0.0
 10
288.7704435095347
 20
1130.309626196206
 30
0.0
 10
288.7065954411381
 20
1130.323672454797
 30
0.0
 10
288.6392064787999
 20
1130.351318732156
 30
0.0
 10
288.5916028009832
 20
1130.388227138566
 30
0.0
 10
288.5687484356431
 20
1130.422982548658
 30
0.0
 10
288.568277495994
 20
1130.434811863489
 30
0.0
 10
288.5680164658357
 20
1130.441368559086
 30
0.0
  0
ARC
  5
80
330
1F
100
AcDbEntity
  8
0
  6
Continuous
 62
     7
370
    15
100
AcDbCircle
 10
293.9175253652
 20
1130.0601838404
 30
0.0
 40
0.25
100
AcDbArc
 50
0.0
 51
90.0
  0
LINE
  5
81
330
1F
100
AcDbEntity
  8
0
  6
Continuous
 62
     7
370
    15
100
AcDbLine
 10
293.9175333344
 20
1130.3101787359
 30
0.0
 11
288.8175215089
 21
1130.3101787359
 31
0.0
  0
ARC
  5
82
330
1F
100
AcDbEntity
  8
0
  6
Continuous
 62
     7
370
    15
100
AcDbCircle
 10
293.9175253652
 20
1125.3602134411
 30
0.0
 40
0.2500000000002274
100
AcDbArc
 50
270.0
 51
0.0
  0
LINE
  5
83
330
1F
100
AcDbEntity
  8
0
  6
Continuous
 62
     7
370
    15
100
AcDbLine
 10
288.8175215089
 20
1125.1102099211
 30
0.0
 11
293.9175333344
 21
1125.1102099211
 31
0.0
  0
ARC
  5
84
330
1F
100
AcDbEntity
  8
0
  6
Continuous
 62
     7
370
    15
100
AcDbCircle
 10
287.6175253652
 20
1125.81633359
 30
0.0
 40
0.2500000000002274
100
AcDbArc
 50
180.0
 51
270.0
  0
ARC
  5
85
330
1F
100
AcDbEntity
  8
0
  6
Continuous
 62
     7
370
    15
100
AcDbCircle
 10
293.9175253652
 20
1143.172453739
 30
0.0
 40
0.2500000000002274
100
AcDbArc
 50
0.0
 51
90.0
  0
LINE
  5
86
330
1F
100
AcDbEntity
  8
0
  6
Continuous
 62
     7
370
    15
100
AcDbLine
 10
293.9175333344
 20
1143.4224555285
 30
0.0
 11
288.8175215089
 21
1143.4224555285
 31
0.0
  0
SPLINE
  5
87
330
1F
100
AcDbEntity
  8
0
  6
Continuous
 62
     7
370
    15
100
AcDbSpline
210
0.0
220
0.0
230
1.0
 70
     8
 71
     3
 72
    13
 73
     9
 74
     0
 42
0.00000001
 43
0.00000001
 12
1.0
 22
0.0
 32
0.0
 13
1.0
 23
0.0
 33
0.0
 40
0.0
 40
0.0
 40
0.0
 40
0.0
 40
0.0634887605617317
 40
0.2470109851165525
 40
0.4310985105384819
 40
0.6187695067180657
 40
0.8315402932286904
 40
1.0
 40
1.0
 40
1.0
 40
1.0
 10
288.3176471554567
 20
1137.375504711354
 30
0.0
 10
288.3278734471291
 20
1137.3759713736
 30
0.0
 10
288.3676601173641
 20
1137.377786981591
 30
0.0
 10
288.4351990362167
 20
1137.364441134479
 30
0.0
 10
288.505320365637
 20
1137.338516837836
 30
0.0
 10
288.5517914170501
 20
1137.30654372202
 30
0.0
 10
288.5677925985354
 20
1137.283498292909
 30
0.0
 10
288.5671004292456
 20
1137.284267657892
 30
0.0
 10
288.5667945706178
 20
1137.284607628071
 30
0.0
  0
LINE
  5
88
330
1F
100
AcDbEntity
  8
0
  6
Continuous
 62
     7
370
    15
100
AcDbLine
 10
283.2175161206
 20
1137.3772928507
 30
0.0
 11
288.3175279462
 21
1137.3772928507
 31
0.0
  0
ARC
  5
89
330
1F
100
AcDbEntity
  8
0
  6
Continuous
 62
     7
370
    15
100
AcDbCircle
 10
283.2175253652
 20
1137.6272854137
 30
0.0
 40
0.25
100
AcDbArc
 50
180.0
 51
270.0
  0
ARC
  5
8A
330
1F
100
AcDbEntity
  8
0
  6
Continuous
 62
     7
370
    15
100
AcDbCircle
 10
283.2175253652
 20
1142.6839795859
 30
0.0
 40
0.25
100
AcDbArc
 50
90.0
 51
180.0
  0
LINE
  5
8B
330
1F
100
AcDbEntity
  8
0
  6
Continuous
 62
     7
370
    15
100
AcDbLine
 10
288.3175279462
 20
1142.9339656622
 30
0.0
 11
283.2175161206
 21
1142.9339656622
 31
0.0
  0
ARC
  5
8C
330
1F
100
AcDbEntity
  8
0
  6
Continuous
 62
     7
370
    15
100
AcDbCircle
 10
288.8175253652
 20
1142.71633359
 30
0.0
 40
0.25
100
AcDbArc
 50
90.0
 51
142.7089330725
  0
ARC
  5
8D
330
1F
100
AcDbEntity
  8
0
  6
Continuous
 62
     7
370
    15
100
AcDbCircle
 10
289.5175253652
 20
1142.71633359
 30
0.0
 40
0.25
100
AcDbArc
 50
0.0
 51
90.0
  0
LINE
  5
8E
330
1F
100
AcDbEntity
  8
0
  6
Continuous
 62
     7
370
    15
100
AcDbLine
 10
289.5175184571
 20
1142.9663309843
 30
0.0
 11
288.8175215089
 21
1142.9663309843
 31
0.0
  0
LINE
  5
8F
330
1F
100
AcDbEntity
  8
0
  6
Continuous
 62
     7
370
    15
100
AcDbLine
 10
283.2175161206
 20
1125.5986997873
 30
0.0
 11
287.4945070111
 21
1125.5986997873
 31
0.0
  0
ARC
  5
90
330
1F
100
AcDbEntity
  8
0
  6
Continuous
 62
     7
370
    15
100
AcDbCircle
 10
283.2175253652
 20
1125.8486875942
 30
0.0
 40
0.25
100
AcDbArc
 50
180.0
 51
270.0
  0
LINE
  5
91
330
1F
100
AcDbEntity
  8
0
  6
Continuous
 62
     7
370
    15
100
AcDbLine
 10
282.4340726697
 20
1139.7280106337
 30
0.0
 11
282.1675206982
 21
1139.2663428576
 31
0.0
  0
LINE
  5
92
330
1F
100
AcDbEntity
  8
0
  6
Continuous
 62
     7
370
    15
100
AcDbLine
 10
287.100967344
 20
1128.8046548159
 30
0.0
 11
287.3675193154
 21
1129.266322592
 31
0.0
  0
LINE
  5
93
330
1F
100
AcDbEntity
  8
0
  6
Continuous
 62
     7
370
    15
100
AcDbLine
 10
282.1675206982
 20
1129.266322592
 30
0.0
 11
282.4340726697
 21
1128.8046548159
 31
0.0
  0
LINE
  5
94
330
1F
100
AcDbEntity
  8
0
  6
Continuous
 62
     7
370
    15
100
AcDbLine
 10
294.8246862256
 20
1129.0189633162
 30
0.0
 11
294.9675287568
 21
1129.266322592
 31
0.0
  0
LINE
  5
95
330
1F
100
AcDbEntity
  8
0
  6
Continuous
 62
     7
370
    15
100
AcDbLine
 10
294.9675287568
 20
1139.2663428576
 30
0.0
 11
294.8246862256
 21
1139.5137021334
 31
0.0
  0
LINE
  5
96
330
1F
100
AcDbEntity
  8
0
  6
Continuous
 62
     7
370
    15
100
AcDbLine
 10
289.9103428685
 20
1139.5137021334
 30
0.0
 11
289.7675301396
 21
1139.2663428576
 31
0.0
  0
LINE
  5
97
330
1F
100
AcDbEntity
  8
0
  6
Continuous
 62
     7
370
    15
100
AcDbLine
 10
295.2690686547
 20
1139.3555710108
 30
0.0
 11
295.217510637
 21
1139.2663428576
 31
0.0
  0
LINE
  5
98
330
1F
100
AcDbEntity
  8
0
  6
Continuous
 62
     7
370
    15
100
AcDbLine
 10
295.217510637
 20
1129.266322592
 30
0.0
 11
295.2690686547
 21
1129.1770944388
 31
0.0
  0
LINE
  5
99
330
1F
100
AcDbEntity
  8
0
  6
Continuous
 62
     7
370
    15
100
AcDbLine
 10
295.217510637
 20
1137.2663388044
 30
0.0
 11
294.9675287568
 21
1137.2663388044
 31
0.0
  0
LINE
  5
9A
330
1F
100
AcDbEntity
  8
0
  6
Continuous
 62
     7
370
    15
100
AcDbLine
 10
294.9675287568
 20
1131.2663266451
 30
0.0
 11
295.217510637
 21
1131.2663266451
 31
0.0
  0
CIRCLE
  5
9B
330
1F
100
AcDbEntity
  8
0
  6
Continuous
 62
     7
370
    15
100
AcDbCircle
 10
662.9675253652
 20
766.26633359
 30
0.0
 40
101.5000000000002
  0
CIRCLE
  5
9C
330
1F
100
AcDbEntity
  8
0
  6
Continuous
 62
     7
370
    15
100
AcDbCircle
 10
662.9675253652
 20
766.26633359
 30
0.0
 40
162.0000000000005
  0
CIRCLE
  5
9D
330
1F
100
AcDbEntity
  8
0
  6
Continuous
 62
     7
370
    15
100
AcDbCircle
 10
662.9675253652
 20
766.26633359
 30
0.0
 40
10.0
  0
ELLIPSE
  5
9E
330
1F
100
AcDbEntity
  8
0
  6
Continuous
 62
     7
370
    15
100
AcDbEllipse
 10
569.0479097368
 20
766.26633359
 30
0.0
 11
1.007625194450384
 21
1.136868377216160E-13
 31
0.0
210
0.0
220
0.0
230
1.0
 40
0.9924325091
 41
5.501585242055385
 42
7.064785372303656
  0
LINE
  5
9F
330
1F
100
AcDbEntity
  8
0
  6
Continuous
 62
     7
370
    15
100
AcDbLine
 10
569.7631056868
 20
766.9707495968
 30
0.0
 11
564.9575408065
 21
771.7763162234
 31
0.0
  0
SPLINE
  5
A0
330
1F
100
AcDbEntity
  8
0
  6
Continuous
 62
     7
370
    15
100
AcDbSpline
210
0.0
220
0.0
230
1.0
 70
     8
 71
     3
 72
    10
 73
     6
 74
     0
 42
0.00000001
 43
0.00000001
 12
1.0
 22
0.0
 32
0.0
 13
1.0
 23
0.0
 33
0.0
 40
0.0
 40
0.0
 40
0.0
 40
0.0
 40
0.3969790602208727
 40
0.7939745787292275
 40
1.0
 40
1.0
 40
1.0
 40
1.0
 10
564.667787727051
 20
772.5442247480988
 30
0.0
 10
564.6717754333891
 20
772.4319654117181
 30
0.0
 10
564.6797510113911
 20
772.2074420848159
 30
0.0
 10
564.8057986568996
 20
771.9454941628782
 30
0.0
 10
564.9188993369601
 20
771.8193977548361
 30
0.0
 10
564.9575408064652
 20
771.776316223377
 30
0.0
  0
SPLINE
  5
A1
330
1F
100
AcDbEntity
  8
0
  6
Continuous
 62
     7
370
    15
100
AcDbSpline
210
0.0
220
0.0
230
1.0
 70
     8
 71
     3
 72
    10
 73
     6
 74
     0
 42
0.00000001
 43
0.00000001
 12
1.0
 22
0.0
 32
0.0
 13
1.0
 23
0.0
 33
0.0
 40
0.0
 40
0.0
 40
0.0
 40
0.0
 40
0.3969480854254485
 40
0.7939139437532967
 40
1.0
 40
1.0
 40
1.0
 40
1.0
 10
564.9575408064653
 20
760.7563510552883
 30
0.0
 10
564.8863822968074
 20
760.6694461531761
 30
0.0
 10
564.7440620914497
 20
760.4956324578826
 30
0.0
 10
564.6656384680094
 20
760.2157171368098
 30
0.0
 10
564.6672403144516
 20
760.0463289837732
 30
0.0
 10
564.6677877270508
 20
759.9884425305664
 30
0.0
  0
LINE
  5
A2
330
1F
100
AcDbEntity
  8
0
  6
Continuous
 62
     7
370
    15
100
AcDbLine
 10
569.7631056868
 20
765.5619175655
 30
0.0
 11
564.9575408065
 21
760.7563510553
 31
0.0
  0
ARC
  5
A3
330
1F
100
AcDbEntity
  8
0
  6
Continuous
 62
     7
370
    15
100
AcDbCircle
 10
662.9675253652
 20
766.26633359
 30
0.0
 40
98.50000000000007
100
AcDbArc
 50
183.654219624
 51
176.345780376
  0
LINE
  5
A4
330
1F
100
AcDbEntity
  8
0
  6
Continuous
 62
     7
370
    15
100
AcDbLine
 10
382.96752828
 20
1211.2663397581
 30
0.0
 11
382.96752828
 21
766.2663335811
 31
0.0
  0
LINE
  5
A5
330
1F
100
AcDbEntity
  8
0
  6
Continuous
 62
     7
370
    15
100
AcDbLine
 10
942.9675306641
 20
1211.2663397581
 30
0.0
 11
382.96752828
 21
1211.2663397581
 31
0.0
  0
LINE
  5
A6
330
1F
100
AcDbEntity
  8
0
  6
Continuous
 62
     7
370
    15
100
AcDbLine
 10
942.9675306641
 20
766.2663335811
 30
0.0
 11
942.9675306641
 21
1211.2663397581
 31
0.0
  0
LINE
  5
A7
330
1F
100
AcDbEntity
  8
0
  6
Continuous
 62
     7
370
    15
100
AcDbLine
 10
827.967528578
 20
766.2663335811
 30
0.0
 11
942.9675306641
 21
766.2663335811
 31
0.0
  0
ARC
  5
A8
330
1F
100
AcDbEntity
  8
0
  6
Continuous
 62
     7
370
    15
100
AcDbCircle
 10
662.9675253652
 20
766.26633359
 30
0.0
 40
165.0
100
AcDbArc
 50
0.0
 51
178.3143982517
  0
LINE
  5
A9
330
1F
100
AcDbEntity
  8
0
  6
Continuous
 62
     7
370
    15
100
AcDbLine
 10
493.0219616257
 20
766.2663335811
 30
0.0
 11
498.03892928
 21
771.119818093
 31
0.0
  0
LINE
  5
AA
330
1F
100
AcDbEntity
  8
0
  6
Continuous
 62
     7
370
    15
100
AcDbLine
 10
382.96752828
 20
766.2663335811
 30
0.0
 11
493.0219616257
 21
766.2663335811
 31
0.0
  0
LINE
  5
AB
330
1F
100
AcDbEntity
  8
0
  6
Continuous
 62
     7
370
    15
100
AcDbLine
 10
827.967528578
 20
766.2663335811
 30
0.0
 11
827.2523622476
 21
766.2663335811
 31
0.0
  0
LINE
  5
AC
330
1F
100
AcDbEntity
  8
0
  6
Continuous
 62
     7
370
    15
100
AcDbLine
 10
498.03892928
 20
771.119818093
 30
0.0
 11
498.7497593724
 21
771.1192225122
 31
0.0
  0
LINE
  5
AD
330
1F
100
AcDbEntity
  8
0
  6
Continuous
 62
     7
370
    15
100
AcDbLine
 10
493.7328066193
 20
766.2663335811
 30
0.0
 11
493.0219616257
 21
766.2663335811
 31
0.0
  0
SPLINE
  5
AE
330
1F
100
AcDbEntity
  8
0
  6
Continuous
 62
     7
370
    15
100
AcDbSpline
210
0.0
220
0.0
230
1.0
 70
     8
 71
     3
 72
    13
 73
     9
 74
     0
 42
0.00000001
 43
0.00000001
 12
1.0
 22
0.0
 32
0.0
 13
1.0
 23
0.0
 33
0.0
 40
0.0
 40
0.0
 40
0.0
 40
0.0
 40
0.0034680711546614
 40
0.13561749326841
 40
0.3674759583080113
 40
0.583535830491426
 40
0.7916043738710857
 40
1.0
 40
1.0
 40
1.0
 40
1.0
 10
500.7240142189789
 20
770.2514673598945
 30
0.0
 10
500.7207508643439
 20
770.2528970663983
 30
0.0
 10
500.5931387262056
 20
770.3088051500301
 30
0.0
 10
500.2473586273662
 20
770.46065534901
 30
0.0
 10
499.7218096893972
 20
770.6916458895828
 30
0.0
 10
499.2254061913617
 20
770.9103373236271
 30
0.0
 10
498.8696174000905
 20
771.067298414946
 30
0.0
 10
498.7927918658195
 20
771.1012213873056
 30
0.0
 10
498.7543489300538
 20
771.1181961947024
 30
0.0
  0
SPLINE
  5
AF
330
1F
100
AcDbEntity
  8
0
  6
Continuous
 62
     7
370
    15
100
AcDbSpline
210
0.0
220
0.0
230
1.0
 70
    24
 71
     3
 72
    12
 73
     8
 74
     0
 42
0.00000001
 43
0.00000001
 12
1.0
 22
0.0
 32
0.0
 13
1.0
 23
0.0
 33
0.0
 40
0.0
 40
0.0
 40
0.0
 40
0.0
 40
0.3612276695800957
 40
0.6064102144720295
 40
0.7868266414204903
 40
0.9291700919954673
 40
1.0
 40
1.0
 40
1.0
 40
1.0
 10
496.6041262709428
 20
766.266333581125
 30
0.0
 10
496.1530100591239
 20
766.266333581125
 30
0.0
 10
495.3956996374754
 20
766.266333581125
 30
0.0
 10
494.5127199161321
 20
766.266333581125
 30
0.0
 10
494.0090720973171
 20
766.266333581125
 30
0.0
 10
493.7837317155918
 20
766.266333581125
 30
0.0
 10
493.7455072474907
 20
766.266333581125
 30
0.0
 10
493.7328066193391
 20
766.266333581125
 30
0.0
  0
LINE
  5
B0
330
1F
100
AcDbEntity
  8
0
  6
Continuous
 62
     7
370
    15
100
AcDbLine
 10
827.2523622476
 20
766.2663335811
 30
0.0
 11
825.2599726879
 21
766.2663335811
 31
0.0
  0
LINE
  5
B1
330
1F
100
AcDbEntity
  8
0
  6
Continuous
 62
     7
370
    15
100
AcDbLine
 10
825.2599726879
 20
766.2663335811
 30
0.0
 11
824.9675224983
 21
766.2663335811
 31
0.0
  0
LINE
  5
B2
330
1F
100
AcDbEntity
  8
0
  6
Continuous
 62
     7
370
    15
100
AcDbLine
 10
500.9675289952
 20
766.2663335811
 30
0.0
 11
496.6041262709
 21
766.2663335811
 31
0.0
  0
LINE
  5
B3
330
1F
100
AcDbEntity
  8
0
  6
Continuous
 62
     7
370
    15
100
AcDbLine
 10
498.03892928
 20
761.4128491857
 30
0.0
 11
493.0219616257
 21
766.2663335811
 31
0.0
  0
LINE
  5
B4
330
1F
100
AcDbEntity
  8
0
  6
Continuous
 62
     7
370
    15
100
AcDbLine
 10
493.0219616257
 20
766.2663335811
 30
0.0
 11
493.7328066193
 21
766.2663335811
 31
0.0
  0
LINE
  5
B5
330
1F
100
AcDbEntity
  8
0
  6
Continuous
 62
     7
370
    15
100
AcDbLine
 10
498.7497593724
 20
761.4134443008
 30
0.0
 11
498.03892928
 21
761.4128491857
 31
0.0
  0
ARC
  5
B6
330
1F
100
AcDbEntity
  8
0
  6
Continuous
 62
     7
370
    15
100
AcDbCircle
 10
662.9675253652
 20
766.26633359
 30
0.0
 40
165.0
100
AcDbArc
 50
181.6856017483
 51
0.0
  0
LINE
  5
B7
330
1F
100
AcDbEntity
  8
0
  6
Continuous
 62
     7
370
    15
100
AcDbLine
 10
942.9675306641
 20
321.2663242609
 30
0.0
 11
942.9675306641
 21
766.2663335811
 31
0.0
  0
LINE
  5
B8
330
1F
100
AcDbEntity
  8
0
  6
Continuous
 62
     7
370
    15
100
AcDbLine
 10
382.96752828
 20
321.2663242609
 30
0.0
 11
942.9675306641
 21
321.2663242609
 31
0.0
  0
LINE
  5
B9
330
1F
100
AcDbEntity
  8
0
  6
Continuous
 62
     7
370
    15
100
AcDbLine
 10
382.96752828
 20
766.2663335811
 30
0.0
 11
382.96752828
 21
321.2663242609
 31
0.0
  0
SPLINE
  5
BA
330
1F
100
AcDbEntity
  8
0
  6
Continuous
 62
     7
370
    15
100
AcDbSpline
210
0.0
220
0.0
230
1.0
 70
     8
 71
     3
 72
    13
 73
     9
 74
     0
 42
0.00000001
 43
0.00000001
 12
1.0
 22
0.0
 32
0.0
 13
1.0
 23
0.0
 33
0.0
 40
0.0
 40
0.0
 40
0.0
 40
0.0
 40
0.2083956264488573
 40
0.4164641701479577
 40
0.632524042663082
 40
0.8643825367539957
 40
0.9965319288400142
 40
1.0
 40
1.0
 40
1.0
 40
1.0
 10
498.7543489300538
 20
761.4144710839629
 30
0.0
 10
498.7927918668535
 20
761.4314458888676
 30
0.0
 10
498.869617403191
 20
761.4653688562472
 30
0.0
 10
499.2254061787843
 20
761.6223299853492
 30
0.0
 10
499.721809761831
 20
761.8410212764164
 30
0.0
 10
500.2473584861187
 20
762.0720123437745
 30
0.0
 10
500.5931387552094
 20
762.2238621397887
 30
0.0
 10
500.7207508643579
 20
762.2797702122343
 30
0.0
 10
500.7240142189791
 20
762.2811999187708
 30
0.0
  0
SPLINE
  5
BB
330
1F
100
AcDbEntity
  8
0
  6
Continuous
 62
     7
370
    15
100
AcDbSpline
210
0.0
220
0.0
230
1.0
 70
    24
 71
     3
 72
    12
 73
     8
 74
     0
 42
0.00000001
 43
0.00000001
 12
1.0
 22
0.0
 32
0.0
 13
1.0
 23
0.0
 33
0.0
 40
0.0
 40
0.0
 40
0.0
 40
0.0
 40
0.147322290102943
 40
0.2937188145379814
 40
0.5123532946219383
 40
0.8189415072380949
 40
1.0
 40
1.0
 40
1.0
 40
1.0
 10
493.7328066193391
 20
766.266333581125
 30
0.0
 10
493.7703696246761
 20
766.266333581125
 30
0.0
 10
493.8452595913632
 20
766.266333581125
 30
0.0
 10
494.2377667862634
 20
766.266333581125
 30
0.0
 10
494.9201057568453
 20
766.266333581125
 30
0.0
 10
495.7739274758904
 20
766.266333581125
 30
0.0
 10
496.379341802476
 20
766.266333581125
 30
0.0
 10
496.6041262709427
 20
766.266333581125
 30
0.0
  0
LINE
  5
BC
330
1F
100
AcDbEntity
  8
0
  6
Continuous
 62
     7
370
    15
100
AcDbLine
 10
915.4675270879
 20
317.0663425715
 30
0.0
 11
410.4675318562
 21
317.0663425715
 31
0.0
  0
LINE
  5
BD
330
1F
100
AcDbEntity
  8
0
  6
Continuous
 62
     7
370
    15
100
AcDbLine
 10
915.4675270879
 20
316.2663290293
 30
0.0
 11
410.4675318562
 21
316.2663290293
 31
0.0
  0
LINE
  5
BE
330
1F
100
AcDbEntity
  8
0
  6
Continuous
 62
     7
370
    15
100
AcDbLine
 10
920.4675223195
 20
316.2663290293
 30
0.0
 11
920.4675223195
 21
317.0663425715
 31
0.0
  0
LINE
  5
BF
330
1F
100
AcDbEntity
  8
0
  6
Continuous
 62
     7
370
    15
100
AcDbLine
 10
920.4675223195
 20
317.0663425715
 30
0.0
 11
915.4675270879
 21
317.0663425715
 31
0.0
  0
LINE
  5
C0
330
1F
100
AcDbEntity
  8
0
  6
Continuous
 62
     7
370
    15
100
AcDbLine
 10
920.4675223195
 20
316.2663290293
 30
0.0
 11
915.4675270879
 21
316.2663290293
 31
0.0
  0
LINE
  5
C1
330
1F
100
AcDbEntity
  8
0
  6
Continuous
 62
     7
370
    15
100
AcDbLine
 10
405.4675366246
 20
316.2663290293
 30
0.0
 11
405.4675366246
 21
317.0663425715
 31
0.0
  0
LINE
  5
C2
330
1F
100
AcDbEntity
  8
0
  6
Continuous
 62
     7
370
    15
100
AcDbLine
 10
410.4675318562
 20
317.0663425715
 30
0.0
 11
405.4675366246
 21
317.0663425715
 31
0.0
  0
LINE
  5
C3
330
1F
100
AcDbEntity
  8
0
  6
Continuous
 62
     7
370
    15
100
AcDbLine
 10
410.4675318562
 20
316.2663290293
 30
0.0
 11
405.4675366246
 21
316.2663290293
 31
0.0
  0
LINE
  5
C4
330
1F
100
AcDbEntity
  8
0
  6
Continuous
 62
     7
370
    15
100
AcDbLine
 10
405.4675366246
 20
318.3163413794
 30
0.0
 11
405.4675366246
 21
317.0663425715
 31
0.0
  0
LINE
  5
C5
330
1F
100
AcDbEntity
  8
0
  6
Continuous
 62
     7
370
    15
100
AcDbLine
 10
920.4675223195
 20
317.0663425715
 30
0.0
 11
920.4675223195
 21
318.3163413794
 31
0.0
  0
LINE
  5
C6
330
1F
100
AcDbEntity
  8
0
  6
Continuous
 62
     7
370
    15
100
AcDbLine
 10
920.4675223195
 20
318.3163413794
 30
0.0
 11
920.4675223195
 21
321.2663242609
 31
0.0
  0
LINE
  5
C7
330
1F
100
AcDbEntity
  8
0
  6
Continuous
 62
     7
370
    15
100
AcDbLine
 10
405.4675366246
 20
321.2663242609
 30
0.0
 11
405.4675366246
 21
318.3163413794
 31
0.0
  0
LINE
  5
C8
330
1F
100
AcDbEntity
  8
0
  6
Continuous
 62
     7
370
    15
100
AcDbLine
 10
410.4675318562
 20
1216.2663349898
 30
0.0
 11
915.4675270879
 21
1216.2663349898
 31
0.0
  0
LINE
  5
C9
330
1F
100
AcDbEntity
  8
0
  6
Continuous
 62
     7
370
    15
100
AcDbLine
 10
410.4675318562
 20
1215.4663214476
 30
0.0
 11
915.4675270879
 21
1215.4663214476
 31
0.0
  0
LINE
  5
CA
330
1F
100
AcDbEntity
  8
0
  6
Continuous
 62
     7
370
    15
100
AcDbLine
 10
915.4675270879
 20
1216.2663349898
 30
0.0
 11
920.4675223195
 21
1216.2663349898
 31
0.0
  0
LINE
  5
CB
330
1F
100
AcDbEntity
  8
0
  6
Continuous
 62
     7
370
    15
100
AcDbLine
 10
920.4675223195
 20
1216.2663349898
 30
0.0
 11
920.4675223195
 21
1215.4663214476
 31
0.0
  0
LINE
  5
CC
330
1F
100
AcDbEntity
  8
0
  6
Continuous
 62
     7
370
    15
100
AcDbLine
 10
915.4675270879
 20
1215.4663214476
 30
0.0
 11
920.4675223195
 21
1215.4663214476
 31
0.0
  0
LINE
  5
CD
330
1F
100
AcDbEntity
  8
0
  6
Continuous
 62
     7
370
    15
100
AcDbLine
 10
405.4675366246
 20
1216.2663349898
 30
0.0
 11
405.4675366246
 21
1215.4663214476
 31
0.0
  0
LINE
  5
CE
330
1F
100
AcDbEntity
  8
0
  6
Continuous
 62
     7
370
    15
100
AcDbLine
 10
405.4675366246
 20
1215.4663214476
 30
0.0
 11
410.4675318562
 21
1215.4663214476
 31
0.0
  0
LINE
  5
CF
330
1F
100
AcDbEntity
  8
0
  6
Continuous
 62
     7
370
    15
100
AcDbLine
 10
405.4675366246
 20
1216.2663349898
 30
0.0
 11
410.4675318562
 21
1216.2663349898
 31
0.0
  0
LINE
  5
D0
330
1F
100
AcDbEntity
  8
0
  6
Continuous
 62
     7
370
    15
100
AcDbLine
 10
920.4675223195
 20
1214.2163226397
 30
0.0
 11
920.4675223195
 21
1215.4663214476
 31
0.0
  0
LINE
  5
D1
330
1F
100
AcDbEntity
  8
0
  6
Continuous
 62
     7
370
    15
100
AcDbLine
 10
405.4675366246
 20
1215.4663214476
 30
0.0
 11
405.4675366246
 21
1214.2163226397
 31
0.0
  0
LINE
  5
D2
330
1F
100
AcDbEntity
  8
0
  6
Continuous
 62
     7
370
    15
100
AcDbLine
 10
405.4675366246
 20
1214.2163226397
 30
0.0
 11
405.4675366246
 21
1211.2663397581
 31
0.0
  0
LINE
  5
D3
330
1F
100
AcDbEntity
  8
0
  6
Continuous
 62
     7
370
    15
100
AcDbLine
 10
920.4675223195
 20
1211.2663397581
 30
0.0
 11
920.4675223195
 21
1214.2163226397
 31
0.0
  0
LINE
  5
D4
330
1F
100
AcDbEntity
  8
0
  6
Continuous
 62
     7
370
    15
100
AcDbLine
 10
1071.2386931741
 20
1189.1231844217
 30
0.0
 11
1068.0656399094
 21
1186.8469426424
 31
0.0
  0
LINE
  5
D5
330
1F
100
AcDbEntity
  8
0
  6
Continuous
 62
     7
370
    15
100
AcDbLine
 10
1065.0343264901
 20
1189.0911469252
 30
0.0
 11
1068.0656399094
 21
1186.8469426424
 31
0.0
  0
LINE
  5
D6
330
1F
100
AcDbEntity
  8
0
  6
Continuous
 62
     7
370
    15
100
AcDbLine
 10
1065.424885925
 20
1185.282499531
 30
0.0
 11
1065.0343264901
 21
1186.6269418985
 31
0.0
  0
LINE
  5
D7
330
1F
100
AcDbEntity
  8
0
  6
Continuous
 62
     7
370
    15
100
AcDbLine
 10
1065.424885925
 20
1185.282499531
 30
0.0
 11
1065.0343264901
 21
1185.0521275789
 31
0.0
  0
LINE
  5
D8
330
1F
100
AcDbEntity
  8
0
  6
Continuous
 62
     7
370
    15
100
AcDbLine
 10
1065.8303465211
 20
1181.0486922056
 30
0.0
 11
1065.0343264901
 21
1181.3238272459
 31
0.0
  0
LINE
  5
D9
330
1F
100
AcDbEntity
  8
0
  6
Continuous
 62
     7
370
    15
100
AcDbLine
 10
1065.8303465211
 20
1181.0486922056
 30
0.0
 11
1065.3403069341
 21
1177.2244879992
 31
0.0
  0
LINE
  5
DA
330
1F
100
AcDbEntity
  8
0
  6
Continuous
 62
     7
370
    15
100
AcDbLine
 10
1067.9927732312
 20
1179.9058923514
 30
0.0
 11
1065.3403069341
 21
1177.2244879992
 31
0.0
  0
LINE
  5
DB
330
1F
100
AcDbEntity
  8
0
  6
Continuous
 62
     7
370
    15
100
AcDbLine
 10
1073.9941860997
 20
1173.0521926672
 30
0.0
 11
1067.9927732312
 21
1179.9058923514
 31
0.0
  0
LINE
  5
DC
330
1F
100
AcDbEntity
  8
0
  6
Continuous
 62
     7
370
    15
100
AcDbLine
 10
1073.9941860997
 20
1173.0521926672
 30
0.0
 11
1070.2628161275
 21
1181.8737098963
 31
0.0
  0
LINE
  5
DD
330
1F
100
AcDbEntity
  8
0
  6
Continuous
 62
     7
370
    15
100
AcDbLine
 10
1070.2628161275
 20
1181.8737098963
 30
0.0
 11
1075.1593674981
 21
1184.0496668608
 31
0.0
  0
LINE
  5
DE
330
1F
100
AcDbEntity
  8
0
  6
Continuous
 62
     7
370
    15
100
AcDbLine
 10
1070.2896382176
 20
1184.4267258436
 30
0.0
 11
1075.1593674981
 21
1184.0496668608
 31
0.0
  0
LINE
  5
DF
330
1F
100
AcDbEntity
  8
0
  6
Continuous
 62
     7
370
    15
100
AcDbLine
 10
1070.2896382176
 20
1184.4267258436
 30
0.0
 11
1071.2386931741
 21
1189.1231844217
 31
0.0
  0
LINE
  5
E0
330
1F
100
AcDbEntity
  8
0
  6
Continuous
 62
     7
370
    15
100
AcDbLine
 10
1077.8212215268
 20
316.2663290293
 30
0.0
 11
1063.7343193852
 21
316.2663290293
 31
0.0
  0
ARC
  5
E1
330
1F
100
AcDbEntity
  8
0
  6
Continuous
 62
     7
370
    15
100
AcDbCircle
 10
1073.0707631763
 20
679.2576993708
 30
0.0
 40
2.073601931160551
100
AcDbArc
 50
321.4804301218
 51
0.2385986527
  0
LINE
  5
E2
330
1F
100
AcDbEntity
  8
0
  6
Continuous
 62
     7
370
    15
100
AcDbLine
 10
1075.1443471276
 20
699.2663303406
 30
0.0
 11
1075.1443471276
 21
679.2663345129
 31
0.0
  0
ARC
  5
E3
330
1F
100
AcDbEntity
  8
0
  6
Continuous
 62
     7
370
    15
100
AcDbCircle
 10
1073.202729619
 20
699.3248325773
 30
0.0
 40
1.942498664489409
100
AcDbArc
 50
358.2741619131
 51
88.1643481382
  0
LINE
  5
E4
330
1F
100
AcDbEntity
  8
0
  6
Continuous
 62
     7
370
    15
100
AcDbLine
 10
1065.0343264901
 20
701.2663343937
 30
0.0
 11
1073.2649530732
 21
701.2663343937
 31
0.0
  0
LWPOLYLINE
  5
E5
330
1F
100
AcDbEntity
  8
0
  6
Continuous
 62
     7
370
    15
100
AcDbPolyline
 90
       17
 70
   128
 43
0.0
 10
1068.4627558553
 20
894.7653928787
 10
1069.0967406594
 20
895.7274863512
 10
1069.9942375981
 20
896.4120456965
 10
1071.0540379845
 20
896.7419127018
 10
1072.1567239129
 20
896.6799089701
 10
1073.1779898965
 20
896.2330231459
 10
1074.0026797616
 20
895.451621154
 10
1074.537869867
 20
894.4237986595
 10
1074.7232403123
 20
893.2653823883
 10
1074.537869867
 20
892.1069810183
 10
1074.0026797616
 20
891.0791436226
 10
1073.1779898965
 20
890.2977490813
 10
1072.1567239129
 20
889.8508632571
 10
1071.0540379845
 20
889.7888595254
 10
1069.9942375981
 20
890.1187339813
 10
1069.0967406594
 20
890.8033007772
 10
1068.4627558553
 20
891.7653867991
  0
LINE
  5
E6
330
1F
100
AcDbEntity
  8
0
  6
Continuous
 62
     7
370
    15
100
AcDbLine
 10
1068.4627558553
 20
894.7653928787
 30
0.0
 11
1065.0343264901
 21
894.7653928787
 31
0.0
  0
LINE
  5
E7
330
1F
100
AcDbEntity
  8
0
  6
Continuous
 62
     7
370
    15
100
AcDbLine
 10
1068.4627558553
 20
891.7653867991
 30
0.0
 11
1065.0343264901
 21
891.7653867991
 31
0.0
  0
LINE
  5
E8
330
1F
100
AcDbEntity
  8
0
  6
Continuous
 62
     7
370
    15
100
AcDbLine
 10
1077.8212215268
 20
1216.2663349898
 30
0.0
 11
1063.7343193852
 21
1216.2663349898
 31
0.0
  0
ARC
  5
E9
330
1F
100
AcDbEntity
  8
0
  6
Continuous
 62
     7
370
    15
100
AcDbCircle
 10
1071.2812902554
 20
893.2653861136
 30
0.0
 40
3.503191546269011
100
AcDbArc
 50
272.4474672944
 51
87.5525327056
  0
ARC
  5
EA
330
1F
100
AcDbEntity
  8
0
  6
Continuous
 62
     7
370
    15
100
AcDbCircle
 10
1071.4794912892
 20
893.3849434873
 30
0.0
 40
2.380947542221643
100
AcDbArc
 50
91.1696757737
 51
170.8053961471
  0
ARC
  5
EB
330
1F
100
AcDbEntity
  8
0
  6
Continuous
 62
     7
370
    15
100
AcDbCircle
 10
1071.4794530115
 20
893.1458010054
 30
0.0
 40
2.380904134383185
100
AcDbArc
 50
189.1939152011
 51
268.8312242312
  0
LINE
  5
EC
330
1F
100
AcDbEntity
  8
0
  6
Continuous
 62
     7
370
    15
100
AcDbLine
 10
1070.2593888604
 20
1181.8737098963
 30
0.0
 11
1075.155940231
 21
1184.0496668608
 31
0.0
  0
LINE
  5
ED
330
1F
100
AcDbEntity
  8
0
  6
Continuous
 62
     7
370
    15
100
AcDbLine
 10
1073.9875699841
 20
1173.0597624571
 30
0.0
 11
1070.2593888604
 21
1181.8737098963
 31
0.0
  0
LINE
  5
EE
330
1F
100
AcDbEntity
  8
0
  6
Continuous
 62
     7
370
    15
100
AcDbLine
 10
1067.9893459641
 20
1179.9058923514
 30
0.0
 11
1065.3408135735
 21
1177.228451708
 31
0.0
  0
LINE
  5
EF
330
1F
100
AcDbEntity
  8
0
  6
Continuous
 62
     7
370
    15
100
AcDbLine
 10
1065.0343264901
 20
1189.0886137278
 30
0.0
 11
1068.0622126424
 21
1186.8469426424
 31
0.0
  0
LINE
  5
F0
330
1F
100
AcDbEntity
  8
0
  6
Continuous
 62
     7
370
    15
100
AcDbLine
 10
1070.2862109505
 20
1184.4267258436
 30
0.0
 11
1071.2346996629
 21
1189.1203233988
 31
0.0
  0
LINE
  5
F1
330
1F
100
AcDbEntity
  8
0
  6
Continuous
 62
     7
370
    15
100
AcDbLine
 10
1070.2862109505
 20
1184.4267258436
 30
0.0
 11
1075.155940231
 21
1184.0496668608
 31
0.0
  0
LINE
  5
F2
330
1F
100
AcDbEntity
  8
0
  6
Continuous
 62
     7
370
    15
100
AcDbLine
 10
1069.8260928952
 20
1186.9063088686
 30
0.0
 11
1068.0555667245
 21
1185.6361934931
 31
0.0
  0
LINE
  5
F3
330
1F
100
AcDbEntity
  8
0
  6
Continuous
 62
     7
370
    15
100
AcDbLine
 10
1066.544737991
 20
1184.8016986639
 30
0.0
 11
1065.8228363358
 21
1187.2866461069
 31
0.0
  0
LINE
  5
F4
330
1F
100
AcDbEntity
  8
0
  6
Continuous
 62
     7
370
    15
100
AcDbLine
 10
1066.544737991
 20
1184.8016986639
 30
0.0
 11
1065.0343264901
 21
1183.9107880385
 31
0.0
  0
LINE
  5
F5
330
1F
100
AcDbEntity
  8
0
  6
Continuous
 62
     7
370
    15
100
AcDbLine
 10
1066.8640996777
 20
1181.7415962011
 30
0.0
 11
1065.0343264901
 21
1182.3740610869
 31
0.0
  0
LINE
  5
F6
330
1F
100
AcDbEntity
  8
0
  6
Continuous
 62
     7
370
    15
100
AcDbLine
 10
1066.8640996777
 20
1181.7415962011
 30
0.0
 11
1066.6294361913
 21
1179.9104223044
 31
0.0
  0
LINE
  5
F7
330
1F
100
AcDbEntity
  8
0
  6
Continuous
 62
     7
370
    15
100
AcDbLine
 10
1070.7971121632
 20
1178.1662413866
 30
0.0
 11
1068.0316056573
 21
1181.3244530947
 31
0.0
  0
ARC
  5
F8
330
1F
100
AcDbEntity
  8
0
  6
Continuous
 62
     7
370
    15
100
AcDbCircle
 10
1073.1993023519
 20
699.3248325773
 30
0.0
 40
1.942498664489409
100
AcDbArc
 50
358.2741619131
 51
88.1643481382
  0
LINE
  5
F9
330
1F
100
AcDbEntity
  8
0
  6
Continuous
 62
     7
370
    15
100
AcDbLine
 10
1075.1409198605
 20
699.2663303406
 30
0.0
 11
1075.1409198605
 21
679.2663345129
 31
0.0
  0
ARC
  5
FA
330
1F
100
AcDbEntity
  8
0
  6
Continuous
 62
     7
370
    15
100
AcDbCircle
 10
1073.0671263946
 20
679.2577466343
 30
0.0
 40
2.07381124770103
100
AcDbArc
 50
321.5036192016
 51
0.2372687513
  0
LINE
  5
FB
330
1F
100
AcDbEntity
  8
0
  6
Continuous
 62
     7
370
    15
100
AcDbLine
 10
1066.1745633447
 20
894.1653827221
 30
0.0
 11
1065.0343264901
 21
894.1653827221
 31
0.0
  0
LINE
  5
FC
330
1F
100
AcDbEntity
  8
0
  6
Continuous
 62
     7
370
    15
100
AcDbLine
 10
1066.1745633447
 20
893.7653908522
 30
0.0
 11
1066.1745633447
 21
894.1653827221
 31
0.0
  0
LINE
  5
FD
330
1F
100
AcDbEntity
  8
0
  6
Continuous
 62
     7
370
    15
100
AcDbLine
 10
1069.1325630509
 20
893.7653908522
 30
0.0
 11
1066.1745633447
 21
893.7653908522
 31
0.0
  0
LWPOLYLINE
  5
FE
330
1F
100
AcDbEntity
  8
0
  6
Continuous
 62
     7
370
    15
100
AcDbPolyline
 90
       16
 70
   128
 43
0.0
 10
1069.1325630509
 20
893.7653908522
 10
1069.4866742455
 20
894.6633199246
 10
1070.1363350713
 20
895.3491458685
 10
1070.9829296433
 20
895.7187989742
 10
1071.8980099522
 20
895.7162061722
 10
1072.742726978
 20
895.3417399914
 10
1073.3889307343
 20
894.6522334606
 10
1073.7385715806
 20
893.7522927315
 10
1073.7385715806
 20
892.7784869463
 10
1073.3889307343
 20
891.8785462172
 10
1072.742726978
 20
891.1890396864
 10
1071.8980099522
 20
890.8145735056
 10
1070.9829296433
 20
890.811973253
 10
1070.1363350713
 20
891.1816338093
 10
1069.4866742455
 20
891.8674597532
 10
1069.1325630509
 20
892.7653888256
  0
LINE
  5
FF
330
1F
100
AcDbEntity
  8
0
  6
Continuous
 62
     7
370
    15
100
AcDbLine
 10
1069.1325630509
 20
892.7653888256
 30
0.0
 11
1066.1745633447
 21
892.7653888256
 31
0.0
  0
LINE
  5
100
330
1F
100
AcDbEntity
  8
0
  6
Continuous
 62
     7
370
    15
100
AcDbLine
 10
1066.1745633447
 20
892.3653820545
 30
0.0
 11
1066.1745633447
 21
892.7653888256
 31
0.0
  0
LINE
  5
101
330
1F
100
AcDbEntity
  8
0
  6
Continuous
 62
     7
370
    15
100
AcDbLine
 10
1066.1745633447
 20
892.3653820545
 30
0.0
 11
1065.0343264901
 21
892.3653820545
 31
0.0
  0
ARC
  5
102
330
1F
100
AcDbEntity
  8
0
  6
Continuous
 62
     7
370
    15
100
AcDbCircle
 10
1073.233849955
 20
699.2955895487
 30
0.0
 40
0.9712409709214739
100
AcDbArc
 50
358.2736696014
 51
88.1648404499
  0
LINE
  5
103
330
1F
100
AcDbEntity
  8
0
  6
Continuous
 62
     7
370
    15
100
AcDbLine
 10
1074.2046501004
 20
699.2663303406
 30
0.0
 11
1074.2046501004
 21
679.2663345129
 31
0.0
  0
ARC
  5
104
330
1F
100
AcDbEntity
  8
0
  6
Continuous
 62
     7
370
    15
100
AcDbCircle
 10
1073.23384563
 20
679.237079369
 30
0.0
 40
0.9712451715234417
100
AcDbArc
 50
271.8354068816
 51
1.7260830671
  0
LINE
  5
105
330
1F
100
AcDbEntity
  8
0
  6
Continuous
 62
     7
370
    15
100
AcDbLine
 10
1065.0343264901
 20
700.2663323671
 30
0.0
 11
1073.2649530732
 21
700.2663323671
 31
0.0
  0
ARC
  5
106
330
1F
100
AcDbEntity
  8
0
  6
Continuous
 62
     7
370
    15
100
AcDbCircle
 10
1068.1292482105
 20
689.5244489682
 30
0.0
 40
4.203939331681243
100
AcDbArc
 50
356.4798977794
 51
137.4083411639
  0
ARC
  5
107
330
1F
100
AcDbEntity
  8
0
  6
Continuous
 62
     7
370
    15
100
AcDbCircle
 10
1067.947822433
 20
689.1315005432
 30
0.0
 40
4.379509638383436
100
AcDbArc
 50
277.196594481
 51
1.7642428994
  0
LINE
  5
108
330
1F
100
AcDbEntity
  8
0
  6
Continuous
 62
     7
370
    15
100
AcDbLine
 10
1066.544737991
 20
1184.8016986639
 30
0.0
 11
1066.5481354558
 21
1184.8016986639
 31
0.0
  0
LINE
  5
109
330
1F
100
AcDbEntity
  8
0
  6
Continuous
 62
     7
370
    15
100
AcDbLine
 10
1066.5481354558
 20
1184.8016986639
 30
0.0
 11
1065.0343264901
 21
1183.9087912829
 31
0.0
  0
LINE
  5
10A
330
1F
100
AcDbEntity
  8
0
  6
Continuous
 62
     7
370
    15
100
AcDbLine
 10
1066.8640996777
 20
1181.7415962011
 30
0.0
 11
1066.8675269448
 21
1181.7415962011
 31
0.0
  0
LINE
  5
10B
330
1F
100
AcDbEntity
  8
0
  6
Continuous
 62
     7
370
    15
100
AcDbLine
 10
1066.8675269448
 20
1181.7415962011
 30
0.0
 11
1065.0343264901
 21
1182.3752531798
 31
0.0
  0
LINE
  5
10C
330
1F
100
AcDbEntity
  8
0
  6
Continuous
 62
     7
370
    15
100
AcDbLine
 10
1069.0095092618
 20
1182.4004361422
 30
0.0
 11
1071.1611773335
 21
1183.3566138537
 31
0.0
  0
LINE
  5
10D
330
1F
100
AcDbEntity
  8
0
  6
Continuous
 62
     7
370
    15
100
AcDbLine
 10
1070.800509628
 20
1178.1662413866
 30
0.0
 11
1069.0095092618
 21
1182.4004361422
 31
0.0
  0
LINE
  5
10E
330
1F
100
AcDbEntity
  8
0
  6
Continuous
 62
     7
370
    15
100
AcDbLine
 10
1070.800509628
 20
1178.1662413866
 30
0.0
 11
1068.0334235989
 21
1181.3262710364
 31
0.0
  0
LINE
  5
10F
330
1F
100
AcDbEntity
  8
0
  6
Continuous
 62
     7
370
    15
100
AcDbLine
 10
1068.0334235989
 20
1181.3262710364
 30
0.0
 11
1066.6328634583
 21
1179.9104223044
 31
0.0
  0
LINE
  5
110
330
1F
100
AcDbEntity
  8
0
  6
Continuous
 62
     7
370
    15
100
AcDbLine
 10
1066.8675269448
 20
1181.7415962011
 30
0.0
 11
1066.6328634583
 21
1179.9104223044
 31
0.0
  0
LINE
  5
111
330
1F
100
AcDbEntity
  8
0
  6
Continuous
 62
     7
370
    15
100
AcDbLine
 10
1066.5481354558
 20
1184.8016986639
 30
0.0
 11
1065.8262636029
 21
1187.2866461069
 31
0.0
  0
LINE
  5
112
330
1F
100
AcDbEntity
  8
0
  6
Continuous
 62
     7
370
    15
100
AcDbLine
 10
1065.8262636029
 20
1187.2866461069
 30
0.0
 11
1068.0572654568
 21
1185.6349417956
 31
0.0
  0
LINE
  5
113
330
1F
100
AcDbEntity
  8
0
  6
Continuous
 62
     7
370
    15
100
AcDbLine
 10
1069.8295201623
 20
1186.9063088686
 30
0.0
 11
1068.0572654568
 21
1185.6349417956
 31
0.0
  0
LINE
  5
114
330
1F
100
AcDbEntity
  8
0
  6
Continuous
 62
     7
370
    15
100
AcDbLine
 10
1069.1437687241
 20
1183.5128078253
 30
0.0
 11
1069.8295201623
 21
1186.9063088686
 31
0.0
  0
LINE
  5
115
330
1F
100
AcDbEntity
  8
0
  6
Continuous
 62
     7
370
    15
100
AcDbLine
 10
1069.1437687241
 20
1183.5128078253
 30
0.0
 11
1071.1611773335
 21
1183.3566138537
 31
0.0
  0
ARC
  5
116
330
1F
100
AcDbEntity
  8
0
  6
Continuous
 62
     7
370
    15
100
AcDbCircle
 10
1067.9657933187
 20
689.4097715186
 30
0.0
 40
4.358426246318901
100
AcDbArc
 50
358.114012162
 51
88.3243910565
  0
ARC
  5
117
330
1F
100
AcDbEntity
  8
0
  6
Continuous
 62
     7
370
    15
100
AcDbCircle
 10
1067.9441803856
 20
689.1316240622
 30
0.0
 40
4.379750304284884
100
AcDbArc
 50
277.2465810023
 51
1.7625292863
  0
ARC
  5
118
330
1F
100
AcDbEntity
  8
0
  6
Continuous
 62
     7
370
    15
100
AcDbCircle
 10
1068.1245973607
 20
689.5244387453
 30
0.0
 40
3.242045003358596
100
AcDbArc
 50
90.5542342419
 51
151.5178679308
  0
LINE
  5
119
330
1F
100
AcDbEntity
  8
0
  6
Continuous
 62
     7
370
    15
100
AcDbLine
 10
1068.0622126424
 20
1186.8469426424
 30
0.0
 11
1068.0656399094
 21
1186.8469426424
 31
0.0
  0
ARC
  5
11A
330
1F
100
AcDbEntity
  8
0
  6
Continuous
 62
     7
370
    15
100
AcDbCircle
 10
1068.1245472971
 20
689.4662846227
 30
0.0
 40
3.267165851610792
100
AcDbArc
 50
356.4912767802
 51
150.642899934
  0
ARC
  5
11B
330
1F
100
AcDbEntity
  8
0
  6
Continuous
 62
     7
370
    15
100
AcDbCircle
 10
1067.9850948508
 20
689.166462994
 30
0.0
 40
3.401960191692892
100
AcDbArc
 50
271.8793856331
 51
1.6822416722
  0
ARC
  5
11C
330
1F
100
AcDbEntity
  8
0
  6
Continuous
 62
     7
370
    15
100
AcDbCircle
 10
1068.1062666811
 20
689.3723600051
 30
0.0
 40
1.87276550980683
100
AcDbArc
 50
356.7544346808
 51
169.5144188963
  0
ARC
  5
11D
330
1F
100
AcDbEntity
  8
0
  6
Continuous
 62
     7
370
    15
100
AcDbCircle
 10
1068.0712546764
 20
689.1876999164
 30
0.0
 40
1.906396058137136
100
AcDbArc
 50
253.2377921396
 51
2.3639313601
  0
LINE
  5
11E
330
1F
100
AcDbEntity
  8
0
  6
Continuous
 62
     7
370
    15
100
AcDbLine
 10
1067.9893459641
 20
1179.9058923514
 30
0.0
 11
1067.9927732312
 21
1179.9058923514
 31
0.0
  0
LINE
  5
11F
330
1F
100
AcDbEntity
  8
0
  6
Continuous
 62
     7
370
    15
100
AcDbLine
 10
1065.8228363358
 20
1187.2866461069
 30
0.0
 11
1065.8262636029
 21
1187.2866461069
 31
0.0
  0
ARC
  5
120
330
1F
100
AcDbEntity
  8
0
  6
Continuous
 62
     7
370
    15
100
AcDbCircle
 10
1068.0309511666
 20
689.3247761776
 30
0.0
 40
1.942559114896328
100
AcDbArc
 50
358.2759414562
 51
88.1625685951
  0
ARC
  5
121
330
1F
100
AcDbEntity
  8
0
  6
Continuous
 62
     7
370
    15
100
AcDbCircle
 10
1068.0309620826
 20
689.207885651
 30
0.0
 40
1.942548294828849
100
AcDbArc
 50
271.8371195076
 51
1.7241574099
  0
ARC
  5
122
330
1F
100
AcDbEntity
  8
0
  6
Continuous
 62
     7
370
    15
100
AcDbCircle
 10
1068.1350063403
 20
689.2663324268
 30
0.0
 40
1.000873989372827
100
AcDbArc
 50
92.3918197407
 51
267.6081802593
  0
LINE
  5
123
330
1F
100
AcDbEntity
  8
0
  6
Continuous
 62
     7
370
    15
100
AcDbLine
 10
1066.6294361913
 20
1179.9104223044
 30
0.0
 11
1066.6328634583
 21
1179.9104223044
 31
0.0
  0
LWPOLYLINE
  5
124
330
1F
100
AcDbEntity
  8
0
  6
Continuous
 62
     7
370
    15
100
AcDbPolyline
 90
       17
 70
   128
 43
0.0
 10
1069.0363313519
 20
689.2663324268
 10
1068.9648057782
 20
689.649016598
 10
1068.7611069047
 20
689.9734372289
 10
1068.456258949
 20
690.1902118713
 10
1068.096664127
 20
690.2663344533
 10
1067.7370395028
 20
690.1902118713
 10
1067.4321915471
 20
689.9734372289
 10
1067.2284926736
 20
689.649016598
 10
1067.1569670998
 20
689.2663324268
 10
1067.2284926736
 20
688.8836482556
 10
1067.4321915471
 20
688.5592276246
 10
1067.7370395028
 20
688.3424529822
 10
1068.096664127
 20
688.2663304002
 10
1068.456258949
 20
688.3424529822
 10
1068.7611069047
 20
688.5592276246
 10
1068.9648057782
 20
688.8836482556
 10
1069.0363313519
 20
689.2663324268
  0
LINE
  5
125
330
1F
100
AcDbEntity
  8
0
  6
Continuous
 62
     7
370
    15
100
AcDbLine
 10
1070.7971121632
 20
1178.1662413866
 30
0.0
 11
1070.800509628
 21
1178.1662413866
 31
0.0
  0
LINE
  5
126
330
1F
100
AcDbEntity
  8
0
  6
Continuous
 62
     7
370
    15
100
AcDbLine
 10
1069.8260928952
 20
1186.9063088686
 30
0.0
 11
1069.8295201623
 21
1186.9063088686
 31
0.0
  0
LINE
  5
127
330
1F
100
AcDbEntity
  8
0
  6
Continuous
 62
     7
370
    15
100
AcDbLine
 10
1070.2593888604
 20
1181.8737098963
 30
0.0
 11
1070.2628161275
 21
1181.8737098963
 31
0.0
  0
LINE
  5
128
330
1F
100
AcDbEntity
  8
0
  6
Continuous
 62
     7
370
    15
100
AcDbLine
 10
1075.155940231
 20
1184.0496668608
 30
0.0
 11
1075.1593674981
 21
1184.0496668608
 31
0.0
  0
LINE
  5
129
330
1F
100
AcDbEntity
  8
0
  6
Continuous
 62
     7
370
    15
100
AcDbLine
 10
1070.2862109505
 20
1184.4267258436
 30
0.0
 11
1070.2896382176
 21
1184.4267258436
 31
0.0
  0
LINE
  5
12A
330
1F
100
AcDbEntity
  8
0
  6
Continuous
 62
     7
370
    15
100
AcDbLine
 10
1084.9274064862
 20
1216.2663349898
 30
0.0
 11
1077.8212215268
 21
1216.2663349898
 31
0.0
  0
LINE
  5
12B
330
1F
100
AcDbEntity
  8
0
  6
Continuous
 62
     7
370
    15
100
AcDbLine
 10
1084.9274064862
 20
316.2663290293
 30
0.0
 11
1077.8212215268
 21
316.2663290293
 31
0.0
  0
LINE
  5
12C
330
1F
100
AcDbEntity
  8
0
  6
Continuous
 62
     7
370
    15
100
AcDbLine
 10
1074.9674703442
 20
665.7663369567
 30
0.0
 11
1073.4976198041
 21
665.7663369567
 31
0.0
  0
LINE
  5
12D
330
1F
100
AcDbEntity
  8
0
  6
Continuous
 62
     7
370
    15
100
AcDbLine
 10
1065.0343264901
 20
665.2156347425
 30
0.0
 11
1073.4976198041
 21
665.7663369567
 31
0.0
  0
LINE
  5
12E
330
1F
100
AcDbEntity
  8
0
  6
Continuous
 62
     7
370
    15
100
AcDbLine
 10
1065.0343264901
 20
663.3170330913
 30
0.0
 11
1073.4976198041
 21
662.766330877
 31
0.0
  0
LINE
  5
12F
330
1F
100
AcDbEntity
  8
0
  6
Continuous
 62
     7
370
    15
100
AcDbLine
 10
1073.4976198041
 20
662.766330877
 30
0.0
 11
1074.9674703442
 21
662.766330877
 31
0.0
  0
SPLINE
  5
130
330
1F
100
AcDbEntity
  8
0
  6
Continuous
 62
     7
370
    15
100
AcDbSpline
210
0.0
220
0.0
230
1.0
 70
     8
 71
     3
 72
    14
 73
    10
 74
     0
 42
0.00000001
 43
0.00000001
 12
1.0
 22
0.0
 32
0.0
 13
1.0
 23
0.0
 33
0.0
 40
0.0
 40
0.0
 40
0.0
 40
0.0
 40
0.0450031746966091
 40
0.1924573434957345
 40
0.4100921073049659
 40
0.6281053292409883
 40
0.8446476681075221
 40
0.9597524012357272
 40
1.0
 40
1.0
 40
1.0
 40
1.0
 10
1073.828485187226
 20
663.7337366134763
 30
0.0
 10
1073.815853975593
 20
663.7137934495779
 30
0.0
 10
1073.761836243458
 20
663.6285059477374
 30
0.0
 10
1073.730934524241
 20
663.4125642440466
 30
0.0
 10
1073.68810778542
 20
663.1423616649066
 30
0.0
 10
1073.653320052978
 20
662.9068030799166
 30
0.0
 10
1073.608455029634
 20
662.7942982688977
 30
0.0
 10
1073.543436241714
 20
662.7677593337075
 30
0.0
 10
1073.495472563656
 20
662.7666248032651
 30
0.0
 10
1073.48304646843
 20
662.7663308770299
 30
0.0
  0
LINE
  5
131
330
1F
100
AcDbEntity
  8
0
  6
Continuous
 62
     7
370
    15
100
AcDbLine
 10
1073.4546746575
 20
662.766330877
 30
0.0
 11
1065.0343264901
 21
663.314693609
 31
0.0
  0
SPLINE
  5
132
330
1F
100
AcDbEntity
  8
0
  6
Continuous
 62
     7
370
    15
100
AcDbSpline
210
0.0
220
0.0
230
1.0
 70
     8
 71
     3
 72
    15
 73
    11
 74
     0
 42
0.00000001
 43
0.00000001
 12
1.0
 22
0.0
 32
0.0
 13
1.0
 23
0.0
 33
0.0
 40
0.0
 40
0.0
 40
0.0
 40
0.0
 40
0.0802848564313764
 40
0.2296714814680316
 40
0.4389297781125236
 40
0.649730540281667
 40
0.8665153355239282
 40
0.9462915327210855
 40
0.9895276082376344
 40
1.0
 40
1.0
 40
1.0
 40
1.0
 10
1073.48304646843
 20
665.7663369567036
 30
0.0
 10
1073.506152861094
 20
665.7651361310783
 30
0.0
 10
1073.572253489164
 20
665.761700920347
 30
0.0
 10
1073.624484840923
 20
665.7089349299396
 30
0.0
 10
1073.665021545946
 20
665.5617494196482
 30
0.0
 10
1073.700454249292
 20
665.3096956223377
 30
0.0
 10
1073.734819350678
 20
665.0596566512639
 30
0.0
 10
1073.779339618627
 20
664.8900487477815
 30
0.0
 10
1073.806471876897
 20
664.824293003309
 30
0.0
 10
1073.824893275039
 20
664.80306950279
 30
0.0
 10
1073.828485187226
 20
664.7989312202573
 30
0.0
  0
SPLINE
  5
133
330
1F
100
AcDbEntity
  8
0
  6
Continuous
 62
     7
370
    15
100
AcDbSpline
210
0.0
220
0.0
230
1.0
 70
     8
 71
     3
 72
     9
 73
     5
 74
     0
 42
0.00000001
 43
0.00000001
 12
1.0
 22
0.0
 32
0.0
 13
1.0
 23
0.0
 33
0.0
 40
0.0
 40
0.0
 40
0.0
 40
0.0
 40
0.0100592085847336
 40
1.0
 40
1.0
 40
1.0
 40
1.0
 10
1065.034326490097
 20
665.2176389486432
 30
0.0
 10
1065.062639093644
 20
665.2194767482979
 30
0.0
 10
1067.877234626488
 20
665.4021749833722
 30
0.0
 10
1070.6800517028
 20
665.5851763947219
 30
0.0
 10
1073.454674657517
 20
665.7663369567036
 30
0.0
  0
SPLINE
  5
134
330
1F
100
AcDbEntity
  8
0
  6
Continuous
 62
     7
370
    15
100
AcDbSpline
210
0.0
220
0.0
230
1.0
 70
     8
 71
     3
 72
     9
 73
     5
 74
     0
 42
0.00000001
 43
0.00000001
 12
1.0
 22
0.0
 32
0.0
 13
1.0
 23
0.0
 33
0.0
 40
0.0
 40
0.0
 40
0.0
 40
0.0
 40
0.1370591768540985
 40
1.0
 40
1.0
 40
1.0
 40
1.0
 10
1073.860701497727
 20
664.7663349301457
 30
0.0
 10
1073.859231376813
 20
664.7678251184701
 30
0.0
 10
1073.848505200371
 20
664.7786977091173
 30
0.0
 10
1073.837758743534
 20
664.7895587686252
 30
0.0
 10
1073.828485187226
 20
664.7989312202573
 30
0.0
  0
SPLINE
  5
135
330
1F
100
AcDbEntity
  8
0
  6
Continuous
 62
     7
370
    15
100
AcDbSpline
210
0.0
220
0.0
230
1.0
 70
     8
 71
     3
 72
     9
 73
     5
 74
     0
 42
0.00000001
 43
0.00000001
 12
1.0
 22
0.0
 32
0.0
 13
1.0
 23
0.0
 33
0.0
 40
0.0
 40
0.0
 40
0.0
 40
0.0
 40
0.8629408231459016
 40
1.0
 40
1.0
 40
1.0
 40
1.0
 10
1073.828485187226
 20
663.7337366134763
 30
0.0
 10
1073.837758743534
 20
663.7431090651083
 30
0.0
 10
1073.848505200371
 20
663.7539701246162
 30
0.0
 10
1073.859231376812
 20
663.7648427152635
 30
0.0
 10
1073.860701497727
 20
663.7663329035878
 30
0.0
  0
LINE
  5
136
330
1F
100
AcDbEntity
  8
0
  6
Continuous
 62
     7
370
    15
100
AcDbLine
 10
1065.0343264901
 20
677.4329626948
 30
0.0
 11
1075.9502317273
 21
675.8695030601
 31
0.0
  0
LWPOLYLINE
  5
137
330
1F
100
AcDbEntity
  8
0
  6
Continuous
 62
     7
370
    15
100
AcDbPolyline
 90
        3
 70
   128
 43
0.0
 10
1075.9502317273
 20
675.8695030601
 10
1075.9700502717
 20
675.8915940315
 10
1075.979050573
 20
675.89362804
  0
LINE
  5
138
330
1F
100
AcDbEntity
  8
0
  6
Continuous
 62
     7
370
    15
100
AcDbLine
 10
1075.9502317273
 20
652.6631647737
 30
0.0
 11
1065.0343264901
 21
651.0997051389
 31
0.0
  0
LWPOLYLINE
  5
139
330
1F
100
AcDbEntity
  8
0
  6
Continuous
 62
     7
370
    15
100
AcDbPolyline
 90
        3
 70
   128
 43
0.0
 10
1075.979050573
 20
652.6390397937
 10
1075.9700502717
 20
652.6410738022
 10
1075.9502317273
 20
652.6631647737
  0
LINE
  5
13A
330
1F
100
AcDbEntity
  8
0
  6
Continuous
 62
     7
370
    15
100
AcDbLine
 10
1080.3709592187
 20
673.9404955895
 30
0.0
 11
1080.5761482083
 21
673.933149317
 31
0.0
  0
LWPOLYLINE
  5
13B
330
1F
100
AcDbEntity
  8
0
  6
Continuous
 62
     7
370
    15
100
AcDbPolyline
 90
        3
 70
   128
 43
0.0
 10
1080.7837511861
 20
654.5996600778
 10
1080.684002813
 20
654.600509444
 10
1080.5761482083
 20
654.5995185167
  0
SPLINE
  5
13C
330
1F
100
AcDbEntity
  8
0
  6
Continuous
 62
     7
370
    15
100
AcDbSpline
210
0.0
220
0.0
230
1.0
 70
    24
 71
     3
 72
    11
 73
     7
 74
     0
 42
0.00000001
 43
0.00000001
 12
1.0
 22
0.0
 32
0.0
 13
1.0
 23
0.0
 33
0.0
 40
0.0
 40
0.0
 40
0.0
 40
0.0
 40
0.2947597552105927
 40
0.5895057423028338
 40
0.8837854479582338
 40
1.0
 40
1.0
 40
1.0
 40
1.0
 10
1075.810905870133
 20
665.7663369567036
 30
0.0
 10
1075.765411279104
 20
665.7663369567036
 30
0.0
 10
1075.674424222083
 20
665.7663369567036
 30
0.0
 10
1075.416786209769
 20
665.7663369567036
 30
0.0
 10
1075.166596644126
 20
665.7663369567038
 30
0.0
 10
1075.011406145792
 20
665.7663369567036
 30
0.0
 10
1074.967470344239
 20
665.7663369567036
 30
0.0
  0
SPLINE
  5
13D
330
1F
100
AcDbEntity
  8
0
  6
Continuous
 62
     7
370
    15
100
AcDbSpline
210
0.0
220
0.0
230
1.0
 70
    24
 71
     3
 72
    11
 73
     7
 74
     0
 42
0.00000001
 43
0.00000001
 12
1.0
 22
0.0
 32
0.0
 13
1.0
 23
0.0
 33
0.0
 40
0.0
 40
0.0
 40
0.0
 40
0.0
 40
0.2933075229107153
 40
0.5866061602900463
 40
0.8804832094298076
 40
1.0
 40
1.0
 40
1.0
 40
1.0
 10
1074.967470344239
 20
662.7663308770299
 30
0.0
 10
1075.07815824389
 20
662.7663308770299
 30
0.0
 10
1075.299530689987
 20
662.7663308770299
 30
0.0
 10
1075.577375354777
 20
662.76633087703
 30
0.0
 10
1075.740016423627
 20
662.7663308770299
 30
0.0
 10
1075.795007371116
 20
662.7663308770299
 30
0.0
 10
1075.810905870133
 20
662.7663308770299
 30
0.0
  0
LWPOLYLINE
  5
13E
330
1F
100
AcDbEntity
  8
0
  6
Continuous
 62
     7
370
    15
100
AcDbPolyline
 90
        9
 70
   128
 43
0.0
 10
1086.8717398011
 20
662.766330877
 10
1087.049123224
 20
662.8805110247
 10
1087.1995057427
 20
663.2056767137
 10
1087.2999991738
 20
663.6923113854
 10
1087.3352553212
 20
664.2663339169
 10
1087.2999991738
 20
664.8403564484
 10
1087.1995057427
 20
665.3269911201
 10
1087.049123224
 20
665.6521493585
 10
1086.8717398011
 20
665.7663369567
  0
LINE
  5
13F
330
1F
100
AcDbEntity
  8
0
  6
Continuous
 62
     7
370
    15
100
AcDbLine
 10
1075.8109058701
 20
662.766330877
 30
0.0
 11
1086.8717398011
 21
662.766330877
 31
0.0
  0
LINE
  5
140
330
1F
100
AcDbEntity
  8
0
  6
Continuous
 62
     7
370
    15
100
AcDbLine
 10
1086.8717398011
 20
665.7663369567
 30
0.0
 11
1075.8109058701
 21
665.7663369567
 31
0.0
  0
LWPOLYLINE
  5
141
330
1F
100
AcDbEntity
  8
0
  6
Continuous
 62
     7
370
    15
100
AcDbPolyline
 90
        3
 70
   128
 43
0.0
 10
1085.6416489445
 20
652.6450002582
 10
1085.6284465157
 20
652.6430109532
 10
1085.6253470742
 20
652.6426086218
  0
SPLINE
  5
142
330
1F
100
AcDbEntity
  8
0
  6
Continuous
 62
     7
370
    15
100
AcDbSpline
210
0.0
220
0.0
230
1.0
 70
     8
 71
     3
 72
    11
 73
     7
 74
     0
 42
0.00000001
 43
0.00000001
 12
1.0
 22
0.0
 32
0.0
 13
1.0
 23
0.0
 33
0.0
 40
0.0
 40
0.0
 40
0.0
 40
0.0
 40
0.073531409899371
 40
0.2140840175044668
 40
0.9462962959492077
 40
0.9999999999999999
 40
0.9999999999999999
 40
0.9999999999999999
 40
0.9999999999999999
 10
1070.051338847809
 20
648.432494142735
 30
0.0
 10
1070.05486361872
 20
648.4287962886206
 30
0.0
 10
1070.065125860644
 20
648.4180301212637
 30
0.0
 10
1070.102877113968
 20
648.3754531157579
 30
0.0
 10
1070.134548679853
 20
648.3361906004152
 30
0.0
 10
1070.114433949827
 20
648.3374504071246
 30
0.0
 10
1070.113059457474
 20
648.3375364930272
 30
0.0
  0
SPLINE
  5
143
330
1F
100
AcDbEntity
  8
0
  6
Continuous
 62
     7
370
    15
100
AcDbSpline
210
0.0
220
0.0
230
1.0
 70
     8
 71
     3
 72
    11
 73
     7
 74
     0
 42
0.00000001
 43
0.00000001
 12
1.0
 22
0.0
 32
0.0
 13
1.0
 23
0.0
 33
0.0
 40
0.0
 40
0.0
 40
0.0
 40
0.0
 40
0.0069061910752069
 40
0.7753288126736528
 40
0.9228322162464683
 40
1.0
 40
1.0
 40
1.0
 40
1.0
 10
1070.116486724549
 20
680.1952207476735
 30
0.0
 10
1070.116646854367
 20
680.1952240962158
 30
0.0
 10
1070.134623950655
 20
680.195600022868
 30
0.0
 10
1070.102731732401
 20
680.1571181696237
 30
0.0
 10
1070.065131807386
 20
680.1146416617199
 30
0.0
 10
1070.054865139057
 20
680.1038725547735
 30
0.0
 10
1070.051338847809
 20
680.1001736909985
 30
0.0
  0
LINE
  5
144
330
1F
100
AcDbEntity
  8
0
  6
Continuous
 62
     7
370
    15
100
AcDbLine
 10
334.1380025708
 20
368.766338566
 30
0.0
 11
308.2175220811
 21
368.766338566
 31
0.0
  0
LINE
  5
145
330
1F
100
AcDbEntity
  8
0
  6
Continuous
 62
     7
370
    15
100
AcDbLine
 10
334.1380025708
 20
367.5663480551
 30
0.0
 11
308.2175220811
 21
367.5663480551
 31
0.0
  0
ARC
  5
146
330
1F
100
AcDbEntity
  8
0
  6
Continuous
 62
     7
370
    15
100
AcDbCircle
 10
308.2175253652
 20
370.0163335901
 30
0.0
 40
1.25
100
AcDbArc
 50
180.0
 51
270.0
  0
ARC
  5
147
330
1F
100
AcDbEntity
  8
0
  6
Continuous
 62
     7
370
    15
100
AcDbCircle
 10
308.2175253652
 20
370.0163335901
 30
0.0
 40
2.45000000000002
100
AcDbArc
 50
197.2505550123
 51
270.0
  0
LINE
  5
148
330
1F
100
AcDbEntity
  8
0
  6
Continuous
 62
     7
370
    15
100
AcDbLine
 10
306.9675232732
 20
370.0163373739
 30
0.0
 11
306.9675232732
 21
394.5163199694
 31
0.0
  0
LINE
  5
149
330
1F
100
AcDbEntity
  8
0
  6
Continuous
 62
     7
370
    15
100
AcDbLine
 10
308.2175220811
 20
395.7663187773
 30
0.0
 11
334.1380025708
 21
395.7663187773
 31
0.0
  0
LINE
  5
14A
330
1F
100
AcDbEntity
  8
0
  6
Continuous
 62
     7
370
    15
100
AcDbLine
 10
308.2175220811
 20
396.9663390905
 30
0.0
 11
334.1380025708
 21
396.9663390905
 31
0.0
  0
ARC
  5
14B
330
1F
100
AcDbEntity
  8
0
  6
Continuous
 62
     7
370
    15
100
AcDbCircle
 10
308.2175253652
 20
394.5163335901
 30
0.0
 40
2.450000000000061
100
AcDbArc
 50
90.0
 51
162.7494449877
  0
ARC
  5
14C
330
1F
100
AcDbEntity
  8
0
  6
Continuous
 62
     7
370
    15
100
AcDbCircle
 10
308.2175253652
 20
394.5163335901
 30
0.0
 40
1.25
100
AcDbArc
 50
90.0
 51
180.0
  0
LINE
  5
14D
330
1F
100
AcDbEntity
  8
0
  6
Continuous
 62
     7
370
    15
100
AcDbLine
 10
334.1380025708
 20
1163.766325453
 30
0.0
 11
308.2175220811
 21
1163.766325453
 31
0.0
  0
LINE
  5
14E
330
1F
100
AcDbEntity
  8
0
  6
Continuous
 62
     7
370
    15
100
AcDbLine
 10
334.1380025708
 20
1164.9663457663
 30
0.0
 11
308.2175220811
 21
1164.9663457663
 31
0.0
  0
LINE
  5
14F
330
1F
100
AcDbEntity
  8
0
  6
Continuous
 62
     7
370
    15
100
AcDbLine
 10
334.1380025708
 20
1136.7663452417
 30
0.0
 11
308.2175220811
 21
1136.7663452417
 31
0.0
  0
LINE
  5
150
330
1F
100
AcDbEntity
  8
0
  6
Continuous
 62
     7
370
    15
100
AcDbLine
 10
334.1380025708
 20
1135.5663249285
 30
0.0
 11
308.2175220811
 21
1135.5663249285
 31
0.0
  0
ARC
  5
151
330
1F
100
AcDbEntity
  8
0
  6
Continuous
 62
     7
370
    15
100
AcDbCircle
 10
308.2175253652
 20
1162.5163335901
 30
0.0
 40
2.450000000000042
100
AcDbArc
 50
90.0
 51
162.7494449904
  0
ARC
  5
152
330
1F
100
AcDbEntity
  8
0
  6
Continuous
 62
     7
370
    15
100
AcDbCircle
 10
308.2175253652
 20
1162.5163335901
 30
0.0
 40
1.250000000000114
100
AcDbArc
 50
90.0
 51
180.0
  0
LINE
  5
153
330
1F
100
AcDbEntity
  8
0
  6
Continuous
 62
     7
370
    15
100
AcDbLine
 10
306.9675232732
 20
1162.5163266451
 30
0.0
 11
306.9675232732
 21
1138.0163440497
 31
0.0
  0
ARC
  5
154
330
1F
100
AcDbEntity
  8
0
  6
Continuous
 62
     7
370
    15
100
AcDbCircle
 10
308.2175253652
 20
1138.0163335901
 30
0.0
 40
2.449999999999925
100
AcDbArc
 50
197.2505550099
 51
270.0
  0
ARC
  5
155
330
1F
100
AcDbEntity
  8
0
  6
Continuous
 62
     7
370
    15
100
AcDbCircle
 10
308.2175253652
 20
1138.0163335901
 30
0.0
 40
1.25
100
AcDbArc
 50
180.0
 51
270.0
  0
LINE
  5
156
330
1F
100
AcDbEntity
  8
0
  6
Continuous
 62
     7
370
    15
100
AcDbLine
 10
950.4175301158
 20
1213.8163456709
 30
0.0
 11
950.4175301158
 21
1216.2663349898
 31
0.0
  0
LINE
  5
157
330
1F
100
AcDbEntity
  8
0
  6
Continuous
 62
     7
370
    15
100
AcDbLine
 10
1041.7343344056
 20
1216.2663349898
 30
0.0
 11
950.4175301158
 21
1216.2663349898
 31
0.0
  0
LINE
  5
158
330
1F
100
AcDbEntity
  8
0
  6
Continuous
 62
     7
370
    15
100
AcDbLine
 10
1041.7343344056
 20
1216.2663349898
 30
0.0
 11
1041.7343344056
 21
1213.8163456709
 31
0.0
  0
LINE
  5
159
330
1F
100
AcDbEntity
  8
0
  6
Continuous
 62
     7
370
    15
100
AcDbLine
 10
950.4175301158
 20
318.7163481505
 30
0.0
 11
947.9675258958
 21
318.7163481505
 31
0.0
  0
LINE
  5
15A
330
1F
100
AcDbEntity
  8
0
  6
Continuous
 62
     7
370
    15
100
AcDbLine
 10
947.9675258958
 20
1213.8163456709
 30
0.0
 11
947.9675258958
 21
318.7163481505
 31
0.0
  0
LINE
  5
15B
330
1F
100
AcDbEntity
  8
0
  6
Continuous
 62
     7
370
    15
100
AcDbLine
 10
947.9675258958
 20
1213.8163456709
 30
0.0
 11
950.4175301158
 21
1213.8163456709
 31
0.0
  0
LINE
  5
15C
330
1F
100
AcDbEntity
  8
0
  6
Continuous
 62
     7
370
    15
100
AcDbLine
 10
1065.0343264901
 20
1215.0663444788
 30
0.0
 11
1042.2343279683
 21
1215.0663444788
 31
0.0
  0
LINE
  5
15D
330
1F
100
AcDbEntity
  8
0
  6
Continuous
 62
     7
370
    15
100
AcDbLine
 10
1065.0343264901
 20
317.4663195402
 30
0.0
 11
1042.2343279683
 21
317.4663195402
 31
0.0
  0
LINE
  5
15E
330
1F
100
AcDbEntity
  8
0
  6
Continuous
 62
     7
370
    15
100
AcDbLine
 10
1042.2343279683
 20
317.4663195402
 30
0.0
 11
1042.2343279683
 21
318.7163481505
 31
0.0
  0
LINE
  5
15F
330
1F
100
AcDbEntity
  8
0
  6
Continuous
 62
     7
370
    15
100
AcDbLine
 10
1042.2343279683
 20
318.7163481505
 30
0.0
 11
1041.7343344056
 21
318.7163481505
 31
0.0
  0
LINE
  5
160
330
1F
100
AcDbEntity
  8
0
  6
Continuous
 62
     7
370
    15
100
AcDbLine
 10
1042.2343279683
 20
1213.8163456709
 30
0.0
 11
1042.2343279683
 21
1215.0663444788
 31
0.0
  0
LINE
  5
161
330
1F
100
AcDbEntity
  8
0
  6
Continuous
 62
     7
370
    15
100
AcDbLine
 10
1041.7343344056
 20
1213.8163456709
 30
0.0
 11
1042.2343279683
 21
1213.8163456709
 31
0.0
  0
LINE
  5
162
330
1F
100
AcDbEntity
  8
0
  6
Continuous
 62
     7
370
    15
100
AcDbLine
 10
1041.7343344056
 20
318.7163481505
 30
0.0
 11
1041.7343344056
 21
316.2663290293
 31
0.0
  0
LINE
  5
163
330
1F
100
AcDbEntity
  8
0
  6
Continuous
 62
     7
370
    15
100
AcDbLine
 10
950.4175301158
 20
316.2663290293
 30
0.0
 11
1041.7343344056
 21
316.2663290293
 31
0.0
  0
LINE
  5
164
330
1F
100
AcDbEntity
  8
0
  6
Continuous
 62
     7
370
    15
100
AcDbLine
 10
950.4175301158
 20
316.2663290293
 30
0.0
 11
950.4175301158
 21
318.7163481505
 31
0.0
  0
LINE
  5
165
330
1F
100
AcDbEntity
  8
0
  6
Continuous
 62
     7
370
    15
100
AcDbLine
 10
1042.2343279683
 20
1216.2663349898
 30
0.0
 11
1042.2343279683
 21
1215.0663444788
 31
0.0
  0
LINE
  5
166
330
1F
100
AcDbEntity
  8
0
  6
Continuous
 62
     7
370
    15
100
AcDbLine
 10
1042.2343279683
 20
1216.2663349898
 30
0.0
 11
1063.7343193852
 21
1216.2663349898
 31
0.0
  0
LINE
  5
167
330
1F
100
AcDbEntity
  8
0
  6
Continuous
 62
     7
370
    15
100
AcDbLine
 10
1042.2343279683
 20
316.2663290293
 30
0.0
 11
1063.7343193852
 21
316.2663290293
 31
0.0
  0
LINE
  5
168
330
1F
100
AcDbEntity
  8
0
  6
Continuous
 62
     7
370
    15
100
AcDbLine
 10
1042.2343279683
 20
316.2663290293
 30
0.0
 11
1042.2343279683
 21
317.4663195402
 31
0.0
  0
LINE
  5
169
330
1F
100
AcDbEntity
  8
0
  6
Continuous
 62
     7
370
    15
100
AcDbLine
 10
947.9675258958
 20
1215.0663444788
 30
0.0
 11
949.1675313079
 21
1215.0663444788
 31
0.0
  0
LINE
  5
16A
330
1F
100
AcDbEntity
  8
0
  6
Continuous
 62
     7
370
    15
100
AcDbLine
 10
949.1675313079
 20
1215.0663444788
 30
0.0
 11
949.1675313079
 21
1213.8163456709
 31
0.0
  0
LINE
  5
16B
330
1F
100
AcDbEntity
  8
0
  6
Continuous
 62
     7
370
    15
100
AcDbLine
 10
947.9675258958
 20
1215.0663444788
 30
0.0
 11
947.9675258958
 21
1213.8163456709
 31
0.0
  0
LINE
  5
16C
330
1F
100
AcDbEntity
  8
0
  6
Continuous
 62
     7
370
    15
100
AcDbLine
 10
949.1675313079
 20
317.4663195402
 30
0.0
 11
947.9675258958
 21
317.4663195402
 31
0.0
  0
LINE
  5
16D
330
1F
100
AcDbEntity
  8
0
  6
Continuous
 62
     7
370
    15
100
AcDbLine
 10
949.1675313079
 20
318.7163481505
 30
0.0
 11
949.1675313079
 21
317.4663195402
 31
0.0
  0
LINE
  5
16E
330
1F
100
AcDbEntity
  8
0
  6
Continuous
 62
     7
370
    15
100
AcDbLine
 10
947.9675258958
 20
318.7163481505
 30
0.0
 11
947.9675258958
 21
317.4663195402
 31
0.0
  0
LINE
  5
16F
330
1F
100
AcDbEntity
  8
0
  6
Continuous
 62
     7
370
    15
100
AcDbLine
 10
1042.2343279683
 20
1215.0663444788
 30
0.0
 11
1041.7343344056
 21
1215.0663444788
 31
0.0
  0
LINE
  5
170
330
1F
100
AcDbEntity
  8
0
  6
Continuous
 62
     7
370
    15
100
AcDbLine
 10
1042.2343279683
 20
1216.2663349898
 30
0.0
 11
1041.7343344056
 21
1216.2663349898
 31
0.0
  0
LINE
  5
171
330
1F
100
AcDbEntity
  8
0
  6
Continuous
 62
     7
370
    15
100
AcDbLine
 10
949.177529987
 20
1216.2663349898
 30
0.0
 11
949.177529987
 21
1215.0663444788
 31
0.0
  0
LINE
  5
172
330
1F
100
AcDbEntity
  8
0
  6
Continuous
 62
     7
370
    15
100
AcDbLine
 10
950.4175301158
 20
1215.0663444788
 30
0.0
 11
949.177529987
 21
1215.0663444788
 31
0.0
  0
LINE
  5
173
330
1F
100
AcDbEntity
  8
0
  6
Continuous
 62
     7
370
    15
100
AcDbLine
 10
950.4175301158
 20
1216.2663349898
 30
0.0
 11
949.177529987
 21
1216.2663349898
 31
0.0
  0
LINE
  5
174
330
1F
100
AcDbEntity
  8
0
  6
Continuous
 62
     7
370
    15
100
AcDbLine
 10
949.177529987
 20
316.2663290293
 30
0.0
 11
949.177529987
 21
317.4663195402
 31
0.0
  0
LINE
  5
175
330
1F
100
AcDbEntity
  8
0
  6
Continuous
 62
     7
370
    15
100
AcDbLine
 10
950.4175301158
 20
316.2663290293
 30
0.0
 11
949.177529987
 21
316.2663290293
 31
0.0
  0
LINE
  5
176
330
1F
100
AcDbEntity
  8
0
  6
Continuous
 62
     7
370
    15
100
AcDbLine
 10
950.4175301158
 20
317.4663195402
 30
0.0
 11
949.177529987
 21
317.4663195402
 31
0.0
  0
LINE
  5
177
330
1F
100
AcDbEntity
  8
0
  6
Continuous
 62
     7
370
    15
100
AcDbLine
 10
1042.2343279683
 20
316.2663290293
 30
0.0
 11
1041.7343344056
 21
316.2663290293
 31
0.0
  0
LINE
  5
178
330
1F
100
AcDbEntity
  8
0
  6
Continuous
 62
     7
370
    15
100
AcDbLine
 10
1042.2343279683
 20
317.4663195402
 30
0.0
 11
1041.7343344056
 21
317.4663195402
 31
0.0
  0
LINE
  5
179
330
1F
100
AcDbEntity
  8
0
  6
Continuous
 62
     7
370
    15
100
AcDbLine
 10
949.177529987
 20
1215.0663444788
 30
0.0
 11
949.1675313079
 21
1215.0663444788
 31
0.0
  0
LINE
  5
17A
330
1F
100
AcDbEntity
  8
0
  6
Continuous
 62
     7
370
    15
100
AcDbLine
 10
949.177529987
 20
1216.2663349898
 30
0.0
 11
946.7175270879
 21
1216.2663349898
 31
0.0
  0
LINE
  5
17B
330
1F
100
AcDbEntity
  8
0
  6
Continuous
 62
     7
370
    15
100
AcDbLine
 10
949.177529987
 20
316.2663290293
 30
0.0
 11
946.7175270879
 21
316.2663290293
 31
0.0
  0
LINE
  5
17C
330
1F
100
AcDbEntity
  8
0
  6
Continuous
 62
     7
370
    15
100
AcDbLine
 10
949.177529987
 20
317.4663195402
 30
0.0
 11
949.1675313079
 21
317.4663195402
 31
0.0
  0
LINE
  5
17D
330
1F
100
AcDbEntity
  8
0
  6
Continuous
 62
     7
370
    15
100
AcDbLine
 10
947.9675258958
 20
317.4663195402
 30
0.0
 11
946.7175270879
 21
317.4663195402
 31
0.0
  0
LINE
  5
17E
330
1F
100
AcDbEntity
  8
0
  6
Continuous
 62
     7
370
    15
100
AcDbLine
 10
947.9675258958
 20
1215.0663444788
 30
0.0
 11
946.7175270879
 21
1215.0663444788
 31
0.0
  0
LINE
  5
17F
330
1F
100
AcDbEntity
  8
0
  6
Continuous
 62
     7
370
    15
100
AcDbLine
 10
922.4675263726
 20
1215.0663444788
 30
0.0
 11
922.4675263726
 21
1211.2663397581
 31
0.0
  0
LINE
  5
180
330
1F
100
AcDbEntity
  8
0
  6
Continuous
 62
     7
370
    15
100
AcDbLine
 10
922.4675263726
 20
321.2663242609
 30
0.0
 11
922.4675263726
 21
317.4663195402
 31
0.0
  0
LINE
  5
181
330
1F
100
AcDbEntity
  8
0
  6
Continuous
 62
     7
370
    15
100
AcDbLine
 10
924.9175305926
 20
1215.0663444788
 30
0.0
 11
922.4675263726
 21
1215.0663444788
 31
0.0
  0
LINE
  5
182
330
1F
100
AcDbEntity
  8
0
  6
Continuous
 62
     7
370
    15
100
AcDbLine
 10
924.9175305926
 20
317.4663195402
 30
0.0
 11
922.4675263726
 21
317.4663195402
 31
0.0
  0
LINE
  5
183
330
1F
100
AcDbEntity
  8
0
  6
Continuous
 62
     7
370
    15
100
AcDbLine
 10
946.7175270879
 20
317.4663195402
 30
0.0
 11
924.9175305926
 21
317.4663195402
 31
0.0
  0
LINE
  5
184
330
1F
100
AcDbEntity
  8
0
  6
Continuous
 62
     7
370
    15
100
AcDbLine
 10
946.7175270879
 20
1215.0663444788
 30
0.0
 11
924.9175305926
 21
1215.0663444788
 31
0.0
  0
LINE
  5
185
330
1F
100
AcDbEntity
  8
0
  6
Continuous
 62
     7
370
    15
100
AcDbLine
 10
923.6775304639
 20
1216.2663349898
 30
0.0
 11
923.6775304639
 21
1215.0663444788
 31
0.0
  0
LINE
  5
186
330
1F
100
AcDbEntity
  8
0
  6
Continuous
 62
     7
370
    15
100
AcDbLine
 10
924.9175305926
 20
1216.2663349898
 30
0.0
 11
923.6775304639
 21
1216.2663349898
 31
0.0
  0
LINE
  5
187
330
1F
100
AcDbEntity
  8
0
  6
Continuous
 62
     7
370
    15
100
AcDbLine
 10
946.7175270879
 20
1216.2663349898
 30
0.0
 11
924.9175305926
 21
1216.2663349898
 31
0.0
  0
LINE
  5
188
330
1F
100
AcDbEntity
  8
0
  6
Continuous
 62
     7
370
    15
100
AcDbLine
 10
946.7175270879
 20
316.2663290293
 30
0.0
 11
924.9175305926
 21
316.2663290293
 31
0.0
  0
LINE
  5
189
330
1F
100
AcDbEntity
  8
0
  6
Continuous
 62
     7
370
    15
100
AcDbLine
 10
923.6775304639
 20
316.2663290293
 30
0.0
 11
923.6775304639
 21
317.4663195402
 31
0.0
  0
LINE
  5
18A
330
1F
100
AcDbEntity
  8
0
  6
Continuous
 62
     7
370
    15
100
AcDbLine
 10
924.9175305926
 20
316.2663290293
 30
0.0
 11
923.6775304639
 21
316.2663290293
 31
0.0
  0
LINE
  5
18B
330
1F
100
AcDbEntity
  8
0
  6
Continuous
 62
     7
370
    15
100
AcDbLine
 10
298.467513498
 20
1216.2663349898
 30
0.0
 11
298.467513498
 21
316.2663290293
 31
0.0
  0
LINE
  5
18C
330
1F
100
AcDbEntity
  8
0
  6
Continuous
 62
     7
370
    15
100
AcDbLine
 10
298.467513498
 20
1216.2663349898
 30
0.0
 11
301.0480965936
 21
1216.2663349898
 31
0.0
  0
LINE
  5
18D
330
1F
100
AcDbEntity
  8
0
  6
Continuous
 62
     7
370
    15
100
AcDbLine
 10
298.467513498
 20
316.2663290293
 30
0.0
 11
301.0480965936
 21
316.2663290293
 31
0.0
  0
ARC
  5
18E
330
1F
100
AcDbEntity
  8
0
  6
Continuous
 62
     7
370
    15
100
AcDbCircle
 10
329.3675536856
 20
800.7497980526
 30
0.0
 40
5.000833578336792
100
AcDbArc
 50
5.5351888234
 51
61.7838724164
  0
LINE
  5
18F
330
1F
100
AcDbEntity
  8
0
  6
Continuous
 62
     7
370
    15
100
AcDbLine
 10
331.7319418752
 20
805.1563845963
 30
0.0
 11
312.8963674866
 21
815.0716396064
 31
0.0
  0
ARC
  5
190
330
1F
100
AcDbEntity
  8
0
  6
Continuous
 62
     7
370
    15
100
AcDbCircle
 10
310.7171602587
 20
810.7485684177
 30
0.0
 40
4.841269321723099
100
AcDbArc
 50
63.2478867028
 51
181.584357444
  0
LINE
  5
191
330
1F
100
AcDbEntity
  8
0
  6
Continuous
 62
     7
370
    15
100
AcDbLine
 10
305.8777417504
 20
810.6147134692
 30
0.0
 11
305.8777417504
 21
731.8332092852
 31
0.0
  0
ARC
  5
192
330
1F
100
AcDbEntity
  8
0
  6
Continuous
 62
     7
370
    15
100
AcDbCircle
 10
310.8986160996
 20
731.7972322849
 30
0.0
 40
5.021003243901556
100
AcDbArc
 50
179.5894549723
 51
241.7016726277
  0
LINE
  5
193
330
1F
100
AcDbEntity
  8
0
  6
Continuous
 62
     7
370
    15
100
AcDbLine
 10
308.5183467233
 20
727.376283148
 30
0.0
 11
327.3538913094
 21
717.4610281379
 31
0.0
  0
ARC
  5
194
330
1F
100
AcDbEntity
  8
0
  6
Continuous
 62
     7
370
    15
100
AcDbCircle
 10
329.5376499922
 20
721.760223719
 30
0.0
 40
4.822020803501808
100
AcDbArc
 50
243.0718952987
 51
355.5400058527
  0
ARC
  5
195
330
1F
100
AcDbEntity
  8
0
  6
Continuous
 62
     7
370
    15
100
AcDbCircle
 10
329.3675609871
 20
700.7498009666
 30
0.0
 40
5.000826245361367
100
AcDbArc
 50
5.5351891508
 51
61.783922274
  0
LINE
  5
196
330
1F
100
AcDbEntity
  8
0
  6
Continuous
 62
     7
370
    15
100
AcDbLine
 10
331.7319418752
 20
705.1563831062
 30
0.0
 11
312.8963674866
 21
715.0716381163
 31
0.0
  0
ARC
  5
197
330
1F
100
AcDbEntity
  8
0
  6
Continuous
 62
     7
370
    15
100
AcDbCircle
 10
310.717157251
 20
710.7485716639
 30
0.0
 40
4.84126644618433
100
AcDbArc
 50
63.2478296861
 51
181.5844144607
  0
LINE
  5
198
330
1F
100
AcDbEntity
  8
0
  6
Continuous
 62
     7
370
    15
100
AcDbLine
 10
305.8777417504
 20
710.6147119791
 30
0.0
 11
305.8777417504
 21
631.8332115204
 31
0.0
  0
ARC
  5
199
330
1F
100
AcDbEntity
  8
0
  6
Continuous
 62
     7
370
    15
100
AcDbCircle
 10
310.8986030232
 20
631.7972304679
 30
0.0
 40
5.020990196794734
100
AcDbArc
 50
179.5894076632
 51
241.70176194
  0
LINE
  5
19A
330
1F
100
AcDbEntity
  8
0
  6
Continuous
 62
     7
370
    15
100
AcDbLine
 10
308.5183467233
 20
627.3762891085
 30
0.0
 11
327.3538913094
 21
617.4610266478
 31
0.0
  0
ARC
  5
19B
330
1F
100
AcDbEntity
  8
0
  6
Continuous
 62
     7
370
    15
100
AcDbCircle
 10
329.5376508027
 20
621.7602207849
 30
0.0
 40
4.822019883111504
100
AcDbArc
 50
243.0718789414
 51
355.54002221
  0
ARC
  5
19C
330
1F
100
AcDbEntity
  8
0
  6
Continuous
 62
     7
370
    15
100
AcDbCircle
 10
329.3675896661
 20
600.7498153064
 30
0.0
 40
5.000795454633603
100
AcDbArc
 50
5.5349553573
 51
61.7841058825
  0
LINE
  5
19D
330
1F
100
AcDbEntity
  8
0
  6
Continuous
 62
     7
370
    15
100
AcDbLine
 10
331.7319418752
 20
605.1563778908
 30
0.0
 11
312.8963674866
 21
615.0716403515
 31
0.0
  0
ARC
  5
19E
330
1F
100
AcDbEntity
  8
0
  6
Continuous
 62
     7
370
    15
100
AcDbCircle
 10
310.7171593418
 20
610.7485707186
 30
0.0
 40
4.841268345163242
100
AcDbArc
 50
63.2478687244
 51
181.5843320786
  0
LINE
  5
19F
330
1F
100
AcDbEntity
  8
0
  6
Continuous
 62
     7
370
    15
100
AcDbLine
 10
305.8777417504
 20
610.6147179396
 30
0.0
 11
305.8777417504
 21
531.8332025797
 31
0.0
  0
ARC
  5
1A0
330
1F
100
AcDbEntity
  8
0
  6
Continuous
 62
     7
370
    15
100
AcDbCircle
 10
310.8986290505
 20
531.7972369477
 30
0.0
 40
5.021016112986432
100
AcDbArc
 50
179.5895857532
 51
241.70158385
  0
LINE
  5
1A1
330
1F
100
AcDbEntity
  8
0
  6
Continuous
 62
     7
370
    15
100
AcDbLine
 10
308.5183467233
 20
527.3762801678
 30
0.0
 11
327.3538913094
 21
517.4610326082
 31
0.0
  0
ARC
  5
1A2
330
1F
100
AcDbEntity
  8
0
  6
Continuous
 62
     7
370
    15
100
AcDbCircle
 10
329.5376549466
 20
521.7602193628
 30
0.0
 40
4.822015177700757
100
AcDbArc
 50
243.071795316
 51
355.5401058354
  0
ARC
  5
1A3
330
1F
100
AcDbEntity
  8
0
  6
Continuous
 62
     7
370
    15
100
AcDbCircle
 10
329.3675033909
 20
500.7497787176
 30
0.0
 40
5.000886869015592
100
AcDbArc
 50
5.5355151639
 51
61.7835460759
  0
LINE
  5
1A4
330
1F
100
AcDbEntity
  8
0
  6
Continuous
 62
     7
370
    15
100
AcDbLine
 10
331.7319418752
 20
505.1563987524
 30
0.0
 11
312.8963674866
 21
515.0716314108
 31
0.0
  0
ARC
  5
1A5
330
1F
100
AcDbEntity
  8
0
  6
Continuous
 62
     7
370
    15
100
AcDbCircle
 10
310.7171593229
 20
510.7485622551
 30
0.0
 40
4.841267927545046
100
AcDbArc
 50
63.2478659831
 51
181.584161444
  0
LINE
  5
1A6
330
1F
100
AcDbEntity
  8
0
  6
Continuous
 62
     7
370
    15
100
AcDbLine
 10
305.8777417504
 20
510.6147239
 30
0.0
 11
305.8777417504
 21
431.8332085402
 31
0.0
  0
ARC
  5
1A7
330
1F
100
AcDbEntity
  8
0
  6
Continuous
 62
     7
370
    15
100
AcDbCircle
 10
310.8986734499
 20
431.7972544326
 30
0.0
 40
5.021060428746545
100
AcDbArc
 50
179.5897208858
 51
241.7012807048
  0
LINE
  5
1A8
330
1F
100
AcDbEntity
  8
0
  6
Continuous
 62
     7
370
    15
100
AcDbLine
 10
308.5183467233
 20
427.3762712271
 30
0.0
 11
327.3538913094
 21
417.4610385687
 31
0.0
  0
ARC
  5
1A9
330
1F
100
AcDbEntity
  8
0
  6
Continuous
 62
     7
370
    15
100
AcDbCircle
 10
329.5376508027
 20
421.7602327058
 30
0.0
 40
4.8220198831115
100
AcDbArc
 50
243.0718789414
 51
355.54002221
  0
ARC
  5
1AA
330
1F
100
AcDbEntity
  8
0
  6
Continuous
 62
     7
370
    15
100
AcDbCircle
 10
329.3676047791
 20
400.7498223898
 30
0.0
 40
5.000779441422283
100
AcDbArc
 50
5.5348572926
 51
61.7842039472
  0
LINE
  5
1AB
330
1F
100
AcDbEntity
  8
0
  6
Continuous
 62
     7
370
    15
100
AcDbLine
 10
331.7319418752
 20
405.1563749106
 30
0.0
 11
312.8963674866
 21
415.0716373713
 31
0.0
  0
ARC
  5
1AC
330
1F
100
AcDbEntity
  8
0
  6
Continuous
 62
     7
370
    15
100
AcDbCircle
 10
310.7171593606
 20
410.7485672611
 30
0.0
 40
4.841268762830668
100
AcDbArc
 50
63.247871466
 51
181.5845027124
  0
LINE
  5
1AD
330
1F
100
AcDbEntity
  8
0
  6
Continuous
 62
     7
370
    15
100
AcDbLine
 10
305.8777417504
 20
410.6147000582
 30
0.0
 11
305.8777417504
 21
341.2663349898
 31
0.0
  0
ARC
  5
1AE
330
1F
100
AcDbEntity
  8
0
  6
Continuous
 62
     7
370
    15
100
AcDbCircle
 10
310.7940215879
 20
341.182569349
 30
0.0
 40
4.916993402795605
100
AcDbArc
 50
179.0238648969
 51
268.9900807602
  0
LINE
  5
1AF
330
1F
100
AcDbEntity
  8
0
  6
Continuous
 62
     7
370
    15
100
AcDbLine
 10
310.707357105
 20
336.2663397581
 30
0.0
 11
329.5429016911
 21
336.2663397581
 31
0.0
  0
ARC
  5
1B0
330
1F
100
AcDbEntity
  8
0
  6
Continuous
 62
     7
370
    15
100
AcDbCircle
 10
329.4685181456
 20
341.1610193012
 30
0.0
 40
4.895244706984237
100
AcDbArc
 50
270.8706464131
 51
354.9911630343
  0
LINE
  5
1B1
330
1F
100
AcDbEntity
  8
0
  6
Continuous
 62
     7
370
    15
100
AcDbLine
 10
301.0480965936
 20
316.2663290293
 30
0.0
 11
334.3450691068
 21
316.2663290293
 31
0.0
  0
ARC
  5
1B2
330
1F
100
AcDbEntity
  8
0
  6
Continuous
 62
     7
370
    15
100
AcDbCircle
 10
329.4685181456
 20
1191.3716447178
 30
0.0
 40
4.895244706984244
100
AcDbArc
 50
5.0088369657
 51
89.1293535869
  0
LINE
  5
1B3
330
1F
100
AcDbEntity
  8
0
  6
Continuous
 62
     7
370
    15
100
AcDbLine
 10
329.5429016911
 20
1196.2663242609
 30
0.0
 11
310.707357105
 21
1196.2663242609
 31
0.0
  0
ARC
  5
1B4
330
1F
100
AcDbEntity
  8
0
  6
Continuous
 62
     7
370
    15
100
AcDbCircle
 10
310.7940215879
 20
1191.35009467
 30
0.0
 40
4.916993402795719
100
AcDbArc
 50
91.0099192398
 51
180.9761351031
  0
LINE
  5
1B5
330
1F
100
AcDbEntity
  8
0
  6
Continuous
 62
     7
370
    15
100
AcDbLine
 10
305.8777417504
 20
1191.2663290293
 30
0.0
 11
305.8777417504
 21
1131.8331966192
 31
0.0
  0
ARC
  5
1B6
330
1F
100
AcDbEntity
  8
0
  6
Continuous
 62
     7
370
    15
100
AcDbCircle
 10
310.8985846519
 20
1131.7972194631
 30
0.0
 40
5.020971798051708
100
AcDbArc
 50
179.5894506222
 51
241.7018869944
  0
LINE
  5
1B7
330
1F
100
AcDbEntity
  8
0
  6
Continuous
 62
     7
370
    15
100
AcDbLine
 10
308.5183467233
 20
1127.3762891085
 30
0.0
 11
327.3538913094
 21
1117.4610266478
 31
0.0
  0
ARC
  5
1B8
330
1F
100
AcDbEntity
  8
0
  6
Continuous
 62
     7
370
    15
100
AcDbCircle
 10
329.5376508027
 20
1121.7602207849
 30
0.0
 40
4.822019883111495
100
AcDbArc
 50
243.0718789414
 51
355.54002221
  0
ARC
  5
1B9
330
1F
100
AcDbEntity
  8
0
  6
Continuous
 62
     7
370
    15
100
AcDbCircle
 10
329.3675354948
 20
1100.749794135
 30
0.0
 40
5.000852852736224
100
AcDbArc
 50
5.5353068565
 51
61.7837543833
  0
LINE
  5
1BA
330
1F
100
AcDbEntity
  8
0
  6
Continuous
 62
     7
370
    15
100
AcDbLine
 10
331.7319418752
 20
1105.156392792
 30
0.0
 11
312.8963674866
 21
1115.0716254503
 31
0.0
  0
ARC
  5
1BB
330
1F
100
AcDbEntity
  8
0
  6
Continuous
 62
     7
370
    15
100
AcDbCircle
 10
310.7171500304
 20
1110.7485709282
 30
0.0
 40
4.841259043181529
100
AcDbArc
 50
63.2476898222
 51
181.5843376049
  0
LINE
  5
1BC
330
1F
100
AcDbEntity
  8
0
  6
Continuous
 62
     7
370
    15
100
AcDbLine
 10
305.8777417504
 20
1110.6147179396
 30
0.0
 11
305.8777417504
 21
1031.8332025797
 31
0.0
  0
ARC
  5
1BD
330
1F
100
AcDbEntity
  8
0
  6
Continuous
 62
     7
370
    15
100
AcDbCircle
 10
310.8985632425
 20
1031.797212739
 30
0.0
 40
5.020950480123984
100
AcDbArc
 50
179.589304128
 51
241.7020334886
  0
LINE
  5
1BE
330
1F
100
AcDbEntity
  8
0
  6
Continuous
 62
     7
370
    15
100
AcDbLine
 10
308.5183467233
 20
1027.3762950689
 30
0.0
 11
327.3538913094
 21
1017.4610326082
 31
0.0
  0
ARC
  5
1BF
330
1F
100
AcDbEntity
  8
0
  6
Continuous
 62
     7
370
    15
100
AcDbCircle
 10
329.5376508027
 20
1021.7602267453
 30
0.0
 40
4.822019883111595
100
AcDbArc
 50
243.0718789414
 51
355.54002221
  0
ARC
  5
1C0
330
1F
100
AcDbEntity
  8
0
  6
Continuous
 62
     7
370
    15
100
AcDbCircle
 10
329.3675701375
 20
1000.7498082628
 30
0.0
 40
5.000816146426544
100
AcDbArc
 50
5.5350820725
 51
61.7839791673
  0
LINE
  5
1C1
330
1F
100
AcDbEntity
  8
0
  6
Continuous
 62
     7
370
    15
100
AcDbLine
 10
331.7319418752
 20
1005.1563838513
 30
0.0
 11
312.8963674866
 21
1015.0716314108
 31
0.0
  0
ARC
  5
1C2
330
1F
100
AcDbEntity
  8
0
  6
Continuous
 62
     7
370
    15
100
AcDbCircle
 10
310.7171473112
 20
1010.7485807232
 30
0.0
 40
4.84125684307224
100
AcDbArc
 50
63.2476406576
 51
181.5845601453
  0
LINE
  5
1C3
330
1F
100
AcDbEntity
  8
0
  6
Continuous
 62
     7
370
    15
100
AcDbLine
 10
305.8777417504
 20
1010.6147089989
 30
0.0
 11
305.8777417504
 21
931.8332085402
 31
0.0
  0
ARC
  5
1C4
330
1F
100
AcDbEntity
  8
0
  6
Continuous
 62
     7
370
    15
100
AcDbCircle
 10
310.8986030232
 20
931.7972274876
 30
0.0
 40
5.020990196794734
100
AcDbArc
 50
179.5894076632
 51
241.70176194
  0
LINE
  5
1C5
330
1F
100
AcDbEntity
  8
0
  6
Continuous
 62
     7
370
    15
100
AcDbLine
 10
308.5183467233
 20
927.3762861282
 30
0.0
 11
327.3538913094
 21
917.4610236675
 31
0.0
  0
ARC
  5
1C6
330
1F
100
AcDbEntity
  8
0
  6
Continuous
 62
     7
370
    15
100
AcDbCircle
 10
329.5376434166
 20
921.7602309634
 30
0.0
 40
4.822028270165116
100
AcDbArc
 50
243.0720279967
 51
355.5398731546
  0
ARC
  5
1C7
330
1F
100
AcDbEntity
  8
0
  6
Continuous
 62
     7
370
    15
100
AcDbCircle
 10
329.3675194431
 20
900.749780466
 30
0.0
 40
5.000869860622734
100
AcDbArc
 50
5.5354110091
 51
61.7836502307
  0
LINE
  5
1C8
330
1F
100
AcDbEntity
  8
0
  6
Continuous
 62
     7
370
    15
100
AcDbLine
 10
331.7319418752
 20
905.1563898117
 30
0.0
 11
312.8963674866
 21
915.0716373713
 31
0.0
  0
ARC
  5
1C9
330
1F
100
AcDbEntity
  8
0
  6
Continuous
 62
     7
370
    15
100
AcDbCircle
 10
310.7171593418
 20
910.7485677383
 30
0.0
 40
4.841268345163242
100
AcDbArc
 50
63.2478687244
 51
181.5843320786
  0
LINE
  5
1CA
330
1F
100
AcDbEntity
  8
0
  6
Continuous
 62
     7
370
    15
100
AcDbLine
 10
305.8777417504
 20
910.6147149593
 30
0.0
 11
305.8777417504
 21
831.83320705
 31
0.0
  0
ARC
  5
1CB
330
1F
100
AcDbEntity
  8
0
  6
Continuous
 62
     7
370
    15
100
AcDbCircle
 10
310.8986226065
 20
831.7972339049
 30
0.0
 40
5.021009722950695
100
AcDbArc
 50
179.5894994948
 51
241.7016281052
  0
LINE
  5
1CC
330
1F
100
AcDbEntity
  8
0
  6
Continuous
 62
     7
370
    15
100
AcDbLine
 10
308.5183467233
 20
827.3762809128
 30
0.0
 11
327.3538913094
 21
817.461029628
 31
0.0
  0
ARC
  5
1CD
330
1F
100
AcDbEntity
  8
0
  6
Continuous
 62
     7
370
    15
100
AcDbCircle
 10
329.5376518387
 20
821.7602219195
 30
0.0
 40
4.822018706753107
100
AcDbArc
 50
243.071858035
 51
355.5400431164
  0
LINE
  5
1CE
330
1F
100
AcDbEntity
  8
0
  6
Continuous
 62
     7
370
    15
100
AcDbLine
 10
301.0480965936
 20
1216.2663349898
 30
0.0
 11
334.3450691068
 21
1216.2663349898
 31
0.0
  0
LWPOLYLINE
  5
1CF
330
1F
100
AcDbEntity
  8
0
  6
Continuous
 62
     7
370
    15
100
AcDbPolyline
 90
        3
 70
   128
 43
0.0
 10
312.689330753
 20
1115.0716254503
 10
311.5318979585
 20
1115.4993185789
 10
310.603823837
 20
1115.6135508806
  0
LWPOLYLINE
  5
1D0
330
1F
100
AcDbEntity
  8
0
  6
Continuous
 62
     7
370
    15
100
AcDbPolyline
 90
        3
 70
   128
 43
0.0
 10
312.689330753
 20
1015.0716314108
 10
311.5318979585
 20
1015.4993245394
 10
310.603823837
 20
1015.6135568411
  0
LWPOLYLINE
  5
1D1
330
1F
100
AcDbEntity
  8
0
  6
Continuous
 62
     7
370
    15
100
AcDbPolyline
 90
        3
 70
   128
 43
0.0
 10
312.689330753
 20
915.0716373713
 10
311.5318979585
 20
915.4993304999
 10
310.603823837
 20
915.6135628016
  0
LWPOLYLINE
  5
1D2
330
1F
100
AcDbEntity
  8
0
  6
Continuous
 62
     7
370
    15
100
AcDbPolyline
 90
        3
 70
   128
 43
0.0
 10
312.689330753
 20
815.0716396064
 10
311.5318979585
 20
815.4993252844
 10
310.603823837
 20
815.6135650367
  0
LWPOLYLINE
  5
1D3
330
1F
100
AcDbEntity
  8
0
  6
Continuous
 62
     7
370
    15
100
AcDbPolyline
 90
        3
 70
   128
 43
0.0
 10
312.689330753
 20
715.0716381163
 10
311.5318979585
 20
715.4993237943
 10
310.603823837
 20
715.6135635466
  0
LWPOLYLINE
  5
1D4
330
1F
100
AcDbEntity
  8
0
  6
Continuous
 62
     7
370
    15
100
AcDbPolyline
 90
        3
 70
   128
 43
0.0
 10
312.689330753
 20
615.0716403515
 10
311.5318979585
 20
615.4993185789
 10
310.603823837
 20
615.6135657818
  0
LWPOLYLINE
  5
1D5
330
1F
100
AcDbEntity
  8
0
  6
Continuous
 62
     7
370
    15
100
AcDbPolyline
 90
        3
 70
   128
 43
0.0
 10
312.689330753
 20
515.0716314108
 10
311.5318979585
 20
515.4993245394
 10
310.603823837
 20
515.6135568411
  0
LWPOLYLINE
  5
1D6
330
1F
100
AcDbEntity
  8
0
  6
Continuous
 62
     7
370
    15
100
AcDbPolyline
 90
        3
 70
   128
 43
0.0
 10
312.689330753
 20
415.0716373713
 10
311.5318979585
 20
415.4993304999
 10
310.603823837
 20
415.6135628016
  0
LINE
  5
1D7
330
1F
100
AcDbEntity
  8
0
  6
Continuous
 62
     7
370
    15
100
AcDbLine
 10
331.5248753392
 20
1105.156392792
 30
0.0
 11
312.689330753
 21
1115.0716254503
 31
0.0
  0
LINE
  5
1D8
330
1F
100
AcDbEntity
  8
0
  6
Continuous
 62
     7
370
    15
100
AcDbLine
 10
331.5248753392
 20
1005.1563838513
 30
0.0
 11
312.689330753
 21
1015.0716314108
 31
0.0
  0
LINE
  5
1D9
330
1F
100
AcDbEntity
  8
0
  6
Continuous
 62
     7
370
    15
100
AcDbLine
 10
331.5248753392
 20
905.1563898117
 30
0.0
 11
312.689330753
 21
915.0716373713
 31
0.0
  0
LINE
  5
1DA
330
1F
100
AcDbEntity
  8
0
  6
Continuous
 62
     7
370
    15
100
AcDbLine
 10
331.5248753392
 20
805.1563845963
 30
0.0
 11
312.689330753
 21
815.0716396064
 31
0.0
  0
LINE
  5
1DB
330
1F
100
AcDbEntity
  8
0
  6
Continuous
 62
     7
370
    15
100
AcDbLine
 10
331.5248753392
 20
705.1563831062
 30
0.0
 11
312.689330753
 21
715.0716381163
 31
0.0
  0
LINE
  5
1DC
330
1F
100
AcDbEntity
  8
0
  6
Continuous
 62
     7
370
    15
100
AcDbLine
 10
331.5248753392
 20
605.1563778908
 30
0.0
 11
312.689330753
 21
615.0716403515
 31
0.0
  0
LINE
  5
1DD
330
1F
100
AcDbEntity
  8
0
  6
Continuous
 62
     7
370
    15
100
AcDbLine
 10
331.5248753392
 20
505.1563987524
 30
0.0
 11
312.689330753
 21
515.0716314108
 31
0.0
  0
LINE
  5
1DE
330
1F
100
AcDbEntity
  8
0
  6
Continuous
 62
     7
370
    15
100
AcDbLine
 10
331.5248753392
 20
405.1563749106
 30
0.0
 11
312.689330753
 21
415.0716373713
 31
0.0
  0
LINE
  5
1DF
330
1F
100
AcDbEntity
  8
0
  6
Continuous
 62
     7
370
    15
100
AcDbLine
 10
334.372546848
 20
1021.917940119
 30
0.0
 11
334.3450691068
 21
1021.3852534086
 31
0.0
  0
ARC
  5
1E0
330
1F
100
AcDbEntity
  8
0
  6
Continuous
 62
     7
370
    15
100
AcDbCircle
 10
328.9994804912
 20
1021.9173674137
 30
0.0
 40
5.165999852606917
100
AcDbArc
 50
354.0878711733
 51
0.0063518384
  0
ARC
  5
1E1
330
1F
100
AcDbEntity
  8
0
  6
Continuous
 62
     7
370
    15
100
AcDbCircle
 10
329.2575184777
 20
1021.8151075141
 30
0.0
 40
4.899377464000155
100
AcDbArc
 50
272.1274819174
 51
354.9665985736
  0
LINE
  5
1E2
330
1F
100
AcDbEntity
  8
0
  6
Continuous
 62
     7
370
    15
100
AcDbLine
 10
334.372546848
 20
1121.9179639609
 30
0.0
 11
334.3450691068
 21
1121.3852474482
 31
0.0
  0
ARC
  5
1E3
330
1F
100
AcDbEntity
  8
0
  6
Continuous
 62
     7
370
    15
100
AcDbCircle
 10
328.998325389
 20
1121.9174210668
 30
0.0
 40
5.167154951605723
100
AcDbArc
 50
354.0885329619
 51
0.0060198581
  0
ARC
  5
1E4
330
1F
100
AcDbEntity
  8
0
  6
Continuous
 62
     7
370
    15
100
AcDbCircle
 10
329.2574984064
 20
1121.8151226696
 30
0.0
 40
4.899399310559078
100
AcDbArc
 50
272.127707311
 51
354.96637318
  0
LINE
  5
1E5
330
1F
100
AcDbEntity
  8
0
  6
Continuous
 62
     7
370
    15
100
AcDbLine
 10
334.372546848
 20
921.9179609806
 30
0.0
 11
334.3450691068
 21
921.3852444679
 31
0.0
  0
ARC
  5
1E6
330
1F
100
AcDbEntity
  8
0
  6
Continuous
 62
     7
370
    15
100
AcDbCircle
 10
328.9989019814
 20
921.9173883457
 30
0.0
 40
5.166578362417348
100
AcDbArc
 50
354.0882024729
 51
0.0063503472
  0
ARC
  5
1E7
330
1F
100
AcDbEntity
  8
0
  6
Continuous
 62
     7
370
    15
100
AcDbCircle
 10
329.2574753883
 20
921.8151439057
 30
0.0
 40
4.899424364749256
100
AcDbArc
 50
272.1279657948
 51
354.9661146963
  0
LINE
  5
1E8
330
1F
100
AcDbEntity
  8
0
  6
Continuous
 62
     7
370
    15
100
AcDbLine
 10
334.372546848
 20
821.9179557652
 30
0.0
 11
334.3450691068
 21
821.3852504284
 31
0.0
  0
ARC
  5
1E9
330
1F
100
AcDbEntity
  8
0
  6
Continuous
 62
     7
370
    15
100
AcDbCircle
 10
328.9989027404
 20
821.9173942551
 30
0.0
 40
5.166577602135597
100
AcDbArc
 50
354.088202169
 51
0.0062269772
  0
ARC
  5
1EA
330
1F
100
AcDbEntity
  8
0
  6
Continuous
 62
     7
370
    15
100
AcDbCircle
 10
329.2574861607
 20
821.815138533
 30
0.0
 40
4.899412639420241
100
AcDbArc
 50
272.1278448252
 51
354.9662356659
  0
LINE
  5
1EB
330
1F
100
AcDbEntity
  8
0
  6
Continuous
 62
     7
370
    15
100
AcDbLine
 10
334.372546848
 20
721.9179542751
 30
0.0
 11
334.3450691068
 21
721.3852489383
 31
0.0
  0
ARC
  5
1EC
330
1F
100
AcDbEntity
  8
0
  6
Continuous
 62
     7
370
    15
100
AcDbCircle
 10
328.9988549096
 20
721.9173952321
 30
0.0
 40
5.16662543270943
100
AcDbArc
 50
354.0882295867
 51
0.0061995595
  0
ARC
  5
1ED
330
1F
100
AcDbEntity
  8
0
  6
Continuous
 62
     7
370
    15
100
AcDbCircle
 10
329.2574836518
 20
721.8151396823
 30
0.0
 40
4.899415370246651
100
AcDbArc
 50
272.127872999
 51
354.966207492
  0
LINE
  5
1EE
330
1F
100
AcDbEntity
  8
0
  6
Continuous
 62
     7
370
    15
100
AcDbLine
 10
334.372546848
 20
621.9179490597
 30
0.0
 11
334.3450691068
 21
621.3852474482
 31
0.0
  0
ARC
  5
1EF
330
1F
100
AcDbEntity
  8
0
  6
Continuous
 62
     7
370
    15
100
AcDbCircle
 10
328.998902991
 20
621.917391258
 30
0.0
 40
5.166577351136208
100
AcDbArc
 50
354.0882020685
 51
0.006185852
  0
ARC
  5
1F0
330
1F
100
AcDbEntity
  8
0
  6
Continuous
 62
     7
370
    15
100
AcDbCircle
 10
329.2574753883
 20
621.8151468859
 30
0.0
 40
4.899424364749256
100
AcDbArc
 50
272.1279657948
 51
354.9661146963
  0
LINE
  5
1F1
330
1F
100
AcDbEntity
  8
0
  6
Continuous
 62
     7
370
    15
100
AcDbLine
 10
334.372546848
 20
521.9179550202
 30
0.0
 11
334.3450691068
 21
521.3852534086
 31
0.0
  0
ARC
  5
1F2
330
1F
100
AcDbEntity
  8
0
  6
Continuous
 62
     7
370
    15
100
AcDbCircle
 10
328.998902991
 20
521.9173972185
 30
0.0
 40
5.166577351136208
100
AcDbArc
 50
354.0882020685
 51
0.006185852
  0
ARC
  5
1F3
330
1F
100
AcDbEntity
  8
0
  6
Continuous
 62
     7
370
    15
100
AcDbCircle
 10
329.2574999578
 20
521.815126998
 30
0.0
 40
4.899397621999539
100
AcDbArc
 50
272.1276898901
 51
354.966390601
  0
LINE
  5
1F4
330
1F
100
AcDbEntity
  8
0
  6
Continuous
 62
     7
370
    15
100
AcDbLine
 10
334.372546848
 20
421.9179460795
 30
0.0
 11
334.3450691068
 21
421.3852593691
 31
0.0
  0
ARC
  5
1F5
330
1F
100
AcDbEntity
  8
0
  6
Continuous
 62
     7
370
    15
100
AcDbCircle
 10
328.9994804912
 20
421.9173733742
 30
0.0
 40
5.165999852606917
100
AcDbArc
 50
354.0878711733
 51
0.0063518384
  0
ARC
  5
1F6
330
1F
100
AcDbEntity
  8
0
  6
Continuous
 62
     7
370
    15
100
AcDbCircle
 10
329.2575184777
 20
421.8151134746
 30
0.0
 40
4.899377464000088
100
AcDbArc
 50
272.1274819174
 51
354.9665985737
  0
LINE
  5
1F7
330
1F
100
AcDbEntity
  8
0
  6
Continuous
 62
     7
370
    15
100
AcDbLine
 10
334.3450691068
 20
1191.799045542
 30
0.0
 11
334.372546848
 21
1191.2663290293
 31
0.0
  0
ARC
  5
1F8
330
1F
100
AcDbEntity
  8
0
  6
Continuous
 62
     7
370
    15
100
AcDbCircle
 10
328.998325389
 20
1191.2668719234
 30
0.0
 40
5.167154951605738
100
AcDbArc
 50
359.9939801419
 51
5.9114670381
  0
ARC
  5
1F9
330
1F
100
AcDbEntity
  8
0
  6
Continuous
 62
     7
370
    15
100
AcDbCircle
 10
329.2614954901
 20
1191.3716923838
 30
0.0
 40
4.895196832583433
100
AcDbArc
 50
5.0083260319
 51
89.1295098681
  0
LINE
  5
1FA
330
1F
100
AcDbEntity
  8
0
  6
Continuous
 62
     7
370
    15
100
AcDbLine
 10
334.372546848
 20
341.2663349898
 30
0.0
 11
334.3450691068
 21
340.7336184771
 31
0.0
  0
ARC
  5
1FB
330
1F
100
AcDbEntity
  8
0
  6
Continuous
 62
     7
370
    15
100
AcDbCircle
 10
328.998325389
 20
341.2657920957
 30
0.0
 40
5.167154951605723
100
AcDbArc
 50
354.0885329619
 51
0.0060198581
  0
ARC
  5
1FC
330
1F
100
AcDbEntity
  8
0
  6
Continuous
 62
     7
370
    15
100
AcDbCircle
 10
329.2614954901
 20
341.1609716352
 30
0.0
 40
4.895196832583483
100
AcDbArc
 50
270.8704901319
 51
354.9916739681
  0
LINE
  5
1FD
330
1F
100
AcDbEntity
  8
0
  6
Continuous
 62
     7
370
    15
100
AcDbLine
 10
334.3450691068
 20
1101.2321719916
 30
0.0
 11
334.372546848
 21
1100.6994554789
 31
0.0
  0
ARC
  5
1FE
330
1F
100
AcDbEntity
  8
0
  6
Continuous
 62
     7
370
    15
100
AcDbCircle
 10
328.998325389
 20
1100.699998373
 30
0.0
 40
5.167154951605738
100
AcDbArc
 50
359.9939801419
 51
5.9114670381
  0
ARC
  5
1FF
330
1F
100
AcDbEntity
  8
0
  6
Continuous
 62
     7
370
    15
100
AcDbCircle
 10
329.1606160386
 20
1100.749892075
 30
0.0
 40
5.000697012294371
100
AcDbArc
 50
5.5343524865
 51
61.7847087533
  0
LINE
  5
200
330
1F
100
AcDbEntity
  8
0
  6
Continuous
 62
     7
370
    15
100
AcDbLine
 10
334.3450691068
 20
1001.2321630509
 30
0.0
 11
334.372546848
 21
1000.6994614393
 31
0.0
  0
ARC
  5
201
330
1F
100
AcDbEntity
  8
0
  6
Continuous
 62
     7
370
    15
100
AcDbCircle
 10
328.998902991
 20
1000.700019241
 30
0.0
 40
5.166577351136208
100
AcDbArc
 50
359.993814148
 51
5.9117979315
  0
ARC
  5
202
330
1F
100
AcDbEntity
  8
0
  6
Continuous
 62
     7
370
    15
100
AcDbCircle
 10
329.1606506813
 20
1000.7499062028
 30
0.0
 40
5.000660306311446
100
AcDbArc
 50
5.5341276884
 51
61.7849335514
  0
LINE
  5
203
330
1F
100
AcDbEntity
  8
0
  6
Continuous
 62
     7
370
    15
100
AcDbLine
 10
334.3450691068
 20
901.2321690113
 30
0.0
 11
334.372546848
 21
900.6994524986
 31
0.0
  0
ARC
  5
204
330
1F
100
AcDbEntity
  8
0
  6
Continuous
 62
     7
370
    15
100
AcDbCircle
 10
328.9989019814
 20
900.7000251336
 30
0.0
 40
5.166578362417268
100
AcDbArc
 50
359.9936496528
 51
5.9117975271
  0
ARC
  5
205
330
1F
100
AcDbEntity
  8
0
  6
Continuous
 62
     7
370
    15
100
AcDbCircle
 10
329.1605999895
 20
900.7498784077
 30
0.0
 40
5.000714017304918
100
AcDbArc
 50
5.5344566288
 51
61.784604611
  0
LINE
  5
206
330
1F
100
AcDbEntity
  8
0
  6
Continuous
 62
     7
370
    15
100
AcDbLine
 10
334.3450691068
 20
801.2321637959
 30
0.0
 11
334.372546848
 21
800.6994584591
 31
0.0
  0
ARC
  5
207
330
1F
100
AcDbEntity
  8
0
  6
Continuous
 62
     7
370
    15
100
AcDbCircle
 10
328.9988549096
 20
800.7000175021
 30
0.0
 40
5.166625432709418
100
AcDbArc
 50
359.9938004405
 51
5.9117704133
  0
ARC
  5
208
330
1F
100
AcDbEntity
  8
0
  6
Continuous
 62
     7
370
    15
100
AcDbCircle
 10
329.1606342296
 20
800.7498959927
 30
0.0
 40
5.000677737818346
100
AcDbArc
 50
5.5342344445
 51
61.7848267953
  0
LINE
  5
209
330
1F
100
AcDbEntity
  8
0
  6
Continuous
 62
     7
370
    15
100
AcDbLine
 10
334.3450691068
 20
701.2321660311
 30
0.0
 11
334.372546848
 21
700.699456969
 31
0.0
  0
ARC
  5
20A
330
1F
100
AcDbEntity
  8
0
  6
Continuous
 62
     7
370
    15
100
AcDbCircle
 10
328.9988068263
 20
700.7000172531
 30
0.0
 40
5.166673516163409
100
AcDbArc
 50
359.9937867342
 51
5.9117428944
  0
ARC
  5
20B
330
1F
100
AcDbEntity
  8
0
  6
Continuous
 62
     7
370
    15
100
AcDbCircle
 10
329.1606415316
 20
700.7498989072
 30
0.0
 40
5.000670404374165
100
AcDbArc
 50
5.5342347666
 51
61.7848766582
  0
LINE
  5
20C
330
1F
100
AcDbEntity
  8
0
  6
Continuous
 62
     7
370
    15
100
AcDbLine
 10
334.3450691068
 20
601.2321570904
 30
0.0
 11
334.372546848
 21
600.6994554789
 31
0.0
  0
ARC
  5
20D
330
1F
100
AcDbEntity
  8
0
  6
Continuous
 62
     7
370
    15
100
AcDbCircle
 10
328.998902991
 20
600.7000132806
 30
0.0
 40
5.166577351136208
100
AcDbArc
 50
359.993814148
 51
5.9117979315
  0
ARC
  5
20E
330
1F
100
AcDbEntity
  8
0
  6
Continuous
 62
     7
370
    15
100
AcDbCircle
 10
329.1606702082
 20
600.7499132453
 30
0.0
 40
5.000639616434529
100
AcDbArc
 50
5.5340009759
 51
61.7850602639
  0
LINE
  5
20F
330
1F
100
AcDbEntity
  8
0
  6
Continuous
 62
     7
370
    15
100
AcDbLine
 10
334.3450691068
 20
501.232177952
 30
0.0
 11
334.372546848
 21
500.6994614393
 31
0.0
  0
ARC
  5
210
330
1F
100
AcDbEntity
  8
0
  6
Continuous
 62
     7
370
    15
100
AcDbCircle
 10
328.998325389
 20
500.7000043334
 30
0.0
 40
5.167154951605723
100
AcDbArc
 50
359.9939801419
 51
5.9114670381
  0
ARC
  5
211
330
1F
100
AcDbEntity
  8
0
  6
Continuous
 62
     7
370
    15
100
AcDbCircle
 10
329.1605839399
 20
500.749876661
 30
0.0
 40
5.000731022821657
100
AcDbArc
 50
5.5345607734
 51
61.7845004663
  0
LINE
  5
212
330
1F
100
AcDbEntity
  8
0
  6
Continuous
 62
     7
370
    15
100
AcDbLine
 10
334.3450691068
 20
401.2321541102
 30
0.0
 11
334.372546848
 21
400.6994673998
 31
0.0
  0
ARC
  5
213
330
1F
100
AcDbEntity
  8
0
  6
Continuous
 62
     7
370
    15
100
AcDbCircle
 10
328.9994804912
 20
400.7000401051
 30
0.0
 40
5.165999852606911
100
AcDbArc
 50
359.9936481616
 51
5.9121288267
  0
ARC
  5
214
330
1F
100
AcDbEntity
  8
0
  6
Continuous
 62
     7
370
    15
100
AcDbCircle
 10
329.1606853229
 20
400.7499203298
 30
0.0
 40
5.00062360163403
100
AcDbArc
 50
5.5339028946
 51
61.7851583452
  0
LINE
  5
215
330
1F
100
AcDbEntity
  8
0
  6
Continuous
 62
     7
370
    15
100
AcDbLine
 10
334.372546848
 20
1000.6994614393
 30
0.0
 11
334.372546848
 21
921.9179609806
 31
0.0
  0
LINE
  5
216
330
1F
100
AcDbEntity
  8
0
  6
Continuous
 62
     7
370
    15
100
AcDbLine
 10
334.372546848
 20
1100.6994554789
 30
0.0
 11
334.372546848
 21
1021.917940119
 31
0.0
  0
LINE
  5
217
330
1F
100
AcDbEntity
  8
0
  6
Continuous
 62
     7
370
    15
100
AcDbLine
 10
334.372546848
 20
1191.2663290293
 30
0.0
 11
334.372546848
 21
1121.9179639609
 31
0.0
  0
LINE
  5
218
330
1F
100
AcDbEntity
  8
0
  6
Continuous
 62
     7
370
    15
100
AcDbLine
 10
334.3450691068
 20
1216.2663349898
 30
0.0
 11
353.4675206506
 21
1216.2663349898
 31
0.0
  0
LINE
  5
219
330
1F
100
AcDbEntity
  8
0
  6
Continuous
 62
     7
370
    15
100
AcDbLine
 10
353.4675206506
 20
1216.2663349898
 30
0.0
 11
353.4675206506
 21
316.2663290293
 31
0.0
  0
LINE
  5
21A
330
1F
100
AcDbEntity
  8
0
  6
Continuous
 62
     7
370
    15
100
AcDbLine
 10
334.3450691068
 20
316.2663290293
 30
0.0
 11
353.4675206506
 21
316.2663290293
 31
0.0
  0
LINE
  5
21B
330
1F
100
AcDbEntity
  8
0
  6
Continuous
 62
     7
370
    15
100
AcDbLine
 10
334.372546848
 20
400.6994673998
 30
0.0
 11
334.372546848
 21
341.2663349898
 31
0.0
  0
LINE
  5
21C
330
1F
100
AcDbEntity
  8
0
  6
Continuous
 62
     7
370
    15
100
AcDbLine
 10
334.372546848
 20
500.6994614393
 30
0.0
 11
334.372546848
 21
421.9179460795
 31
0.0
  0
LINE
  5
21D
330
1F
100
AcDbEntity
  8
0
  6
Continuous
 62
     7
370
    15
100
AcDbLine
 10
334.372546848
 20
600.6994554789
 30
0.0
 11
334.372546848
 21
521.9179550202
 31
0.0
  0
LINE
  5
21E
330
1F
100
AcDbEntity
  8
0
  6
Continuous
 62
     7
370
    15
100
AcDbLine
 10
334.372546848
 20
700.699456969
 30
0.0
 11
334.372546848
 21
621.9179490597
 31
0.0
  0
LINE
  5
21F
330
1F
100
AcDbEntity
  8
0
  6
Continuous
 62
     7
370
    15
100
AcDbLine
 10
334.372546848
 20
800.6994584591
 30
0.0
 11
334.372546848
 21
721.9179542751
 31
0.0
  0
LINE
  5
220
330
1F
100
AcDbEntity
  8
0
  6
Continuous
 62
     7
370
    15
100
AcDbLine
 10
334.372546848
 20
900.6994524986
 30
0.0
 11
334.372546848
 21
821.9179557652
 31
0.0
  0
LINE
  5
221
330
1F
100
AcDbEntity
  8
0
  6
Continuous
 62
     7
370
    15
100
AcDbLine
 10
334.165480312
 20
1021.917940119
 30
0.0
 11
334.165480312
 21
1100.6994554789
 31
0.0
  0
LINE
  5
222
330
1F
100
AcDbEntity
  8
0
  6
Continuous
 62
     7
370
    15
100
AcDbLine
 10
334.165480312
 20
1121.9179639609
 30
0.0
 11
334.165480312
 21
1191.2663290293
 31
0.0
  0
LINE
  5
223
330
1F
100
AcDbEntity
  8
0
  6
Continuous
 62
     7
370
    15
100
AcDbLine
 10
334.165480312
 20
921.9179609806
 30
0.0
 11
334.165480312
 21
1000.6994614393
 31
0.0
  0
LINE
  5
224
330
1F
100
AcDbEntity
  8
0
  6
Continuous
 62
     7
370
    15
100
AcDbLine
 10
334.165480312
 20
821.9179557652
 30
0.0
 11
334.165480312
 21
900.6994524986
 31
0.0
  0
LINE
  5
225
330
1F
100
AcDbEntity
  8
0
  6
Continuous
 62
     7
370
    15
100
AcDbLine
 10
334.165480312
 20
721.9179542751
 30
0.0
 11
334.165480312
 21
800.6994584591
 31
0.0
  0
LINE
  5
226
330
1F
100
AcDbEntity
  8
0
  6
Continuous
 62
     7
370
    15
100
AcDbLine
 10
334.165480312
 20
621.9179490597
 30
0.0
 11
334.165480312
 21
700.699456969
 31
0.0
  0
LINE
  5
227
330
1F
100
AcDbEntity
  8
0
  6
Continuous
 62
     7
370
    15
100
AcDbLine
 10
334.165480312
 20
521.9179550202
 30
0.0
 11
334.165480312
 21
600.6994554789
 31
0.0
  0
LINE
  5
228
330
1F
100
AcDbEntity
  8
0
  6
Continuous
 62
     7
370
    15
100
AcDbLine
 10
334.165480312
 20
421.9179460795
 30
0.0
 11
334.165480312
 21
500.6994614393
 31
0.0
  0
LINE
  5
229
330
1F
100
AcDbEntity
  8
0
  6
Continuous
 62
     7
370
    15
100
AcDbLine
 10
334.165480312
 20
341.2663349898
 30
0.0
 11
334.165480312
 21
400.6994673998
 31
0.0
  0
LINE
  5
22A
330
1F
100
AcDbEntity
  8
0
  6
Continuous
 62
     7
370
    15
100
AcDbLine
 10
334.1380025708
 20
1191.799045542
 30
0.0
 11
334.1380025708
 21
1121.3852474482
 31
0.0
  0
LINE
  5
22B
330
1F
100
AcDbEntity
  8
0
  6
Continuous
 62
     7
370
    15
100
AcDbLine
 10
334.1380025708
 20
1101.2321719916
 30
0.0
 11
334.1380025708
 21
1021.3852534086
 31
0.0
  0
LINE
  5
22C
330
1F
100
AcDbEntity
  8
0
  6
Continuous
 62
     7
370
    15
100
AcDbLine
 10
334.1380025708
 20
1001.2321630509
 30
0.0
 11
334.1380025708
 21
921.3852444679
 31
0.0
  0
LINE
  5
22D
330
1F
100
AcDbEntity
  8
0
  6
Continuous
 62
     7
370
    15
100
AcDbLine
 10
334.1380025708
 20
901.2321690113
 30
0.0
 11
334.1380025708
 21
821.3852504284
 31
0.0
  0
LINE
  5
22E
330
1F
100
AcDbEntity
  8
0
  6
Continuous
 62
     7
370
    15
100
AcDbLine
 10
334.1380025708
 20
801.2321637959
 30
0.0
 11
334.1380025708
 21
721.3852489383
 31
0.0
  0
LINE
  5
22F
330
1F
100
AcDbEntity
  8
0
  6
Continuous
 62
     7
370
    15
100
AcDbLine
 10
334.1380025708
 20
701.2321660311
 30
0.0
 11
334.1380025708
 21
621.3852474482
 31
0.0
  0
LINE
  5
230
330
1F
100
AcDbEntity
  8
0
  6
Continuous
 62
     7
370
    15
100
AcDbLine
 10
334.1380025708
 20
601.2321570904
 30
0.0
 11
334.1380025708
 21
521.3852534086
 31
0.0
  0
LINE
  5
231
330
1F
100
AcDbEntity
  8
0
  6
Continuous
 62
     7
370
    15
100
AcDbLine
 10
334.1380025708
 20
501.232177952
 30
0.0
 11
334.1380025708
 21
421.3852593691
 31
0.0
  0
LINE
  5
232
330
1F
100
AcDbEntity
  8
0
  6
Continuous
 62
     7
370
    15
100
AcDbLine
 10
334.1380025708
 20
401.2321541102
 30
0.0
 11
334.1380025708
 21
340.7336184771
 31
0.0
  0
LINE
  5
233
330
1F
100
AcDbEntity
  8
0
  6
Continuous
 62
     7
370
    15
100
AcDbLine
 10
353.4675206506
 20
316.2663290293
 30
0.0
 11
354.7175194585
 21
316.2663290293
 31
0.0
  0
LINE
  5
234
330
1F
100
AcDbEntity
  8
0
  6
Continuous
 62
     7
370
    15
100
AcDbLine
 10
353.4675206506
 20
1216.2663349898
 30
0.0
 11
354.7175194585
 21
1216.2663349898
 31
0.0
  0
LINE
  5
235
330
1F
100
AcDbEntity
  8
0
  6
Continuous
 62
     7
370
    15
100
AcDbLine
 10
354.7175194585
 20
1216.2663349898
 30
0.0
 11
375.9175206982
 21
1216.2663349898
 31
0.0
  0
LINE
  5
236
330
1F
100
AcDbEntity
  8
0
  6
Continuous
 62
     7
370
    15
100
AcDbLine
 10
354.7175194585
 20
316.2663290293
 30
0.0
 11
375.9175206982
 21
316.2663290293
 31
0.0
  0
LINE
  5
237
330
1F
100
AcDbEntity
  8
0
  6
Continuous
 62
     7
370
    15
100
AcDbLine
 10
377.9675330483
 20
1216.2663349898
 30
0.0
 11
377.9675330483
 21
316.2663290293
 31
0.0
  0
LINE
  5
238
330
1F
100
AcDbEntity
  8
0
  6
Continuous
 62
     7
370
    15
100
AcDbLine
 10
375.9175206982
 20
316.2663290293
 30
0.0
 11
377.9675330483
 21
316.2663290293
 31
0.0
  0
LINE
  5
239
330
1F
100
AcDbEntity
  8
0
  6
Continuous
 62
     7
370
    15
100
AcDbLine
 10
375.9175206982
 20
1216.2663349898
 30
0.0
 11
377.9675330483
 21
1216.2663349898
 31
0.0
  0
LINE
  5
23A
330
1F
100
AcDbEntity
  8
0
  6
Continuous
 62
     7
370
    15
100
AcDbLine
 10
377.9675330483
 20
316.2663290293
 30
0.0
 11
379.2175318562
 21
316.2663290293
 31
0.0
  0
LINE
  5
23B
330
1F
100
AcDbEntity
  8
0
  6
Continuous
 62
     7
370
    15
100
AcDbLine
 10
377.9675330483
 20
1216.2663349898
 30
0.0
 11
379.2175318562
 21
1216.2663349898
 31
0.0
  0
LINE
  5
23C
330
1F
100
AcDbEntity
  8
0
  6
Continuous
 62
     7
370
    15
100
AcDbLine
 10
379.2175318562
 20
316.2663290293
 30
0.0
 11
401.4175202214
 21
316.2663290293
 31
0.0
  0
LINE
  5
23D
330
1F
100
AcDbEntity
  8
0
  6
Continuous
 62
     7
370
    15
100
AcDbLine
 10
379.2175318562
 20
1216.2663349898
 30
0.0
 11
401.4175202214
 21
1216.2663349898
 31
0.0
  0
LINE
  5
23E
330
1F
100
AcDbEntity
  8
0
  6
Continuous
 62
     7
370
    15
100
AcDbLine
 10
403.4675325715
 20
1216.2663349898
 30
0.0
 11
403.4675325715
 21
1211.2663397581
 31
0.0
  0
LINE
  5
23F
330
1F
100
AcDbEntity
  8
0
  6
Continuous
 62
     7
370
    15
100
AcDbLine
 10
403.4675325715
 20
321.2663242609
 30
0.0
 11
403.4675325715
 21
316.2663290293
 31
0.0
  0
LINE
  5
240
330
1F
100
AcDbEntity
  8
0
  6
Continuous
 62
     7
370
    15
100
AcDbLine
 10
401.4175202214
 20
316.2663290293
 30
0.0
 11
403.4675325715
 21
316.2663290293
 31
0.0
  0
LINE
  5
241
330
1F
100
AcDbEntity
  8
0
  6
Continuous
 62
     7
370
    15
100
AcDbLine
 10
401.4175202214
 20
1216.2663349898
 30
0.0
 11
403.4675325715
 21
1216.2663349898
 31
0.0
  0
LINE
  5
242
330
1F
100
AcDbEntity
  8
0
  6
Continuous
 62
     7
370
    15
100
AcDbLine
 10
1072.1044804417
 20
869.766333142
 30
0.0
 11
1070.6346299016
 21
869.766333142
 31
0.0
  0
LINE
  5
243
330
1F
100
AcDbEntity
  8
0
  6
Continuous
 62
     7
370
    15
100
AcDbLine
 10
1065.0343264901
 20
869.401925245
 30
0.0
 11
1070.6346299016
 21
869.766333142
 31
0.0
  0
LINE
  5
244
330
1F
100
AcDbEntity
  8
0
  6
Continuous
 62
     7
370
    15
100
AcDbLine
 10
1065.0343264901
 20
867.1307424099
 30
0.0
 11
1070.6346299016
 21
866.7663345129
 31
0.0
  0
LINE
  5
245
330
1F
100
AcDbEntity
  8
0
  6
Continuous
 62
     7
370
    15
100
AcDbLine
 10
1070.6346299016
 20
866.7663345129
 30
0.0
 11
1072.1044804417
 21
866.7663345129
 31
0.0
  0
SPLINE
  5
246
330
1F
100
AcDbEntity
  8
0
  6
Continuous
 62
     7
370
    15
100
AcDbSpline
210
0.0
220
0.0
230
1.0
 70
     8
 71
     3
 72
    14
 73
    10
 74
     0
 42
0.00000001
 43
0.00000001
 12
1.0
 22
0.0
 32
0.0
 13
1.0
 23
0.0
 33
0.0
 40
0.0
 40
0.0
 40
0.0
 40
0.0
 40
0.0450026457178498
 40
0.192447039675323
 40
0.4101010366827553
 40
0.6281085222088791
 40
0.8446501338152198
 40
0.9597528743162377
 40
0.9999999999999999
 40
0.9999999999999999
 40
0.9999999999999999
 40
0.9999999999999999
 10
1070.965525087052
 20
867.7337402493596
 30
0.0
 10
1070.952893906389
 20
867.7137973320265
 30
0.0
 10
1070.898878563796
 20
867.6285144482753
 30
0.0
 10
1070.867968951613
 20
867.4125403550613
 30
0.0
 10
1070.825151929734
 20
867.1423760657923
 30
0.0
 10
1070.790358357067
 20
866.9068081990578
 30
0.0
 10
1070.745495824141
 20
866.7942879371803
 30
0.0
 10
1070.680475908418
 20
866.7677636946439
 30
0.0
 10
1070.63251245615
 20
866.7666285893006
 30
0.0
 10
1070.620086368256
 20
866.7663345129132
 30
0.0
  0
SPLINE
  5
247
330
1F
100
AcDbEntity
  8
0
  6
Continuous
 62
     7
370
    15
100
AcDbSpline
210
0.0
220
0.0
230
1.0
 70
     8
 71
     3
 72
    15
 73
    11
 74
     0
 42
0.00000001
 43
0.00000001
 12
1.0
 22
0.0
 32
0.0
 13
1.0
 23
0.0
 33
0.0
 40
0.0
 40
0.0
 40
0.0
 40
0.0
 40
0.0802822742711434
 40
0.2296591849488054
 40
0.4389468186629597
 40
0.6497427770534776
 40
0.866516956551404
 40
0.9462936877379396
 40
0.9895242963068808
 40
1.0
 40
1.0
 40
1.0
 40
1.0
 10
1070.620086368256
 20
869.7663331420064
 30
0.0
 10
1070.643194140016
 20
869.765135602413
 30
0.0
 10
1070.709297300104
 20
869.7617098652938
 30
0.0
 10
1070.76147677392
 20
869.7089214281741
 30
0.0
 10
1070.802081027035
 20
869.5617794886283
 30
0.0
 10
1070.837457696476
 20
869.309685818088
 30
0.0
 10
1070.871804876388
 20
869.059665233346
 30
0.0
 10
1070.916377256595
 20
868.8900435672457
 30
0.0
 10
1070.943518723244
 20
868.8242973431045
 30
0.0
 10
1070.961933237478
 20
868.8030682531864
 30
0.0
 10
1070.965525087052
 20
868.79892740556
 30
0.0
  0
SPLINE
  5
248
330
1F
100
AcDbEntity
  8
0
  6
Continuous
 62
     7
370
    15
100
AcDbSpline
210
0.0
220
0.0
230
1.0
 70
     8
 71
     3
 72
     9
 73
     5
 74
     0
 42
0.00000001
 43
0.00000001
 12
1.0
 22
0.0
 32
0.0
 13
1.0
 23
0.0
 33
0.0
 40
0.0
 40
0.0
 40
0.0
 40
0.0
 40
0.1372354311710147
 40
1.0
 40
1.0
 40
1.0
 40
1.0
 10
1070.99771159523
 20
868.7663311154485
 30
0.0
 10
1070.996241516614
 20
868.7678238326173
 30
0.0
 10
1070.985529424232
 20
868.7787008864228
 30
0.0
 10
1070.974790365998
 20
868.7895592200393
 30
0.0
 10
1070.965525087052
 20
868.79892740556
 30
0.0
  0
SPLINE
  5
249
330
1F
100
AcDbEntity
  8
0
  6
Continuous
 62
     7
370
    15
100
AcDbSpline
210
0.0
220
0.0
230
1.0
 70
     8
 71
     3
 72
     9
 73
     5
 74
     0
 42
0.00000001
 43
0.00000001
 12
1.0
 22
0.0
 32
0.0
 13
1.0
 23
0.0
 33
0.0
 40
0.0
 40
0.0
 40
0.0
 40
0.0
 40
0.8627645688289854
 40
1.0
 40
1.0
 40
1.0
 40
1.0
 10
1070.965525087052
 20
867.7337402493596
 30
0.0
 10
1070.974790365998
 20
867.7431084348804
 30
0.0
 10
1070.985529424232
 20
867.7539667684969
 30
0.0
 10
1070.996241516614
 20
867.7648438223023
 30
0.0
 10
1070.99771159523
 20
867.7663365394711
 30
0.0
  0
LINE
  5
24A
330
1F
100
AcDbEntity
  8
0
  6
Continuous
 62
     7
370
    15
100
AcDbLine
 10
1065.0343264901
 20
881.0229012758
 30
0.0
 11
1073.0872716271
 21
879.869506696
 31
0.0
  0
LWPOLYLINE
  5
24B
330
1F
100
AcDbEntity
  8
0
  6
Continuous
 62
     7
370
    15
100
AcDbPolyline
 90
        3
 70
   128
 43
0.0
 10
1073.0872716271
 20
879.869506696
 10
1073.1070901715
 20
879.8915902168
 10
1073.1160904729
 20
879.8936242253
  0
LINE
  5
24C
330
1F
100
AcDbEntity
  8
0
  6
Continuous
 62
     7
370
    15
100
AcDbLine
 10
1073.0872716271
 20
856.663160959
 30
0.0
 11
1065.0343264901
 21
855.5097663791
 31
0.0
  0
LWPOLYLINE
  5
24D
330
1F
100
AcDbEntity
  8
0
  6
Continuous
 62
     7
370
    15
100
AcDbPolyline
 90
        3
 70
   128
 43
0.0
 10
1073.1160904729
 20
856.6390434296
 10
1073.1070901715
 20
856.6410699875
 10
1073.0872716271
 20
856.663160959
  0
LWPOLYLINE
  5
24E
330
1F
100
AcDbEntity
  8
0
  6
Continuous
 62
     7
370
    15
100
AcDbPolyline
 90
        3
 70
   128
 43
0.0
 10
1077.9207612836
 20
858.5996637137
 10
1077.8210129105
 20
858.6005056293
 10
1077.7131881081
 20
858.5995221526
  0
LINE
  5
24F
330
1F
100
AcDbEntity
  8
0
  6
Continuous
 62
     7
370
    15
100
AcDbLine
 10
1077.5079991185
 20
877.9404992253
 30
0.0
 11
1077.7131881081
 21
877.9331455023
 31
0.0
  0
SPLINE
  5
250
330
1F
100
AcDbEntity
  8
0
  6
Continuous
 62
     7
370
    15
100
AcDbSpline
210
0.0
220
0.0
230
1.0
 70
    24
 71
     3
 72
    11
 73
     7
 74
     0
 42
0.00000001
 43
0.00000001
 12
1.0
 22
0.0
 32
0.0
 13
1.0
 23
0.0
 33
0.0
 40
0.0
 40
0.0
 40
0.0
 40
0.0
 40
0.2947205750336428
 40
0.5894734765032268
 40
0.8837571049859796
 40
1.0
 40
1.0
 40
1.0
 40
1.0
 10
1072.947915967636
 20
869.7663331420064
 30
0.0
 10
1072.902418543331
 20
869.7663331420064
 30
0.0
 10
1072.811418704335
 20
869.7663331420064
 30
0.0
 10
1072.553787706562
 20
869.7663331420064
 30
0.0
 10
1072.303629817309
 20
869.7663331420065
 30
0.0
 10
1072.148426994337
 20
869.7663331420064
 30
0.0
 10
1072.104480441742
 20
869.7663331420064
 30
0.0
  0
SPLINE
  5
251
330
1F
100
AcDbEntity
  8
0
  6
Continuous
 62
     7
370
    15
100
AcDbSpline
210
0.0
220
0.0
230
1.0
 70
    24
 71
     3
 72
    11
 73
     7
 74
     0
 42
0.00000001
 43
0.00000001
 12
1.0
 22
0.0
 32
0.0
 13
1.0
 23
0.0
 33
0.0
 40
0.0
 40
0.0
 40
0.0
 40
0.0
 40
0.2933264563212639
 40
0.5865996514295211
 40
0.8804813276453068
 40
1.0
 40
1.0
 40
1.0
 40
1.0
 10
1072.104480441742
 20
866.7663345129132
 30
0.0
 10
1072.215164137742
 20
866.7663345129132
 30
0.0
 10
1072.436511432175
 20
866.7663345129133
 30
0.0
 10
1072.714404769941
 20
866.7663345129132
 30
0.0
 10
1072.877025436665
 20
866.7663345129132
 30
0.0
 10
1072.932017225404
 20
866.7663345129132
 30
0.0
 10
1072.947915967636
 20
866.7663345129133
 30
0.0
  0
LWPOLYLINE
  5
252
330
1F
100
AcDbEntity
  8
0
  6
Continuous
 62
     7
370
    15
100
AcDbPolyline
 90
        9
 70
   128
 43
0.0
 10
1084.0087797009
 20
866.7663345129
 10
1084.1861631238
 20
866.8805146606
 10
1084.3365456425
 20
867.205672899
 10
1084.4370092713
 20
867.6923075707
 10
1084.472295221
 20
868.2663301022
 10
1084.4370092713
 20
868.8403600843
 10
1084.3365456425
 20
869.3269947559
 10
1084.1861631238
 20
869.6521529944
 10
1084.0087797009
 20
869.766333142
  0
LINE
  5
253
330
1F
100
AcDbEntity
  8
0
  6
Continuous
 62
     7
370
    15
100
AcDbLine
 10
1072.9479159676
 20
866.7663345129
 30
0.0
 11
1084.0087797009
 21
866.7663345129
 31
0.0
  0
LINE
  5
254
330
1F
100
AcDbEntity
  8
0
  6
Continuous
 62
     7
370
    15
100
AcDbLine
 10
1084.0087797009
 20
869.766333142
 30
0.0
 11
1072.9479159676
 21
869.766333142
 31
0.0
  0
LWPOLYLINE
  5
255
330
1F
100
AcDbEntity
  8
0
  6
Continuous
 62
     7
370
    15
100
AcDbPolyline
 90
        3
 70
   128
 43
0.0
 10
1082.7786888444
 20
856.6450038941
 10
1082.7654864156
 20
856.643014589
 10
1082.762386974
 20
856.6426048071
  0
SPLINE
  5
256
330
1F
100
AcDbEntity
  8
0
  6
Continuous
 62
     7
370
    15
100
AcDbSpline
210
0.0
220
0.0
230
1.0
 70
     8
 71
     3
 72
    11
 73
     7
 74
     0
 42
0.00000001
 43
0.00000001
 12
1.0
 22
0.0
 32
0.0
 13
1.0
 23
0.0
 33
0.0
 40
0.0
 40
0.0
 40
0.0
 40
0.0
 40
0.0069071144931751
 40
0.7752924904360003
 40
0.9229390180827961
 40
1.0
 40
1.0
 40
1.0
 40
1.0
 10
1067.253526624375
 20
884.1952169329762
 30
0.0
 10
1067.253686755716
 20
884.1952227809672
 30
0.0
 10
1067.271660777528
 20
884.1958791916232
 30
0.0
 10
1067.239710422532
 20
884.1570226265068
 30
0.0
 10
1067.202192379017
 20
884.1146724466546
 30
0.0
 10
1067.191906259712
 20
884.1038733189844
 30
0.0
 10
1067.188378747635
 20
884.1001698763014
 30
0.0
  0
SPLINE
  5
257
330
1F
100
AcDbEntity
  8
0
  6
Continuous
 62
     7
370
    15
100
AcDbSpline
210
0.0
220
0.0
230
1.0
 70
     8
 71
     3
 72
    11
 73
     7
 74
     0
 42
0.00000001
 43
0.00000001
 12
1.0
 22
0.0
 32
0.0
 13
1.0
 23
0.0
 33
0.0
 40
0.0
 40
0.0
 40
0.0
 40
0.0
 40
0.0734284550557375
 40
0.2141151703002532
 40
0.946280134192409
 40
1.0
 40
1.0
 40
1.0
 40
1.0
 10
1067.188378747635
 20
852.4324977786183
 30
0.0
 10
1067.191904850045
 20
852.4287955939136
 30
0.0
 10
1067.202186858803
 20
852.4180001344703
 30
0.0
 10
1067.239845654926
 20
852.3755243478485
 30
0.0
 10
1067.271715527365
 20
852.3361851438864
 30
0.0
 10
1067.251454514755
 20
852.3374464599347
 30
0.0
 10
1067.250069554978
 20
852.3375326783299
 30
0.0
  0
LINE
  5
258
330
1F
100
AcDbEntity
  8
0
  6
Continuous
 62
     7
370
    15
100
AcDbLine
 10
1064.9175311887
 20
1216.3163432867
 30
0.0
 11
1064.9175311887
 21
1216.2663349898
 31
0.0
  0
SPLINE
  5
259
330
1F
100
AcDbEntity
  8
0
  6
Continuous
 62
     7
370
    15
100
AcDbSpline
210
0.0
220
0.0
230
1.0
 70
     8
 71
     3
 72
     9
 73
     5
 74
     0
 42
0.00000001
 43
0.00000001
 12
1.0
 22
0.0
 32
0.0
 13
1.0
 23
0.0
 33
0.0
 40
0.0
 40
0.0
 40
0.0
 40
0.0
 40
0.2595825606720387
 40
1.0
 40
1.0
 40
1.0
 40
1.0
 10
1065.291937764817
 20
1216.26633498975
 30
0.0
 10
1065.260908910699
 20
1216.277602242303
 30
0.0
 10
1065.14137524851
 20
1216.32100751777
 30
0.0
 10
1065.012760092863
 20
1216.318327568151
 30
0.0
 10
1064.91753118866
 20
1216.316343286717
 30
0.0
  0
LWPOLYLINE
  5
25A
330
1F
100
AcDbEntity
  8
0
  6
Continuous
 62
     7
370
    15
100
AcDbPolyline
 90
        3
 70
   128
 43
0.0
 10
1010.0175108277
 20
1216.3163432867
 10
1009.6175934636
 20
1216.2769446165
 10
1009.567525562
 20
1216.2663349898
  0
LINE
  5
25B
330
1F
100
AcDbEntity
  8
0
  6
Continuous
 62
     7
370
    15
100
AcDbLine
 10
1010.0175108277
 20
1216.3163432867
 30
0.0
 11
1064.9175311887
 21
1216.3163432867
 31
0.0
  0
LINE
  5
25C
330
1F
100
AcDbEntity
  8
0
  6
Continuous
 62
     7
370
    15
100
AcDbLine
 10
403.4675325715
 20
1216.2663349898
 30
0.0
 11
405.4675366246
 21
1216.2663349898
 31
0.0
  0
LINE
  5
25D
330
1F
100
AcDbEntity
  8
0
  6
Continuous
 62
     7
370
    15
100
AcDbLine
 10
920.4675223195
 20
1216.2663349898
 30
0.0
 11
923.6775304639
 21
1216.2663349898
 31
0.0
  0
LINE
  5
25E
330
1F
100
AcDbEntity
  8
0
  6
Continuous
 62
     7
370
    15
100
AcDbLine
 10
923.6775304639
 20
316.2663290293
 30
0.0
 11
920.4675223195
 21
316.2663290293
 31
0.0
  0
LINE
  5
25F
330
1F
100
AcDbEntity
  8
0
  6
Continuous
 62
     7
370
    15
100
AcDbLine
 10
405.4675366246
 20
316.2663290293
 30
0.0
 11
403.4675325715
 21
316.2663290293
 31
0.0
  0
LINE
  5
260
330
1F
100
AcDbEntity
  8
0
  6
Continuous
 62
     7
370
    15
100
AcDbLine
 10
307.9675402009
 20
814.7322768361
 30
0.0
 11
307.9675402009
 21
727.7156459183
 31
0.0
  0
LINE
  5
261
330
1F
100
AcDbEntity
  8
0
  6
Continuous
 62
     7
370
    15
100
AcDbLine
 10
334.1380025708
 20
666.2663305194
 30
0.0
 11
307.9675402009
 21
666.2663305194
 31
0.0
  0
LINE
  5
262
330
1F
100
AcDbEntity
  8
0
  6
Continuous
 62
     7
370
    15
100
AcDbLine
 10
307.9675402009
 20
666.2663305194
 30
0.0
 11
307.9675402009
 21
627.7156481535
 31
0.0
  0
LINE
  5
263
330
1F
100
AcDbEntity
  8
0
  6
Continuous
 62
     7
370
    15
100
AcDbLine
 10
307.9675402009
 20
614.7322813065
 30
0.0
 11
307.9675402009
 21
581.2663296253
 31
0.0
  0
LINE
  5
264
330
1F
100
AcDbEntity
  8
0
  6
Continuous
 62
     7
370
    15
100
AcDbLine
 10
307.9675402009
 20
581.2663296253
 30
0.0
 11
334.1380025708
 21
581.2663296253
 31
0.0
  0
ARC
  5
265
330
1F
100
AcDbEntity
  8
0
  6
Continuous
 62
     7
370
    15
100
AcDbCircle
 10
323.9675253652
 20
1103.2663335901
 30
0.0
 40
9.500000000000062
100
AcDbArc
 50
119.1024812908
 51
0.0
  0
LINE
  5
266
330
1F
100
AcDbEntity
  8
0
  6
Continuous
 62
     7
370
    15
100
AcDbLine
 10
307.9675402009
 20
866.2663334996
 30
0.0
 11
334.1380025708
 21
866.2663334996
 31
0.0
  0
LINE
  5
267
330
1F
100
AcDbEntity
  8
0
  6
Continuous
 62
     7
370
    15
100
AcDbLine
 10
334.1380025708
 20
951.2663343937
 30
0.0
 11
307.9675402009
 21
951.2663343937
 31
0.0
  0
LINE
  5
268
330
1F
100
AcDbEntity
  8
0
  6
Continuous
 62
     7
370
    15
100
AcDbLine
 10
307.9675402009
 20
951.2663343937
 30
0.0
 11
307.9675402009
 21
927.7156451733
 31
0.0
  0
LINE
  5
269
330
1F
100
AcDbEntity
  8
0
  6
Continuous
 62
     7
370
    15
100
AcDbLine
 10
307.9675402009
 20
914.7322783262
 30
0.0
 11
307.9675402009
 21
866.2663334996
 31
0.0
  0
SPLINE
  5
26A
330
1F
100
AcDbEntity
  8
0
  6
Continuous
 62
     7
370
    15
100
AcDbSpline
210
0.0
220
0.0
230
1.0
 70
     8
 71
     3
 72
    13
 73
     9
 74
     0
 42
0.00000001
 43
0.00000001
 12
1.0
 22
0.0
 32
0.0
 13
1.0
 23
0.0
 33
0.0
 40
0.0
 40
0.0
 40
0.0
 40
0.0
 40
0.1695272316581581
 40
0.3386613214470226
 40
0.5184955298568086
 40
0.7277354365554144
 40
0.9924706802968242
 40
1.0
 40
1.0
 40
1.0
 40
1.0
 10
287.6175309979249
 20
1130.722732284749
 30
0.0
 10
287.5929230496421
 20
1130.722284412242
 30
0.0
 10
287.5437642201012
 20
1130.721389705865
 30
0.0
 10
287.4776270665529
 20
1130.714572605493
 30
0.0
 10
287.4219695643991
 20
1130.704406977175
 30
0.0
 10
287.3791836950143
 20
1130.689904517292
 30
0.0
 10
287.367830528147
 20
1130.678324955758
 30
0.0
 10
287.367527690223
 20
1130.671859699439
 30
0.0
 10
287.3675193154145
 20
1130.671680906499
 30
0.0
  0
LINE
  5
26B
330
1F
100
AcDbEntity
  8
0
  6
Continuous
 62
     7
370
    15
100
AcDbLine
 10
287.3675193154
 20
1130.6716809065
 30
0.0
 11
287.3675193154
 21
1137.3772928507
 31
0.0
  0
SPLINE
  5
26C
330
1F
100
AcDbEntity
  8
0
  6
Continuous
 62
     7
370
    15
100
AcDbSpline
210
0.0
220
0.0
230
1.0
 70
     8
 71
     3
 72
    13
 73
     9
 74
     0
 42
0.00000001
 43
0.00000001
 12
1.0
 22
0.0
 32
0.0
 13
1.0
 23
0.0
 33
0.0
 40
0.0
 40
0.0
 40
0.0
 40
0.0
 40
0.0075293197031759
 40
0.2722645634445857
 40
0.4815044701431915
 40
0.6613386785529775
 40
0.8304727683418419
 40
1.0
 40
1.0
 40
1.0
 40
1.0
 10
288.5675396286775
 20
1130.671680906499
 30
0.0
 10
288.567531253869
 20
1130.671859699439
 30
0.0
 10
288.5672284159435
 20
1130.678324955757
 30
0.0
 10
288.555875249078
 20
1130.689904517291
 30
0.0
 10
288.513089379693
 20
1130.704406977175
 30
0.0
 10
288.4574318775391
 20
1130.714572605493
 30
0.0
 10
288.3912947239907
 20
1130.721389705865
 30
0.0
 10
288.3421358944501
 20
1130.722284412242
 30
0.0
 10
288.3175279461671
 20
1130.722732284749
 30
0.0
  0
LINE
  5
26D
330
1F
100
AcDbEntity
  8
0
  6
Continuous
 62
     7
370
    15
100
AcDbLine
 10
288.5675396287
 20
1137.0895812304
 30
0.0
 11
288.5675396287
 21
1130.6716809065
 31
0.0
  0
LINE
  5
26E
330
1F
100
AcDbEntity
  8
0
  6
Continuous
 62
     7
370
    15
100
AcDbLine
 10
288.3175279462
 20
1130.7227322847
 30
0.0
 11
287.6175309979
 21
1130.7227322847
 31
0.0
  0
SPLINE
  5
26F
330
1F
100
AcDbEntity
  8
0
  6
Continuous
 62
     7
370
    15
100
AcDbSpline
210
0.0
220
0.0
230
1.0
 70
     8
 71
     3
 72
    12
 73
     8
 74
     0
 42
0.00000001
 43
0.00000001
 12
1.0
 22
0.0
 32
0.0
 13
1.0
 23
0.0
 33
0.0
 40
0.0
 40
0.0
 40
0.0
 40
0.0
 40
0.2289391711609592
 40
0.459416761252324
 40
0.6825384763929595
 40
0.8947198795451855
 40
0.9999999999999999
 40
0.9999999999999999
 40
0.9999999999999999
 40
0.9999999999999999
 10
287.3675193154145
 20
1126.271397808278
 30
0.0
 10
287.3848520770912
 20
1126.137313021704
 30
0.0
 10
287.4196340726435
 20
1125.868242429422
 30
0.0
 10
287.6935068611879
 20
1125.515638871846
 30
0.0
 10
288.0905480988596
 20
1125.262605074831
 30
0.0
 10
288.491428984927
 20
1125.149280520922
 30
0.0
 10
288.7363110090675
 20
1125.139634789497
 30
0.0
 10
288.8175215088654
 20
1125.136435964787
 30
0.0
  0
LINE
  5
270
330
1F
100
AcDbEntity
  8
0
  6
Continuous
 62
     7
370
    15
100
AcDbLine
 10
287.3675193154
 20
1126.2713978083
 30
0.0
 11
287.3675193154
 21
1130.4415175707
 31
0.0
  0
LINE
  5
271
330
1F
100
AcDbEntity
  8
0
  6
Continuous
 62
     7
370
    15
100
AcDbLine
 10
294.1675152146
 20
1129.5303115637
 30
0.0
 11
294.1675152146
 21
1125.3602216036
 31
0.0
  0
LINE
  5
272
330
1F
100
AcDbEntity
  8
0
  6
Continuous
 62
     7
370
    15
100
AcDbLine
 10
294.1675152146
 20
1130.0601968557
 30
0.0
 11
294.1675152146
 21
1129.5303115637
 31
0.0
  0
LINE
  5
273
330
1F
100
AcDbEntity
  8
0
  6
Continuous
 62
     7
370
    15
100
AcDbLine
 10
287.3675193154
 20
1130.4415175707
 30
0.0
 11
287.3675193154
 21
1130.6716809065
 31
0.0
  0
LINE
  5
274
330
1F
100
AcDbEntity
  8
0
  6
Continuous
 62
     7
370
    15
100
AcDbLine
 10
288.5675396287
 20
1130.6716809065
 30
0.0
 11
288.5675396287
 21
1130.4415175707
 31
0.0
  0
LINE
  5
275
330
1F
100
AcDbEntity
  8
0
  6
Continuous
 62
     7
370
    15
100
AcDbLine
 10
288.8175215089
 20
1125.1364359648
 30
0.0
 11
288.8175215089
 21
1125.1102099211
 31
0.0
  0
LINE
  5
276
330
1F
100
AcDbEntity
  8
0
  6
Continuous
 62
     7
370
    15
100
AcDbLine
 10
287.3675193154
 20
1125.8163461477
 30
0.0
 11
287.3675193154
 21
1126.2713978083
 31
0.0
  0
SPLINE
  5
277
330
1F
100
AcDbEntity
  8
0
  6
Continuous
 62
     7
370
    15
100
AcDbSpline
210
0.0
220
0.0
230
1.0
 70
     8
 71
     3
 72
    11
 73
     7
 74
     0
 42
0.00000001
 43
0.00000001
 12
1.0
 22
0.0
 32
0.0
 13
1.0
 23
0.0
 33
0.0
 40
0.0
 40
0.0
 40
0.0
 40
0.0
 40
0.0796285793457203
 40
0.4595088133334431
 40
0.8207554800781247
 40
1.0
 40
1.0
 40
1.0
 40
1.0
 10
287.6660193764497
 20
1142.933965662205
 30
0.0
 10
287.6829769431639
 20
1142.95803058299
 30
0.0
 10
287.7808331578787
 20
1143.09690086403
 30
0.0
 10
288.0991953658587
 20
1143.266143930955
 30
0.0
 10
288.49049921673
 20
1143.383806612485
 30
0.0
 10
288.736079177714
 20
1143.393135666076
 30
0.0
 10
288.8175215088655
 20
1143.396229484761
 30
0.0
  0
ARC
  5
278
330
1F
100
AcDbEntity
  8
0
  6
Continuous
 62
     7
370
    15
100
AcDbCircle
 10
293.9288103312
 20
1142.6549695092
 30
0.0
 40
0.2390257607986407
100
AcDbArc
 50
267.2958385126
 51
357.0308412852
  0
LINE
  5
279
330
1F
100
AcDbEntity
  8
0
  6
Continuous
 62
     7
370
    15
100
AcDbLine
 10
294.1675152146
 20
1143.172443846
 30
0.0
 11
294.1675152146
 21
1142.6425883562
 31
0.0
  0
LINE
  5
27A
330
1F
100
AcDbEntity
  8
0
  6
Continuous
 62
     7
370
    15
100
AcDbLine
 10
294.1675152146
 20
1142.6425883562
 30
0.0
 11
294.1675152146
 21
1139.9065265448
 31
0.0
  0
SPLINE
  5
27B
330
1F
100
AcDbEntity
  8
0
  6
Continuous
 62
     7
370
    15
100
AcDbSpline
210
0.0
220
0.0
230
1.0
 70
     8
 71
     3
 72
    13
 73
     9
 74
     0
 42
0.00000001
 43
0.00000001
 12
1.0
 22
0.0
 32
0.0
 13
1.0
 23
0.0
 33
0.0
 40
0.0
 40
0.0
 40
0.0
 40
0.0
 40
0.0075569093807574
 40
0.2722445307369289
 40
0.4815174532801566
 40
0.661356893899083
 40
0.8304112208232067
 40
1.0
 40
1.0
 40
1.0
 40
1.0
 10
289.767530139618
 20
1137.077988126958
 30
0.0
 10
289.7675217699936
 20
1137.077700036997
 30
0.0
 10
289.7672202466644
 20
1137.067321334267
 30
0.0
 10
289.7559129960089
 20
1137.048970388381
 30
0.0
 10
289.713072447331
 20
1137.026101678942
 30
0.0
 10
289.6574343087539
 20
1137.010060939057
 30
0.0
 10
289.5912959595531
 20
1136.999437606633
 30
0.0
 10
289.5421368191839
 20
1136.998041964804
 30
0.0
 10
289.5175184571077
 20
1136.997343042576
 30
0.0
  0
LINE
  5
27C
330
1F
100
AcDbEntity
  8
0
  6
Continuous
 62
     7
370
    15
100
AcDbLine
 10
289.7675301396
 20
1137.077988127
 30
0.0
 11
289.7675301396
 21
1130.3101787359
 31
0.0
  0
SPLINE
  5
27D
330
1F
100
AcDbEntity
  8
0
  6
Continuous
 62
     7
370
    15
100
AcDbSpline
210
0.0
220
0.0
230
1.0
 70
     8
 71
     3
 72
    13
 73
     9
 74
     0
 42
0.00000001
 43
0.00000001
 12
1.0
 22
0.0
 32
0.0
 13
1.0
 23
0.0
 33
0.0
 40
0.0
 40
0.0
 40
0.0
 40
0.0
 40
0.1695257867407994
 40
0.3386447702358877
 40
0.5184891972751675
 40
0.7277367742474726
 40
0.9924431939412328
 40
1.0
 40
1.0
 40
1.0
 40
1.0
 10
288.8175215088655
 20
1136.997343042576
 30
0.0
 10
288.7929137141832
 20
1136.998042811194
 30
0.0
 10
288.7437571750136
 20
1136.999440669226
 30
0.0
 10
288.6776175517741
 20
1137.01005835711
 30
0.0
 10
288.6219365155488
 20
1137.026099988321
 30
0.0
 10
288.579300269675
 20
1137.048974039252
 30
0.0
 10
288.5674754587257
 20
1137.067320455081
 30
0.0
 10
288.5675378957067
 20
1137.077700036334
 30
0.0
 10
288.5675396286774
 20
1137.077988126958
 30
0.0
  0
LINE
  5
27E
330
1F
100
AcDbEntity
  8
0
  6
Continuous
 62
     7
370
    15
100
AcDbLine
 10
288.5675396287
 20
1130.6716809065
 30
0.0
 11
288.5675396287
 21
1137.077988127
 31
0.0
  0
LINE
  5
27F
330
1F
100
AcDbEntity
  8
0
  6
Continuous
 62
     7
370
    15
100
AcDbLine
 10
288.8175215089
 20
1136.9973430426
 30
0.0
 11
289.5175184571
 21
1136.9973430426
 31
0.0
  0
SPLINE
  5
280
330
1F
100
AcDbEntity
  8
0
  6
Continuous
 62
     7
370
    15
100
AcDbSpline
210
0.0
220
0.0
230
1.0
 70
     8
 71
     3
 72
    12
 73
     8
 74
     0
 42
0.00000001
 43
0.00000001
 12
1.0
 22
0.0
 32
0.0
 13
1.0
 23
0.0
 33
0.0
 40
0.0
 40
0.0
 40
0.0
 40
0.0
 40
0.2289420806002776
 40
0.4594233704838528
 40
0.6825406902660764
 40
0.8947198227262793
 40
1.0
 40
1.0
 40
1.0
 40
1.0
 10
289.767530139618
 20
1141.865462997639
 30
0.0
 10
289.7501969082752
 20
1141.987265130385
 30
0.0
 10
289.7154139118771
 20
1142.231688288466
 30
0.0
 10
289.4415503719232
 20
1142.551666420621
 30
0.0
 10
289.0444987865718
 20
1142.78110536778
 30
0.0
 10
288.6436181708773
 20
1142.883812121058
 30
0.0
 10
288.3987383315695
 20
1142.892582358492
 30
0.0
 10
288.3175279461671
 20
1142.895490864003
 30
0.0
  0
LINE
  5
281
330
1F
100
AcDbEntity
  8
0
  6
Continuous
 62
     7
370
    15
100
AcDbLine
 10
289.7675301396
 20
1141.8654629976
 30
0.0
 11
289.7675301396
 21
1137.2847566397
 31
0.0
  0
LINE
  5
282
330
1F
100
AcDbEntity
  8
0
  6
Continuous
 62
     7
370
    15
100
AcDbLine
 10
282.9675342404
 20
1138.1032774241
 30
0.0
 11
282.9675342404
 21
1142.683983782
 31
0.0
  0
LINE
  5
283
330
1F
100
AcDbEntity
  8
0
  6
Continuous
 62
     7
370
    15
100
AcDbLine
 10
282.9675342404
 20
1137.6272747309
 30
0.0
 11
282.9675342404
 21
1138.1032774241
 31
0.0
  0
LINE
  5
284
330
1F
100
AcDbEntity
  8
0
  6
Continuous
 62
     7
370
    15
100
AcDbLine
 10
288.5675396287
 20
1137.077988127
 30
0.0
 11
288.5675396287
 21
1137.2847566397
 31
0.0
  0
LINE
  5
285
330
1F
100
AcDbEntity
  8
0
  6
Continuous
 62
     7
370
    15
100
AcDbLine
 10
289.7675301396
 20
1137.2847566397
 30
0.0
 11
289.7675301396
 21
1137.077988127
 31
0.0
  0
LINE
  5
286
330
1F
100
AcDbEntity
  8
0
  6
Continuous
 62
     7
370
    15
100
AcDbLine
 10
288.3175279462
 20
1142.895490864
 30
0.0
 11
288.3175279462
 21
1142.9339656622
 31
0.0
  0
LINE
  5
287
330
1F
100
AcDbEntity
  8
0
  6
Continuous
 62
     7
370
    15
100
AcDbLine
 10
289.7675301396
 20
1142.7163193018
 30
0.0
 11
289.7675301396
 21
1141.8654629976
 31
0.0
  0
ARC
  5
288
330
1F
100
AcDbEntity
  8
0
  6
Continuous
 62
     7
370
    15
100
AcDbCircle
 10
283.2011142225
 20
1126.3055340775
 30
0.0
 40
0.2343612613461889
100
AcDbArc
 50
85.9868436413
 51
175.3202938076
  0
LINE
  5
289
330
1F
100
AcDbEntity
  8
0
  6
Continuous
 62
     7
370
    15
100
AcDbLine
 10
282.9675342404
 20
1126.3246545584
 30
0.0
 11
282.9675342404
 21
1128.5365531237
 31
0.0
  0
LINE
  5
28A
330
1F
100
AcDbEntity
  8
0
  6
Continuous
 62
     7
370
    15
100
AcDbLine
 10
282.9675342404
 20
1125.8486816675
 30
0.0
 11
282.9675342404
 21
1126.3246545584
 31
0.0
  0
LINE
  5
28B
330
1F
100
AcDbEntity
  8
0
  6
Continuous
 62
     7
370
    15
100
AcDbLine
 10
286.9209315144
 20
1136.5171084196
 30
0.0
 11
287.3675193154
 21
1133.6522111685
 31
0.0
  0
SPLINE
  5
28C
330
1F
100
AcDbEntity
  8
0
  6
Continuous
 62
     7
370
    15
100
AcDbSpline
210
0.0
220
0.0
230
1.0
 70
     8
 71
     3
 72
     9
 73
     5
 74
     0
 42
0.00000001
 43
0.00000001
 12
1.0
 22
0.0
 32
0.0
 13
1.0
 23
0.0
 33
0.0
 40
0.0
 40
0.0
 40
0.0
 40
0.0
 40
0.0701967352577623
 40
0.9999999999999999
 40
0.9999999999999999
 40
0.9999999999999999
 40
0.9999999999999999
 10
287.3675193154145
 20
1133.652211168492
 30
0.0
 10
287.3670787339878
 20
1133.584299542242
 30
0.0
 10
287.3608023533992
 20
1132.616852466524
 30
0.0
 10
287.1328667669067
 20
1131.668808392505
 30
0.0
 10
286.9209315144349
 20
1130.787313917363
 30
0.0
  0
LINE
  5
28D
330
1F
100
AcDbEntity
  8
0
  6
Continuous
 62
     7
370
    15
100
AcDbLine
 10
286.9209315144
 20
1130.7873139174
 30
0.0
 11
282.6141084992
 21
1130.7873139174
 31
0.0
  0
SPLINE
  5
28E
330
1F
100
AcDbEntity
  8
0
  6
Continuous
 62
     7
370
    15
100
AcDbSpline
210
0.0
220
0.0
230
1.0
 70
     8
 71
     3
 72
     9
 73
     5
 74
     0
 42
0.00000001
 43
0.00000001
 12
1.0
 22
0.0
 32
0.0
 13
1.0
 23
0.0
 33
0.0
 40
0.0
 40
0.0
 40
0.0
 40
0.0
 40
0.0701969643964743
 40
1.0
 40
1.0
 40
1.0
 40
1.0
 10
282.1675206982423
 20
1133.652211168492
 30
0.0
 10
282.1679715862062
 20
1133.58429955039
 30
0.0
 10
282.1743947694288
 20
1132.616855748714
 30
0.0
 10
282.4022489709617
 20
1131.668809861337
 30
0.0
 10
282.6141084992219
 20
1130.787313917363
 30
0.0
  0
LINE
  5
28F
330
1F
100
AcDbEntity
  8
0
  6
Continuous
 62
     7
370
    15
100
AcDbLine
 10
282.6141084992
 20
1136.5171084196
 30
0.0
 11
282.1675206982
 21
1133.6522111685
 31
0.0
  0
LINE
  5
290
330
1F
100
AcDbEntity
  8
0
  6
Continuous
 62
     7
370
    15
100
AcDbLine
 10
286.9209315144
 20
1136.5171084196
 30
0.0
 11
282.6141084992
 21
1136.5171084196
 31
0.0
  0
SPLINE
  5
291
330
1F
100
AcDbEntity
  8
0
  6
Continuous
 62
     7
370
    15
100
AcDbSpline
210
0.0
220
0.0
230
1.0
 70
     8
 71
     3
 72
     9
 73
     5
 74
     0
 42
0.00000001
 43
0.00000001
 12
1.0
 22
0.0
 32
0.0
 13
1.0
 23
0.0
 33
0.0
 40
0.0
 40
0.0
 40
0.0
 40
0.0
 40
0.2686307694671762
 40
1.0
 40
1.0
 40
1.0
 40
1.0
 10
282.1675206982423
 20
1138.256610372746
 30
0.0
 10
282.1741458322642
 20
1138.098443813753
 30
0.0
 10
282.1988084352676
 20
1137.509655867732
 30
0.0
 10
282.438676429125
 20
1136.936382743429
 30
0.0
 10
282.6141084992219
 20
1136.517108419621
 30
0.0
  0
LINE
  5
292
330
1F
100
AcDbEntity
  8
0
  6
Continuous
 62
     7
370
    15
100
AcDbLine
 10
282.1675206982
 20
1133.6522111685
 30
0.0
 11
282.1675206982
 21
1138.2566103727
 31
0.0
  0
LINE
  5
293
330
1F
100
AcDbEntity
  8
0
  6
Continuous
 62
     7
370
    15
100
AcDbLine
 10
287.2002984845
 20
1137.3772928507
 30
0.0
 11
286.9209315144
 21
1136.5171084196
 31
0.0
  0
LINE
  5
294
330
1F
100
AcDbEntity
  8
0
  6
Continuous
 62
     7
370
    15
100
AcDbLine
 10
286.9209315144
 20
1130.7873139174
 30
0.0
 11
287.3675193154
 21
1129.6619186194
 31
0.0
  0
LINE
  5
295
330
1F
100
AcDbEntity
  8
0
  6
Continuous
 62
     7
370
    15
100
AcDbLine
 10
282.6141084992
 20
1130.7873139174
 30
0.0
 11
282.1675206982
 21
1129.6619186194
 31
0.0
  0
LINE
  5
296
330
1F
100
AcDbEntity
  8
0
  6
Continuous
 62
     7
370
    15
100
AcDbLine
 10
282.1675206982
 20
1129.6619186194
 30
0.0
 11
282.1675206982
 21
1133.6522111685
 31
0.0
  0
SPLINE
  5
297
330
1F
100
AcDbEntity
  8
0
  6
Continuous
 62
     7
370
    15
100
AcDbSpline
210
0.0
220
0.0
230
1.0
 70
     8
 71
     3
 72
     9
 73
     5
 74
     0
 42
0.00000001
 43
0.00000001
 12
1.0
 22
0.0
 32
0.0
 13
1.0
 23
0.0
 33
0.0
 40
0.0
 40
0.0
 40
0.0
 40
0.0
 40
0.2575486087571552
 40
0.9999999999999999
 40
0.9999999999999999
 40
0.9999999999999999
 40
0.9999999999999999
 10
282.6141084992219
 20
1139.996112325871
 30
0.0
 10
282.5466888787103
 20
1139.850082818234
 30
0.0
 10
282.2849145253676
 20
1139.283084967451
 30
0.0
 10
282.2175417264964
 20
1138.693986987522
 30
0.0
 10
282.1675206982423
 20
1138.256610372746
 30
0.0
  0
LINE
  5
298
330
1F
100
AcDbEntity
  8
0
  6
Continuous
 62
     7
370
    15
100
AcDbLine
 10
282.9675342404
 20
1139.9961123259
 30
0.0
 11
282.6141084992
 21
1139.9961123259
 31
0.0
  0
LINE
  5
299
330
1F
100
AcDbEntity
  8
0
  6
Continuous
 62
     7
370
    15
100
AcDbLine
 10
286.9209315144
 20
1128.5365531237
 30
0.0
 11
282.6141084992
 21
1128.5365531237
 31
0.0
  0
SPLINE
  5
29A
330
1F
100
AcDbEntity
  8
0
  6
Continuous
 62
     7
370
    15
100
AcDbSpline
210
0.0
220
0.0
230
1.0
 70
     8
 71
     3
 72
     9
 73
     5
 74
     0
 42
0.00000001
 43
0.00000001
 12
1.0
 22
0.0
 32
0.0
 13
1.0
 23
0.0
 33
0.0
 40
0.0
 40
0.0
 40
0.0
 40
0.0
 40
0.0702026816818046
 40
1.0
 40
1.0
 40
1.0
 40
1.0
 10
282.1675206982423
 20
1129.661918619359
 30
0.0
 10
282.1679715222168
 20
1129.635243070285
 30
0.0
 10
282.1743932708424
 20
1129.255264009165
 30
0.0
 10
282.4022489239753
 20
1128.882835838255
 30
0.0
 10
282.6141084992219
 20
1128.536553123677
 30
0.0
  0
LINE
  5
29B
330
1F
100
AcDbEntity
  8
0
  6
Continuous
 62
     7
370
    15
100
AcDbLine
 10
282.4871804082
 20
1139.6973738463
 30
0.0
 11
282.6141084992
 21
1139.9961123259
 31
0.0
  0
LINE
  5
29C
330
1F
100
AcDbEntity
  8
0
  6
Continuous
 62
     7
370
    15
100
AcDbLine
 10
282.1675206982
 20
1138.2566103727
 30
0.0
 11
282.1675206982
 21
1139.2663428576
 31
0.0
  0
LINE
  5
29D
330
1F
100
AcDbEntity
  8
0
  6
Continuous
 62
     7
370
    15
100
AcDbLine
 10
282.1675206982
 20
1129.266322592
 30
0.0
 11
282.1675206982
 21
1129.6619186194
 31
0.0
  0
LINE
  5
29E
330
1F
100
AcDbEntity
  8
0
  6
Continuous
 62
     7
370
    15
100
AcDbLine
 10
294.5209409558
 20
1138.1547162325
 30
0.0
 11
294.9675287568
 21
1135.3346118719
 31
0.0
  0
SPLINE
  5
29F
330
1F
100
AcDbEntity
  8
0
  6
Continuous
 62
     7
370
    15
100
AcDbSpline
210
0.0
220
0.0
230
1.0
 70
     8
 71
     3
 72
     9
 73
     5
 74
     0
 42
0.00000001
 43
0.00000001
 12
1.0
 22
0.0
 32
0.0
 13
1.0
 23
0.0
 33
0.0
 40
0.0
 40
0.0
 40
0.0
 40
0.0
 40
0.0701960825971928
 40
1.0
 40
1.0
 40
1.0
 40
1.0
 10
294.9675287567903
 20
1135.334611871922
 30
0.0
 10
294.9670778589576
 20
1135.267763706358
 30
0.0
 10
294.9606544544583
 20
1134.315457493668
 30
0.0
 10
294.7328004768172
 20
1133.382243417479
 30
0.0
 10
294.5209409558107
 20
1132.514537313664
 30
0.0
  0
LINE
  5
2A0
330
1F
100
AcDbEntity
  8
0
  6
Continuous
 62
     7
370
    15
100
AcDbLine
 10
294.5209409558
 20
1132.5145373137
 30
0.0
 11
290.2141179406
 21
1132.5145373137
 31
0.0
  0
SPLINE
  5
2A1
330
1F
100
AcDbEntity
  8
0
  6
Continuous
 62
     7
370
    15
100
AcDbSpline
210
0.0
220
0.0
230
1.0
 70
     8
 71
     3
 72
     9
 73
     5
 74
     0
 42
0.00000001
 43
0.00000001
 12
1.0
 22
0.0
 32
0.0
 13
1.0
 23
0.0
 33
0.0
 40
0.0
 40
0.0
 40
0.0
 40
0.0
 40
0.070195853455398
 40
1.0
 40
1.0
 40
1.0
 40
1.0
 10
289.767530139618
 20
1135.334611871922
 30
0.0
 10
289.7679707309185
 20
1135.267763698337
 30
0.0
 10
289.7742473310133
 20
1134.315454262752
 30
0.0
 10
290.0021826944915
 20
1133.382241971592
 30
0.0
 10
290.2141179405976
 20
1132.514537313664
 30
0.0
  0
LINE
  5
2A2
330
1F
100
AcDbEntity
  8
0
  6
Continuous
 62
     7
370
    15
100
AcDbLine
 10
290.2141179406
 20
1138.1547162325
 30
0.0
 11
289.7675301396
 21
1135.3346118719
 31
0.0
  0
LINE
  5
2A3
330
1F
100
AcDbEntity
  8
0
  6
Continuous
 62
     7
370
    15
100
AcDbLine
 10
294.5209409558
 20
1138.1547162325
 30
0.0
 11
290.2141179406
 21
1138.1547162325
 31
0.0
  0
LINE
  5
2A4
330
1F
100
AcDbEntity
  8
0
  6
Continuous
 62
     7
370
    15
100
AcDbLine
 10
294.5209409558
 20
1132.5145373137
 30
0.0
 11
294.9675287568
 21
1130.5703232081
 31
0.0
  0
LINE
  5
2A5
330
1F
100
AcDbEntity
  8
0
  6
Continuous
 62
     7
370
    15
100
AcDbLine
 10
294.9675287568
 20
1135.3346118719
 30
0.0
 11
294.9675287568
 21
1130.5703232081
 31
0.0
  0
LINE
  5
2A6
330
1F
100
AcDbEntity
  8
0
  6
Continuous
 62
     7
370
    15
100
AcDbLine
 10
290.2141179406
 20
1132.5145373137
 30
0.0
 11
289.7675301396
 21
1130.5703232081
 31
0.0
  0
SPLINE
  5
2A7
330
1F
100
AcDbEntity
  8
0
  6
Continuous
 62
     7
370
    15
100
AcDbSpline
210
0.0
220
0.0
230
1.0
 70
     8
 71
     3
 72
     9
 73
     5
 74
     0
 42
0.00000001
 43
0.00000001
 12
1.0
 22
0.0
 32
0.0
 13
1.0
 23
0.0
 33
0.0
 40
0.0
 40
0.0
 40
0.0
 40
0.0
 40
0.2686306505571613
 40
1.0
 40
1.0
 40
1.0
 40
1.0
 10
289.767530139618
 20
1139.030606487477
 30
0.0
 10
289.7741552800238
 20
1138.950965683842
 30
0.0
 10
289.7988179177087
 20
1138.654496150413
 30
0.0
 10
290.0386858713736
 20
1138.365834509226
 30
0.0
 10
290.2141179405976
 20
1138.154716232503
 30
0.0
  0
SPLINE
  5
2A8
330
1F
100
AcDbEntity
  8
0
  6
Continuous
 62
     7
370
    15
100
AcDbSpline
210
0.0
220
0.0
230
1.0
 70
     8
 71
     3
 72
     9
 73
     5
 74
     0
 42
0.00000001
 43
0.00000001
 12
1.0
 22
0.0
 32
0.0
 13
1.0
 23
0.0
 33
0.0
 40
0.0
 40
0.0
 40
0.0
 40
0.0
 40
0.2686306505571613
 40
1.0
 40
1.0
 40
1.0
 40
1.0
 10
294.9675287567903
 20
1139.030606487477
 30
0.0
 10
294.9609036163845
 20
1138.950965683842
 30
0.0
 10
294.9362409786996
 20
1138.654496150413
 30
0.0
 10
294.6963730250347
 20
1138.365834509226
 30
0.0
 10
294.5209409558107
 20
1138.154716232503
 30
0.0
  0
LINE
  5
2A9
330
1F
100
AcDbEntity
  8
0
  6
Continuous
 62
     7
370
    15
100
AcDbLine
 10
294.9675287568
 20
1139.0306064875
 30
0.0
 11
294.9675287568
 21
1135.3346118719
 31
0.0
  0
SPLINE
  5
2AA
330
1F
100
AcDbEntity
  8
0
  6
Continuous
 62
     7
370
    15
100
AcDbSpline
210
0.0
220
0.0
230
1.0
 70
     8
 71
     3
 72
     9
 73
     5
 74
     0
 42
0.00000001
 43
0.00000001
 12
1.0
 22
0.0
 32
0.0
 13
1.0
 23
0.0
 33
0.0
 40
0.0
 40
0.0
 40
0.0
 40
0.0
 40
0.0701969974509326
 40
0.9999999999999999
 40
0.9999999999999999
 40
0.9999999999999999
 40
0.9999999999999999
 10
294.9675287567903
 20
1130.570323208058
 30
0.0
 10
294.9670778691963
 20
1130.524237141241
 30
0.0
 10
294.9606546942688
 20
1129.867712382482
 30
0.0
 10
294.732800484343
 20
1129.224344393072
 30
0.0
 10
294.5209409558106
 20
1128.626138904774
 30
0.0
  0
LINE
  5
2AB
330
1F
100
AcDbEntity
  8
0
  6
Continuous
 62
     7
370
    15
100
AcDbLine
 10
294.5209409558
 20
1128.6261389048
 30
0.0
 11
294.1675152146
 21
1128.6261389048
 31
0.0
  0
SPLINE
  5
2AC
330
1F
100
AcDbEntity
  8
0
  6
Continuous
 62
     7
370
    15
100
AcDbSpline
210
0.0
220
0.0
230
1.0
 70
     8
 71
     3
 72
     9
 73
     5
 74
     0
 42
0.00000001
 43
0.00000001
 12
1.0
 22
0.0
 32
0.0
 13
1.0
 23
0.0
 33
0.0
 40
0.0
 40
0.0
 40
0.0
 40
0.0
 40
0.5278541463380552
 40
0.9999999999999999
 40
0.9999999999999999
 40
0.9999999999999999
 40
0.9999999999999999
 10
289.767530139618
 20
1130.570323208058
 30
0.0
 10
289.7655954215284
 20
1130.524095705894
 30
0.0
 10
289.7619301702406
 20
1130.436519426567
 30
0.0
 10
289.7877597414347
 20
1130.350698656623
 30
0.0
 10
289.7999550663758
 20
1130.310178735936
 30
0.0
  0
SPLINE
  5
2AD
330
1F
100
AcDbEntity
  8
0
  6
Continuous
 62
     7
370
    15
100
AcDbSpline
210
0.0
220
0.0
230
1.0
 70
     8
 71
     3
 72
     9
 73
     5
 74
     0
 42
0.00000001
 43
0.00000001
 12
1.0
 22
0.0
 32
0.0
 13
1.0
 23
0.0
 33
0.0
 40
0.0
 40
0.0
 40
0.0
 40
0.0
 40
0.2575549677951692
 40
1.0
 40
1.0
 40
1.0
 40
1.0
 10
294.5209409558107
 20
1139.906526544774
 30
0.0
 10
294.5883605550738
 20
1139.832991980585
 30
0.0
 10
294.8501283627004
 20
1139.54748180457
 30
0.0
 10
294.9175051762699
 20
1139.250843857582
 30
0.0
 10
294.9675287567903
 20
1139.030606487477
 30
0.0
  0
SPLINE
  5
2AE
330
1F
100
AcDbEntity
  8
0
  6
Continuous
 62
     7
370
    15
100
AcDbSpline
210
0.0
220
0.0
230
1.0
 70
     8
 71
     3
 72
     9
 73
     5
 74
     0
 42
0.00000001
 43
0.00000001
 12
1.0
 22
0.0
 32
0.0
 13
1.0
 23
0.0
 33
0.0
 40
0.0
 40
0.0
 40
0.0
 40
0.0
 40
0.5569415009307609
 40
1.0
 40
1.0
 40
1.0
 40
1.0
 10
290.2141179405976
 20
1139.906526544774
 30
0.0
 10
290.1417023913899
 20
1139.833276818035
 30
0.0
 10
290.0116787729546
 20
1139.701755416565
 30
0.0
 10
289.9715460127282
 20
1139.565099420787
 30
0.0
 10
289.9537648522187
 20
1139.504552820408
 30
0.0
  0
LINE
  5
2AF
330
1F
100
AcDbEntity
  8
0
  6
Continuous
 62
     7
370
    15
100
AcDbLine
 10
294.5209409558
 20
1139.9065265448
 30
0.0
 11
290.2141179406
 21
1139.9065265448
 31
0.0
  0
LINE
  5
2B0
330
1F
100
AcDbEntity
  8
0
  6
Continuous
 62
     7
370
    15
100
AcDbLine
 10
294.7814430558
 20
1129.0300795824
 30
0.0
 11
294.5209409558
 21
1128.6261389048
 31
0.0
  0
LINE
  5
2B1
330
1F
100
AcDbEntity
  8
0
  6
Continuous
 62
     7
370
    15
100
AcDbLine
 10
294.9675287568
 20
1129.266322592
 30
0.0
 11
294.9675287568
 21
1130.5703232081
 31
0.0
  0
LINE
  5
2B2
330
1F
100
AcDbEntity
  8
0
  6
Continuous
 62
     7
370
    15
100
AcDbLine
 10
294.9675287568
 20
1139.2663428576
 30
0.0
 11
294.9675287568
 21
1139.0306064875
 31
0.0
  0
LINE
  5
2B3
330
1F
100
AcDbEntity
  8
0
  6
Continuous
 62
     7
370
    15
100
AcDbLine
 10
298.467513498
 20
1129.8922905714
 30
0.0
 11
295.664098438
 21
1129.8922905714
 31
0.0
  0
SPLINE
  5
2B4
330
1F
100
AcDbEntity
  8
0
  6
Continuous
 62
     7
370
    15
100
AcDbSpline
210
0.0
220
0.0
230
1.0
 70
     8
 71
     3
 72
     9
 73
     5
 74
     0
 42
0.00000001
 43
0.00000001
 12
1.0
 22
0.0
 32
0.0
 13
1.0
 23
0.0
 33
0.0
 40
0.0
 40
0.0
 40
0.0
 40
0.0
 40
0.0701976328295743
 40
0.9999999999999999
 40
0.9999999999999999
 40
0.9999999999999999
 40
0.9999999999999999
 10
295.2175106369783
 20
1132.617563942158
 30
0.0
 10
295.2179615174614
 20
1132.552961952143
 30
0.0
 10
295.2243845329511
 20
1131.632674651685
 30
0.0
 10
295.4522389042003
 20
1130.730828892826
 30
0.0
 10
295.6640984379579
 20
1129.892290571416
 30
0.0
  0
LINE
  5
2B5
330
1F
100
AcDbEntity
  8
0
  6
Continuous
 62
     7
370
    15
100
AcDbLine
 10
295.664098438
 20
1135.3428671152
 30
0.0
 11
295.217510637
 21
1132.6175639422
 31
0.0
  0
LINE
  5
2B6
330
1F
100
AcDbEntity
  8
0
  6
Continuous
 62
     7
370
    15
100
AcDbLine
 10
298.467513498
 20
1135.3428671152
 30
0.0
 11
295.664098438
 21
1135.3428671152
 31
0.0
  0
SPLINE
  5
2B7
330
1F
100
AcDbEntity
  8
0
  6
Continuous
 62
     7
370
    15
100
AcDbSpline
210
0.0
220
0.0
230
1.0
 70
     8
 71
     3
 72
     9
 73
     5
 74
     0
 42
0.00000001
 43
0.00000001
 12
1.0
 22
0.0
 32
0.0
 13
1.0
 23
0.0
 33
0.0
 40
0.0
 40
0.0
 40
0.0
 40
0.0
 40
0.0702034907503608
 40
0.9999999999999999
 40
0.9999999999999999
 40
0.9999999999999999
 40
0.9999999999999999
 10
295.2175106369783
 20
1137.529880741322
 30
0.0
 10
295.217961451897
 20
1137.478030055391
 30
0.0
 10
295.224382997521
 20
1136.739453022016
 30
0.0
 10
295.4522388560685
 20
1136.015757077859
 30
0.0
 10
295.6640984379579
 20
1135.342867115223
 30
0.0
  0
LINE
  5
2B8
330
1F
100
AcDbEntity
  8
0
  6
Continuous
 62
     7
370
    15
100
AcDbLine
 10
295.217510637
 20
1132.6175639422
 30
0.0
 11
295.217510637
 21
1137.5298807413
 31
0.0
  0
LINE
  5
2B9
330
1F
100
AcDbEntity
  8
0
  6
Continuous
 62
     7
370
    15
100
AcDbLine
 10
295.664098438
 20
1139.7168943674
 30
0.0
 11
295.217510637
 21
1137.5298807413
 31
0.0
  0
LINE
  5
2BA
330
1F
100
AcDbEntity
  8
0
  6
Continuous
 62
     7
370
    15
100
AcDbLine
 10
298.467513498
 20
1139.7168943674
 30
0.0
 11
295.664098438
 21
1139.7168943674
 31
0.0
  0
SPLINE
  5
2BB
330
1F
100
AcDbEntity
  8
0
  6
Continuous
 62
     7
370
    15
100
AcDbSpline
210
0.0
220
0.0
230
1.0
 70
     8
 71
     3
 72
     9
 73
     5
 74
     0
 42
0.00000001
 43
0.00000001
 12
1.0
 22
0.0
 32
0.0
 13
1.0
 23
0.0
 33
0.0
 40
0.0
 40
0.0
 40
0.0
 40
0.0
 40
0.2686331877978955
 40
1.0
 40
1.0
 40
1.0
 40
1.0
 10
295.2175106369783
 20
1129.354030826771
 30
0.0
 10
295.2241473996878
 20
1129.402972297064
 30
0.0
 10
295.2488530690208
 20
1129.585159281085
 30
0.0
 10
295.4886898072618
 20
1129.762551667358
 30
0.0
 10
295.6640984379579
 20
1129.892290571416
 30
0.0
  0
LINE
  5
2BC
330
1F
100
AcDbEntity
  8
0
  6
Continuous
 62
     7
370
    15
100
AcDbLine
 10
295.217510637
 20
1129.3540308268
 30
0.0
 11
295.217510637
 21
1132.6175639422
 31
0.0
  0
SPLINE
  5
2BD
330
1F
100
AcDbEntity
  8
0
  6
Continuous
 62
     7
370
    15
100
AcDbSpline
210
0.0
220
0.0
230
1.0
 70
     8
 71
     3
 72
     9
 73
     5
 74
     0
 42
0.00000001
 43
0.00000001
 12
1.0
 22
0.0
 32
0.0
 13
1.0
 23
0.0
 33
0.0
 40
0.0
 40
0.0
 40
0.0
 40
0.0
 40
0.2686350752305158
 40
1.0
 40
1.0
 40
1.0
 40
1.0
 10
295.2175106369783
 20
1139.178634622777
 30
0.0
 10
295.2241472983732
 20
1139.227587790523
 30
0.0
 10
295.2488524169776
 20
1139.409817038526
 30
0.0
 10
295.488689793281
 20
1139.58717845119
 30
0.0
 10
295.6640984379579
 20
1139.716894367421
 30
0.0
  0
LINE
  5
2BE
330
1F
100
AcDbEntity
  8
0
  6
Continuous
 62
     7
370
    15
100
AcDbLine
 10
295.217510637
 20
1137.5298807413
 30
0.0
 11
295.217510637
 21
1139.2582962305
 31
0.0
  0
LINE
  5
2BF
330
1F
100
AcDbEntity
  8
0
  6
Continuous
 62
     7
370
    15
100
AcDbLine
 10
298.467513498
 20
1128.8157710821
 30
0.0
 11
295.664098438
 21
1128.8157710821
 31
0.0
  0
SPLINE
  5
2C0
330
1F
100
AcDbEntity
  8
0
  6
Continuous
 62
     7
370
    15
100
AcDbSpline
210
0.0
220
0.0
230
1.0
 70
     8
 71
     3
 72
     9
 73
     5
 74
     0
 42
0.00000001
 43
0.00000001
 12
1.0
 22
0.0
 32
0.0
 13
1.0
 23
0.0
 33
0.0
 40
0.0
 40
0.0
 40
0.0
 40
0.0
 40
0.2575506827325021
 40
0.9999999999999999
 40
0.9999999999999999
 40
0.9999999999999999
 40
0.9999999999999999
 10
295.6640984379579
 20
1128.815771082127
 30
0.0
 10
295.5966904815205
 20
1128.860959371069
 30
0.0
 10
295.3349635246269
 20
1129.036413337887
 30
0.0
 10
295.2675567504472
 20
1129.218695534411
 30
0.0
 10
295.2175106369783
 20
1129.354030826771
 30
0.0
  0
LINE
  5
2C1
330
1F
100
AcDbEntity
  8
0
  6
Continuous
 62
     7
370
    15
100
AcDbLine
 10
295.664098438
 20
1128.8157710821
 30
0.0
 11
295.217510637
 21
1131.0027847082
 31
0.0
  0
LINE
  5
2C2
330
1F
100
AcDbEntity
  8
0
  6
Continuous
 62
     7
370
    15
100
AcDbLine
 10
329.9675251805
 20
1095.9008643419
 30
0.0
 11
329.9675251805
 21
1105.9761950762
 31
0.0
  0
LINE
  5
2C3
330
1F
100
AcDbEntity
  8
0
  6
Continuous
 62
     7
370
    15
100
AcDbLine
 10
313.1675388181
 20
951.2663343937
 30
0.0
 11
313.1675388181
 21
924.9289045126
 31
0.0
  0
LINE
  5
2C4
330
1F
100
AcDbEntity
  8
0
  6
Continuous
 62
     7
370
    15
100
AcDbLine
 10
313.1675388181
 20
914.8199120552
 30
0.0
 11
313.1675388181
 21
866.2663334996
 31
0.0
  0
LINE
  5
2C5
330
1F
100
AcDbEntity
  8
0
  6
Continuous
 62
     7
370
    15
100
AcDbLine
 10
313.1675388181
 20
814.8199068398
 30
0.0
 11
313.1675388181
 21
724.9289015324
 31
0.0
  0
LINE
  5
2C6
330
1F
100
AcDbEntity
  8
0
  6
Continuous
 62
     7
370
    15
100
AcDbLine
 10
313.1675388181
 20
666.2663305194
 30
0.0
 11
313.1675388181
 21
624.9289074928
 31
0.0
  0
LINE
  5
2C7
330
1F
100
AcDbEntity
  8
0
  6
Continuous
 62
     7
370
    15
100
AcDbLine
 10
313.1675388181
 20
614.8199001343
 30
0.0
 11
313.1675388181
 21
581.2663296253
 31
0.0
  0
ENDSEC
  0
SECTION
  2
OBJECTS
  0
DICTIONARY
  5
C
330
0
100
AcDbDictionary
281
     1
  3
ACAD_GROUP
350
D
  3
ACAD_LAYOUT
350
1A
  3
ACAD_MLINESTYLE
350
17
  3
ACAD_PLOTSETTINGS
350
19
  3
ACAD_PLOTSTYLENAME
350
E
  0
DICTIONARY
  5
D
102
{ACAD_REACTORS
330
C
102
}
330
C
100
AcDbDictionary
281
     1
  0
DICTIONARY
  5
1A
102
{ACAD_REACTORS
330
C
102
}
330
C
100
AcDbDictionary
281
     1
  3
Layout1
350
1E
  3
Layout2
350
26
  3
Model
350
22
  0
DICTIONARY
  5
17
102
{ACAD_REACTORS
330
C
102
}
330
C
100
AcDbDictionary
281
     1
  3
Standard
350
18
  0
DICTIONARY
  5
19
102
{ACAD_REACTORS
330
C
102
}
330
C
100
AcDbDictionary
281
     1
  0
ACDBDICTIONARYWDFLT
  5
E
102
{ACAD_REACTORS
330
C
102
}
330
C
100
AcDbDictionary
281
     1
  3
Normal
350
F
100
AcDbDictionaryWithDefault
340
F
  0
LAYOUT
  5
1E
102
{ACAD_REACTORS
330
1A
102
}
330
1A
100
AcDbPlotSettings
  1

  2
none_device
  4

  6

 40
0.0
 41
0.0
 42
0.0
 43
0.0
 44
0.0
 45
0.0
 46
0.0
 47
0.0
 48
0.0
 49
0.0
140
0.0
141
0.0
142
1.0
143
1.0
 70
   688
 72
     0
 73
     0
 74
     5
  7

 75
    16
147
1.0
148
0.0
149
0.0
100
AcDbLayout
  1
Layout1
 70
     1
 71
     1
 10
0.0
 20
0.0
 11
420.0
 21
297.0
 12
0.0
 22
0.0
 32
0.0
 14
1.0000000000E+20
 24
1.0000000000E+20
 34
1.0000000000E+20
 15
-1.0000000000E+20
 25
-1.0000000000E+20
 35
-1.0000000000E+20
146
0.0
 13
0.0
 23
0.0
 33
0.0
 16
1.0
 26
0.0
 36
0.0
 17
0.0
 27
1.0
 37
0.0
 76
     0
330
1B
  0
LAYOUT
  5
26
102
{ACAD_REACTORS
330
1A
102
}
330
1A
100
AcDbPlotSettings
  1

  2
none_device
  4

  6

 40
0.0
 41
0.0
 42
0.0
 43
0.0
 44
0.0
 45
0.0
 46
0.0
 47
0.0
 48
0.0
 49
0.0
140
0.0
141
0.0
142
1.0
143
1.0
 70
   688
 72
     0
 73
     0
 74
     5
  7

 75
    16
147
1.0
148
0.0
149
0.0
100
AcDbLayout
  1
Layout2
 70
     1
 71
     2
 10
0.0
 20
0.0
 11
0.0
 21
0.0
 12
0.0
 22
0.0
 32
0.0
 14
0.0
 24
0.0
 34
0.0
 15
0.0
 25
0.0
 35
0.0
146
0.0
 13
0.0
 23
0.0
 33
0.0
 16
1.0
 26
0.0
 36
0.0
 17
0.0
 27
1.0
 37
0.0
 76
     0
330
23
  0
LAYOUT
  5
22
102
{ACAD_REACTORS
330
1A
102
}
330
1A
100
AcDbPlotSettings
  1

  2
none_device
  4

  6

 40
0.0
 41
0.0
 42
0.0
 43
0.0
 44
0.0
 45
0.0
 46
0.0
 47
0.0
 48
0.0
 49
0.0
140
0.0
141
0.0
142
1.0
143
1.0
 70
  1712
 72
     0
 73
     0
 74
     0
  7

 75
     0
147
1.0
148
0.0
149
0.0
100
AcDbLayout
  1
Model
 70
     1
 71
     0
 10
0.0
 20
0.0
 11
1500.0
 21
1500.0
 12
0.0
 22
0.0
 32
0.0
 14
0.0
 24
0.0
 34
0.0
 15
1500.0
 25
1500.0
 35
0.0
146
0.0
 13
0.0
 23
0.0
 33
0.0
 16
1.0
 26
0.0
 36
0.0
 17
0.0
 27
1.0
 37
0.0
 76
     0
330
1F
331
29
  0
MLINESTYLE
  5
18
102
{ACAD_REACTORS
330
17
102
}
330
17
100
AcDbMlineStyle
  2
Standard
 70
     0
  3

 62
   256
 51
90.0
 52
90.0
 71
     2
 49
0.5
 62
   256
  6
BYLAYER
 49
-0.5
 62
   256
  6
BYLAYER
  0
ACDBPLACEHOLDER
  5
F
102
{ACAD_REACTORS
330
E
102
}
330
E
  0
ENDSEC
  0
EOF
