  0
SECTION
  2
HEADER
  9
$ACADVER
  1
AC1015
  9
$ACADMAINTVER
 70
     6
  9
$DWGCODEPAGE
  3
ANSI_1252
  9
$INSBASE
 10
0.0
 20
0.0
 30
0.0
  9
$EXTMIN
 10
0.0
 20
0.0
 30
0.0
  9
$EXTMAX
 10
1189.0
 20
841.0
 30
0.0
  9
$LIMMIN
 10
0.0
 20
0.0
  9
$LIMMAX
 10
1189.0
 20
841.0
  9
$ORTHOMODE
 70
     0
  9
$REGENMODE
 70
     1
  9
$FILLMODE
 70
     1
  9
$QTEXTMODE
 70
     0
  9
$MIRRTEXT
 70
     1
  9
$LTSCALE
 40
1.0
  9
$ATTMODE
 70
     1
  9
$TEXTSIZE
 40
3.5
  9
$TRACEWID
 40
1.0
  9
$TEXTSTYLE
  7
STANDARD
  9
$CLAYER
  8
0
  9
$CELTYPE
  6
ByLayer
  9
$CECOLOR
 62
   256
  9
$CELTSCALE
 40
1.0
  9
$DISPSILH
 70
     0
  9
$DIMSCALE
 40
1.0
  9
$DIMASZ
 40
3.302
  9
$DIMEXO
 40
1.0
  9
$DIMDLI
 40
3.75
  9
$DIMRND
 40
0.0
  9
$DIMDLE
 40
0.0
  9
$DIMEXE
 40
1.0
  9
$DIMTP
 40
0.0
  9
$DIMTM
 40
0.0
  9
$DIMTXT
 40
3.5
  9
$DIMCEN
 40
2.5
  9
$DIMTSZ
 40
0.0
  9
$DIMTOL
 70
     0
  9
$DIMLIM
 70
     0
  9
$DIMTIH
 70
     1
  9
$DIMTOH
 70
     1
  9
$DIMSE1
 70
     0
  9
$DIMSE2
 70
     0
  9
$DIMTAD
 70
     1
  9
$DIMZIN
 70
     1
  9
$DIMBLK
  1

  9
$DIMASO
 70
     1
  9
$DIMSHO
 70
     1
  9
$DIMPOST
  1

  9
$DIMAPOST
  1

  9
$DIMALT
 70
     0
  9
$DIMALTD
 70
     3
  9
$DIMALTF
 40
0.0393700787
  9
$DIMLFAC
 40
1.0
  9
$DIMTOFL
 70
     1
  9
$DIMTVP
 40
0.0
  9
$DIMTIX
 70
     0
  9
$DIMSOXD
 70
     0
  9
$DIMSAH
 70
     0
  9
$DIMBLK1
  1

  9
$DIMBLK2
  1

  9
$DIMSTYLE
  2
ISO-25
  9
$DIMCLRD
 70
     0
  9
$DIMCLRE
 70
     0
  9
$DIMCLRT
 70
     0
  9
$DIMTFAC
 40
1.0
  9
$DIMGAP
 40
1.524
  9
$DIMJUST
 70
     0
  9
$DIMSD1
 70
     0
  9
$DIMSD2
 70
     0
  9
$DIMTOLJ
 70
     0
  9
$DIMTZIN
 70
     1
  9
$DIMALTZ
 70
     0
  9
$DIMALTTZ
 70
     0
  9
$DIMUPT
 70
     0
  9
$DIMDEC
 70
     1
  9
$DIMTDEC
 70
     1
  9
$DIMALTU
 70
     2
  9
$DIMALTTD
 70
     3
  9
$DIMTXSTY
  7
STANDARD
  9
$DIMAUNIT
 70
     0
  9
$DIMADEC
 70
     1
  9
$DIMALTRND
 40
0.0
  9
$DIMAZIN
 70
     0
  9
$DIMDSEP
 70
    44
  9
$DIMATFIT
 70
     3
  9
$DIMFRAC
 70
     0
  9
$DIMLDRBLK
  1

  9
$DIMLUNIT
 70
     2
  9
$DIMLWD
 70
    -2
  9
$DIMLWE
 70
    -2
  9
$DIMTMOVE
 70
     0
  9
$LUNITS
 70
     2
  9
$LUPREC
 70
     1
  9
$SKETCHINC
 40
1.0
  9
$FILLETRAD
 40
10.0
  9
$AUNITS
 70
     0
  9
$AUPREC
 70
     1
  9
$MENU
  1
.
  9
$ELEVATION
 40
0.0
  9
$PELEVATION
 40
0.0
  9
$THICKNESS
 40
0.0
  9
$LIMCHECK
 70
     0
  9
$CHAMFERA
 40
10.0
  9
$CHAMFERB
 40
10.0
  9
$CHAMFERC
 40
20.0
  9
$CHAMFERD
 40
0.0
  9
$SKPOLY
 70
     0
  9
$TDCREATE
 40
2455637.325413912
  9
$TDUCREATE
 40
2455637.325413912
  9
$TDUPDATE
 40
2455637.325413924
  9
$TDUUPDATE
 40
2455637.325413924
  9
$TDINDWG
 40
0.0000000116
  9
$TDUSRTIMER
 40
0.0000000116
  9
$USRTIMER
 70
     1
  9
$ANGBASE
 50
0.0
  9
$ANGDIR
 70
     0
  9
$PDMODE
 70
     0
  9
$PDSIZE
 40
-1.0
  9
$PLINEWID
 40
0.0
  9
$SPLFRAME
 70
     0
  9
$SPLINETYPE
 70
     6
  9
$SPLINESEGS
 70
     8
  9
$HANDSEED
  5
32E
  9
$SURFTAB1
 70
     6
  9
$SURFTAB2
 70
     6
  9
$SURFTYPE
 70
     6
  9
$SURFU
 70
     6
  9
$SURFV
 70
     6
  9
$UCSBASE
  2

  9
$UCSNAME
  2

  9
$UCSORG
 10
0.0
 20
0.0
 30
0.0
  9
$UCSXDIR
 10
1.0
 20
0.0
 30
0.0
  9
$UCSYDIR
 10
0.0
 20
1.0
 30
0.0
  9
$UCSORTHOREF
  2

  9
$UCSORTHOVIEW
 70
     0
  9
$UCSORGTOP
 10
0.0
 20
0.0
 30
0.0
  9
$UCSORGBOTTOM
 10
0.0
 20
0.0
 30
0.0
  9
$UCSORGLEFT
 10
0.0
 20
0.0
 30
0.0
  9
$UCSORGRIGHT
 10
0.0
 20
0.0
 30
0.0
  9
$UCSORGFRONT
 10
0.0
 20
0.0
 30
0.0
  9
$UCSORGBACK
 10
0.0
 20
0.0
 30
0.0
  9
$PUCSBASE
  2

  9
$PUCSNAME
  2

  9
$PUCSORG
 10
0.0
 20
0.0
 30
0.0
  9
$PUCSXDIR
 10
1.0
 20
0.0
 30
0.0
  9
$PUCSYDIR
 10
0.0
 20
1.0
 30
0.0
  9
$PUCSORTHOREF
  2

  9
$PUCSORTHOVIEW
 70
     0
  9
$PUCSORGTOP
 10
0.0
 20
0.0
 30
0.0
  9
$PUCSORGBOTTOM
 10
0.0
 20
0.0
 30
0.0
  9
$PUCSORGLEFT
 10
0.0
 20
0.0
 30
0.0
  9
$PUCSORGRIGHT
 10
0.0
 20
0.0
 30
0.0
  9
$PUCSORGFRONT
 10
0.0
 20
0.0
 30
0.0
  9
$PUCSORGBACK
 10
0.0
 20
0.0
 30
0.0
  9
$USERI1
 70
     0
  9
$USERI2
 70
     0
  9
$USERI3
 70
     0
  9
$USERI4
 70
     0
  9
$USERI5
 70
     0
  9
$USERR1
 40
0.0
  9
$USERR2
 40
0.0
  9
$USERR3
 40
0.0
  9
$USERR4
 40
0.0
  9
$USERR5
 40
0.0
  9
$WORLDVIEW
 70
     1
  9
$SHADEDGE
 70
     3
  9
$SHADEDIF
 70
    70
  9
$TILEMODE
 70
     1
  9
$MAXACTVP
 70
    64
  9
$PINSBASE
 10
0.0
 20
0.0
 30
0.0
  9
$PLIMCHECK
 70
     0
  9
$PEXTMIN
 10
1.0000000000E+20
 20
1.0000000000E+20
 30
1.0000000000E+20
  9
$PEXTMAX
 10
-1.0000000000E+20
 20
-1.0000000000E+20
 30
-1.0000000000E+20
  9
$PLIMMIN
 10
0.0
 20
0.0
  9
$PLIMMAX
 10
420.0
 20
297.0
  9
$UNITMODE
 70
     0
  9
$VISRETAIN
 70
     1
  9
$PLINEGEN
 70
     0
  9
$PSLTSCALE
 70
     1
  9
$TREEDEPTH
 70
  3020
  9
$CMLSTYLE
  2
Standard
  9
$CMLJUST
 70
     0
  9
$CMLSCALE
 40
20.0
  9
$PROXYGRAPHICS
 70
     1
  9
$MEASUREMENT
 70
     1
  9
$CELWEIGHT
370
    -1
  9
$ENDCAPS
280
     0
  9
$JOINSTYLE
280
     0
  9
$LWDISPLAY
290
     1
  9
$INSUNITS
 70
     4
  9
$HYPERLINKBASE
  1

  9
$STYLESHEET
  1

  9
$XEDIT
290
     1
  9
$CEPSNTYPE
380
     0
  9
$PSTYLEMODE
290
     1
  9
$FINGERPRINTGUID
  2
{F9E7C2EA-CBB4-44B8-A15C-DEFCD3C6C50B}
  9
$VERSIONGUID
  2
{FAEB1C32-E019-11D5-929B-00C0DF256EC4}
  9
$EXTNAMES
290
     1
  9
$PSVPSCALE
 40
0.0
  9
$OLESTARTUP
290
     0
  0
ENDSEC
  0
SECTION
  2
CLASSES
  0
CLASS
  1
ACDBDICTIONARYWDFLT
  2
AcDbDictionaryWithDefault
  3
ObjectDBX Classes
 90
        0
280
     0
281
     0
  0
CLASS
  1
VISUALSTYLE
  2
AcDbVisualStyle
  3
ObjectDBX Classes
 90
     4095
280
     0
281
     0
  0
CLASS
  1
MATERIAL
  2
AcDbMaterial
  3
ObjectDBX Classes
 90
     1153
280
     0
281
     0
  0
CLASS
  1
ACDBPLACEHOLDER
  2
AcDbPlaceHolder
  3
ObjectDBX Classes
 90
        0
280
     0
281
     0
  0
CLASS
  1
LAYOUT
  2
AcDbLayout
  3
ObjectDBX Classes
 90
        0
280
     0
281
     0
  0
ENDSEC
  0
SECTION
  2
TABLES
  0
TABLE
  2
VPORT
  5
8
330
0
100
AcDbSymbolTable
 70
     1
  0
VPORT
  5
29
330
8
100
AcDbSymbolTableRecord
100
AcDbViewportTableRecord
  2
*Active
 70
     0
 10
0.0
 20
0.0
 11
1.0
 21
1.0
 12
594.5
 22
420.5
 13
0.0
 23
0.0
 14
10.0
 24
10.0
 15
10.0
 25
10.0
 16
0.0
 26
0.0
 36
1.0
 17
0.0
 27
0.0
 37
0.0
 40
841.0
 41
1.4137931034
 42
50.0
 43
0.0
 44
0.0
 50
0.0
 51
0.0
 71
     0
 72
  2000
 73
     1
 74
     3
 75
     0
 76
     0
 77
     0
 78
     0
281
     0
 65
     1
110
0.0
120
0.0
130
0.0
111
1.0
121
0.0
131
0.0
112
0.0
122
1.0
132
0.0
 79
     0
146
0.0
  0
ENDTAB
  0
TABLE
  2
LTYPE
  5
5
330
0
100
AcDbSymbolTable
 70
     8
  0
LTYPE
  5
14
330
5
100
AcDbSymbolTableRecord
100
AcDbLinetypeTableRecord
  2
ByBlock
 70
     0
  3

 72
    65
 73
     0
 40
0.0
  0
LTYPE
  5
15
330
5
100
AcDbSymbolTableRecord
100
AcDbLinetypeTableRecord
  2
ByLayer
 70
     0
  3

 72
    65
 73
     0
 40
0.0
  0
LTYPE
  5
16
330
5
100
AcDbSymbolTableRecord
100
AcDbLinetypeTableRecord
  2
Continuous
 70
     0
  3
Solid line
 72
    65
 73
     0
 40
0.0
  0
LTYPE
  5
3F
330
5
100
AcDbSymbolTableRecord
100
AcDbLinetypeTableRecord
  2
SLD-Solid
 70
     0
  3
SolidWorks Line Style
 72
    65
 73
     0
 40
0.0
  0
LTYPE
  5
40
330
5
100
AcDbSymbolTableRecord
100
AcDbLinetypeTableRecord
  2
SLD-Dashed
 70
     0
  3
SolidWorks Line Style
 72
    65
 73
     2
 40
1.905
 49
1.27
 74
     0
 49
-0.635
 74
     0
  0
LTYPE
  5
41
330
5
100
AcDbSymbolTableRecord
100
AcDbLinetypeTableRecord
  2
SLD-Phantom
 70
     0
  3
SolidWorks Line Style
 72
    65
 73
     6
 40
12.7
 49
6.35
 74
     0
 49
-1.27
 74
     0
 49
1.27
 74
     0
 49
-1.27
 74
     0
 49
1.27
 74
     0
 49
-1.27
 74
     0
  0
LTYPE
  5
42
330
5
100
AcDbSymbolTableRecord
100
AcDbLinetypeTableRecord
  2
SLD-Chain
 70
     0
  3
SolidWorks Line Style
 72
    65
 73
     4
 40
10.16
 49
6.35
 74
     0
 49
-1.27
 74
     0
 49
1.27
 74
     0
 49
-1.27
 74
     0
  0
LTYPE
  5
43
330
5
100
AcDbSymbolTableRecord
100
AcDbLinetypeTableRecord
  2
SLD-Center
 70
     0
  3
SolidWorks Line Style
 72
    65
 73
     4
 40
19.05
 49
15.24
 74
     0
 49
-1.27
 74
     0
 49
1.27
 74
     0
 49
-1.27
 74
     0
  0
LTYPE
  5
44
330
5
100
AcDbSymbolTableRecord
100
AcDbLinetypeTableRecord
  2
SLD-Stitch
 70
     0
  3
SolidWorks Line Style
 72
    65
 73
     2
 40
0.635
 49
0.0
 74
     0
 49
-0.635
 74
     0
  0
LTYPE
  5
45
330
5
100
AcDbSymbolTableRecord
100
AcDbLinetypeTableRecord
  2
SLD-Thin-Thick-Chain
 70
     0
  3
SolidWorks Line Style
 72
    65
 73
     4
 40
10.16
 49
6.35
 74
     0
 49
-1.27
 74
     0
 49
1.27
 74
     0
 49
-1.27
 74
     0
  0
ENDTAB
  0
TABLE
  2
LAYER
  5
2
330
0
100
AcDbSymbolTable
 70
     5
  0
LAYER
  5
10
330
2
100
AcDbSymbolTableRecord
100
AcDbLayerTableRecord
  2
0
 70
     0
 62
     7
  6
Continuous
370
    -3
390
F
  0
LAYER
  5
46
330
2
100
AcDbSymbolTableRecord
100
AcDbLayerTableRecord
  2
SLD-0_0
 70
     0
 62
   179
  6
SLD-Solid
370
    -3
390
F
  0
LAYER
  5
47
330
2
100
AcDbSymbolTableRecord
100
AcDbLayerTableRecord
  2
FORMAT
 70
     0
 62
   179
  6
SLD-Solid
370
    -3
390
F
  0
LAYER
  5
48
330
2
100
AcDbSymbolTableRecord
100
AcDbLayerTableRecord
  2
SLD-0
 70
     0
 62
     1
  6
SLD-Solid
370
    -3
390
F
  0
LAYER
  5
49
330
2
100
AcDbSymbolTableRecord
100
AcDbLayerTableRecord
  2
WATERMARK
 70
     0
 62
    20
  6
SLD-Solid
370
    -3
390
F
  0
ENDTAB
  0
TABLE
  2
STYLE
  5
3
330
0
100
AcDbSymbolTable
 70
     1
  0
STYLE
  5
11
330
3
100
AcDbSymbolTableRecord
100
AcDbTextStyleTableRecord
  2
STANDARD
 70
     0
 40
0.0
 41
1.0
 50
0.0
 71
     0
 42
2.5
  3
GOTHIC.TTF
  4

1001
ACAD
1000
CENTURY GOTHIC
1071
       34
  0
ENDTAB
  0
TABLE
  2
VIEW
  5
6
330
0
100
AcDbSymbolTable
 70
     0
  0
ENDTAB
  0
TABLE
  2
UCS
  5
7
330
0
100
AcDbSymbolTable
 70
     0
  0
ENDTAB
  0
TABLE
  2
APPID
  5
9
330
0
100
AcDbSymbolTable
 70
     1
  0
APPID
  5
12
330
9
100
AcDbSymbolTableRecord
100
AcDbRegAppTableRecord
  2
ACAD
 70
     0
  0
ENDTAB
  0
TABLE
  2
DIMSTYLE
  5
A
330
0
100
AcDbSymbolTable
 70
     1
100
AcDbDimStyleTable
  0
DIMSTYLE
105
27
330
A
100
AcDbSymbolTableRecord
100
AcDbDimStyleTableRecord
  2
ISO-25
 70
     0
 41
2.5
 42
0.625
 43
3.75
 44
1.25
 73
     0
 74
     0
 77
     1
 78
     8
140
2.5
141
2.5
143
0.0393700787
147
0.625
171
     3
172
     1
271
     2
272
     2
274
     3
278
    44
283
     0
284
     8
340
11
  0
ENDTAB
  0
TABLE
  2
BLOCK_RECORD
  5
1
330
0
100
AcDbSymbolTable
 70
     1
  0
BLOCK_RECORD
  5
1F
330
1
100
AcDbSymbolTableRecord
100
AcDbBlockTableRecord
  2
*Model_Space
340
22
  0
BLOCK_RECORD
  5
1B
330
1
100
AcDbSymbolTableRecord
100
AcDbBlockTableRecord
  2
*Paper_Space
340
1E
  0
BLOCK_RECORD
  5
23
330
1
100
AcDbSymbolTableRecord
100
AcDbBlockTableRecord
  2
*Paper_Space0
340
26
  0
ENDTAB
  0
ENDSEC
  0
SECTION
  2
BLOCKS
  0
BLOCK
  5
20
330
1F
100
AcDbEntity
  8
0
100
AcDbBlockBegin
  2
*Model_Space
 70
     0
 10
0.0
 20
0.0
 30
0.0
  3
*Model_Space
  1

  0
ENDBLK
  5
21
330
1F
100
AcDbEntity
  8
0
100
AcDbBlockEnd
  0
BLOCK
  5
1C
330
1B
100
AcDbEntity
 67
     1
  8
0
100
AcDbBlockBegin
  2
*Paper_Space
 70
     0
 10
0.0
 20
0.0
 30
0.0
  3
*Paper_Space
  1

  0
ENDBLK
  5
1D
330
1B
100
AcDbEntity
 67
     1
  8
0
100
AcDbBlockEnd
  0
BLOCK
  5
24
330
23
100
AcDbEntity
  8
0
100
AcDbBlockBegin
  2
*Paper_Space0
 70
     0
 10
0.0
 20
0.0
 30
0.0
  3
*Paper_Space0
  1

  0
ENDBLK
  5
25
330
23
100
AcDbEntity
  8
0
100
AcDbBlockEnd
  0
ENDSEC
  0
SECTION
  2
ENTITIES
  0
LINE
  5
4A
330
1F
100
AcDbEntity
  8
SLD-0_0
  6
SLD-Solid
 62
   179
370
    15
100
AcDbLine
 10
127.8739433418
 20
1157.6845009492
 30
0.0
 11
132.9739433418
 21
1157.6845009492
 31
0.0
  0
LINE
  5
4B
330
1F
100
AcDbEntity
  8
SLD-0_0
  6
SLD-Solid
 62
   179
370
    15
100
AcDbLine
 10
132.9739433418
 20
1163.2411951214
 30
0.0
 11
127.8739433418
 21
1163.2411951214
 31
0.0
  0
LINE
  5
4C
330
1F
100
AcDbEntity
  8
SLD-0_0
  6
SLD-Solid
 62
   179
370
    15
100
AcDbLine
 10
134.1739433418
 20
1163.2735491256
 30
0.0
 11
133.4739433418
 21
1163.2735491256
 31
0.0
  0
LINE
  5
4D
330
1F
100
AcDbEntity
  8
SLD-0_0
  6
SLD-Solid
 62
   179
370
    15
100
AcDbLine
 10
127.8739433418
 20
1145.9059031297
 30
0.0
 11
132.1509383806
 21
1145.9059031297
 31
0.0
  0
LINE
  5
4E
330
1F
100
AcDbEntity
  8
SLD-0_0
  6
SLD-Solid
 62
   179
370
    15
100
AcDbLine
 10
132.9739433418
 20
1163.2735491256
 30
0.0
 11
132.2739433418
 21
1163.2735491256
 31
0.0
  0
LINE
  5
4F
330
1F
100
AcDbEntity
  8
SLD-0_0
  6
SLD-Solid
 62
   179
370
    15
100
AcDbLine
 10
138.5739433418
 20
1150.6173993759
 30
0.0
 11
133.4739433418
 21
1150.6173993759
 31
0.0
  0
LINE
  5
50
330
1F
100
AcDbEntity
  8
SLD-0_0
  6
SLD-Solid
 62
   179
370
    15
100
AcDbLine
 10
133.4739433418
 20
1145.4174289766
 30
0.0
 11
138.5739433418
 21
1145.4174289766
 31
0.0
  0
LINE
  5
51
330
1F
100
AcDbEntity
  8
SLD-0_0
  6
SLD-Solid
 62
   179
370
    15
100
AcDbLine
 10
138.5739433418
 20
1163.7296692745
 30
0.0
 11
133.4739433418
 21
1163.7296692745
 31
0.0
  0
LINE
  5
52
330
1F
100
AcDbEntity
  8
SLD-0_0
  6
SLD-Solid
 62
   179
370
    15
100
AcDbLine
 10
139.8739433418
 20
1149.5735491256
 30
0.0
 11
139.9254725172
 21
1149.4842979758
 31
0.0
  0
LINE
  5
53
330
1F
100
AcDbEntity
  8
SLD-0_0
  6
SLD-Solid
 62
   179
370
    15
100
AcDbLine
 10
127.0905009981
 20
1160.0352405294
 30
0.0
 11
126.8239433418
 21
1159.5735491256
 31
0.0
  0
LINE
  5
54
330
1F
100
AcDbEntity
  8
SLD-0_0
  6
SLD-Solid
 62
   179
370
    15
100
AcDbLine
 10
126.8239433418
 20
1149.5735491256
 30
0.0
 11
127.0905009981
 21
1149.1118577217
 31
0.0
  0
LINE
  5
55
330
1F
100
AcDbEntity
  8
SLD-0_0
  6
SLD-Solid
 62
   179
370
    15
100
AcDbLine
 10
131.7573856855
 20
1149.1118577217
 30
0.0
 11
132.0239433418
 21
1149.5735491256
 31
0.0
  0
LINE
  5
56
330
1F
100
AcDbEntity
  8
SLD-0_0
  6
SLD-Solid
 62
   179
370
    15
100
AcDbLine
 10
139.481117824
 20
1149.3261680721
 30
0.0
 11
139.6239433418
 21
1149.5735491256
 31
0.0
  0
LINE
  5
57
330
1F
100
AcDbEntity
  8
SLD-0_0
  6
SLD-Solid
 62
   179
370
    15
100
AcDbLine
 10
134.5667688596
 20
1159.820930179
 30
0.0
 11
134.4239433418
 21
1159.5735491256
 31
0.0
  0
LINE
  5
58
330
1F
100
AcDbEntity
  8
SLD-0_0
  6
SLD-Solid
 62
   179
370
    15
100
AcDbLine
 10
139.6239433418
 20
1159.5735491256
 30
0.0
 11
139.481117824
 21
1159.820930179
 31
0.0
  0
LINE
  5
59
330
1F
100
AcDbEntity
  8
SLD-0_0
  6
SLD-Solid
 62
   179
370
    15
100
AcDbLine
 10
139.8739433418
 20
1157.5735491256
 30
0.0
 11
139.6239433418
 21
1157.5735491256
 31
0.0
  0
LINE
  5
5A
330
1F
100
AcDbEntity
  8
SLD-0_0
  6
SLD-Solid
 62
   179
370
    15
100
AcDbLine
 10
139.6239433418
 20
1151.5735491256
 30
0.0
 11
139.8739433418
 21
1151.5735491256
 31
0.0
  0
LINE
  5
5B
330
1F
100
AcDbEntity
  8
SLD-0_0
  6
SLD-Solid
 62
   179
370
    15
100
AcDbLine
 10
929.7439666964
 20
672.8313016639
 30
0.0
 11
930.284623638
 21
672.9206825613
 31
0.0
  0
LINE
  5
5C
330
1F
100
AcDbEntity
  8
SLD-0_0
  6
SLD-Solid
 62
   179
370
    15
100
AcDbLine
 10
912.7530693245
 20
714.0735491256
 30
0.0
 11
912.749649123
 21
714.0735491256
 31
0.0
  0
LINE
  5
5D
330
1F
100
AcDbEntity
  8
SLD-0_0
  6
SLD-Solid
 62
   179
370
    15
100
AcDbLine
 10
912.7530693245
 20
713.0735491256
 30
0.0
 11
912.749649123
 21
713.0735491256
 31
0.0
  0
LINE
  5
5E
330
1F
100
AcDbEntity
  8
SLD-0_0
  6
SLD-Solid
 62
   179
370
    15
100
AcDbLine
 10
912.7530693245
 20
711.5735491256
 30
0.0
 11
912.749649123
 21
711.5735491256
 31
0.0
  0
LINE
  5
5F
330
1F
100
AcDbEntity
  8
SLD-0_0
  6
SLD-Solid
 62
   179
370
    15
100
AcDbLine
 10
912.749649123
 20
707.5735491256
 30
0.0
 11
912.7530693245
 21
707.5735491256
 31
0.0
  0
LINE
  5
60
330
1F
100
AcDbEntity
  8
SLD-0_0
  6
SLD-Solid
 62
   179
370
    15
100
AcDbLine
 10
912.7530693245
 20
710.5735491256
 30
0.0
 11
912.749649123
 21
710.5735491256
 31
0.0
  0
LINE
  5
61
330
1F
100
AcDbEntity
  8
SLD-0_0
  6
SLD-Solid
 62
   179
370
    15
100
AcDbLine
 10
912.749649123
 20
708.5735491256
 30
0.0
 11
912.7530693245
 21
708.5735491256
 31
0.0
  0
LINE
  5
62
330
1F
100
AcDbEntity
  8
SLD-0_0
  6
SLD-Solid
 62
   179
370
    15
100
AcDbLine
 10
916.5938433036
 20
910.1644591256
 30
0.0
 11
916.597263505
 21
910.1644591256
 31
0.0
  0
LINE
  5
63
330
1F
100
AcDbEntity
  8
SLD-0_0
  6
SLD-Solid
 62
   179
370
    15
100
AcDbLine
 10
916.597263505
 20
915.9826391256
 30
0.0
 11
916.5938433036
 21
915.9826391256
 31
0.0
  0
LINE
  5
64
330
1F
100
AcDbEntity
  8
SLD-0_0
  6
SLD-Solid
 62
   179
370
    15
100
AcDbLine
 10
916.5938433036
 20
911.1644591256
 30
0.0
 11
916.597263505
 21
911.1644591256
 31
0.0
  0
LINE
  5
65
330
1F
100
AcDbEntity
  8
SLD-0_0
  6
SLD-Solid
 62
   179
370
    15
100
AcDbLine
 10
929.5838259118
 20
336.5735491256
 30
0.0
 11
929.5838259118
 21
672.8048273399
 31
0.0
  0
LINE
  5
66
330
1F
100
AcDbEntity
  8
SLD-0_0
  6
SLD-Solid
 62
   179
370
    15
100
AcDbLine
 10
929.5838259118
 20
696.3241674553
 30
0.0
 11
929.5838259118
 21
1236.5735491256
 31
0.0
  0
LINE
  5
67
330
1F
100
AcDbEntity
  8
SLD-0_0
  6
SLD-Solid
 62
   179
370
    15
100
AcDbLine
 10
909.6907518403
 20
337.7735491256
 30
0.0
 11
909.6907518403
 21
1235.3735491256
 31
0.0
  0
LINE
  5
68
330
1F
100
AcDbEntity
  8
SLD-0_0
  6
SLD-Solid
 62
   179
370
    15
100
AcDbLine
 10
908.3907518403
 20
1235.3735491256
 30
0.0
 11
908.3907518403
 21
1236.5735491256
 31
0.0
  0
LINE
  5
69
330
1F
100
AcDbEntity
  8
SLD-0_0
  6
SLD-Solid
 62
   179
370
    15
100
AcDbLine
 10
908.3907518403
 20
336.5735491256
 30
0.0
 11
908.3907518403
 21
337.7735491256
 31
0.0
  0
LINE
  5
6A
330
1F
100
AcDbEntity
  8
SLD-0_0
  6
SLD-Solid
 62
   179
370
    15
100
AcDbLine
 10
926.8809925961
 20
876.8313016639
 30
0.0
 11
927.4216495376
 21
876.9206825612
 31
0.0
  0
LINE
  5
6B
330
1F
100
AcDbEntity
  8
SLD-0_0
  6
SLD-Solid
 62
   179
370
    15
100
AcDbLine
 10
150.5341515157
 20
1187.2735491255
 30
0.0
 11
178.7944194694
 21
1187.2735491255
 31
0.0
  0
LINE
  5
6C
330
1F
100
AcDbEntity
  8
SLD-0_0
  6
SLD-Solid
 62
   179
370
    15
100
AcDbLine
 10
948.4554285019
 20
1007.2284902575
 30
0.0
 11
929.5838259118
 21
1011.3428457777
 31
0.0
  0
LINE
  5
6D
330
1F
100
AcDbEntity
  8
SLD-0_0
  6
SLD-Solid
 62
   179
370
    15
100
AcDbLine
 10
929.5838259118
 20
816.2297783117
 30
0.0
 11
963.0829283144
 21
823.4206851102
 31
0.0
  0
LINE
  5
6E
330
1F
100
AcDbEntity
  8
SLD-0_0
  6
SLD-Solid
 62
   179
370
    15
100
AcDbLine
 10
940.2758414244
 20
841.0059432657
 30
0.0
 11
929.5838259118
 21
838.7107985745
 31
0.0
  0
LINE
  5
6F
330
1F
100
AcDbEntity
  8
SLD-0_0
  6
SLD-Solid
 62
   179
370
    15
100
AcDbLine
 10
929.5838259118
 20
561.7907067475
 30
0.0
 11
948.4554285019
 21
565.9050622677
 31
0.0
  0
LINE
  5
70
330
1F
100
AcDbEntity
  8
SLD-0_0
  6
SLD-Solid
 62
   179
370
    15
100
AcDbLine
 10
963.0829283144
 20
749.7128674151
 30
0.0
 11
929.5838259118
 21
756.9037742135
 31
0.0
  0
LINE
  5
71
330
1F
100
AcDbEntity
  8
SLD-0_0
  6
SLD-Solid
 62
   179
370
    15
100
AcDbLine
 10
929.5838259118
 20
734.4227539507
 30
0.0
 11
940.2758414244
 21
732.1276092595
 31
0.0
  0
LINE
  5
72
330
1F
100
AcDbEntity
  8
SLD-0_0
  6
SLD-Solid
 62
   179
370
    15
100
AcDbLine
 10
133.2239433418
 20
1150.9626897258
 30
0.0
 11
133.2239433418
 21
1157.3852100138
 31
0.0
  0
LINE
  5
73
330
1F
100
AcDbEntity
  8
SLD-0_0
  6
SLD-Solid
 62
   179
370
    15
100
AcDbLine
 10
134.4239433418
 20
1157.3852100138
 30
0.0
 11
134.4239433418
 21
1150.6173993759
 31
0.0
  0
LINE
  5
74
330
1F
100
AcDbEntity
  8
SLD-0_0
  6
SLD-Solid
 62
   179
370
    15
100
AcDbLine
 10
133.4739433418
 20
1157.3045543802
 30
0.0
 11
134.1739433418
 21
1157.3045543802
 31
0.0
  0
LINE
  5
75
330
1F
100
AcDbEntity
  8
SLD-0_0
  6
SLD-Solid
 62
   179
370
    15
100
AcDbLine
 10
134.4239433418
 20
1162.1726764943
 30
0.0
 11
134.4239433418
 21
1157.5919612702
 31
0.0
  0
LINE
  5
76
330
1F
100
AcDbEntity
  8
SLD-0_0
  6
SLD-Solid
 62
   179
370
    15
100
AcDbLine
 10
127.6239433418
 20
1158.4104798972
 30
0.0
 11
127.6239433418
 21
1162.9911951214
 31
0.0
  0
LINE
  5
77
330
1F
100
AcDbEntity
  8
SLD-0_0
  6
SLD-Solid
 62
   179
370
    15
100
AcDbLine
 10
127.6239433418
 20
1157.9345009492
 30
0.0
 11
127.6239433418
 21
1158.4104798972
 31
0.0
  0
LINE
  5
78
330
1F
100
AcDbEntity
  8
SLD-0_0
  6
SLD-Solid
 62
   179
370
    15
100
AcDbLine
 10
134.4239433418
 20
1157.5919612702
 30
0.0
 11
134.4239433418
 21
1157.3852100138
 31
0.0
  0
LINE
  5
79
330
1F
100
AcDbEntity
  8
SLD-0_0
  6
SLD-Solid
 62
   179
370
    15
100
AcDbLine
 10
133.2239433418
 20
1157.3852100138
 30
0.0
 11
133.2239433418
 21
1157.5919612702
 31
0.0
  0
LINE
  5
7A
330
1F
100
AcDbEntity
  8
SLD-0_0
  6
SLD-Solid
 62
   179
370
    15
100
AcDbLine
 10
132.9739433418
 20
1163.2026937645
 30
0.0
 11
132.9739433418
 21
1163.2411951214
 31
0.0
  0
LINE
  5
7B
330
1F
100
AcDbEntity
  8
SLD-0_0
  6
SLD-Solid
 62
   179
370
    15
100
AcDbLine
 10
134.4239433418
 20
1163.0235491256
 30
0.0
 11
134.4239433418
 21
1162.1726764943
 31
0.0
  0
LINE
  5
7C
330
1F
100
AcDbEntity
  8
SLD-0_0
  6
SLD-Solid
 62
   179
370
    15
100
AcDbLine
 10
127.6239433418
 20
1146.6318820777
 30
0.0
 11
127.6239433418
 21
1148.8437610891
 31
0.0
  0
LINE
  5
7D
330
1F
100
AcDbEntity
  8
SLD-0_0
  6
SLD-Solid
 62
   179
370
    15
100
AcDbLine
 10
127.6239433418
 20
1146.1559031297
 30
0.0
 11
127.6239433418
 21
1146.6318820777
 31
0.0
  0
LINE
  5
7E
330
1F
100
AcDbEntity
  8
SLD-0_0
  6
SLD-Solid
 62
   179
370
    15
100
AcDbLine
 10
132.0239433418
 20
1150.9788856587
 30
0.0
 11
132.0239433418
 21
1157.5735491256
 31
0.0
  0
LINE
  5
7F
330
1F
100
AcDbEntity
  8
SLD-0_0
  6
SLD-Solid
 62
   179
370
    15
100
AcDbLine
 10
133.2239433418
 20
1157.3967905927
 30
0.0
 11
133.2239433418
 21
1150.9788856587
 31
0.0
  0
LINE
  5
80
330
1F
100
AcDbEntity
  8
SLD-0_0
  6
SLD-Solid
 62
   179
370
    15
100
AcDbLine
 10
132.9739433418
 20
1151.0299535823
 30
0.0
 11
132.2739433418
 21
1151.0299535823
 31
0.0
  0
LINE
  5
81
330
1F
100
AcDbEntity
  8
SLD-0_0
  6
SLD-Solid
 62
   179
370
    15
100
AcDbLine
 10
132.0239433418
 20
1146.5786271786
 30
0.0
 11
132.0239433418
 21
1150.7487242833
 31
0.0
  0
LINE
  5
82
330
1F
100
AcDbEntity
  8
SLD-0_0
  6
SLD-Solid
 62
   179
370
    15
100
AcDbLine
 10
138.8239433418
 20
1149.8375260813
 30
0.0
 11
138.8239433418
 21
1145.6674289766
 31
0.0
  0
LINE
  5
83
330
1F
100
AcDbEntity
  8
SLD-0_0
  6
SLD-Solid
 62
   179
370
    15
100
AcDbLine
 10
138.8239433418
 20
1150.3673993759
 30
0.0
 11
138.8239433418
 21
1149.8375260813
 31
0.0
  0
LINE
  5
84
330
1F
100
AcDbEntity
  8
SLD-0_0
  6
SLD-Solid
 62
   179
370
    15
100
AcDbLine
 10
132.0239433418
 20
1150.7487242833
 30
0.0
 11
132.0239433418
 21
1150.9788856587
 31
0.0
  0
LINE
  5
85
330
1F
100
AcDbEntity
  8
SLD-0_0
  6
SLD-Solid
 62
   179
370
    15
100
AcDbLine
 10
133.2239433418
 20
1150.9788856587
 30
0.0
 11
133.2239433418
 21
1150.7487242833
 31
0.0
  0
LINE
  5
86
330
1F
100
AcDbEntity
  8
SLD-0_0
  6
SLD-Solid
 62
   179
370
    15
100
AcDbLine
 10
133.4739433418
 20
1145.4436571136
 30
0.0
 11
133.4739433418
 21
1145.4174289766
 31
0.0
  0
LINE
  5
87
330
1F
100
AcDbEntity
  8
SLD-0_0
  6
SLD-Solid
 62
   179
370
    15
100
AcDbLine
 10
132.0239433418
 20
1146.1235491256
 30
0.0
 11
132.0239433418
 21
1146.5786271786
 31
0.0
  0
LINE
  5
88
330
1F
100
AcDbEntity
  8
SLD-0_0
  6
SLD-Solid
 62
   179
370
    15
100
AcDbLine
 10
138.8239433418
 20
1163.4796692745
 30
0.0
 11
138.8239433418
 21
1162.9497959799
 31
0.0
  0
LINE
  5
89
330
1F
100
AcDbEntity
  8
SLD-0_0
  6
SLD-Solid
 62
   179
370
    15
100
AcDbLine
 10
138.8239433418
 20
1162.9497959799
 30
0.0
 11
138.8239433418
 21
1160.213734383
 31
0.0
  0
LINE
  5
8A
330
1F
100
AcDbEntity
  8
SLD-0_0
  6
SLD-Solid
 62
   179
370
    15
100
AcDbLine
 10
143.1239433418
 20
1150.1994947673
 30
0.0
 11
140.3205253292
 21
1150.1994947673
 31
0.0
  0
LINE
  5
8B
330
1F
100
AcDbEntity
  8
SLD-0_0
  6
SLD-Solid
 62
   179
370
    15
100
AcDbLine
 10
140.3205253292
 20
1155.6500685376
 30
0.0
 11
139.8739433418
 21
1152.9247816524
 31
0.0
  0
LINE
  5
8C
330
1F
100
AcDbEntity
  8
SLD-0_0
  6
SLD-Solid
 62
   179
370
    15
100
AcDbLine
 10
143.1239433418
 20
1155.6500685376
 30
0.0
 11
140.3205253292
 21
1155.6500685376
 31
0.0
  0
LINE
  5
8D
330
1F
100
AcDbEntity
  8
SLD-0_0
  6
SLD-Solid
 62
   179
370
    15
100
AcDbLine
 10
139.8739433418
 20
1152.9247816524
 30
0.0
 11
139.8739433418
 21
1157.8370957168
 31
0.0
  0
LINE
  5
8E
330
1F
100
AcDbEntity
  8
SLD-0_0
  6
SLD-Solid
 62
   179
370
    15
100
AcDbLine
 10
140.3205253292
 20
1160.0241228959
 30
0.0
 11
139.8739433418
 21
1157.8370957168
 31
0.0
  0
LINE
  5
8F
330
1F
100
AcDbEntity
  8
SLD-0_0
  6
SLD-Solid
 62
   179
370
    15
100
AcDbLine
 10
143.1239433418
 20
1160.0241228959
 30
0.0
 11
140.3205253292
 21
1160.0241228959
 31
0.0
  0
LINE
  5
90
330
1F
100
AcDbEntity
  8
SLD-0_0
  6
SLD-Solid
 62
   179
370
    15
100
AcDbLine
 10
139.8739433418
 20
1149.6612350612
 30
0.0
 11
139.8739433418
 21
1152.9247816524
 31
0.0
  0
LINE
  5
91
330
1F
100
AcDbEntity
  8
SLD-0_0
  6
SLD-Solid
 62
   179
370
    15
100
AcDbLine
 10
139.8739433418
 20
1157.8370957168
 30
0.0
 11
139.8739433418
 21
1159.5655263381
 31
0.0
  0
LINE
  5
92
330
1F
100
AcDbEntity
  8
SLD-0_0
  6
SLD-Solid
 62
   179
370
    15
100
AcDbLine
 10
143.1239433418
 20
1149.1229753552
 30
0.0
 11
140.3205253292
 21
1149.1229753552
 31
0.0
  0
LINE
  5
93
330
1F
100
AcDbEntity
  8
SLD-0_0
  6
SLD-Solid
 62
   179
370
    15
100
AcDbLine
 10
140.3205253292
 20
1149.1229753552
 30
0.0
 11
139.8739433418
 21
1151.3100025343
 31
0.0
  0
LINE
  5
94
330
1F
100
AcDbEntity
  8
SLD-0_0
  6
SLD-Solid
 62
   179
370
    15
100
AcDbLine
 10
131.5773613544
 20
1156.8243203601
 30
0.0
 11
132.0239433418
 21
1153.9594263419
 31
0.0
  0
LINE
  5
95
330
1F
100
AcDbEntity
  8
SLD-0_0
  6
SLD-Solid
 62
   179
370
    15
100
AcDbLine
 10
131.5773613544
 20
1151.0945323237
 30
0.0
 11
127.2705253292
 21
1151.0945323237
 31
0.0
  0
LINE
  5
96
330
1F
100
AcDbEntity
  8
SLD-0_0
  6
SLD-Solid
 62
   179
370
    15
100
AcDbLine
 10
127.2705253292
 20
1156.8243203601
 30
0.0
 11
126.8239433418
 21
1153.9594263419
 31
0.0
  0
LINE
  5
97
330
1F
100
AcDbEntity
  8
SLD-0_0
  6
SLD-Solid
 62
   179
370
    15
100
AcDbLine
 10
131.5773613544
 20
1156.8243203601
 30
0.0
 11
127.2705253292
 21
1156.8243203601
 31
0.0
  0
LINE
  5
98
330
1F
100
AcDbEntity
  8
SLD-0_0
  6
SLD-Solid
 62
   179
370
    15
100
AcDbLine
 10
126.8239433418
 20
1153.9594263419
 30
0.0
 11
126.8239433418
 21
1158.563828761
 31
0.0
  0
LINE
  5
99
330
1F
100
AcDbEntity
  8
SLD-0_0
  6
SLD-Solid
 62
   179
370
    15
100
AcDbLine
 10
131.8567015978
 20
1157.6845009492
 30
0.0
 11
131.5773613544
 21
1156.8243203601
 31
0.0
  0
LINE
  5
9A
330
1F
100
AcDbEntity
  8
SLD-0_0
  6
SLD-Solid
 62
   179
370
    15
100
AcDbLine
 10
127.2705253292
 20
1151.0945323237
 30
0.0
 11
126.8239433418
 21
1149.9691467064
 31
0.0
  0
LINE
  5
9B
330
1F
100
AcDbEntity
  8
SLD-0_0
  6
SLD-Solid
 62
   179
370
    15
100
AcDbLine
 10
126.8239433418
 20
1149.9691467064
 30
0.0
 11
126.8239433418
 21
1153.9594263419
 31
0.0
  0
LINE
  5
9C
330
1F
100
AcDbEntity
  8
SLD-0_0
  6
SLD-Solid
 62
   179
370
    15
100
AcDbLine
 10
131.5773613544
 20
1151.0945323237
 30
0.0
 11
132.0239433418
 21
1149.9691467064
 31
0.0
  0
LINE
  5
9D
330
1F
100
AcDbEntity
  8
SLD-0_0
  6
SLD-Solid
 62
   179
370
    15
100
AcDbLine
 10
127.6239433418
 20
1160.303337162
 30
0.0
 11
127.2705253292
 21
1160.303337162
 31
0.0
  0
LINE
  5
9E
330
1F
100
AcDbEntity
  8
SLD-0_0
  6
SLD-Solid
 62
   179
370
    15
100
AcDbLine
 10
131.7042909983
 20
1149.1425119537
 30
0.0
 11
131.5773613544
 21
1148.8437610891
 31
0.0
  0
LINE
  5
9F
330
1F
100
AcDbEntity
  8
SLD-0_0
  6
SLD-Solid
 62
   179
370
    15
100
AcDbLine
 10
131.5773613544
 20
1148.8437610891
 30
0.0
 11
127.2705253292
 21
1148.8437610891
 31
0.0
  0
LINE
  5
A0
330
1F
100
AcDbEntity
  8
SLD-0_0
  6
SLD-Solid
 62
   179
370
    15
100
AcDbLine
 10
127.1435956854
 20
1160.0045862974
 30
0.0
 11
127.2705253292
 21
1160.303337162
 31
0.0
  0
LINE
  5
A1
330
1F
100
AcDbEntity
  8
SLD-0_0
  6
SLD-Solid
 62
   179
370
    15
100
AcDbLine
 10
126.8239433418
 20
1158.563828761
 30
0.0
 11
126.8239433418
 21
1159.5735491256
 31
0.0
  0
LINE
  5
A2
330
1F
100
AcDbEntity
  8
SLD-0_0
  6
SLD-Solid
 62
   179
370
    15
100
AcDbLine
 10
126.8239433418
 20
1149.5735491256
 30
0.0
 11
126.8239433418
 21
1149.9691467064
 31
0.0
  0
LINE
  5
A3
330
1F
100
AcDbEntity
  8
SLD-0_0
  6
SLD-Solid
 62
   179
370
    15
100
AcDbLine
 10
139.1773613544
 20
1158.4619266865
 30
0.0
 11
139.6239433418
 21
1155.6418340578
 31
0.0
  0
LINE
  5
A4
330
1F
100
AcDbEntity
  8
SLD-0_0
  6
SLD-Solid
 62
   179
370
    15
100
AcDbLine
 10
139.1773613544
 20
1152.8217414291
 30
0.0
 11
134.8705253292
 21
1152.8217414291
 31
0.0
  0
LINE
  5
A5
330
1F
100
AcDbEntity
  8
SLD-0_0
  6
SLD-Solid
 62
   179
370
    15
100
AcDbLine
 10
134.8705253292
 20
1158.4619266865
 30
0.0
 11
134.4239433418
 21
1155.6418340578
 31
0.0
  0
LINE
  5
A6
330
1F
100
AcDbEntity
  8
SLD-0_0
  6
SLD-Solid
 62
   179
370
    15
100
AcDbLine
 10
139.1773613544
 20
1158.4619266865
 30
0.0
 11
134.8705253292
 21
1158.4619266865
 31
0.0
  0
LINE
  5
A7
330
1F
100
AcDbEntity
  8
SLD-0_0
  6
SLD-Solid
 62
   179
370
    15
100
AcDbLine
 10
134.8705253292
 20
1152.8217414291
 30
0.0
 11
134.4239433418
 21
1150.8775526486
 31
0.0
  0
LINE
  5
A8
330
1F
100
AcDbEntity
  8
SLD-0_0
  6
SLD-Solid
 62
   179
370
    15
100
AcDbLine
 10
139.1773613544
 20
1152.8217414291
 30
0.0
 11
139.6239433418
 21
1150.8775526486
 31
0.0
  0
LINE
  5
A9
330
1F
100
AcDbEntity
  8
SLD-0_0
  6
SLD-Solid
 62
   179
370
    15
100
AcDbLine
 10
139.6239433418
 20
1155.6418340578
 30
0.0
 11
139.6239433418
 21
1150.8775526486
 31
0.0
  0
LINE
  5
AA
330
1F
100
AcDbEntity
  8
SLD-0_0
  6
SLD-Solid
 62
   179
370
    15
100
AcDbLine
 10
139.6239433418
 20
1159.3378305347
 30
0.0
 11
139.6239433418
 21
1155.6418340578
 31
0.0
  0
LINE
  5
AB
330
1F
100
AcDbEntity
  8
SLD-0_0
  6
SLD-Solid
 62
   179
370
    15
100
AcDbLine
 10
139.1773613544
 20
1148.9333638681
 30
0.0
 11
138.8239433418
 21
1148.9333638681
 31
0.0
  0
LINE
  5
AC
330
1F
100
AcDbEntity
  8
SLD-0_0
  6
SLD-Solid
 62
   179
370
    15
100
AcDbLine
 10
139.1773613544
 20
1160.213734383
 30
0.0
 11
134.8705253292
 21
1160.213734383
 31
0.0
  0
LINE
  5
AD
330
1F
100
AcDbEntity
  8
SLD-0_0
  6
SLD-Solid
 62
   179
370
    15
100
AcDbLine
 10
139.4378644932
 20
1149.3372872512
 30
0.0
 11
139.1773613544
 21
1148.9333638681
 31
0.0
  0
LINE
  5
AE
330
1F
100
AcDbEntity
  8
SLD-0_0
  6
SLD-Solid
 62
   179
370
    15
100
AcDbLine
 10
139.6239433418
 20
1149.5735491256
 30
0.0
 11
139.6239433418
 21
1150.8775526486
 31
0.0
  0
LINE
  5
AF
330
1F
100
AcDbEntity
  8
SLD-0_0
  6
SLD-Solid
 62
   179
370
    15
100
AcDbLine
 10
139.6239433418
 20
1159.5735491256
 30
0.0
 11
139.6239433418
 21
1159.3378305347
 31
0.0
  0
LINE
  5
B0
330
1F
100
AcDbEntity
  8
SLD-0_0
  6
SLD-Solid
 62
   179
370
    15
100
AcDbLine
 10
760.1239433418
 20
336.5735491255
 30
0.0
 11
255.1239433418
 21
336.5735491255
 31
0.0
  0
LINE
  5
B1
330
1F
100
AcDbEntity
  8
SLD-0_0
  6
SLD-Solid
 62
   179
370
    15
100
AcDbLine
 10
760.1239433418
 20
337.3735491255
 30
0.0
 11
255.1239433418
 21
337.3735491255
 31
0.0
  0
LINE
  5
B2
330
1F
100
AcDbEntity
  8
SLD-0_0
  6
SLD-Solid
 62
   179
370
    15
100
AcDbLine
 10
765.1239433418
 20
336.5735491255
 30
0.0
 11
765.1239433418
 21
337.3735491255
 31
0.0
  0
LINE
  5
B3
330
1F
100
AcDbEntity
  8
SLD-0_0
  6
SLD-Solid
 62
   179
370
    15
100
AcDbLine
 10
765.1239433418
 20
336.5735491255
 30
0.0
 11
760.1239433418
 21
336.5735491255
 31
0.0
  0
LINE
  5
B4
330
1F
100
AcDbEntity
  8
SLD-0_0
  6
SLD-Solid
 62
   179
370
    15
100
AcDbLine
 10
765.1239433418
 20
337.3735491255
 30
0.0
 11
760.1239433418
 21
337.3735491255
 31
0.0
  0
LINE
  5
B5
330
1F
100
AcDbEntity
  8
SLD-0_0
  6
SLD-Solid
 62
   179
370
    15
100
AcDbLine
 10
250.1239433418
 20
336.5735491255
 30
0.0
 11
250.1239433418
 21
337.3735491255
 31
0.0
  0
LINE
  5
B6
330
1F
100
AcDbEntity
  8
SLD-0_0
  6
SLD-Solid
 62
   179
370
    15
100
AcDbLine
 10
255.1239433418
 20
336.5735491255
 30
0.0
 11
250.1239433418
 21
336.5735491255
 31
0.0
  0
LINE
  5
B7
330
1F
100
AcDbEntity
  8
SLD-0_0
  6
SLD-Solid
 62
   179
370
    15
100
AcDbLine
 10
255.1239433418
 20
337.3735491255
 30
0.0
 11
250.1239433418
 21
337.3735491255
 31
0.0
  0
LINE
  5
B8
330
1F
100
AcDbEntity
  8
SLD-0_0
  6
SLD-Solid
 62
   179
370
    15
100
AcDbLine
 10
250.1239433418
 20
338.6235491255
 30
0.0
 11
250.1239433418
 21
337.3735491255
 31
0.0
  0
LINE
  5
B9
330
1F
100
AcDbEntity
  8
SLD-0_0
  6
SLD-Solid
 62
   179
370
    15
100
AcDbLine
 10
765.1239433418
 20
337.3735491255
 30
0.0
 11
765.1239433418
 21
338.6235491255
 31
0.0
  0
LINE
  5
BA
330
1F
100
AcDbEntity
  8
SLD-0_0
  6
SLD-Solid
 62
   179
370
    15
100
AcDbLine
 10
765.1239433418
 20
338.6235491255
 30
0.0
 11
765.1239433418
 21
341.5735491256
 31
0.0
  0
LINE
  5
BB
330
1F
100
AcDbEntity
  8
SLD-0_0
  6
SLD-Solid
 62
   179
370
    15
100
AcDbLine
 10
250.1239433418
 20
341.5735491256
 30
0.0
 11
250.1239433418
 21
338.6235491255
 31
0.0
  0
LINE
  5
BC
330
1F
100
AcDbEntity
  8
SLD-0_0
  6
SLD-Solid
 62
   179
370
    15
100
AcDbLine
 10
765.1239433418
 20
1236.5735491255
 30
0.0
 11
765.1239433418
 21
1235.7735491255
 31
0.0
  0
LINE
  5
BD
330
1F
100
AcDbEntity
  8
SLD-0_0
  6
SLD-Solid
 62
   179
370
    15
100
AcDbLine
 10
760.1239433418
 20
1235.7735491255
 30
0.0
 11
765.1239433418
 21
1235.7735491255
 31
0.0
  0
LINE
  5
BE
330
1F
100
AcDbEntity
  8
SLD-0_0
  6
SLD-Solid
 62
   179
370
    15
100
AcDbLine
 10
760.1239433418
 20
1236.5735491255
 30
0.0
 11
765.1239433418
 21
1236.5735491255
 31
0.0
  0
LINE
  5
BF
330
1F
100
AcDbEntity
  8
SLD-0_0
  6
SLD-Solid
 62
   179
370
    15
100
AcDbLine
 10
255.1239433418
 20
1235.7735491256
 30
0.0
 11
760.1239433418
 21
1235.7735491255
 31
0.0
  0
LINE
  5
C0
330
1F
100
AcDbEntity
  8
SLD-0_0
  6
SLD-Solid
 62
   179
370
    15
100
AcDbLine
 10
255.1239433418
 20
1236.5735491256
 30
0.0
 11
760.1239433418
 21
1236.5735491255
 31
0.0
  0
LINE
  5
C1
330
1F
100
AcDbEntity
  8
SLD-0_0
  6
SLD-Solid
 62
   179
370
    15
100
AcDbLine
 10
250.1239433418
 20
1236.5735491256
 30
0.0
 11
250.1239433418
 21
1235.7735491256
 31
0.0
  0
LINE
  5
C2
330
1F
100
AcDbEntity
  8
SLD-0_0
  6
SLD-Solid
 62
   179
370
    15
100
AcDbLine
 10
250.1239433418
 20
1235.7735491256
 30
0.0
 11
255.1239433418
 21
1235.7735491256
 31
0.0
  0
LINE
  5
C3
330
1F
100
AcDbEntity
  8
SLD-0_0
  6
SLD-Solid
 62
   179
370
    15
100
AcDbLine
 10
250.1239433418
 20
1236.5735491256
 30
0.0
 11
255.1239433418
 21
1236.5735491256
 31
0.0
  0
LINE
  5
C4
330
1F
100
AcDbEntity
  8
SLD-0_0
  6
SLD-Solid
 62
   179
370
    15
100
AcDbLine
 10
765.1239433418
 20
1234.5235491255
 30
0.0
 11
765.1239433418
 21
1235.7735491255
 31
0.0
  0
LINE
  5
C5
330
1F
100
AcDbEntity
  8
SLD-0_0
  6
SLD-Solid
 62
   179
370
    15
100
AcDbLine
 10
250.1239433418
 20
1235.7735491256
 30
0.0
 11
250.1239433418
 21
1234.5235491256
 31
0.0
  0
LINE
  5
C6
330
1F
100
AcDbEntity
  8
SLD-0_0
  6
SLD-Solid
 62
   179
370
    15
100
AcDbLine
 10
250.1239433418
 20
1234.5235491256
 30
0.0
 11
250.1239433418
 21
1231.5735491256
 31
0.0
  0
LINE
  5
C7
330
1F
100
AcDbEntity
  8
SLD-0_0
  6
SLD-Solid
 62
   179
370
    15
100
AcDbLine
 10
765.1239433418
 20
1231.5735491256
 30
0.0
 11
765.1239433418
 21
1234.5235491255
 31
0.0
  0
LINE
  5
C8
330
1F
100
AcDbEntity
  8
SLD-0_0
  6
SLD-Solid
 62
   179
370
    15
100
AcDbLine
 10
414.4195273154
 20
787.277965152
 30
0.0
 11
409.6139606846
 21
792.0835317828
 31
0.0
  0
LINE
  5
C9
330
1F
100
AcDbEntity
  8
SLD-0_0
  6
SLD-Solid
 62
   179
370
    15
100
AcDbLine
 10
414.4195273154
 20
785.8691330992
 30
0.0
 11
409.6139606846
 21
781.0635664683
 31
0.0
  0
LINE
  5
CA
330
1F
100
AcDbEntity
  8
SLD-0_0
  6
SLD-Solid
 62
   179
370
    15
100
AcDbLine
 10
227.6239433418
 20
1231.5735491256
 30
0.0
 11
227.6239433418
 21
786.5735491256
 31
0.0
  0
LINE
  5
CB
330
1F
100
AcDbEntity
  8
SLD-0_0
  6
SLD-Solid
 62
   179
370
    15
100
AcDbLine
 10
787.6239433418
 20
1231.5735491256
 30
0.0
 11
227.6239433418
 21
1231.5735491256
 31
0.0
  0
LINE
  5
CC
330
1F
100
AcDbEntity
  8
SLD-0_0
  6
SLD-Solid
 62
   179
370
    15
100
AcDbLine
 10
787.6239433418
 20
786.5735491256
 30
0.0
 11
787.6239433418
 21
1231.5735491256
 31
0.0
  0
LINE
  5
CD
330
1F
100
AcDbEntity
  8
SLD-0_0
  6
SLD-Solid
 62
   179
370
    15
100
AcDbLine
 10
672.6239433418
 20
786.5735491256
 30
0.0
 11
787.6239433418
 21
786.5735491256
 31
0.0
  0
LINE
  5
CE
330
1F
100
AcDbEntity
  8
SLD-0_0
  6
SLD-Solid
 62
   179
370
    15
100
AcDbLine
 10
337.6783812091
 20
786.5735491256
 30
0.0
 11
342.6953415489
 21
791.4270335072
 31
0.0
  0
LINE
  5
CF
330
1F
100
AcDbEntity
  8
SLD-0_0
  6
SLD-Solid
 62
   179
370
    15
100
AcDbLine
 10
227.6239433418
 20
786.5735491256
 30
0.0
 11
337.6783812091
 21
786.5735491256
 31
0.0
  0
LINE
  5
D0
330
1F
100
AcDbEntity
  8
SLD-0_0
  6
SLD-Solid
 62
   179
370
    15
100
AcDbLine
 10
672.6239433418
 20
786.5735491256
 30
0.0
 11
671.9087837547
 21
786.5735491256
 31
0.0
  0
LINE
  5
D1
330
1F
100
AcDbEntity
  8
SLD-0_0
  6
SLD-Solid
 62
   179
370
    15
100
AcDbLine
 10
342.6953415489
 20
791.4270335072
 30
0.0
 11
343.4061797263
 21
791.4264382007
 31
0.0
  0
LINE
  5
D2
330
1F
100
AcDbEntity
  8
SLD-0_0
  6
SLD-Solid
 62
   179
370
    15
100
AcDbLine
 10
338.389227931
 20
786.5735491256
 30
0.0
 11
337.6783812091
 21
786.5735491256
 31
0.0
  0
LINE
  5
D3
330
1F
100
AcDbEntity
  8
SLD-0_0
  6
SLD-Solid
 62
   179
370
    15
100
AcDbLine
 10
671.9087837547
 20
786.5735491256
 30
0.0
 11
669.9163943585
 21
786.5735491256
 31
0.0
  0
LINE
  5
D4
330
1F
100
AcDbEntity
  8
SLD-0_0
  6
SLD-Solid
 62
   179
370
    15
100
AcDbLine
 10
669.9163943585
 20
786.5735491256
 30
0.0
 11
669.6239433418
 21
786.5735491256
 31
0.0
  0
LINE
  5
D5
330
1F
100
AcDbEntity
  8
SLD-0_0
  6
SLD-Solid
 62
   179
370
    15
100
AcDbLine
 10
345.6239433418
 20
786.5735491256
 30
0.0
 11
341.2605474367
 21
786.5735491256
 31
0.0
  0
LINE
  5
D6
330
1F
100
AcDbEntity
  8
SLD-0_0
  6
SLD-Solid
 62
   179
370
    15
100
AcDbLine
 10
343.4061797263
 20
781.7206600504
 30
0.0
 11
342.6953415489
 21
781.720064744
 31
0.0
  0
LINE
  5
D7
330
1F
100
AcDbEntity
  8
SLD-0_0
  6
SLD-Solid
 62
   179
370
    15
100
AcDbLine
 10
342.6953415489
 20
781.720064744
 30
0.0
 11
337.6783812091
 21
786.5735491256
 31
0.0
  0
LINE
  5
D8
330
1F
100
AcDbEntity
  8
SLD-0_0
  6
SLD-Solid
 62
   179
370
    15
100
AcDbLine
 10
337.6783812091
 20
786.5735491256
 30
0.0
 11
338.389227931
 21
786.5735491256
 31
0.0
  0
LINE
  5
D9
330
1F
100
AcDbEntity
  8
SLD-0_0
  6
SLD-Solid
 62
   179
370
    15
100
AcDbLine
 10
787.6239433418
 20
341.5735491256
 30
0.0
 11
787.6239433418
 21
786.5735491256
 31
0.0
  0
LINE
  5
DA
330
1F
100
AcDbEntity
  8
SLD-0_0
  6
SLD-Solid
 62
   179
370
    15
100
AcDbLine
 10
227.6239433418
 20
341.5735491256
 30
0.0
 11
787.6239433418
 21
341.5735491256
 31
0.0
  0
LINE
  5
DB
330
1F
100
AcDbEntity
  8
SLD-0_0
  6
SLD-Solid
 62
   179
370
    15
100
AcDbLine
 10
227.6239433418
 20
786.5735491256
 30
0.0
 11
227.6239433418
 21
341.5735491256
 31
0.0
  0
LINE
  5
DC
330
1F
100
AcDbEntity
  8
SLD-0_0
  6
SLD-Solid
 62
   179
370
    15
100
AcDbLine
 10
919.6238852165
 20
686.0735491255
 30
0.0
 11
918.154030577
 21
686.0735491255
 31
0.0
  0
LINE
  5
DD
330
1F
100
AcDbEntity
  8
SLD-0_0
  6
SLD-Solid
 62
   179
370
    15
100
AcDbLine
 10
909.6907518403
 20
685.5228493081
 30
0.0
 11
918.154030577
 21
686.0735491255
 31
0.0
  0
LINE
  5
DE
330
1F
100
AcDbEntity
  8
SLD-0_0
  6
SLD-Solid
 62
   179
370
    15
100
AcDbLine
 10
909.6907518403
 20
683.624248943
 30
0.0
 11
918.154030577
 21
683.0735491255
 31
0.0
  0
LINE
  5
DF
330
1F
100
AcDbEntity
  8
SLD-0_0
  6
SLD-Solid
 62
   179
370
    15
100
AcDbLine
 10
918.154030577
 20
683.0735491255
 30
0.0
 11
919.6238852165
 21
683.0735491255
 31
0.0
  0
LINE
  5
E0
330
1F
100
AcDbEntity
  8
SLD-0_0
  6
SLD-Solid
 62
   179
370
    15
100
AcDbLine
 10
918.1110866366
 20
683.0735491255
 30
0.0
 11
909.6907518403
 21
683.6219109193
 31
0.0
  0
LINE
  5
E1
330
1F
100
AcDbEntity
  8
SLD-0_0
  6
SLD-Solid
 62
   179
370
    15
100
AcDbLine
 10
918.5171178088
 20
685.0735491255
 30
0.0
 11
918.5127010226
 21
685.0780212503
 31
0.0
  0
LINE
  5
E2
330
1F
100
AcDbEntity
  8
SLD-0_0
  6
SLD-Solid
 62
   179
370
    15
100
AcDbLine
 10
918.5127010226
 20
685.0780212503
 30
0.0
 11
918.4849169478
 21
685.1061449368
 31
0.0
  0
LINE
  5
E3
330
1F
100
AcDbEntity
  8
SLD-0_0
  6
SLD-Solid
 62
   179
370
    15
100
AcDbLine
 10
918.4849169479
 20
684.0409533142
 30
0.0
 11
918.5127010226
 21
684.0690770008
 31
0.0
  0
LINE
  5
E4
330
1F
100
AcDbEntity
  8
SLD-0_0
  6
SLD-Solid
 62
   179
370
    15
100
AcDbLine
 10
918.5127010226
 20
684.0690770008
 30
0.0
 11
918.5171178088
 21
684.0735491255
 31
0.0
  0
LINE
  5
E5
330
1F
100
AcDbEntity
  8
SLD-0_0
  6
SLD-Solid
 62
   179
370
    15
100
AcDbLine
 10
909.6907518403
 20
697.7401749405
 30
0.0
 11
920.6066610186
 21
696.1767196784
 31
0.0
  0
LINE
  5
E6
330
1F
100
AcDbEntity
  8
SLD-0_0
  6
SLD-Solid
 62
   179
370
    15
100
AcDbLine
 10
920.6066610186
 20
696.1767196784
 30
0.0
 11
920.6264686438
 21
696.1988094469
 31
0.0
  0
LINE
  5
E7
330
1F
100
AcDbEntity
  8
SLD-0_0
  6
SLD-Solid
 62
   179
370
    15
100
AcDbLine
 10
920.6264686438
 20
696.1988094469
 30
0.0
 11
920.6354828075
 21
696.2008406443
 31
0.0
  0
LINE
  5
E8
330
1F
100
AcDbEntity
  8
SLD-0_0
  6
SLD-Solid
 62
   179
370
    15
100
AcDbLine
 10
920.6066610186
 20
672.9703785727
 30
0.0
 11
909.6907518403
 21
671.4069233106
 31
0.0
  0
LINE
  5
E9
330
1F
100
AcDbEntity
  8
SLD-0_0
  6
SLD-Solid
 62
   179
370
    15
100
AcDbLine
 10
920.6354828075
 20
672.9462576068
 30
0.0
 11
920.6264686438
 21
672.9482888042
 31
0.0
  0
LINE
  5
EA
330
1F
100
AcDbEntity
  8
SLD-0_0
  6
SLD-Solid
 62
   179
370
    15
100
AcDbLine
 10
920.6264686438
 20
672.9482888042
 30
0.0
 11
920.6066610186
 21
672.9703785727
 31
0.0
  0
LINE
  5
EB
330
1F
100
AcDbEntity
  8
SLD-0_0
  6
SLD-Solid
 62
   179
370
    15
100
AcDbLine
 10
925.4401562171
 20
674.9068776627
 30
0.0
 11
925.3404141578
 21
674.9077242354
 31
0.0
  0
LINE
  5
EC
330
1F
100
AcDbEntity
  8
SLD-0_0
  6
SLD-Solid
 62
   179
370
    15
100
AcDbLine
 10
925.3404141578
 20
674.9077242354
 30
0.0
 11
925.2325739898
 21
674.9067346137
 31
0.0
  0
LINE
  5
ED
330
1F
100
AcDbEntity
  8
SLD-0_0
  6
SLD-Solid
 62
   179
370
    15
100
AcDbLine
 10
925.0273785231
 20
694.2477131617
 30
0.0
 11
925.2325739898
 21
694.2403636374
 31
0.0
  0
LINE
  5
EE
330
1F
100
AcDbEntity
  8
SLD-0_0
  6
SLD-Solid
 62
   179
370
    15
100
AcDbLine
 10
931.5281613536
 20
683.0735491255
 30
0.0
 11
931.7055448797
 21
683.1877298268
 31
0.0
  0
LINE
  5
EF
330
1F
100
AcDbEntity
  8
SLD-0_0
  6
SLD-Solid
 62
   179
370
    15
100
AcDbLine
 10
931.7055448797
 20
683.1877298268
 30
0.0
 11
931.855923372
 21
683.5128889538
 31
0.0
  0
LINE
  5
F0
330
1F
100
AcDbEntity
  8
SLD-0_0
  6
SLD-Solid
 62
   179
370
    15
100
AcDbLine
 10
931.855923372
 20
683.5128889538
 30
0.0
 11
931.9564030681
 21
683.999523977
 31
0.0
  0
LINE
  5
F1
330
1F
100
AcDbEntity
  8
SLD-0_0
  6
SLD-Solid
 62
   179
370
    15
100
AcDbLine
 10
931.9564030681
 20
683.999523977
 30
0.0
 11
931.9916868452
 21
684.5735491255
 31
0.0
  0
LINE
  5
F2
330
1F
100
AcDbEntity
  8
SLD-0_0
  6
SLD-Solid
 62
   179
370
    15
100
AcDbLine
 10
931.9916868452
 20
684.5735491255
 30
0.0
 11
931.9564030681
 21
685.1475742741
 31
0.0
  0
LINE
  5
F3
330
1F
100
AcDbEntity
  8
SLD-0_0
  6
SLD-Solid
 62
   179
370
    15
100
AcDbLine
 10
931.9564030681
 20
685.1475742741
 30
0.0
 11
931.855923372
 21
685.6342092973
 31
0.0
  0
LINE
  5
F4
330
1F
100
AcDbEntity
  8
SLD-0_0
  6
SLD-Solid
 62
   179
370
    15
100
AcDbLine
 10
931.855923372
 20
685.6342092973
 30
0.0
 11
931.7055448797
 21
685.9593684243
 31
0.0
  0
LINE
  5
F5
330
1F
100
AcDbEntity
  8
SLD-0_0
  6
SLD-Solid
 62
   179
370
    15
100
AcDbLine
 10
931.7055448797
 20
685.9593684243
 30
0.0
 11
931.5281613536
 21
686.0735491255
 31
0.0
  0
LINE
  5
F6
330
1F
100
AcDbEntity
  8
SLD-0_0
  6
SLD-Solid
 62
   179
370
    15
100
AcDbLine
 10
920.4673155924
 20
683.0735491255
 30
0.0
 11
931.5281613536
 21
683.0735491255
 31
0.0
  0
LINE
  5
F7
330
1F
100
AcDbEntity
  8
SLD-0_0
  6
SLD-Solid
 62
   179
370
    15
100
AcDbLine
 10
931.5281613536
 20
686.0735491255
 30
0.0
 11
920.4673155924
 21
686.0735491255
 31
0.0
  0
LINE
  5
F8
330
1F
100
AcDbEntity
  8
SLD-0_0
  6
SLD-Solid
 62
   179
370
    15
100
AcDbLine
 10
930.2980815301
 20
672.9522178733
 30
0.0
 11
930.2848636876
 21
672.9502283183
 31
0.0
  0
LINE
  5
F9
330
1F
100
AcDbEntity
  8
SLD-0_0
  6
SLD-Solid
 62
   179
370
    15
100
AcDbLine
 10
930.2848636876
 20
672.9502283183
 30
0.0
 11
930.2817734975
 21
672.9498212001
 31
0.0
  0
LINE
  5
FA
330
1F
100
AcDbEntity
  8
SLD-0_0
  6
SLD-Solid
 62
   179
370
    15
100
AcDbLine
 10
915.8951079796
 20
1209.4303977157
 30
0.0
 11
912.7220465323
 21
1207.1541491448
 31
0.0
  0
LINE
  5
FB
330
1F
100
AcDbEntity
  8
SLD-0_0
  6
SLD-Solid
 62
   179
370
    15
100
AcDbLine
 10
909.6907518403
 20
1209.3983524763
 30
0.0
 11
912.7220465323
 21
1207.1541491448
 31
0.0
  0
LINE
  5
FC
330
1F
100
AcDbEntity
  8
SLD-0_0
  6
SLD-Solid
 62
   179
370
    15
100
AcDbLine
 10
910.0813185421
 20
1205.5897012315
 30
0.0
 11
909.6907518403
 21
1206.9341527198
 31
0.0
  0
LINE
  5
FD
330
1F
100
AcDbEntity
  8
SLD-0_0
  6
SLD-Solid
 62
   179
370
    15
100
AcDbLine
 10
910.0813185421
 20
1205.5897012315
 30
0.0
 11
909.6907518403
 21
1205.359328521
 31
0.0
  0
LINE
  5
FE
330
1F
100
AcDbEntity
  8
SLD-0_0
  6
SLD-Solid
 62
   179
370
    15
100
AcDbLine
 10
910.4867517875
 20
1201.3558958861
 30
0.0
 11
909.6907518403
 21
1201.6310342865
 31
0.0
  0
LINE
  5
FF
330
1F
100
AcDbEntity
  8
SLD-0_0
  6
SLD-Solid
 62
   179
370
    15
100
AcDbLine
 10
910.4867517875
 20
1201.3558958861
 30
0.0
 11
909.996723788
 21
1197.5316975194
 31
0.0
  0
LINE
  5
100
330
1F
100
AcDbEntity
  8
SLD-0_0
  6
SLD-Solid
 62
   179
370
    15
100
AcDbLine
 10
912.6491777837
 20
1200.2130964424
 30
0.0
 11
909.996723788
 21
1197.5316975194
 31
0.0
  0
LINE
  5
101
330
1F
100
AcDbEntity
  8
SLD-0_0
  6
SLD-Solid
 62
   179
370
    15
100
AcDbLine
 10
918.6506156317
 20
1193.3594108192
 30
0.0
 11
912.6491777837
 21
1200.2130964424
 31
0.0
  0
LINE
  5
102
330
1F
100
AcDbEntity
  8
SLD-0_0
  6
SLD-Solid
 62
   179
370
    15
100
AcDbLine
 10
918.6506156317
 20
1193.3594108192
 30
0.0
 11
914.9192398396
 21
1202.1809120571
 31
0.0
  0
LINE
  5
103
330
1F
100
AcDbEntity
  8
SLD-0_0
  6
SLD-Solid
 62
   179
370
    15
100
AcDbLine
 10
914.9192398396
 20
1202.1809120571
 30
0.0
 11
919.8157911647
 21
1204.3568779307
 31
0.0
  0
LINE
  5
104
330
1F
100
AcDbEntity
  8
SLD-0_0
  6
SLD-Solid
 62
   179
370
    15
100
AcDbLine
 10
914.9460421379
 20
1204.7339429362
 30
0.0
 11
919.8157911647
 21
1204.3568779307
 31
0.0
  0
LINE
  5
105
330
1F
100
AcDbEntity
  8
SLD-0_0
  6
SLD-Solid
 62
   179
370
    15
100
AcDbLine
 10
914.9460421379
 20
1204.7339429362
 30
0.0
 11
915.8951079796
 21
1209.4303977157
 31
0.0
  0
LINE
  5
106
330
1F
100
AcDbEntity
  8
SLD-0_0
  6
SLD-Solid
 62
   179
370
    15
100
AcDbLine
 10
922.4776434597
 20
1236.5735491256
 30
0.0
 11
908.3907518403
 21
1236.5735491256
 31
0.0
  0
LINE
  5
107
330
1F
100
AcDbEntity
  8
SLD-0_0
  6
SLD-Solid
 62
   179
370
    15
100
AcDbLine
 10
922.4776434597
 20
336.5735491256
 30
0.0
 11
908.3907518403
 21
336.5735491256
 31
0.0
  0
LINE
  5
108
330
1F
100
AcDbEntity
  8
SLD-0_0
  6
SLD-Solid
 62
   179
370
    15
100
AcDbLine
 10
919.8007639804
 20
719.5735491256
 30
0.0
 11
919.8007639804
 21
699.5735491256
 31
0.0
  0
LINE
  5
109
330
1F
100
AcDbEntity
  8
SLD-0_0
  6
SLD-Solid
 62
   179
370
    15
100
AcDbLine
 10
909.6907518403
 20
721.5735491256
 30
0.0
 11
917.9213787388
 21
721.5735491256
 31
0.0
  0
LINE
  5
10A
330
1F
100
AcDbEntity
  8
SLD-0_0
  6
SLD-Solid
 62
   179
370
    15
100
AcDbLine
 10
913.6612102665
 20
914.9371851256
 30
0.0
 11
914.259372095
 21
915.9042332801
 31
0.0
  0
LINE
  5
10B
330
1F
100
AcDbEntity
  8
SLD-0_0
  6
SLD-Solid
 62
   179
370
    15
100
AcDbLine
 10
914.259372095
 20
915.9042332801
 30
0.0
 11
915.127168088
 21
916.6024784986
 31
0.0
  0
LINE
  5
10C
330
1F
100
AcDbEntity
  8
SLD-0_0
  6
SLD-Solid
 62
   179
370
    15
100
AcDbLine
 10
915.127168088
 20
916.6024784986
 30
0.0
 11
916.1645134229
 21
916.9513906224
 31
0.0
  0
LINE
  5
10D
330
1F
100
AcDbEntity
  8
SLD-0_0
  6
SLD-Solid
 62
   179
370
    15
100
AcDbLine
 10
916.1645134229
 20
916.9513906224
 30
0.0
 11
917.2517687777
 21
916.9107288479
 31
0.0
  0
LINE
  5
10E
330
1F
100
AcDbEntity
  8
SLD-0_0
  6
SLD-Solid
 62
   179
370
    15
100
AcDbLine
 10
917.2517687777
 20
916.9107288479
 30
0.0
 11
918.2635385981
 21
916.4851827872
 31
0.0
  0
LINE
  5
10F
330
1F
100
AcDbEntity
  8
SLD-0_0
  6
SLD-Solid
 62
   179
370
    15
100
AcDbLine
 10
918.2635385981
 20
916.4851827872
 30
0.0
 11
919.0831332427
 21
915.7238316044
 31
0.0
  0
LINE
  5
110
330
1F
100
AcDbEntity
  8
SLD-0_0
  6
SLD-Solid
 62
   179
370
    15
100
AcDbLine
 10
919.0831332427
 20
915.7238316044
 30
0.0
 11
919.6160270562
 21
914.7144836082
 31
0.0
  0
LINE
  5
111
330
1F
100
AcDbEntity
  8
SLD-0_0
  6
SLD-Solid
 62
   179
370
    15
100
AcDbLine
 10
919.6160270562
 20
914.7144836082
 30
0.0
 11
919.8007602216
 21
913.5735491256
 31
0.0
  0
LINE
  5
112
330
1F
100
AcDbEntity
  8
SLD-0_0
  6
SLD-Solid
 62
   179
370
    15
100
AcDbLine
 10
919.8007602216
 20
913.5735491256
 30
0.0
 11
919.6160270562
 21
912.432614643
 31
0.0
  0
LINE
  5
113
330
1F
100
AcDbEntity
  8
SLD-0_0
  6
SLD-Solid
 62
   179
370
    15
100
AcDbLine
 10
919.6160270562
 20
912.432614643
 30
0.0
 11
919.0831332427
 21
911.4232666467
 31
0.0
  0
LINE
  5
114
330
1F
100
AcDbEntity
  8
SLD-0_0
  6
SLD-Solid
 62
   179
370
    15
100
AcDbLine
 10
919.0831332427
 20
911.4232666467
 30
0.0
 11
918.2635385981
 21
910.661915464
 31
0.0
  0
LINE
  5
115
330
1F
100
AcDbEntity
  8
SLD-0_0
  6
SLD-Solid
 62
   179
370
    15
100
AcDbLine
 10
918.2635385981
 20
910.661915464
 30
0.0
 11
917.2517687777
 21
910.2363694032
 31
0.0
  0
LINE
  5
116
330
1F
100
AcDbEntity
  8
SLD-0_0
  6
SLD-Solid
 62
   179
370
    15
100
AcDbLine
 10
917.2517687777
 20
910.2363694032
 30
0.0
 11
916.1645134229
 21
910.1957076287
 31
0.0
  0
LINE
  5
117
330
1F
100
AcDbEntity
  8
SLD-0_0
  6
SLD-Solid
 62
   179
370
    15
100
AcDbLine
 10
916.1645134229
 20
910.1957076287
 30
0.0
 11
915.127168088
 21
910.5446197526
 31
0.0
  0
LINE
  5
118
330
1F
100
AcDbEntity
  8
SLD-0_0
  6
SLD-Solid
 62
   179
370
    15
100
AcDbLine
 10
915.127168088
 20
910.5446197526
 30
0.0
 11
914.259372095
 21
911.2428649711
 31
0.0
  0
LINE
  5
119
330
1F
100
AcDbEntity
  8
SLD-0_0
  6
SLD-Solid
 62
   179
370
    15
100
AcDbLine
 10
914.259372095
 20
911.2428649711
 30
0.0
 11
913.6612102665
 21
912.2099131256
 31
0.0
  0
LINE
  5
11A
330
1F
100
AcDbEntity
  8
SLD-0_0
  6
SLD-Solid
 62
   179
370
    15
100
AcDbLine
 10
913.6612102665
 20
914.9371851256
 30
0.0
 11
909.6907518403
 21
914.9371851256
 31
0.0
  0
LINE
  5
11B
330
1F
100
AcDbEntity
  8
SLD-0_0
  6
SLD-Solid
 62
   179
370
    15
100
AcDbLine
 10
913.6612102665
 20
912.2099131256
 30
0.0
 11
909.6907518403
 21
912.2099131256
 31
0.0
  0
LINE
  5
11C
330
1F
100
AcDbEntity
  8
SLD-0_0
  6
SLD-Solid
 62
   179
370
    15
100
AcDbLine
 10
914.9158196382
 20
1202.1809120571
 30
0.0
 11
919.8123709633
 21
1204.3568779307
 31
0.0
  0
LINE
  5
11D
330
1F
100
AcDbEntity
  8
SLD-0_0
  6
SLD-Solid
 62
   179
370
    15
100
AcDbLine
 10
918.6439994686
 20
1193.3669665255
 30
0.0
 11
914.9158196382
 21
1202.1809120571
 31
0.0
  0
LINE
  5
11E
330
1F
100
AcDbEntity
  8
SLD-0_0
  6
SLD-Solid
 62
   179
370
    15
100
AcDbLine
 10
912.6457575822
 20
1200.2130964424
 30
0.0
 11
909.9972327618
 21
1197.5356695718
 31
0.0
  0
LINE
  5
11F
330
1F
100
AcDbEntity
  8
SLD-0_0
  6
SLD-Solid
 62
   179
370
    15
100
AcDbLine
 10
909.6907518403
 20
1209.3958203478
 30
0.0
 11
912.7186263308
 21
1207.1541491448
 31
0.0
  0
LINE
  5
120
330
1F
100
AcDbEntity
  8
SLD-0_0
  6
SLD-Solid
 62
   179
370
    15
100
AcDbLine
 10
914.9426219365
 20
1204.7339429362
 30
0.0
 11
915.8911079011
 21
1209.4275281927
 31
0.0
  0
LINE
  5
121
330
1F
100
AcDbEntity
  8
SLD-0_0
  6
SLD-Solid
 62
   179
370
    15
100
AcDbLine
 10
914.9426219365
 20
1204.7339429362
 30
0.0
 11
919.8123709633
 21
1204.3568779307
 31
0.0
  0
LINE
  5
122
330
1F
100
AcDbEntity
  8
SLD-0_0
  6
SLD-Solid
 62
   179
370
    15
100
AcDbLine
 10
914.4825216835
 20
1207.2135170134
 30
0.0
 11
912.7119934786
 21
1205.9433990648
 31
0.0
  0
LINE
  5
123
330
1F
100
AcDbEntity
  8
SLD-0_0
  6
SLD-Solid
 62
   179
370
    15
100
AcDbLine
 10
911.2011434759
 20
1205.1089032808
 30
0.0
 11
910.4792563203
 21
1207.5938623321
 31
0.0
  0
LINE
  5
124
330
1F
100
AcDbEntity
  8
SLD-0_0
  6
SLD-Solid
 62
   179
370
    15
100
AcDbLine
 10
911.2011434759
 20
1205.1089032808
 30
0.0
 11
909.6907518403
 21
1204.2180106024
 31
0.0
  0
LINE
  5
125
330
1F
100
AcDbEntity
  8
SLD-0_0
  6
SLD-Solid
 62
   179
370
    15
100
AcDbLine
 10
911.5205111193
 20
1202.0488205356
 30
0.0
 11
909.6907518403
 21
1202.6812791719
 31
0.0
  0
LINE
  5
126
330
1F
100
AcDbEntity
  8
SLD-0_0
  6
SLD-Solid
 62
   179
370
    15
100
AcDbLine
 10
911.5205111193
 20
1202.0488205356
 30
0.0
 11
911.2858659193
 21
1200.2176398861
 31
0.0
  0
LINE
  5
127
330
1F
100
AcDbEntity
  8
SLD-0_0
  6
SLD-Solid
 62
   179
370
    15
100
AcDbLine
 10
915.4535212582
 20
1198.4734502187
 30
0.0
 11
912.68803639
 21
1201.6316540297
 31
0.0
  0
LINE
  5
128
330
1F
100
AcDbEntity
  8
SLD-0_0
  6
SLD-Solid
 62
   179
370
    15
100
AcDbLine
 10
919.7973437789
 20
719.5735491256
 30
0.0
 11
919.7973437789
 21
699.5735491256
 31
0.0
  0
LINE
  5
129
330
1F
100
AcDbEntity
  8
SLD-0_0
  6
SLD-Solid
 62
   179
370
    15
100
AcDbLine
 10
910.8309694151
 20
913.9371851256
 30
0.0
 11
910.8309694151
 21
914.2553671256
 31
0.0
  0
LINE
  5
12A
330
1F
100
AcDbEntity
  8
SLD-0_0
  6
SLD-Solid
 62
   179
370
    15
100
AcDbLine
 10
914.3593971219
 20
913.9371851256
 30
0.0
 11
910.8309694151
 21
913.9371851256
 31
0.0
  0
LINE
  5
12B
330
1F
100
AcDbEntity
  8
SLD-0_0
  6
SLD-Solid
 62
   179
370
    15
100
AcDbLine
 10
914.3593971219
 20
913.9371851256
 30
0.0
 11
914.6675498772
 21
914.8331572913
 31
0.0
  0
LINE
  5
12C
330
1F
100
AcDbEntity
  8
SLD-0_0
  6
SLD-Solid
 62
   179
370
    15
100
AcDbLine
 10
914.6675498772
 20
914.8331572913
 30
0.0
 11
915.2783752613
 21
915.5315618443
 31
0.0
  0
LINE
  5
12D
330
1F
100
AcDbEntity
  8
SLD-0_0
  6
SLD-Solid
 62
   179
370
    15
100
AcDbLine
 10
915.2783752613
 20
915.5315618443
 30
0.0
 11
916.0960662476
 21
915.9228550994
 31
0.0
  0
LINE
  5
12E
330
1F
100
AcDbEntity
  8
SLD-0_0
  6
SLD-Solid
 62
   179
370
    15
100
AcDbLine
 10
916.0960662476
 20
915.9228550994
 30
0.0
 11
916.9923692567
 21
915.9456633084
 31
0.0
  0
LINE
  5
12F
330
1F
100
AcDbEntity
  8
SLD-0_0
  6
SLD-Solid
 62
   179
370
    15
100
AcDbLine
 10
916.9923692567
 20
915.9456633084
 30
0.0
 11
917.8267005333
 21
915.5964090388
 31
0.0
  0
LINE
  5
130
330
1F
100
AcDbEntity
  8
SLD-0_0
  6
SLD-Solid
 62
   179
370
    15
100
AcDbLine
 10
917.8267005333
 20
915.5964090388
 30
0.0
 11
918.4681964939
 21
914.929872288
 31
0.0
  0
LINE
  5
131
330
1F
100
AcDbEntity
  8
SLD-0_0
  6
SLD-Solid
 62
   179
370
    15
100
AcDbLine
 10
918.4681964939
 20
914.929872288
 30
0.0
 11
918.816239479
 21
914.0505983253
 31
0.0
  0
LINE
  5
132
330
1F
100
AcDbEntity
  8
SLD-0_0
  6
SLD-Solid
 62
   179
370
    15
100
AcDbLine
 10
918.816239479
 20
914.0505983253
 30
0.0
 11
918.816239479
 21
913.0964999258
 31
0.0
  0
LINE
  5
133
330
1F
100
AcDbEntity
  8
SLD-0_0
  6
SLD-Solid
 62
   179
370
    15
100
AcDbLine
 10
918.816239479
 20
913.0964999258
 30
0.0
 11
918.4681964939
 21
912.2172259631
 31
0.0
  0
LINE
  5
134
330
1F
100
AcDbEntity
  8
SLD-0_0
  6
SLD-Solid
 62
   179
370
    15
100
AcDbLine
 10
918.4681964939
 20
912.2172259631
 30
0.0
 11
917.8267005333
 21
911.5506892123
 31
0.0
  0
LINE
  5
135
330
1F
100
AcDbEntity
  8
SLD-0_0
  6
SLD-Solid
 62
   179
370
    15
100
AcDbLine
 10
917.8267005333
 20
911.5506892123
 30
0.0
 11
916.9923692567
 21
911.2014349427
 31
0.0
  0
LINE
  5
136
330
1F
100
AcDbEntity
  8
SLD-0_0
  6
SLD-Solid
 62
   179
370
    15
100
AcDbLine
 10
916.9923692567
 20
911.2014349427
 30
0.0
 11
916.0960662476
 21
911.2242431517
 31
0.0
  0
LINE
  5
137
330
1F
100
AcDbEntity
  8
SLD-0_0
  6
SLD-Solid
 62
   179
370
    15
100
AcDbLine
 10
916.0960662476
 20
911.2242431517
 30
0.0
 11
915.2783752613
 21
911.6155364068
 31
0.0
  0
LINE
  5
138
330
1F
100
AcDbEntity
  8
SLD-0_0
  6
SLD-Solid
 62
   179
370
    15
100
AcDbLine
 10
915.2783752613
 20
911.6155364068
 30
0.0
 11
914.6675498772
 21
912.3139409598
 31
0.0
  0
LINE
  5
139
330
1F
100
AcDbEntity
  8
SLD-0_0
  6
SLD-Solid
 62
   179
370
    15
100
AcDbLine
 10
914.6675498772
 20
912.3139409598
 30
0.0
 11
914.3593971219
 21
913.2099131256
 31
0.0
  0
LINE
  5
13A
330
1F
100
AcDbEntity
  8
SLD-0_0
  6
SLD-Solid
 62
   179
370
    15
100
AcDbLine
 10
914.3593971219
 20
913.2099131256
 30
0.0
 11
910.8309694151
 21
913.2099131256
 31
0.0
  0
LINE
  5
13B
330
1F
100
AcDbEntity
  8
SLD-0_0
  6
SLD-Solid
 62
   179
370
    15
100
AcDbLine
 10
910.8309694151
 20
912.8917311256
 30
0.0
 11
910.8309694151
 21
913.2099131256
 31
0.0
  0
LINE
  5
13C
330
1F
100
AcDbEntity
  8
SLD-0_0
  6
SLD-Solid
 62
   179
370
    15
100
AcDbLine
 10
910.8309694151
 20
912.8917311256
 30
0.0
 11
909.6907518403
 21
912.8917311256
 31
0.0
  0
LINE
  5
13D
330
1F
100
AcDbEntity
  8
SLD-0_0
  6
SLD-Solid
 62
   179
370
    15
100
AcDbLine
 10
910.8309694151
 20
914.2553671256
 30
0.0
 11
909.6907518403
 21
914.2553671256
 31
0.0
  0
LINE
  5
13E
330
1F
100
AcDbEntity
  8
SLD-0_0
  6
SLD-Solid
 62
   179
370
    15
100
AcDbLine
 10
918.8610713596
 20
719.5735491256
 30
0.0
 11
918.8610713596
 21
699.5735491256
 31
0.0
  0
LINE
  5
13F
330
1F
100
AcDbEntity
  8
SLD-0_0
  6
SLD-Solid
 62
   179
370
    15
100
AcDbLine
 10
909.6907518403
 20
720.5735491256
 30
0.0
 11
917.9213787388
 21
720.5735491256
 31
0.0
  0
LINE
  5
140
330
1F
100
AcDbEntity
  8
SLD-0_0
  6
SLD-Solid
 62
   179
370
    15
100
AcDbLine
 10
913.6659336939
 20
1202.707646425
 30
0.0
 11
915.8175898636
 21
1203.6638153868
 31
0.0
  0
LINE
  5
141
330
1F
100
AcDbEntity
  8
SLD-0_0
  6
SLD-Solid
 62
   179
370
    15
100
AcDbLine
 10
915.4569414597
 20
1198.4734502187
 30
0.0
 11
913.6659336939
 21
1202.707646425
 31
0.0
  0
LINE
  5
142
330
1F
100
AcDbEntity
  8
SLD-0_0
  6
SLD-Solid
 62
   179
370
    15
100
AcDbLine
 10
915.4569414597
 20
1198.4734502187
 30
0.0
 11
912.6898506215
 21
1201.633488059
 31
0.0
  0
LINE
  5
143
330
1F
100
AcDbEntity
  8
SLD-0_0
  6
SLD-Solid
 62
   179
370
    15
100
AcDbLine
 10
912.6898506215
 20
1201.633488059
 30
0.0
 11
911.2892861207
 21
1200.2176398861
 31
0.0
  0
LINE
  5
144
330
1F
100
AcDbEntity
  8
SLD-0_0
  6
SLD-Solid
 62
   179
370
    15
100
AcDbLine
 10
911.5239313207
 20
1202.0488205356
 30
0.0
 11
911.2892861207
 21
1200.2176398861
 31
0.0
  0
LINE
  5
145
330
1F
100
AcDbEntity
  8
SLD-0_0
  6
SLD-Solid
 62
   179
370
    15
100
AcDbLine
 10
911.5239313207
 20
1202.0488205356
 30
0.0
 11
909.6907518403
 21
1202.6824613689
 31
0.0
  0
LINE
  5
146
330
1F
100
AcDbEntity
  8
SLD-0_0
  6
SLD-Solid
 62
   179
370
    15
100
AcDbLine
 10
911.2045636774
 20
1205.1089032808
 30
0.0
 11
909.6907518403
 21
1204.2159932234
 31
0.0
  0
LINE
  5
147
330
1F
100
AcDbEntity
  8
SLD-0_0
  6
SLD-Solid
 62
   179
370
    15
100
AcDbLine
 10
911.2045636774
 20
1205.1089032808
 30
0.0
 11
910.4826765218
 21
1207.5938623321
 31
0.0
  0
LINE
  5
148
330
1F
100
AcDbEntity
  8
SLD-0_0
  6
SLD-Solid
 62
   179
370
    15
100
AcDbLine
 10
910.4826765218
 20
1207.5938623321
 30
0.0
 11
912.7136766228
 21
1205.9421529578
 31
0.0
  0
LINE
  5
149
330
1F
100
AcDbEntity
  8
SLD-0_0
  6
SLD-Solid
 62
   179
370
    15
100
AcDbLine
 10
914.4859418849
 20
1207.2135170134
 30
0.0
 11
912.7136766228
 21
1205.9421529578
 31
0.0
  0
LINE
  5
14A
330
1F
100
AcDbEntity
  8
SLD-0_0
  6
SLD-Solid
 62
   179
370
    15
100
AcDbLine
 10
913.8001802041
 20
1203.8200235569
 30
0.0
 11
914.4859418849
 21
1207.2135170134
 31
0.0
  0
LINE
  5
14B
330
1F
100
AcDbEntity
  8
SLD-0_0
  6
SLD-Solid
 62
   179
370
    15
100
AcDbLine
 10
913.8001802041
 20
1203.8200235569
 30
0.0
 11
915.8175898636
 21
1203.6638153868
 31
0.0
  0
LINE
  5
14C
330
1F
100
AcDbEntity
  8
SLD-0_0
  6
SLD-Solid
 62
   179
370
    15
100
AcDbLine
 10
911.2011434759
 20
1205.1089032808
 30
0.0
 11
911.2045636774
 21
1205.1089032808
 31
0.0
  0
LINE
  5
14D
330
1F
100
AcDbEntity
  8
SLD-0_0
  6
SLD-Solid
 62
   179
370
    15
100
AcDbLine
 10
911.5205111193
 20
1202.0488205356
 30
0.0
 11
911.5239313207
 21
1202.0488205356
 31
0.0
  0
LINE
  5
14E
330
1F
100
AcDbEntity
  8
SLD-0_0
  6
SLD-Solid
 62
   179
370
    15
100
AcDbLine
 10
912.7186263308
 20
1207.1541491448
 30
0.0
 11
912.7220465323
 21
1207.1541491448
 31
0.0
  0
LINE
  5
14F
330
1F
100
AcDbEntity
  8
SLD-0_0
  6
SLD-Solid
 62
   179
370
    15
100
AcDbLine
 10
912.6457575822
 20
1200.2130964424
 30
0.0
 11
912.6491777837
 21
1200.2130964424
 31
0.0
  0
LINE
  5
150
330
1F
100
AcDbEntity
  8
SLD-0_0
  6
SLD-Solid
 62
   179
370
    15
100
AcDbLine
 10
910.4792563203
 20
1207.5938623321
 30
0.0
 11
910.4826765218
 21
1207.5938623321
 31
0.0
  0
LINE
  5
151
330
1F
100
AcDbEntity
  8
SLD-0_0
  6
SLD-Solid
 62
   179
370
    15
100
AcDbLine
 10
911.2858659193
 20
1200.2176398861
 30
0.0
 11
911.2892861207
 21
1200.2176398861
 31
0.0
  0
LINE
  5
152
330
1F
100
AcDbEntity
  8
SLD-0_0
  6
SLD-Solid
 62
   179
370
    15
100
AcDbLine
 10
913.6927619453
 20
709.5735491256
 30
0.0
 11
913.6212321037
 21
709.9562325579
 31
0.0
  0
LINE
  5
153
330
1F
100
AcDbEntity
  8
SLD-0_0
  6
SLD-Solid
 62
   179
370
    15
100
AcDbLine
 10
913.6212321037
 20
709.9562325579
 30
0.0
 11
913.4175323489
 21
710.2806559067
 31
0.0
  0
LINE
  5
154
330
1F
100
AcDbEntity
  8
SLD-0_0
  6
SLD-Solid
 62
   179
370
    15
100
AcDbLine
 10
913.4175323489
 20
710.2806559067
 30
0.0
 11
913.112674122
 21
710.4974286581
 31
0.0
  0
LINE
  5
155
330
1F
100
AcDbEntity
  8
SLD-0_0
  6
SLD-Solid
 62
   179
370
    15
100
AcDbLine
 10
913.112674122
 20
710.4974286581
 30
0.0
 11
912.7530693245
 21
710.5735491256
 31
0.0
  0
LINE
  5
156
330
1F
100
AcDbEntity
  8
SLD-0_0
  6
SLD-Solid
 62
   179
370
    15
100
AcDbLine
 10
912.7530693245
 20
710.5735491256
 30
0.0
 11
912.393464527
 21
710.4974286581
 31
0.0
  0
LINE
  5
157
330
1F
100
AcDbEntity
  8
SLD-0_0
  6
SLD-Solid
 62
   179
370
    15
100
AcDbLine
 10
912.393464527
 20
710.4974286581
 30
0.0
 11
912.0886063001
 21
710.2806559067
 31
0.0
  0
LINE
  5
158
330
1F
100
AcDbEntity
  8
SLD-0_0
  6
SLD-Solid
 62
   179
370
    15
100
AcDbLine
 10
912.0886063001
 20
710.2806559067
 30
0.0
 11
911.8849065453
 21
709.9562325579
 31
0.0
  0
LINE
  5
159
330
1F
100
AcDbEntity
  8
SLD-0_0
  6
SLD-Solid
 62
   179
370
    15
100
AcDbLine
 10
911.8849065453
 20
709.9562325579
 30
0.0
 11
911.8133767037
 21
709.5735491256
 31
0.0
  0
LINE
  5
15A
330
1F
100
AcDbEntity
  8
SLD-0_0
  6
SLD-Solid
 62
   179
370
    15
100
AcDbLine
 10
911.8133767037
 20
709.5735491256
 30
0.0
 11
911.8849065453
 21
709.1908656932
 31
0.0
  0
LINE
  5
15B
330
1F
100
AcDbEntity
  8
SLD-0_0
  6
SLD-Solid
 62
   179
370
    15
100
AcDbLine
 10
911.8849065453
 20
709.1908656932
 30
0.0
 11
912.0886063001
 21
708.8664423444
 31
0.0
  0
LINE
  5
15C
330
1F
100
AcDbEntity
  8
SLD-0_0
  6
SLD-Solid
 62
   179
370
    15
100
AcDbLine
 10
912.0886063001
 20
708.8664423444
 30
0.0
 11
912.393464527
 21
708.6496695931
 31
0.0
  0
LINE
  5
15D
330
1F
100
AcDbEntity
  8
SLD-0_0
  6
SLD-Solid
 62
   179
370
    15
100
AcDbLine
 10
912.393464527
 20
708.6496695931
 30
0.0
 11
912.7530693245
 21
708.5735491256
 31
0.0
  0
LINE
  5
15E
330
1F
100
AcDbEntity
  8
SLD-0_0
  6
SLD-Solid
 62
   179
370
    15
100
AcDbLine
 10
912.7530693245
 20
708.5735491256
 30
0.0
 11
913.112674122
 21
708.6496695931
 31
0.0
  0
LINE
  5
15F
330
1F
100
AcDbEntity
  8
SLD-0_0
  6
SLD-Solid
 62
   179
370
    15
100
AcDbLine
 10
913.112674122
 20
708.6496695931
 30
0.0
 11
913.4175323489
 21
708.8664423444
 31
0.0
  0
LINE
  5
160
330
1F
100
AcDbEntity
  8
SLD-0_0
  6
SLD-Solid
 62
   179
370
    15
100
AcDbLine
 10
913.4175323489
 20
708.8664423444
 30
0.0
 11
913.6212321037
 21
709.1908656932
 31
0.0
  0
LINE
  5
161
330
1F
100
AcDbEntity
  8
SLD-0_0
  6
SLD-Solid
 62
   179
370
    15
100
AcDbLine
 10
913.6212321037
 20
709.1908656932
 30
0.0
 11
913.6927619453
 21
709.5735491256
 31
0.0
  0
LINE
  5
162
330
1F
100
AcDbEntity
  8
SLD-0_0
  6
SLD-Solid
 62
   179
370
    15
100
AcDbLine
 10
915.4535212582
 20
1198.4734502187
 30
0.0
 11
915.4569414597
 21
1198.4734502187
 31
0.0
  0
LINE
  5
163
330
1F
100
AcDbEntity
  8
SLD-0_0
  6
SLD-Solid
 62
   179
370
    15
100
AcDbLine
 10
914.4825216835
 20
1207.2135170134
 30
0.0
 11
914.4859418849
 21
1207.2135170134
 31
0.0
  0
LINE
  5
164
330
1F
100
AcDbEntity
  8
SLD-0_0
  6
SLD-Solid
 62
   179
370
    15
100
AcDbLine
 10
914.9158196382
 20
1202.1809120571
 30
0.0
 11
914.9192398396
 21
1202.1809120571
 31
0.0
  0
LINE
  5
165
330
1F
100
AcDbEntity
  8
SLD-0_0
  6
SLD-Solid
 62
   179
370
    15
100
AcDbLine
 10
919.8123709633
 20
1204.3568779307
 30
0.0
 11
919.8157911647
 21
1204.3568779307
 31
0.0
  0
LINE
  5
166
330
1F
100
AcDbEntity
  8
SLD-0_0
  6
SLD-Solid
 62
   179
370
    15
100
AcDbLine
 10
914.9426219365
 20
1204.7339429362
 30
0.0
 11
914.9460421379
 21
1204.7339429362
 31
0.0
  0
LINE
  5
167
330
1F
100
AcDbEntity
  8
SLD-0_0
  6
SLD-Solid
 62
   179
370
    15
100
AcDbLine
 10
929.5838259118
 20
1236.5735491256
 30
0.0
 11
922.4776434597
 21
1236.5735491256
 31
0.0
  0
LINE
  5
168
330
1F
100
AcDbEntity
  8
SLD-0_0
  6
SLD-Solid
 62
   179
370
    15
100
AcDbLine
 10
929.5838259118
 20
336.5735491256
 30
0.0
 11
922.4776434597
 21
336.5735491256
 31
0.0
  0
LINE
  5
169
330
1F
100
AcDbEntity
  8
SLD-0_0
  6
SLD-Solid
 62
   179
370
    15
100
AcDbLine
 10
795.0739433418
 20
1234.1235491256
 30
0.0
 11
795.0739433418
 21
1236.5735491256
 31
0.0
  0
LINE
  5
16A
330
1F
100
AcDbEntity
  8
SLD-0_0
  6
SLD-Solid
 62
   179
370
    15
100
AcDbLine
 10
886.3907518403
 20
1236.5735491256
 30
0.0
 11
795.0739433418
 21
1236.5735491256
 31
0.0
  0
LINE
  5
16B
330
1F
100
AcDbEntity
  8
SLD-0_0
  6
SLD-Solid
 62
   179
370
    15
100
AcDbLine
 10
886.3907518403
 20
1236.5735491256
 30
0.0
 11
886.3907518403
 21
1234.1235491256
 31
0.0
  0
LINE
  5
16C
330
1F
100
AcDbEntity
  8
SLD-0_0
  6
SLD-Solid
 62
   179
370
    15
100
AcDbLine
 10
795.0739433418
 20
339.0235491256
 30
0.0
 11
792.6239433418
 21
339.0235491256
 31
0.0
  0
LINE
  5
16D
330
1F
100
AcDbEntity
  8
SLD-0_0
  6
SLD-Solid
 62
   179
370
    15
100
AcDbLine
 10
792.6239433418
 20
1234.1235491256
 30
0.0
 11
792.6239433418
 21
339.0235491256
 31
0.0
  0
LINE
  5
16E
330
1F
100
AcDbEntity
  8
SLD-0_0
  6
SLD-Solid
 62
   179
370
    15
100
AcDbLine
 10
792.6239433418
 20
1234.1235491256
 30
0.0
 11
795.0739433418
 21
1234.1235491256
 31
0.0
  0
LINE
  5
16F
330
1F
100
AcDbEntity
  8
SLD-0_0
  6
SLD-Solid
 62
   179
370
    15
100
AcDbLine
 10
909.6907518403
 20
1235.3735491256
 30
0.0
 11
886.8907518403
 21
1235.3735491256
 31
0.0
  0
LINE
  5
170
330
1F
100
AcDbEntity
  8
SLD-0_0
  6
SLD-Solid
 62
   179
370
    15
100
AcDbLine
 10
909.6907518403
 20
337.7735491256
 30
0.0
 11
886.8907518403
 21
337.7735491256
 31
0.0
  0
LINE
  5
171
330
1F
100
AcDbEntity
  8
SLD-0_0
  6
SLD-Solid
 62
   179
370
    15
100
AcDbLine
 10
886.8907518403
 20
337.7735491256
 30
0.0
 11
886.8907518403
 21
339.0235491256
 31
0.0
  0
LINE
  5
172
330
1F
100
AcDbEntity
  8
SLD-0_0
  6
SLD-Solid
 62
   179
370
    15
100
AcDbLine
 10
886.8907518403
 20
339.0235491256
 30
0.0
 11
886.3907518403
 21
339.0235491256
 31
0.0
  0
LINE
  5
173
330
1F
100
AcDbEntity
  8
SLD-0_0
  6
SLD-Solid
 62
   179
370
    15
100
AcDbLine
 10
886.3907518403
 20
1234.1235491256
 30
0.0
 11
886.8907518403
 21
1234.1235491256
 31
0.0
  0
LINE
  5
174
330
1F
100
AcDbEntity
  8
SLD-0_0
  6
SLD-Solid
 62
   179
370
    15
100
AcDbLine
 10
886.8907518403
 20
1234.1235491256
 30
0.0
 11
886.8907518403
 21
1235.3735491256
 31
0.0
  0
LINE
  5
175
330
1F
100
AcDbEntity
  8
SLD-0_0
  6
SLD-Solid
 62
   179
370
    15
100
AcDbLine
 10
886.3907518403
 20
339.0235491256
 30
0.0
 11
886.3907518403
 21
336.5735491256
 31
0.0
  0
LINE
  5
176
330
1F
100
AcDbEntity
  8
SLD-0_0
  6
SLD-Solid
 62
   179
370
    15
100
AcDbLine
 10
795.0739433418
 20
336.5735491256
 30
0.0
 11
886.3907518403
 21
336.5735491256
 31
0.0
  0
LINE
  5
177
330
1F
100
AcDbEntity
  8
SLD-0_0
  6
SLD-Solid
 62
   179
370
    15
100
AcDbLine
 10
795.0739433418
 20
336.5735491256
 30
0.0
 11
795.0739433418
 21
339.0235491256
 31
0.0
  0
LINE
  5
178
330
1F
100
AcDbEntity
  8
SLD-0_0
  6
SLD-Solid
 62
   179
370
    15
100
AcDbLine
 10
886.8907518403
 20
1236.5735491256
 30
0.0
 11
886.8907518403
 21
1235.3735491256
 31
0.0
  0
LINE
  5
179
330
1F
100
AcDbEntity
  8
SLD-0_0
  6
SLD-Solid
 62
   179
370
    15
100
AcDbLine
 10
908.3907518403
 20
1236.5735491256
 30
0.0
 11
886.8907518403
 21
1236.5735491256
 31
0.0
  0
LINE
  5
17A
330
1F
100
AcDbEntity
  8
SLD-0_0
  6
SLD-Solid
 62
   179
370
    15
100
AcDbLine
 10
908.3907518403
 20
336.5735491256
 30
0.0
 11
886.8907518403
 21
336.5735491256
 31
0.0
  0
LINE
  5
17B
330
1F
100
AcDbEntity
  8
SLD-0_0
  6
SLD-Solid
 62
   179
370
    15
100
AcDbLine
 10
886.8907518403
 20
336.5735491256
 30
0.0
 11
886.8907518403
 21
337.7735491256
 31
0.0
  0
LINE
  5
17C
330
1F
100
AcDbEntity
  8
SLD-0_0
  6
SLD-Solid
 62
   179
370
    15
100
AcDbLine
 10
793.8239433418
 20
1235.3735491256
 30
0.0
 11
793.8239433418
 21
1234.1235491256
 31
0.0
  0
LINE
  5
17D
330
1F
100
AcDbEntity
  8
SLD-0_0
  6
SLD-Solid
 62
   179
370
    15
100
AcDbLine
 10
792.6239433418
 20
1235.3735491256
 30
0.0
 11
793.8239433418
 21
1235.3735491256
 31
0.0
  0
LINE
  5
17E
330
1F
100
AcDbEntity
  8
SLD-0_0
  6
SLD-Solid
 62
   179
370
    15
100
AcDbLine
 10
792.6239433418
 20
1235.3735491256
 30
0.0
 11
792.6239433418
 21
1234.1235491256
 31
0.0
  0
LINE
  5
17F
330
1F
100
AcDbEntity
  8
SLD-0_0
  6
SLD-Solid
 62
   179
370
    15
100
AcDbLine
 10
793.8239433418
 20
337.7735491256
 30
0.0
 11
792.6239433418
 21
337.7735491256
 31
0.0
  0
LINE
  5
180
330
1F
100
AcDbEntity
  8
SLD-0_0
  6
SLD-Solid
 62
   179
370
    15
100
AcDbLine
 10
793.8239433418
 20
339.0235491256
 30
0.0
 11
793.8239433418
 21
337.7735491256
 31
0.0
  0
LINE
  5
181
330
1F
100
AcDbEntity
  8
SLD-0_0
  6
SLD-Solid
 62
   179
370
    15
100
AcDbLine
 10
792.6239433418
 20
339.0235491256
 30
0.0
 11
792.6239433418
 21
337.7735491256
 31
0.0
  0
LINE
  5
182
330
1F
100
AcDbEntity
  8
SLD-0_0
  6
SLD-Solid
 62
   179
370
    15
100
AcDbLine
 10
793.8339433418
 20
1236.5735491256
 30
0.0
 11
793.8339433418
 21
1235.3735491256
 31
0.0
  0
LINE
  5
183
330
1F
100
AcDbEntity
  8
SLD-0_0
  6
SLD-Solid
 62
   179
370
    15
100
AcDbLine
 10
795.0739433418
 20
1236.5735491256
 30
0.0
 11
793.8339433418
 21
1236.5735491256
 31
0.0
  0
LINE
  5
184
330
1F
100
AcDbEntity
  8
SLD-0_0
  6
SLD-Solid
 62
   179
370
    15
100
AcDbLine
 10
795.0739433418
 20
1235.3735491256
 30
0.0
 11
793.8339433418
 21
1235.3735491256
 31
0.0
  0
LINE
  5
185
330
1F
100
AcDbEntity
  8
SLD-0_0
  6
SLD-Solid
 62
   179
370
    15
100
AcDbLine
 10
886.8907518403
 20
1236.5735491256
 30
0.0
 11
886.3907518403
 21
1236.5735491256
 31
0.0
  0
LINE
  5
186
330
1F
100
AcDbEntity
  8
SLD-0_0
  6
SLD-Solid
 62
   179
370
    15
100
AcDbLine
 10
886.8907518403
 20
1235.3735491256
 30
0.0
 11
886.3907518403
 21
1235.3735491256
 31
0.0
  0
LINE
  5
187
330
1F
100
AcDbEntity
  8
SLD-0_0
  6
SLD-Solid
 62
   179
370
    15
100
AcDbLine
 10
886.8907518403
 20
336.5735491256
 30
0.0
 11
886.3907518403
 21
336.5735491256
 31
0.0
  0
LINE
  5
188
330
1F
100
AcDbEntity
  8
SLD-0_0
  6
SLD-Solid
 62
   179
370
    15
100
AcDbLine
 10
886.8907518403
 20
337.7735491256
 30
0.0
 11
886.3907518403
 21
337.7735491256
 31
0.0
  0
LINE
  5
189
330
1F
100
AcDbEntity
  8
SLD-0_0
  6
SLD-Solid
 62
   179
370
    15
100
AcDbLine
 10
793.8339433418
 20
336.5735491256
 30
0.0
 11
793.8339433418
 21
337.7735491256
 31
0.0
  0
LINE
  5
18A
330
1F
100
AcDbEntity
  8
SLD-0_0
  6
SLD-Solid
 62
   179
370
    15
100
AcDbLine
 10
795.0739433418
 20
336.5735491256
 30
0.0
 11
793.8339433418
 21
336.5735491256
 31
0.0
  0
LINE
  5
18B
330
1F
100
AcDbEntity
  8
SLD-0_0
  6
SLD-Solid
 62
   179
370
    15
100
AcDbLine
 10
795.0739433418
 20
337.7735491256
 30
0.0
 11
793.8339433418
 21
337.7735491256
 31
0.0
  0
LINE
  5
18C
330
1F
100
AcDbEntity
  8
SLD-0_0
  6
SLD-Solid
 62
   179
370
    15
100
AcDbLine
 10
793.8339433418
 20
1236.5735491256
 30
0.0
 11
791.3739433418
 21
1236.5735491256
 31
0.0
  0
LINE
  5
18D
330
1F
100
AcDbEntity
  8
SLD-0_0
  6
SLD-Solid
 62
   179
370
    15
100
AcDbLine
 10
793.8339433418
 20
1235.3735491256
 30
0.0
 11
793.8239433418
 21
1235.3735491256
 31
0.0
  0
LINE
  5
18E
330
1F
100
AcDbEntity
  8
SLD-0_0
  6
SLD-Solid
 62
   179
370
    15
100
AcDbLine
 10
792.6239433418
 20
337.7735491256
 30
0.0
 11
791.3739433418
 21
337.7735491256
 31
0.0
  0
LINE
  5
18F
330
1F
100
AcDbEntity
  8
SLD-0_0
  6
SLD-Solid
 62
   179
370
    15
100
AcDbLine
 10
792.6239433418
 20
1235.3735491256
 30
0.0
 11
791.3739433418
 21
1235.3735491256
 31
0.0
  0
LINE
  5
190
330
1F
100
AcDbEntity
  8
SLD-0_0
  6
SLD-Solid
 62
   179
370
    15
100
AcDbLine
 10
793.8339433418
 20
336.5735491256
 30
0.0
 11
791.3739433418
 21
336.5735491256
 31
0.0
  0
LINE
  5
191
330
1F
100
AcDbEntity
  8
SLD-0_0
  6
SLD-Solid
 62
   179
370
    15
100
AcDbLine
 10
793.8339433418
 20
337.7735491256
 30
0.0
 11
793.8239433418
 21
337.7735491256
 31
0.0
  0
LINE
  5
192
330
1F
100
AcDbEntity
  8
SLD-0_0
  6
SLD-Solid
 62
   179
370
    15
100
AcDbLine
 10
767.1239433418
 20
1235.3735491256
 30
0.0
 11
767.1239433418
 21
1231.5735491256
 31
0.0
  0
LINE
  5
193
330
1F
100
AcDbEntity
  8
SLD-0_0
  6
SLD-Solid
 62
   179
370
    15
100
AcDbLine
 10
767.1239433418
 20
341.5735491256
 30
0.0
 11
767.1239433418
 21
337.7735491256
 31
0.0
  0
LINE
  5
194
330
1F
100
AcDbEntity
  8
SLD-0_0
  6
SLD-Solid
 62
   179
370
    15
100
AcDbLine
 10
769.5739433418
 20
337.7735491256
 30
0.0
 11
767.1239433418
 21
337.7735491256
 31
0.0
  0
LINE
  5
195
330
1F
100
AcDbEntity
  8
SLD-0_0
  6
SLD-Solid
 62
   179
370
    15
100
AcDbLine
 10
769.5739433418
 20
1235.3735491256
 30
0.0
 11
767.1239433418
 21
1235.3735491256
 31
0.0
  0
LINE
  5
196
330
1F
100
AcDbEntity
  8
SLD-0_0
  6
SLD-Solid
 62
   179
370
    15
100
AcDbLine
 10
791.3739433418
 20
1235.3735491256
 30
0.0
 11
769.5739433418
 21
1235.3735491256
 31
0.0
  0
LINE
  5
197
330
1F
100
AcDbEntity
  8
SLD-0_0
  6
SLD-Solid
 62
   179
370
    15
100
AcDbLine
 10
791.3739433418
 20
337.7735491256
 30
0.0
 11
769.5739433418
 21
337.7735491256
 31
0.0
  0
LINE
  5
198
330
1F
100
AcDbEntity
  8
SLD-0_0
  6
SLD-Solid
 62
   179
370
    15
100
AcDbLine
 10
791.3739433418
 20
1236.5735491256
 30
0.0
 11
769.5739433418
 21
1236.5735491256
 31
0.0
  0
LINE
  5
199
330
1F
100
AcDbEntity
  8
SLD-0_0
  6
SLD-Solid
 62
   179
370
    15
100
AcDbLine
 10
768.3339433418
 20
1236.5735491256
 30
0.0
 11
768.3339433418
 21
1235.3735491256
 31
0.0
  0
LINE
  5
19A
330
1F
100
AcDbEntity
  8
SLD-0_0
  6
SLD-Solid
 62
   179
370
    15
100
AcDbLine
 10
769.5739433418
 20
1236.5735491256
 30
0.0
 11
768.3339433418
 21
1236.5735491256
 31
0.0
  0
LINE
  5
19B
330
1F
100
AcDbEntity
  8
SLD-0_0
  6
SLD-Solid
 62
   179
370
    15
100
AcDbLine
 10
791.3739433418
 20
336.5735491256
 30
0.0
 11
769.5739433418
 21
336.5735491256
 31
0.0
  0
LINE
  5
19C
330
1F
100
AcDbEntity
  8
SLD-0_0
  6
SLD-Solid
 62
   179
370
    15
100
AcDbLine
 10
768.3339433418
 20
336.5735491256
 30
0.0
 11
768.3339433418
 21
337.7735491256
 31
0.0
  0
LINE
  5
19D
330
1F
100
AcDbEntity
  8
SLD-0_0
  6
SLD-Solid
 62
   179
370
    15
100
AcDbLine
 10
769.5739433418
 20
336.5735491256
 30
0.0
 11
768.3339433418
 21
336.5735491256
 31
0.0
  0
LINE
  5
19E
330
1F
100
AcDbEntity
  8
SLD-0_0
  6
SLD-Solid
 62
   179
370
    15
100
AcDbLine
 10
916.7609111161
 20
890.0735491255
 30
0.0
 11
915.2910564766
 21
890.0735491255
 31
0.0
  0
LINE
  5
19F
330
1F
100
AcDbEntity
  8
SLD-0_0
  6
SLD-Solid
 62
   179
370
    15
100
AcDbLine
 10
909.6907518403
 20
889.7091410944
 30
0.0
 11
915.2910564766
 21
890.0735491255
 31
0.0
  0
LINE
  5
1A0
330
1F
100
AcDbEntity
  8
SLD-0_0
  6
SLD-Solid
 62
   179
370
    15
100
AcDbLine
 10
909.6907518403
 20
887.4379571566
 30
0.0
 11
915.2910564766
 21
887.0735491255
 31
0.0
  0
LINE
  5
1A1
330
1F
100
AcDbEntity
  8
SLD-0_0
  6
SLD-Solid
 62
   179
370
    15
100
AcDbLine
 10
915.2910564766
 20
887.0735491255
 30
0.0
 11
916.7609111161
 21
887.0735491255
 31
0.0
  0
LINE
  5
1A2
330
1F
100
AcDbEntity
  8
SLD-0_0
  6
SLD-Solid
 62
   179
370
    15
100
AcDbLine
 10
915.6541437085
 20
889.0735491255
 30
0.0
 11
915.6497269222
 21
889.0780212503
 31
0.0
  0
LINE
  5
1A3
330
1F
100
AcDbEntity
  8
SLD-0_0
  6
SLD-Solid
 62
   179
370
    15
100
AcDbLine
 10
915.6497269222
 20
889.0780212503
 30
0.0
 11
915.6219428475
 21
889.1061449368
 31
0.0
  0
LINE
  5
1A4
330
1F
100
AcDbEntity
  8
SLD-0_0
  6
SLD-Solid
 62
   179
370
    15
100
AcDbLine
 10
915.6219428475
 20
888.0409533142
 30
0.0
 11
915.6497269222
 21
888.0690770007
 31
0.0
  0
LINE
  5
1A5
330
1F
100
AcDbEntity
  8
SLD-0_0
  6
SLD-Solid
 62
   179
370
    15
100
AcDbLine
 10
915.6497269222
 20
888.0690770007
 30
0.0
 11
915.6541437085
 21
888.0735491255
 31
0.0
  0
LINE
  5
1A6
330
1F
100
AcDbEntity
  8
SLD-0_0
  6
SLD-Solid
 62
   179
370
    15
100
AcDbLine
 10
909.6907518403
 20
901.3301191357
 30
0.0
 11
917.7436869183
 21
900.1767196783
 31
0.0
  0
LINE
  5
1A7
330
1F
100
AcDbEntity
  8
SLD-0_0
  6
SLD-Solid
 62
   179
370
    15
100
AcDbLine
 10
917.7436869183
 20
900.1767196783
 30
0.0
 11
917.7634945435
 21
900.1988094469
 31
0.0
  0
LINE
  5
1A8
330
1F
100
AcDbEntity
  8
SLD-0_0
  6
SLD-Solid
 62
   179
370
    15
100
AcDbLine
 10
917.7634945435
 20
900.1988094469
 30
0.0
 11
917.7725087072
 21
900.2008406442
 31
0.0
  0
LINE
  5
1A9
330
1F
100
AcDbEntity
  8
SLD-0_0
  6
SLD-Solid
 62
   179
370
    15
100
AcDbLine
 10
917.7436869183
 20
876.9703785727
 30
0.0
 11
909.6907518403
 21
875.8169791153
 31
0.0
  0
LINE
  5
1AA
330
1F
100
AcDbEntity
  8
SLD-0_0
  6
SLD-Solid
 62
   179
370
    15
100
AcDbLine
 10
917.7725087072
 20
876.9462576068
 30
0.0
 11
917.7634945435
 21
876.9482888041
 31
0.0
  0
LINE
  5
1AB
330
1F
100
AcDbEntity
  8
SLD-0_0
  6
SLD-Solid
 62
   179
370
    15
100
AcDbLine
 10
917.7634945435
 20
876.9482888041
 30
0.0
 11
917.7436869183
 21
876.9703785727
 31
0.0
  0
LINE
  5
1AC
330
1F
100
AcDbEntity
  8
SLD-0_0
  6
SLD-Solid
 62
   179
370
    15
100
AcDbLine
 10
922.1644044228
 20
898.2477131617
 30
0.0
 11
922.3695998895
 21
898.2403636374
 31
0.0
  0
LINE
  5
1AD
330
1F
100
AcDbEntity
  8
SLD-0_0
  6
SLD-Solid
 62
   179
370
    15
100
AcDbLine
 10
922.5771821168
 20
878.9068776627
 30
0.0
 11
922.4774400575
 21
878.9077242353
 31
0.0
  0
LINE
  5
1AE
330
1F
100
AcDbEntity
  8
SLD-0_0
  6
SLD-Solid
 62
   179
370
    15
100
AcDbLine
 10
922.4774400575
 20
878.9077242353
 30
0.0
 11
922.3695998895
 21
878.9067346137
 31
0.0
  0
LINE
  5
1AF
330
1F
100
AcDbEntity
  8
SLD-0_0
  6
SLD-Solid
 62
   179
370
    15
100
AcDbLine
 10
928.6651872533
 20
887.0735491255
 30
0.0
 11
928.8425707794
 21
887.1877298267
 31
0.0
  0
LINE
  5
1B0
330
1F
100
AcDbEntity
  8
SLD-0_0
  6
SLD-Solid
 62
   179
370
    15
100
AcDbLine
 10
928.8425707794
 20
887.1877298267
 30
0.0
 11
928.9929492716
 21
887.5128889537
 31
0.0
  0
LINE
  5
1B1
330
1F
100
AcDbEntity
  8
SLD-0_0
  6
SLD-Solid
 62
   179
370
    15
100
AcDbLine
 10
928.9929492716
 20
887.5128889537
 30
0.0
 11
929.0934289678
 21
887.999523977
 31
0.0
  0
LINE
  5
1B2
330
1F
100
AcDbEntity
  8
SLD-0_0
  6
SLD-Solid
 62
   179
370
    15
100
AcDbLine
 10
929.0934289678
 20
887.999523977
 30
0.0
 11
929.1287127449
 21
888.5735491255
 31
0.0
  0
LINE
  5
1B3
330
1F
100
AcDbEntity
  8
SLD-0_0
  6
SLD-Solid
 62
   179
370
    15
100
AcDbLine
 10
929.1287127449
 20
888.5735491255
 30
0.0
 11
929.0934289678
 21
889.1475742741
 31
0.0
  0
LINE
  5
1B4
330
1F
100
AcDbEntity
  8
SLD-0_0
  6
SLD-Solid
 62
   179
370
    15
100
AcDbLine
 10
929.0934289678
 20
889.1475742741
 30
0.0
 11
928.9929492716
 21
889.6342092973
 31
0.0
  0
LINE
  5
1B5
330
1F
100
AcDbEntity
  8
SLD-0_0
  6
SLD-Solid
 62
   179
370
    15
100
AcDbLine
 10
928.9929492716
 20
889.6342092973
 30
0.0
 11
928.8425707794
 21
889.9593684243
 31
0.0
  0
LINE
  5
1B6
330
1F
100
AcDbEntity
  8
SLD-0_0
  6
SLD-Solid
 62
   179
370
    15
100
AcDbLine
 10
928.8425707794
 20
889.9593684243
 30
0.0
 11
928.6651872533
 21
890.0735491255
 31
0.0
  0
LINE
  5
1B7
330
1F
100
AcDbEntity
  8
SLD-0_0
  6
SLD-Solid
 62
   179
370
    15
100
AcDbLine
 10
917.6043414921
 20
887.0735491255
 30
0.0
 11
928.6651872533
 21
887.0735491255
 31
0.0
  0
LINE
  5
1B8
330
1F
100
AcDbEntity
  8
SLD-0_0
  6
SLD-Solid
 62
   179
370
    15
100
AcDbLine
 10
928.6651872533
 20
890.0735491255
 30
0.0
 11
917.6043414921
 21
890.0735491255
 31
0.0
  0
LINE
  5
1B9
330
1F
100
AcDbEntity
  8
SLD-0_0
  6
SLD-Solid
 62
   179
370
    15
100
AcDbLine
 10
927.4351074298
 20
876.9522178733
 30
0.0
 11
927.4218895873
 21
876.9502283183
 31
0.0
  0
LINE
  5
1BA
330
1F
100
AcDbEntity
  8
SLD-0_0
  6
SLD-Solid
 62
   179
370
    15
100
AcDbLine
 10
927.4218895873
 20
876.9502283183
 30
0.0
 11
927.4187993972
 21
876.9498212001
 31
0.0
  0
LINE
  5
1BB
330
1F
100
AcDbEntity
  8
SLD-0_0
  6
SLD-Solid
 62
   179
370
    15
100
AcDbLine
 10
143.1239433418
 20
1236.5735491256
 30
0.0
 11
143.1239433418
 21
336.5735491256
 31
0.0
  0
LINE
  5
1BC
330
1F
100
AcDbEntity
  8
SLD-0_0
  6
SLD-Solid
 62
   179
370
    15
100
AcDbLine
 10
143.1239433418
 20
1236.5735491256
 30
0.0
 11
145.7045223843
 21
1236.5735491256
 31
0.0
  0
LINE
  5
1BD
330
1F
100
AcDbEntity
  8
SLD-0_0
  6
SLD-Solid
 62
   179
370
    15
100
AcDbLine
 10
143.1239433418
 20
336.5735491256
 30
0.0
 11
145.7045223843
 21
336.5735491256
 31
0.0
  0
LINE
  5
1BE
330
1F
100
AcDbEntity
  8
SLD-0_0
  6
SLD-Solid
 62
   179
370
    15
100
AcDbLine
 10
176.3883476118
 20
825.4635999483
 30
0.0
 11
157.5527939991
 21
835.3788541856
 31
0.0
  0
LINE
  5
1BF
330
1F
100
AcDbEntity
  8
SLD-0_0
  6
SLD-Solid
 62
   179
370
    15
100
AcDbLine
 10
150.5341515158
 20
830.9219285346
 30
0.0
 11
150.5341515157
 21
752.1404239538
 31
0.0
  0
LINE
  5
1C0
330
1F
100
AcDbEntity
  8
SLD-0_0
  6
SLD-Solid
 62
   179
370
    15
100
AcDbLine
 10
153.1747672952
 20
747.6834983028
 30
0.0
 11
172.0103209079
 21
737.7682440655
 31
0.0
  0
LINE
  5
1C1
330
1F
100
AcDbEntity
  8
SLD-0_0
  6
SLD-Solid
 62
   179
370
    15
100
AcDbLine
 10
176.3883476118
 20
725.4635999483
 30
0.0
 11
157.5527939991
 21
735.3788541856
 31
0.0
  0
LINE
  5
1C2
330
1F
100
AcDbEntity
  8
SLD-0_0
  6
SLD-Solid
 62
   179
370
    15
100
AcDbLine
 10
150.5341515158
 20
730.9219285346
 30
0.0
 11
150.5341515157
 21
652.1404239538
 31
0.0
  0
LINE
  5
1C3
330
1F
100
AcDbEntity
  8
SLD-0_0
  6
SLD-Solid
 62
   179
370
    15
100
AcDbLine
 10
153.1747672952
 20
647.6834983028
 30
0.0
 11
172.0103209079
 21
637.7682440655
 31
0.0
  0
LINE
  5
1C4
330
1F
100
AcDbEntity
  8
SLD-0_0
  6
SLD-Solid
 62
   179
370
    15
100
AcDbLine
 10
176.3883476118
 20
625.4635999483
 30
0.0
 11
157.5527939991
 21
635.3788541856
 31
0.0
  0
LINE
  5
1C5
330
1F
100
AcDbEntity
  8
SLD-0_0
  6
SLD-Solid
 62
   179
370
    15
100
AcDbLine
 10
150.5341515158
 20
630.9219285346
 30
0.0
 11
150.5341515157
 21
552.1404239538
 31
0.0
  0
LINE
  5
1C6
330
1F
100
AcDbEntity
  8
SLD-0_0
  6
SLD-Solid
 62
   179
370
    15
100
AcDbLine
 10
153.1747672952
 20
547.6834983028
 30
0.0
 11
172.0103209079
 21
537.7682440655
 31
0.0
  0
LINE
  5
1C7
330
1F
100
AcDbEntity
  8
SLD-0_0
  6
SLD-Solid
 62
   179
370
    15
100
AcDbLine
 10
176.3883476118
 20
525.4635999483
 30
0.0
 11
157.5527939991
 21
535.3788541856
 31
0.0
  0
LINE
  5
1C8
330
1F
100
AcDbEntity
  8
SLD-0_0
  6
SLD-Solid
 62
   179
370
    15
100
AcDbLine
 10
150.5341515158
 20
530.9219285346
 30
0.0
 11
150.5341515157
 21
452.1404239538
 31
0.0
  0
LINE
  5
1C9
330
1F
100
AcDbEntity
  8
SLD-0_0
  6
SLD-Solid
 62
   179
370
    15
100
AcDbLine
 10
153.1747672952
 20
447.6834983028
 30
0.0
 11
172.0103209079
 21
437.7682440655
 31
0.0
  0
LINE
  5
1CA
330
1F
100
AcDbEntity
  8
SLD-0_0
  6
SLD-Solid
 62
   179
370
    15
100
AcDbLine
 10
176.3883476118
 20
425.4635999483
 30
0.0
 11
157.5527939991
 21
435.3788541856
 31
0.0
  0
LINE
  5
1CB
330
1F
100
AcDbEntity
  8
SLD-0_0
  6
SLD-Solid
 62
   179
370
    15
100
AcDbLine
 10
150.5341515158
 20
430.9219285346
 30
0.0
 11
150.5341515157
 21
361.5735491256
 31
0.0
  0
LINE
  5
1CC
330
1F
100
AcDbEntity
  8
SLD-0_0
  6
SLD-Solid
 62
   179
370
    15
100
AcDbLine
 10
155.3637806472
 20
356.5735491255
 30
0.0
 11
174.1993342598
 21
356.5735491256
 31
0.0
  0
LINE
  5
1CD
330
1F
100
AcDbEntity
  8
SLD-0_0
  6
SLD-Solid
 62
   179
370
    15
100
AcDbLine
 10
145.7045223843
 20
336.5735491256
 30
0.0
 11
179.0014747055
 21
336.5735491256
 31
0.0
  0
LINE
  5
1CE
330
1F
100
AcDbEntity
  8
SLD-0_0
  6
SLD-Solid
 62
   179
370
    15
100
AcDbLine
 10
145.7045223843
 20
1236.5735491256
 30
0.0
 11
179.0014747055
 21
1236.5735491256
 31
0.0
  0
LINE
  5
1CF
330
1F
100
AcDbEntity
  8
SLD-0_0
  6
SLD-Solid
 62
   179
370
    15
100
AcDbLine
 10
174.1993342598
 20
1216.5735491256
 30
0.0
 11
155.3637806472
 21
1216.5735491256
 31
0.0
  0
LINE
  5
1D0
330
1F
100
AcDbEntity
  8
SLD-0_0
  6
SLD-Solid
 62
   179
370
    15
100
AcDbLine
 10
150.5341515157
 20
1211.5735491256
 30
0.0
 11
150.5341515157
 21
1152.1404239538
 31
0.0
  0
LINE
  5
1D1
330
1F
100
AcDbEntity
  8
SLD-0_0
  6
SLD-Solid
 62
   179
370
    15
100
AcDbLine
 10
153.1747672952
 20
1147.6834983028
 30
0.0
 11
172.0103209079
 21
1137.7682440655
 31
0.0
  0
LINE
  5
1D2
330
1F
100
AcDbEntity
  8
SLD-0_0
  6
SLD-Solid
 62
   179
370
    15
100
AcDbLine
 10
176.3883476118
 20
1125.4635999483
 30
0.0
 11
157.5527939991
 21
1135.3788541856
 31
0.0
  0
LINE
  5
1D3
330
1F
100
AcDbEntity
  8
SLD-0_0
  6
SLD-Solid
 62
   179
370
    15
100
AcDbLine
 10
150.5341515158
 20
1130.9219285346
 30
0.0
 11
150.5341515157
 21
1052.1404239538
 31
0.0
  0
LINE
  5
1D4
330
1F
100
AcDbEntity
  8
SLD-0_0
  6
SLD-Solid
 62
   179
370
    15
100
AcDbLine
 10
153.1747672952
 20
1047.6834983028
 30
0.0
 11
172.0103209078
 21
1037.7682440655
 31
0.0
  0
LINE
  5
1D5
330
1F
100
AcDbEntity
  8
SLD-0_0
  6
SLD-Solid
 62
   179
370
    15
100
AcDbLine
 10
176.3883476118
 20
1025.4635999483
 30
0.0
 11
157.5527939991
 21
1035.3788541856
 31
0.0
  0
LINE
  5
1D6
330
1F
100
AcDbEntity
  8
SLD-0_0
  6
SLD-Solid
 62
   179
370
    15
100
AcDbLine
 10
150.5341515158
 20
1030.9219285346
 30
0.0
 11
150.5341515157
 21
952.1404239538
 31
0.0
  0
LINE
  5
1D7
330
1F
100
AcDbEntity
  8
SLD-0_0
  6
SLD-Solid
 62
   179
370
    15
100
AcDbLine
 10
153.1747672952
 20
947.6834983028
 30
0.0
 11
172.0103209079
 21
937.7682440655
 31
0.0
  0
LINE
  5
1D8
330
1F
100
AcDbEntity
  8
SLD-0_0
  6
SLD-Solid
 62
   179
370
    15
100
AcDbLine
 10
176.3883476118
 20
925.4635999483
 30
0.0
 11
157.5527939991
 21
935.3788541856
 31
0.0
  0
LINE
  5
1D9
330
1F
100
AcDbEntity
  8
SLD-0_0
  6
SLD-Solid
 62
   179
370
    15
100
AcDbLine
 10
150.5341515158
 20
930.9219285346
 30
0.0
 11
150.5341515157
 21
852.1404239538
 31
0.0
  0
LINE
  5
1DA
330
1F
100
AcDbEntity
  8
SLD-0_0
  6
SLD-Solid
 62
   179
370
    15
100
AcDbLine
 10
153.1747672952
 20
847.6834983028
 30
0.0
 11
172.0103209079
 21
837.7682440655
 31
0.0
  0
LINE
  5
1DB
330
1F
100
AcDbEntity
  8
SLD-0_0
  6
SLD-Solid
 62
   179
370
    15
100
AcDbLine
 10
157.345738763
 20
1135.3788541856
 30
0.0
 11
156.1883137076
 21
1135.8065391947
 31
0.0
  0
LINE
  5
1DC
330
1F
100
AcDbEntity
  8
SLD-0_0
  6
SLD-Solid
 62
   179
370
    15
100
AcDbLine
 10
156.1883137076
 20
1135.8065391947
 30
0.0
 11
155.2602530264
 21
1135.9207796543
 31
0.0
  0
LINE
  5
1DD
330
1F
100
AcDbEntity
  8
SLD-0_0
  6
SLD-Solid
 62
   179
370
    15
100
AcDbLine
 10
157.345738763
 20
1035.3788541856
 30
0.0
 11
156.1883137076
 21
1035.8065391947
 31
0.0
  0
LINE
  5
1DE
330
1F
100
AcDbEntity
  8
SLD-0_0
  6
SLD-Solid
 62
   179
370
    15
100
AcDbLine
 10
156.1883137076
 20
1035.8065391947
 30
0.0
 11
155.2602530269
 21
1035.9207796543
 31
0.0
  0
LINE
  5
1DF
330
1F
100
AcDbEntity
  8
SLD-0_0
  6
SLD-Solid
 62
   179
370
    15
100
AcDbLine
 10
157.345738763
 20
935.3788541856
 30
0.0
 11
156.1883137076
 21
935.8065391947
 31
0.0
  0
LINE
  5
1E0
330
1F
100
AcDbEntity
  8
SLD-0_0
  6
SLD-Solid
 62
   179
370
    15
100
AcDbLine
 10
156.1883137076
 20
935.8065391947
 30
0.0
 11
155.2602530219
 21
935.9207796544
 31
0.0
  0
LINE
  5
1E1
330
1F
100
AcDbEntity
  8
SLD-0_0
  6
SLD-Solid
 62
   179
370
    15
100
AcDbLine
 10
157.345738763
 20
835.3788541856
 30
0.0
 11
156.1883137076
 21
835.8065391947
 31
0.0
  0
LINE
  5
1E2
330
1F
100
AcDbEntity
  8
SLD-0_0
  6
SLD-Solid
 62
   179
370
    15
100
AcDbLine
 10
156.1883137076
 20
835.8065391947
 30
0.0
 11
155.2602530293
 21
835.9207796543
 31
0.0
  0
LINE
  5
1E3
330
1F
100
AcDbEntity
  8
SLD-0_0
  6
SLD-Solid
 62
   179
370
    15
100
AcDbLine
 10
157.345738763
 20
735.3788541856
 30
0.0
 11
156.1883137076
 21
735.8065391947
 31
0.0
  0
LINE
  5
1E4
330
1F
100
AcDbEntity
  8
SLD-0_0
  6
SLD-Solid
 62
   179
370
    15
100
AcDbLine
 10
156.1883137076
 20
735.8065391947
 30
0.0
 11
155.2602530288
 21
735.9207796543
 31
0.0
  0
LINE
  5
1E5
330
1F
100
AcDbEntity
  8
SLD-0_0
  6
SLD-Solid
 62
   179
370
    15
100
AcDbLine
 10
157.345738763
 20
635.3788541856
 30
0.0
 11
156.1883137076
 21
635.8065391947
 31
0.0
  0
LINE
  5
1E6
330
1F
100
AcDbEntity
  8
SLD-0_0
  6
SLD-Solid
 62
   179
370
    15
100
AcDbLine
 10
156.1883137076
 20
635.8065391947
 30
0.0
 11
155.2602530362
 21
635.9207796541
 31
0.0
  0
LINE
  5
1E7
330
1F
100
AcDbEntity
  8
SLD-0_0
  6
SLD-Solid
 62
   179
370
    15
100
AcDbLine
 10
157.345738763
 20
535.3788541856
 30
0.0
 11
156.1883137076
 21
535.8065391947
 31
0.0
  0
LINE
  5
1E8
330
1F
100
AcDbEntity
  8
SLD-0_0
  6
SLD-Solid
 62
   179
370
    15
100
AcDbLine
 10
156.1883137076
 20
535.8065391947
 30
0.0
 11
155.2602530286
 21
535.9207796543
 31
0.0
  0
LINE
  5
1E9
330
1F
100
AcDbEntity
  8
SLD-0_0
  6
SLD-Solid
 62
   179
370
    15
100
AcDbLine
 10
157.3457387631
 20
435.3788541856
 30
0.0
 11
156.1883137076
 21
435.8065391947
 31
0.0
  0
LINE
  5
1EA
330
1F
100
AcDbEntity
  8
SLD-0_0
  6
SLD-Solid
 62
   179
370
    15
100
AcDbLine
 10
156.1883137076
 20
435.8065391947
 30
0.0
 11
155.260253044
 21
435.9207796539
 31
0.0
  0
LINE
  5
1EB
330
1F
100
AcDbEntity
  8
SLD-0_0
  6
SLD-Solid
 62
   179
370
    15
100
AcDbLine
 10
176.1812923757
 20
1125.4635999483
 30
0.0
 11
157.345738763
 21
1135.3788541856
 31
0.0
  0
LINE
  5
1EC
330
1F
100
AcDbEntity
  8
SLD-0_0
  6
SLD-Solid
 62
   179
370
    15
100
AcDbLine
 10
176.1812923757
 20
1025.4635999483
 30
0.0
 11
157.345738763
 21
1035.3788541856
 31
0.0
  0
LINE
  5
1ED
330
1F
100
AcDbEntity
  8
SLD-0_0
  6
SLD-Solid
 62
   179
370
    15
100
AcDbLine
 10
176.1812923757
 20
925.4635999483
 30
0.0
 11
157.345738763
 21
935.3788541856
 31
0.0
  0
LINE
  5
1EE
330
1F
100
AcDbEntity
  8
SLD-0_0
  6
SLD-Solid
 62
   179
370
    15
100
AcDbLine
 10
176.1812923757
 20
825.4635999483
 30
0.0
 11
157.345738763
 21
835.3788541856
 31
0.0
  0
LINE
  5
1EF
330
1F
100
AcDbEntity
  8
SLD-0_0
  6
SLD-Solid
 62
   179
370
    15
100
AcDbLine
 10
176.1812923757
 20
725.4635999483
 30
0.0
 11
157.345738763
 21
735.3788541856
 31
0.0
  0
LINE
  5
1F0
330
1F
100
AcDbEntity
  8
SLD-0_0
  6
SLD-Solid
 62
   179
370
    15
100
AcDbLine
 10
176.1812923757
 20
625.4635999483
 30
0.0
 11
157.345738763
 21
635.3788541856
 31
0.0
  0
LINE
  5
1F1
330
1F
100
AcDbEntity
  8
SLD-0_0
  6
SLD-Solid
 62
   179
370
    15
100
AcDbLine
 10
176.1812923757
 20
525.4635999483
 30
0.0
 11
157.345738763
 21
535.3788541856
 31
0.0
  0
LINE
  5
1F2
330
1F
100
AcDbEntity
  8
SLD-0_0
  6
SLD-Solid
 62
   179
370
    15
100
AcDbLine
 10
176.1812923757
 20
425.4635999483
 30
0.0
 11
157.3457387631
 21
435.3788541856
 31
0.0
  0
LINE
  5
1F3
330
1F
100
AcDbEntity
  8
SLD-0_0
  6
SLD-Solid
 62
   179
370
    15
100
AcDbLine
 10
179.028959329
 20
1042.2251697165
 30
0.0
 11
179.0014747054
 21
1041.692465355
 31
0.0
  0
LINE
  5
1F4
330
1F
100
AcDbEntity
  8
SLD-0_0
  6
SLD-Solid
 62
   179
370
    15
100
AcDbLine
 10
179.028959329
 20
1142.2251697165
 30
0.0
 11
179.0014747054
 21
1141.692465355
 31
0.0
  0
LINE
  5
1F5
330
1F
100
AcDbEntity
  8
SLD-0_0
  6
SLD-Solid
 62
   179
370
    15
100
AcDbLine
 10
179.028959329
 20
942.2251697165
 30
0.0
 11
179.0014747054
 21
941.692465355
 31
0.0
  0
LINE
  5
1F6
330
1F
100
AcDbEntity
  8
SLD-0_0
  6
SLD-Solid
 62
   179
370
    15
100
AcDbLine
 10
179.028959329
 20
842.2251697165
 30
0.0
 11
179.0014747054
 21
841.692465355
 31
0.0
  0
LINE
  5
1F7
330
1F
100
AcDbEntity
  8
SLD-0_0
  6
SLD-Solid
 62
   179
370
    15
100
AcDbLine
 10
179.028959329
 20
742.2251697165
 30
0.0
 11
179.0014747054
 21
741.692465355
 31
0.0
  0
LINE
  5
1F8
330
1F
100
AcDbEntity
  8
SLD-0_0
  6
SLD-Solid
 62
   179
370
    15
100
AcDbLine
 10
179.028959329
 20
642.2251697165
 30
0.0
 11
179.0014747054
 21
641.692465355
 31
0.0
  0
LINE
  5
1F9
330
1F
100
AcDbEntity
  8
SLD-0_0
  6
SLD-Solid
 62
   179
370
    15
100
AcDbLine
 10
179.028959329
 20
542.2251697165
 30
0.0
 11
179.0014747054
 21
541.692465355
 31
0.0
  0
LINE
  5
1FA
330
1F
100
AcDbEntity
  8
SLD-0_0
  6
SLD-Solid
 62
   179
370
    15
100
AcDbLine
 10
179.028959329
 20
442.2251697165
 30
0.0
 11
179.0014747055
 21
441.692465355
 31
0.0
  0
LINE
  5
1FB
330
1F
100
AcDbEntity
  8
SLD-0_0
  6
SLD-Solid
 62
   179
370
    15
100
AcDbLine
 10
179.0014747055
 20
1212.1062534871
 30
0.0
 11
179.028959329
 21
1211.5735491256
 31
0.0
  0
LINE
  5
1FC
330
1F
100
AcDbEntity
  8
SLD-0_0
  6
SLD-Solid
 62
   179
370
    15
100
AcDbLine
 10
179.028959329
 20
361.5735491256
 30
0.0
 11
179.0014747055
 21
361.040844764
 31
0.0
  0
LINE
  5
1FD
330
1F
100
AcDbEntity
  8
SLD-0_0
  6
SLD-Solid
 62
   179
370
    15
100
AcDbLine
 10
179.0014747055
 20
1121.5393786587
 30
0.0
 11
179.028959329
 21
1121.0066742973
 31
0.0
  0
LINE
  5
1FE
330
1F
100
AcDbEntity
  8
SLD-0_0
  6
SLD-Solid
 62
   179
370
    15
100
AcDbLine
 10
179.0014747055
 20
1021.5393786588
 30
0.0
 11
179.028959329
 21
1021.0066742973
 31
0.0
  0
LINE
  5
1FF
330
1F
100
AcDbEntity
  8
SLD-0_0
  6
SLD-Solid
 62
   179
370
    15
100
AcDbLine
 10
179.0014747055
 20
921.5393786588
 30
0.0
 11
179.028959329
 21
921.0066742973
 31
0.0
  0
LINE
  5
200
330
1F
100
AcDbEntity
  8
SLD-0_0
  6
SLD-Solid
 62
   179
370
    15
100
AcDbLine
 10
179.0014747055
 20
821.5393786588
 30
0.0
 11
179.028959329
 21
821.0066742973
 31
0.0
  0
LINE
  5
201
330
1F
100
AcDbEntity
  8
SLD-0_0
  6
SLD-Solid
 62
   179
370
    15
100
AcDbLine
 10
179.0014747055
 20
721.5393786588
 30
0.0
 11
179.028959329
 21
721.0066742973
 31
0.0
  0
LINE
  5
202
330
1F
100
AcDbEntity
  8
SLD-0_0
  6
SLD-Solid
 62
   179
370
    15
100
AcDbLine
 10
179.0014747055
 20
621.5393786588
 30
0.0
 11
179.028959329
 21
621.0066742973
 31
0.0
  0
LINE
  5
203
330
1F
100
AcDbEntity
  8
SLD-0_0
  6
SLD-Solid
 62
   179
370
    15
100
AcDbLine
 10
179.0014747055
 20
521.5393786588
 30
0.0
 11
179.028959329
 21
521.0066742973
 31
0.0
  0
LINE
  5
204
330
1F
100
AcDbEntity
  8
SLD-0_0
  6
SLD-Solid
 62
   179
370
    15
100
AcDbLine
 10
179.0014747055
 20
421.5393786588
 30
0.0
 11
179.028959329
 21
421.0066742973
 31
0.0
  0
LINE
  5
205
330
1F
100
AcDbEntity
  8
SLD-0_0
  6
SLD-Solid
 62
   179
370
    15
100
AcDbLine
 10
179.028959329
 20
1021.0066742973
 30
0.0
 11
179.028959329
 21
942.2251697165
 31
0.0
  0
LINE
  5
206
330
1F
100
AcDbEntity
  8
SLD-0_0
  6
SLD-Solid
 62
   179
370
    15
100
AcDbLine
 10
179.028959329
 20
1121.0066742973
 30
0.0
 11
179.028959329
 21
1042.2251697165
 31
0.0
  0
LINE
  5
207
330
1F
100
AcDbEntity
  8
SLD-0_0
  6
SLD-Solid
 62
   179
370
    15
100
AcDbLine
 10
179.028959329
 20
1211.5735491256
 30
0.0
 11
179.028959329
 21
1142.2251697165
 31
0.0
  0
LINE
  5
208
330
1F
100
AcDbEntity
  8
SLD-0_0
  6
SLD-Solid
 62
   179
370
    15
100
AcDbLine
 10
179.0014747055
 20
1236.5735491256
 30
0.0
 11
198.1239433418
 21
1236.5735491256
 31
0.0
  0
LINE
  5
209
330
1F
100
AcDbEntity
  8
SLD-0_0
  6
SLD-Solid
 62
   179
370
    15
100
AcDbLine
 10
198.1239433418
 20
1236.5735491256
 30
0.0
 11
198.1239433418
 21
336.5735491256
 31
0.0
  0
LINE
  5
20A
330
1F
100
AcDbEntity
  8
SLD-0_0
  6
SLD-Solid
 62
   179
370
    15
100
AcDbLine
 10
179.0014747055
 20
336.5735491256
 30
0.0
 11
198.1239433418
 21
336.5735491256
 31
0.0
  0
LINE
  5
20B
330
1F
100
AcDbEntity
  8
SLD-0_0
  6
SLD-Solid
 62
   179
370
    15
100
AcDbLine
 10
179.028959329
 20
421.0066742973
 30
0.0
 11
179.028959329
 21
361.5735491256
 31
0.0
  0
LINE
  5
20C
330
1F
100
AcDbEntity
  8
SLD-0_0
  6
SLD-Solid
 62
   179
370
    15
100
AcDbLine
 10
179.028959329
 20
521.0066742973
 30
0.0
 11
179.028959329
 21
442.2251697165
 31
0.0
  0
LINE
  5
20D
330
1F
100
AcDbEntity
  8
SLD-0_0
  6
SLD-Solid
 62
   179
370
    15
100
AcDbLine
 10
179.028959329
 20
621.0066742973
 30
0.0
 11
179.028959329
 21
542.2251697165
 31
0.0
  0
LINE
  5
20E
330
1F
100
AcDbEntity
  8
SLD-0_0
  6
SLD-Solid
 62
   179
370
    15
100
AcDbLine
 10
179.028959329
 20
721.0066742973
 30
0.0
 11
179.028959329
 21
642.2251697165
 31
0.0
  0
LINE
  5
20F
330
1F
100
AcDbEntity
  8
SLD-0_0
  6
SLD-Solid
 62
   179
370
    15
100
AcDbLine
 10
179.028959329
 20
821.0066742973
 30
0.0
 11
179.028959329
 21
742.2251697165
 31
0.0
  0
LINE
  5
210
330
1F
100
AcDbEntity
  8
SLD-0_0
  6
SLD-Solid
 62
   179
370
    15
100
AcDbLine
 10
179.028959329
 20
921.0066742973
 30
0.0
 11
179.028959329
 21
842.2251697165
 31
0.0
  0
LINE
  5
211
330
1F
100
AcDbEntity
  8
SLD-0_0
  6
SLD-Solid
 62
   179
370
    15
100
AcDbLine
 10
178.8219081552
 20
1042.2251697165
 30
0.0
 11
178.8219081552
 21
1121.0066742973
 31
0.0
  0
LINE
  5
212
330
1F
100
AcDbEntity
  8
SLD-0_0
  6
SLD-Solid
 62
   179
370
    15
100
AcDbLine
 10
178.8219081552
 20
1142.2251697165
 30
0.0
 11
178.8219081552
 21
1211.5735491255
 31
0.0
  0
LINE
  5
213
330
1F
100
AcDbEntity
  8
SLD-0_0
  6
SLD-Solid
 62
   179
370
    15
100
AcDbLine
 10
178.8219081551
 20
942.2251697165
 30
0.0
 11
178.8219081552
 21
1021.0066742973
 31
0.0
  0
LINE
  5
214
330
1F
100
AcDbEntity
  8
SLD-0_0
  6
SLD-Solid
 62
   179
370
    15
100
AcDbLine
 10
178.8219081551
 20
842.2251697165
 30
0.0
 11
178.8219081552
 21
921.0066742973
 31
0.0
  0
LINE
  5
215
330
1F
100
AcDbEntity
  8
SLD-0_0
  6
SLD-Solid
 62
   179
370
    15
100
AcDbLine
 10
178.8219081552
 20
742.2251697165
 30
0.0
 11
178.8219081552
 21
821.0066742973
 31
0.0
  0
LINE
  5
216
330
1F
100
AcDbEntity
  8
SLD-0_0
  6
SLD-Solid
 62
   179
370
    15
100
AcDbLine
 10
178.8219081552
 20
642.2251697165
 30
0.0
 11
178.8219081552
 21
721.0066742973
 31
0.0
  0
LINE
  5
217
330
1F
100
AcDbEntity
  8
SLD-0_0
  6
SLD-Solid
 62
   179
370
    15
100
AcDbLine
 10
178.8219081551
 20
542.2251697165
 30
0.0
 11
178.8219081552
 21
621.0066742973
 31
0.0
  0
LINE
  5
218
330
1F
100
AcDbEntity
  8
SLD-0_0
  6
SLD-Solid
 62
   179
370
    15
100
AcDbLine
 10
178.8219081552
 20
442.2251697165
 30
0.0
 11
178.8219081552
 21
521.0066742973
 31
0.0
  0
LINE
  5
219
330
1F
100
AcDbEntity
  8
SLD-0_0
  6
SLD-Solid
 62
   179
370
    15
100
AcDbLine
 10
178.8219081551
 20
361.5735491256
 30
0.0
 11
178.8219081552
 21
421.0066742973
 31
0.0
  0
LINE
  5
21A
330
1F
100
AcDbEntity
  8
SLD-0_0
  6
SLD-Solid
 62
   179
370
    15
100
AcDbLine
 10
178.7944194694
 20
1212.106253487
 30
0.0
 11
178.7944194694
 21
1141.692465355
 31
0.0
  0
LINE
  5
21B
330
1F
100
AcDbEntity
  8
SLD-0_0
  6
SLD-Solid
 62
   179
370
    15
100
AcDbLine
 10
178.7944194694
 20
1121.5393786588
 30
0.0
 11
178.7944194694
 21
1041.692465355
 31
0.0
  0
LINE
  5
21C
330
1F
100
AcDbEntity
  8
SLD-0_0
  6
SLD-Solid
 62
   179
370
    15
100
AcDbLine
 10
178.7944194694
 20
1021.5393786588
 30
0.0
 11
178.7944194694
 21
941.692465355
 31
0.0
  0
LINE
  5
21D
330
1F
100
AcDbEntity
  8
SLD-0_0
  6
SLD-Solid
 62
   179
370
    15
100
AcDbLine
 10
178.7944194694
 20
921.5393786588
 30
0.0
 11
178.7944194694
 21
841.692465355
 31
0.0
  0
LINE
  5
21E
330
1F
100
AcDbEntity
  8
SLD-0_0
  6
SLD-Solid
 62
   179
370
    15
100
AcDbLine
 10
178.7944194694
 20
821.5393786588
 30
0.0
 11
178.7944194694
 21
741.692465355
 31
0.0
  0
LINE
  5
21F
330
1F
100
AcDbEntity
  8
SLD-0_0
  6
SLD-Solid
 62
   179
370
    15
100
AcDbLine
 10
178.7944194694
 20
721.5393786588
 30
0.0
 11
178.7944194694
 21
641.692465355
 31
0.0
  0
LINE
  5
220
330
1F
100
AcDbEntity
  8
SLD-0_0
  6
SLD-Solid
 62
   179
370
    15
100
AcDbLine
 10
178.7944194694
 20
621.5393786588
 30
0.0
 11
178.7944194694
 21
541.692465355
 31
0.0
  0
LINE
  5
221
330
1F
100
AcDbEntity
  8
SLD-0_0
  6
SLD-Solid
 62
   179
370
    15
100
AcDbLine
 10
178.7944194694
 20
521.5393786588
 30
0.0
 11
178.7944194694
 21
441.692465355
 31
0.0
  0
LINE
  5
222
330
1F
100
AcDbEntity
  8
SLD-0_0
  6
SLD-Solid
 62
   179
370
    15
100
AcDbLine
 10
178.7944194694
 20
421.5393786588
 30
0.0
 11
178.7944194694
 21
361.0408447641
 31
0.0
  0
LINE
  5
223
330
1F
100
AcDbEntity
  8
SLD-0_0
  6
SLD-Solid
 62
   179
370
    15
100
AcDbLine
 10
198.1239433418
 20
1236.5735491256
 30
0.0
 11
199.3739433418
 21
1236.5735491256
 31
0.0
  0
LINE
  5
224
330
1F
100
AcDbEntity
  8
SLD-0_0
  6
SLD-Solid
 62
   179
370
    15
100
AcDbLine
 10
198.1239433418
 20
336.5735491256
 30
0.0
 11
199.3739433418
 21
336.5735491256
 31
0.0
  0
LINE
  5
225
330
1F
100
AcDbEntity
  8
SLD-0_0
  6
SLD-Solid
 62
   179
370
    15
100
AcDbLine
 10
222.6239433418
 20
1236.5735491256
 30
0.0
 11
222.6239433418
 21
336.5735491256
 31
0.0
  0
LINE
  5
226
330
1F
100
AcDbEntity
  8
SLD-0_0
  6
SLD-Solid
 62
   179
370
    15
100
AcDbLine
 10
220.5739433418
 20
336.5735491256
 30
0.0
 11
222.6239433418
 21
336.5735491256
 31
0.0
  0
LINE
  5
227
330
1F
100
AcDbEntity
  8
SLD-0_0
  6
SLD-Solid
 62
   179
370
    15
100
AcDbLine
 10
220.5739433418
 20
1236.5735491256
 30
0.0
 11
222.6239433418
 21
1236.5735491256
 31
0.0
  0
LINE
  5
228
330
1F
100
AcDbEntity
  8
SLD-0_0
  6
SLD-Solid
 62
   179
370
    15
100
AcDbLine
 10
199.3739433418
 20
1236.5735491256
 30
0.0
 11
220.5739433418
 21
1236.5735491256
 31
0.0
  0
LINE
  5
229
330
1F
100
AcDbEntity
  8
SLD-0_0
  6
SLD-Solid
 62
   179
370
    15
100
AcDbLine
 10
199.3739433418
 20
336.5735491256
 30
0.0
 11
220.5739433418
 21
336.5735491256
 31
0.0
  0
LINE
  5
22A
330
1F
100
AcDbEntity
  8
SLD-0_0
  6
SLD-Solid
 62
   179
370
    15
100
AcDbLine
 10
222.6239433418
 20
336.5735491256
 30
0.0
 11
223.8739433418
 21
336.5735491256
 31
0.0
  0
LINE
  5
22B
330
1F
100
AcDbEntity
  8
SLD-0_0
  6
SLD-Solid
 62
   179
370
    15
100
AcDbLine
 10
222.6239433418
 20
1236.5735491256
 30
0.0
 11
223.8739433418
 21
1236.5735491256
 31
0.0
  0
LINE
  5
22C
330
1F
100
AcDbEntity
  8
SLD-0_0
  6
SLD-Solid
 62
   179
370
    15
100
AcDbLine
 10
246.0739433418
 20
1236.5735491256
 30
0.0
 11
248.1239433418
 21
1236.5735491256
 31
0.0
  0
LINE
  5
22D
330
1F
100
AcDbEntity
  8
SLD-0_0
  6
SLD-Solid
 62
   179
370
    15
100
AcDbLine
 10
248.1239433418
 20
1236.5735491256
 30
0.0
 11
248.1239433418
 21
1231.5735491256
 31
0.0
  0
LINE
  5
22E
330
1F
100
AcDbEntity
  8
SLD-0_0
  6
SLD-Solid
 62
   179
370
    15
100
AcDbLine
 10
248.1239433418
 20
341.5735491256
 30
0.0
 11
248.1239433418
 21
336.5735491256
 31
0.0
  0
LINE
  5
22F
330
1F
100
AcDbEntity
  8
SLD-0_0
  6
SLD-Solid
 62
   179
370
    15
100
AcDbLine
 10
246.0739433418
 20
336.5735491256
 30
0.0
 11
248.1239433418
 21
336.5735491256
 31
0.0
  0
LINE
  5
230
330
1F
100
AcDbEntity
  8
SLD-0_0
  6
SLD-Solid
 62
   179
370
    15
100
AcDbLine
 10
223.8739433418
 20
336.5735491256
 30
0.0
 11
246.0739433418
 21
336.5735491256
 31
0.0
  0
LINE
  5
231
330
1F
100
AcDbEntity
  8
SLD-0_0
  6
SLD-Solid
 62
   179
370
    15
100
AcDbLine
 10
223.8739433418
 20
1236.5735491256
 30
0.0
 11
246.0739433418
 21
1236.5735491256
 31
0.0
  0
LINE
  5
232
330
1F
100
AcDbEntity
  8
SLD-0_0
  6
SLD-Solid
 62
   179
370
    15
100
AcDbLine
 10
768.3339433418
 20
336.5735491256
 30
0.0
 11
765.1239433418
 21
336.5735491255
 31
0.0
  0
LINE
  5
233
330
1F
100
AcDbEntity
  8
SLD-0_0
  6
SLD-Solid
 62
   179
370
    15
100
AcDbLine
 10
250.1239433418
 20
336.5735491255
 30
0.0
 11
248.1239433418
 21
336.5735491256
 31
0.0
  0
LINE
  5
234
330
1F
100
AcDbEntity
  8
SLD-0_0
  6
SLD-Solid
 62
   179
370
    15
100
AcDbLine
 10
248.1239433418
 20
1236.5735491256
 30
0.0
 11
250.1239433418
 21
1236.5735491256
 31
0.0
  0
LINE
  5
235
330
1F
100
AcDbEntity
  8
SLD-0_0
  6
SLD-Solid
 62
   179
370
    15
100
AcDbLine
 10
765.1239433418
 20
1236.5735491255
 30
0.0
 11
768.3339433418
 21
1236.5735491256
 31
0.0
  0
LINE
  5
236
330
1F
100
AcDbEntity
  8
SLD-0_0
  6
SLD-Solid
 62
   179
370
    15
100
AcDbLine
 10
178.7944194694
 20
1185.2735491256
 30
0.0
 11
152.8739433419
 21
1185.2735491256
 31
0.0
  0
LINE
  5
237
330
1F
100
AcDbEntity
  8
SLD-0_0
  6
SLD-Solid
 62
   179
370
    15
100
AcDbLine
 10
178.7944194694
 20
1184.0735491256
 30
0.0
 11
152.8739433419
 21
1184.0735491256
 31
0.0
  0
LINE
  5
238
330
1F
100
AcDbEntity
  8
SLD-0_0
  6
SLD-Solid
 62
   179
370
    15
100
AcDbLine
 10
178.7944194694
 20
1155.8735491256
 30
0.0
 11
152.8739433419
 21
1155.8735491256
 31
0.0
  0
LINE
  5
239
330
1F
100
AcDbEntity
  8
SLD-0_0
  6
SLD-Solid
 62
   179
370
    15
100
AcDbLine
 10
178.7944194694
 20
1157.0735491256
 30
0.0
 11
152.8739433419
 21
1157.0735491256
 31
0.0
  0
LINE
  5
23A
330
1F
100
AcDbEntity
  8
SLD-0_0
  6
SLD-Solid
 62
   179
370
    15
100
AcDbLine
 10
151.6239433419
 20
1182.8235491256
 30
0.0
 11
151.6239433419
 21
1158.3235491256
 31
0.0
  0
LINE
  5
23B
330
1F
100
AcDbEntity
  8
SLD-0_0
  6
SLD-Solid
 62
   179
370
    15
100
AcDbLine
 10
178.7944194694
 20
389.0735491256
 30
0.0
 11
152.8739433418
 21
389.0735491256
 31
0.0
  0
LINE
  5
23C
330
1F
100
AcDbEntity
  8
SLD-0_0
  6
SLD-Solid
 62
   179
370
    15
100
AcDbLine
 10
178.7944194694
 20
387.8735491256
 30
0.0
 11
152.8739433418
 21
387.8735491256
 31
0.0
  0
LINE
  5
23D
330
1F
100
AcDbEntity
  8
SLD-0_0
  6
SLD-Solid
 62
   179
370
    15
100
AcDbLine
 10
151.6239433418
 20
390.3235491256
 30
0.0
 11
151.6239433418
 21
414.8235491256
 31
0.0
  0
LINE
  5
23E
330
1F
100
AcDbEntity
  8
SLD-0_0
  6
SLD-Solid
 62
   179
370
    15
100
AcDbLine
 10
152.8739433418
 20
417.2735491256
 30
0.0
 11
178.7944194694
 21
417.2735491256
 31
0.0
  0
LINE
  5
23F
330
1F
100
AcDbEntity
  8
SLD-0_0
  6
SLD-Solid
 62
   179
370
    15
100
AcDbLine
 10
152.8739433418
 20
416.0735491256
 30
0.0
 11
178.7944194694
 21
416.0735491256
 31
0.0
  0
LINE
  5
240
330
1F
100
AcDbEntity
  8
SLD-0_0
  6
SLD-Solid
 62
   179
370
    15
100
AcDbLine
 10
157.8239433418
 20
971.5735491255
 30
0.0
 11
157.8239433418
 21
945.2361180216
 31
0.0
  0
LINE
  5
241
330
1F
100
AcDbEntity
  8
SLD-0_0
  6
SLD-Solid
 62
   179
370
    15
100
AcDbLine
 10
157.8239433418
 20
935.12712174
 30
0.0
 11
157.8239433418
 21
886.5735491255
 31
0.0
  0
LINE
  5
242
330
1F
100
AcDbEntity
  8
SLD-0_0
  6
SLD-Solid
 62
   179
370
    15
100
AcDbLine
 10
157.8239433418
 20
835.12712174
 30
0.0
 11
157.8239433418
 21
745.2361180216
 31
0.0
  0
LINE
  5
243
330
1F
100
AcDbEntity
  8
SLD-0_0
  6
SLD-Solid
 62
   179
370
    15
100
AcDbLine
 10
157.8239433418
 20
686.5735491255
 30
0.0
 11
157.8239433418
 21
645.2361180216
 31
0.0
  0
LINE
  5
244
330
1F
100
AcDbEntity
  8
SLD-0_0
  6
SLD-Solid
 62
   179
370
    15
100
AcDbLine
 10
157.8239433418
 20
635.12712174
 30
0.0
 11
157.8239433418
 21
601.5735491255
 31
0.0
  0
LINE
  5
245
330
1F
100
AcDbEntity
  8
SLD-0_0
  6
SLD-Solid
 62
   179
370
    15
100
AcDbLine
 10
152.6239433418
 20
835.0394926351
 30
0.0
 11
152.6239433418
 21
748.0228598533
 31
0.0
  0
LINE
  5
246
330
1F
100
AcDbEntity
  8
SLD-0_0
  6
SLD-Solid
 62
   179
370
    15
100
AcDbLine
 10
178.7944194694
 20
686.5735491255
 30
0.0
 11
152.6239433418
 21
686.5735491255
 31
0.0
  0
LINE
  5
247
330
1F
100
AcDbEntity
  8
SLD-0_0
  6
SLD-Solid
 62
   179
370
    15
100
AcDbLine
 10
152.6239433418
 20
686.5735491255
 30
0.0
 11
152.6239433418
 21
648.0228598533
 31
0.0
  0
LINE
  5
248
330
1F
100
AcDbEntity
  8
SLD-0_0
  6
SLD-Solid
 62
   179
370
    15
100
AcDbLine
 10
152.6239433418
 20
635.0394926351
 30
0.0
 11
152.6239433418
 21
601.5735491255
 31
0.0
  0
LINE
  5
249
330
1F
100
AcDbEntity
  8
SLD-0_0
  6
SLD-Solid
 62
   179
370
    15
100
AcDbLine
 10
152.6239433418
 20
601.5735491255
 30
0.0
 11
178.7944194694
 21
601.5735491255
 31
0.0
  0
LINE
  5
24A
330
1F
100
AcDbEntity
  8
SLD-0_0
  6
SLD-Solid
 62
   179
370
    15
100
AcDbLine
 10
152.6239433418
 20
886.5735491255
 30
0.0
 11
178.7944194694
 21
886.5735491255
 31
0.0
  0
LINE
  5
24B
330
1F
100
AcDbEntity
  8
SLD-0_0
  6
SLD-Solid
 62
   179
370
    15
100
AcDbLine
 10
178.7944194694
 20
971.5735491255
 30
0.0
 11
152.6239433418
 21
971.5735491255
 31
0.0
  0
LINE
  5
24C
330
1F
100
AcDbEntity
  8
SLD-0_0
  6
SLD-Solid
 62
   179
370
    15
100
AcDbLine
 10
152.6239433418
 20
971.5735491255
 30
0.0
 11
152.6239433418
 21
948.0228598533
 31
0.0
  0
LINE
  5
24D
330
1F
100
AcDbEntity
  8
SLD-0_0
  6
SLD-Solid
 62
   179
370
    15
100
AcDbLine
 10
152.6239433418
 20
935.0394926351
 30
0.0
 11
152.6239433418
 21
886.5735491255
 31
0.0
  0
LINE
  5
24E
330
1F
100
AcDbEntity
  8
SLD-0_0
  6
SLD-Solid
 62
   179
370
    15
100
AcDbLine
 10
174.6239433418
 20
1114.9567051557
 30
0.0
 11
174.6239433418
 21
1126.2834065717
 31
0.0
  0
LINE
  5
24F
330
1F
100
AcDbEntity
  8
SLD-0_0
  6
SLD-Center
 62
   179
370
     0
100
AcDbLine
 10
87.435388262
 20
1203.0735491255
 30
0.0
 11
245.318075749
 21
1203.0735491255
 31
0.0
  0
LINE
  5
250
330
1F
100
AcDbEntity
  8
SLD-0_0
  6
SLD-Center
 62
   179
370
     0
100
AcDbLine
 10
942.7865120401
 20
394.3742628625
 30
0.0
 11
1331.1239433373
 21
394.3742628626
 31
0.0
  0
LINE
  5
251
330
1F
100
AcDbEntity
  8
SLD-0_0
  6
SLD-Center
 62
   179
370
     0
100
AcDbLine
 10
1331.1239433373
 20
342.5735491232
 30
0.0
 11
1331.1239433373
 21
394.3742628626
 31
0.0
  0
LINE
  5
252
330
1F
100
AcDbEntity
  8
SLD-0_0
  6
SLD-Center
 62
   179
370
     0
100
AcDbLine
 10
942.7865120401
 20
342.5735491232
 30
0.0
 11
1331.1239433373
 21
342.5735491232
 31
0.0
  0
LINE
  5
253
330
1F
100
AcDbEntity
  8
SLD-0_0
  6
SLD-Center
 62
   179
370
     0
100
AcDbLine
 10
942.7865120447
 20
1178.7728353839
 30
0.0
 11
1331.1239433418
 21
1178.7728353839
 31
0.0
  0
LINE
  5
254
330
1F
100
AcDbEntity
  8
SLD-0_0
  6
SLD-Center
 62
   179
370
     0
100
AcDbLine
 10
1331.1239433418
 20
1230.5735491232
 30
0.0
 11
1331.1239433418
 21
1178.7728353839
 31
0.0
  0
LINE
  5
255
330
1F
100
AcDbEntity
  8
SLD-0_0
  6
SLD-Center
 62
   179
370
     0
100
AcDbLine
 10
942.7865120447
 20
1230.5735491232
 30
0.0
 11
1331.1239433418
 21
1230.5735491232
 31
0.0
  0
ARC
  5
256
330
1F
100
AcDbEntity
  8
SLD-0_0
  6
SLD-Solid
 62
   179
370
    15
100
AcDbCircle
 10
127.8739433418
 20
1157.9345009492
 30
0.0
 40
0.2500000000002274
100
AcDbArc
 50
180.0
 51
270.0
  0
ARC
  5
257
330
1F
100
AcDbEntity
  8
SLD-0_0
  6
SLD-Solid
 62
   179
370
    15
100
AcDbCircle
 10
127.8739433418
 20
1162.9911951214
 30
0.0
 40
0.2500000000000284
100
AcDbArc
 50
90.0
 51
180.0
  0
ARC
  5
258
330
1F
100
AcDbEntity
  8
SLD-0_0
  6
SLD-Solid
 62
   179
370
    15
100
AcDbCircle
 10
134.1739433418
 20
1163.0235491256
 30
0.0
 40
0.25
100
AcDbArc
 50
0.0
 51
90.0
  0
ARC
  5
259
330
1F
100
AcDbEntity
  8
SLD-0_0
  6
SLD-Solid
 62
   179
370
    15
100
AcDbCircle
 10
133.4739433418
 20
1163.0235491256
 30
0.0
 40
0.2500000000002753
100
AcDbArc
 50
90.0
 51
142.7089330724
  0
ARC
  5
25A
330
1F
100
AcDbEntity
  8
SLD-0_0
  6
SLD-Solid
 62
   179
370
    15
100
AcDbCircle
 10
127.8739433418
 20
1146.1559031297
 30
0.0
 40
0.2500000000000284
100
AcDbArc
 50
180.0
 51
270.0
  0
ARC
  5
25B
330
1F
100
AcDbEntity
  8
SLD-0_0
  6
SLD-Solid
 62
   179
370
    15
100
AcDbCircle
 10
132.2739433418
 20
1163.0235491256
 30
0.0
 40
0.250000000000036
100
AcDbArc
 50
90.0
 51
119.4734267881
  0
ARC
  5
25C
330
1F
100
AcDbEntity
  8
SLD-0_0
  6
SLD-Solid
 62
   179
370
    15
100
AcDbCircle
 10
138.5739433418
 20
1150.3673993759
 30
0.0
 40
0.25
100
AcDbArc
 50
0.0
 51
90.0
  0
ARC
  5
25D
330
1F
100
AcDbEntity
  8
SLD-0_0
  6
SLD-Solid
 62
   179
370
    15
100
AcDbCircle
 10
138.5739433418
 20
1145.6674289766
 30
0.0
 40
0.2500000000002274
100
AcDbArc
 50
270.0
 51
0.0
  0
ARC
  5
25E
330
1F
100
AcDbEntity
  8
SLD-0_0
  6
SLD-Solid
 62
   179
370
    15
100
AcDbCircle
 10
132.2739433418
 20
1146.1235491256
 30
0.0
 40
0.25
100
AcDbArc
 50
180.0
 51
270.0
  0
ARC
  5
25F
330
1F
100
AcDbEntity
  8
SLD-0_0
  6
SLD-Solid
 62
   179
370
    15
100
AcDbCircle
 10
138.5739433418
 20
1163.4796692745
 30
0.0
 40
0.2500000000002274
100
AcDbArc
 50
0.0
 51
90.0
  0
CIRCLE
  5
260
330
1F
100
AcDbEntity
  8
SLD-0_0
  6
SLD-Solid
 62
   179
370
    15
100
AcDbCircle
 10
507.6239433418
 20
786.5735491256
 30
0.0
 40
5.804247641507175
  0
ARC
  5
261
330
1F
100
AcDbEntity
  8
SLD-0_0
  6
SLD-Solid
 62
   179
370
    15
100
AcDbCircle
 10
920.513142883
 20
695.208352386
 30
0.0
 40
1.000000000000063
100
AcDbArc
 50
50.2453421196
 51
82.9728344126
  0
ARC
  5
262
330
1F
100
AcDbEntity
  8
SLD-0_0
  6
SLD-Solid
 62
   179
370
    15
100
AcDbCircle
 10
920.513142883
 20
673.9387458651
 30
0.0
 40
1.000000000000063
100
AcDbArc
 50
277.0271655874
 51
309.7546578804
  0
ARC
  5
263
330
1F
100
AcDbEntity
  8
SLD-0_0
  6
SLD-Solid
 62
   179
370
    15
100
AcDbCircle
 10
930.1344889829
 20
695.208352386
 30
0.0
 40
1.00000000000024
100
AcDbArc
 50
11.9201320981
 51
80.5845175716
  0
ARC
  5
264
330
1F
100
AcDbEntity
  8
SLD-0_0
  6
SLD-Solid
 62
   179
370
    15
100
AcDbCircle
 10
930.1344889829
 20
673.9387458651
 30
0.0
 40
1.000000000000109
100
AcDbArc
 50
279.4154824284
 51
348.0798679019
  0
ARC
  5
265
330
1F
100
AcDbEntity
  8
SLD-0_0
  6
SLD-Solid
 62
   179
370
    15
100
AcDbCircle
 10
917.6501687827
 20
899.2083523859
 30
0.0
 40
1.000000000000063
100
AcDbArc
 50
50.2453421196
 51
82.9728344126
  0
ARC
  5
266
330
1F
100
AcDbEntity
  8
SLD-0_0
  6
SLD-Solid
 62
   179
370
    15
100
AcDbCircle
 10
917.6501687827
 20
877.9387458651
 30
0.0
 40
0.9999999999999907
100
AcDbArc
 50
277.0271655874
 51
309.7546578804
  0
ARC
  5
267
330
1F
100
AcDbEntity
  8
SLD-0_0
  6
SLD-Solid
 62
   179
370
    15
100
AcDbCircle
 10
927.2715148826
 20
899.2083523859
 30
0.0
 40
1.000000000000052
100
AcDbArc
 50
11.9201320981
 51
80.5845175716
  0
ARC
  5
268
330
1F
100
AcDbEntity
  8
SLD-0_0
  6
SLD-Solid
 62
   179
370
    15
100
AcDbCircle
 10
927.2715148826
 20
877.9387458651
 30
0.0
 40
1.000000000000127
100
AcDbArc
 50
279.4154824284
 51
348.0798679019
  0
ARC
  5
269
330
1F
100
AcDbEntity
  8
SLD-0_0
  6
SLD-Solid
 62
   179
370
    15
100
AcDbCircle
 10
-1232.8574992673
 20
726.991233835
 30
0.0
 40
2203.900000016601
100
AcDbArc
 50
2.6943964884
 51
7.1488297193
  0
ARC
  5
26A
330
1F
100
AcDbEntity
  8
SLD-0_0
  6
SLD-Solid
 62
   179
370
    15
100
AcDbCircle
 10
-1356.7980856425
 20
714.063039289
 30
0.0
 40
2306.499999710804
100
AcDbArc
 50
3.335403964
 51
6.6969388637
  0
ARC
  5
26B
330
1F
100
AcDbEntity
  8
SLD-0_0
  6
SLD-Solid
 62
   179
370
    15
100
AcDbCircle
 10
961.6137776557
 20
830.264777203
 30
0.0
 40
7.000000016636405
100
AcDbArc
 50
282.1152418027
 51
2.6943964741
  0
ARC
  5
26C
330
1F
100
AcDbEntity
  8
SLD-0_0
  6
SLD-Solid
 62
   179
370
    15
100
AcDbCircle
 10
946.96432625
 20
1000.389147138
 30
0.0
 40
7.000000016599079
100
AcDbArc
 50
7.1488297088
 51
77.7009253298
  0
ARC
  5
26D
330
1F
100
AcDbEntity
  8
SLD-0_0
  6
SLD-Solid
 62
   179
370
    15
100
AcDbCircle
 10
938.8066908299
 20
847.8500350595
 30
0.0
 40
6.999999710807643
100
AcDbArc
 50
282.1152418025
 51
3.3354039505
  0
ARC
  5
26E
330
1F
100
AcDbEntity
  8
SLD-0_0
  6
SLD-Solid
 62
   179
370
    15
100
AcDbCircle
 10
927.0121533154
 20
982.2253827141
 30
0.0
 40
6.999999710807615
100
AcDbArc
 50
6.6969388613
 51
68.4457626444
  0
ARC
  5
26F
330
1F
100
AcDbEntity
  8
SLD-0_0
  6
SLD-Solid
 62
   179
370
    15
100
AcDbCircle
 10
-1232.8574992673
 20
846.1423186903
 30
0.0
 40
2203.900000016601
100
AcDbArc
 50
352.8511702807
 51
357.3056035116
  0
ARC
  5
270
330
1F
100
AcDbEntity
  8
SLD-0_0
  6
SLD-Solid
 62
   179
370
    15
100
AcDbCircle
 10
-1356.7980856425
 20
859.0705132362
 30
0.0
 40
2306.499999710804
100
AcDbArc
 50
353.3030611363
 51
356.664596036
  0
ARC
  5
271
330
1F
100
AcDbEntity
  8
SLD-0_0
  6
SLD-Solid
 62
   179
370
    15
100
AcDbCircle
 10
961.6137776557
 20
742.8687753223
 30
0.0
 40
7.000000016636411
100
AcDbArc
 50
357.3056035259
 51
77.8847581973
  0
ARC
  5
272
330
1F
100
AcDbEntity
  8
SLD-0_0
  6
SLD-Solid
 62
   179
370
    15
100
AcDbCircle
 10
946.96432625
 20
572.7444053873
 30
0.0
 40
7.000000016659979
100
AcDbArc
 50
282.29907467
 51
352.8511702912
  0
ARC
  5
273
330
1F
100
AcDbEntity
  8
SLD-0_0
  6
SLD-Solid
 62
   179
370
    15
100
AcDbCircle
 10
938.8066908299
 20
725.2835174657
 30
0.0
 40
6.999999710807532
100
AcDbArc
 50
356.6645960494
 51
77.8847581975
  0
ARC
  5
274
330
1F
100
AcDbEntity
  8
SLD-0_0
  6
SLD-Solid
 62
   179
370
    15
100
AcDbCircle
 10
927.0121533154
 20
590.9081698111
 30
0.0
 40
6.999999710807615
100
AcDbArc
 50
291.5542373556
 51
353.3030611387
  0
ARC
  5
275
330
1F
100
AcDbEntity
  8
SLD-0_0
  6
SLD-Solid
 62
   179
370
    15
100
AcDbCircle
 10
127.8575135211
 20
1146.6127455614
 30
0.0
 40
0.2343528001295577
100
AcDbArc
 50
85.9798550465
 51
175.3161909111
  0
ARC
  5
276
330
1F
100
AcDbEntity
  8
SLD-0_0
  6
SLD-Solid
 62
   179
370
    15
100
AcDbCircle
 10
138.5851931509
 20
1162.9622192926
 30
0.0
 40
0.2390731945685655
100
AcDbArc
 50
267.3028984187
 51
357.0213133887
  0
CIRCLE
  5
277
330
1F
100
AcDbEntity
  8
SLD-0_0
  6
SLD-Solid
 62
   179
370
    15
100
AcDbCircle
 10
507.6239433418
 20
786.5735491256
 30
0.0
 40
101.5000000000002
  0
CIRCLE
  5
278
330
1F
100
AcDbEntity
  8
SLD-0_0
  6
SLD-Solid
 62
   179
370
    15
100
AcDbCircle
 10
507.6239433418
 20
786.5735491256
 30
0.0
 40
162.0000000000002
  0
CIRCLE
  5
279
330
1F
100
AcDbEntity
  8
SLD-0_0
  6
SLD-Solid
 62
   179
370
    15
100
AcDbCircle
 10
507.6239433418
 20
786.5735491256
 30
0.0
 40
10.00000000000017
  0
ARC
  5
27A
330
1F
100
AcDbEntity
  8
SLD-0_0
  6
SLD-Solid
 62
   179
370
    15
100
AcDbCircle
 10
507.6239433418
 20
786.5735491256
 30
0.0
 40
98.49999999998583
100
AcDbArc
 50
183.654219624
 51
176.3457803761
  0
ARC
  5
27B
330
1F
100
AcDbEntity
  8
SLD-0_0
  6
SLD-Solid
 62
   179
370
    15
100
AcDbCircle
 10
507.6239433418
 20
786.5735491256
 30
0.0
 40
165.0000000000001
100
AcDbArc
 50
0.0
 51
178.3143982517
  0
ARC
  5
27C
330
1F
100
AcDbEntity
  8
SLD-0_0
  6
SLD-Solid
 62
   179
370
    15
100
AcDbCircle
 10
507.6239433418
 20
786.5735491256
 30
0.0
 40
165.0000000000001
100
AcDbArc
 50
181.6856017483
 51
0.0
  0
ARC
  5
27D
330
1F
100
AcDbEntity
  8
SLD-0_0
  6
SLD-Solid
 62
   179
370
    15
100
AcDbCircle
 10
917.7272144247
 20
699.564900318
 30
0.0
 40
2.073567592743857
100
AcDbArc
 50
321.480137773
 51
0.2389802054
  0
ARC
  5
27E
330
1F
100
AcDbEntity
  8
SLD-0_0
  6
SLD-Solid
 62
   179
370
    15
100
AcDbCircle
 10
917.859136163
 20
719.6320380148
 30
0.0
 40
1.94250856665529
100
AcDbArc
 50
358.2745645857
 51
88.1637932023
  0
ARC
  5
27F
330
1F
100
AcDbEntity
  8
SLD-0_0
  6
SLD-Solid
 62
   179
370
    15
100
AcDbCircle
 10
916.449533563
 20
913.5735491256
 30
0.0
 40
3.412143011266513
100
AcDbArc
 50
272.423932984
 51
87.5760670158
  0
ARC
  5
280
330
1F
100
AcDbEntity
  8
SLD-0_0
  6
SLD-Solid
 62
   179
370
    15
100
AcDbCircle
 10
916.6460175243
 20
913.6786406284
 30
0.0
 40
2.304589166078348
100
AcDbArc
 50
91.2972455603
 51
173.5586092537
  0
ARC
  5
281
330
1F
100
AcDbEntity
  8
SLD-0_0
  6
SLD-Solid
 62
   179
370
    15
100
AcDbCircle
 10
916.6460175243
 20
913.4684576227
 30
0.0
 40
2.304589166042462
100
AcDbArc
 50
186.4413907463
 51
268.7027544396
  0
ARC
  5
282
330
1F
100
AcDbEntity
  8
SLD-0_0
  6
SLD-Solid
 62
   179
370
    15
100
AcDbCircle
 10
917.8557159615
 20
719.6320380148
 30
0.0
 40
1.942508566655567
100
AcDbArc
 50
358.2745645851
 51
88.1637932023
  0
ARC
  5
283
330
1F
100
AcDbEntity
  8
SLD-0_0
  6
SLD-Solid
 62
   179
370
    15
100
AcDbCircle
 10
917.7237581702
 20
699.5649072358
 30
0.0
 40
2.073603616621814
100
AcDbArc
 50
321.5010101584
 51
0.2387849066
  0
ARC
  5
284
330
1F
100
AcDbEntity
  8
SLD-0_0
  6
SLD-Solid
 62
   179
370
    15
100
AcDbCircle
 10
917.8902574509
 20
719.6027935702
 30
0.0
 40
0.9712542833277036
100
AcDbArc
 50
358.2745645851
 51
88.1637932023
  0
ARC
  5
285
330
1F
100
AcDbEntity
  8
SLD-0_0
  6
SLD-Solid
 62
   179
370
    15
100
AcDbCircle
 10
917.8902574509
 20
699.544304681
 30
0.0
 40
0.971254283327931
100
AcDbArc
 50
271.8362067977
 51
1.7254354143
  0
ARC
  5
286
330
1F
100
AcDbEntity
  8
SLD-0_0
  6
SLD-Solid
 62
   179
370
    15
100
AcDbCircle
 10
912.7856793034
 20
709.8316688794
 30
0.0
 40
4.203938509930842
100
AcDbArc
 50
356.4798532253
 51
137.4084689971
  0
ARC
  5
287
330
1F
100
AcDbEntity
  8
SLD-0_0
  6
SLD-Solid
 62
   179
370
    15
100
AcDbCircle
 10
912.6042379809
 20
709.4387302278
 30
0.0
 40
4.379523755911705
100
AcDbArc
 50
277.1967801398
 51
1.7640672408
  0
ARC
  5
288
330
1F
100
AcDbEntity
  8
SLD-0_0
  6
SLD-Solid
 62
   179
370
    15
100
AcDbCircle
 10
912.6222370933
 20
709.7170209829
 30
0.0
 40
4.358390905305438
100
AcDbArc
 50
358.1135658914
 51
88.3247918966
  0
ARC
  5
289
330
1F
100
AcDbEntity
  8
SLD-0_0
  6
SLD-Solid
 62
   179
370
    15
100
AcDbCircle
 10
912.6006217784
 20
709.4388100725
 30
0.0
 40
4.379717206962989
100
AcDbArc
 50
277.2463418014
 51
1.7629442688
  0
ARC
  5
28A
330
1F
100
AcDbEntity
  8
SLD-0_0
  6
SLD-Solid
 62
   179
370
    15
100
AcDbCircle
 10
912.7810322457
 20
709.8316293127
 30
0.0
 40
3.242071710135907
100
AcDbArc
 50
90.5546294844
 51
151.5176395221
  0
ARC
  5
28B
330
1F
100
AcDbEntity
  8
SLD-0_0
  6
SLD-Solid
 62
   179
370
    15
100
AcDbCircle
 10
912.7809645937
 20
709.7735066639
 30
0.0
 40
3.267153581777145
100
AcDbArc
 50
356.4911697218
 51
150.6428885604
  0
ARC
  5
28C
330
1F
100
AcDbEntity
  8
SLD-0_0
  6
SLD-Solid
 62
   179
370
    15
100
AcDbCircle
 10
912.6415258798
 20
709.4736545651
 30
0.0
 40
3.401934587923737
100
AcDbArc
 50
271.8789644901
 51
1.6826777229
  0
ARC
  5
28D
330
1F
100
AcDbEntity
  8
SLD-0_0
  6
SLD-Solid
 62
   179
370
    15
100
AcDbCircle
 10
912.7626869862
 20
709.6795635655
 30
0.0
 40
1.872770638423843
100
AcDbArc
 50
356.7548461829
 51
169.5140661251
  0
ARC
  5
28E
330
1F
100
AcDbEntity
  8
SLD-0_0
  6
SLD-Solid
 62
   179
370
    15
100
AcDbCircle
 10
912.7276712572
 20
709.4949264631
 30
0.0
 40
1.906405249870527
100
AcDbArc
 50
253.2382547478
 51
2.3636237321
  0
ARC
  5
28F
330
1F
100
AcDbEntity
  8
SLD-0_0
  6
SLD-Solid
 62
   179
370
    15
100
AcDbCircle
 10
912.6874065472
 20
709.6320380148
 30
0.0
 40
1.94250856667403
100
AcDbArc
 50
358.2745645851
 51
88.1637932037
  0
ARC
  5
290
330
1F
100
AcDbEntity
  8
SLD-0_0
  6
SLD-Solid
 62
   179
370
    15
100
AcDbCircle
 10
912.6874065472
 20
709.5150602363
 30
0.0
 40
1.94250856665705
100
AcDbArc
 50
271.8362067964
 51
1.7254354167
  0
ARC
  5
291
330
1F
100
AcDbEntity
  8
SLD-0_0
  6
SLD-Solid
 62
   179
370
    15
100
AcDbCircle
 10
912.791427787
 20
709.5735491256
 30
0.0
 40
1.000872347887391
100
AcDbArc
 50
92.3923498538
 51
267.6076501462
  0
ARC
  5
292
330
1F
100
AcDbEntity
  8
SLD-0_0
  6
SLD-Solid
 62
   179
370
    15
100
AcDbCircle
 10
174.0241142816
 20
821.05711676
 30
0.0
 40
5.000669288031114
100
AcDbArc
 50
5.5341758579
 51
61.784876003
  0
ARC
  5
293
330
1F
100
AcDbEntity
  8
SLD-0_0
  6
SLD-Solid
 62
   179
370
    15
100
AcDbCircle
 10
155.3735803143
 20
831.0557749952
 30
0.0
 40
4.841279373382848
100
AcDbArc
 50
63.2478610932
 51
181.5842536627
  0
ARC
  5
294
330
1F
100
AcDbEntity
  8
SLD-0_0
  6
SLD-Solid
 62
   179
370
    15
100
AcDbCircle
 10
155.5550655221
 20
752.104476703
 30
0.0
 40
5.021042686982836
100
AcDbArc
 50
179.5897976816
 51
241.7015410578
  0
ARC
  5
295
330
1F
100
AcDbEntity
  8
SLD-0_0
  6
SLD-Solid
 62
   179
370
    15
100
AcDbCircle
 10
174.1940733083
 20
742.0674213909
 30
0.0
 40
4.822001682067614
100
AcDbArc
 50
243.0718636169
 51
355.540211537
  0
ARC
  5
296
330
1F
100
AcDbEntity
  8
SLD-0_0
  6
SLD-Solid
 62
   179
370
    15
100
AcDbCircle
 10
174.0241142816
 20
721.05711676
 30
0.0
 40
5.000669288030392
100
AcDbArc
 50
5.5341758579
 51
61.784876003
  0
ARC
  5
297
330
1F
100
AcDbEntity
  8
SLD-0_0
  6
SLD-Solid
 62
   179
370
    15
100
AcDbCircle
 10
155.3735803143
 20
731.0557749952
 30
0.0
 40
4.841279373383072
100
AcDbArc
 50
63.2478610932
 51
181.5842536627
  0
ARC
  5
298
330
1F
100
AcDbEntity
  8
SLD-0_0
  6
SLD-Solid
 62
   179
370
    15
100
AcDbCircle
 10
155.5550655221
 20
652.104476703
 30
0.0
 40
5.021042686982836
100
AcDbArc
 50
179.5897976816
 51
241.7015410578
  0
ARC
  5
299
330
1F
100
AcDbEntity
  8
SLD-0_0
  6
SLD-Solid
 62
   179
370
    15
100
AcDbCircle
 10
174.1940733083
 20
642.0674213909
 30
0.0
 40
4.822001682067699
100
AcDbArc
 50
243.0718636169
 51
355.540211537
  0
ARC
  5
29A
330
1F
100
AcDbEntity
  8
SLD-0_0
  6
SLD-Solid
 62
   179
370
    15
100
AcDbCircle
 10
174.0241142816
 20
621.05711676
 30
0.0
 40
5.000669288030548
100
AcDbArc
 50
5.5341758578
 51
61.784876003
  0
ARC
  5
29B
330
1F
100
AcDbEntity
  8
SLD-0_0
  6
SLD-Solid
 62
   179
370
    15
100
AcDbCircle
 10
155.3735803143
 20
631.0557749952
 30
0.0
 40
4.841279373383075
100
AcDbArc
 50
63.2478610932
 51
181.5842536627
  0
ARC
  5
29C
330
1F
100
AcDbEntity
  8
SLD-0_0
  6
SLD-Solid
 62
   179
370
    15
100
AcDbCircle
 10
155.5550655221
 20
552.104476703
 30
0.0
 40
5.021042686982836
100
AcDbArc
 50
179.5897976816
 51
241.7015410578
  0
ARC
  5
29D
330
1F
100
AcDbEntity
  8
SLD-0_0
  6
SLD-Solid
 62
   179
370
    15
100
AcDbCircle
 10
174.1940733083
 20
542.0674213909
 30
0.0
 40
4.822001682067756
100
AcDbArc
 50
243.0718636169
 51
355.540211537
  0
ARC
  5
29E
330
1F
100
AcDbEntity
  8
SLD-0_0
  6
SLD-Solid
 62
   179
370
    15
100
AcDbCircle
 10
174.0241142816
 20
521.05711676
 30
0.0
 40
5.000669288030529
100
AcDbArc
 50
5.534175858
 51
61.784876003
  0
ARC
  5
29F
330
1F
100
AcDbEntity
  8
SLD-0_0
  6
SLD-Solid
 62
   179
370
    15
100
AcDbCircle
 10
155.3735803143
 20
531.0557749952
 30
0.0
 40
4.841279373383161
100
AcDbArc
 50
63.2478610932
 51
181.5842536627
  0
ARC
  5
2A0
330
1F
100
AcDbEntity
  8
SLD-0_0
  6
SLD-Solid
 62
   179
370
    15
100
AcDbCircle
 10
155.5550655221
 20
452.104476703
 30
0.0
 40
5.021042686982836
100
AcDbArc
 50
179.5897976816
 51
241.7015410578
  0
ARC
  5
2A1
330
1F
100
AcDbEntity
  8
SLD-0_0
  6
SLD-Solid
 62
   179
370
    15
100
AcDbCircle
 10
174.1940733084
 20
442.0674213909
 30
0.0
 40
4.822001682073816
100
AcDbArc
 50
243.0718636158
 51
355.5402115369
  0
ARC
  5
2A2
330
1F
100
AcDbEntity
  8
SLD-0_0
  6
SLD-Solid
 62
   179
370
    15
100
AcDbCircle
 10
174.0241142816
 20
421.05711676
 30
0.0
 40
5.000669288030235
100
AcDbArc
 50
5.534175858
 51
61.784876003
  0
ARC
  5
2A3
330
1F
100
AcDbEntity
  8
SLD-0_0
  6
SLD-Solid
 62
   179
370
    15
100
AcDbCircle
 10
155.3735803143
 20
431.0557749952
 30
0.0
 40
4.841279373383019
100
AcDbArc
 50
63.2478610932
 51
181.5842536627
  0
ARC
  5
2A4
330
1F
100
AcDbEntity
  8
SLD-0_0
  6
SLD-Solid
 62
   179
370
    15
100
AcDbCircle
 10
155.4504685898
 20
361.4898150029
 30
0.0
 40
4.91703009716147
100
AcDbArc
 50
179.0242394997
 51
268.9898148908
  0
ARC
  5
2A5
330
1F
100
AcDbEntity
  8
SLD-0_0
  6
SLD-Solid
 62
   179
370
    15
100
AcDbCircle
 10
174.1249405584
 20
361.4682085264
 30
0.0
 40
4.895224721419384
100
AcDbArc
 50
270.8707688501
 51
354.9915779818
  0
ARC
  5
2A6
330
1F
100
AcDbEntity
  8
SLD-0_0
  6
SLD-Solid
 62
   179
370
    15
100
AcDbCircle
 10
174.1249405584
 20
1211.6788897247
 30
0.0
 40
4.895224721419594
100
AcDbArc
 50
5.0084220182
 51
89.1292311494
  0
ARC
  5
2A7
330
1F
100
AcDbEntity
  8
SLD-0_0
  6
SLD-Solid
 62
   179
370
    15
100
AcDbCircle
 10
155.4504685898
 20
1211.6572832482
 30
0.0
 40
4.917030097190829
100
AcDbArc
 50
91.0101851086
 51
180.9757604995
  0
ARC
  5
2A8
330
1F
100
AcDbEntity
  8
SLD-0_0
  6
SLD-Solid
 62
   179
370
    15
100
AcDbCircle
 10
155.5550655221
 20
1152.104476703
 30
0.0
 40
5.021042686982839
100
AcDbArc
 50
179.5897976816
 51
241.7015410578
  0
ARC
  5
2A9
330
1F
100
AcDbEntity
  8
SLD-0_0
  6
SLD-Solid
 62
   179
370
    15
100
AcDbCircle
 10
174.1940733083
 20
1142.0674213909
 30
0.0
 40
4.822001682067503
100
AcDbArc
 50
243.0718636169
 51
355.5402115369
  0
ARC
  5
2AA
330
1F
100
AcDbEntity
  8
SLD-0_0
  6
SLD-Solid
 62
   179
370
    15
100
AcDbCircle
 10
174.0241142816
 20
1121.05711676
 30
0.0
 40
5.000669288031541
100
AcDbArc
 50
5.5341758576
 51
61.784876003
  0
ARC
  5
2AB
330
1F
100
AcDbEntity
  8
SLD-0_0
  6
SLD-Solid
 62
   179
370
    15
100
AcDbCircle
 10
155.3735803143
 20
1131.0557749952
 30
0.0
 40
4.841279373383161
100
AcDbArc
 50
63.2478610932
 51
181.5842536627
  0
ARC
  5
2AC
330
1F
100
AcDbEntity
  8
SLD-0_0
  6
SLD-Solid
 62
   179
370
    15
100
AcDbCircle
 10
155.5550655221
 20
1052.104476703
 30
0.0
 40
5.021042686982838
100
AcDbArc
 50
179.5897976816
 51
241.7015410578
  0
ARC
  5
2AD
330
1F
100
AcDbEntity
  8
SLD-0_0
  6
SLD-Solid
 62
   179
370
    15
100
AcDbCircle
 10
174.1940733083
 20
1042.0674213909
 30
0.0
 40
4.822001682073854
100
AcDbArc
 50
243.0718636158
 51
355.5402115372
  0
ARC
  5
2AE
330
1F
100
AcDbEntity
  8
SLD-0_0
  6
SLD-Solid
 62
   179
370
    15
100
AcDbCircle
 10
174.0241142816
 20
1021.05711676
 30
0.0
 40
5.000669288030579
100
AcDbArc
 50
5.5341758578
 51
61.784876003
  0
ARC
  5
2AF
330
1F
100
AcDbEntity
  8
SLD-0_0
  6
SLD-Solid
 62
   179
370
    15
100
AcDbCircle
 10
155.3735803143
 20
1031.0557749952
 30
0.0
 40
4.841279373382997
100
AcDbArc
 50
63.2478610932
 51
181.5842536627
  0
ARC
  5
2B0
330
1F
100
AcDbEntity
  8
SLD-0_0
  6
SLD-Solid
 62
   179
370
    15
100
AcDbCircle
 10
155.5550655221
 20
952.104476703
 30
0.0
 40
5.021042686982838
100
AcDbArc
 50
179.5897976816
 51
241.7015410578
  0
ARC
  5
2B1
330
1F
100
AcDbEntity
  8
SLD-0_0
  6
SLD-Solid
 62
   179
370
    15
100
AcDbCircle
 10
174.1940733083
 20
942.0674213909
 30
0.0
 40
4.822001682067812
100
AcDbArc
 50
243.0718636169
 51
355.540211537
  0
ARC
  5
2B2
330
1F
100
AcDbEntity
  8
SLD-0_0
  6
SLD-Solid
 62
   179
370
    15
100
AcDbCircle
 10
174.0241142816
 20
921.05711676
 30
0.0
 40
5.00066928803125
100
AcDbArc
 50
5.5341758578
 51
61.784876003
  0
ARC
  5
2B3
330
1F
100
AcDbEntity
  8
SLD-0_0
  6
SLD-Solid
 62
   179
370
    15
100
AcDbCircle
 10
155.3735803143
 20
931.0557749952
 30
0.0
 40
4.841279373382934
100
AcDbArc
 50
63.2478610932
 51
181.5842536627
  0
ARC
  5
2B4
330
1F
100
AcDbEntity
  8
SLD-0_0
  6
SLD-Solid
 62
   179
370
    15
100
AcDbCircle
 10
155.5550655221
 20
852.104476703
 30
0.0
 40
5.021042686982836
100
AcDbArc
 50
179.5897976816
 51
241.7015410578
  0
ARC
  5
2B5
330
1F
100
AcDbEntity
  8
SLD-0_0
  6
SLD-Solid
 62
   179
370
    15
100
AcDbCircle
 10
174.1940733083
 20
842.0674213909
 30
0.0
 40
4.822001682067699
100
AcDbArc
 50
243.0718636169
 51
355.540211537
  0
ARC
  5
2B6
330
1F
100
AcDbEntity
  8
SLD-0_0
  6
SLD-Solid
 62
   179
370
    15
100
AcDbCircle
 10
173.6472937834
 20
1042.2251294807
 30
0.0
 40
5.17461437192213
100
AcDbArc
 50
354.0916247812
 51
0.0004455096
  0
ARC
  5
2B7
330
1F
100
AcDbEntity
  8
SLD-0_0
  6
SLD-Solid
 62
   179
370
    15
100
AcDbCircle
 10
173.91389675
 20
1042.1223598646
 30
0.0
 40
4.899419486456719
100
AcDbArc
 50
272.1278164159
 51
354.9661675255
  0
ARC
  5
2B8
330
1F
100
AcDbEntity
  8
SLD-0_0
  6
SLD-Solid
 62
   179
370
    15
100
AcDbCircle
 10
173.6472937835
 20
1142.2251294807
 30
0.0
 40
5.17461437185113
100
AcDbArc
 50
354.0916247809
 51
0.0004455097
  0
ARC
  5
2B9
330
1F
100
AcDbEntity
  8
SLD-0_0
  6
SLD-Solid
 62
   179
370
    15
100
AcDbCircle
 10
173.9138967496
 20
1142.1223598648
 30
0.0
 40
4.899419486851341
100
AcDbArc
 50
272.1278165702
 51
354.9661675234
  0
ARC
  5
2BA
330
1F
100
AcDbEntity
  8
SLD-0_0
  6
SLD-Solid
 62
   179
370
    15
100
AcDbCircle
 10
173.6472937835
 20
942.2251294807
 30
0.0
 40
5.174614371800582
100
AcDbArc
 50
354.0916247809
 51
0.0004455097
  0
ARC
  5
2BB
330
1F
100
AcDbEntity
  8
SLD-0_0
  6
SLD-Solid
 62
   179
370
    15
100
AcDbCircle
 10
173.9138967499
 20
942.1223598646
 30
0.0
 40
4.899419486498417
100
AcDbArc
 50
272.1278164335
 51
354.9661675254
  0
ARC
  5
2BC
330
1F
100
AcDbEntity
  8
SLD-0_0
  6
SLD-Solid
 62
   179
370
    15
100
AcDbCircle
 10
173.6472937835
 20
842.2251294807
 30
0.0
 40
5.174614371798354
100
AcDbArc
 50
354.0916247809
 51
0.0004455097
  0
ARC
  5
2BD
330
1F
100
AcDbEntity
  8
SLD-0_0
  6
SLD-Solid
 62
   179
370
    15
100
AcDbCircle
 10
173.9138967499
 20
842.1223598646
 30
0.0
 40
4.899419486482207
100
AcDbArc
 50
272.1278164266
 51
354.9661675254
  0
ARC
  5
2BE
330
1F
100
AcDbEntity
  8
SLD-0_0
  6
SLD-Solid
 62
   179
370
    15
100
AcDbCircle
 10
173.6472937835
 20
742.2251294807
 30
0.0
 40
5.174614371828127
100
AcDbArc
 50
354.0916247809
 51
0.0004455097
  0
ARC
  5
2BF
330
1F
100
AcDbEntity
  8
SLD-0_0
  6
SLD-Solid
 62
   179
370
    15
100
AcDbCircle
 10
173.9138967499
 20
742.1223598646
 30
0.0
 40
4.899419486511978
100
AcDbArc
 50
272.1278164203
 51
354.9661675254
  0
ARC
  5
2C0
330
1F
100
AcDbEntity
  8
SLD-0_0
  6
SLD-Solid
 62
   179
370
    15
100
AcDbCircle
 10
173.6472937835
 20
642.2251294807
 30
0.0
 40
5.174614371867643
100
AcDbArc
 50
354.0916247809
 51
0.0004455097
  0
ARC
  5
2C1
330
1F
100
AcDbEntity
  8
SLD-0_0
  6
SLD-Solid
 62
   179
370
    15
100
AcDbCircle
 10
173.9138967499
 20
642.1223598646
 30
0.0
 40
4.899419486551454
100
AcDbArc
 50
272.127816426
 51
354.9661675254
  0
ARC
  5
2C2
330
1F
100
AcDbEntity
  8
SLD-0_0
  6
SLD-Solid
 62
   179
370
    15
100
AcDbCircle
 10
173.6472937835
 20
542.2251294807
 30
0.0
 40
5.174614371797982
100
AcDbArc
 50
354.0916247809
 51
0.0004455097
  0
ARC
  5
2C3
330
1F
100
AcDbEntity
  8
SLD-0_0
  6
SLD-Solid
 62
   179
370
    15
100
AcDbCircle
 10
173.9138967499
 20
542.1223598646
 30
0.0
 40
4.899419486545557
100
AcDbArc
 50
272.1278164531
 51
354.9661675254
  0
ARC
  5
2C4
330
1F
100
AcDbEntity
  8
SLD-0_0
  6
SLD-Solid
 62
   179
370
    15
100
AcDbCircle
 10
173.6472937835
 20
442.2251294807
 30
0.0
 40
5.174614371815944
100
AcDbArc
 50
354.0916247808
 51
0.0004455097
  0
ARC
  5
2C5
330
1F
100
AcDbEntity
  8
SLD-0_0
  6
SLD-Solid
 62
   179
370
    15
100
AcDbCircle
 10
173.9138967496
 20
442.1223598647
 30
0.0
 40
4.899419486807268
100
AcDbArc
 50
272.1278165571
 51
354.9661675245
  0
ARC
  5
2C6
330
1F
100
AcDbEntity
  8
SLD-0_0
  6
SLD-Solid
 62
   179
370
    15
100
AcDbCircle
 10
173.6472937835
 20
1211.5735893613
 30
0.0
 40
5.174614371831491
100
AcDbArc
 50
359.9995544903
 51
5.9083752192
  0
ARC
  5
2C7
330
1F
100
AcDbEntity
  8
SLD-0_0
  6
SLD-Solid
 62
   179
370
    15
100
AcDbCircle
 10
173.9178853223
 20
1211.6788897247
 30
0.0
 40
4.895224721420049
100
AcDbArc
 50
5.0084220177
 51
89.1292311494
  0
ARC
  5
2C8
330
1F
100
AcDbEntity
  8
SLD-0_0
  6
SLD-Solid
 62
   179
370
    15
100
AcDbCircle
 10
173.6472937835
 20
361.5735088898
 30
0.0
 40
5.174614371800885
100
AcDbArc
 50
354.0916247808
 51
0.0004455097
  0
ARC
  5
2C9
330
1F
100
AcDbEntity
  8
SLD-0_0
  6
SLD-Solid
 62
   179
370
    15
100
AcDbCircle
 10
173.9178853223
 20
361.4682085264
 30
0.0
 40
4.895224721419368
100
AcDbArc
 50
270.8707688506
 51
354.9915779823
  0
ARC
  5
2CA
330
1F
100
AcDbEntity
  8
SLD-0_0
  6
SLD-Solid
 62
   179
370
    15
100
AcDbCircle
 10
173.6472937835
 20
1121.0067145331
 30
0.0
 40
5.174614371846446
100
AcDbArc
 50
359.9995544903
 51
5.9083752188
  0
ARC
  5
2CB
330
1F
100
AcDbEntity
  8
SLD-0_0
  6
SLD-Solid
 62
   179
370
    15
100
AcDbCircle
 10
173.8170590455
 20
1121.05711676
 30
0.0
 40
5.000669288055189
100
AcDbArc
 50
5.5341758582
 51
61.7848760029
  0
ARC
  5
2CC
330
1F
100
AcDbEntity
  8
SLD-0_0
  6
SLD-Solid
 62
   179
370
    15
100
AcDbCircle
 10
173.6472937835
 20
1021.0067145331
 30
0.0
 40
5.174614371837778
100
AcDbArc
 50
359.9995544903
 51
5.9083752191
  0
ARC
  5
2CD
330
1F
100
AcDbEntity
  8
SLD-0_0
  6
SLD-Solid
 62
   179
370
    15
100
AcDbCircle
 10
173.8170590455
 20
1021.05711676
 30
0.0
 40
5.000669288046345
100
AcDbArc
 50
5.5341758585
 51
61.7848760029
  0
ARC
  5
2CE
330
1F
100
AcDbEntity
  8
SLD-0_0
  6
SLD-Solid
 62
   179
370
    15
100
AcDbCircle
 10
173.6472937835
 20
921.0067145331
 30
0.0
 40
5.17461437183185
100
AcDbArc
 50
359.9995544903
 51
5.9083752191
  0
ARC
  5
2CF
330
1F
100
AcDbEntity
  8
SLD-0_0
  6
SLD-Solid
 62
   179
370
    15
100
AcDbCircle
 10
173.8170590455
 20
921.05711676
 30
0.0
 40
5.000669288045311
100
AcDbArc
 50
5.5341758585
 51
61.7848760029
  0
ARC
  5
2D0
330
1F
100
AcDbEntity
  8
SLD-0_0
  6
SLD-Solid
 62
   179
370
    15
100
AcDbCircle
 10
173.6472937835
 20
821.0067145331
 30
0.0
 40
5.174614371822339
100
AcDbArc
 50
359.9995544903
 51
5.9083752191
  0
ARC
  5
2D1
330
1F
100
AcDbEntity
  8
SLD-0_0
  6
SLD-Solid
 62
   179
370
    15
100
AcDbCircle
 10
173.8170590455
 20
821.05711676
 30
0.0
 40
5.000669288045311
100
AcDbArc
 50
5.5341758585
 51
61.7848760029
  0
ARC
  5
2D2
330
1F
100
AcDbEntity
  8
SLD-0_0
  6
SLD-Solid
 62
   179
370
    15
100
AcDbCircle
 10
173.6472937835
 20
721.0067145331
 30
0.0
 40
5.17461437184267
100
AcDbArc
 50
359.9995544903
 51
5.9083752191
  0
ARC
  5
2D3
330
1F
100
AcDbEntity
  8
SLD-0_0
  6
SLD-Solid
 62
   179
370
    15
100
AcDbCircle
 10
173.8170590455
 20
721.05711676
 30
0.0
 40
5.000669288051248
100
AcDbArc
 50
5.5341758585
 51
61.7848760029
  0
ARC
  5
2D4
330
1F
100
AcDbEntity
  8
SLD-0_0
  6
SLD-Solid
 62
   179
370
    15
100
AcDbCircle
 10
173.6472937835
 20
621.0067145331
 30
0.0
 40
5.174614371830696
100
AcDbArc
 50
359.9995544903
 51
5.9083752191
  0
ARC
  5
2D5
330
1F
100
AcDbEntity
  8
SLD-0_0
  6
SLD-Solid
 62
   179
370
    15
100
AcDbCircle
 10
173.8170590455
 20
621.05711676
 30
0.0
 40
5.000669288045311
100
AcDbArc
 50
5.5341758585
 51
61.7848760029
  0
ARC
  5
2D6
330
1F
100
AcDbEntity
  8
SLD-0_0
  6
SLD-Solid
 62
   179
370
    15
100
AcDbCircle
 10
173.6472937835
 20
521.0067145331
 30
0.0
 40
5.174614371839318
100
AcDbArc
 50
359.9995544903
 51
5.9083752192
  0
ARC
  5
2D7
330
1F
100
AcDbEntity
  8
SLD-0_0
  6
SLD-Solid
 62
   179
370
    15
100
AcDbCircle
 10
173.8170590455
 20
521.05711676
 30
0.0
 40
5.000669288047838
100
AcDbArc
 50
5.5341758586
 51
61.7848760029
  0
ARC
  5
2D8
330
1F
100
AcDbEntity
  8
SLD-0_0
  6
SLD-Solid
 62
   179
370
    15
100
AcDbCircle
 10
173.6472937835
 20
421.0067145331
 30
0.0
 40
5.174614371815887
100
AcDbArc
 50
359.9995544903
 51
5.9083752192
  0
ARC
  5
2D9
330
1F
100
AcDbEntity
  8
SLD-0_0
  6
SLD-Solid
 62
   179
370
    15
100
AcDbCircle
 10
173.8170590455
 20
421.05711676
 30
0.0
 40
5.000669288045261
100
AcDbArc
 50
5.5341758586
 51
61.7848760029
  0
ARC
  5
2DA
330
1F
100
AcDbEntity
  8
SLD-0_0
  6
SLD-Solid
 62
   179
370
    15
100
AcDbCircle
 10
152.8739433419
 20
1182.8235491256
 30
0.0
 40
2.450000000000063
100
AcDbArc
 50
90.0
 51
162.7494449905
  0
ARC
  5
2DB
330
1F
100
AcDbEntity
  8
SLD-0_0
  6
SLD-Solid
 62
   179
370
    15
100
AcDbCircle
 10
152.8739433419
 20
1182.8235491256
 30
0.0
 40
1.25
100
AcDbArc
 50
90.0
 51
180.0
  0
ARC
  5
2DC
330
1F
100
AcDbEntity
  8
SLD-0_0
  6
SLD-Solid
 62
   179
370
    15
100
AcDbCircle
 10
152.8739433419
 20
1158.3235491256
 30
0.0
 40
2.450000000000045
100
AcDbArc
 50
197.2505550098
 51
270.0
  0
ARC
  5
2DD
330
1F
100
AcDbEntity
  8
SLD-0_0
  6
SLD-Solid
 62
   179
370
    15
100
AcDbCircle
 10
152.8739433419
 20
1158.3235491256
 30
0.0
 40
1.25
100
AcDbArc
 50
180.0
 51
270.0
  0
ARC
  5
2DE
330
1F
100
AcDbEntity
  8
SLD-0_0
  6
SLD-Solid
 62
   179
370
    15
100
AcDbCircle
 10
152.8739433418
 20
390.3235491256
 30
0.0
 40
2.449999999999992
100
AcDbArc
 50
197.2505550124
 51
270.0
  0
ARC
  5
2DF
330
1F
100
AcDbEntity
  8
SLD-0_0
  6
SLD-Solid
 62
   179
370
    15
100
AcDbCircle
 10
152.8739433418
 20
390.3235491256
 30
0.0
 40
1.25
100
AcDbArc
 50
180.0
 51
270.0
  0
ARC
  5
2E0
330
1F
100
AcDbEntity
  8
SLD-0_0
  6
SLD-Solid
 62
   179
370
    15
100
AcDbCircle
 10
152.8739433418
 20
414.8235491256
 30
0.0
 40
1.250000000000057
100
AcDbArc
 50
90.0
 51
180.0
  0
ARC
  5
2E1
330
1F
100
AcDbEntity
  8
SLD-0_0
  6
SLD-Solid
 62
   179
370
    15
100
AcDbCircle
 10
152.8739433418
 20
414.8235491256
 30
0.0
 40
2.450000000000045
100
AcDbArc
 50
90.0
 51
162.7494449876
  0
ARC
  5
2E2
330
1F
100
AcDbEntity
  8
SLD-0_0
  6
SLD-Solid
 62
   179
370
    15
100
AcDbCircle
 10
168.6239433418
 20
1123.5735491255
 30
0.0
 40
10.50000000000001
100
AcDbArc
 50
122.5970190439
 51
345.6077461371
  0
ARC
  5
2E3
330
1F
100
AcDbEntity
  8
SLD-0_0
  6
SLD-Center
 62
   179
370
     0
100
AcDbCircle
 10
901.1239433373
 20
352.5753162694
 30
0.0
 40
432.0267953915604
100
AcDbArc
 50
5.5520986598
 51
85.2708433517
  0
ARC
  5
2E4
330
1F
100
AcDbEntity
  8
SLD-0_0
  6
SLD-Center
 62
   179
370
     0
100
AcDbCircle
 10
901.1239433418
 20
1220.571781977
 30
0.0
 40
432.0267953915534
100
AcDbArc
 50
274.7291566483
 51
354.4479013403
  0
SPLINE
  5
2E5
330
1F
100
AcDbEntity
  8
SLD-0_0
  6
SLD-Solid
 62
   179
370
    15
100
AcDbSpline
210
0.0
220
0.0
230
1.0
 70
     8
 71
     3
 72
    13
 73
     9
 74
     0
 42
0.00000001
 43
0.00000001
 40
0.0
 40
0.0
 40
0.0
 40
0.0
 40
0.0634888169721873
 40
0.2470479163500146
 40
0.4311284030708796
 40
0.6187780680215356
 40
0.8315552682052464
 40
1.0
 40
1.0
 40
1.0
 40
1.0
 10
132.9740522321287
 20
1157.682705686844
 30
0.0
 10
132.9842782942825
 20
1157.683178018676
 30
0.0
 10
133.0240699846627
 20
1157.685015958026
 30
0.0
 10
133.0916294281535
 20
1157.671670941085
 30
0.0
 10
133.1617289417255
 20
1157.645722995976
 30
0.0
 10
133.2081971051131
 20
1157.613754882313
 30
0.0
 10
133.2242237306487
 20
1157.590739598156
 30
0.0
 10
133.2235231527999
 20
1157.591482088927
 30
0.0
 10
133.2232135991305
 20
1157.591810162021
 30
0.0
  0
SPLINE
  5
2E6
330
1F
100
AcDbEntity
  8
SLD-0_0
  6
SLD-Solid
 62
   179
370
    15
100
AcDbSpline
210
0.0
220
0.0
230
1.0
 70
     8
 71
     3
 72
    13
 73
     9
 74
     0
 42
0.00000001
 43
0.00000001
 40
0.0
 40
0.0
 40
0.0
 40
0.0
 40
0.0546880530915513
 40
0.2134688124192723
 40
0.3745771152283461
 40
0.544503415838557
 40
0.7475374221090568
 40
1.0
 40
1.0
 40
1.0
 40
1.0
 10
133.4738512767245
 20
1150.619274214678
 30
0.0
 10
133.4642675493087
 20
1150.618780256791
 30
0.0
 10
133.4268585212967
 20
1150.616852146399
 30
0.0
 10
133.3630127886282
 20
1150.630886494517
 30
0.0
 10
133.2956217696501
 20
1150.658527238814
 30
0.0
 10
133.2480257539432
 20
1150.695433214388
 30
0.0
 10
133.2251512614666
 20
1150.730210117137
 30
0.0
 10
133.224697321428
 20
1150.742040289625
 30
0.0
 10
133.2244457215779
 20
1150.748597256124
 30
0.0
  0
SPLINE
  5
2E7
330
1F
100
AcDbEntity
  8
SLD-0_0
  6
SLD-Solid
 62
   179
370
    15
100
AcDbSpline
210
0.0
220
0.0
230
1.0
 70
     8
 71
     3
 72
    13
 73
     9
 74
     0
 42
0.00000001
 43
0.00000001
 40
0.0
 40
0.0
 40
0.0
 40
0.0
 40
0.0946409559902656
 40
0.2757593790538431
 40
0.4575384455171347
 40
0.6403477097654464
 40
0.8245246555846983
 40
1.0
 40
1.0
 40
1.0
 40
1.0
 10
914.031152406213
 20
702.0151059734527
 30
0.0
 10
913.9275880193637
 20
702.4265416853684
 30
0.0
 10
913.6258280602547
 20
703.6253594197343
 30
0.0
 10
913.0646503182849
 20
705.4593917066517
 30
0.0
 10
912.3263429754285
 20
707.4282821926173
 30
0.0
 10
911.5105514315222
 20
709.149330427233
 30
0.0
 10
910.6430421700859
 20
710.6123673849233
 30
0.0
 10
910.0030202838991
 20
711.3480562036136
 30
0.0
 10
909.6907518402901
 20
711.7070008074642
 30
0.0
  0
SPLINE
  5
2E8
330
1F
100
AcDbEntity
  8
SLD-0_0
  6
SLD-Solid
 62
   179
370
    15
100
AcDbSpline
210
0.0
220
0.0
230
1.0
 70
     8
 71
     3
 72
    14
 73
    10
 74
     0
 42
0.00000001
 43
0.00000001
 40
0.0
 40
0.0
 40
0.0
 40
0.0
 40
0.0695408862428792
 40
0.2516262171840196
 40
0.4367322091619357
 40
0.6209899515832663
 40
0.8040046206539664
 40
0.9758765804701003
 40
1.0
 40
1.0
 40
1.0
 40
1.0
 10
909.6907518402901
 20
657.4715313316063
 30
0.0
 10
909.8193390047113
 20
657.5972610947887
 30
0.0
 10
910.284617828578
 20
658.0522007196098
 30
0.0
 10
911.0072431392866
 20
659.1283487210085
 30
0.0
 10
911.8684527439065
 20
660.6947408073934
 30
0.0
 10
912.6556815787081
 20
662.544010416947
 30
0.0
 10
913.3540914193322
 20
664.5846728993764
 30
0.0
 10
913.7943989328443
 20
666.1674684886826
 30
0.0
 10
914.0052059473355
 20
667.0262874849025
 30
0.0
 10
914.031152406213
 20
667.1319922776133
 30
0.0
  0
SPLINE
  5
2E9
330
1F
100
AcDbEntity
  8
SLD-0_0
  6
SLD-Solid
 62
   179
370
    15
100
AcDbSpline
210
0.0
220
0.0
230
1.0
 70
     8
 71
     3
 72
    12
 73
     8
 74
     0
 42
0.00000001
 43
0.00000001
 40
0.0
 40
0.0
 40
0.0
 40
0.0
 40
0.1457385529867368
 40
0.422406576336181
 40
0.7025645190515991
 40
0.9915723830906803
 40
1.0
 40
1.0
 40
1.0
 40
1.0
 10
921.1526443861562
 20
673.1699560189934
 30
0.0
 10
921.3659540404526
 20
673.3389045794381
 30
0.0
 10
921.9842077483721
 20
673.8285827156064
 30
0.0
 10
922.9989012129531
 20
674.416060333873
 30
0.0
 10
924.191490430885
 20
674.8048846552114
 30
0.0
 10
924.9848771007029
 20
674.9611979920656
 30
0.0
 10
925.3969781050595
 20
674.9042029282768
 30
0.0
 10
925.4086546857471
 20
674.902588014811
 30
0.0
  0
SPLINE
  5
2EA
330
1F
100
AcDbEntity
  8
SLD-0_0
  6
SLD-Solid
 62
   179
370
    15
100
AcDbSpline
210
0.0
220
0.0
230
1.0
 70
     8
 71
     3
 72
    11
 73
     7
 74
     0
 42
0.00000001
 43
0.00000001
 40
0.0
 40
0.0
 40
0.0
 40
0.0
 40
0.2706728893345817
 40
0.597276199279372
 40
0.9114942371263227
 40
0.9999999999999999
 40
0.9999999999999999
 40
0.9999999999999999
 40
0.9999999999999999
 10
925.0577750659116
 20
694.2690021546117
 30
0.0
 10
924.7158261358333
 20
694.2983386415032
 30
0.0
 10
923.9612697493149
 20
694.3630735524644
 30
0.0
 10
922.7800745835327
 20
694.8422317376271
 30
0.0
 10
921.8111760396789
 20
695.4438242826845
 30
0.0
 10
921.2712932841276
 20
695.8810533248427
 30
0.0
 10
921.1526443861562
 20
695.9771422320727
 30
0.0
  0
SPLINE
  5
2EB
330
1F
100
AcDbEntity
  8
SLD-0_0
  6
SLD-Solid
 62
   179
370
    15
100
AcDbSpline
210
0.0
220
0.0
230
1.0
 70
     8
 71
     3
 72
     9
 73
     5
 74
     0
 42
0.00000001
 43
0.00000001
 40
0.0
 40
0.0
 40
0.0
 40
0.0
 40
0.5208429124923261
 40
1.0
 40
1.0
 40
1.0
 40
1.0
 10
930.2976972916562
 20
696.19601344814
 30
0.0
 10
928.0447192131098
 20
696.5832174480627
 30
0.0
 10
923.719080859378
 20
697.326635454981
 30
0.0
 10
919.3182439109271
 20
698.2743178003859
 30
0.0
 10
917.2095516961114
 20
698.7284065128927
 30
0.0
  0
SPLINE
  5
2EC
330
1F
100
AcDbEntity
  8
SLD-0_0
  6
SLD-Solid
 62
   179
370
    15
100
AcDbSpline
210
0.0
220
0.0
230
1.0
 70
     8
 71
     3
 72
    10
 73
     6
 74
     0
 42
0.00000001
 43
0.00000001
 40
0.0
 40
0.0
 40
0.0
 40
0.0
 40
0.1150632308217988
 40
0.749354273495203
 40
1.0
 40
1.0
 40
1.0
 40
1.0
 10
917.2116966050596
 20
670.425361651457
 30
0.0
 10
917.6973801253633
 20
670.5336124105062
 30
0.0
 10
920.8604150836768
 20
671.2386001665695
 30
0.0
 10
925.0639317514473
 20
672.074265328856
 30
0.0
 10
928.71098955624
 20
672.6642086320015
 30
0.0
 10
929.7439666964442
 20
672.8313016639148
 30
0.0
  0
SPLINE
  5
2ED
330
1F
100
AcDbEntity
  8
SLD-0_0
  6
SLD-Solid
 62
   179
370
    15
100
AcDbSpline
210
0.0
220
0.0
230
1.0
 70
     8
 71
     3
 72
    11
 73
     7
 74
     0
 42
0.00000001
 43
0.00000001
 40
0.0
 40
0.0
 40
0.0
 40
0.0
 40
0.0925535171475804
 40
0.4249799083410215
 40
0.7579032427932366
 40
0.9999999999999999
 40
0.9999999999999999
 40
0.9999999999999999
 40
0.9999999999999999
 10
932.0096632168428
 20
688.56686801032
 30
0.0
 10
931.99768586642
 20
688.7940611085917
 30
0.0
 10
931.9426892175442
 20
689.8372683799611
 30
0.0
 10
931.7460016439053
 20
691.6275874836762
 30
0.0
 10
931.4559984029693
 20
693.6932430686045
 30
0.0
 10
931.2145716850998
 20
694.9048048490562
 30
0.0
 10
931.1129254533472
 20
695.4149003786868
 30
0.0
  0
SPLINE
  5
2EE
330
1F
100
AcDbEntity
  8
SLD-0_0
  6
SLD-Solid
 62
   179
370
    15
100
AcDbSpline
210
0.0
220
0.0
230
1.0
 70
     8
 71
     3
 72
    12
 73
     8
 74
     0
 42
0.00000001
 43
0.00000001
 40
0.0
 40
0.0
 40
0.0
 40
0.0
 40
0.1036834819919046
 40
0.3447565350566959
 40
0.5855730551622825
 40
0.82630520965797
 40
1.0
 40
1.0
 40
1.0
 40
1.0
 10
931.8233637872571
 20
678.4194219337163
 30
0.0
 10
931.8615239313483
 20
678.7541845019581
 30
0.0
 10
931.9884097071863
 20
679.8672989622031
 30
0.0
 10
932.1036426596095
 20
681.855460534176
 30
0.0
 10
932.1647314878323
 20
684.3284816972747
 30
0.0
 10
932.1365058403004
 20
686.5873591277641
 30
0.0
 10
932.0471246836954
 20
687.9822435018743
 30
0.0
 10
932.0096632168428
 20
688.56686801032
 30
0.0
  0
SPLINE
  5
2EF
330
1F
100
AcDbEntity
  8
SLD-0_0
  6
SLD-Solid
 62
   179
370
    15
100
AcDbSpline
210
0.0
220
0.0
230
1.0
 70
     8
 71
     3
 72
    10
 73
     6
 74
     0
 42
0.00000001
 43
0.00000001
 40
0.0
 40
0.0
 40
0.0
 40
0.0
 40
0.2502355006436104
 40
0.727969710728773
 40
0.9999999999999999
 40
0.9999999999999999
 40
0.9999999999999999
 40
0.9999999999999999
 10
931.1129254533471
 20
673.7321978723794
 30
0.0
 10
931.1867148072637
 20
674.0994803364084
 30
0.0
 10
931.4013782522477
 20
675.1679558660888
 30
0.0
 10
931.6518876902829
 20
676.7267812303627
 30
0.0
 10
931.7777120646391
 20
677.968793739787
 30
0.0
 10
931.8233637872571
 20
678.4194219337163
 30
0.0
  0
SPLINE
  5
2F0
330
1F
100
AcDbEntity
  8
SLD-0_0
  6
SLD-Solid
 62
   179
370
    15
100
AcDbSpline
210
0.0
220
0.0
230
1.0
 70
     8
 71
     3
 72
    12
 73
     8
 74
     0
 42
0.00000001
 43
0.00000001
 40
0.0
 40
0.0
 40
0.0
 40
0.0
 40
0.0486719851225319
 40
0.3517263814568855
 40
0.617107826823489
 40
0.8686349264777621
 40
0.9999999999999999
 40
0.9999999999999999
 40
0.9999999999999999
 40
0.9999999999999999
 10
917.2100721048274
 20
698.7194231041544
 30
0.0
 10
917.1752600202168
 20
698.7256309089736
 30
0.0
 10
916.9236917202953
 20
698.7704913912469
 30
0.0
 10
916.3914423926309
 20
698.9986917567433
 30
0.0
 10
915.6834671526752
 20
699.4919705052264
 30
0.0
 10
915.1298321600756
 20
700.0188122630492
 30
0.0
 10
914.8746382855857
 20
700.3867676269475
 30
0.0
 10
914.7870847537214
 20
700.513008085274
 30
0.0
  0
SPLINE
  5
2F1
330
1F
100
AcDbEntity
  8
SLD-0_0
  6
SLD-Solid
 62
   179
370
    15
100
AcDbSpline
210
0.0
220
0.0
230
1.0
 70
     8
 71
     3
 72
    11
 73
     7
 74
     0
 42
0.00000001
 43
0.00000001
 40
0.0
 40
0.0
 40
0.0
 40
0.0
 40
0.2290644720105313
 40
0.4874199847555575
 40
0.7563599612017103
 40
1.0
 40
1.0
 40
1.0
 40
1.0
 10
914.7771363858897
 20
668.6384764024621
 30
0.0
 10
914.942655736647
 20
668.8531992412326
 30
0.0
 10
915.2948598070329
 20
669.3101020593848
 30
0.0
 10
915.9512748463892
 20
669.8632074460057
 30
0.0
 10
916.6284162025751
 20
670.2699189822088
 30
0.0
 10
917.0217464376036
 20
670.3727278210846
 30
0.0
 10
917.2087045531616
 20
670.4215950198585
 30
0.0
  0
SPLINE
  5
2F2
330
1F
100
AcDbEntity
  8
SLD-0_0
  6
SLD-Solid
 62
   179
370
    15
100
AcDbSpline
210
0.0
220
0.0
230
1.0
 70
     8
 71
     3
 72
    10
 73
     6
 74
     0
 42
0.00000001
 43
0.00000001
 40
0.0
 40
0.0
 40
0.0
 40
0.0
 40
0.0832656746725155
 40
0.5575735629969231
 40
1.0
 40
1.0
 40
1.0
 40
1.0
 10
914.7760241958189
 20
700.5079571072923
 30
0.0
 10
914.7438431786799
 20
700.5495683477156
 30
0.0
 10
914.5283488053077
 20
700.8282105093848
 30
0.0
 10
914.2274844052482
 20
701.3757407457379
 30
0.0
 10
914.09676915172
 20
701.8059621718819
 30
0.0
 10
914.0336844800953
 20
702.0135919370524
 30
0.0
  0
SPLINE
  5
2F3
330
1F
100
AcDbEntity
  8
SLD-0_0
  6
SLD-Solid
 62
   179
370
    15
100
AcDbSpline
210
0.0
220
0.0
230
1.0
 70
     8
 71
     3
 72
    10
 73
     6
 74
     0
 42
0.00000001
 43
0.00000001
 40
0.0
 40
0.0
 40
0.0
 40
0.0
 40
0.1500732873330116
 40
0.6251860325040763
 40
1.0
 40
1.0
 40
1.0
 40
1.0
 10
914.0374257743813
 20
667.1363727800548
 30
0.0
 10
914.0531183219374
 20
667.2021881128317
 30
0.0
 10
914.1184914587612
 20
667.47636633274
 30
0.0
 10
914.3383944439382
 20
668.007216618089
 30
0.0
 10
914.6454523355471
 20
668.4445202694686
 30
0.0
 10
914.7808635244058
 20
668.6373692694251
 30
0.0
  0
SPLINE
  5
2F4
330
1F
100
AcDbEntity
  8
SLD-0_0
  6
SLD-Solid
 62
   179
370
    15
100
AcDbSpline
210
0.0
220
0.0
230
1.0
 70
     8
 71
     3
 72
    10
 73
     6
 74
     0
 42
0.00000001
 43
0.00000001
 40
0.0
 40
0.0
 40
0.0
 40
0.0
 40
0.2372410862995868
 40
0.6912594442807747
 40
1.0
 40
1.0
 40
1.0
 40
1.0
 10
911.168178305882
 20
906.0151059734304
 30
0.0
 10
911.0644219971488
 20
906.4258906541094
 30
0.0
 10
910.7621028270835
 20
907.6228114510695
 30
0.0
 10
910.2790801017044
 20
909.2431288770205
 30
0.0
 10
909.8602720309746
 20
910.3153784859707
 30
0.0
 10
909.6907518402901
 20
910.749391034616
 30
0.0
  0
SPLINE
  5
2F5
330
1F
100
AcDbEntity
  8
SLD-0_0
  6
SLD-Solid
 62
   179
370
    15
100
AcDbSpline
210
0.0
220
0.0
230
1.0
 70
     8
 71
     3
 72
    11
 73
     7
 74
     0
 42
0.00000001
 43
0.00000001
 40
0.0
 40
0.0
 40
0.0
 40
0.0
 40
0.0535403260859614
 40
0.5105625204413259
 40
0.9397592652824572
 40
1.0
 40
1.0
 40
1.0
 40
1.0
 10
909.6907518402901
 20
866.3739732453616
 30
0.0
 10
909.7214622201982
 20
866.4450522278166
 30
0.0
 10
910.0143175334889
 20
867.1228640210147
 30
0.0
 10
910.4865978938138
 20
868.6004809129143
 30
0.0
 10
910.931539987377
 20
870.1670657007886
 30
0.0
 10
911.14224446714
 20
871.0262433422586
 30
0.0
 10
911.168178305882
 20
871.1319922775908
 30
0.0
  0
SPLINE
  5
2F6
330
1F
100
AcDbEntity
  8
SLD-0_0
  6
SLD-Solid
 62
   179
370
    15
100
AcDbSpline
210
0.0
220
0.0
230
1.0
 70
     8
 71
     3
 72
    11
 73
     7
 74
     0
 42
0.00000001
 43
0.00000001
 40
0.0
 40
0.0
 40
0.0
 40
0.0
 40
0.2706728893344342
 40
0.5972761992792929
 40
0.9114942371263043
 40
1.0
 40
1.0
 40
1.0
 40
1.0
 10
922.1948009655795
 20
898.2690021545895
 30
0.0
 10
921.8528520355015
 20
898.2983386414808
 30
0.0
 10
921.0982956489828
 20
898.363073552442
 30
0.0
 10
919.9171004832015
 20
898.8422317376047
 30
0.0
 10
918.9482019393469
 20
899.4438242826621
 30
0.0
 10
918.4083191837959
 20
899.8810533248203
 30
0.0
 10
918.2896702858245
 20
899.9771422320501
 30
0.0
  0
SPLINE
  5
2F7
330
1F
100
AcDbEntity
  8
SLD-0_0
  6
SLD-Solid
 62
   179
370
    15
100
AcDbSpline
210
0.0
220
0.0
230
1.0
 70
     8
 71
     3
 72
    12
 73
     8
 74
     0
 42
0.00000001
 43
0.00000001
 40
0.0
 40
0.0
 40
0.0
 40
0.0
 40
0.1457385529867563
 40
0.4224065763362395
 40
0.7025645190516895
 40
0.9915723830908102
 40
1.0
 40
1.0
 40
1.0
 40
1.0
 10
918.2896702858244
 20
877.169956018971
 30
0.0
 10
918.502979940121
 20
877.3389045794156
 30
0.0
 10
919.1212336480405
 20
877.8285827155839
 30
0.0
 10
920.1359271126216
 20
878.4160603338505
 30
0.0
 10
921.3285163305534
 20
878.8048846551887
 30
0.0
 10
922.1219030003714
 20
878.9611979920435
 30
0.0
 10
922.5340040047276
 20
878.9042029282542
 30
0.0
 10
922.5456805854152
 20
878.9025880147888
 30
0.0
  0
SPLINE
  5
2F8
330
1F
100
AcDbEntity
  8
SLD-0_0
  6
SLD-Solid
 62
   179
370
    15
100
AcDbSpline
210
0.0
220
0.0
230
1.0
 70
     8
 71
     3
 72
     9
 73
     5
 74
     0
 42
0.00000001
 43
0.00000001
 40
0.0
 40
0.0
 40
0.0
 40
0.0
 40
0.520842912492285
 40
1.0
 40
1.0
 40
1.0
 40
1.0
 10
927.4347231913247
 20
900.1960134481175
 30
0.0
 10
925.1817451127786
 20
900.58321744804
 30
0.0
 10
920.8561067590468
 20
901.3266354549584
 30
0.0
 10
916.4552698105961
 20
902.2743178003635
 30
0.0
 10
914.3465775957802
 20
902.7284065128705
 30
0.0
  0
SPLINE
  5
2F9
330
1F
100
AcDbEntity
  8
SLD-0_0
  6
SLD-Solid
 62
   179
370
    15
100
AcDbSpline
210
0.0
220
0.0
230
1.0
 70
     8
 71
     3
 72
    10
 73
     6
 74
     0
 42
0.00000001
 43
0.00000001
 40
0.0
 40
0.0
 40
0.0
 40
0.0
 40
0.115063230821823
 40
0.7493542734952249
 40
1.0
 40
1.0
 40
1.0
 40
1.0
 10
914.3487225047288
 20
874.4253616514347
 30
0.0
 10
914.8344060250324
 20
874.5336124104836
 30
0.0
 10
917.9974409833453
 20
875.238600166547
 30
0.0
 10
922.200957651116
 20
876.0742653288333
 30
0.0
 10
925.8480154559081
 20
876.6642086319789
 30
0.0
 10
926.8809925961122
 20
876.8313016638922
 30
0.0
  0
SPLINE
  5
2FA
330
1F
100
AcDbEntity
  8
SLD-0_0
  6
SLD-Solid
 62
   179
370
    15
100
AcDbSpline
210
0.0
220
0.0
230
1.0
 70
     8
 71
     3
 72
    11
 73
     7
 74
     0
 42
0.00000001
 43
0.00000001
 40
0.0
 40
0.0
 40
0.0
 40
0.0
 40
0.0925535171472748
 40
0.4249799083408236
 40
0.7579032427931377
 40
1.0
 40
1.0
 40
1.0
 40
1.0
 10
929.1466891165113
 20
892.5668680103001
 30
0.0
 10
929.1347117660889
 20
892.7940611085709
 30
0.0
 10
929.0797151172131
 20
893.8372683799394
 30
0.0
 10
928.8830275435745
 20
895.6275874836537
 30
0.0
 10
928.5930243026377
 20
897.693243068582
 30
0.0
 10
928.3515975847687
 20
898.9048048490337
 30
0.0
 10
928.2499513530158
 20
899.4149003786642
 30
0.0
  0
SPLINE
  5
2FB
330
1F
100
AcDbEntity
  8
SLD-0_0
  6
SLD-Solid
 62
   179
370
    15
100
AcDbSpline
210
0.0
220
0.0
230
1.0
 70
     8
 71
     3
 72
    12
 73
     8
 74
     0
 42
0.00000001
 43
0.00000001
 40
0.0
 40
0.0
 40
0.0
 40
0.0
 40
0.1036834819918769
 40
0.3447565350566087
 40
0.585573055162138
 40
0.8263052096577665
 40
1.0
 40
1.0
 40
1.0
 40
1.0
 10
928.9603896869259
 20
882.4194219336938
 30
0.0
 10
928.9985498310172
 20
882.7541845019358
 30
0.0
 10
929.1254356068551
 20
883.8672989621806
 30
0.0
 10
929.2406685592782
 20
885.8554605341535
 30
0.0
 10
929.3017573875009
 20
888.3284816972522
 30
0.0
 10
929.2735317399691
 20
890.5873591277427
 30
0.0
 10
929.1841505833644
 20
891.9822435018535
 30
0.0
 10
929.1466891165112
 20
892.5668680103
 30
0.0
  0
SPLINE
  5
2FC
330
1F
100
AcDbEntity
  8
SLD-0_0
  6
SLD-Solid
 62
   179
370
    15
100
AcDbSpline
210
0.0
220
0.0
230
1.0
 70
     8
 71
     3
 72
    10
 73
     6
 74
     0
 42
0.00000001
 43
0.00000001
 40
0.0
 40
0.0
 40
0.0
 40
0.0
 40
0.2502355006436088
 40
0.7279697107287699
 40
1.0
 40
1.0
 40
1.0
 40
1.0
 10
928.2499513530158
 20
877.7321978723569
 30
0.0
 10
928.3237407069324
 20
878.0994803363859
 30
0.0
 10
928.5384041519164
 20
879.1679558660662
 30
0.0
 10
928.788913589952
 20
880.7267812303402
 30
0.0
 10
928.9147379643078
 20
881.9687937397646
 30
0.0
 10
928.9603896869259
 20
882.4194219336938
 30
0.0
  0
SPLINE
  5
2FD
330
1F
100
AcDbEntity
  8
SLD-0_0
  6
SLD-Solid
 62
   179
370
    15
100
AcDbSpline
210
0.0
220
0.0
230
1.0
 70
     8
 71
     3
 72
    11
 73
     7
 74
     0
 42
0.00000001
 43
0.00000001
 40
0.0
 40
0.0
 40
0.0
 40
0.0
 40
0.2290644720104751
 40
0.4874199847555168
 40
0.7563599612018884
 40
1.0
 40
1.0
 40
1.0
 40
1.0
 10
911.9141622855587
 20
872.6384764024398
 30
0.0
 10
912.0796816363161
 20
872.8531992412102
 30
0.0
 10
912.4318857067019
 20
873.3101020593624
 30
0.0
 10
913.0883007460579
 20
873.8632074459833
 30
0.0
 10
913.7654421022443
 20
874.2699189821863
 30
0.0
 10
914.1587723372728
 20
874.3727278210621
 30
0.0
 10
914.3457304528306
 20
874.4215950198361
 30
0.0
  0
SPLINE
  5
2FE
330
1F
100
AcDbEntity
  8
SLD-0_0
  6
SLD-Solid
 62
   179
370
    15
100
AcDbSpline
210
0.0
220
0.0
230
1.0
 70
     8
 71
     3
 72
    12
 73
     8
 74
     0
 42
0.00000001
 43
0.00000001
 40
0.0
 40
0.0
 40
0.0
 40
0.0
 40
0.0486719851225668
 40
0.3517263814571184
 40
0.6171078268237842
 40
0.8686349264781197
 40
1.0
 40
1.0
 40
1.0
 40
1.0
 10
914.3470980044963
 20
902.719423104132
 30
0.0
 10
914.3122859198857
 20
902.7256309089511
 30
0.0
 10
914.060717619964
 20
902.7704913912245
 30
0.0
 10
913.5284682922993
 20
902.9986917567212
 30
0.0
 10
912.8204930523436
 20
903.4919705052044
 30
0.0
 10
912.266858059744
 20
904.0188122630273
 30
0.0
 10
912.0116641852543
 20
904.3867676269253
 30
0.0
 10
911.9241106533904
 20
904.5130080852515
 30
0.0
  0
SPLINE
  5
2FF
330
1F
100
AcDbEntity
  8
SLD-0_0
  6
SLD-Solid
 62
   179
370
    15
100
AcDbSpline
210
0.0
220
0.0
230
1.0
 70
     8
 71
     3
 72
    10
 73
     6
 74
     0
 42
0.00000001
 43
0.00000001
 40
0.0
 40
0.0
 40
0.0
 40
0.0
 40
0.0832656746725577
 40
0.5575735629971688
 40
1.0
 40
1.0
 40
1.0
 40
1.0
 10
911.9130500954877
 20
904.5079571072698
 30
0.0
 10
911.8808690783488
 20
904.5495683476931
 30
0.0
 10
911.6653747049767
 20
904.8282105093625
 30
0.0
 10
911.3645103049168
 20
905.3757407457152
 30
0.0
 10
911.2337950513889
 20
905.8059621718596
 30
0.0
 10
911.1707103797642
 20
906.0135919370298
 30
0.0
  0
SPLINE
  5
300
330
1F
100
AcDbEntity
  8
SLD-0_0
  6
SLD-Solid
 62
   179
370
    15
100
AcDbSpline
210
0.0
220
0.0
230
1.0
 70
     8
 71
     3
 72
    10
 73
     6
 74
     0
 42
0.00000001
 43
0.00000001
 40
0.0
 40
0.0
 40
0.0
 40
0.0
 40
0.1500732873331719
 40
0.6251860325044235
 40
1.0
 40
1.0
 40
1.0
 40
1.0
 10
911.1744516740503
 20
871.1363727800324
 30
0.0
 10
911.1901442216064
 20
871.2021881128094
 30
0.0
 10
911.2555173584302
 20
871.4763663327178
 30
0.0
 10
911.4754203436073
 20
872.0072166180669
 30
0.0
 10
911.7824782352162
 20
872.4445202694466
 30
0.0
 10
911.9178894240748
 20
872.6373692694026
 30
0.0
  0
SPLINE
  5
301
330
1F
100
AcDbEntity
  8
SLD-0_0
  6
SLD-Solid
 62
   179
370
    15
100
AcDbSpline
210
0.0
220
0.0
230
1.0
 70
     8
 71
     3
 72
    13
 73
     9
 74
     0
 42
0.00000001
 43
0.00000001
 40
0.0
 40
0.0
 40
0.0
 40
0.0
 40
0.1695411050602019
 40
0.3386458383077655
 40
0.5184804584270916
 40
0.7277236211489915
 40
0.9924537768856495
 40
1.0
 40
1.0
 40
1.0
 40
1.0
 10
133.4739433418146
 20
1157.304554380177
 30
0.0
 10
133.449332194528
 20
1157.305257183572
 30
0.0
 10
133.4001732451295
 20
1157.306660981459
 30
0.0
 10
133.334037451749
 20
1157.31729890715
 30
0.0
 10
133.278365848645
 20
1157.33329157148
 30
0.0
 10
133.2356470693723
 20
1157.356167816559
 30
0.0
 10
133.2240614097604
 20
1157.374632415746
 30
0.0
 10
133.2239465258572
 20
1157.384924758384
 30
0.0
 10
133.2239433418146
 20
1157.385210013809
 30
0.0
  0
SPLINE
  5
302
330
1F
100
AcDbEntity
  8
SLD-0_0
  6
SLD-Solid
 62
   179
370
    15
100
AcDbSpline
210
0.0
220
0.0
230
1.0
 70
     8
 71
     3
 72
    13
 73
     9
 74
     0
 42
0.00000001
 43
0.00000001
 40
0.0
 40
0.0
 40
0.0
 40
0.0
 40
0.0075462231143529
 40
0.2722763788514414
 40
0.4815195415731319
 40
0.6613541616924049
 40
0.8304588949396738
 40
1.0
 40
1.0
 40
1.0
 40
1.0
 10
134.4239433418146
 20
1157.385210013809
 30
0.0
 10
134.4239401577721
 20
1157.384924758384
 30
0.0
 10
134.4238252738688
 20
1157.374632415745
 30
0.0
 10
134.4122396142569
 20
1157.356167816559
 30
0.0
 10
134.3695208349841
 20
1157.33329157148
 30
0.0
 10
134.3138492318803
 20
1157.31729890715
 30
0.0
 10
134.2477134384996
 20
1157.306660981459
 30
0.0
 10
134.1985544891013
 20
1157.305257183572
 30
0.0
 10
134.1739433418147
 20
1157.304554380177
 30
0.0
  0
SPLINE
  5
303
330
1F
100
AcDbEntity
  8
SLD-0_0
  6
SLD-Solid
 62
   179
370
    15
100
AcDbSpline
210
0.0
220
0.0
230
1.0
 70
     8
 71
     3
 72
    12
 73
     8
 74
     0
 42
0.00000001
 43
0.00000001
 40
0.0
 40
0.0
 40
0.0
 40
0.0
 40
0.2289440738516321
 40
0.4594214300242128
 40
0.6825355698158015
 40
0.8947175231628479
 40
1.0
 40
1.0
 40
1.0
 40
1.0
 10
134.4239433418146
 20
1162.172676494333
 30
0.0
 10
134.4066088572371
 20
1162.294487408697
 30
0.0
 10
134.3718237957181
 20
1162.538925028454
 30
0.0
 10
134.0979539499052
 20
1162.858864789848
 30
0.0
 10
133.7009174154227
 20
1163.088311280342
 30
0.0
 10
133.3000414260698
 20
1163.191057489714
 30
0.0
 10
133.0551560329827
 20
1163.199795822969
 30
0.0
 10
132.9739433418146
 20
1163.202693764536
 30
0.0
  0
SPLINE
  5
304
330
1F
100
AcDbEntity
  8
SLD-0_0
  6
SLD-Solid
 62
   179
370
    15
100
AcDbSpline
210
0.0
220
0.0
230
1.0
 70
     8
 71
     3
 72
    13
 73
     9
 74
     0
 42
0.00000001
 43
0.00000001
 40
0.0
 40
0.0
 40
0.0
 40
0.0
 40
0.1695411050602356
 40
0.338645838307739
 40
0.5184804584269643
 40
0.7277236211485754
 40
0.9924537768854491
 40
1.0
 40
1.0
 40
1.0
 40
1.0
 10
132.2739433418146
 20
1151.02995358232
 30
0.0
 10
132.2493321945279
 20
1151.029503591084
 30
0.0
 10
132.2001732451295
 20
1151.028604766817
 30
0.0
 10
132.1340374517489
 20
1151.02180562469
 30
0.0
 10
132.0783658486448
 20
1151.011619933078
 30
0.0
 10
132.0356470693729
 20
1150.997122418301
 30
0.0
 10
132.0240614097588
 20
1150.985507459868
 30
0.0
 10
132.0239465258572
 20
1150.979064234682
 30
0.0
 10
132.0239433418145
 20
1150.978885658725
 30
0.0
  0
SPLINE
  5
305
330
1F
100
AcDbEntity
  8
SLD-0_0
  6
SLD-Solid
 62
   179
370
    15
100
AcDbSpline
210
0.0
220
0.0
230
1.0
 70
     8
 71
     3
 72
    13
 73
     9
 74
     0
 42
0.00000001
 43
0.00000001
 40
0.0
 40
0.0
 40
0.0
 40
0.0
 40
0.0075462231145102
 40
0.2722763788513297
 40
0.48151954157298
 40
0.6613541616921793
 40
0.8304588949397546
 40
1.0
 40
1.0
 40
1.0
 40
1.0
 10
133.2239433418145
 20
1150.978885658725
 30
0.0
 10
133.2239401577721
 20
1150.979064234682
 30
0.0
 10
133.2238252738687
 20
1150.98550745987
 30
0.0
 10
133.2122396142566
 20
1150.9971224183
 30
0.0
 10
133.1695208349846
 20
1151.011619933078
 30
0.0
 10
133.1138492318801
 20
1151.02180562469
 30
0.0
 10
133.0477134384997
 20
1151.028604766817
 30
0.0
 10
132.9985544891012
 20
1151.029503591084
 30
0.0
 10
132.9739433418146
 20
1151.02995358232
 30
0.0
  0
SPLINE
  5
306
330
1F
100
AcDbEntity
  8
SLD-0_0
  6
SLD-Solid
 62
   179
370
    15
100
AcDbSpline
210
0.0
220
0.0
230
1.0
 70
     8
 71
     3
 72
    12
 73
     8
 74
     0
 42
0.00000001
 43
0.00000001
 40
0.0
 40
0.0
 40
0.0
 40
0.0
 40
0.2289440738516287
 40
0.4594214300241531
 40
0.6825355698158297
 40
0.8947175231628789
 40
1.0
 40
1.0
 40
1.0
 40
1.0
 10
132.0239433418146
 20
1146.578627178643
 30
0.0
 10
132.0412778263921
 20
1146.444535162024
 30
0.0
 10
132.0760628879113
 20
1146.175453088862
 30
0.0
 10
132.3499327337237
 20
1145.82284603342
 30
0.0
 10
132.7469692682065
 20
1145.569836464752
 30
0.0
 10
133.1478452575592
 20
1145.456493619887
 30
0.0
 10
133.3927306506463
 20
1145.446853965307
 30
0.0
 10
133.4739433418145
 20
1145.443657113585
 30
0.0
  0
SPLINE
  5
307
330
1F
100
AcDbEntity
  8
SLD-0_0
  6
SLD-Solid
 62
   179
370
    15
100
AcDbSpline
210
0.0
220
0.0
230
1.0
 70
     8
 71
     3
 72
    11
 73
     7
 74
     0
 42
0.00000001
 43
0.00000001
 40
0.0
 40
0.0
 40
0.0
 40
0.0
 40
0.0449088511989132
 40
0.4391056468596584
 40
0.8139875175674799
 40
1.0
 40
1.0
 40
1.0
 40
1.0
 10
132.3467691171145
 20
1163.273549125557
 30
0.0
 10
132.3561636242561
 20
1163.28652933493
 30
0.0
 10
132.4480203746563
 20
1163.413446035774
 30
0.0
 10
132.7570078536153
 20
1163.572588251508
 30
0.0
 10
133.1467645321797
 20
1163.691107770616
 30
0.0
 10
133.3924615027405
 20
1163.70036958953
 30
0.0
 10
133.4739433418147
 20
1163.703441137529
 30
0.0
  0
SPLINE
  5
308
330
1F
100
AcDbEntity
  8
SLD-0_0
  6
SLD-Solid
 62
   179
370
    15
100
AcDbSpline
210
0.0
220
0.0
230
1.0
 70
     8
 71
     3
 72
     9
 73
     5
 74
     0
 42
0.00000001
 43
0.00000001
 40
0.0
 40
0.0
 40
0.0
 40
0.0
 40
0.0702005767034209
 40
1.0
 40
1.0
 40
1.0
 40
1.0
 10
139.8739433418146
 20
1152.924781652441
 30
0.0
 10
139.8743894580822
 20
1152.860176227909
 30
0.0
 10
139.8807443384635
 20
1151.939878595523
 30
0.0
 10
140.1086338203584
 20
1151.038031591502
 30
0.0
 10
140.3205253291999
 20
1150.199494767261
 30
0.0
  0
SPLINE
  5
309
330
1F
100
AcDbEntity
  8
SLD-0_0
  6
SLD-Solid
 62
   179
370
    15
100
AcDbSpline
210
0.0
220
0.0
230
1.0
 70
     8
 71
     3
 72
     9
 73
     5
 74
     0
 42
0.00000001
 43
0.00000001
 40
0.0
 40
0.0
 40
0.0
 40
0.0
 40
0.0702005767034176
 40
1.0
 40
1.0
 40
1.0
 40
1.0
 10
139.8739433418146
 20
1157.837095716768
 30
0.0
 10
139.8743894580822
 20
1157.785250232118
 30
0.0
 10
139.880744338463
 20
1157.046716631903
 30
0.0
 10
140.1086338203582
 20
1156.322989555699
 30
0.0
 10
140.3205253291999
 20
1155.65006853762
 30
0.0
  0
SPLINE
  5
30A
330
1F
100
AcDbEntity
  8
SLD-0_0
  6
SLD-Solid
 62
   179
370
    15
100
AcDbSpline
210
0.0
220
0.0
230
1.0
 70
     8
 71
     3
 72
     9
 73
     5
 74
     0
 42
0.00000001
 43
0.00000001
 40
0.0
 40
0.0
 40
0.0
 40
0.0
 40
0.2686336050555825
 40
0.9999999999999999
 40
0.9999999999999999
 40
0.9999999999999999
 40
0.9999999999999999
 10
139.8739433418146
 20
1149.66123506123
 30
0.0
 10
139.880572294399
 20
1149.710177930005
 30
0.0
 10
139.9052488518354
 20
1149.892369836952
 30
0.0
 10
140.1451036154354
 20
1150.069758592565
 30
0.0
 10
140.3205253291998
 20
1150.199494767262
 30
0.0
  0
SPLINE
  5
30B
330
1F
100
AcDbEntity
  8
SLD-0_0
  6
SLD-Solid
 62
   179
370
    15
100
AcDbSpline
210
0.0
220
0.0
230
1.0
 70
     8
 71
     3
 72
     9
 73
     5
 74
     0
 42
0.00000001
 43
0.00000001
 40
0.0
 40
0.0
 40
0.0
 40
0.0
 40
0.2686336050555482
 40
1.0
 40
1.0
 40
1.0
 40
1.0
 10
139.8739433418146
 20
1159.485863189884
 30
0.0
 10
139.8805722943991
 20
1159.534806058659
 30
0.0
 10
139.9052488518352
 20
1159.716997965606
 30
0.0
 10
140.1451036154354
 20
1159.894386721219
 30
0.0
 10
140.3205253291999
 20
1160.024122895916
 30
0.0
  0
SPLINE
  5
30C
330
1F
100
AcDbEntity
  8
SLD-0_0
  6
SLD-Solid
 62
   179
370
    15
100
AcDbSpline
210
0.0
220
0.0
230
1.0
 70
     8
 71
     3
 72
     9
 73
     5
 74
     0
 42
0.00000001
 43
0.00000001
 40
0.0
 40
0.0
 40
0.0
 40
0.0
 40
0.257551345103846
 40
1.0
 40
1.0
 40
1.0
 40
1.0
 10
140.3205253291999
 20
1149.122975355198
 30
0.0
 10
140.2531101064249
 20
1149.168163192707
 30
0.0
 10
139.991355609481
 20
1149.343614955501
 30
0.0
 10
139.9239721216885
 20
1149.525898723138
 30
0.0
 10
139.8739433418146
 20
1149.66123506123
 30
0.0
  0
SPLINE
  5
30D
330
1F
100
AcDbEntity
  8
SLD-0_0
  6
SLD-Solid
 62
   179
370
    15
100
AcDbSpline
210
0.0
220
0.0
230
1.0
 70
     8
 71
     3
 72
     9
 73
     5
 74
     0
 42
0.00000001
 43
0.00000001
 40
0.0
 40
0.0
 40
0.0
 40
0.0
 40
0.0702005767034138
 40
1.0
 40
1.0
 40
1.0
 40
1.0
 10
132.0239433418146
 20
1153.959426341931
 30
0.0
 10
132.0234972255471
 20
1153.891511402299
 30
0.0
 10
132.0171423451663
 20
1152.924070067471
 30
0.0
 10
131.7892528632711
 20
1151.97602452364
 30
0.0
 10
131.5773613544294
 20
1151.094532323726
 30
0.0
  0
SPLINE
  5
30E
330
1F
100
AcDbEntity
  8
SLD-0_0
  6
SLD-Solid
 62
   179
370
    15
100
AcDbSpline
210
0.0
220
0.0
230
1.0
 70
     8
 71
     3
 72
     9
 73
     5
 74
     0
 42
0.00000001
 43
0.00000001
 40
0.0
 40
0.0
 40
0.0
 40
0.0
 40
0.0702005767034136
 40
1.0
 40
1.0
 40
1.0
 40
1.0
 10
126.8239433418146
 20
1153.959426341931
 30
0.0
 10
126.8243894580822
 20
1153.891511402299
 30
0.0
 10
126.8307443384624
 20
1152.924070067471
 30
0.0
 10
127.0586338203579
 20
1151.97602452364
 30
0.0
 10
127.2705253291998
 20
1151.094532323726
 30
0.0
  0
SPLINE
  5
30F
330
1F
100
AcDbEntity
  8
SLD-0_0
  6
SLD-Solid
 62
   179
370
    15
100
AcDbSpline
210
0.0
220
0.0
230
1.0
 70
     8
 71
     3
 72
     9
 73
     5
 74
     0
 42
0.00000001
 43
0.00000001
 40
0.0
 40
0.0
 40
0.0
 40
0.0
 40
0.2686336050555471
 40
1.0
 40
1.0
 40
1.0
 40
1.0
 10
126.8239433418146
 20
1158.56382876105
 30
0.0
 10
126.8305722943991
 20
1158.405658772763
 30
0.0
 10
126.8552488518354
 20
1157.816864276052
 30
0.0
 10
127.0951036154355
 20
1157.243592252976
 30
0.0
 10
127.2705253291999
 20
1156.824320360135
 30
0.0
  0
SPLINE
  5
310
330
1F
100
AcDbEntity
  8
SLD-0_0
  6
SLD-Solid
 62
   179
370
    15
100
AcDbSpline
210
0.0
220
0.0
230
1.0
 70
     8
 71
     3
 72
     9
 73
     5
 74
     0
 42
0.00000001
 43
0.00000001
 40
0.0
 40
0.0
 40
0.0
 40
0.0
 40
0.2575513451038339
 40
1.0
 40
1.0
 40
1.0
 40
1.0
 10
127.2705253291999
 20
1160.303337161966
 30
0.0
 10
127.2031101064249
 20
1160.15730240944
 30
0.0
 10
126.9413556094811
 20
1159.590290218268
 30
0.0
 10
126.8739721216884
 20
1159.001198852888
 30
0.0
 10
126.8239433418146
 20
1158.56382876105
 30
0.0
  0
SPLINE
  5
311
330
1F
100
AcDbEntity
  8
SLD-0_0
  6
SLD-Solid
 62
   179
370
    15
100
AcDbSpline
210
0.0
220
0.0
230
1.0
 70
     8
 71
     3
 72
     9
 73
     5
 74
     0
 42
0.00000001
 43
0.00000001
 40
0.0
 40
0.0
 40
0.0
 40
0.0
 40
0.0702005767034331
 40
1.0
 40
1.0
 40
1.0
 40
1.0
 10
126.8239433418146
 20
1149.969146706437
 30
0.0
 10
126.8243894580822
 20
1149.942468408471
 30
0.0
 10
126.8307443384623
 20
1149.562438795902
 30
0.0
 10
127.058633820358
 20
1149.190028224069
 30
0.0
 10
127.2705253291999
 20
1148.843761089148
 30
0.0
  0
SPLINE
  5
312
330
1F
100
AcDbEntity
  8
SLD-0_0
  6
SLD-Solid
 62
   179
370
    15
100
AcDbSpline
210
0.0
220
0.0
230
1.0
 70
     8
 71
     3
 72
     9
 73
     5
 74
     0
 42
0.00000001
 43
0.00000001
 40
0.0
 40
0.0
 40
0.0
 40
0.0
 40
0.070200576703428
 40
1.0
 40
1.0
 40
1.0
 40
1.0
 10
139.6239433418146
 20
1155.641834057771
 30
0.0
 10
139.6234972255469
 20
1155.574981176157
 30
0.0
 10
139.6171423451674
 20
1154.622668748637
 30
0.0
 10
139.3892528632715
 20
1153.689448799537
 30
0.0
 10
139.1773613544294
 20
1152.821741429055
 30
0.0
  0
SPLINE
  5
313
330
1F
100
AcDbEntity
  8
SLD-0_0
  6
SLD-Solid
 62
   179
370
    15
100
AcDbSpline
210
0.0
220
0.0
230
1.0
 70
     8
 71
     3
 72
     9
 73
     5
 74
     0
 42
0.00000001
 43
0.00000001
 40
0.0
 40
0.0
 40
0.0
 40
0.0
 40
0.0702005767034277
 40
1.0
 40
1.0
 40
1.0
 40
1.0
 10
134.4239433418146
 20
1155.641834057771
 30
0.0
 10
134.4243894580822
 20
1155.574981176157
 30
0.0
 10
134.4307443384626
 20
1154.622668748637
 30
0.0
 10
134.6586338203581
 20
1153.689448799537
 30
0.0
 10
134.8705253291999
 20
1152.821741429055
 30
0.0
  0
SPLINE
  5
314
330
1F
100
AcDbEntity
  8
SLD-0_0
  6
SLD-Solid
 62
   179
370
    15
100
AcDbSpline
210
0.0
220
0.0
230
1.0
 70
     8
 71
     3
 72
     9
 73
     5
 74
     0
 42
0.00000001
 43
0.00000001
 40
0.0
 40
0.0
 40
0.0
 40
0.0
 40
0.2686336050555571
 40
1.0
 40
1.0
 40
1.0
 40
1.0
 10
134.4239433418146
 20
1159.337830534737
 30
0.0
 10
134.4305722943992
 20
1159.25818636553
 30
0.0
 10
134.4552488518354
 20
1158.961707564263
 30
0.0
 10
134.6951036154355
 20
1158.67304487609
 30
0.0
 10
134.8705253291998
 20
1158.461926686486
 30
0.0
  0
SPLINE
  5
315
330
1F
100
AcDbEntity
  8
SLD-0_0
  6
SLD-Solid
 62
   179
370
    15
100
AcDbSpline
210
0.0
220
0.0
230
1.0
 70
     8
 71
     3
 72
     9
 73
     5
 74
     0
 42
0.00000001
 43
0.00000001
 40
0.0
 40
0.0
 40
0.0
 40
0.0
 40
0.2686336050555557
 40
0.9999999999999999
 40
0.9999999999999999
 40
0.9999999999999999
 40
0.9999999999999999
 10
139.6239433418146
 20
1159.337830534737
 30
0.0
 10
139.6173143892301
 20
1159.25818636553
 30
0.0
 10
139.592637831794
 20
1158.961707564263
 30
0.0
 10
139.3527830681939
 20
1158.67304487609
 30
0.0
 10
139.1773613544294
 20
1158.461926686486
 30
0.0
  0
SPLINE
  5
316
330
1F
100
AcDbEntity
  8
SLD-0_0
  6
SLD-Solid
 62
   179
370
    15
100
AcDbSpline
210
0.0
220
0.0
230
1.0
 70
     8
 71
     3
 72
     9
 73
     5
 74
     0
 42
0.00000001
 43
0.00000001
 40
0.0
 40
0.0
 40
0.0
 40
0.0
 40
0.0702005767034305
 40
1.0
 40
1.0
 40
1.0
 40
1.0
 10
139.6239433418146
 20
1150.877552648591
 30
0.0
 10
139.6234972255471
 20
1150.831463870849
 30
0.0
 10
139.6171423451664
 20
1150.174933968878
 30
0.0
 10
139.3892528632711
 20
1149.531566536095
 30
0.0
 10
139.1773613544294
 20
1148.933363868126
 30
0.0
  0
SPLINE
  5
317
330
1F
100
AcDbEntity
  8
SLD-0_0
  6
SLD-Solid
 62
   179
370
    15
100
AcDbSpline
210
0.0
220
0.0
230
1.0
 70
     8
 71
     3
 72
     9
 73
     5
 74
     0
 42
0.00000001
 43
0.00000001
 40
0.0
 40
0.0
 40
0.0
 40
0.0
 40
0.5278771639355675
 40
1.0
 40
1.0
 40
1.0
 40
1.0
 10
134.4239433418146
 20
1150.877552648591
 30
0.0
 10
134.4220168845025
 20
1150.831322904488
 30
0.0
 10
134.4183674420873
 20
1150.74374619676
 30
0.0
 10
134.4441791278448
 20
1150.657919920743
 30
0.0
 10
134.4563654141282
 20
1150.617399375901
 30
0.0
  0
SPLINE
  5
318
330
1F
100
AcDbEntity
  8
SLD-0_0
  6
SLD-Solid
 62
   179
370
    15
100
AcDbSpline
210
0.0
220
0.0
230
1.0
 70
     8
 71
     3
 72
     9
 73
     5
 74
     0
 42
0.00000001
 43
0.00000001
 40
0.0
 40
0.0
 40
0.0
 40
0.0
 40
0.2575513451038307
 40
1.0
 40
1.0
 40
1.0
 40
1.0
 10
139.1773613544294
 20
1160.213734382988
 30
0.0
 10
139.2447765772042
 20
1160.140200733108
 30
0.0
 10
139.5065310741481
 20
1159.854690091141
 30
0.0
 10
139.5739145619408
 20
1159.558061806025
 30
0.0
 10
139.6239433418146
 20
1159.337830534737
 30
0.0
  0
SPLINE
  5
319
330
1F
100
AcDbEntity
  8
SLD-0_0
  6
SLD-Solid
 62
   179
370
    15
100
AcDbSpline
210
0.0
220
0.0
230
1.0
 70
     8
 71
     3
 72
     9
 73
     5
 74
     0
 42
0.00000001
 43
0.00000001
 40
0.0
 40
0.0
 40
0.0
 40
0.0
 40
0.556934211049311
 40
1.0
 40
1.0
 40
1.0
 40
1.0
 10
134.8705253291999
 20
1160.213734382988
 30
0.0
 10
134.7981143529555
 20
1160.140486480476
 30
0.0
 10
134.6680972435596
 20
1160.008966632964
 30
0.0
 10
134.627966001943
 20
1159.872305488884
 30
0.0
 10
134.6101852217144
 20
1159.811755611263
 30
0.0
  0
SPLINE
  5
31A
330
1F
100
AcDbEntity
  8
SLD-0_0
  6
SLD-Solid
 62
   179
370
    15
100
AcDbSpline
210
0.0
220
0.0
230
1.0
 70
     8
 71
     3
 72
    10
 73
     6
 74
     0
 42
0.00000001
 43
0.00000001
 40
0.0
 40
0.0
 40
0.0
 40
0.0
 40
0.3969791299516883
 40
0.7939732757779951
 40
0.9999999999999999
 40
0.9999999999999999
 40
0.9999999999999999
 40
0.9999999999999999
 10
409.3242074139498
 20
792.8514402134504
 30
0.0
 10
409.3281956452067
 20
792.7391810072069
 30
0.0
 10
409.3361722585767
 20
792.5146583484761
 30
0.0
 10
409.4622162759703
 20
792.2527084636627
 30
0.0
 10
409.5753184543057
 20
792.1266132005417
 30
0.0
 10
409.6139606845538
 20
792.0835317828146
 30
0.0
  0
SPLINE
  5
31B
330
1F
100
AcDbEntity
  8
SLD-0_0
  6
SLD-Solid
 62
   179
370
    15
100
AcDbSpline
210
0.0
220
0.0
230
1.0
 70
     8
 71
     3
 72
    10
 73
     6
 74
     0
 42
0.00000001
 43
0.00000001
 40
0.0
 40
0.0
 40
0.0
 40
0.0
 40
0.3969497910923673
 40
0.7939145957061711
 40
1.0
 40
1.0
 40
1.0
 40
1.0
 10
409.6139606845538
 20
781.0635664682875
 30
0.0
 10
409.5428009092074
 20
780.9766617336344
 30
0.0
 10
409.4004786670939
 20
780.8028489773982
 30
0.0
 10
409.3220487580581
 20
780.522932968138
 30
0.0
 10
409.3236576081263
 20
780.3535445589849
 30
0.0
 10
409.3242074139498
 20
780.2956580376517
 30
0.0
  0
SPLINE
  5
31C
330
1F
100
AcDbEntity
  8
SLD-0_0
  6
SLD-Solid
 62
   179
370
    15
100
AcDbSpline
210
0.0
220
0.0
230
1.0
 70
     8
 71
     3
 72
    13
 73
     9
 74
     0
 42
0.00000001
 43
0.00000001
 40
0.0
 40
0.0
 40
0.0
 40
0.0
 40
0.0034651228298786
 40
0.1356181231150162
 40
0.3674814198403262
 40
0.5835355152091461
 40
0.7916178383902677
 40
1.0
 40
1.0
 40
1.0
 40
1.0
 10
345.3804277042799
 20
790.5586828224341
 30
0.0
 10
345.377167704529
 20
790.5601125101148
 30
0.0
 10
345.2495776971104
 20
790.6160676867177
 30
0.0
 10
344.9037522374704
 20
790.7678327939054
 30
0.0
 10
344.3782610833234
 20
790.9988642614445
 30
0.0
 10
343.8817962851755
 20
791.2175618838048
 30
0.0
 10
343.5260561290234
 20
791.3745050346092
 30
0.0
 10
343.44921325581
 20
791.408434747354
 30
0.0
 10
343.4107641572451
 20
791.4254118177713
 30
0.0
  0
SPLINE
  5
31D
330
1F
100
AcDbEntity
  8
SLD-0_0
  6
SLD-Solid
 62
   179
370
    15
100
AcDbSpline
210
0.0
220
0.0
230
1.0
 70
    24
 71
     3
 72
    12
 73
     8
 74
     0
 42
0.00000001
 43
0.00000001
 40
0.0
 40
0.0
 40
0.0
 40
0.0
 40
0.3612278208368409
 40
0.6064166429662238
 40
0.7868321289235366
 40
0.9291692035023236
 40
0.9999999999999999
 40
0.9999999999999999
 40
0.9999999999999999
 40
0.9999999999999999
 10
341.2605474367019
 20
786.5735491255516
 30
0.0
 10
340.8094269665377
 20
786.5735491255516
 30
0.0
 10
340.0521016850669
 20
786.5735491255516
 30
0.0
 10
339.1691561431908
 20
786.5735491255516
 30
0.0
 10
338.6654902722391
 20
786.5735491255516
 30
0.0
 10
338.4401444068785
 20
786.5735491255516
 30
0.0
 10
338.401926550559
 20
786.5735491255516
 30
0.0
 10
338.389227633082
 20
786.5735491255516
 30
0.0
  0
SPLINE
  5
31E
330
1F
100
AcDbEntity
  8
SLD-0_0
  6
SLD-Solid
 62
   179
370
    15
100
AcDbSpline
210
0.0
220
0.0
230
1.0
 70
     8
 71
     3
 72
    13
 73
     9
 74
     0
 42
0.00000001
 43
0.00000001
 40
0.0
 40
0.0
 40
0.0
 40
0.0
 40
0.2083821616097159
 40
0.4164644847908377
 40
0.6325185801596341
 40
0.8643818768849797
 40
0.99653487716365
 40
1.0
 40
1.0
 40
1.0
 40
1.0
 10
343.4107641572452
 20
781.7216864333324
 30
0.0
 10
343.4492132558103
 20
781.7386635037494
 30
0.0
 10
343.5260561290235
 20
781.772593216494
 30
0.0
 10
343.8817962851751
 20
781.9295363672995
 30
0.0
 10
344.3782610833243
 20
782.1482339896567
 30
0.0
 10
344.9037522374614
 20
782.3792654572044
 30
0.0
 10
345.2495776971081
 20
782.5310305643729
 30
0.0
 10
345.3771677045232
 20
782.5869857409858
 30
0.0
 10
345.3804277042799
 20
782.5884154286696
 30
0.0
  0
SPLINE
  5
31F
330
1F
100
AcDbEntity
  8
SLD-0_0
  6
SLD-Solid
 62
   179
370
    15
100
AcDbSpline
210
0.0
220
0.0
230
1.0
 70
    24
 71
     3
 72
    12
 73
     8
 74
     0
 42
0.00000001
 43
0.00000001
 40
0.0
 40
0.0
 40
0.0
 40
0.0
 40
0.1473141588090801
 40
0.2937139333292342
 40
0.5123512595845316
 40
0.818939190973632
 40
1.0
 40
1.0
 40
1.0
 40
1.0
 10
338.389227633082
 20
786.5735491255517
 30
0.0
 10
338.4267891829096
 20
786.5735491255517
 30
0.0
 10
338.5016791366722
 20
786.5735491255517
 30
0.0
 10
338.8941872875126
 20
786.5735491255517
 30
0.0
 10
339.5765155919219
 20
786.5735491255517
 30
0.0
 10
340.4303550047491
 20
786.5735491255517
 30
0.0
 10
341.0357632781649
 20
786.5735491255517
 30
0.0
 10
341.2605474367019
 20
786.5735491255517
 30
0.0
  0
SPLINE
  5
320
330
1F
100
AcDbEntity
  8
SLD-0_0
  6
SLD-Solid
 62
   179
370
    15
100
AcDbSpline
210
0.0
220
0.0
230
1.0
 70
     8
 71
     3
 72
    14
 73
    10
 74
     0
 42
0.00000001
 43
0.00000001
 40
0.0
 40
0.0
 40
0.0
 40
0.0
 40
0.0450030444518066
 40
0.192454738373621
 40
0.4101035079916923
 40
0.6281156181475029
 40
0.8446514255152227
 40
0.9597621009663755
 40
1.0
 40
1.0
 40
1.0
 40
1.0
 10
918.484916947864
 20
684.0409533142416
 30
0.0
 10
918.4722852122064
 20
684.0210102827465
 30
0.0
 10
918.4182658139457
 20
683.9357242547563
 30
0.0
 10
918.3873636598018
 20
683.7197700712801
 30
0.0
 10
918.3445213240755
 20
683.4495872241675
 30
0.0
 10
918.3097459418645
 20
683.2140258475698
 30
0.0
 10
918.2648503304476
 20
683.1015043378592
 30
0.0
 10
918.1998837026101
 20
683.074974177891
 30
0.0
 10
918.1518997323368
 20
683.0738423007812
 30
0.0
 10
918.1394710753152
 20
683.0735491255331
 30
0.0
  0
SPLINE
  5
321
330
1F
100
AcDbEntity
  8
SLD-0_0
  6
SLD-Solid
 62
   179
370
    15
100
AcDbSpline
210
0.0
220
0.0
230
1.0
 70
     8
 71
     3
 72
    15
 73
    11
 74
     0
 42
0.00000001
 43
0.00000001
 40
0.0
 40
0.0
 40
0.0
 40
0.0
 40
0.0802877089726438
 40
0.2296499816479314
 40
0.4389296531616811
 40
0.6497324503840601
 40
0.8665139245761625
 40
0.9462885555629182
 40
0.9895230058022302
 40
1.0
 40
1.0
 40
1.0
 40
1.0
 10
918.1394710753152
 20
686.073549125533
 30
0.0
 10
918.1625790038493
 20
686.0723504902741
 30
0.0
 10
918.2286754889981
 20
686.0689219883434
 30
0.0
 10
918.2808827197579
 20
686.0161357820189
 30
0.0
 10
918.3214503036072
 20
685.8689830619638
 30
0.0
 10
918.356851366757
 20
685.6169079625711
 30
0.0
 10
918.3912236801481
 20
685.3668726273472
 30
0.0
 10
918.4357581102441
 20
685.1972658017141
 30
0.0
 10
918.4629042467001
 20
685.1315043848424
 30
0.0
 10
918.4813239808036
 20
685.1102841680155
 30
0.0
 10
918.4849169478024
 20
685.1061449367792
 30
0.0
  0
SPLINE
  5
322
330
1F
100
AcDbEntity
  8
SLD-0_0
  6
SLD-Solid
 62
   179
370
    15
100
AcDbSpline
210
0.0
220
0.0
230
1.0
 70
     8
 71
     3
 72
     9
 73
     5
 74
     0
 42
0.00000001
 43
0.00000001
 40
0.0
 40
0.0
 40
0.0
 40
0.0
 40
0.0100571288765818
 40
1.0
 40
1.0
 40
1.0
 40
1.0
 10
909.6907518402901
 20
685.5248527993986
 30
0.0
 10
909.7190599698508
 20
685.5266923927211
 30
0.0
 10
912.5337926741977
 20
685.709606755773
 30
0.0
 10
915.3365334178368
 20
685.8924976191447
 30
0.0
 10
918.1110866366097
 20
686.073549125533
 30
0.0
  0
SPLINE
  5
323
330
1F
100
AcDbEntity
  8
SLD-0_0
  6
SLD-Solid
 62
   179
370
    15
100
AcDbSpline
210
0.0
220
0.0
230
1.0
 70
    24
 71
     3
 72
    11
 73
     7
 74
     0
 42
0.00000001
 43
0.00000001
 40
0.0
 40
0.0
 40
0.0
 40
0.0
 40
0.2947335968589501
 40
0.5894836108224148
 40
0.883775232472571
 40
1.0
 40
1.0
 40
1.0
 40
1.0
 10
920.4673155924221
 20
686.073549125533
 30
0.0
 10
920.4218209461396
 20
686.073549125533
 30
0.0
 10
920.3308291194545
 20
686.073549125533
 30
0.0
 10
920.0731931435718
 20
686.0735491255331
 30
0.0
 10
919.823020365742
 20
686.0735491255331
 30
0.0
 10
919.667824134359
 20
686.073549125533
 30
0.0
 10
919.6238852164762
 20
686.073549125533
 30
0.0
  0
SPLINE
  5
324
330
1F
100
AcDbEntity
  8
SLD-0_0
  6
SLD-Solid
 62
   179
370
    15
100
AcDbSpline
210
0.0
220
0.0
230
1.0
 70
    24
 71
     3
 72
    11
 73
     7
 74
     0
 42
0.00000001
 43
0.00000001
 40
0.0
 40
0.0
 40
0.0
 40
0.0
 40
0.2933118760927089
 40
0.5865991201420567
 40
0.8805021461504505
 40
1.0
 40
1.0
 40
1.0
 40
1.0
 10
919.6238852164762
 20
683.0735491255331
 30
0.0
 10
919.7345675017087
 20
683.0735491255331
 30
0.0
 10
919.9559227771845
 20
683.0735491255331
 30
0.0
 10
920.2338166378812
 20
683.073549125533
 30
0.0
 10
920.3964129857877
 20
683.073549125533
 30
0.0
 10
920.4514163065179
 20
683.073549125533
 30
0.0
 10
920.4673155924221
 20
683.073549125533
 30
0.0
  0
SPLINE
  5
325
330
1F
100
AcDbEntity
  8
SLD-0_0
  6
SLD-Solid
 62
   179
370
    15
100
AcDbSpline
210
0.0
220
0.0
230
1.0
 70
     8
 71
     3
 72
    11
 73
     7
 74
     0
 42
0.00000001
 43
0.00000001
 40
0.0
 40
0.0
 40
0.0
 40
0.0
 40
0.0069702907904084
 40
0.775332445814944
 40
0.9229170398563193
 40
1.0
 40
1.0
 40
1.0
 40
1.0
 10
914.7729075704771
 20
700.5024340813483
 30
0.0
 10
914.7730704530954
 20
700.502439009606
 30
0.0
 10
914.7911885177076
 20
700.5029871987922
 30
0.0
 10
914.7591400902146
 20
700.464268819705
 30
0.0
 10
914.7215629885584
 20
700.4218796870078
 30
0.0
 10
914.7112944563082
 20
700.4110882714904
 30
0.0
 10
914.7077713447267
 20
700.4073857597714
 30
0.0
  0
SPLINE
  5
326
330
1F
100
AcDbEntity
  8
SLD-0_0
  6
SLD-Solid
 62
   179
370
    15
100
AcDbSpline
210
0.0
220
0.0
230
1.0
 70
     8
 71
     3
 72
    11
 73
     7
 74
     0
 42
0.00000001
 43
0.00000001
 40
0.0
 40
0.0
 40
0.0
 40
0.0
 40
0.0734515616958226
 40
0.2140834068742924
 40
0.9462478196159777
 40
1.0
 40
1.0
 40
1.0
 40
1.0
 10
914.7077713447289
 20
668.7397124912926
 30
0.0
 10
914.7112928814662
 20
668.7360111360196
 30
0.0
 10
914.7215568236447
 20
668.7252230911013
 30
0.0
 10
914.7592910335453
 20
668.6827185902126
 30
0.0
 10
914.7910539963591
 20
668.6433964228745
 30
0.0
 10
914.7708493566105
 20
668.6446634203807
 30
0.0
 10
914.7694674753143
 20
668.644750075732
 30
0.0
  0
SPLINE
  5
327
330
1F
100
AcDbEntity
  8
SLD-0_0
  6
SLD-Solid
 62
   179
370
    15
100
AcDbSpline
210
0.0
220
0.0
230
1.0
 70
     8
 71
     3
 72
    14
 73
    10
 74
     0
 42
0.00000001
 43
0.00000001
 40
0.0
 40
0.0
 40
0.0
 40
0.0
 40
0.0450030444518082
 40
0.1924547383736191
 40
0.4101035079917231
 40
0.6281156181474649
 40
0.8446514255151797
 40
0.9597621009663946
 40
1.0
 40
1.0
 40
1.0
 40
1.0
 10
915.6219428475325
 20
888.0409533142193
 30
0.0
 10
915.6093111118748
 20
888.0210102827241
 30
0.0
 10
915.5552917136139
 20
887.9357242547338
 30
0.0
 10
915.5243895594705
 20
887.7197700712575
 30
0.0
 10
915.4815472237436
 20
887.449587224145
 30
0.0
 10
915.446771841533
 20
887.2140258475474
 30
0.0
 10
915.4018762301162
 20
887.1015043378369
 30
0.0
 10
915.3369096022786
 20
887.0749741778686
 30
0.0
 10
915.2889256320053
 20
887.0738423007587
 30
0.0
 10
915.2764969749836
 20
887.0735491255106
 30
0.0
  0
SPLINE
  5
328
330
1F
100
AcDbEntity
  8
SLD-0_0
  6
SLD-Solid
 62
   179
370
    15
100
AcDbSpline
210
0.0
220
0.0
230
1.0
 70
     8
 71
     3
 72
    15
 73
    11
 74
     0
 42
0.00000001
 43
0.00000001
 40
0.0
 40
0.0
 40
0.0
 40
0.0
 40
0.0802877089726101
 40
0.2296499816479695
 40
0.4389296531616703
 40
0.6497324503840552
 40
0.8665139245761444
 40
0.946288555562894
 40
0.9895230058022151
 40
1.0
 40
1.0
 40
1.0
 40
1.0
 10
915.2764969749836
 20
890.0735491255106
 30
0.0
 10
915.2996049035175
 20
890.0723504902516
 30
0.0
 10
915.3657013886665
 20
890.0689219883209
 30
0.0
 10
915.417908619426
 20
890.0161357819962
 30
0.0
 10
915.4584762032758
 20
889.8689830619414
 30
0.0
 10
915.4938772664256
 20
889.6169079625488
 30
0.0
 10
915.5282495798162
 20
889.3668726273246
 30
0.0
 10
915.5727840099127
 20
889.1972658016917
 30
0.0
 10
915.5999301463686
 20
889.1315043848199
 30
0.0
 10
915.6183498804721
 20
889.1102841679931
 30
0.0
 10
915.6219428474709
 20
889.1061449367566
 30
0.0
  0
SPLINE
  5
329
330
1F
100
AcDbEntity
  8
SLD-0_0
  6
SLD-Solid
 62
   179
370
    15
100
AcDbSpline
210
0.0
220
0.0
230
1.0
 70
    24
 71
     3
 72
    11
 73
     7
 74
     0
 42
0.00000001
 43
0.00000001
 40
0.0
 40
0.0
 40
0.0
 40
0.0
 40
0.2947335968588897
 40
0.5894836108223881
 40
0.8837752324725529
 40
1.0
 40
1.0
 40
1.0
 40
1.0
 10
917.6043414920905
 20
890.0735491255106
 30
0.0
 10
917.5588468458079
 20
890.0735491255105
 30
0.0
 10
917.467855019123
 20
890.0735491255106
 30
0.0
 10
917.2102190432402
 20
890.0735491255105
 30
0.0
 10
916.9600462654104
 20
890.0735491255106
 30
0.0
 10
916.8048500340271
 20
890.0735491255105
 30
0.0
 10
916.7609111161446
 20
890.0735491255106
 30
0.0
  0
SPLINE
  5
32A
330
1F
100
AcDbEntity
  8
SLD-0_0
  6
SLD-Solid
 62
   179
370
    15
100
AcDbSpline
210
0.0
220
0.0
230
1.0
 70
    24
 71
     3
 72
    11
 73
     7
 74
     0
 42
0.00000001
 43
0.00000001
 40
0.0
 40
0.0
 40
0.0
 40
0.0
 40
0.2933118760927699
 40
0.586599120142132
 40
0.880502146150393
 40
1.0
 40
1.0
 40
1.0
 40
1.0
 10
916.7609111161446
 20
887.0735491255106
 30
0.0
 10
916.8715934013771
 20
887.0735491255106
 30
0.0
 10
917.0929486768528
 20
887.0735491255106
 30
0.0
 10
917.3708425375495
 20
887.0735491255105
 30
0.0
 10
917.5334388854556
 20
887.0735491255106
 30
0.0
 10
917.5884422061862
 20
887.0735491255105
 30
0.0
 10
917.6043414920905
 20
887.0735491255106
 30
0.0
  0
SPLINE
  5
32B
330
1F
100
AcDbEntity
  8
SLD-0_0
  6
SLD-Solid
 62
   179
370
    15
100
AcDbSpline
210
0.0
220
0.0
230
1.0
 70
     8
 71
     3
 72
    11
 73
     7
 74
     0
 42
0.00000001
 43
0.00000001
 40
0.0
 40
0.0
 40
0.0
 40
0.0
 40
0.0734515616953227
 40
0.214083406874056
 40
0.9462478196162037
 40
0.9999999999999999
 40
0.9999999999999999
 40
0.9999999999999999
 40
0.9999999999999999
 10
911.8447972443979
 20
872.7397124912701
 30
0.0
 10
911.8483187811353
 20
872.736011135997
 30
0.0
 10
911.8585827233138
 20
872.7252230910788
 30
0.0
 10
911.8963169332142
 20
872.6827185901902
 30
0.0
 10
911.9280798960278
 20
872.643396422852
 30
0.0
 10
911.9078752562797
 20
872.6446634203581
 30
0.0
 10
911.9064933749834
 20
872.6447500757097
 30
0.0
  0
SPLINE
  5
32C
330
1F
100
AcDbEntity
  8
SLD-0_0
  6
SLD-Solid
 62
   179
370
    15
100
AcDbSpline
210
0.0
220
0.0
230
1.0
 70
     8
 71
     3
 72
    11
 73
     7
 74
     0
 42
0.00000001
 43
0.00000001
 40
0.0
 40
0.0
 40
0.0
 40
0.0
 40
0.0069702907904228
 40
0.7753324458145753
 40
0.9229170398559298
 40
1.0
 40
1.0
 40
1.0
 40
1.0
 10
911.909933470146
 20
904.5024340813258
 30
0.0
 10
911.9100963527644
 20
904.5024390095833
 30
0.0
 10
911.9282144173739
 20
904.5029871987709
 30
0.0
 10
911.8961659898846
 20
904.4642688196826
 30
0.0
 10
911.8585888882271
 20
904.4218796869856
 30
0.0
 10
911.8483203559773
 20
904.4110882714679
 30
0.0
 10
911.8447972443955
 20
904.4073857597489
 30
0.0
  0
ELLIPSE
  5
32D
330
1F
100
AcDbEntity
  8
SLD-0_0
  6
SLD-Solid
 62
   179
370
    15
100
AcDbEllipse
 10
413.7043277134
 20
786.5735491256
 30
0.0
 11
1.007625194450327
 21
1.136868377216160E-13
 31
0.0
210
0.0
220
0.0
230
1.0
 40
0.9924325091
 41
5.501585242055468
 42
7.064785372303588
  0
ENDSEC
  0
SECTION
  2
OBJECTS
  0
DICTIONARY
  5
C
330
0
100
AcDbDictionary
281
     1
  3
ACAD_GROUP
350
D
  3
ACAD_LAYOUT
350
1A
  3
ACAD_MLINESTYLE
350
17
  3
ACAD_PLOTSETTINGS
350
19
  3
ACAD_PLOTSTYLENAME
350
E
  0
DICTIONARY
  5
D
102
{ACAD_REACTORS
330
C
102
}
330
C
100
AcDbDictionary
281
     1
  0
DICTIONARY
  5
1A
102
{ACAD_REACTORS
330
C
102
}
330
C
100
AcDbDictionary
281
     1
  3
Layout1
350
1E
  3
Layout2
350
26
  3
Model
350
22
  0
DICTIONARY
  5
17
102
{ACAD_REACTORS
330
C
102
}
330
C
100
AcDbDictionary
281
     1
  3
Standard
350
18
  0
DICTIONARY
  5
19
102
{ACAD_REACTORS
330
C
102
}
330
C
100
AcDbDictionary
281
     1
  0
ACDBDICTIONARYWDFLT
  5
E
102
{ACAD_REACTORS
330
C
102
}
330
C
100
AcDbDictionary
281
     1
  3
Normal
350
F
100
AcDbDictionaryWithDefault
340
F
  0
LAYOUT
  5
1E
102
{ACAD_REACTORS
330
1A
102
}
330
1A
100
AcDbPlotSettings
  1

  2
none_device
  4

  6

 40
0.0
 41
0.0
 42
0.0
 43
0.0
 44
0.0
 45
0.0
 46
0.0
 47
0.0
 48
0.0
 49
0.0
140
0.0
141
0.0
142
1.0
143
1.0
 70
   688
 72
     0
 73
     0
 74
     5
  7

 75
    16
147
1.0
148
0.0
149
0.0
100
AcDbLayout
  1
Layout1
 70
     1
 71
     1
 10
0.0
 20
0.0
 11
420.0
 21
297.0
 12
0.0
 22
0.0
 32
0.0
 14
1.0000000000E+20
 24
1.0000000000E+20
 34
1.0000000000E+20
 15
-1.0000000000E+20
 25
-1.0000000000E+20
 35
-1.0000000000E+20
146
0.0
 13
0.0
 23
0.0
 33
0.0
 16
1.0
 26
0.0
 36
0.0
 17
0.0
 27
1.0
 37
0.0
 76
     0
330
1B
  0
LAYOUT
  5
26
102
{ACAD_REACTORS
330
1A
102
}
330
1A
100
AcDbPlotSettings
  1

  2
none_device
  4

  6

 40
0.0
 41
0.0
 42
0.0
 43
0.0
 44
0.0
 45
0.0
 46
0.0
 47
0.0
 48
0.0
 49
0.0
140
0.0
141
0.0
142
1.0
143
1.0
 70
   688
 72
     0
 73
     0
 74
     5
  7

 75
    16
147
1.0
148
0.0
149
0.0
100
AcDbLayout
  1
Layout2
 70
     1
 71
     2
 10
0.0
 20
0.0
 11
0.0
 21
0.0
 12
0.0
 22
0.0
 32
0.0
 14
0.0
 24
0.0
 34
0.0
 15
0.0
 25
0.0
 35
0.0
146
0.0
 13
0.0
 23
0.0
 33
0.0
 16
1.0
 26
0.0
 36
0.0
 17
0.0
 27
1.0
 37
0.0
 76
     0
330
23
  0
LAYOUT
  5
22
102
{ACAD_REACTORS
330
1A
102
}
330
1A
100
AcDbPlotSettings
  1

  2
none_device
  4

  6

 40
0.0
 41
0.0
 42
0.0
 43
0.0
 44
0.0
 45
0.0
 46
0.0
 47
0.0
 48
0.0
 49
0.0
140
0.0
141
0.0
142
1.0
143
1.0
 70
  1712
 72
     0
 73
     0
 74
     0
  7

 75
     0
147
1.0
148
0.0
149
0.0
100
AcDbLayout
  1
Model
 70
     1
 71
     0
 10
0.0
 20
0.0
 11
1189.0
 21
841.0
 12
0.0
 22
0.0
 32
0.0
 14
0.0
 24
0.0
 34
0.0
 15
1189.0
 25
841.0
 35
0.0
146
0.0
 13
0.0
 23
0.0
 33
0.0
 16
1.0
 26
0.0
 36
0.0
 17
0.0
 27
1.0
 37
0.0
 76
     0
330
1F
331
29
  0
MLINESTYLE
  5
18
102
{ACAD_REACTORS
330
17
102
}
330
17
100
AcDbMlineStyle
  2
Standard
 70
     0
  3

 62
   256
 51
90.0
 52
90.0
 71
     2
 49
0.5
 62
   256
  6
BYLAYER
 49
-0.5
 62
   256
  6
BYLAYER
  0
ACDBPLACEHOLDER
  5
F
102
{ACAD_REACTORS
330
E
102
}
330
E
  0
ENDSEC
  0
EOF
