  0
SECTION
  2
HEADER
  9
$ACADVER
  1
AC1015
  9
$ACADMAINTVER
 70
     6
  9
$DWGCODEPAGE
  3
ANSI_1252
  9
$INSBASE
 10
0.0
 20
0.0
 30
0.0
  9
$EXTMIN
 10
0.0
 20
0.0
 30
0.0
  9
$EXTMAX
 10
420.0
 20
297.0
 30
0.0
  9
$LIMMIN
 10
0.0
 20
0.0
  9
$LIMMAX
 10
420.0
 20
297.0
  9
$ORTHOMODE
 70
     0
  9
$REGENMODE
 70
     1
  9
$FILLMODE
 70
     1
  9
$QTEXTMODE
 70
     0
  9
$MIRRTEXT
 70
     1
  9
$LTSCALE
 40
1.0
  9
$ATTMODE
 70
     1
  9
$TEXTSIZE
 40
3.5
  9
$TRACEWID
 40
1.0
  9
$TEXTSTYLE
  7
Standard
  9
$CLAYER
  8
0
  9
$CELTYPE
  6
ByLayer
  9
$CECOLOR
 62
   256
  9
$CELTSCALE
 40
1.0
  9
$DISPSILH
 70
     0
  9
$DIMSCALE
 40
1.0
  9
$DIMASZ
 40
3.302
  9
$DIMEXO
 40
1.0
  9
$DIMDLI
 40
3.75
  9
$DIMRND
 40
0.0
  9
$DIMDLE
 40
0.0
  9
$DIMEXE
 40
1.0
  9
$DIMTP
 40
0.0
  9
$DIMTM
 40
0.0
  9
$DIMTXT
 40
3.5
  9
$DIMCEN
 40
2.5
  9
$DIMTSZ
 40
0.0
  9
$DIMTOL
 70
     0
  9
$DIMLIM
 70
     0
  9
$DIMTIH
 70
     1
  9
$DIMTOH
 70
     1
  9
$DIMSE1
 70
     0
  9
$DIMSE2
 70
     0
  9
$DIMTAD
 70
     1
  9
$DIMZIN
 70
     0
  9
$DIMBLK
  1

  9
$DIMASO
 70
     1
  9
$DIMSHO
 70
     1
  9
$DIMPOST
  1

  9
$DIMAPOST
  1

  9
$DIMALT
 70
     0
  9
$DIMALTD
 70
     3
  9
$DIMALTF
 40
0.0393700787
  9
$DIMLFAC
 40
12.5
  9
$DIMTOFL
 70
     1
  9
$DIMTVP
 40
0.0
  9
$DIMTIX
 70
     0
  9
$DIMSOXD
 70
     0
  9
$DIMSAH
 70
     0
  9
$DIMBLK1
  1

  9
$DIMBLK2
  1

  9
$DIMSTYLE
  2
ISO-25
  9
$DIMCLRD
 70
     0
  9
$DIMCLRE
 70
     0
  9
$DIMCLRT
 70
     0
  9
$DIMTFAC
 40
1.0
  9
$DIMGAP
 40
1.524
  9
$DIMJUST
 70
     0
  9
$DIMSD1
 70
     0
  9
$DIMSD2
 70
     0
  9
$DIMTOLJ
 70
     0
  9
$DIMTZIN
 70
     0
  9
$DIMALTZ
 70
     0
  9
$DIMALTTZ
 70
     0
  9
$DIMUPT
 70
     0
  9
$DIMDEC
 70
     1
  9
$DIMTDEC
 70
     1
  9
$DIMALTU
 70
     2
  9
$DIMALTTD
 70
     3
  9
$DIMTXSTY
  7
Standard
  9
$DIMAUNIT
 70
     0
  9
$DIMADEC
 70
     1
  9
$DIMALTRND
 40
0.0
  9
$DIMAZIN
 70
     0
  9
$DIMDSEP
 70
    44
  9
$DIMATFIT
 70
     3
  9
$DIMFRAC
 70
     0
  9
$DIMLDRBLK
  1

  9
$DIMLUNIT
 70
     2
  9
$DIMLWD
 70
    -2
  9
$DIMLWE
 70
    -2
  9
$DIMTMOVE
 70
     0
  9
$LUNITS
 70
     2
  9
$LUPREC
 70
     1
  9
$SKETCHINC
 40
1.0
  9
$FILLETRAD
 40
10.0
  9
$AUNITS
 70
     0
  9
$AUPREC
 70
     1
  9
$MENU
  1
.
  9
$ELEVATION
 40
0.0
  9
$PELEVATION
 40
0.0
  9
$THICKNESS
 40
0.0
  9
$LIMCHECK
 70
     0
  9
$CHAMFERA
 40
10.0
  9
$CHAMFERB
 40
10.0
  9
$CHAMFERC
 40
20.0
  9
$CHAMFERD
 40
0.0
  9
$SKPOLY
 70
     0
  9
$TDCREATE
 40
2456196.384243669
  9
$TDUCREATE
 40
2456196.342577002
  9
$TDUPDATE
 40
2456196.384244942
  9
$TDUUPDATE
 40
2456196.342578276
  9
$TDINDWG
 40
0.0000000116
  9
$TDUSRTIMER
 40
0.0000000116
  9
$USRTIMER
 70
     1
  9
$ANGBASE
 50
0.0
  9
$ANGDIR
 70
     0
  9
$PDMODE
 70
     0
  9
$PDSIZE
 40
-1.0
  9
$PLINEWID
 40
0.0
  9
$SPLFRAME
 70
     0
  9
$SPLINETYPE
 70
     6
  9
$SPLINESEGS
 70
     8
  9
$HANDSEED
  5
621
  9
$SURFTAB1
 70
     6
  9
$SURFTAB2
 70
     6
  9
$SURFTYPE
 70
     6
  9
$SURFU
 70
     6
  9
$SURFV
 70
     6
  9
$UCSBASE
  2

  9
$UCSNAME
  2

  9
$UCSORG
 10
0.0
 20
0.0
 30
0.0
  9
$UCSXDIR
 10
1.0
 20
0.0
 30
0.0
  9
$UCSYDIR
 10
0.0
 20
1.0
 30
0.0
  9
$UCSORTHOREF
  2

  9
$UCSORTHOVIEW
 70
     0
  9
$UCSORGTOP
 10
0.0
 20
0.0
 30
0.0
  9
$UCSORGBOTTOM
 10
0.0
 20
0.0
 30
0.0
  9
$UCSORGLEFT
 10
0.0
 20
0.0
 30
0.0
  9
$UCSORGRIGHT
 10
0.0
 20
0.0
 30
0.0
  9
$UCSORGFRONT
 10
0.0
 20
0.0
 30
0.0
  9
$UCSORGBACK
 10
0.0
 20
0.0
 30
0.0
  9
$PUCSBASE
  2

  9
$PUCSNAME
  2

  9
$PUCSORG
 10
0.0
 20
0.0
 30
0.0
  9
$PUCSXDIR
 10
1.0
 20
0.0
 30
0.0
  9
$PUCSYDIR
 10
0.0
 20
1.0
 30
0.0
  9
$PUCSORTHOREF
  2

  9
$PUCSORTHOVIEW
 70
     0
  9
$PUCSORGTOP
 10
0.0
 20
0.0
 30
0.0
  9
$PUCSORGBOTTOM
 10
0.0
 20
0.0
 30
0.0
  9
$PUCSORGLEFT
 10
0.0
 20
0.0
 30
0.0
  9
$PUCSORGRIGHT
 10
0.0
 20
0.0
 30
0.0
  9
$PUCSORGFRONT
 10
0.0
 20
0.0
 30
0.0
  9
$PUCSORGBACK
 10
0.0
 20
0.0
 30
0.0
  9
$USERI1
 70
     0
  9
$USERI2
 70
     0
  9
$USERI3
 70
     0
  9
$USERI4
 70
     0
  9
$USERI5
 70
     0
  9
$USERR1
 40
0.0
  9
$USERR2
 40
0.0
  9
$USERR3
 40
0.0
  9
$USERR4
 40
0.0
  9
$USERR5
 40
0.0
  9
$WORLDVIEW
 70
     1
  9
$SHADEDGE
 70
     3
  9
$SHADEDIF
 70
    70
  9
$TILEMODE
 70
     1
  9
$MAXACTVP
 70
    64
  9
$PINSBASE
 10
0.0
 20
0.0
 30
0.0
  9
$PLIMCHECK
 70
     0
  9
$PEXTMIN
 10
1.0000000000E+20
 20
1.0000000000E+20
 30
1.0000000000E+20
  9
$PEXTMAX
 10
-1.0000000000E+20
 20
-1.0000000000E+20
 30
-1.0000000000E+20
  9
$PLIMMIN
 10
0.0
 20
0.0
  9
$PLIMMAX
 10
420.0
 20
297.0
  9
$UNITMODE
 70
     0
  9
$VISRETAIN
 70
     1
  9
$PLINEGEN
 70
     0
  9
$PSLTSCALE
 70
     1
  9
$TREEDEPTH
 70
  3020
  9
$CMLSTYLE
  2
Standard
  9
$CMLJUST
 70
     0
  9
$CMLSCALE
 40
20.0
  9
$PROXYGRAPHICS
 70
     1
  9
$MEASUREMENT
 70
     1
  9
$CELWEIGHT
370
    -1
  9
$ENDCAPS
280
     0
  9
$JOINSTYLE
280
     0
  9
$LWDISPLAY
290
     1
  9
$INSUNITS
 70
     4
  9
$HYPERLINKBASE
  1

  9
$STYLESHEET
  1

  9
$XEDIT
290
     1
  9
$CEPSNTYPE
380
     0
  9
$PSTYLEMODE
290
     1
  9
$FINGERPRINTGUID
  2
{9C353380-3198-4FB4-BD93-4A793E7FEEB2}
  9
$VERSIONGUID
  2
{FAEB1C32-E019-11D5-929B-00C0DF256EC4}
  9
$EXTNAMES
290
     1
  9
$PSVPSCALE
 40
0.0
  9
$OLESTARTUP
290
     0
  0
ENDSEC
  0
SECTION
  2
CLASSES
  0
CLASS
  1
ACDBDICTIONARYWDFLT
  2
AcDbDictionaryWithDefault
  3
ObjectDBX Classes
 90
        0
280
     0
281
     0
  0
CLASS
  1
VISUALSTYLE
  2
AcDbVisualStyle
  3
ObjectDBX Classes
 90
     4095
280
     0
281
     0
  0
CLASS
  1
MATERIAL
  2
AcDbMaterial
  3
ObjectDBX Classes
 90
     1153
280
     0
281
     0
  0
CLASS
  1
ACDBPLACEHOLDER
  2
AcDbPlaceHolder
  3
ObjectDBX Classes
 90
        0
280
     0
281
     0
  0
CLASS
  1
LAYOUT
  2
AcDbLayout
  3
ObjectDBX Classes
 90
        0
280
     0
281
     0
  0
ENDSEC
  0
SECTION
  2
TABLES
  0
TABLE
  2
VPORT
  5
8
330
0
100
AcDbSymbolTable
 70
     1
  0
VPORT
  5
29
330
8
100
AcDbSymbolTableRecord
100
AcDbViewportTableRecord
  2
*Active
 70
     0
 10
0.0
 20
0.0
 11
1.0
 21
1.0
 12
210.0
 22
148.5
 13
0.0
 23
0.0
 14
10.0
 24
10.0
 15
10.0
 25
10.0
 16
0.0
 26
0.0
 36
1.0
 17
0.0
 27
0.0
 37
0.0
 40
297.0
 41
1.4141414141
 42
50.0
 43
0.0
 44
0.0
 50
0.0
 51
0.0
 71
     0
 72
  2000
 73
     1
 74
     3
 75
     0
 76
     0
 77
     0
 78
     0
281
     0
 65
     1
110
0.0
120
0.0
130
0.0
111
1.0
121
0.0
131
0.0
112
0.0
122
1.0
132
0.0
 79
     0
146
0.0
  0
ENDTAB
  0
TABLE
  2
LTYPE
  5
5
330
0
100
AcDbSymbolTable
 70
     6
  0
LTYPE
  5
14
330
5
100
AcDbSymbolTableRecord
100
AcDbLinetypeTableRecord
  2
ByBlock
 70
     0
  3

 72
    65
 73
     0
 40
0.0
  0
LTYPE
  5
15
330
5
100
AcDbSymbolTableRecord
100
AcDbLinetypeTableRecord
  2
ByLayer
 70
     0
  3

 72
    65
 73
     0
 40
0.0
  0
LTYPE
  5
16
330
5
100
AcDbSymbolTableRecord
100
AcDbLinetypeTableRecord
  2
Continuous
 70
     0
  3
Solid line
 72
    65
 73
     0
 40
0.0
  0
LTYPE
  5
3F
330
5
100
AcDbSymbolTableRecord
100
AcDbLinetypeTableRecord
  2
HIDDEN
 70
     0
  3
Hidden __ __ __ __ __ __ __ __ __ __ __ __ __ __
 72
    65
 73
     2
 40
1.905
 49
1.27
 74
     0
 49
-0.635
 74
     0
  0
LTYPE
  5
40
330
5
100
AcDbSymbolTableRecord
100
AcDbLinetypeTableRecord
  2
PHANTOM
 70
     0
  3
Phantom ______  __  __  ______  __  __  ______
 72
    65
 73
     6
 40
12.7
 49
6.35
 74
     0
 49
-1.27
 74
     0
 49
1.27
 74
     0
 49
-1.27
 74
     0
 49
1.27
 74
     0
 49
-1.27
 74
     0
  0
LTYPE
  5
41
330
5
100
AcDbSymbolTableRecord
100
AcDbLinetypeTableRecord
  2
CENTER
 70
     0
  3
Center ____ _ ____ _ ____ _ ____ _ ____ _ ____
 72
    65
 73
     4
 40
10.16
 49
6.35
 74
     0
 49
-1.27
 74
     0
 49
1.27
 74
     0
 49
-1.27
 74
     0
  0
LTYPE
  5
42
330
5
100
AcDbSymbolTableRecord
100
AcDbLinetypeTableRecord
  2
CENTERX2
 70
     0
  3
Center (2x) ________  __  ________  __  _____
 72
    65
 73
     4
 40
20.32
 49
12.7
 74
     0
 49
-2.54
 74
     0
 49
2.54
 74
     0
 49
-2.54
 74
     0
  0
LTYPE
  5
43
330
5
100
AcDbSymbolTableRecord
100
AcDbLinetypeTableRecord
  2
DOT2
 70
     0
  3
Dot (.5x) ........................................
 72
    65
 73
     2
 40
0.635
 49
0.0
 74
     0
 49
-0.635
 74
     0
  0
ENDTAB
  0
TABLE
  2
LAYER
  5
2
330
0
100
AcDbSymbolTable
 70
     4
  0
LAYER
  5
10
330
2
100
AcDbSymbolTableRecord
100
AcDbLayerTableRecord
  2
0
 70
     0
 62
     7
  6
Continuous
370
    -3
390
F
  0
LAYER
  5
44
330
2
100
AcDbSymbolTableRecord
100
AcDbLayerTableRecord
  2
FORMAT
 70
     0
 62
     7
  6
Continuous
370
    -3
390
F
  0
LAYER
  5
45
330
2
100
AcDbSymbolTableRecord
100
AcDbLayerTableRecord
  2
SLD-0
 70
     0
 62
     1
  6
Continuous
370
    -3
390
F
  0
LAYER
  5
46
330
2
100
AcDbSymbolTableRecord
100
AcDbLayerTableRecord
  2
WATERMARK
 70
     0
 62
    20
  6
Continuous
370
    -3
390
F
  0
ENDTAB
  0
TABLE
  2
STYLE
  5
3
330
0
100
AcDbSymbolTable
 70
     1
  0
STYLE
  5
11
330
3
100
AcDbSymbolTableRecord
100
AcDbTextStyleTableRecord
  2
Standard
 70
     0
 40
0.0
 41
1.0
 50
0.0
 71
     0
 42
3.5
  3
txt
  4

  0
ENDTAB
  0
TABLE
  2
VIEW
  5
6
330
0
100
AcDbSymbolTable
 70
     0
  0
ENDTAB
  0
TABLE
  2
UCS
  5
7
330
0
100
AcDbSymbolTable
 70
     0
  0
ENDTAB
  0
TABLE
  2
APPID
  5
9
330
0
100
AcDbSymbolTable
 70
     1
  0
APPID
  5
12
330
9
100
AcDbSymbolTableRecord
100
AcDbRegAppTableRecord
  2
ACAD
 70
     0
  0
ENDTAB
  0
TABLE
  2
DIMSTYLE
  5
A
330
0
100
AcDbSymbolTable
 70
     1
100
AcDbDimStyleTable
  0
DIMSTYLE
105
27
330
A
100
AcDbSymbolTableRecord
100
AcDbDimStyleTableRecord
  2
ISO-25
 70
     0
 41
2.5
 42
0.625
 43
3.75
 44
1.25
 73
     0
 74
     0
 77
     1
 78
     8
140
2.5
141
2.5
143
0.0393700787
147
0.625
171
     3
172
     1
178
     0
271
     2
272
     2
274
     3
278
    44
283
     0
284
     8
340
11
  0
ENDTAB
  0
TABLE
  2
BLOCK_RECORD
  5
1
330
0
100
AcDbSymbolTable
 70
     1
  0
BLOCK_RECORD
  5
1F
330
1
100
AcDbSymbolTableRecord
100
AcDbBlockTableRecord
  2
*Model_Space
340
22
  0
BLOCK_RECORD
  5
1B
330
1
100
AcDbSymbolTableRecord
100
AcDbBlockTableRecord
  2
*Paper_Space
340
1E
  0
BLOCK_RECORD
  5
23
330
1
100
AcDbSymbolTableRecord
100
AcDbBlockTableRecord
  2
*Paper_Space0
340
26
  0
ENDTAB
  0
ENDSEC
  0
SECTION
  2
BLOCKS
  0
BLOCK
  5
20
330
1F
100
AcDbEntity
  8
0
100
AcDbBlockBegin
  2
*Model_Space
 70
     0
 10
0.0
 20
0.0
 30
0.0
  3
*Model_Space
  1

  0
ENDBLK
  5
21
330
1F
100
AcDbEntity
  8
0
100
AcDbBlockEnd
  0
BLOCK
  5
1C
330
1B
100
AcDbEntity
 67
     1
  8
0
100
AcDbBlockBegin
  2
*Paper_Space
 70
     0
 10
0.0
 20
0.0
 30
0.0
  3
*Paper_Space
  1

  0
ENDBLK
  5
1D
330
1B
100
AcDbEntity
 67
     1
  8
0
100
AcDbBlockEnd
  0
BLOCK
  5
24
330
23
100
AcDbEntity
  8
0
100
AcDbBlockBegin
  2
*Paper_Space0
 70
     0
 10
0.0
 20
0.0
 30
0.0
  3
*Paper_Space0
  1

  0
ENDBLK
  5
25
330
23
100
AcDbEntity
  8
0
100
AcDbBlockEnd
  0
ENDSEC
  0
SECTION
  2
ENTITIES
  0
LINE
  5
47
330
1F
100
AcDbEntity
  8
0
  6
Continuous
 62
     7
370
    15
100
AcDbLine
 10
350.7595892725
 20
246.0045892696
 30
0.0
 11
351.1188353204
 21
246.1213153864
 31
0.0
  0
LINE
  5
48
330
1F
100
AcDbEntity
  8
0
  6
Continuous
 62
     7
370
    15
100
AcDbLine
 10
350.970667876
 20
246.7461086888
 30
0.0
 11
350.921064444
 21
246.7299915568
 31
0.0
  0
LINE
  5
49
330
1F
100
AcDbEntity
  8
0
  6
Continuous
 62
     7
370
    15
100
AcDbLine
 10
352.0251665422
 20
244.0184663804
 30
0.0
 11
352.687126317
 21
244.5700180611
 31
0.0
  0
LINE
  5
4A
330
1F
100
AcDbEntity
  8
0
  6
Continuous
 62
     7
370
    15
100
AcDbLine
 10
352.687126317
 20
244.5700180611
 30
0.0
 11
353.9480218499
 21
245.7144414024
 31
0.0
  0
ARC
  5
4B
330
1F
100
AcDbEntity
  8
0
  6
Continuous
 62
     7
370
    15
100
AcDbCircle
 10
353.8942555105
 20
245.7736797409
 30
0.0
 40
0.0800000000000456
100
AcDbArc
 50
312.227745318
 51
18.0
  0
LINE
  5
4C
330
1F
100
AcDbEntity
  8
0
  6
Continuous
 62
     7
370
    15
100
AcDbLine
 10
351.2454393154
 20
245.9004491532
 30
0.0
 11
351.3485866263
 21
245.9319844508
 31
0.0
  0
LINE
  5
4D
330
1F
100
AcDbEntity
  8
0
  6
Continuous
 62
     7
370
    15
100
AcDbLine
 10
350.5319685141
 20
245.6109862858
 30
0.0
 11
350.7698347752
 21
245.7850082437
 31
0.0
  0
LINE
  5
4E
330
1F
100
AcDbEntity
  8
0
  6
Continuous
 62
     7
370
    15
100
AcDbLine
 10
350.4410406932
 20
246.796932377
 30
0.0
 11
350.1463153051
 21
246.7979048181
 31
0.0
  0
LINE
  5
4F
330
1F
100
AcDbEntity
  8
0
  6
Continuous
 62
     7
370
    15
100
AcDbLine
 10
350.8039034692
 20
244.7740565514
 30
0.0
 11
351.0417697303
 21
244.9480785094
 31
0.0
  0
LINE
  5
50
330
1F
100
AcDbEntity
  8
0
  6
Continuous
 62
     7
370
    15
100
AcDbLine
 10
350.6845186515
 20
245.659256116
 30
0.0
 11
350.9274405968
 21
245.9007787499
 31
0.0
  0
LINE
  5
51
330
1F
100
AcDbEntity
  8
0
  6
Continuous
 62
     7
370
    15
100
AcDbLine
 10
350.3010111151
 20
246.865395561
 30
0.0
 11
350.2935578344
 21
246.8625097862
 31
0.0
  0
LINE
  5
52
330
1F
100
AcDbEntity
  8
0
  6
Continuous
 62
     7
370
    15
100
AcDbLine
 10
350.6995220658
 20
245.3541949165
 30
0.0
 11
350.726163868
 21
245.5310853187
 31
0.0
  0
LINE
  5
53
330
1F
100
AcDbEntity
  8
0
  6
Continuous
 62
     7
370
    15
100
AcDbLine
 10
350.2564580365
 20
246.9766912234
 30
0.0
 11
350.1309307961
 21
247.1041389065
 31
0.0
  0
LINE
  5
54
330
1F
100
AcDbEntity
  8
0
  6
Continuous
 62
     7
370
    15
100
AcDbLine
 10
350.1309307961
 20
247.1041389065
 30
0.0
 11
350.0548462748
 21
247.0794175469
 31
0.0
  0
LINE
  5
55
330
1F
100
AcDbEntity
  8
0
  6
Continuous
 62
     7
370
    15
100
AcDbLine
 10
350.6234375445
 20
245.329473557
 30
0.0
 11
350.6995220658
 21
245.3541949165
 31
0.0
  0
ARC
  5
56
330
1F
100
AcDbEntity
  8
0
  6
Continuous
 62
     7
370
    15
100
AcDbCircle
 10
313.0109425784
 20
252.8652322478
 30
0.0
 40
0.1679679999999735
100
AcDbArc
 50
0.0
 51
87.0082842346
  0
ARC
  5
57
330
1F
100
AcDbEntity
  8
0
  6
Continuous
 62
     7
370
    15
100
AcDbCircle
 10
304.9492081475
 20
252.8652322478
 30
0.0
 40
0.1679680000000091
100
AcDbArc
 50
92.9917157654
 51
180.0
  0
LINE
  5
58
330
1F
100
AcDbEntity
  8
0
  6
Continuous
 62
     7
370
    15
100
AcDbLine
 10
313.1789105784
 20
252.7712339421
 30
0.0
 11
313.1789105784
 21
252.8652322478
 31
0.0
  0
LINE
  5
59
330
1F
100
AcDbEntity
  8
0
  6
Continuous
 62
     7
370
    15
100
AcDbLine
 10
304.7812401475
 20
252.8652322478
 30
0.0
 11
304.7812401475
 21
252.7712339421
 31
0.0
  0
ARC
  5
5A
330
1F
100
AcDbEntity
  8
0
  6
Continuous
 62
     7
370
    15
100
AcDbCircle
 10
313.1369185784
 20
252.7712339421
 30
0.0
 40
0.0419919999999946
100
AcDbArc
 50
290.140195206
 51
0.0
  0
ARC
  5
5B
330
1F
100
AcDbEntity
  8
0
  6
Continuous
 62
     7
370
    15
100
AcDbCircle
 10
304.8232321475
 20
252.7712339421
 30
0.0
 40
0.0419919999999946
100
AcDbArc
 50
180.0
 51
249.859804794
  0
LINE
  5
5C
330
1F
100
AcDbEntity
  8
0
  6
Continuous
 62
     7
370
    15
100
AcDbLine
 10
304.8087735283
 20
252.7318096299
 30
0.0
 11
304.8612407023
 21
252.712567623
 31
0.0
  0
LINE
  5
5D
330
1F
100
AcDbEntity
  8
0
  6
Continuous
 62
     7
370
    15
100
AcDbLine
 10
313.0989100235
 20
252.712567623
 30
0.0
 11
313.1513771976
 21
252.7318096299
 31
0.0
  0
LINE
  5
5E
330
1F
100
AcDbEntity
  8
0
  6
Continuous
 62
     7
370
    15
100
AcDbLine
 10
313.0197090915
 20
253.0329713228
 30
0.0
 11
308.9800753629
 21
253.2440938766
 31
0.0
  0
LINE
  5
5F
330
1F
100
AcDbEntity
  8
0
  6
Continuous
 62
     7
370
    15
100
AcDbLine
 10
308.9800753629
 20
253.2440938766
 30
0.0
 11
304.9404416344
 21
253.0329713228
 31
0.0
  0
ARC
  5
60
330
1F
100
AcDbEntity
  8
0
  6
Continuous
 62
     7
370
    15
100
AcDbCircle
 10
312.9418048081
 20
252.670575623
 30
0.0
 40
0.0419920000000502
100
AcDbArc
 50
90.0
 51
180.0
  0
ARC
  5
61
330
1F
100
AcDbEntity
  8
0
  6
Continuous
 62
     7
370
    15
100
AcDbCircle
 10
305.0183459178
 20
252.670575623
 30
0.0
 40
0.0419920000000502
100
AcDbArc
 50
0.0
 51
90.0
  0
LINE
  5
62
330
1F
100
AcDbEntity
  8
0
  6
Continuous
 62
     7
370
    15
100
AcDbLine
 10
312.8998128081
 20
252.6249123143
 30
0.0
 11
312.8998128081
 21
252.670575623
 31
0.0
  0
LINE
  5
63
330
1F
100
AcDbEntity
  8
0
  6
Continuous
 62
     7
370
    15
100
AcDbLine
 10
305.0603379178
 20
252.670575623
 30
0.0
 11
305.0603379178
 21
252.6249123143
 31
0.0
  0
ARC
  5
64
330
1F
100
AcDbEntity
  8
0
  6
Continuous
 62
     7
370
    15
100
AcDbCircle
 10
312.8662192081
 20
252.6249123143
 30
0.0
 40
0.0335935999999707
100
AcDbArc
 50
289.933622206
 51
0.0
  0
ARC
  5
65
330
1F
100
AcDbEntity
  8
0
  6
Continuous
 62
     7
370
    15
100
AcDbCircle
 10
305.0939315178
 20
252.6249123143
 30
0.0
 40
0.0335936000000435
100
AcDbArc
 50
180.0
 51
250.066377794
  0
LINE
  5
66
330
1F
100
AcDbEntity
  8
0
  6
Continuous
 62
     7
370
    15
100
AcDbLine
 10
305.0824784091
 20
252.5933313665
 30
0.0
 11
305.0879991635
 21
252.5913292164
 31
0.0
  0
LINE
  5
67
330
1F
100
AcDbEntity
  8
0
  6
Continuous
 62
     7
370
    15
100
AcDbLine
 10
312.8721515624
 20
252.5913292164
 30
0.0
 11
312.8776723168
 21
252.5933313665
 31
0.0
  0
LINE
  5
68
330
1F
100
AcDbEntity
  8
0
  6
Continuous
 62
     7
370
    15
100
AcDbLine
 10
335.5789105784
 20
252.7712339421
 30
0.0
 11
335.5789105784
 21
252.8652322478
 31
0.0
  0
LINE
  5
69
330
1F
100
AcDbEntity
  8
0
  6
Continuous
 62
     7
370
    15
100
AcDbLine
 10
327.1812401474
 20
252.8652322478
 30
0.0
 11
327.1812401474
 21
252.7712339421
 31
0.0
  0
ARC
  5
6A
330
1F
100
AcDbEntity
  8
0
  6
Continuous
 62
     7
370
    15
100
AcDbCircle
 10
335.4109425784
 20
252.8652322478
 30
0.0
 40
0.1679680000000303
100
AcDbArc
 50
0.0
 51
87.0082842346
  0
ARC
  5
6B
330
1F
100
AcDbEntity
  8
0
  6
Continuous
 62
     7
370
    15
100
AcDbCircle
 10
327.3492081474
 20
252.8652322478
 30
0.0
 40
0.1679680000000303
100
AcDbArc
 50
92.9917157654
 51
180.0
  0
ARC
  5
6C
330
1F
100
AcDbEntity
  8
0
  6
Continuous
 62
     7
370
    15
100
AcDbCircle
 10
335.5369185784
 20
252.7712339421
 30
0.0
 40
0.0419919999999946
100
AcDbArc
 50
290.140195206
 51
0.0
  0
ARC
  5
6D
330
1F
100
AcDbEntity
  8
0
  6
Continuous
 62
     7
370
    15
100
AcDbCircle
 10
327.2232321474
 20
252.7712339421
 30
0.0
 40
0.0419919999999946
100
AcDbArc
 50
180.0
 51
249.859804794
  0
LINE
  5
6E
330
1F
100
AcDbEntity
  8
0
  6
Continuous
 62
     7
370
    15
100
AcDbLine
 10
327.2087735283
 20
252.7318096298
 30
0.0
 11
327.2612407023
 21
252.712567623
 31
0.0
  0
LINE
  5
6F
330
1F
100
AcDbEntity
  8
0
  6
Continuous
 62
     7
370
    15
100
AcDbLine
 10
335.4989100235
 20
252.712567623
 30
0.0
 11
335.5513771976
 21
252.7318096298
 31
0.0
  0
LINE
  5
70
330
1F
100
AcDbEntity
  8
0
  6
Continuous
 62
     7
370
    15
100
AcDbLine
 10
335.4197090915
 20
253.0329713228
 30
0.0
 11
331.3800753629
 21
253.2440938766
 31
0.0
  0
LINE
  5
71
330
1F
100
AcDbEntity
  8
0
  6
Continuous
 62
     7
370
    15
100
AcDbLine
 10
331.3800753629
 20
253.2440938766
 30
0.0
 11
327.3404416344
 21
253.0329713228
 31
0.0
  0
ARC
  5
72
330
1F
100
AcDbEntity
  8
0
  6
Continuous
 62
     7
370
    15
100
AcDbCircle
 10
335.341804808
 20
252.670575623
 30
0.0
 40
0.0419920000000502
100
AcDbArc
 50
90.0000000001
 51
180.0
  0
ARC
  5
73
330
1F
100
AcDbEntity
  8
0
  6
Continuous
 62
     7
370
    15
100
AcDbCircle
 10
327.4183459178
 20
252.670575623
 30
0.0
 40
0.0419919999999934
100
AcDbArc
 50
0.0
 51
90.0
  0
ARC
  5
74
330
1F
100
AcDbEntity
  8
0
  6
Continuous
 62
     7
370
    15
100
AcDbCircle
 10
335.266219208
 20
252.6249123143
 30
0.0
 40
0.0335936000000174
100
AcDbArc
 50
289.9336222062
 51
0.0000000001
  0
ARC
  5
75
330
1F
100
AcDbEntity
  8
0
  6
Continuous
 62
     7
370
    15
100
AcDbCircle
 10
327.4939315178
 20
252.6249123143
 30
0.0
 40
0.0335936000000174
100
AcDbArc
 50
180.0
 51
250.0663777938
  0
LINE
  5
76
330
1F
100
AcDbEntity
  8
0
  6
Continuous
 62
     7
370
    15
100
AcDbLine
 10
335.299812808
 20
252.6249123143
 30
0.0
 11
335.299812808
 21
252.670575623
 31
0.0
  0
LINE
  5
77
330
1F
100
AcDbEntity
  8
0
  6
Continuous
 62
     7
370
    15
100
AcDbLine
 10
327.4603379178
 20
252.670575623
 30
0.0
 11
327.4603379178
 21
252.6249123143
 31
0.0
  0
LINE
  5
78
330
1F
100
AcDbEntity
  8
0
  6
Continuous
 62
     7
370
    15
100
AcDbLine
 10
327.4824784091
 20
252.5933313665
 30
0.0
 11
327.4879991635
 21
252.5913292163
 31
0.0
  0
LINE
  5
79
330
1F
100
AcDbEntity
  8
0
  6
Continuous
 62
     7
370
    15
100
AcDbLine
 10
335.2721515624
 20
252.5913292163
 30
0.0
 11
335.2776723168
 21
252.5933313665
 31
0.0
  0
LINE
  5
7A
330
1F
100
AcDbEntity
  8
0
  6
Continuous
 62
     7
370
    15
100
AcDbLine
 10
327.4573518429
 20
252.5673292163
 30
0.0
 11
327.4573518429
 21
252.4316787423
 31
0.0
  0
LINE
  5
7B
330
1F
100
AcDbEntity
  8
0
  6
Continuous
 62
     7
370
    15
100
AcDbLine
 10
335.3027988829
 20
252.4316787423
 30
0.0
 11
335.3027988829
 21
252.5673292163
 31
0.0
  0
ARC
  5
7C
330
1F
100
AcDbEntity
  8
0
  6
Continuous
 62
     7
370
    15
100
AcDbCircle
 10
327.4813518429
 20
252.5673292163
 30
0.0
 40
0.0239999999999725
100
AcDbArc
 50
90.0
 51
180.0
  0
ARC
  5
7D
330
1F
100
AcDbEntity
  8
0
  6
Continuous
 62
     7
370
    15
100
AcDbCircle
 10
335.2787988829
 20
252.5673292163
 30
0.0
 40
0.0239999999999725
100
AcDbArc
 50
0.0
 51
90.0
  0
LINE
  5
7E
330
1F
100
AcDbEntity
  8
0
  6
Continuous
 62
     7
370
    15
100
AcDbLine
 10
335.2787988829
 20
252.5913292163
 30
0.0
 11
327.4813518429
 21
252.5913292163
 31
0.0
  0
LINE
  5
7F
330
1F
100
AcDbEntity
  8
0
  6
Continuous
 62
     7
370
    15
100
AcDbLine
 10
305.0573518429
 20
252.5673292164
 30
0.0
 11
305.0573518429
 21
252.4316787423
 31
0.0
  0
LINE
  5
80
330
1F
100
AcDbEntity
  8
0
  6
Continuous
 62
     7
370
    15
100
AcDbLine
 10
312.9027988829
 20
252.4316787423
 30
0.0
 11
312.9027988829
 21
252.5673292164
 31
0.0
  0
ARC
  5
81
330
1F
100
AcDbEntity
  8
0
  6
Continuous
 62
     7
370
    15
100
AcDbCircle
 10
305.0813518429
 20
252.5673292164
 30
0.0
 40
0.0240000000000009
100
AcDbArc
 50
90.0
 51
180.0
  0
ARC
  5
82
330
1F
100
AcDbEntity
  8
0
  6
Continuous
 62
     7
370
    15
100
AcDbCircle
 10
312.8787988829
 20
252.5673292164
 30
0.0
 40
0.0240000000000009
100
AcDbArc
 50
0.0
 51
90.0
  0
LINE
  5
83
330
1F
100
AcDbEntity
  8
0
  6
Continuous
 62
     7
370
    15
100
AcDbLine
 10
312.8787988829
 20
252.5913292164
 30
0.0
 11
305.0813518429
 21
252.5913292164
 31
0.0
  0
ARC
  5
84
330
1F
100
AcDbEntity
  8
0
  6
Continuous
 62
     7
370
    15
100
AcDbCircle
 10
298.9600753629
 20
252.4516787423
 30
0.0
 40
0.0200000000000138
100
AcDbArc
 50
270.0
 51
52.6298367359
  0
ARC
  5
85
330
1F
100
AcDbEntity
  8
0
  6
Continuous
 62
     7
370
    15
100
AcDbCircle
 10
298.0400753629
 20
252.4516787423
 30
0.0
 40
0.0200000000000138
100
AcDbArc
 50
127.3701632641
 51
270.0
  0
ARC
  5
86
330
1F
100
AcDbEntity
  8
0
  6
Continuous
 62
     7
370
    15
100
AcDbCircle
 10
298.515674746
 20
251.9153223594
 30
0.0
 40
0.7165262089768268
100
AcDbArc
 50
50.4198331668
 51
56.3345247097
  0
ARC
  5
87
330
1F
100
AcDbEntity
  8
0
  6
Continuous
 62
     7
370
    15
100
AcDbCircle
 10
298.4844759799
 20
251.9153223594
 30
0.0
 40
0.7165262089768523
100
AcDbArc
 50
123.6654752903
 51
129.5801668332
  0
ARC
  5
88
330
1F
100
AcDbEntity
  8
0
  6
Continuous
 62
     7
370
    15
100
AcDbCircle
 10
342.3200753629
 20
252.4516787423
 30
0.0
 40
0.0200000000000138
100
AcDbArc
 50
270.0
 51
52.6298367359
  0
ARC
  5
89
330
1F
100
AcDbEntity
  8
0
  6
Continuous
 62
     7
370
    15
100
AcDbCircle
 10
341.4000753629
 20
252.4516787423
 30
0.0
 40
0.0200000000000138
100
AcDbArc
 50
127.3701632641
 51
270.0
  0
ARC
  5
8A
330
1F
100
AcDbEntity
  8
0
  6
Continuous
 62
     7
370
    15
100
AcDbCircle
 10
341.8756747459
 20
251.9153223593
 30
0.0
 40
0.7165262089768268
100
AcDbArc
 50
50.4198331668
 51
56.3345247097
  0
ARC
  5
8B
330
1F
100
AcDbEntity
  8
0
  6
Continuous
 62
     7
370
    15
100
AcDbCircle
 10
341.8444759799
 20
251.9153223593
 30
0.0
 40
0.7165262089768268
100
AcDbArc
 50
123.6654752903
 51
129.5801668332
  0
LINE
  5
8C
330
1F
100
AcDbEntity
  8
0
  6
Continuous
 62
     7
370
    15
100
AcDbLine
 10
347.6280753629
 20
244.7319648684
 30
0.0
 11
347.6680753632
 21
244.7449616563
 31
0.0
  0
LINE
  5
8D
330
1F
100
AcDbEntity
  8
0
  6
Continuous
 62
     7
370
    15
100
AcDbLine
 10
347.6680753632
 20
247.5512294412
 30
0.0
 11
347.6646512272
 21
247.5617678481
 31
0.0
  0
LINE
  5
8E
330
1F
100
AcDbEntity
  8
0
  6
Continuous
 62
     7
370
    15
100
AcDbLine
 10
350.9095216436
 20
246.7655166434
 30
0.0
 11
350.4950094957
 21
246.6308334822
 31
0.0
  0
LINE
  5
8F
330
1F
100
AcDbEntity
  8
0
  6
Continuous
 62
     7
370
    15
100
AcDbLine
 10
350.692780372
 20
246.0221573118
 30
0.0
 11
351.10729252
 21
246.156840473
 31
0.0
  0
LINE
  5
90
330
1F
100
AcDbEntity
  8
0
  6
Continuous
 62
     7
370
    15
100
AcDbLine
 10
351.9640203098
 20
244.0378743349
 30
0.0
 11
352.6259800846
 21
244.5894260157
 31
0.0
  0
LINE
  5
91
330
1F
100
AcDbEntity
  8
0
  6
Continuous
 62
     7
370
    15
100
AcDbLine
 10
350.5567049198
 20
248.9701076657
 30
0.0
 11
350.357131939
 21
248.9833682197
 31
0.0
  0
LINE
  5
92
330
1F
100
AcDbEntity
  8
0
  6
Continuous
 62
     7
370
    15
100
AcDbLine
 10
351.2168625903
 20
248.92624373
 30
0.0
 11
350.9558118416
 21
248.9435891518
 31
0.0
  0
LINE
  5
93
330
1F
100
AcDbEntity
  8
0
  6
Continuous
 62
     7
370
    15
100
AcDbLine
 10
352.6259800846
 20
244.5894260157
 30
0.0
 11
353.8868756176
 21
245.733849357
 31
0.0
  0
LINE
  5
94
330
1F
100
AcDbEntity
  8
0
  6
Continuous
 62
     7
370
    15
100
AcDbLine
 10
351.2566265322
 20
248.9219044996
 30
0.0
 11
351.2168625903
 21
248.92624373
 31
0.0
  0
ARC
  5
95
330
1F
100
AcDbEntity
  8
0
  6
Continuous
 62
     7
370
    15
100
AcDbCircle
 10
353.8331092781
 20
245.7930876955
 30
0.0
 40
0.0800000000000285
100
AcDbArc
 50
312.227745318
 51
18.0
  0
LINE
  5
96
330
1F
100
AcDbEntity
  8
0
  6
Continuous
 62
     7
370
    15
100
AcDbLine
 10
351.1842206884
 20
245.9200799157
 30
0.0
 11
351.3372527568
 21
245.9668665143
 31
0.0
  0
LINE
  5
97
330
1F
100
AcDbEntity
  8
0
  6
Continuous
 62
     7
370
    15
100
AcDbLine
 10
350.9560911373
 20
248.9443723581
 30
0.0
 11
350.5565353316
 21
248.970920698
 31
0.0
  0
LINE
  5
98
330
1F
100
AcDbEntity
  8
0
  6
Continuous
 62
     7
370
    15
100
AcDbLine
 10
290.4000753629
 20
247.0956787424
 30
0.0
 11
290.4400753629
 21
247.0956787424
 31
0.0
  0
LINE
  5
99
330
1F
100
AcDbEntity
  8
0
  6
Continuous
 62
     7
370
    15
100
AcDbLine
 10
290.4400753629
 20
247.5916787424
 30
0.0
 11
290.4000753629
 21
247.5916787424
 31
0.0
  0
ARC
  5
9A
330
1F
100
AcDbEntity
  8
0
  6
Continuous
 62
     7
370
    15
100
AcDbCircle
 10
290.4400753629
 20
247.1156787424
 30
0.0
 40
0.0200000000000102
100
AcDbArc
 50
270.0
 51
0.0
  0
ARC
  5
9B
330
1F
100
AcDbEntity
  8
0
  6
Continuous
 62
     7
370
    15
100
AcDbCircle
 10
290.4400753629
 20
247.5716787424
 30
0.0
 40
0.0200000000000102
100
AcDbArc
 50
0.0
 51
90.0
  0
ARC
  5
9C
330
1F
100
AcDbEntity
  8
0
  6
Continuous
 62
     7
370
    15
100
AcDbCircle
 10
290.4000753629
 20
247.1156787424
 30
0.0
 40
0.0200000000000102
100
AcDbArc
 50
180.0
 51
270.0
  0
ARC
  5
9D
330
1F
100
AcDbEntity
  8
0
  6
Continuous
 62
     7
370
    15
100
AcDbCircle
 10
290.4000753629
 20
247.5716787424
 30
0.0
 40
0.0200000000000102
100
AcDbArc
 50
90.0
 51
180.0
  0
ARC
  5
9E
330
1F
100
AcDbEntity
  8
0
  6
Continuous
 62
     7
370
    15
100
AcDbCircle
 10
290.4800753629
 20
247.1316787424
 30
0.0
 40
0.0200000000000387
100
AcDbArc
 50
90.0
 51
180.0
  0
ARC
  5
9F
330
1F
100
AcDbEntity
  8
0
  6
Continuous
 62
     7
370
    15
100
AcDbCircle
 10
290.4800753629
 20
247.5556787424
 30
0.0
 40
0.0200000000000387
100
AcDbArc
 50
180.0
 51
270.0
  0
LINE
  5
A0
330
1F
100
AcDbEntity
  8
0
  6
Continuous
 62
     7
370
    15
100
AcDbLine
 10
290.8000753629
 20
247.1516787424
 30
0.0
 11
290.8480753629
 21
247.1716787424
 31
0.0
  0
LINE
  5
A1
330
1F
100
AcDbEntity
  8
0
  6
Continuous
 62
     7
370
    15
100
AcDbLine
 10
290.8480753629
 20
247.5156787424
 30
0.0
 11
290.8000753629
 21
247.5356787424
 31
0.0
  0
LINE
  5
A2
330
1F
100
AcDbEntity
  8
0
  6
Continuous
 62
     7
370
    15
100
AcDbLine
 10
290.4800753629
 20
247.1516787424
 30
0.0
 11
290.8000753629
 21
247.1516787424
 31
0.0
  0
LINE
  5
A3
330
1F
100
AcDbEntity
  8
0
  6
Continuous
 62
     7
370
    15
100
AcDbLine
 10
290.8000753629
 20
247.5356787424
 30
0.0
 11
290.4800753629
 21
247.5356787424
 31
0.0
  0
LINE
  5
A4
330
1F
100
AcDbEntity
  8
0
  6
Continuous
 62
     7
370
    15
100
AcDbLine
 10
290.6200753629
 20
239.5436787424
 30
0.0
 11
291.0200753629
 21
239.5436787424
 31
0.0
  0
LINE
  5
A5
330
1F
100
AcDbEntity
  8
0
  6
Continuous
 62
     7
370
    15
100
AcDbLine
 10
291.0200753629
 20
241.5436787424
 30
0.0
 11
290.6200753629
 21
241.5436787424
 31
0.0
  0
LINE
  5
A6
330
1F
100
AcDbEntity
  8
0
  6
Continuous
 62
     7
370
    15
100
AcDbLine
 10
290.3800753629
 20
249.6156787424
 30
0.0
 11
291.0200753629
 21
249.6156787424
 31
0.0
  0
LINE
  5
A7
330
1F
100
AcDbEntity
  8
0
  6
Continuous
 62
     7
370
    15
100
AcDbLine
 10
291.0200753629
 20
250.4156787424
 30
0.0
 11
290.3800753629
 21
250.4156787424
 31
0.0
  0
LINE
  5
A8
330
1F
100
AcDbEntity
  8
0
  6
Continuous
 62
     7
370
    15
100
AcDbLine
 10
290.3800753629
 20
242.4156787424
 30
0.0
 11
291.0200753629
 21
242.4156787424
 31
0.0
  0
LINE
  5
A9
330
1F
100
AcDbEntity
  8
0
  6
Continuous
 62
     7
370
    15
100
AcDbLine
 10
291.0200753629
 20
243.2156787424
 30
0.0
 11
290.3800753629
 21
243.2156787424
 31
0.0
  0
LINE
  5
AA
330
1F
100
AcDbEntity
  8
0
  6
Continuous
 62
     7
370
    15
100
AcDbLine
 10
287.8963852983
 20
238.3653355966
 30
0.0
 11
287.9003122369
 21
238.3436787423
 31
0.0
  0
LINE
  5
AB
330
1F
100
AcDbEntity
  8
0
  6
Continuous
 62
     7
370
    15
100
AcDbLine
 10
287.9824315051
 20
238.3436787423
 30
0.0
 11
287.975374824
 21
238.3653355966
 31
0.0
  0
LINE
  5
AC
330
1F
100
AcDbEntity
  8
0
  6
Continuous
 62
     7
370
    15
100
AcDbLine
 10
285.5363439226
 20
252.2716787424
 30
0.0
 11
285.5363439226
 21
252.2796787424
 31
0.0
  0
LINE
  5
AD
330
1F
100
AcDbEntity
  8
0
  6
Continuous
 62
     7
370
    15
100
AcDbLine
 10
284.0163439226
 20
252.2796787424
 30
0.0
 11
284.0163439226
 21
252.2716787424
 31
0.0
  0
LWPOLYLINE
  5
AE
330
1F
100
AcDbEntity
  8
0
  6
Continuous
 62
     7
370
    15
100
AcDbPolyline
 90
        7
 70
   128
 43
0.0
 10
290.1161590473
 20
200.8121624748
 10
290.1161882455
 20
200.812811606
 10
290.117688755
 20
200.8151732811
 10
290.1211709297
 20
200.8179095948
 10
290.1261526764
 20
200.8201205486
 10
290.1328620419
 20
200.8214803333
 10
290.1360753392
 20
200.8214801798
  0
LINE
  5
AF
330
1F
100
AcDbEntity
  8
0
  6
Continuous
 62
     7
370
    15
100
AcDbLine
 10
290.1360753629
 20
200.8216314892
 30
0.0
 11
290.5440753629
 21
200.8216314892
 31
0.0
  0
ARC
  5
B0
330
1F
100
AcDbEntity
  8
0
  6
Continuous
 62
     7
370
    15
100
AcDbCircle
 10
290.5440753629
 20
200.8416314892
 30
0.0
 40
0.0200000000000102
100
AcDbArc
 50
270.0
 51
0.0
  0
ARC
  5
B1
330
1F
100
AcDbEntity
  8
0
  6
Continuous
 62
     7
370
    15
100
AcDbCircle
 10
290.5440753629
 20
201.227724847
 30
0.0
 40
0.0200000000000102
100
AcDbArc
 50
0.0
 51
90.0
  0
LINE
  5
B2
330
1F
100
AcDbEntity
  8
0
  6
Continuous
 62
     7
370
    15
100
AcDbLine
 10
290.5440753629
 20
201.247724847
 30
0.0
 11
290.1360753629
 21
201.247724847
 31
0.0
  0
ARC
  5
B3
330
1F
100
AcDbEntity
  8
0
  6
Continuous
 62
     7
370
    15
100
AcDbCircle
 10
290.0400753629
 20
201.2036787423
 30
0.0
 40
0.0200000000000387
100
AcDbArc
 50
90.0
 51
180.0
  0
LINE
  5
B4
330
1F
100
AcDbEntity
  8
0
  6
Continuous
 62
     7
370
    15
100
AcDbLine
 10
290.0611329959
 20
201.2236787423
 30
0.0
 11
290.0400753629
 21
201.2236787423
 31
0.0
  0
LINE
  5
B5
330
1F
100
AcDbEntity
  8
0
  6
Continuous
 62
     7
370
    15
100
AcDbLine
 10
290.1817970443
 20
199.8076326377
 30
0.0
 11
290.5440753629
 21
199.8076326377
 31
0.0
  0
ARC
  5
B6
330
1F
100
AcDbEntity
  8
0
  6
Continuous
 62
     7
370
    15
100
AcDbCircle
 10
290.5440753629
 20
199.8276326377
 30
0.0
 40
0.0200000000000102
100
AcDbArc
 50
270.0
 51
0.0
  0
LWPOLYLINE
  5
B7
330
1F
100
AcDbEntity
  8
0
  6
Continuous
 62
     7
370
    15
100
AcDbPolyline
 90
        7
 70
   128
 43
0.0
 10
290.1158844879
 20
200.180643003
 10
290.1158243444
 20
200.1788787801
 10
290.1129182458
 20
200.1742932739
 10
290.1087271592
 20
200.1712770127
 10
290.1034040724
 20
200.1692103732
 10
290.0968325297
 20
200.168282209
 10
290.0960994841
 20
200.1683203874
  0
LINE
  5
B8
330
1F
100
AcDbEntity
  8
0
  6
Continuous
 62
     7
370
    15
100
AcDbLine
 10
290.0960753629
 20
200.1682693107
 30
0.0
 11
289.6880753629
 21
200.1682693107
 31
0.0
  0
ARC
  5
B9
330
1F
100
AcDbEntity
  8
0
  6
Continuous
 62
     7
370
    15
100
AcDbCircle
 10
289.6880753629
 20
200.1482693107
 30
0.0
 40
0.0199999999999818
100
AcDbArc
 50
90.0
 51
180.0
  0
ARC
  5
BA
330
1F
100
AcDbEntity
  8
0
  6
Continuous
 62
     7
370
    15
100
AcDbCircle
 10
289.6880753629
 20
199.7932436135
 30
0.0
 40
0.0199999999999818
100
AcDbArc
 50
180.0
 51
270.0
  0
LINE
  5
BB
330
1F
100
AcDbEntity
  8
0
  6
Continuous
 62
     7
370
    15
100
AcDbLine
 10
289.6880753629
 20
199.7732436135
 30
0.0
 11
290.0960753629
 21
199.7732436135
 31
0.0
  0
ARC
  5
BC
330
1F
100
AcDbEntity
  8
0
  6
Continuous
 62
     7
370
    15
100
AcDbCircle
 10
290.1920753629
 20
199.8516787423
 30
0.0
 40
0.0200000000000387
100
AcDbArc
 50
301.0756875735
 51
0.0
  0
LINE
  5
BD
330
1F
100
AcDbEntity
  8
0
  6
Continuous
 62
     7
370
    15
100
AcDbLine
 10
290.0960753629
 20
201.2821138711
 30
0.0
 11
289.6880753629
 21
201.2821138711
 31
0.0
  0
ARC
  5
BE
330
1F
100
AcDbEntity
  8
0
  6
Continuous
 62
     7
370
    15
100
AcDbCircle
 10
289.6880753629
 20
201.2621138711
 30
0.0
 40
0.0200000000000102
100
AcDbArc
 50
90.0
 51
180.0
  0
LINE
  5
BF
330
1F
100
AcDbEntity
  8
0
  6
Continuous
 62
     7
370
    15
100
AcDbLine
 10
290.6480753629
 20
200.1276787423
 30
0.0
 11
290.6637839176
 21
200.1004707274
 31
0.0
  0
LINE
  5
C0
330
1F
100
AcDbEntity
  8
0
  6
Continuous
 62
     7
370
    15
100
AcDbLine
 10
290.6637839176
 20
200.9548867572
 30
0.0
 11
290.6480753629
 21
200.9276787423
 31
0.0
  0
LINE
  5
C1
330
1F
100
AcDbEntity
  8
0
  6
Continuous
 62
     7
370
    15
100
AcDbLine
 10
290.6280753629
 20
200.9276787423
 30
0.0
 11
290.6210188736
 21
200.9399009404
 31
0.0
  0
LINE
  5
C2
330
1F
100
AcDbEntity
  8
0
  6
Continuous
 62
     7
370
    15
100
AcDbLine
 10
290.2120753629
 20
200.1276787423
 30
0.0
 11
290.2191318523
 21
200.1154565442
 31
0.0
  0
LINE
  5
C3
330
1F
100
AcDbEntity
  8
0
  6
Continuous
 62
     7
370
    15
100
AcDbLine
 10
290.6210188736
 20
200.1154565442
 30
0.0
 11
290.6280753629
 21
200.1276787423
 31
0.0
  0
LINE
  5
C4
330
1F
100
AcDbEntity
  8
0
  6
Continuous
 62
     7
370
    15
100
AcDbLine
 10
290.6480753629
 20
200.7676787423
 30
0.0
 11
290.6280753629
 21
200.7676787423
 31
0.0
  0
LINE
  5
C5
330
1F
100
AcDbEntity
  8
0
  6
Continuous
 62
     7
370
    15
100
AcDbLine
 10
290.6280753629
 20
200.2876787423
 30
0.0
 11
290.6480753629
 21
200.2876787423
 31
0.0
  0
LINE
  5
C6
330
1F
100
AcDbEntity
  8
0
  6
Continuous
 62
     7
370
    15
100
AcDbLine
 10
287.5851327642
 20
252.2796787424
 30
0.0
 11
287.5851327642
 21
252.2876787424
 31
0.0
  0
LINE
  5
C7
330
1F
100
AcDbEntity
  8
0
  6
Continuous
 62
     7
370
    15
100
AcDbLine
 10
283.004075363
 20
230.3887361436
 30
0.0
 11
282.996075363
 21
230.3887361436
 31
0.0
  0
LINE
  5
C8
330
1F
100
AcDbEntity
  8
0
  6
Continuous
 62
     7
370
    15
100
AcDbLine
 10
287.5725067066
 20
211.1516787423
 30
0.0
 11
287.850853205
 21
210.7516787423
 31
0.0
  0
LINE
  5
C9
330
1F
100
AcDbEntity
  8
0
  6
Continuous
 62
     7
370
    15
100
AcDbLine
 10
288.1291997035
 20
210.3516787423
 30
0.0
 11
288.4075462019
 21
209.9516787423
 31
0.0
  0
LINE
  5
CA
330
1F
100
AcDbEntity
  8
0
  6
Continuous
 62
     7
370
    15
100
AcDbLine
 10
288.6858927003
 20
209.5516787423
 30
0.0
 11
288.9642391988
 21
209.1516787423
 31
0.0
  0
LINE
  5
CB
330
1F
100
AcDbEntity
  8
0
  6
Continuous
 62
     7
370
    15
100
AcDbLine
 10
289.2425856972
 20
208.7516787423
 30
0.0
 11
289.5209321956
 21
208.3516787423
 31
0.0
  0
LINE
  5
CC
330
1F
100
AcDbEntity
  8
0
  6
Continuous
 62
     7
370
    15
100
AcDbLine
 10
289.676075363
 20
209.5293312153
 30
0.0
 11
289.6605244732
 21
209.5516787423
 31
0.0
  0
LINE
  5
CD
330
1F
100
AcDbEntity
  8
0
  6
Continuous
 62
     7
370
    15
100
AcDbLine
 10
289.3821779748
 20
209.9516787423
 30
0.0
 11
289.1038314764
 21
210.3516787423
 31
0.0
  0
LINE
  5
CE
330
1F
100
AcDbEntity
  8
0
  6
Continuous
 62
     7
370
    15
100
AcDbLine
 10
288.8254849779
 20
210.7516787423
 30
0.0
 11
288.5471384795
 21
211.1516787423
 31
0.0
  0
LINE
  5
CF
330
1F
100
AcDbEntity
  8
0
  6
Continuous
 62
     7
370
    15
100
AcDbLine
 10
288.2687919811
 20
211.5516787423
 30
0.0
 11
288.0749543729
 21
211.8302345844
 31
0.0
  0
LINE
  5
D0
330
1F
100
AcDbEntity
  8
0
  6
Continuous
 62
     7
370
    15
100
AcDbLine
 10
287.316075363
 20
229.1516787423
 30
0.0
 11
287.316075363
 21
229.5516787423
 31
0.0
  0
LINE
  5
D1
330
1F
100
AcDbEntity
  8
0
  6
Continuous
 62
     7
370
    15
100
AcDbLine
 10
287.316075363
 20
229.9516787423
 30
0.0
 11
287.316075363
 21
230.3516787423
 31
0.0
  0
LINE
  5
D2
330
1F
100
AcDbEntity
  8
0
  6
Continuous
 62
     7
370
    15
100
AcDbLine
 10
286.516075363
 20
231.1516787423
 30
0.0
 11
286.516075363
 21
230.7516787423
 31
0.0
  0
LINE
  5
D3
330
1F
100
AcDbEntity
  8
0
  6
Continuous
 62
     7
370
    15
100
AcDbLine
 10
286.516075363
 20
230.3516787423
 30
0.0
 11
286.516075363
 21
229.9516787423
 31
0.0
  0
LINE
  5
D4
330
1F
100
AcDbEntity
  8
0
  6
Continuous
 62
     7
370
    15
100
AcDbLine
 10
286.516075363
 20
229.5516787423
 30
0.0
 11
286.516075363
 21
229.1516787423
 31
0.0
  0
LINE
  5
D5
330
1F
100
AcDbEntity
  8
0
  6
Continuous
 62
     7
370
    15
100
AcDbLine
 10
286.516075363
 20
228.7516787423
 30
0.0
 11
286.516075363
 21
228.3516787423
 31
0.0
  0
LINE
  5
D6
330
1F
100
AcDbEntity
  8
0
  6
Continuous
 62
     7
370
    15
100
AcDbLine
 10
286.516075363
 20
227.9516787423
 30
0.0
 11
286.516075363
 21
227.5516787423
 31
0.0
  0
LINE
  5
D7
330
1F
100
AcDbEntity
  8
0
  6
Continuous
 62
     7
370
    15
100
AcDbLine
 10
287.316075363
 20
227.5516787423
 30
0.0
 11
287.316075363
 21
227.702011944
 31
0.0
  0
LWPOLYLINE
  5
D8
330
1F
100
AcDbEntity
  8
0
  6
Continuous
 62
     7
370
    15
100
AcDbPolyline
 90
        3
 70
   128
 43
0.0
 10
288.0749543729
 20
211.8302345844
 10
288.018497831
 20
211.9150457103
 10
287.9969700579
 20
211.9516787423
  0
ARC
  5
D9
330
1F
100
AcDbEntity
  8
0
  6
Continuous
 62
     7
370
    15
100
AcDbCircle
 10
290.7846832504
 20
213.7375986077
 30
0.0
 40
3.300618795480923
100
AcDbArc
 50
197.3799941442
 51
204.828083599
  0
ARC
  5
DA
330
1F
100
AcDbEntity
  8
0
  6
Continuous
 62
     7
370
    15
100
AcDbCircle
 10
291.3431684033
 20
214.188966342
 30
0.0
 40
3.961088536851258
100
AcDbArc
 50
189.2583838521
 51
195.1810105064
  0
LWPOLYLINE
  5
DB
330
1F
100
AcDbEntity
  8
0
  6
Continuous
 62
     7
370
    15
100
AcDbPolyline
 90
        3
 70
   128
 43
0.0
 10
287.3739189928
 20
213.9516787423
 10
287.3560370378
 20
214.097180985
 10
287.3350352914
 20
214.3516787423
  0
LINE
  5
DC
330
1F
100
AcDbEntity
  8
0
  6
Continuous
 62
     7
370
    15
100
AcDbLine
 10
287.3176645945
 20
214.7516787423
 30
0.0
 11
287.316075363
 21
214.885482699
 31
0.0
  0
LINE
  5
DD
330
1F
100
AcDbEntity
  8
0
  6
Continuous
 62
     7
370
    15
100
AcDbLine
 10
286.516075363
 20
214.885482699
 30
0.0
 11
286.5174290703
 21
214.7516787423
 31
0.0
  0
LWPOLYLINE
  5
DE
330
1F
100
AcDbEntity
  8
0
  6
Continuous
 62
     7
370
    15
100
AcDbPolyline
 90
        3
 70
   128
 43
0.0
 10
286.5330881699
 20
214.3516787423
 10
286.5565321896
 20
214.0522426609
 10
286.5684146102
 20
213.9516787423
  0
LWPOLYLINE
  5
DF
330
1F
100
AcDbEntity
  8
0
  6
Continuous
 62
     7
370
    15
100
AcDbPolyline
 90
        3
 70
   128
 43
0.0
 10
286.6230352712
 20
213.5516787423
 10
286.6452646375
 20
213.4124045278
 10
286.6982724193
 20
213.1516787423
  0
LWPOLYLINE
  5
E0
330
1F
100
AcDbEntity
  8
0
  6
Continuous
 62
     7
370
    15
100
AcDbPolyline
 90
        3
 70
   128
 43
0.0
 10
286.7987252763
 20
212.7516787423
 10
286.8695200316
 20
212.5163641651
 10
286.876075363
 20
212.4980013628
  0
LINE
  5
E1
330
1F
100
AcDbEntity
  8
0
  6
Continuous
 62
     7
370
    15
100
AcDbLine
 10
287.276075363
 20
211.6003459566
 30
0.0
 11
287.3042303379
 21
211.5516787423
 31
0.0
  0
LINE
  5
E2
330
1F
100
AcDbEntity
  8
0
  6
Continuous
 62
     7
370
    15
100
AcDbLine
 10
286.516075363
 20
216.7516787423
 30
0.0
 11
286.516075363
 21
216.3516787423
 31
0.0
  0
LINE
  5
E3
330
1F
100
AcDbEntity
  8
0
  6
Continuous
 62
     7
370
    15
100
AcDbLine
 10
286.516075363
 20
215.9516787423
 30
0.0
 11
286.516075363
 21
215.5516787423
 31
0.0
  0
LINE
  5
E4
330
1F
100
AcDbEntity
  8
0
  6
Continuous
 62
     7
370
    15
100
AcDbLine
 10
286.516075363
 20
215.1516787423
 30
0.0
 11
286.516075363
 21
214.885482699
 31
0.0
  0
LINE
  5
E5
330
1F
100
AcDbEntity
  8
0
  6
Continuous
 62
     7
370
    15
100
AcDbLine
 10
287.316075363
 20
214.885482699
 30
0.0
 11
287.316075363
 21
215.1516787423
 31
0.0
  0
LINE
  5
E6
330
1F
100
AcDbEntity
  8
0
  6
Continuous
 62
     7
370
    15
100
AcDbLine
 10
287.316075363
 20
215.5516787423
 30
0.0
 11
287.316075363
 21
215.9516787423
 31
0.0
  0
LINE
  5
E7
330
1F
100
AcDbEntity
  8
0
  6
Continuous
 62
     7
370
    15
100
AcDbLine
 10
287.316075363
 20
216.3516787423
 30
0.0
 11
287.316075363
 21
216.7516787423
 31
0.0
  0
ARC
  5
E8
330
1F
100
AcDbEntity
  8
0
  6
Continuous
 62
     7
370
    15
100
AcDbCircle
 10
289.4177574984
 20
227.559983496
 30
0.0
 40
0.3370865604710268
100
AcDbArc
 50
39.9749840372
 51
87.7381389442
  0
LWPOLYLINE
  5
E9
330
1F
100
AcDbEntity
  8
0
  6
Continuous
 62
     7
370
    15
100
AcDbPolyline
 90
        4
 70
   128
 43
0.0
 10
289.4196825818
 20
227.5776156026
 10
289.41989945
 20
227.5772214561
 10
289.4395970362
 20
227.5617326978
 10
289.4487243605
 20
227.5516787423
  0
LINE
  5
EA
330
1F
100
AcDbEntity
  8
0
  6
Continuous
 62
     7
370
    15
100
AcDbLine
 10
289.6600373705
 20
227.1516787423
 30
0.0
 11
289.676075363
 21
227.1048645919
 31
0.0
  0
LINE
  5
EB
330
1F
100
AcDbEntity
  8
0
  6
Continuous
 62
     7
370
    15
100
AcDbLine
 10
287.5443027911
 20
227.5851795517
 30
0.0
 11
289.4296407238
 21
227.5768105808
 31
0.0
  0
LINE
  5
EC
330
1F
100
AcDbEntity
  8
0
  6
Continuous
 62
     7
370
    15
100
AcDbLine
 10
289.4310611823
 20
227.8968074281
 30
0.0
 11
287.5457232496
 21
227.9051763991
 31
0.0
  0
ARC
  5
ED
330
1F
100
AcDbEntity
  8
0
  6
Continuous
 62
     7
370
    15
100
AcDbCircle
 10
287.6539279644
 20
228.0157959664
 30
0.0
 40
0.144763632667835
100
AcDbArc
 50
206.2896824265
 51
225.316635469
  0
ARC
  5
EE
330
1F
100
AcDbEntity
  8
0
  6
Continuous
 62
     7
370
    15
100
AcDbCircle
 10
290.6236174399
 20
229.034326271
 30
0.0
 40
3.304926610241783
100
AcDbArc
 50
184.9061051273
 51
191.9205143087
  0
LWPOLYLINE
  5
EF
330
1F
100
AcDbEntity
  8
0
  6
Continuous
 62
     7
370
    15
100
AcDbPolyline
 90
        3
 70
   128
 43
0.0
 10
287.3066760245
 20
229.1516787423
 10
287.3057779102
 20
229.1765798418
 10
287.3048746807
 20
229.3455579065
  0
ARC
  5
F0
330
1F
100
AcDbEntity
  8
0
  6
Continuous
 62
     7
370
    15
100
AcDbCircle
 10
287.5623621481
 20
227.9171222051
 30
0.0
 40
0.3324335504579463
100
AcDbArc
 50
210.5501045818
 51
266.8858902628
  0
LINE
  5
F1
330
1F
100
AcDbEntity
  8
0
  6
Continuous
 62
     7
370
    15
100
AcDbLine
 10
287.3048746807
 20
229.3455579065
 30
0.0
 11
287.3066734712
 21
229.5516787423
 31
0.0
  0
LINE
  5
F2
330
1F
100
AcDbEntity
  8
0
  6
Continuous
 62
     7
370
    15
100
AcDbLine
 10
287.3101642206
 20
229.9516787423
 30
0.0
 11
287.31365497
 21
230.3516787423
 31
0.0
  0
LINE
  5
F3
330
1F
100
AcDbEntity
  8
0
  6
Continuous
 62
     7
370
    15
100
AcDbLine
 10
287.3171457194
 20
230.7516787423
 30
0.0
 11
287.3206364688
 21
231.1516787423
 31
0.0
  0
LINE
  5
F4
330
1F
100
AcDbEntity
  8
0
  6
Continuous
 62
     7
370
    15
100
AcDbLine
 10
287.3834001434
 20
238.3436787423
 30
0.0
 11
287.38358914
 21
238.3653355966
 31
0.0
  0
LWPOLYLINE
  5
F5
330
1F
100
AcDbEntity
  8
0
  6
Continuous
 62
     7
370
    15
100
AcDbPolyline
 90
        3
 70
   128
 43
0.0
 10
284.476075363
 20
217.2297898638
 10
284.5676191765
 20
217.1585030525
 10
284.578006244
 20
217.1516787423
  0
LINE
  5
F6
330
1F
100
AcDbEntity
  8
0
  6
Continuous
 62
     7
370
    15
100
AcDbLine
 10
350.8680753629
 20
196.9236787423
 30
0.0
 11
350.8680753629
 21
196.8036787423
 31
0.0
  0
LINE
  5
F7
330
1F
100
AcDbEntity
  8
0
  6
Continuous
 62
     7
370
    15
100
AcDbLine
 10
352.2280753629
 20
196.8036787423
 30
0.0
 11
352.2280753629
 21
196.9236787423
 31
0.0
  0
LINE
  5
F8
330
1F
100
AcDbEntity
  8
0
  6
Continuous
 62
     7
370
    15
100
AcDbLine
 10
350.8680753629
 20
196.8036787423
 30
0.0
 11
350.9080753629
 21
196.7636787423
 31
0.0
  0
LINE
  5
F9
330
1F
100
AcDbEntity
  8
0
  6
Continuous
 62
     7
370
    15
100
AcDbLine
 10
352.1880753629
 20
196.7636787423
 30
0.0
 11
352.2280753629
 21
196.8036787423
 31
0.0
  0
LINE
  5
FA
330
1F
100
AcDbEntity
  8
0
  6
Continuous
 62
     7
370
    15
100
AcDbLine
 10
352.2280753629
 20
196.9236787423
 30
0.0
 11
352.1880753629
 21
196.9636787423
 31
0.0
  0
LINE
  5
FB
330
1F
100
AcDbEntity
  8
0
  6
Continuous
 62
     7
370
    15
100
AcDbLine
 10
350.9080753629
 20
196.9636787423
 30
0.0
 11
350.8680753629
 21
196.9236787423
 31
0.0
  0
LINE
  5
FC
330
1F
100
AcDbEntity
  8
0
  6
Continuous
 62
     7
370
    15
100
AcDbLine
 10
352.2280753629
 20
238.9236787423
 30
0.0
 11
352.2280753629
 21
239.0436787423
 31
0.0
  0
LINE
  5
FD
330
1F
100
AcDbEntity
  8
0
  6
Continuous
 62
     7
370
    15
100
AcDbLine
 10
350.8680753629
 20
239.0436787423
 30
0.0
 11
350.8680753629
 21
238.9236787423
 31
0.0
  0
LINE
  5
FE
330
1F
100
AcDbEntity
  8
0
  6
Continuous
 62
     7
370
    15
100
AcDbLine
 10
350.8680753629
 20
238.9236787423
 30
0.0
 11
350.9080753629
 21
238.8836787423
 31
0.0
  0
LINE
  5
FF
330
1F
100
AcDbEntity
  8
0
  6
Continuous
 62
     7
370
    15
100
AcDbLine
 10
352.1880753629
 20
238.8836787423
 30
0.0
 11
352.2280753629
 21
238.9236787423
 31
0.0
  0
LINE
  5
100
330
1F
100
AcDbEntity
  8
0
  6
Continuous
 62
     7
370
    15
100
AcDbLine
 10
352.2280753629
 20
239.0436787423
 30
0.0
 11
352.1880753629
 21
239.0836787423
 31
0.0
  0
LINE
  5
101
330
1F
100
AcDbEntity
  8
0
  6
Continuous
 62
     7
370
    15
100
AcDbLine
 10
350.9080753629
 20
239.0836787423
 30
0.0
 11
350.8680753629
 21
239.0436787423
 31
0.0
  0
LWPOLYLINE
  5
102
330
1F
100
AcDbEntity
  8
0
  6
Continuous
 62
     7
370
    15
100
AcDbPolyline
 90
        5
 70
   128
 43
0.0
 10
352.3481699516
 20
233.7177798133
 10
352.6844781833
 20
233.7178216299
 10
353.9203846608
 20
233.7259155238
 10
354.683144254
 20
233.719973772
 10
355.1147980659
 20
233.7045061757
  0
ARC
  5
103
330
1F
100
AcDbEntity
  8
0
  6
Continuous
 62
     7
370
    15
100
AcDbCircle
 10
353.2867719478
 20
331.719837839
 30
0.0
 40
95.67578205432801
100
AcDbArc
 50
269.4378495811
 51
271.09458993
  0
LWPOLYLINE
  5
104
330
1F
100
AcDbEntity
  8
0
  6
Continuous
 62
     7
370
    15
100
AcDbPolyline
 90
       15
 70
   128
 43
0.0
 10
355.2379977605
 20
233.7194021418
 10
355.2367050634
 20
233.7193119063
 10
355.2521868571
 20
233.7189512619
 10
355.2939340111
 20
233.7173895433
 10
355.3338309369
 20
233.7166374684
 10
355.3546069906
 20
233.7166238897
 10
355.3723997077
 20
233.7166198133
 10
355.597983431
 20
233.7165720462
 10
355.7984402005
 20
233.7165353173
 10
355.9737288285
 20
233.7165072032
 10
356.1238671014
 20
233.7164889986
 10
356.2488478352
 20
233.7164842476
 10
356.2630955301
 20
233.7164849735
 10
356.2774172355
 20
233.7166071009
 10
356.2761933695
 20
233.7165974168
  0
LWPOLYLINE
  5
105
330
1F
100
AcDbEntity
  8
0
  6
Continuous
 62
     7
370
    15
100
AcDbPolyline
 90
       18
 70
   128
 43
0.0
 10
356.2918859395
 20
236.0467506325
 10
356.2932824173
 20
236.0466453178
 10
356.276157897
 20
236.0482123888
 10
356.2339938424
 20
236.0506016285
 10
356.2168419327
 20
236.0508701109
 10
356.2115823413
 20
236.0508736354
 10
356.2081703196
 20
236.0508735791
 10
356.074327232
 20
236.0508637787
 10
355.9152948827
 20
236.0508414864
 10
355.7311084355
 20
236.0508103261
 10
355.5218516447
 20
236.0507698635
 10
355.2874351601
 20
236.0507177595
 10
355.2081267952
 20
236.0504674519
 10
355.2015744366
 20
236.0503458093
 10
355.2186126422
 20
236.0498361321
 10
355.2613158819
 20
236.0450992605
 10
355.2887482995
 20
236.0394797033
 10
355.2983636281
 20
236.036869778
  0
LINE
  5
106
330
1F
100
AcDbEntity
  8
0
  6
Continuous
 62
     7
370
    15
100
AcDbLine
 10
355.547777498
 20
233.818340608
 30
0.0
 11
355.5458713974
 21
233.8187820235
 31
0.0
  0
LINE
  5
107
330
1F
100
AcDbEntity
  8
0
  6
Continuous
 62
     7
370
    15
100
AcDbLine
 10
356.2789115945
 20
236.0638806472
 30
0.0
 11
355.6498706255
 21
236.0507946177
 31
0.0
  0
LINE
  5
108
330
1F
100
AcDbEntity
  8
0
  6
Continuous
 62
     7
370
    15
100
AcDbLine
 10
355.4672463288
 20
236.0507577263
 30
0.0
 11
355.1324423338
 21
236.0511894401
 31
0.0
  0
LWPOLYLINE
  5
109
330
1F
100
AcDbEntity
  8
0
  6
Continuous
 62
     7
370
    15
100
AcDbPolyline
 90
        3
 70
   128
 43
0.0
 10
354.786868739
 20
236.0513852754
 10
353.7002448941
 20
236.0513996736
 10
352.3481755677
 20
236.0514166684
  0
LWPOLYLINE
  5
10A
330
1F
100
AcDbEntity
  8
0
  6
Continuous
 62
     7
370
    15
100
AcDbPolyline
 90
        3
 70
   128
 43
0.0
 10
352.3480677631
 20
233.7159407718
 10
354.2453126703
 20
233.7159649036
 10
354.7857007653
 20
233.71629883
  0
LINE
  5
10B
330
1F
100
AcDbEntity
  8
0
  6
Continuous
 62
     7
370
    15
100
AcDbLine
 10
355.1093367572
 20
233.7164988171
 30
0.0
 11
355.3338272268
 21
233.7166375383
 31
0.0
  0
LWPOLYLINE
  5
10C
330
1F
100
AcDbEntity
  8
0
  6
Continuous
 62
     7
370
    15
100
AcDbPolyline
 90
        3
 70
   128
 43
0.0
 10
355.6479052176
 20
233.7165628992
 10
356.2406913944
 20
233.7051946049
 10
356.278945102
 20
233.7038781443
  0
ARC
  5
10D
330
1F
100
AcDbEntity
  8
0
  6
Continuous
 62
     7
370
    15
100
AcDbCircle
 10
356.3027254
 20
235.5117996936
 30
0.0
 40
0.552125957887005
100
AcDbArc
 50
12.4403362062
 51
93.1643663016
  0
ARC
  5
10E
330
1F
100
AcDbEntity
  8
0
  6
Continuous
 62
     7
370
    15
100
AcDbCircle
 10
356.3027261496
 20
234.2555548751
 30
0.0
 40
0.5521230878524427
100
AcDbArc
 50
266.8355393228
 51
347.5599121686
  0
ARC
  5
10F
330
1F
100
AcDbEntity
  8
0
  6
Continuous
 62
     7
370
    15
100
AcDbCircle
 10
353.2232621326
 20
234.8836787423
 30
0.0
 40
3.699999976755467
100
AcDbArc
 50
348.5111848764
 51
11.4945663561
  0
LWPOLYLINE
  5
110
330
1F
100
AcDbEntity
  8
0
  6
Continuous
 62
     7
370
    15
100
AcDbPolyline
 90
        3
 70
   128
 43
0.0
 10
352.3480753629
 20
233.7159415418
 10
354.1855233883
 20
233.7159649036
 10
355.1093298127
 20
233.716535528
  0
LINE
  5
111
330
1F
100
AcDbEntity
  8
0
  6
Continuous
 62
     7
370
    15
100
AcDbLine
 10
355.1797102438
 20
233.7165790012
 30
0.0
 11
355.3319441956
 21
233.7166730343
 31
0.0
  0
LINE
  5
112
330
1F
100
AcDbEntity
  8
0
  6
Continuous
 62
     7
370
    15
100
AcDbLine
 10
356.2199700207
 20
236.0638790933
 30
0.0
 11
355.5810444502
 21
236.0506109891
 31
0.0
  0
LINE
  5
113
330
1F
100
AcDbEntity
  8
0
  6
Continuous
 62
     7
370
    15
100
AcDbLine
 10
355.4153682399
 20
236.0507461953
 30
0.0
 11
355.2509055115
 21
236.050958312
 31
0.0
  0
LWPOLYLINE
  5
114
330
1F
100
AcDbEntity
  8
0
  6
Continuous
 62
     7
370
    15
100
AcDbPolyline
 90
        3
 70
   128
 43
0.0
 10
354.7868432379
 20
236.0513844869
 10
353.6313694735
 20
236.0513997878
 10
352.3480753629
 20
236.0514159108
  0
ARC
  5
115
330
1F
100
AcDbEntity
  8
0
  6
Continuous
 62
     7
370
    15
100
AcDbCircle
 10
356.276586167
 20
234.2294337775
 30
0.0
 40
0.514616239449917
100
AcDbArc
 50
274.9054272116
 51
349.6145949248
  0
LINE
  5
116
330
1F
100
AcDbEntity
  8
0
  6
Continuous
 62
     7
370
    15
100
AcDbLine
 10
350.2081977734
 20
239.6436787423
 30
0.0
 11
350.2078952352
 21
239.6436787423
 31
0.0
  0
LINE
  5
117
330
1F
100
AcDbEntity
  8
0
  6
Continuous
 62
     7
370
    15
100
AcDbLine
 10
352.1880753629
 20
239.1476787423
 30
0.0
 11
352.1880753629
 21
239.3476787423
 31
0.0
  0
LINE
  5
118
330
1F
100
AcDbEntity
  8
0
  6
Continuous
 62
     7
370
    15
100
AcDbLine
 10
351.8600753629
 20
196.5236787423
 30
0.0
 11
351.8600753629
 21
196.5636787423
 31
0.0
  0
LINE
  5
119
330
1F
100
AcDbEntity
  8
0
  6
Continuous
 62
     7
370
    15
100
AcDbLine
 10
351.2360753629
 20
196.5636787423
 30
0.0
 11
351.2360753629
 21
196.5236787423
 31
0.0
  0
LINE
  5
11A
330
1F
100
AcDbEntity
  8
0
  6
Continuous
 62
     7
370
    15
100
AcDbLine
 10
351.1480753629
 20
239.1476787423
 30
0.0
 11
351.1480753629
 21
239.0836787423
 31
0.0
  0
LINE
  5
11B
330
1F
100
AcDbEntity
  8
0
  6
Continuous
 62
     7
370
    15
100
AcDbLine
 10
351.9480753629
 20
239.0836787423
 30
0.0
 11
351.9480753629
 21
239.1476787423
 31
0.0
  0
LINE
  5
11C
330
1F
100
AcDbEntity
  8
0
  6
Continuous
 62
     7
370
    15
100
AcDbLine
 10
351.2360753629
 20
239.3876787423
 30
0.0
 11
351.2360753629
 21
239.3476787423
 31
0.0
  0
LINE
  5
11D
330
1F
100
AcDbEntity
  8
0
  6
Continuous
 62
     7
370
    15
100
AcDbLine
 10
351.8600753629
 20
239.3476787423
 30
0.0
 11
351.8600753629
 21
239.3876787423
 31
0.0
  0
LINE
  5
11E
330
1F
100
AcDbEntity
  8
0
  6
Continuous
 62
     7
370
    15
100
AcDbLine
 10
352.1880753629
 20
196.5636787423
 30
0.0
 11
352.1880753629
 21
196.7636787423
 31
0.0
  0
ARC
  5
11F
330
1F
100
AcDbEntity
  8
0
  6
Continuous
 62
     7
370
    15
100
AcDbCircle
 10
313.6943859777
 20
254.5689967589
 30
0.0
 40
0.3429482620658149
100
AcDbArc
 50
183.6854469618
 51
259.7164268095
  0
ARC
  5
120
330
1F
100
AcDbEntity
  8
0
  6
Continuous
 62
     7
370
    15
100
AcDbCircle
 10
326.665577693
 20
254.5702068053
 30
0.0
 40
0.3442057859928304
100
AcDbArc
 50
280.2721441729
 51
355.1940364263
  0
ARC
  5
121
330
1F
100
AcDbEntity
  8
0
  6
Continuous
 62
     7
370
    15
100
AcDbCircle
 10
312.2653510683
 20
254.5697569256
 30
0.0
 40
0.3432736436860984
100
AcDbArc
 50
279.8309681349
 51
354.5119029645
  0
LWPOLYLINE
  5
122
330
1F
100
AcDbEntity
  8
0
  6
Continuous
 62
     7
370
    15
100
AcDbPolyline
 90
       10
 70
   128
 43
0.0
 10
328.0376101527
 20
254.2313812823
 10
328.0377451611
 20
254.2313775712
 10
328.0290275492
 20
254.2325040477
 10
328.0015264633
 20
254.2387079621
 10
327.948710876
 20
254.2592108113
 10
327.8861951036
 20
254.2989929955
 10
327.8260883337
 20
254.3596461884
 10
327.7792945854
 20
254.4373612204
 10
327.7509050317
 20
254.5344035858
 10
327.7504507948
 20
254.5493282555
  0
LWPOLYLINE
  5
123
330
1F
100
AcDbEntity
  8
0
  6
Continuous
 62
     7
370
    15
100
AcDbPolyline
 90
        9
 70
   128
 43
0.0
 10
309.6375927805
 20
254.2315380962
 10
309.6388091847
 20
254.2315114184
 10
309.6209659411
 20
254.2341593692
 10
309.5842031306
 20
254.2443338998
 10
309.5300372673
 20
254.2692393821
 10
309.4671536777
 20
254.3152343097
 10
309.4093322876
 20
254.382635954
 10
309.3681957734
 20
254.4646963017
 10
309.349936667
 20
254.5489259687
  0
LWPOLYLINE
  5
124
330
1F
100
AcDbEntity
  8
0
  6
Continuous
 62
     7
370
    15
100
AcDbPolyline
 90
       10
 70
   128
 43
0.0
 10
331.0084781004
 20
254.540616387
 10
331.0074577067
 20
254.52299984
 10
330.9801372729
 20
254.4354057673
 10
330.9302938947
 20
254.3547903343
 10
330.870958741
 20
254.2966497589
 10
330.8138325214
 20
254.2604825436
 10
330.76636067
 20
254.2411499951
 10
330.7350800803
 20
254.2333869702
 10
330.7212733509
 20
254.2315060601
 10
330.722465279
 20
254.2315325125
  0
LWPOLYLINE
  5
125
330
1F
100
AcDbEntity
  8
0
  6
Continuous
 62
     7
370
    15
100
AcDbPolyline
 90
       10
 70
   128
 43
0.0
 10
308.6094048538
 20
254.5432512879
 10
308.6090644976
 20
254.533109067
 10
308.5839035057
 20
254.4448028622
 10
308.5359574886
 20
254.3627607618
 10
308.4776178804
 20
254.3027424551
 10
308.4175420739
 20
254.2631017379
 10
308.3682095231
 20
254.2423219209
 10
308.3353249369
 20
254.233836484
 10
308.3199837376
 20
254.2316242157
 10
308.3208675637
 20
254.231626824
  0
ARC
  5
126
330
1F
100
AcDbEntity
  8
0
  6
Continuous
 62
     7
370
    15
100
AcDbCircle
 10
332.0964060582
 20
254.5732540854
 30
0.0
 40
0.346153030010809
100
AcDbArc
 50
183.9783580257
 51
260.7578087173
  0
LWPOLYLINE
  5
127
330
1F
100
AcDbEntity
  8
0
  6
Continuous
 62
     7
370
    15
100
AcDbPolyline
 90
       10
 70
   128
 43
0.0
 10
305.6481168154
 20
254.2315890692
 10
305.648871946
 20
254.2315825485
 10
305.6385737252
 20
254.2327361326
 10
305.6096053125
 20
254.2388282006
 10
305.5512674966
 20
254.2609624713
 10
305.4865448901
 20
254.3021467942
 10
305.4257921923
 20
254.3636557596
 10
305.3788078079
 20
254.441924799
 10
305.3503827959
 20
254.5391116823
 10
305.3499132469
 20
254.5539563579
  0
ARC
  5
128
330
1F
100
AcDbEntity
  8
0
  6
Continuous
 62
     7
370
    15
100
AcDbCircle
 10
334.6613270708
 20
254.5754983509
 30
0.0
 40
0.3475177183671554
100
AcDbArc
 50
278.2533846529
 51
353.9508276224
  0
LWPOLYLINE
  5
129
330
1F
100
AcDbEntity
  8
0
  6
Continuous
 62
     7
370
    15
100
AcDbPolyline
 90
        9
 70
   128
 43
0.0
 10
304.5995426242
 20
254.4932244262
 10
304.5605809568
 20
254.4027527333
 10
304.5071119424
 20
254.3332572699
 10
304.4481051612
 20
254.284252193
 10
304.3911466564
 20
254.2534660038
 10
304.3445440532
 20
254.2377748788
 10
304.3159702609
 20
254.2323254721
 10
304.3082898041
 20
254.2315802224
 10
304.3084143792
 20
254.2315815501
  0
LWPOLYLINE
  5
12A
330
1F
100
AcDbEntity
  8
0
  6
Continuous
 62
     7
370
    15
100
AcDbPolyline
 90
        9
 70
   128
 43
0.0
 10
336.0496485948
 20
254.2316656575
 10
336.0505071757
 20
254.2316713585
 10
336.0356792014
 20
254.2335719792
 10
335.9956781777
 20
254.2434908709
 10
335.9377316873
 20
254.2686678958
 10
335.8730659286
 20
254.314217554
 10
335.8144883064
 20
254.3797432818
 10
335.7712653706
 20
254.4608823298
 10
335.7481785853
 20
254.556836403
  0
LWPOLYLINE
  5
12B
330
1F
100
AcDbEntity
  8
0
  6
Continuous
 62
     7
370
    15
100
AcDbPolyline
 90
        3
 70
   128
 43
0.0
 10
298.6318423706
 20
254.2365412926
 10
298.6664823036
 20
254.2376662086
 10
298.8515994606
 20
254.2351143209
  0
LWPOLYLINE
  5
12C
330
1F
100
AcDbEntity
  8
0
  6
Continuous
 62
     7
370
    15
100
AcDbPolyline
 90
        3
 70
   128
 43
0.0
 10
341.5084217216
 20
254.2352341435
 10
341.6568248717
 20
254.237969328
 10
341.7137702435
 20
254.2364548607
  0
ARC
  5
12D
330
1F
100
AcDbEntity
  8
0
  6
Continuous
 62
     7
370
    15
100
AcDbCircle
 10
298.3919977867
 20
254.631678727
 30
0.0
 40
0.3999999878951387
100
AcDbArc
 50
270.0000590045
 51
336.6513270301
  0
ARC
  5
12E
330
1F
100
AcDbEntity
  8
0
  6
Continuous
 62
     7
370
    15
100
AcDbCircle
 10
341.9681529394
 20
254.631678727
 30
0.0
 40
0.3999999878789451
100
AcDbArc
 50
203.4071792444
 51
269.9999409964
  0
ARC
  5
12F
330
1F
100
AcDbEntity
  8
0
  6
Continuous
 62
     7
370
    15
100
AcDbCircle
 10
319.4833001036
 20
254.6316787068
 30
0.0
 40
0.3999999676343567
100
AcDbArc
 50
203.2536477347
 51
269.9873896756
  0
ARC
  5
130
330
1F
100
AcDbEntity
  8
0
  6
Continuous
 62
     7
370
    15
100
AcDbCircle
 10
320.8768506224
 20
254.6316787069
 30
0.0
 40
0.399999967725194
100
AcDbArc
 50
270.0126103297
 51
336.8698176016
  0
LWPOLYLINE
  5
131
330
1F
100
AcDbEntity
  8
0
  6
Continuous
 62
     7
370
    15
100
AcDbPolyline
 90
       14
 70
   128
 43
0.0
 10
300.6945163765
 20
256.0316787391
 10
300.5870800979
 20
256.0277966471
 10
300.393715425
 20
256.0013814154
 10
300.2014184609
 20
255.9502477812
 10
300.0115718105
 20
255.8747344036
 10
299.8257785346
 20
255.7753634662
 10
299.6457091895
 20
255.6528960533
 10
299.4730514377
 20
255.5083668153
 10
299.309446755
 20
255.3430784885
 10
299.1564386164
 20
255.1585683691
 10
299.0154419157
 20
254.9565655852
 10
298.8877307234
 20
254.7389526283
 10
298.7744364579
 20
254.5077358236
 10
298.7593916442
 20
254.4728444741
  0
LWPOLYLINE
  5
132
330
1F
100
AcDbEntity
  8
0
  6
Continuous
 62
     7
370
    15
100
AcDbPolyline
 90
       14
 70
   128
 43
0.0
 10
341.6003996254
 20
254.4727960989
 10
341.5646167071
 20
254.5541934229
 10
341.4482383976
 20
254.7831953993
 10
341.3174591265
 20
254.9983894893
 10
341.1734078787
 20
255.1977150804
 10
341.0172953142
 20
255.3793111969
 10
340.850461225
 20
255.5414404266
 10
340.6743861654
 20
255.6825070484
 10
340.4907037515
 20
255.8010868662
 10
340.3012038065
 20
255.8959723948
 10
340.1078117797
 20
255.9662297822
 10
339.9125325862
 20
256.0112512581
 10
339.7173624803
 20
256.0307768649
 10
339.6656343496
 20
256.0316787391
  0
LWPOLYLINE
  5
133
330
1F
100
AcDbEntity
  8
0
  6
Continuous
 62
     7
370
    15
100
AcDbPolyline
 90
       14
 70
   128
 43
0.0
 10
319.1148876785
 20
254.4742980227
 10
319.0796785819
 20
254.5543777602
 10
318.9632886394
 20
254.7833696465
 10
318.8324985318
 20
254.9985520657
 10
318.6884373473
 20
255.1978644837
 10
318.5323158437
 20
255.379446016
 10
318.3654739181
 20
255.5415593533
 10
318.1893922404
 20
255.6826088953
 10
318.0057045499
 20
255.8011705958
 10
317.8162007881
 20
255.8960371609
 10
317.6228064933
 20
255.9662749756
 10
317.4275266118
 20
256.0112765393
 10
317.2323573523
 20
256.0307821626
 10
317.1807815359
 20
256.0316787391
  0
LWPOLYLINE
  5
134
330
1F
100
AcDbEntity
  8
0
  6
Continuous
 62
     7
370
    15
100
AcDbPolyline
 90
       14
 70
   128
 43
0.0
 10
323.1793691902
 20
256.0316787391
 10
323.0719329116
 20
256.0277966471
 10
322.8785682388
 20
256.0013814154
 10
322.6862712746
 20
255.9502477812
 10
322.4964246242
 20
255.8747344036
 10
322.3106313483
 20
255.7753634662
 10
322.1305620032
 20
255.6528960533
 10
321.9579042514
 20
255.5083668153
 10
321.7942995687
 20
255.3430784885
 10
321.6412914302
 20
255.1585683691
 10
321.5002947294
 20
254.9565655852
 10
321.3725835371
 20
254.7389526283
 10
321.2592892717
 20
254.5077358236
 10
321.2448720819
 20
254.4743026241
  0
LWPOLYLINE
  5
135
330
1F
100
AcDbEntity
  8
0
  6
Continuous
 62
     7
370
    15
100
AcDbPolyline
 90
        3
 70
   128
 43
0.0
 10
303.4165435439
 20
255.2131387177
 10
303.3925899039
 20
255.5536702155
 10
303.3689030608
 20
255.8942396897
  0
LWPOLYLINE
  5
136
330
1F
100
AcDbEntity
  8
0
  6
Continuous
 62
     7
370
    15
100
AcDbPolyline
 90
        3
 70
   128
 43
0.0
 10
336.9912476652
 20
255.8942396897
 10
336.9675608221
 20
255.5536702155
 10
336.9436071821
 20
255.2131387177
  0
LWPOLYLINE
  5
137
330
1F
100
AcDbEntity
  8
0
  6
Continuous
 62
     7
370
    15
100
AcDbPolyline
 90
        3
 70
   128
 43
0.0
 10
314.5417566033
 20
255.8942396897
 10
314.5181554462
 20
255.5562009323
 10
314.4948240576
 20
255.2181237411
  0
LWPOLYLINE
  5
138
330
1F
100
AcDbEntity
  8
0
  6
Continuous
 62
     7
370
    15
100
AcDbPolyline
 90
        3
 70
   128
 43
0.0
 10
325.8653266684
 20
255.2181237411
 10
325.8419952798
 20
255.5562009323
 10
325.8183941226
 20
255.8942396897
  0
ARC
  5
139
330
1F
100
AcDbEntity
  8
0
  6
Continuous
 62
     7
370
    15
100
AcDbCircle
 10
303.2105016609
 20
255.8716787391
 30
0.0
 40
0.159999999999973
100
AcDbArc
 50
8.1460564929
 51
90.0
  0
ARC
  5
13A
330
1F
100
AcDbEntity
  8
0
  6
Continuous
 62
     7
370
    15
100
AcDbCircle
 10
337.1496490651
 20
255.8716787391
 30
0.0
 40
0.1600000000000646
100
AcDbArc
 50
90.0
 51
171.8968628339
  0
ARC
  5
13B
330
1F
100
AcDbEntity
  8
0
  6
Continuous
 62
     7
370
    15
100
AcDbCircle
 10
314.7001580033
 20
255.8716787391
 30
0.0
 40
0.1599999999999682
100
AcDbArc
 50
90.0
 51
171.8973955384
  0
ARC
  5
13C
330
1F
100
AcDbEntity
  8
0
  6
Continuous
 62
     7
370
    15
100
AcDbCircle
 10
325.6599927227
 20
255.8716787391
 30
0.0
 40
0.1600000000000586
100
AcDbArc
 50
8.1447798754
 51
90.0
  0
LINE
  5
13D
330
1F
100
AcDbEntity
  8
0
  6
Continuous
 62
     7
370
    15
100
AcDbLine
 10
299.7137587166
 20
255.6991773875
 30
0.0
 11
299.6958207471
 21
255.8869920651
 31
0.0
  0
LINE
  5
13E
330
1F
100
AcDbEntity
  8
0
  6
Continuous
 62
     7
370
    15
100
AcDbLine
 10
340.6649062361
 20
255.8869385858
 30
0.0
 11
340.646977626
 21
255.7002011735
 31
0.0
  0
LINE
  5
13F
330
1F
100
AcDbEntity
  8
0
  6
Continuous
 62
     7
370
    15
100
AcDbLine
 10
318.2607303619
 20
255.9157931629
 30
0.0
 11
318.2349527579
 21
255.6461128203
 31
0.0
  0
LINE
  5
140
330
1F
100
AcDbEntity
  8
0
  6
Continuous
 62
     7
370
    15
100
AcDbLine
 10
322.1251633064
 20
255.6483768844
 30
0.0
 11
322.0995286102
 21
255.9158037756
 31
0.0
  0
ARC
  5
141
330
1F
100
AcDbEntity
  8
0
  6
Continuous
 62
     7
370
    15
100
AcDbCircle
 10
299.5354091198
 20
255.8716787391
 30
0.0
 40
0.1600000000000124
100
AcDbArc
 50
5.4535414404
 51
90.0
  0
ARC
  5
142
330
1F
100
AcDbEntity
  8
0
  6
Continuous
 62
     7
370
    15
100
AcDbCircle
 10
340.8247416062
 20
255.8716787391
 30
0.0
 40
0.1599999999999719
100
AcDbArc
 50
90.0
 51
174.5464585598
  0
LINE
  5
143
330
1F
100
AcDbEntity
  8
0
  6
Continuous
 62
     7
370
    15
100
AcDbLine
 10
341.4600753629
 20
253.4316787391
 30
0.0
 11
341.5786715552
 21
252.5770020416
 31
0.0
  0
LINE
  5
144
330
1F
100
AcDbEntity
  8
0
  6
Continuous
 62
     7
370
    15
100
AcDbLine
 10
342.1414791707
 20
252.5770020416
 30
0.0
 11
342.2484007044
 21
253.3475440089
 31
0.0
  0
LINE
  5
145
330
1F
100
AcDbEntity
  8
0
  6
Continuous
 62
     7
370
    15
100
AcDbLine
 10
298.1117500217
 20
253.3475440078
 30
0.0
 11
298.2186715552
 21
252.5770020416
 31
0.0
  0
LINE
  5
146
330
1F
100
AcDbEntity
  8
0
  6
Continuous
 62
     7
370
    15
100
AcDbLine
 10
298.7814791707
 20
252.5770020416
 30
0.0
 11
298.9000753629
 21
253.4316787391
 31
0.0
  0
LINE
  5
147
330
1F
100
AcDbEntity
  8
0
  6
Continuous
 62
     7
370
    15
100
AcDbLine
 10
322.1251631885
 20
255.6483767857
 30
0.0
 11
322.0995285005
 21
255.9158036273
 31
0.0
  0
LINE
  5
148
330
1F
100
AcDbEntity
  8
0
  6
Continuous
 62
     7
370
    15
100
AcDbLine
 10
304.5962959817
 20
254.4859441189
 30
0.0
 11
304.5765718367
 21
254.4398846651
 31
0.0
  0
LINE
  5
149
330
1F
100
AcDbEntity
  8
0
  6
Continuous
 62
     7
370
    15
100
AcDbLine
 10
327.7561938275
 20
254.5163252015
 30
0.0
 11
327.7519814329
 21
254.5482719591
 31
0.0
  0
LINE
  5
14A
330
1F
100
AcDbEntity
  8
0
  6
Continuous
 62
     7
370
    15
100
AcDbLine
 10
346.1880753629
 20
182.9676787423
 30
0.0
 11
346.1880753629
 21
183.2876787423
 31
0.0
  0
LINE
  5
14B
330
1F
100
AcDbEntity
  8
0
  6
Continuous
 62
     7
370
    15
100
AcDbLine
 10
341.6280753629
 20
183.2876787423
 30
0.0
 11
341.6280753629
 21
182.9676787423
 31
0.0
  0
ARC
  5
14C
330
1F
100
AcDbEntity
  8
0
  6
Continuous
 62
     7
370
    15
100
AcDbCircle
 10
346.0280753629
 20
182.9676787423
 30
0.0
 40
0.1599999999999966
100
AcDbArc
 50
270.0
 51
0.0
  0
ARC
  5
14D
330
1F
100
AcDbEntity
  8
0
  6
Continuous
 62
     7
370
    15
100
AcDbCircle
 10
341.7880753629
 20
182.9676787423
 30
0.0
 40
0.160000000000025
100
AcDbArc
 50
180.0
 51
270.0
  0
LINE
  5
14E
330
1F
100
AcDbEntity
  8
0
  6
Continuous
 62
     7
370
    15
100
AcDbLine
 10
299.0680753629
 20
182.9676787423
 30
0.0
 11
299.0680753629
 21
183.2876787423
 31
0.0
  0
LINE
  5
14F
330
1F
100
AcDbEntity
  8
0
  6
Continuous
 62
     7
370
    15
100
AcDbLine
 10
294.5080753629
 20
183.2876787423
 30
0.0
 11
294.5080753629
 21
182.9676787423
 31
0.0
  0
ARC
  5
150
330
1F
100
AcDbEntity
  8
0
  6
Continuous
 62
     7
370
    15
100
AcDbCircle
 10
298.9080753629
 20
182.9676787423
 30
0.0
 40
0.1599999999999966
100
AcDbArc
 50
270.0
 51
0.0
  0
ARC
  5
151
330
1F
100
AcDbEntity
  8
0
  6
Continuous
 62
     7
370
    15
100
AcDbCircle
 10
294.6680753629
 20
182.9676787423
 30
0.0
 40
0.160000000000025
100
AcDbArc
 50
180.0
 51
270.0
  0
LINE
  5
152
330
1F
100
AcDbEntity
  8
0
  6
Continuous
 62
     7
370
    15
100
AcDbLine
 10
346.1720753629
 20
183.2876787423
 30
0.0
 11
346.1720753629
 21
188.7276787423
 31
0.0
  0
LINE
  5
153
330
1F
100
AcDbEntity
  8
0
  6
Continuous
 62
     7
370
    15
100
AcDbLine
 10
341.6440753629
 20
188.7276787423
 30
0.0
 11
341.6440753629
 21
183.2876787423
 31
0.0
  0
LINE
  5
154
330
1F
100
AcDbEntity
  8
0
  6
Continuous
 62
     7
370
    15
100
AcDbLine
 10
299.0520753629
 20
183.2876787423
 30
0.0
 11
299.0520753629
 21
188.7276787423
 31
0.0
  0
LINE
  5
155
330
1F
100
AcDbEntity
  8
0
  6
Continuous
 62
     7
370
    15
100
AcDbLine
 10
294.5240753629
 20
188.7276787423
 30
0.0
 11
294.5240753629
 21
183.2876787423
 31
0.0
  0
ARC
  5
156
330
1F
100
AcDbEntity
  8
0
  6
Continuous
 62
     7
370
    15
100
AcDbCircle
 10
299.4600753629
 20
196.1276787423
 30
0.0
 40
0.120000000000033
100
AcDbArc
 50
90.0
 51
180.0
  0
ARC
  5
157
330
1F
100
AcDbEntity
  8
0
  6
Continuous
 62
     7
370
    15
100
AcDbCircle
 10
294.1160753629
 20
196.1276787423
 30
0.0
 40
0.120000000000033
100
AcDbArc
 50
0.0
 51
90.0
  0
LINE
  5
158
330
1F
100
AcDbEntity
  8
0
  6
Continuous
 62
     7
370
    15
100
AcDbLine
 10
299.3400753629
 20
189.210284018
 30
0.0
 11
299.3400753629
 21
196.1276787423
 31
0.0
  0
LINE
  5
159
330
1F
100
AcDbEntity
  8
0
  6
Continuous
 62
     7
370
    15
100
AcDbLine
 10
294.2360753629
 20
196.1276787423
 30
0.0
 11
294.2360753629
 21
189.210284018
 31
0.0
  0
ARC
  5
15A
330
1F
100
AcDbEntity
  8
0
  6
Continuous
 62
     7
370
    15
100
AcDbCircle
 10
298.9640753629
 20
189.210284018
 30
0.0
 40
0.3760000000000332
100
AcDbArc
 50
350.5402980318
 51
0.0
  0
ARC
  5
15B
330
1F
100
AcDbEntity
  8
0
  6
Continuous
 62
     7
370
    15
100
AcDbCircle
 10
294.6120753629
 20
189.210284018
 30
0.0
 40
0.3760000000000332
100
AcDbArc
 50
180.0
 51
189.4597019682
  0
LINE
  5
15C
330
1F
100
AcDbEntity
  8
0
  6
Continuous
 62
     7
370
    15
100
AcDbLine
 10
294.2411884211
 20
189.14848696
 30
0.0
 11
294.3113033453
 21
188.7276787423
 31
0.0
  0
LINE
  5
15D
330
1F
100
AcDbEntity
  8
0
  6
Continuous
 62
     7
370
    15
100
AcDbLine
 10
299.2648473806
 20
188.7276787423
 30
0.0
 11
299.3349623048
 21
189.14848696
 31
0.0
  0
ARC
  5
15E
330
1F
100
AcDbEntity
  8
0
  6
Continuous
 62
     7
370
    15
100
AcDbCircle
 10
346.5800753629
 20
196.1276787423
 30
0.0
 40
0.120000000000033
100
AcDbArc
 50
90.0
 51
180.0
  0
ARC
  5
15F
330
1F
100
AcDbEntity
  8
0
  6
Continuous
 62
     7
370
    15
100
AcDbCircle
 10
341.2360753629
 20
196.1276787423
 30
0.0
 40
0.120000000000033
100
AcDbArc
 50
0.0
 51
90.0
  0
LINE
  5
160
330
1F
100
AcDbEntity
  8
0
  6
Continuous
 62
     7
370
    15
100
AcDbLine
 10
346.4600753629
 20
189.210284018
 30
0.0
 11
346.4600753629
 21
196.1276787423
 31
0.0
  0
LINE
  5
161
330
1F
100
AcDbEntity
  8
0
  6
Continuous
 62
     7
370
    15
100
AcDbLine
 10
341.3560753629
 20
196.1276787423
 30
0.0
 11
341.3560753629
 21
189.210284018
 31
0.0
  0
ARC
  5
162
330
1F
100
AcDbEntity
  8
0
  6
Continuous
 62
     7
370
    15
100
AcDbCircle
 10
346.0840753629
 20
189.210284018
 30
0.0
 40
0.3760000000000262
100
AcDbArc
 50
350.5402980318
 51
0.0
  0
ARC
  5
163
330
1F
100
AcDbEntity
  8
0
  6
Continuous
 62
     7
370
    15
100
AcDbCircle
 10
341.7320753629
 20
189.210284018
 30
0.0
 40
0.3759999999999764
100
AcDbArc
 50
180.0
 51
189.4597019682
  0
LINE
  5
164
330
1F
100
AcDbEntity
  8
0
  6
Continuous
 62
     7
370
    15
100
AcDbLine
 10
341.3611884211
 20
189.14848696
 30
0.0
 11
341.4313033453
 21
188.7276787423
 31
0.0
  0
LINE
  5
165
330
1F
100
AcDbEntity
  8
0
  6
Continuous
 62
     7
370
    15
100
AcDbLine
 10
346.3848473806
 20
188.7276787423
 30
0.0
 11
346.4549623048
 21
189.14848696
 31
0.0
  0
LINE
  5
166
330
1F
100
AcDbEntity
  8
0
  6
Continuous
 62
     7
370
    15
100
AcDbLine
 10
347.6680753632
 20
246.766552046
 30
0.0
 11
347.6667769667
 21
246.7661301714
 31
0.0
  0
LINE
  5
167
330
1F
100
AcDbEntity
  8
0
  6
Continuous
 62
     7
370
    15
100
AcDbLine
 10
347.6680753632
 20
243.9065747961
 30
0.0
 11
347.6280753629
 21
243.8935780082
 31
0.0
  0
LINE
  5
168
330
1F
100
AcDbEntity
  8
0
  6
Continuous
 62
     7
370
    15
100
AcDbLine
 10
350.970667876
 20
246.7461086888
 30
0.0
 11
351.0147481346
 21
246.6104436025
 31
0.0
  0
LINE
  5
169
330
1F
100
AcDbEntity
  8
0
  6
Continuous
 62
     7
370
    15
100
AcDbLine
 10
352.0251665422
 20
244.0184663804
 30
0.0
 11
352.007176889
 21
244.0738328398
 31
0.0
  0
LINE
  5
16A
330
1F
100
AcDbEntity
  8
0
  6
Continuous
 62
     7
370
    15
100
AcDbLine
 10
352.687126317
 20
244.5700180611
 30
0.0
 11
352.6683308072
 21
244.6278646921
 31
0.0
  0
LWPOLYLINE
  5
16B
330
1F
100
AcDbEntity
  8
0
  6
Continuous
 62
     7
370
    15
100
AcDbPolyline
 90
        3
 70
   128
 43
0.0
 10
352.2284497239
 20
244.1890823466
 10
352.2430389866
 20
244.2017431726
 10
352.2524122786
 20
244.2104573134
  0
LWPOLYLINE
  5
16C
330
1F
100
AcDbEntity
  8
0
  6
Continuous
 62
     7
370
    15
100
AcDbPolyline
 90
       10
 70
   128
 43
0.0
 10
352.2549982912
 20
244.2138705328
 10
352.2550779412
 20
244.213975661
 10
352.2506065924
 20
244.2117907923
 10
352.2397106509
 20
244.2041972897
 10
352.2241168142
 20
244.1922698011
 10
352.2062626994
 20
244.17774797
 10
352.1888884408
 20
244.1628162488
 10
352.1746073063
 20
244.1497859609
 10
352.165527027
 20
244.1407204737
 10
352.1629675986
 20
244.1370747412
  0
LWPOLYLINE
  5
16D
330
1F
100
AcDbEntity
  8
0
  6
Continuous
 62
     7
370
    15
100
AcDbPolyline
 90
        3
 70
   128
 43
0.0
 10
352.2182296338
 20
244.2296651284
 10
352.231538698
 20
244.2438548811
 10
352.2390661312
 20
244.2547723957
  0
LINE
  5
16E
330
1F
100
AcDbEntity
  8
0
  6
Continuous
 62
     7
370
    15
100
AcDbLine
 10
352.9510264276
 20
248.720025771
 30
0.0
 11
352.9722065782
 21
248.7176919996
 31
0.0
  0
LINE
  5
16F
330
1F
100
AcDbEntity
  8
0
  6
Continuous
 62
     7
370
    15
100
AcDbLine
 10
353.1195987154
 20
248.4167136442
 30
0.0
 11
353.8893061928
 21
246.0477976125
 31
0.0
  0
LINE
  5
170
330
1F
100
AcDbEntity
  8
0
  6
Continuous
 62
     7
370
    15
100
AcDbLine
 10
353.0396810021
 20
248.6626750749
 30
0.0
 11
353.1195987154
 21
248.4167136442
 31
0.0
  0
ARC
  5
171
330
1F
100
AcDbEntity
  8
0
  6
Continuous
 62
     7
370
    15
100
AcDbCircle
 10
352.9633298039
 20
248.6379204531
 30
0.0
 40
0.0802639194168026
100
AcDbArc
 50
17.9637558364
 51
83.6503941602
  0
LINE
  5
172
330
1F
100
AcDbEntity
  8
0
  6
Continuous
 62
     7
370
    15
100
AcDbLine
 10
353.8893061928
 20
246.0477976125
 30
0.0
 11
353.9703400318
 21
245.7984011004
 31
0.0
  0
ARC
  5
173
330
1F
100
AcDbEntity
  8
0
  6
Continuous
 62
     7
370
    15
100
AcDbCircle
 10
352.1937855503
 20
244.2690891173
 30
0.0
 40
0.0471674465612231
100
AcDbArc
 50
301.9390356835
 51
349.1706642178
  0
LWPOLYLINE
  5
174
330
1F
100
AcDbEntity
  8
0
  6
Continuous
 62
     7
370
    15
100
AcDbPolyline
 90
        7
 70
   128
 43
0.0
 10
352.1486572993
 20
244.1827315409
 10
352.1486442978
 20
244.182561501
 10
352.1550167692
 20
244.1824781076
 10
352.1672976631
 20
244.1884189373
 10
352.1836847511
 20
244.1993997228
 10
352.2017424649
 20
244.2136785292
 10
352.2187379133
 20
244.2290622814
  0
LINE
  5
175
330
1F
100
AcDbEntity
  8
0
  6
Continuous
 62
     7
370
    15
100
AcDbLine
 10
351.234105446
 20
245.9353312167
 30
0.0
 11
351.2433248764
 21
245.9069567273
 31
0.0
  0
LINE
  5
176
330
1F
100
AcDbEntity
  8
0
  6
Continuous
 62
     7
370
    15
100
AcDbLine
 10
351.2433248764
 20
245.9069567273
 30
0.0
 11
351.2454393154
 21
245.9004491532
 31
0.0
  0
LWPOLYLINE
  5
177
330
1F
100
AcDbEntity
  8
0
  6
Continuous
 62
     7
370
    15
100
AcDbPolyline
 90
       17
 70
   128
 43
0.0
 10
352.2289617328
 20
244.1884680218
 10
352.2435509568
 20
244.2011289669
 10
352.2529241795
 20
244.2098433207
 10
352.255589743
 20
244.2133619734
 10
352.2511182769
 20
244.2111774657
 10
352.2402222232
 20
244.2035843083
 10
352.2246283072
 20
244.1916570637
 10
352.2067741678
 20
244.1771353087
 10
352.1893999456
 20
244.1622034752
 10
352.1751188978
 20
244.1491729206
 10
352.166038732
 20
244.1401070843
 10
352.1634794172
 20
244.1364610018
 10
352.1678080693
 20
244.1388168018
 10
352.1783959257
 20
244.1467796006
 10
352.193696814
 20
244.1590582826
 10
352.2114447266
 20
244.1737074358
 10
352.2289617328
 20
244.1884680218
  0
ARC
  5
178
330
1F
100
AcDbEntity
  8
0
  6
Continuous
 62
     7
370
    15
100
AcDbCircle
 10
350.7049368567
 20
246.4931155706
 30
0.0
 40
2.747305556600527
100
AcDbArc
 50
309.0737788668
 51
311.3439195332
  0
ARC
  5
179
330
1F
100
AcDbEntity
  8
0
  6
Continuous
 62
     7
370
    15
100
AcDbCircle
 10
350.6000350618
 20
246.5149881093
 30
0.0
 40
2.831216127811994
100
AcDbArc
 50
308.3159172367
 51
310.4429980921
  0
LINE
  5
17A
330
1F
100
AcDbEntity
  8
0
  6
Continuous
 62
     7
370
    15
100
AcDbLine
 10
353.0396810021
 20
248.6626750749
 30
0.0
 11
353.0396261468
 21
248.662843902
 31
0.0
  0
LINE
  5
17B
330
1F
100
AcDbEntity
  8
0
  6
Continuous
 62
     7
370
    15
100
AcDbLine
 10
347.6680753632
 20
245.0742713603
 30
0.0
 11
347.6280753629
 21
245.0612745724
 31
0.0
  0
LINE
  5
17C
330
1F
100
AcDbEntity
  8
0
  6
Continuous
 62
     7
370
    15
100
AcDbLine
 10
347.6680753632
 20
245.0769395966
 30
0.0
 11
347.6280753629
 21
245.0639428087
 31
0.0
  0
ARC
  5
17D
330
1F
100
AcDbEntity
  8
0
  6
Continuous
 62
     7
370
    15
100
AcDbCircle
 10
347.6050264092
 20
245.3254072984
 30
0.0
 40
0.0639361225972017
100
AcDbArc
 50
18.0077579856
 51
68.8691118472
  0
ARC
  5
17E
330
1F
100
AcDbEntity
  8
0
  6
Continuous
 62
     7
370
    15
100
AcDbCircle
 10
347.604958961
 20
245.3254504808
 30
0.0
 40
0.0640022731009884
100
AcDbArc
 50
291.1727400885
 51
350.4560677682
  0
LINE
  5
17F
330
1F
100
AcDbEntity
  8
0
  6
Continuous
 62
     7
370
    15
100
AcDbLine
 10
347.6680753632
 20
245.3360112554
 30
0.0
 11
347.6658305995
 21
245.3451728801
 31
0.0
  0
LINE
  5
180
330
1F
100
AcDbEntity
  8
0
  6
Continuous
 62
     7
370
    15
100
AcDbLine
 10
347.6280753629
 20
245.6018681115
 30
0.0
 11
347.6680753632
 21
245.6148648994
 31
0.0
  0
ARC
  5
181
330
1F
100
AcDbEntity
  8
0
  6
Continuous
 62
     7
370
    15
100
AcDbCircle
 10
347.6058100885
 20
245.3229935075
 30
0.0
 40
0.0639367017844676
100
AcDbArc
 50
18.0079176937
 51
69.6203373035
  0
LINE
  5
182
330
1F
100
AcDbEntity
  8
0
  6
Continuous
 62
     7
370
    15
100
AcDbLine
 10
347.6680753632
 20
244.9939896234
 30
0.0
 11
347.6280753629
 21
244.9809928355
 31
0.0
  0
LINE
  5
183
330
1F
100
AcDbEntity
  8
0
  6
Continuous
 62
     7
370
    15
100
AcDbLine
 10
347.6280753629
 20
244.9853287194
 30
0.0
 11
347.6680753632
 21
244.9983255074
 31
0.0
  0
LINE
  5
184
330
1F
100
AcDbEntity
  8
0
  6
Continuous
 62
     7
370
    15
100
AcDbLine
 10
347.6680753632
 20
245.6791372187
 30
0.0
 11
347.6280753629
 21
245.6661404308
 31
0.0
  0
LINE
  5
185
330
1F
100
AcDbEntity
  8
0
  6
Continuous
 62
     7
370
    15
100
AcDbLine
 10
350.4410406932
 20
246.796932377
 30
0.0
 11
350.7698347752
 21
245.7850082437
 31
0.0
  0
LINE
  5
186
330
1F
100
AcDbEntity
  8
0
  6
Continuous
 62
     7
370
    15
100
AcDbLine
 10
350.7798859111
 20
245.7540740284
 30
0.0
 11
351.0417697303
 21
244.9480785094
 31
0.0
  0
LINE
  5
187
330
1F
100
AcDbEntity
  8
0
  6
Continuous
 62
     7
370
    15
100
AcDbLine
 10
347.6280753629
 20
246.3674705838
 30
0.0
 11
347.6680753632
 21
246.2443632415
 31
0.0
  0
LINE
  5
188
330
1F
100
AcDbEntity
  8
0
  6
Continuous
 62
     7
370
    15
100
AcDbLine
 10
347.6280753629
 20
246.8852414602
 30
0.0
 11
347.6680753632
 21
246.7621341179
 31
0.0
  0
ARC
  5
189
330
1F
100
AcDbEntity
  8
0
  6
Continuous
 62
     7
370
    15
100
AcDbCircle
 10
351.3641798427
 20
246.8098424881
 30
0.0
 40
1.008532621745604
100
AcDbArc
 50
230.4848513317
 51
244.3390888208
  0
LINE
  5
18A
330
1F
100
AcDbEntity
  8
0
  6
Continuous
 62
     7
370
    15
100
AcDbLine
 10
350.3025250093
 20
246.8349116596
 30
0.0
 11
350.3010111151
 21
246.865395561
 31
0.0
  0
LINE
  5
18B
330
1F
100
AcDbEntity
  8
0
  6
Continuous
 62
     7
370
    15
100
AcDbLine
 10
350.6995220658
 20
245.3541949165
 30
0.0
 11
350.599930303
 21
245.6607068452
 31
0.0
  0
LINE
  5
18C
330
1F
100
AcDbEntity
  8
0
  6
Continuous
 62
     7
370
    15
100
AcDbLine
 10
350.2305225589
 20
246.7976269778
 30
0.0
 11
350.1309307961
 21
247.1041389065
 31
0.0
  0
LINE
  5
18D
330
1F
100
AcDbEntity
  8
0
  6
Continuous
 62
     7
370
    15
100
AcDbLine
 10
350.3147298126
 20
246.7973491375
 30
0.0
 11
350.2564580365
 21
246.9766912234
 31
0.0
  0
LINE
  5
18E
330
1F
100
AcDbEntity
  8
0
  6
Continuous
 62
     7
370
    15
100
AcDbLine
 10
350.726163868
 20
245.5310853187
 30
0.0
 11
350.6678920919
 21
245.7104274046
 31
0.0
  0
LINE
  5
18F
330
1F
100
AcDbEntity
  8
0
  6
Continuous
 62
     7
370
    15
100
AcDbLine
 10
299.5800630033
 20
251.4876787423
 30
0.0
 11
299.5800630033
 21
252.2476787423
 31
0.0
  0
LINE
  5
190
330
1F
100
AcDbEntity
  8
0
  6
Continuous
 62
     7
370
    15
100
AcDbLine
 10
340.7800630033
 20
252.2476787423
 30
0.0
 11
340.7800630033
 21
251.4876787423
 31
0.0
  0
ARC
  5
191
330
1F
100
AcDbEntity
  8
0
  6
Continuous
 62
     7
370
    15
100
AcDbCircle
 10
340.3800630033
 20
251.4876787423
 30
0.0
 40
0.4000000000000341
100
AcDbArc
 50
270.0
 51
0.0
  0
ARC
  5
192
330
1F
100
AcDbEntity
  8
0
  6
Continuous
 62
     7
370
    15
100
AcDbCircle
 10
299.9800630033
 20
251.4876787423
 30
0.0
 40
0.4000000000000341
100
AcDbArc
 50
180.0
 51
270.0
  0
LINE
  5
193
330
1F
100
AcDbEntity
  8
0
  6
Continuous
 62
     7
370
    15
100
AcDbLine
 10
340.3800630033
 20
251.0876787423
 30
0.0
 11
299.9800630033
 21
251.0876787423
 31
0.0
  0
ARC
  5
194
330
1F
100
AcDbEntity
  8
0
  6
Continuous
 62
     7
370
    15
100
AcDbCircle
 10
297.8680630033
 20
252.5516787423
 30
0.0
 40
0.1840000000000259
100
AcDbArc
 50
197.5
 51
270.0
  0
ARC
  5
195
330
1F
100
AcDbEntity
  8
0
  6
Continuous
 62
     7
370
    15
100
AcDbCircle
 10
297.8680630033
 20
252.5516787423
 30
0.0
 40
0.1200000000000045
100
AcDbArc
 50
197.5
 51
270.0
  0
LINE
  5
196
330
1F
100
AcDbEntity
  8
0
  6
Continuous
 62
     7
370
    15
100
AcDbLine
 10
297.5265857664
 20
253.0228124196
 30
0.0
 11
297.5876236513
 21
253.0420575908
 31
0.0
  0
LINE
  5
197
330
1F
100
AcDbEntity
  8
0
  6
Continuous
 62
     7
370
    15
100
AcDbLine
 10
297.5876236513
 20
253.0420575908
 30
0.0
 11
297.7079059711
 21
252.6605708105
 31
0.0
  0
LINE
  5
198
330
1F
100
AcDbEntity
  8
0
  6
Continuous
 62
     7
370
    15
100
AcDbLine
 10
297.6468680862
 20
252.6413256393
 30
0.0
 11
297.5265857664
 21
253.0228124196
 31
0.0
  0
LINE
  5
199
330
1F
100
AcDbEntity
  8
0
  6
Continuous
 62
     7
370
    15
100
AcDbLine
 10
297.7536169692
 20
252.5155940464
 30
0.0
 11
297.7079059711
 21
252.6605708105
 31
0.0
  0
LINE
  5
19A
330
1F
100
AcDbEntity
  8
0
  6
Continuous
 62
     7
370
    15
100
AcDbLine
 10
297.6925790844
 20
252.4963488752
 30
0.0
 11
297.6468680862
 21
252.6413256393
 31
0.0
  0
LINE
  5
19B
330
1F
100
AcDbEntity
  8
0
  6
Continuous
 62
     7
370
    15
100
AcDbLine
 10
340.7800630033
 20
252.4316787423
 30
0.0
 11
340.7800630033
 21
252.2476787423
 31
0.0
  0
LINE
  5
19C
330
1F
100
AcDbEntity
  8
0
  6
Continuous
 62
     7
370
    15
100
AcDbLine
 10
299.5800630033
 20
252.2476787423
 30
0.0
 11
299.5800630033
 21
252.4316787423
 31
0.0
  0
LINE
  5
19D
330
1F
100
AcDbEntity
  8
0
  6
Continuous
 62
     7
370
    15
100
AcDbLine
 10
299.5800630033
 20
252.4316787423
 30
0.0
 11
340.7800630033
 21
252.4316787423
 31
0.0
  0
LINE
  5
19E
330
1F
100
AcDbEntity
  8
0
  6
Continuous
 62
     7
370
    15
100
AcDbLine
 10
297.8680630033
 20
252.3676787423
 30
0.0
 11
299.5480630033
 21
252.3676787423
 31
0.0
  0
LINE
  5
19F
330
1F
100
AcDbEntity
  8
0
  6
Continuous
 62
     7
370
    15
100
AcDbLine
 10
297.8680630033
 20
252.4316787423
 30
0.0
 11
299.5480630033
 21
252.4316787423
 31
0.0
  0
LINE
  5
1A0
330
1F
100
AcDbEntity
  8
0
  6
Continuous
 62
     7
370
    15
100
AcDbLine
 10
299.5480630033
 20
252.3676787423
 30
0.0
 11
299.5480630033
 21
252.4316787423
 31
0.0
  0
ARC
  5
1A1
330
1F
100
AcDbEntity
  8
0
  6
Continuous
 62
     7
370
    15
100
AcDbCircle
 10
342.4920877226
 20
252.5516787423
 30
0.0
 40
0.1840000000000259
100
AcDbArc
 50
270.0
 51
342.5
  0
ARC
  5
1A2
330
1F
100
AcDbEntity
  8
0
  6
Continuous
 62
     7
370
    15
100
AcDbCircle
 10
342.4920877226
 20
252.5516787423
 30
0.0
 40
0.1200000000000045
100
AcDbArc
 50
270.0
 51
342.5
  0
LINE
  5
1A3
330
1F
100
AcDbEntity
  8
0
  6
Continuous
 62
     7
370
    15
100
AcDbLine
 10
340.8120630033
 20
252.4316787423
 30
0.0
 11
342.4920877226
 21
252.4316787423
 31
0.0
  0
LINE
  5
1A4
330
1F
100
AcDbEntity
  8
0
  6
Continuous
 62
     7
370
    15
100
AcDbLine
 10
340.8120630033
 20
252.3676787423
 30
0.0
 11
340.8120630033
 21
252.4316787423
 31
0.0
  0
LINE
  5
1A5
330
1F
100
AcDbEntity
  8
0
  6
Continuous
 62
     7
370
    15
100
AcDbLine
 10
340.8120630033
 20
252.3676787423
 30
0.0
 11
342.4920877226
 21
252.3676787423
 31
0.0
  0
LINE
  5
1A6
330
1F
100
AcDbEntity
  8
0
  6
Continuous
 62
     7
370
    15
100
AcDbLine
 10
342.7132826397
 20
252.6413256393
 30
0.0
 11
342.6675716415
 21
252.4963488752
 31
0.0
  0
LINE
  5
1A7
330
1F
100
AcDbEntity
  8
0
  6
Continuous
 62
     7
370
    15
100
AcDbLine
 10
342.6522447548
 20
252.6605708105
 30
0.0
 11
342.6065337567
 21
252.5155940464
 31
0.0
  0
LINE
  5
1A8
330
1F
100
AcDbEntity
  8
0
  6
Continuous
 62
     7
370
    15
100
AcDbLine
 10
342.7725270746
 20
253.0420575908
 30
0.0
 11
342.8335649595
 21
253.0228124196
 31
0.0
  0
LINE
  5
1A9
330
1F
100
AcDbEntity
  8
0
  6
Continuous
 62
     7
370
    15
100
AcDbLine
 10
342.8335649595
 20
253.0228124196
 30
0.0
 11
342.7132826397
 21
252.6413256393
 31
0.0
  0
LINE
  5
1AA
330
1F
100
AcDbEntity
  8
0
  6
Continuous
 62
     7
370
    15
100
AcDbLine
 10
342.6522447548
 20
252.6605708105
 30
0.0
 11
342.7725270746
 21
253.0420575908
 31
0.0
  0
LINE
  5
1AB
330
1F
100
AcDbEntity
  8
0
  6
Continuous
 62
     7
370
    15
100
AcDbLine
 10
299.5480630033
 20
252.4316787423
 30
0.0
 11
299.5800630033
 21
252.4316787423
 31
0.0
  0
LINE
  5
1AC
330
1F
100
AcDbEntity
  8
0
  6
Continuous
 62
     7
370
    15
100
AcDbLine
 10
299.5480630033
 20
252.3676787423
 30
0.0
 11
299.5800630033
 21
252.3676787423
 31
0.0
  0
LINE
  5
1AD
330
1F
100
AcDbEntity
  8
0
  6
Continuous
 62
     7
370
    15
100
AcDbLine
 10
340.7800630033
 20
252.4316787423
 30
0.0
 11
340.8120630033
 21
252.4316787423
 31
0.0
  0
LINE
  5
1AE
330
1F
100
AcDbEntity
  8
0
  6
Continuous
 62
     7
370
    15
100
AcDbLine
 10
340.7800630033
 20
252.3676787423
 30
0.0
 11
340.8120630033
 21
252.3676787423
 31
0.0
  0
ARC
  5
1AF
330
1F
100
AcDbEntity
  8
0
  6
Continuous
 62
     7
370
    15
100
AcDbCircle
 10
299.4600753629
 20
252.1116787423
 30
0.0
 40
0.2560000000000286
100
AcDbArc
 50
62.0436814777
 51
90.0
  0
ARC
  5
1B0
330
1F
100
AcDbEntity
  8
0
  6
Continuous
 62
     7
370
    15
100
AcDbCircle
 10
340.9000753629
 20
252.1116787423
 30
0.0
 40
0.2560000000000552
100
AcDbArc
 50
90.0
 51
117.9500553353
  0
LWPOLYLINE
  5
1B1
330
1F
100
AcDbEntity
  8
0
  6
Continuous
 62
     7
370
    15
100
AcDbPolyline
 90
        3
 70
   128
 43
0.0
 10
340.0869647791
 20
251.0876787423
 10
340.052738216
 20
251.0446903848
 10
340.007855747
 20
250.9916787423
  0
LWPOLYLINE
  5
1B2
330
1F
100
AcDbEntity
  8
0
  6
Continuous
 62
     7
370
    15
100
AcDbPolyline
 90
        3
 70
   128
 43
0.0
 10
300.2731859468
 20
251.0876787423
 10
300.3074125099
 20
251.0446903848
 10
300.3522949789
 20
250.9916787423
  0
LINE
  5
1B3
330
1F
100
AcDbEntity
  8
0
  6
Continuous
 62
     7
370
    15
100
AcDbLine
 10
340.7800877226
 20
252.2476787423
 30
0.0
 11
340.7800877226
 21
252.3378180051
 31
0.0
  0
LINE
  5
1B4
330
1F
100
AcDbEntity
  8
0
  6
Continuous
 62
     7
370
    15
100
AcDbLine
 10
340.7800877226
 20
251.4876787423
 30
0.0
 11
340.7800877226
 21
252.2476787423
 31
0.0
  0
ARC
  5
1B5
330
1F
100
AcDbEntity
  8
0
  6
Continuous
 62
     7
370
    15
100
AcDbCircle
 10
340.3800877226
 20
251.4876787423
 30
0.0
 40
0.4000000000000341
100
AcDbArc
 50
270.0
 51
0.0
  0
LINE
  5
1B6
330
1F
100
AcDbEntity
  8
0
  6
Continuous
 62
     7
370
    15
100
AcDbLine
 10
313.0989100235
 20
252.712567623
 30
0.0
 11
304.8612407023
 21
252.712567623
 31
0.0
  0
LINE
  5
1B7
330
1F
100
AcDbEntity
  8
0
  6
Continuous
 62
     7
370
    15
100
AcDbLine
 10
335.4989100235
 20
252.712567623
 30
0.0
 11
327.2612407023
 21
252.712567623
 31
0.0
  0
LINE
  5
1B8
330
1F
100
AcDbEntity
  8
0
  6
Continuous
 62
     7
370
    15
100
AcDbLine
 10
298.9722146043
 20
252.4675733584
 30
0.0
 11
298.649552005
 21
252.4675733584
 31
0.0
  0
LINE
  5
1B9
330
1F
100
AcDbEntity
  8
0
  6
Continuous
 62
     7
370
    15
100
AcDbLine
 10
298.4090423589
 20
252.4675733584
 30
0.0
 11
298.0279361216
 21
252.4675733584
 31
0.0
  0
LWPOLYLINE
  5
1BA
330
1F
100
AcDbEntity
  8
0
  6
Continuous
 62
     7
370
    15
100
AcDbPolyline
 90
        3
 70
   128
 43
0.0
 10
298.9093288343
 20
252.5116787423
 10
298.8881577054
 20
252.5251312662
 10
298.6718506921
 20
252.6115402987
  0
LWPOLYLINE
  5
1BB
330
1F
100
AcDbEntity
  8
0
  6
Continuous
 62
     7
370
    15
100
AcDbPolyline
 90
        3
 70
   128
 43
0.0
 10
298.358307415
 20
252.6106616346
 10
298.2322204942
 20
252.5839247145
 10
298.0908218916
 20
252.5116787423
  0
LINE
  5
1BC
330
1F
100
AcDbEntity
  8
0
  6
Continuous
 62
     7
370
    15
100
AcDbLine
 10
298.9128760459
 20
252.5116787423
 30
0.0
 11
298.9093288343
 21
252.5116787423
 31
0.0
  0
LINE
  5
1BD
330
1F
100
AcDbEntity
  8
0
  6
Continuous
 62
     7
370
    15
100
AcDbLine
 10
298.0908218916
 20
252.5116787423
 30
0.0
 11
298.08727468
 21
252.5116787423
 31
0.0
  0
LINE
  5
1BE
330
1F
100
AcDbEntity
  8
0
  6
Continuous
 62
     7
370
    15
100
AcDbLine
 10
342.3322146043
 20
252.4675733584
 30
0.0
 11
341.9511083672
 21
252.4675733584
 31
0.0
  0
LINE
  5
1BF
330
1F
100
AcDbEntity
  8
0
  6
Continuous
 62
     7
370
    15
100
AcDbLine
 10
341.7105987211
 20
252.4675733584
 30
0.0
 11
341.3879361216
 21
252.4675733584
 31
0.0
  0
ARC
  5
1C0
330
1F
100
AcDbEntity
  8
0
  6
Continuous
 62
     7
370
    15
100
AcDbCircle
 10
341.9276622887
 20
252.0339510576
 30
0.0
 40
0.5873327583913783
100
AcDbArc
 50
54.4279907839
 51
82.5573428815
  0
LWPOLYLINE
  5
1C1
330
1F
100
AcDbEntity
  8
0
  6
Continuous
 62
     7
370
    15
100
AcDbPolyline
 90
        3
 70
   128
 43
0.0
 10
341.6889220671
 20
252.6044304276
 10
341.5922204942
 20
252.5839247145
 10
341.4508218916
 20
252.5116787423
  0
LINE
  5
1C2
330
1F
100
AcDbEntity
  8
0
  6
Continuous
 62
     7
370
    15
100
AcDbLine
 10
342.2728760459
 20
252.5116787423
 30
0.0
 11
342.2693288343
 21
252.5116787423
 31
0.0
  0
LINE
  5
1C3
330
1F
100
AcDbEntity
  8
0
  6
Continuous
 62
     7
370
    15
100
AcDbLine
 10
341.4508218916
 20
252.5116787423
 30
0.0
 11
341.44727468
 21
252.5116787423
 31
0.0
  0
ARC
  5
1C4
330
1F
100
AcDbEntity
  8
0
  6
Continuous
 62
     7
370
    15
100
AcDbCircle
 10
349.3518601321
 20
249.6322910698
 30
0.0
 40
0.0832000000000138
100
AcDbArc
 50
161.1950103413
 51
293.5000000007
  0
LINE
  5
1C5
330
1F
100
AcDbEntity
  8
0
  6
Continuous
 62
     7
370
    15
100
AcDbLine
 10
350.2497802512
 20
250.0750590223
 30
0.0
 11
350.2592974157
 21
250.087920732
 31
0.0
  0
ARC
  5
1C6
330
1F
100
AcDbEntity
  8
0
  6
Continuous
 62
     7
370
    15
100
AcDbCircle
 10
349.3518601321
 20
249.6322910698
 30
0.0
 40
0.0480000000000106
100
AcDbArc
 50
113.5000000007
 51
293.5000000007
  0
LINE
  5
1C7
330
1F
100
AcDbEntity
  8
0
  6
Continuous
 62
     7
370
    15
100
AcDbLine
 10
350.4855081439
 20
250.0344905544
 30
0.0
 11
350.4714721767
 21
250.066771069
 31
0.0
  0
LINE
  5
1C8
330
1F
100
AcDbEntity
  8
0
  6
Continuous
 62
     7
370
    15
100
AcDbLine
 10
349.3850360547
 20
249.5559916716
 30
0.0
 11
350.4855081439
 21
250.0344905544
 31
0.0
  0
LINE
  5
1C9
330
1F
100
AcDbEntity
  8
0
  6
Continuous
 62
     7
370
    15
100
AcDbLine
 10
347.6680753632
 20
239.9286647801
 30
0.0
 11
347.6680753632
 21
249.4236787423
 31
0.0
  0
ARC
  5
1CA
330
1F
100
AcDbEntity
  8
0
  6
Continuous
 62
     7
370
    15
100
AcDbCircle
 10
347.7480753632
 20
239.9286647801
 30
0.0
 40
0.0799999999999841
100
AcDbArc
 50
180.0
 51
270.0
  0
ARC
  5
1CB
330
1F
100
AcDbEntity
  8
0
  6
Continuous
 62
     7
370
    15
100
AcDbCircle
 10
347.7480753632
 20
249.4236787423
 30
0.0
 40
0.0800000000000125
100
AcDbArc
 50
90.0
 51
180.0
  0
ARC
  5
1CC
330
1F
100
AcDbEntity
  8
0
  6
Continuous
 62
     7
370
    15
100
AcDbCircle
 10
349.1272082285
 20
249.4036787423
 30
0.0
 40
0.1639999999999645
100
AcDbArc
 50
18.0
 51
90.0
  0
ARC
  5
1CD
330
1F
100
AcDbEntity
  8
0
  6
Continuous
 62
     7
370
    15
100
AcDbCircle
 10
349.1272082285
 20
249.4036787423
 30
0.0
 40
0.0999999999999943
100
AcDbArc
 50
18.0
 51
90.0
  0
LINE
  5
1CE
330
1F
100
AcDbEntity
  8
0
  6
Continuous
 62
     7
370
    15
100
AcDbLine
 10
351.2291108535
 20
243.465402785
 30
0.0
 11
349.2831814972
 21
249.4543575294
 31
0.0
  0
LINE
  5
1CF
330
1F
100
AcDbEntity
  8
0
  6
Continuous
 62
     7
370
    15
100
AcDbLine
 10
351.1682432364
 20
243.4456256974
 30
0.0
 11
349.2223138801
 21
249.4345804417
 31
0.0
  0
LINE
  5
1D0
330
1F
100
AcDbEntity
  8
0
  6
Continuous
 62
     7
370
    15
100
AcDbLine
 10
347.8318624813
 20
249.5036787423
 30
0.0
 11
349.1272082285
 21
249.5036787423
 31
0.0
  0
LINE
  5
1D1
330
1F
100
AcDbEntity
  8
0
  6
Continuous
 62
     7
370
    15
100
AcDbLine
 10
347.8318624813
 20
249.5676787423
 30
0.0
 11
349.1272082285
 21
249.5676787423
 31
0.0
  0
ARC
  5
1D2
330
1F
100
AcDbEntity
  8
0
  6
Continuous
 62
     7
370
    15
100
AcDbCircle
 10
352.5196009073
 20
239.9486647801
 30
0.0
 40
0.0999999999999957
100
AcDbArc
 50
270.0
 51
320.0
  0
ARC
  5
1D3
330
1F
100
AcDbEntity
  8
0
  6
Continuous
 62
     7
370
    15
100
AcDbCircle
 10
352.5196009073
 20
239.9486647801
 30
0.0
 40
0.1640000000000345
100
AcDbArc
 50
270.0
 51
320.0
  0
LINE
  5
1D4
330
1F
100
AcDbEntity
  8
0
  6
Continuous
 62
     7
370
    15
100
AcDbLine
 10
347.8280753632
 20
239.7846647801
 30
0.0
 11
352.5196009073
 21
239.7846647801
 31
0.0
  0
LINE
  5
1D5
330
1F
100
AcDbEntity
  8
0
  6
Continuous
 62
     7
370
    15
100
AcDbLine
 10
347.8280753632
 20
239.8486647801
 30
0.0
 11
352.5196009073
 21
239.8486647801
 31
0.0
  0
LINE
  5
1D6
330
1F
100
AcDbEntity
  8
0
  6
Continuous
 62
     7
370
    15
100
AcDbLine
 10
352.5962053516
 20
239.8843860191
 30
0.0
 11
353.5897015233
 21
241.068388651
 31
0.0
  0
LINE
  5
1D7
330
1F
100
AcDbEntity
  8
0
  6
Continuous
 62
     7
370
    15
100
AcDbLine
 10
352.645232196
 20
239.8432476121
 30
0.0
 11
353.6387283677
 21
241.027250244
 31
0.0
  0
LINE
  5
1D8
330
1F
100
AcDbEntity
  8
0
  6
Continuous
 62
     7
370
    15
100
AcDbLine
 10
347.6718624813
 20
249.5036787423
 30
0.0
 11
347.6718624813
 21
249.5676787423
 31
0.0
  0
LINE
  5
1D9
330
1F
100
AcDbEntity
  8
0
  6
Continuous
 62
     7
370
    15
100
AcDbLine
 10
347.8318624813
 20
249.5036787423
 30
0.0
 11
347.6718624813
 21
249.5036787423
 31
0.0
  0
LINE
  5
1DA
330
1F
100
AcDbEntity
  8
0
  6
Continuous
 62
     7
370
    15
100
AcDbLine
 10
347.6718624813
 20
249.5676787423
 30
0.0
 11
347.8280753632
 21
249.5676787423
 31
0.0
  0
ARC
  5
1DB
330
1F
100
AcDbEntity
  8
0
  6
Continuous
 62
     7
370
    15
100
AcDbCircle
 10
352.9768659688
 20
241.5826187388
 30
0.0
 40
0.8640000000000061
100
AcDbArc
 50
320.0
 51
70.0
  0
ARC
  5
1DC
330
1F
100
AcDbEntity
  8
0
  6
Continuous
 62
     7
370
    15
100
AcDbCircle
 10
352.9768659688
 20
241.5826187388
 30
0.0
 40
0.8000000000000221
100
AcDbArc
 50
320.0
 51
70.0
  0
ARC
  5
1DD
330
1F
100
AcDbEntity
  8
0
  6
Continuous
 62
     7
370
    15
100
AcDbCircle
 10
351.9899560665
 20
243.7126163805
 30
0.0
 40
0.800000000000015
100
AcDbArc
 50
198.0
 51
250.0
  0
ARC
  5
1DE
330
1F
100
AcDbEntity
  8
0
  6
Continuous
 62
     7
370
    15
100
AcDbCircle
 10
351.9899560665
 20
243.7126163805
 30
0.0
 40
0.8639999999999989
100
AcDbArc
 50
198.0
 51
250.0
  0
LINE
  5
1DF
330
1F
100
AcDbEntity
  8
0
  6
Continuous
 62
     7
370
    15
100
AcDbLine
 10
353.2723713727
 20
242.3945131631
 30
0.0
 11
351.7163399518
 21
242.9608622839
 31
0.0
  0
LINE
  5
1E0
330
1F
100
AcDbEntity
  8
0
  6
Continuous
 62
     7
370
    15
100
AcDbLine
 10
353.2504820835
 20
242.3343728354
 30
0.0
 11
351.6944506627
 21
242.9007219562
 31
0.0
  0
LINE
  5
1E1
330
1F
100
AcDbEntity
  8
0
  6
Continuous
 62
     7
370
    15
100
AcDbLine
 10
347.8280753632
 20
239.7846647801
 30
0.0
 11
347.6680753632
 21
239.7846647801
 31
0.0
  0
LINE
  5
1E2
330
1F
100
AcDbEntity
  8
0
  6
Continuous
 62
     7
370
    15
100
AcDbLine
 10
347.6680753632
 20
239.7846647801
 30
0.0
 11
347.6680753632
 21
239.8486647801
 31
0.0
  0
LINE
  5
1E3
330
1F
100
AcDbEntity
  8
0
  6
Continuous
 62
     7
370
    15
100
AcDbLine
 10
347.6680753632
 20
239.8486647801
 30
0.0
 11
347.8280753632
 21
239.8486647801
 31
0.0
  0
ARC
  5
1E4
330
1F
100
AcDbEntity
  8
0
  6
Continuous
 62
     7
370
    15
100
AcDbCircle
 10
349.4133253966
 20
249.3774225904
 30
0.0
 40
0.1000000000000075
100
AcDbArc
 50
114.0
 51
198.0
  0
ARC
  5
1E5
330
1F
100
AcDbEntity
  8
0
  6
Continuous
 62
     7
370
    15
100
AcDbCircle
 10
349.4133253966
 20
249.3774225904
 30
0.0
 40
0.1640000000000192
100
AcDbArc
 50
114.0
 51
145.9172299096
  0
LINE
  5
1E6
330
1F
100
AcDbEntity
  8
0
  6
Continuous
 62
     7
370
    15
100
AcDbLine
 10
349.9952009508
 20
249.8160106281
 30
0.0
 11
350.3606191338
 21
249.9787052853
 31
0.0
  0
LINE
  5
1E7
330
1F
100
AcDbEntity
  8
0
  6
Continuous
 62
     7
370
    15
100
AcDbLine
 10
350.3606191338
 20
249.9787052853
 30
0.0
 11
350.386650279
 21
249.9202383761
 31
0.0
  0
LINE
  5
1E8
330
1F
100
AcDbEntity
  8
0
  6
Continuous
 62
     7
370
    15
100
AcDbLine
 10
350.0212320959
 20
249.7575437188
 30
0.0
 11
350.386650279
 21
249.9202383761
 31
0.0
  0
LINE
  5
1E9
330
1F
100
AcDbEntity
  8
0
  6
Continuous
 62
     7
370
    15
100
AcDbLine
 10
349.3466205871
 20
249.5272440455
 30
0.0
 11
349.9952009508
 21
249.8160106281
 31
0.0
  0
LINE
  5
1EA
330
1F
100
AcDbEntity
  8
0
  6
Continuous
 62
     7
370
    15
100
AcDbLine
 10
349.3726517323
 20
249.4687771362
 30
0.0
 11
350.0212320959
 21
249.7575437188
 31
0.0
  0
LINE
  5
1EB
330
1F
100
AcDbEntity
  8
0
  6
Continuous
 62
     7
370
    15
100
AcDbLine
 10
347.6476355531
 20
245.6724959218
 30
0.0
 11
347.6280753629
 21
245.732695997
 31
0.0
  0
LINE
  5
1EC
330
1F
100
AcDbEntity
  8
0
  6
Continuous
 62
     7
370
    15
100
AcDbLine
 10
347.6280753629
 20
247.1292987397
 30
0.0
 11
347.6680753632
 21
247.1422955276
 31
0.0
  0
LINE
  5
1ED
330
1F
100
AcDbEntity
  8
0
  6
Continuous
 62
     7
370
    15
100
AcDbLine
 10
347.6280753629
 20
247.5498836294
 30
0.0
 11
347.6646512272
 21
247.5617678481
 31
0.0
  0
LINE
  5
1EE
330
1F
100
AcDbEntity
  8
0
  6
Continuous
 62
     7
370
    15
100
AcDbLine
 10
350.9775053824
 20
246.5562842098
 30
0.0
 11
350.9095216436
 21
246.7655166434
 31
0.0
  0
LINE
  5
1EF
330
1F
100
AcDbEntity
  8
0
  6
Continuous
 62
     7
370
    15
100
AcDbLine
 10
351.1173137452
 20
246.6437691896
 30
0.0
 11
350.9651447026
 21
246.5943264705
 31
0.0
  0
LINE
  5
1F0
330
1F
100
AcDbEntity
  8
0
  6
Continuous
 62
     7
370
    15
100
AcDbLine
 10
347.6280753629
 20
246.2040119823
 30
0.0
 11
347.6680753632
 21
246.2170087703
 31
0.0
  0
LINE
  5
1F1
330
1F
100
AcDbEntity
  8
0
  6
Continuous
 62
     7
370
    15
100
AcDbLine
 10
351.3355305965
 20
248.5610211609
 30
0.0
 11
351.2168625903
 21
248.92624373
 31
0.0
  0
LINE
  5
1F2
330
1F
100
AcDbEntity
  8
0
  6
Continuous
 62
     7
370
    15
100
AcDbLine
 10
352.6259800846
 20
244.5894260157
 30
0.0
 11
352.5073120784
 21
244.9546485847
 31
0.0
  0
LWPOLYLINE
  5
1F3
330
1F
100
AcDbEntity
  8
0
  6
Continuous
 62
     7
370
    15
100
AcDbPolyline
 90
       10
 70
   128
 43
0.0
 10
350.5567048856
 20
248.9701071507
 10
350.5566976575
 20
248.970108148
 10
350.5718459333
 20
248.9680183365
 10
350.6149400227
 20
248.9625215378
 10
350.6794929999
 20
248.9555469229
 10
350.7557582691
 20
248.9492960493
 10
350.8321675455
 20
248.9452533657
 10
350.8970759691
 20
248.9436129579
 10
350.940491295
 20
248.9434622395
 10
350.9558118416
 20
248.9435891518
  0
LINE
  5
1F4
330
1F
100
AcDbEntity
  8
0
  6
Continuous
 62
     7
370
    15
100
AcDbLine
 10
351.9640203098
 20
244.0378743349
 30
0.0
 11
350.357131939
 21
248.9833682197
 31
0.0
  0
LINE
  5
1F5
330
1F
100
AcDbEntity
  8
0
  6
Continuous
 62
     7
370
    15
100
AcDbLine
 10
351.3808789408
 20
248.421453308
 30
0.0
 11
352.4619637341
 21
245.0942164376
 31
0.0
  0
ARC
  5
1F6
330
1F
100
AcDbEntity
  8
0
  6
Continuous
 62
     7
370
    15
100
AcDbCircle
 10
352.4274354694
 20
245.0092430026
 30
0.0
 40
0.095656131983025
100
AcDbArc
 50
326.9559793502
 51
19.2494515476
  0
ARC
  5
1F7
330
1F
100
AcDbEntity
  8
0
  6
Continuous
 62
     7
370
    15
100
AcDbCircle
 10
352.5098739734
 20
244.9555619737
 30
0.0
 40
0.0027198502109937
100
AcDbArc
 50
145.9892408283
 51
199.6226084709
  0
ARC
  5
1F8
330
1F
100
AcDbEntity
  8
0
  6
Continuous
 62
     7
370
    15
100
AcDbCircle
 10
351.302998856
 20
248.4699030562
 30
0.0
 40
0.0956561319869257
100
AcDbArc
 50
16.7505484536
 51
69.0440206486
  0
ARC
  5
1F9
330
1F
100
AcDbEntity
  8
0
  6
Continuous
 62
     7
370
    15
100
AcDbCircle
 10
351.338159558
 20
248.561806336
 30
0.0
 40
0.0027437089136635
100
AcDbArc
 50
196.6289702381
 51
249.7591804584
  0
ARC
  5
1FA
330
1F
100
AcDbEntity
  8
0
  6
Continuous
 62
     7
370
    15
100
AcDbCircle
 10
351.4475696168
 20
250.5138603763
 30
0.0
 40
1.60336639183562
100
AcDbArc
 50
263.1604774207
 51
263.8290617637
  0
LINE
  5
1FB
330
1F
100
AcDbEntity
  8
0
  6
Continuous
 62
     7
370
    15
100
AcDbLine
 10
351.27521561
 20
248.9197845052
 30
0.0
 11
352.7934444137
 21
248.7501414676
 31
0.0
  0
LINE
  5
1FC
330
1F
100
AcDbEntity
  8
0
  6
Continuous
 62
     7
370
    15
100
AcDbLine
 10
352.7934444137
 20
248.7501414676
 30
0.0
 11
352.9110327849
 21
248.7371847779
 31
0.0
  0
LINE
  5
1FD
330
1F
100
AcDbEntity
  8
0
  6
Continuous
 62
     7
370
    15
100
AcDbLine
 10
353.0582579195
 20
248.4367204037
 30
0.0
 11
353.8279656075
 21
246.0678037239
 31
0.0
  0
LINE
  5
1FE
330
1F
100
AcDbEntity
  8
0
  6
Continuous
 62
     7
370
    15
100
AcDbLine
 10
353.8279656075
 20
246.0678037239
 30
0.0
 11
353.9091937994
 21
245.817809055
 31
0.0
  0
LINE
  5
1FF
330
1F
100
AcDbEntity
  8
0
  6
Continuous
 62
     7
370
    15
100
AcDbLine
 10
352.978507215
 20
248.6821678342
 30
0.0
 11
353.0582579195
 21
248.4367204037
 31
0.0
  0
ARC
  5
200
330
1F
100
AcDbEntity
  8
0
  6
Continuous
 62
     7
370
    15
100
AcDbCircle
 10
352.9021559923
 20
248.6574132088
 30
0.0
 40
0.0802639438323249
100
AcDbArc
 50
17.9637528029
 51
83.6503829194
  0
LINE
  5
201
330
1F
100
AcDbEntity
  8
0
  6
Continuous
 62
     7
370
    15
100
AcDbLine
 10
350.9775053824
 20
246.5562842098
 30
0.0
 11
350.9872454233
 21
246.5263074461
 31
0.0
  0
LINE
  5
202
330
1F
100
AcDbEntity
  8
0
  6
Continuous
 62
     7
370
    15
100
AcDbLine
 10
350.9775053824
 20
246.5562842098
 30
0.0
 11
351.129674425
 21
246.6057269289
 31
0.0
  0
LINE
  5
203
330
1F
100
AcDbEntity
  8
0
  6
Continuous
 62
     7
370
    15
100
AcDbLine
 10
350.9872454233
 20
246.5263074461
 30
0.0
 11
351.0269481015
 21
246.4041151672
 31
0.0
  0
LINE
  5
204
330
1F
100
AcDbEntity
  8
0
  6
Continuous
 62
     7
370
    15
100
AcDbLine
 10
351.0269481015
 20
246.4041151672
 30
0.0
 11
351.0393087813
 21
246.3660729066
 31
0.0
  0
LINE
  5
205
330
1F
100
AcDbEntity
  8
0
  6
Continuous
 62
     7
370
    15
100
AcDbLine
 10
351.1923408497
 20
246.4128595052
 30
0.0
 11
351.0393087813
 21
246.3660729066
 31
0.0
  0
LINE
  5
206
330
1F
100
AcDbEntity
  8
0
  6
Continuous
 62
     7
370
    15
100
AcDbLine
 10
351.2659148979
 20
246.1864218683
 30
0.0
 11
351.113654509
 21
246.1372602843
 31
0.0
  0
LINE
  5
207
330
1F
100
AcDbEntity
  8
0
  6
Continuous
 62
     7
370
    15
100
AcDbLine
 10
351.0393087813
 20
246.3660729066
 30
0.0
 11
351.113654509
 21
246.1372602843
 31
0.0
  0
LINE
  5
208
330
1F
100
AcDbEntity
  8
0
  6
Continuous
 62
     7
370
    15
100
AcDbLine
 10
351.1413392789
 20
246.0520553238
 30
0.0
 11
351.156040574
 21
246.0068093897
 31
0.0
  0
LINE
  5
209
330
1F
100
AcDbEntity
  8
0
  6
Continuous
 62
     7
370
    15
100
AcDbLine
 10
351.113654509
 20
246.1372602843
 30
0.0
 11
351.1413392789
 21
246.0520553238
 31
0.0
  0
LINE
  5
20A
330
1F
100
AcDbEntity
  8
0
  6
Continuous
 62
     7
370
    15
100
AcDbLine
 10
351.156040574
 20
246.0068093897
 30
0.0
 11
351.1821011328
 21
245.9266032371
 31
0.0
  0
LINE
  5
20B
330
1F
100
AcDbEntity
  8
0
  6
Continuous
 62
     7
370
    15
100
AcDbLine
 10
351.1821011328
 20
245.9266032371
 30
0.0
 11
351.1842206884
 21
245.9200799157
 31
0.0
  0
LWPOLYLINE
  5
20C
330
1F
100
AcDbEntity
  8
0
  6
Continuous
 62
     7
370
    15
100
AcDbPolyline
 90
       10
 70
   128
 43
0.0
 10
350.5567518114
 20
248.9709062311
 10
350.5567506818
 20
248.970906387
 10
350.5719167446
 20
248.968813858
 10
350.6150498011
 20
248.9633118936
 10
350.6796521366
 20
248.9563330549
 10
350.7559619368
 20
248.9500818086
 10
350.8323934769
 20
248.9460429942
 10
350.897281954
 20
248.9444080936
 10
350.9406576247
 20
248.9442607082
 10
350.9558648804
 20
248.9443873917
  0
LINE
  5
20D
330
1F
100
AcDbEntity
  8
0
  6
Continuous
 62
     7
370
    15
100
AcDbLine
 10
347.6280753629
 20
249.6876787423
 30
0.0
 11
347.6680753632
 21
249.7276787426
 31
0.0
  0
LINE
  5
20E
330
1F
100
AcDbEntity
  8
0
  6
Continuous
 62
     7
370
    15
100
AcDbLine
 10
347.5584185087
 20
250.9436787423
 30
0.0
 11
347.6680753632
 21
250.9436787423
 31
0.0
  0
LINE
  5
20F
330
1F
100
AcDbEntity
  8
0
  6
Continuous
 62
     7
370
    15
100
AcDbLine
 10
341.2200753629
 20
252.2708787423
 30
0.0
 11
341.2200753629
 21
252.2716787423
 31
0.0
  0
LINE
  5
210
330
1F
100
AcDbEntity
  8
0
  6
Continuous
 62
     7
370
    15
100
AcDbLine
 10
342.8978021792
 20
252.2716787423
 30
0.0
 11
342.8800753632
 21
252.2716787423
 31
0.0
  0
LINE
  5
211
330
1F
100
AcDbEntity
  8
0
  6
Continuous
 62
     7
370
    15
100
AcDbLine
 10
350.7023101538
 20
250.271824624
 30
0.0
 11
350.677193732
 21
250.2696272218
 31
0.0
  0
LINE
  5
212
330
1F
100
AcDbEntity
  8
0
  6
Continuous
 62
     7
370
    15
100
AcDbLine
 10
350.7638840302
 20
250.3073212362
 30
0.0
 11
350.7646192707
 21
250.298917399
 31
0.0
  0
LINE
  5
213
330
1F
100
AcDbEntity
  8
0
  6
Continuous
 62
     7
370
    15
100
AcDbLine
 10
299.3000753629
 20
250.9916787423
 30
0.0
 11
299.3000753629
 21
250.9953636061
 31
0.0
  0
LINE
  5
214
330
1F
100
AcDbEntity
  8
0
  6
Continuous
 62
     7
370
    15
100
AcDbLine
 10
299.2760753632
 20
250.9916787423
 30
0.0
 11
291.1640753632
 21
250.9916787423
 31
0.0
  0
ARC
  5
215
330
1F
100
AcDbEntity
  8
0
  6
Continuous
 62
     7
370
    15
100
AcDbCircle
 10
291.1640753632
 20
251.0716787423
 30
0.0
 40
0.0799999999999841
100
AcDbArc
 50
180.0
 51
270.0
  0
LINE
  5
216
330
1F
100
AcDbEntity
  8
0
  6
Continuous
 62
     7
370
    15
100
AcDbLine
 10
291.0840753632
 20
251.0716787423
 30
0.0
 11
291.0840753633
 21
253.9578486899
 31
0.0
  0
ARC
  5
217
330
1F
100
AcDbEntity
  8
0
  6
Continuous
 62
     7
370
    15
100
AcDbCircle
 10
299.2760753632
 20
251.0716787423
 30
0.0
 40
0.0799999999999841
100
AcDbArc
 50
270.0
 51
0.0
  0
LINE
  5
218
330
1F
100
AcDbEntity
  8
0
  6
Continuous
 62
     7
370
    15
100
AcDbLine
 10
299.3560753633
 20
251.5578486899
 30
0.0
 11
299.3560753632
 21
251.0716787423
 31
0.0
  0
LINE
  5
219
330
1F
100
AcDbEntity
  8
0
  6
Continuous
 62
     7
370
    15
100
AcDbLine
 10
291.0200753633
 20
254.0636787423
 30
0.0
 11
291.0200753633
 21
257.8060351551
 31
0.0
  0
LINE
  5
21A
330
1F
100
AcDbEntity
  8
0
  6
Continuous
 62
     7
370
    15
100
AcDbLine
 10
291.0840753633
 20
254.0636787423
 30
0.0
 11
291.0840753633
 21
257.8060351551
 31
0.0
  0
LINE
  5
21B
330
1F
100
AcDbEntity
  8
0
  6
Continuous
 62
     7
370
    15
100
AcDbLine
 10
291.0840753633
 20
253.9036787423
 30
0.0
 11
291.0200753633
 21
253.9036787423
 31
0.0
  0
LINE
  5
21C
330
1F
100
AcDbEntity
  8
0
  6
Continuous
 62
     7
370
    15
100
AcDbLine
 10
291.0200753633
 20
253.9036787423
 30
0.0
 11
291.0200753633
 21
254.0636787423
 31
0.0
  0
LINE
  5
21D
330
1F
100
AcDbEntity
  8
0
  6
Continuous
 62
     7
370
    15
100
AcDbLine
 10
291.0840753633
 20
254.0636787423
 30
0.0
 11
291.0840753633
 21
253.9578486899
 31
0.0
  0
LINE
  5
21E
330
1F
100
AcDbEntity
  8
0
  6
Continuous
 62
     7
370
    15
100
AcDbLine
 10
291.2265216867
 20
257.9644469906
 30
0.0
 11
293.8902778724
 21
257.2506956718
 31
0.0
  0
LINE
  5
21F
330
1F
100
AcDbEntity
  8
0
  6
Continuous
 62
     7
370
    15
100
AcDbLine
 10
291.2099572678
 20
257.9026277377
 30
0.0
 11
293.8737134535
 21
257.1888764189
 31
0.0
  0
ARC
  5
220
330
1F
100
AcDbEntity
  8
0
  6
Continuous
 62
     7
370
    15
100
AcDbCircle
 10
297.4800753633
 20
252.4676787423
 30
0.0
 40
0.0999999999999943
100
AcDbArc
 50
180.0
 51
270.0
  0
ARC
  5
221
330
1F
100
AcDbEntity
  8
0
  6
Continuous
 62
     7
370
    15
100
AcDbCircle
 10
297.4800753633
 20
252.4676787423
 30
0.0
 40
0.1640000000000157
100
AcDbArc
 50
180.0
 51
270.0
  0
LINE
  5
222
330
1F
100
AcDbEntity
  8
0
  6
Continuous
 62
     7
370
    15
100
AcDbLine
 10
297.3800753633
 20
253.8036787423
 30
0.0
 11
297.3800753633
 21
252.4676787423
 31
0.0
  0
LINE
  5
223
330
1F
100
AcDbEntity
  8
0
  6
Continuous
 62
     7
370
    15
100
AcDbLine
 10
297.3160753633
 20
253.8036787423
 30
0.0
 11
297.3160753633
 21
252.4676787423
 31
0.0
  0
LINE
  5
224
330
1F
100
AcDbEntity
  8
0
  6
Continuous
 62
     7
370
    15
100
AcDbLine
 10
295.4200753633
 20
255.2570247663
 30
0.0
 11
295.4200753633
 21
254.0676787423
 31
0.0
  0
LINE
  5
225
330
1F
100
AcDbEntity
  8
0
  6
Continuous
 62
     7
370
    15
100
AcDbLine
 10
295.3560753633
 20
255.2570247663
 30
0.0
 11
295.3560753633
 21
254.0676787423
 31
0.0
  0
ARC
  5
226
330
1F
100
AcDbEntity
  8
0
  6
Continuous
 62
     7
370
    15
100
AcDbCircle
 10
297.2160753633
 20
253.8036787423
 30
0.0
 40
0.1640000000000157
100
AcDbArc
 50
0.0
 51
90.0
  0
ARC
  5
227
330
1F
100
AcDbEntity
  8
0
  6
Continuous
 62
     7
370
    15
100
AcDbCircle
 10
297.2160753633
 20
253.8036787423
 30
0.0
 40
0.1000000000000512
100
AcDbArc
 50
0.0
 51
90.0
  0
LINE
  5
228
330
1F
100
AcDbEntity
  8
0
  6
Continuous
 62
     7
370
    15
100
AcDbLine
 10
295.5200753633
 20
253.9036787423
 30
0.0
 11
297.2160753633
 21
253.9036787423
 31
0.0
  0
LINE
  5
229
330
1F
100
AcDbEntity
  8
0
  6
Continuous
 62
     7
370
    15
100
AcDbLine
 10
295.5200753633
 20
253.9676787423
 30
0.0
 11
297.2160753633
 21
253.9676787423
 31
0.0
  0
ARC
  5
22A
330
1F
100
AcDbEntity
  8
0
  6
Continuous
 62
     7
370
    15
100
AcDbCircle
 10
291.1840753633
 20
257.8060351551
 30
0.0
 40
0.1640000000000319
100
AcDbArc
 50
75.0
 51
180.0
  0
ARC
  5
22B
330
1F
100
AcDbEntity
  8
0
  6
Continuous
 62
     7
370
    15
100
AcDbCircle
 10
291.1840753633
 20
257.8060351551
 30
0.0
 40
0.1000000000000796
100
AcDbArc
 50
75.0
 51
180.0
  0
LINE
  5
22C
330
1F
100
AcDbEntity
  8
0
  6
Continuous
 62
     7
370
    15
100
AcDbLine
 10
299.3560753633
 20
252.2036787423
 30
0.0
 11
299.3560753633
 21
251.6636787423
 31
0.0
  0
LINE
  5
22D
330
1F
100
AcDbEntity
  8
0
  6
Continuous
 62
     7
370
    15
100
AcDbLine
 10
299.4200753633
 20
252.2036787423
 30
0.0
 11
299.4200753633
 21
251.6636787423
 31
0.0
  0
ARC
  5
22E
330
1F
100
AcDbEntity
  8
0
  6
Continuous
 62
     7
370
    15
100
AcDbCircle
 10
293.3560753633
 20
255.2570247663
 30
0.0
 40
2.0
100
AcDbArc
 50
0.0
 51
75.0
  0
ARC
  5
22F
330
1F
100
AcDbEntity
  8
0
  6
Continuous
 62
     7
370
    15
100
AcDbCircle
 10
293.3560753633
 20
255.2570247663
 30
0.0
 40
2.063999999999965
100
AcDbArc
 50
0.0
 51
75.0
  0
LINE
  5
230
330
1F
100
AcDbEntity
  8
0
  6
Continuous
 62
     7
370
    15
100
AcDbLine
 10
299.4200753633
 20
251.5036787423
 30
0.0
 11
299.3560753633
 21
251.5036787423
 31
0.0
  0
LINE
  5
231
330
1F
100
AcDbEntity
  8
0
  6
Continuous
 62
     7
370
    15
100
AcDbLine
 10
299.3560753633
 20
251.5578486899
 30
0.0
 11
299.3560753633
 21
251.6636787423
 31
0.0
  0
LINE
  5
232
330
1F
100
AcDbEntity
  8
0
  6
Continuous
 62
     7
370
    15
100
AcDbLine
 10
299.4200753633
 20
251.6636787423
 30
0.0
 11
299.4200753633
 21
251.5036787423
 31
0.0
  0
LINE
  5
233
330
1F
100
AcDbEntity
  8
0
  6
Continuous
 62
     7
370
    15
100
AcDbLine
 10
297.4800753633
 20
252.3036787423
 30
0.0
 11
299.2560753633
 21
252.3036787423
 31
0.0
  0
LINE
  5
234
330
1F
100
AcDbEntity
  8
0
  6
Continuous
 62
     7
370
    15
100
AcDbLine
 10
297.4800753633
 20
252.3676787423
 30
0.0
 11
299.2560753633
 21
252.3676787423
 31
0.0
  0
ARC
  5
235
330
1F
100
AcDbEntity
  8
0
  6
Continuous
 62
     7
370
    15
100
AcDbCircle
 10
295.5200753633
 20
254.0676787423
 30
0.0
 40
0.1640000000000441
100
AcDbArc
 50
180.0
 51
270.0
  0
ARC
  5
236
330
1F
100
AcDbEntity
  8
0
  6
Continuous
 62
     7
370
    15
100
AcDbCircle
 10
295.5200753633
 20
254.0676787423
 30
0.0
 40
0.1000000000000796
100
AcDbArc
 50
180.0
 51
270.0
  0
ARC
  5
237
330
1F
100
AcDbEntity
  8
0
  6
Continuous
 62
     7
370
    15
100
AcDbCircle
 10
299.2560753633
 20
252.2036787423
 30
0.0
 40
0.1640000000000157
100
AcDbArc
 50
0.0
 51
90.0
  0
ARC
  5
238
330
1F
100
AcDbEntity
  8
0
  6
Continuous
 62
     7
370
    15
100
AcDbCircle
 10
299.2560753633
 20
252.2036787423
 30
0.0
 40
0.1000000000000227
100
AcDbArc
 50
0.0
 51
90.0
  0
LINE
  5
239
330
1F
100
AcDbEntity
  8
0
  6
Continuous
 62
     7
370
    15
100
AcDbLine
 10
347.6480753632
 20
250.9596787423
 30
0.0
 11
347.5584185087
 21
250.9596787423
 31
0.0
  0
LINE
  5
23A
330
1F
100
AcDbEntity
  8
0
  6
Continuous
 62
     7
370
    15
100
AcDbLine
 10
341.0368753632
 20
250.98128432
 30
0.0
 11
341.0368753632
 21
251.1556787423
 31
0.0
  0
LINE
  5
23B
330
1F
100
AcDbEntity
  8
0
  6
Continuous
 62
     7
370
    15
100
AcDbLine
 10
347.6480753632
 20
251.1556787423
 30
0.0
 11
347.6480753632
 21
250.9596787423
 31
0.0
  0
ARC
  5
23C
330
1F
100
AcDbEntity
  8
0
  6
Continuous
 62
     7
370
    15
100
AcDbCircle
 10
341.1360753632
 20
252.1716787423
 30
0.0
 40
0.099200000000053
100
AcDbArc
 50
90.0
 51
180.0
  0
LINE
  5
23D
330
1F
100
AcDbEntity
  8
0
  6
Continuous
 62
     7
370
    15
100
AcDbLine
 10
342.8800753632
 20
252.2708787423
 30
0.0
 11
341.1360753632
 21
252.2708787423
 31
0.0
  0
ARC
  5
23E
330
1F
100
AcDbEntity
  8
0
  6
Continuous
 62
     7
370
    15
100
AcDbCircle
 10
342.8800753632
 20
252.4676787423
 30
0.0
 40
0.1967999999999961
100
AcDbArc
 50
270.0
 51
0.0
  0
LINE
  5
23F
330
1F
100
AcDbEntity
  8
0
  6
Continuous
 62
     7
370
    15
100
AcDbLine
 10
343.0768753632
 20
253.7676787423
 30
0.0
 11
343.0768753632
 21
252.4676787423
 31
0.0
  0
LINE
  5
240
330
1F
100
AcDbEntity
  8
0
  6
Continuous
 62
     7
370
    15
100
AcDbLine
 10
343.1760753632
 20
253.7676787423
 30
0.0
 11
343.0768753632
 21
253.7676787423
 31
0.0
  0
LINE
  5
241
330
1F
100
AcDbEntity
  8
0
  6
Continuous
 62
     7
370
    15
100
AcDbLine
 10
343.1760753632
 20
253.7716787423
 30
0.0
 11
343.1760753632
 21
253.7676787423
 31
0.0
  0
LINE
  5
242
330
1F
100
AcDbEntity
  8
0
  6
Continuous
 62
     7
370
    15
100
AcDbLine
 10
350.4814200431
 20
253.7676787423
 30
0.0
 11
350.4814200431
 21
253.7716787423
 31
0.0
  0
LINE
  5
243
330
1F
100
AcDbEntity
  8
0
  6
Continuous
 62
     7
370
    15
100
AcDbLine
 10
350.5214200431
 20
253.7676787423
 30
0.0
 11
350.4814200431
 21
253.7676787423
 31
0.0
  0
LINE
  5
244
330
1F
100
AcDbEntity
  8
0
  6
Continuous
 62
     7
370
    15
100
AcDbLine
 10
350.5214200431
 20
253.8632241381
 30
0.0
 11
350.5214200431
 21
253.7676787423
 31
0.0
  0
ARC
  5
245
330
1F
100
AcDbEntity
  8
0
  6
Continuous
 62
     7
370
    15
100
AcDbCircle
 10
350.4814200431
 20
252.1036787423
 30
0.0
 40
1.760000000000055
100
AcDbArc
 50
293.5
 51
88.6977110648
  0
ARC
  5
246
330
1F
100
AcDbEntity
  8
0
  6
Continuous
 62
     7
370
    15
100
AcDbCircle
 10
349.4420549921
 20
251.3282547712
 30
0.0
 40
0.020000000000006
100
AcDbArc
 50
279.9421486627
 51
99.9421486628
  0
ARC
  5
247
330
1F
100
AcDbEntity
  8
0
  6
Continuous
 62
     7
370
    15
100
AcDbCircle
 10
349.4814200431
 20
251.1036787423
 30
0.0
 40
0.2480000000000068
100
AcDbArc
 50
99.9421486627
 51
260.0578513373
  0
ARC
  5
248
330
1F
100
AcDbEntity
  8
0
  6
Continuous
 62
     7
370
    15
100
AcDbCircle
 10
349.4420549921
 20
250.8791027134
 30
0.0
 40
0.020000000000006
100
AcDbArc
 50
260.0578513372
 51
80.0578513373
  0
ARC
  5
249
330
1F
100
AcDbEntity
  8
0
  6
Continuous
 62
     7
370
    15
100
AcDbCircle
 10
349.4814200431
 20
251.1036787423
 30
0.0
 40
0.2080000000000047
100
AcDbArc
 50
99.9421486627
 51
260.0578513373
  0
ARC
  5
24A
330
1F
100
AcDbEntity
  8
0
  6
Continuous
 62
     7
370
    15
100
AcDbCircle
 10
349.5207850941
 20
250.8791027134
 30
0.0
 40
0.020000000000006
100
AcDbArc
 50
99.9421486628
 51
279.9421486627
  0
ARC
  5
24B
330
1F
100
AcDbEntity
  8
0
  6
Continuous
 62
     7
370
    15
100
AcDbCircle
 10
349.4814200431
 20
251.1036787423
 30
0.0
 40
0.2480000000000068
100
AcDbArc
 50
279.9421486627
 51
80.0578513373
  0
ARC
  5
24C
330
1F
100
AcDbEntity
  8
0
  6
Continuous
 62
     7
370
    15
100
AcDbCircle
 10
349.4814200431
 20
251.1036787423
 30
0.0
 40
0.2080000000000047
100
AcDbArc
 50
279.9421486627
 51
80.0578513373
  0
LINE
  5
24D
330
1F
100
AcDbEntity
  8
0
  6
Continuous
 62
     7
370
    15
100
AcDbLine
 10
347.6680753632
 20
251.1596787423
 30
0.0
 11
347.6680753632
 21
249.7276787423
 31
0.0
  0
ARC
  5
24E
330
1F
100
AcDbEntity
  8
0
  6
Continuous
 62
     7
370
    15
100
AcDbCircle
 10
347.8280753632
 20
249.7276787423
 30
0.0
 40
0.1599999999999966
100
AcDbArc
 50
180.0
 51
270.0
  0
ARC
  5
24F
330
1F
100
AcDbEntity
  8
0
  6
Continuous
 62
     7
370
    15
100
AcDbCircle
 10
349.5207850941
 20
251.3282547712
 30
0.0
 40
0.020000000000006
100
AcDbArc
 50
80.0578513373
 51
260.0578513372
  0
ARC
  5
250
330
1F
100
AcDbEntity
  8
0
  6
Continuous
 62
     7
370
    15
100
AcDbCircle
 10
347.6580753632
 20
251.1556787423
 30
0.0
 40
0.010000000000019
100
AcDbArc
 50
23.5781784781
 51
156.4218215218
  0
LINE
  5
251
330
1F
100
AcDbEntity
  8
0
  6
Continuous
 62
     7
370
    15
100
AcDbLine
 10
347.6480753632
 20
251.1556787423
 30
0.0
 11
347.6480753632
 21
251.1596787423
 31
0.0
  0
LINE
  5
252
330
1F
100
AcDbEntity
  8
0
  6
Continuous
 62
     7
370
    15
100
AcDbLine
 10
341.0368753632
 20
252.1716787423
 30
0.0
 11
341.0368753632
 21
251.1556787423
 31
0.0
  0
LINE
  5
253
330
1F
100
AcDbEntity
  8
0
  6
Continuous
 62
     7
370
    15
100
AcDbLine
 10
347.6672405146
 20
251.1596787423
 30
0.0
 11
347.6680753632
 21
251.1596787423
 31
0.0
  0
LINE
  5
254
330
1F
100
AcDbEntity
  8
0
  6
Continuous
 62
     7
370
    15
100
AcDbLine
 10
349.0628227529
 20
249.5676787423
 30
0.0
 11
351.1832184044
 21
250.4896530114
 31
0.0
  0
LINE
  5
255
330
1F
100
AcDbEntity
  8
0
  6
Continuous
 62
     7
370
    15
100
AcDbLine
 10
347.6480753632
 20
251.1596787423
 30
0.0
 11
347.6489102118
 21
251.1596787423
 31
0.0
  0
LINE
  5
256
330
1F
100
AcDbEntity
  8
0
  6
Continuous
 62
     7
370
    15
100
AcDbLine
 10
347.8280753632
 20
249.5676787423
 30
0.0
 11
349.0628227529
 21
249.5676787423
 31
0.0
  0
LINE
  5
257
330
1F
100
AcDbEntity
  8
0
  6
Continuous
 62
     7
370
    15
100
AcDbLine
 10
350.4814200431
 20
253.9676787423
 30
0.0
 11
350.4814200431
 21
253.7716787423
 31
0.0
  0
LINE
  5
258
330
1F
100
AcDbEntity
  8
0
  6
Continuous
 62
     7
370
    15
100
AcDbLine
 10
343.1760753632
 20
253.7716787423
 30
0.0
 11
343.1760753632
 21
253.9676787423
 31
0.0
  0
LINE
  5
259
330
1F
100
AcDbEntity
  8
0
  6
Continuous
 62
     7
370
    15
100
AcDbLine
 10
343.1760753632
 20
253.9676787423
 30
0.0
 11
350.4814200431
 21
253.9676787423
 31
0.0
  0
LINE
  5
25A
330
1F
100
AcDbEntity
  8
0
  6
Continuous
 62
     7
370
    15
100
AcDbLine
 10
343.0760753632
 20
253.7716787423
 30
0.0
 11
343.0760753632
 21
252.4676787423
 31
0.0
  0
LINE
  5
25B
330
1F
100
AcDbEntity
  8
0
  6
Continuous
 62
     7
370
    15
100
AcDbLine
 10
342.9800753632
 20
253.7716787423
 30
0.0
 11
342.9800753632
 21
252.4676787423
 31
0.0
  0
LINE
  5
25C
330
1F
100
AcDbEntity
  8
0
  6
Continuous
 62
     7
370
    15
100
AcDbLine
 10
343.0760753632
 20
253.7716787423
 30
0.0
 11
342.9800753632
 21
253.7716787423
 31
0.0
  0
LINE
  5
25D
330
1F
100
AcDbEntity
  8
0
  6
Continuous
 62
     7
370
    15
100
AcDbLine
 10
349.3327201767
 20
249.6763099533
 30
0.0
 11
351.186408397
 21
250.4823165308
 31
0.0
  0
LINE
  5
25E
330
1F
100
AcDbEntity
  8
0
  6
Continuous
 62
     7
370
    15
100
AcDbLine
 10
349.3327201767
 20
249.6763099533
 30
0.0
 11
349.3710000873
 21
249.5882721862
 31
0.0
  0
LINE
  5
25F
330
1F
100
AcDbEntity
  8
0
  6
Continuous
 62
     7
370
    15
100
AcDbLine
 10
349.3710000873
 20
249.5882721862
 30
0.0
 11
351.2246883076
 21
250.3942787636
 31
0.0
  0
LINE
  5
260
330
1F
100
AcDbEntity
  8
0
  6
Continuous
 62
     7
370
    15
100
AcDbLine
 10
341.0360753632
 20
252.1716787423
 30
0.0
 11
341.0360753632
 21
251.7276787423
 31
0.0
  0
LINE
  5
261
330
1F
100
AcDbEntity
  8
0
  6
Continuous
 62
     7
370
    15
100
AcDbLine
 10
340.9400753632
 20
252.1716787423
 30
0.0
 11
340.9400753632
 21
251.7276787423
 31
0.0
  0
LINE
  5
262
330
1F
100
AcDbEntity
  8
0
  6
Continuous
 62
     7
370
    15
100
AcDbLine
 10
342.8800753632
 20
252.2716787423
 30
0.0
 11
341.1360753632
 21
252.2716787423
 31
0.0
  0
LINE
  5
263
330
1F
100
AcDbEntity
  8
0
  6
Continuous
 62
     7
370
    15
100
AcDbLine
 10
342.8800753632
 20
252.3676787423
 30
0.0
 11
342.4920877226
 21
252.3676787423
 31
0.0
  0
ARC
  5
264
330
1F
100
AcDbEntity
  8
0
  6
Continuous
 62
     7
370
    15
100
AcDbCircle
 10
342.8800753632
 20
252.4676787423
 30
0.0
 40
0.0999999999999943
100
AcDbArc
 50
270.0
 51
0.0
  0
ARC
  5
265
330
1F
100
AcDbEntity
  8
0
  6
Continuous
 62
     7
370
    15
100
AcDbCircle
 10
342.8800753632
 20
252.4676787423
 30
0.0
 40
0.1959999999999695
100
AcDbArc
 50
270.0
 51
0.0
  0
LINE
  5
266
330
1F
100
AcDbEntity
  8
0
  6
Continuous
 62
     7
370
    15
100
AcDbLine
 10
350.5214200431
 20
253.8712261957
 30
0.0
 11
350.5214200431
 21
253.9672495083
 31
0.0
  0
ARC
  5
267
330
1F
100
AcDbEntity
  8
0
  6
Continuous
 62
     7
370
    15
100
AcDbCircle
 10
350.4814200431
 20
252.1036787423
 30
0.0
 40
1.864000000000037
100
AcDbArc
 50
293.5
 51
88.7703824493
  0
ARC
  5
268
330
1F
100
AcDbEntity
  8
0
  6
Continuous
 62
     7
370
    15
100
AcDbCircle
 10
350.4814200431
 20
252.1036787423
 30
0.0
 40
1.768000000000036
100
AcDbArc
 50
293.5
 51
88.703604783
  0
LINE
  5
269
330
1F
100
AcDbEntity
  8
0
  6
Continuous
 62
     7
370
    15
100
AcDbLine
 10
341.0360753632
 20
251.5676787423
 30
0.0
 11
340.9400753632
 21
251.5676787423
 31
0.0
  0
LINE
  5
26A
330
1F
100
AcDbEntity
  8
0
  6
Continuous
 62
     7
370
    15
100
AcDbLine
 10
340.9400753632
 20
251.5676787423
 30
0.0
 11
340.9400753632
 21
251.7276787423
 31
0.0
  0
LINE
  5
26B
330
1F
100
AcDbEntity
  8
0
  6
Continuous
 62
     7
370
    15
100
AcDbLine
 10
341.0360753632
 20
251.7276787423
 30
0.0
 11
341.0360753632
 21
251.5676787423
 31
0.0
  0
ARC
  5
26C
330
1F
100
AcDbEntity
  8
0
  6
Continuous
 62
     7
370
    15
100
AcDbCircle
 10
341.1360753632
 20
252.1716787423
 30
0.0
 40
0.1960000000000264
100
AcDbArc
 50
90.0
 51
180.0
  0
ARC
  5
26D
330
1F
100
AcDbEntity
  8
0
  6
Continuous
 62
     7
370
    15
100
AcDbCircle
 10
341.1360753632
 20
252.1716787423
 30
0.0
 40
0.1000000000000512
100
AcDbArc
 50
90.0
 51
180.0
  0
ARC
  5
26E
330
1F
100
AcDbEntity
  8
0
  6
Continuous
 62
     7
370
    15
100
AcDbCircle
 10
343.1760753632
 20
253.7716787423
 30
0.0
 40
0.0999999999999943
100
AcDbArc
 50
90.0
 51
180.0
  0
ARC
  5
26F
330
1F
100
AcDbEntity
  8
0
  6
Continuous
 62
     7
370
    15
100
AcDbCircle
 10
343.1760753632
 20
253.7716787423
 30
0.0
 40
0.1960000000000264
100
AcDbArc
 50
90.0
 51
180.0
  0
ARC
  5
270
330
1F
100
AcDbEntity
  8
0
  6
Continuous
 62
     7
370
    15
100
AcDbCircle
 10
350.4814200431
 20
252.1036787423
 30
0.0
 40
1.864000000000037
100
AcDbArc
 50
88.7703824493
 51
90.0
  0
ARC
  5
271
330
1F
100
AcDbEntity
  8
0
  6
Continuous
 62
     7
370
    15
100
AcDbCircle
 10
350.4814200431
 20
252.1036787423
 30
0.0
 40
1.768000000000036
100
AcDbArc
 50
88.703604783
 51
90.0
  0
LINE
  5
272
330
1F
100
AcDbEntity
  8
0
  6
Continuous
 62
     7
370
    15
100
AcDbLine
 10
290.4600753629
 20
247.1156787424
 30
0.0
 11
290.4600753629
 21
247.5716787149
 31
0.0
  0
LINE
  5
273
330
1F
100
AcDbEntity
  8
0
  6
Continuous
 62
     7
370
    15
100
AcDbLine
 10
290.8480753629
 20
247.1716787424
 30
0.0
 11
290.8480753629
 21
247.5156787424
 31
0.0
  0
LINE
  5
274
330
1F
100
AcDbEntity
  8
0
  6
Continuous
 62
     7
370
    15
100
AcDbLine
 10
290.8000753629
 20
247.1516787424
 30
0.0
 11
290.8000753629
 21
247.5356787424
 31
0.0
  0
LINE
  5
275
330
1F
100
AcDbEntity
  8
0
  6
Continuous
 62
     7
370
    15
100
AcDbLine
 10
290.2160753629
 20
238.5293355966
 30
0.0
 11
290.2160753629
 21
238.5493355966
 31
0.0
  0
LINE
  5
276
330
1F
100
AcDbEntity
  8
0
  6
Continuous
 62
     7
370
    15
100
AcDbLine
 10
283.3360753629
 20
238.5293355966
 30
0.0
 11
283.3360753629
 21
238.5493355966
 31
0.0
  0
LINE
  5
277
330
1F
100
AcDbEntity
  8
0
  6
Continuous
 62
     7
370
    15
100
AcDbLine
 10
283.3360753629
 20
238.5493355966
 30
0.0
 11
283.1160753629
 21
238.5493355966
 31
0.0
  0
LINE
  5
278
330
1F
100
AcDbEntity
  8
0
  6
Continuous
 62
     7
370
    15
100
AcDbLine
 10
283.1160753629
 20
238.6076787424
 30
0.0
 11
283.1160753629
 21
238.5493355966
 31
0.0
  0
CIRCLE
  5
279
330
1F
100
AcDbEntity
  8
0
  6
Continuous
 62
     7
370
    15
100
AcDbCircle
 10
285.5160753629
 20
248.1436787424
 30
0.0
 40
0.339999999999975
  0
CIRCLE
  5
27A
330
1F
100
AcDbEntity
  8
0
  6
Continuous
 62
     7
370
    15
100
AcDbCircle
 10
288.7160753629
 20
248.1436787424
 30
0.0
 40
0.339999999999975
  0
LINE
  5
27B
330
1F
100
AcDbEntity
  8
0
  6
Continuous
 62
     7
370
    15
100
AcDbLine
 10
283.1160753629
 20
252.1073320597
 30
0.0
 11
283.1160753629
 21
252.1930953684
 31
0.0
  0
LINE
  5
27C
330
1F
100
AcDbEntity
  8
0
  6
Continuous
 62
     7
370
    15
100
AcDbLine
 10
290.2160753629
 20
238.3653355966
 30
0.0
 11
283.3360753629
 21
238.3653355966
 31
0.0
  0
LINE
  5
27D
330
1F
100
AcDbEntity
  8
0
  6
Continuous
 62
     7
370
    15
100
AcDbLine
 10
290.2160753629
 20
238.5293355966
 30
0.0
 11
290.2160753629
 21
238.3653355966
 31
0.0
  0
LINE
  5
27E
330
1F
100
AcDbEntity
  8
0
  6
Continuous
 62
     7
370
    15
100
AcDbLine
 10
283.3360753629
 20
238.3653355966
 30
0.0
 11
283.3360753629
 21
238.5293355966
 31
0.0
  0
ARC
  5
27F
330
1F
100
AcDbEntity
  8
0
  6
Continuous
 62
     7
370
    15
100
AcDbCircle
 10
290.1433027598
 20
238.8655538153
 30
0.0
 40
0.3244839188620194
100
AcDbArc
 50
282.9600630122
 51
316.8603945011
  0
LINE
  5
280
330
1F
100
AcDbEntity
  8
0
  6
Continuous
 62
     7
370
    15
100
AcDbLine
 10
290.3800753629
 20
251.4217187584
 30
0.0
 11
290.3800753629
 21
238.6436787424
 31
0.0
  0
ARC
  5
281
330
1F
100
AcDbEntity
  8
0
  6
Continuous
 62
     7
370
    15
100
AcDbCircle
 10
290.2223862795
 20
238.6272950974
 30
0.0
 40
0.0838541740182904
100
AcDbArc
 50
265.6838033198
 51
323.522101478
  0
ARC
  5
282
330
1F
100
AcDbEntity
  8
0
  6
Continuous
 62
     7
370
    15
100
AcDbCircle
 10
290.2160753629
 20
238.6436787424
 30
0.0
 40
0.1640000000000725
100
AcDbArc
 50
270.0
 51
360.0
  0
LINE
  5
283
330
1F
100
AcDbEntity
  8
0
  6
Continuous
 62
     7
370
    15
100
AcDbLine
 10
283.3360753629
 20
238.4796787424
 30
0.0
 11
283.2160753629
 21
238.4796787424
 31
0.0
  0
LINE
  5
284
330
1F
100
AcDbEntity
  8
0
  6
Continuous
 62
     7
370
    15
100
AcDbLine
 10
283.3360753629
 20
238.5436787424
 30
0.0
 11
283.2160753629
 21
238.5436787424
 31
0.0
  0
LINE
  5
285
330
1F
100
AcDbEntity
  8
0
  6
Continuous
 62
     7
370
    15
100
AcDbLine
 10
283.0520753629
 20
237.6796787424
 30
0.0
 11
283.1160753629
 21
237.6796787424
 31
0.0
  0
LINE
  5
286
330
1F
100
AcDbEntity
  8
0
  6
Continuous
 62
     7
370
    15
100
AcDbLine
 10
283.0520753629
 20
237.6796787424
 30
0.0
 11
283.0520753629
 21
238.0796787424
 31
0.0
  0
LINE
  5
287
330
1F
100
AcDbEntity
  8
0
  6
Continuous
 62
     7
370
    15
100
AcDbLine
 10
283.1160753629
 20
237.6796787424
 30
0.0
 11
283.1160753629
 21
238.0796787424
 31
0.0
  0
LINE
  5
288
330
1F
100
AcDbEntity
  8
0
  6
Continuous
 62
     7
370
    15
100
AcDbLine
 10
283.1160753629
 20
238.0796787424
 30
0.0
 11
283.1160753629
 21
238.3796787424
 31
0.0
  0
LINE
  5
289
330
1F
100
AcDbEntity
  8
0
  6
Continuous
 62
     7
370
    15
100
AcDbLine
 10
283.0520753629
 20
238.0796787424
 30
0.0
 11
283.0520753629
 21
238.3796787424
 31
0.0
  0
ARC
  5
28A
330
1F
100
AcDbEntity
  8
0
  6
Continuous
 62
     7
370
    15
100
AcDbCircle
 10
283.2160753629
 20
238.3796787424
 30
0.0
 40
0.1640000000000157
100
AcDbArc
 50
90.0
 51
180.0
  0
ARC
  5
28B
330
1F
100
AcDbEntity
  8
0
  6
Continuous
 62
     7
370
    15
100
AcDbCircle
 10
283.2160753629
 20
238.3796787424
 30
0.0
 40
0.0999999999999659
100
AcDbArc
 50
90.0
 51
180.0
  0
ARC
  5
28C
330
1F
100
AcDbEntity
  8
0
  6
Continuous
 62
     7
370
    15
100
AcDbCircle
 10
290.2162656265
 20
252.0437431828
 30
0.0
 40
0.1638097490811815
100
AcDbArc
 50
359.9774606646
 51
67.4509307638
  0
LINE
  5
28D
330
1F
100
AcDbEntity
  8
0
  6
Continuous
 62
     7
370
    15
100
AcDbLine
 10
283.9640753629
 20
238.7676787424
 30
0.0
 11
283.9640753629
 21
251.311113057
 31
0.0
  0
ARC
  5
28E
330
1F
100
AcDbEntity
  8
0
  6
Continuous
 62
     7
370
    15
100
AcDbCircle
 10
283.8040753629
 20
238.7676787424
 30
0.0
 40
0.160000000000025
100
AcDbArc
 50
270.0
 51
0.0
  0
LINE
  5
28F
330
1F
100
AcDbEntity
  8
0
  6
Continuous
 62
     7
370
    15
100
AcDbLine
 10
283.1680753629
 20
238.6076787424
 30
0.0
 11
283.8040753629
 21
238.6076787424
 31
0.0
  0
LINE
  5
290
330
1F
100
AcDbEntity
  8
0
  6
Continuous
 62
     7
370
    15
100
AcDbLine
 10
283.1680753629
 20
252.107113057
 30
0.0
 11
283.9640753629
 21
251.311113057
 31
0.0
  0
ARC
  5
291
330
1F
100
AcDbEntity
  8
0
  6
Continuous
 62
     7
370
    15
100
AcDbCircle
 10
283.1731307127
 20
277.3459414333
 30
0.0
 40
25.23882888268157
100
AcDbArc
 50
269.6162171185
 51
269.9885236274
  0
LINE
  5
292
330
1F
100
AcDbEntity
  8
0
  6
Continuous
 62
     7
370
    15
100
AcDbLine
 10
283.0040753629
 20
238.6076787424
 30
0.0
 11
283.0040753629
 21
252.1076787424
 31
0.0
  0
LINE
  5
293
330
1F
100
AcDbEntity
  8
0
  6
Continuous
 62
     7
370
    15
100
AcDbLine
 10
283.1680753629
 20
238.6076787424
 30
0.0
 11
283.0040753629
 21
238.6076787424
 31
0.0
  0
ARC
  5
294
330
1F
100
AcDbEntity
  8
0
  6
Continuous
 62
     7
370
    15
100
AcDbCircle
 10
290.2280753629
 20
251.4716787424
 30
0.0
 40
0.1599999999999966
100
AcDbArc
 50
270.0
 51
355.180597798
  0
LINE
  5
295
330
1F
100
AcDbEntity
  8
0
  6
Continuous
 62
     7
370
    15
100
AcDbLine
 10
283.9646410484
 20
251.3116787424
 30
0.0
 11
290.2280753629
 21
251.3116787424
 31
0.0
  0
LINE
  5
296
330
1F
100
AcDbEntity
  8
0
  6
Continuous
 62
     7
370
    15
100
AcDbLine
 10
283.9646410484
 20
251.3116787424
 30
0.0
 11
283.1686410484
 21
252.1076787424
 31
0.0
  0
LINE
  5
297
330
1F
100
AcDbEntity
  8
0
  6
Continuous
 62
     7
370
    15
100
AcDbLine
 10
290.3875096775
 20
252.1076787424
 30
0.0
 11
290.3875096775
 21
251.4582362971
 31
0.0
  0
LINE
  5
298
330
1F
100
AcDbEntity
  8
0
  6
Continuous
 62
     7
370
    15
100
AcDbLine
 10
283.0680753629
 20
252.1076787424
 30
0.0
 11
283.0040753629
 21
252.1076787424
 31
0.0
  0
ARC
  5
299
330
1F
100
AcDbEntity
  8
0
  6
Continuous
 62
     7
370
    15
100
AcDbCircle
 10
257.9298126624
 20
252.1026233926
 30
0.0
 40
25.23882889225924
100
AcDbArc
 50
0.0114763727
 51
0.3837828815
  0
LINE
  5
29A
330
1F
100
AcDbEntity
  8
0
  6
Continuous
 62
     7
370
    15
100
AcDbLine
 10
283.1680753629
 20
252.2716787424
 30
0.0
 11
290.2880753629
 21
252.2716787424
 31
0.0
  0
LWPOLYLINE
  5
29B
330
1F
100
AcDbEntity
  8
0
  6
Continuous
 62
     7
370
    15
100
AcDbPolyline
 90
        6
 70
   128
 43
0.0
 10
290.2880753629
 20
252.2716787424
 10
290.3109695749
 20
252.2610692423
 10
290.3338721332
 20
252.2305990713
 10
290.3567747532
 20
252.1842133588
 10
290.3796773971
 20
252.127918133
 10
290.3875096775
 20
252.1076787424
  0
LINE
  5
29C
330
1F
100
AcDbEntity
  8
0
  6
Continuous
 62
     7
370
    15
100
AcDbLine
 10
283.1680753629
 20
252.2076787424
 30
0.0
 11
283.1680753629
 21
252.2716787424
 31
0.0
  0
ARC
  5
29D
330
1F
100
AcDbEntity
  8
0
  6
Continuous
 62
     7
370
    15
100
AcDbCircle
 10
290.2880753629
 20
252.1076787424
 30
0.0
 40
0.164000000000101
100
AcDbArc
 50
0.0
 51
90.0
  0
LINE
  5
29E
330
1F
100
AcDbEntity
  8
0
  6
Continuous
 62
     7
370
    15
100
AcDbLine
 10
290.4520753629
 20
252.1076787424
 30
0.0
 11
290.3880753629
 21
252.1076787424
 31
0.0
  0
LWPOLYLINE
  5
29F
330
1F
100
AcDbEntity
  8
0
  6
Continuous
 62
     7
370
    15
100
AcDbPolyline
 90
        3
 70
   128
 43
0.0
 10
290.3880753629
 20
252.1076787424
 10
290.3802002524
 20
252.1465761039
 10
290.360146498
 20
252.1759255326
  0
LINE
  5
2A0
330
1F
100
AcDbEntity
  8
0
  6
Continuous
 62
     7
370
    15
100
AcDbLine
 10
290.4520753629
 20
251.4582362971
 30
0.0
 11
290.3880753629
 21
251.4582362971
 31
0.0
  0
LINE
  5
2A1
330
1F
100
AcDbEntity
  8
0
  6
Continuous
 62
     7
370
    15
100
AcDbLine
 10
290.3880753629
 20
252.1076787424
 30
0.0
 11
290.3880753629
 21
251.4582362971
 31
0.0
  0
LINE
  5
2A2
330
1F
100
AcDbEntity
  8
0
  6
Continuous
 62
     7
370
    15
100
AcDbLine
 10
290.4520753629
 20
252.1076787424
 30
0.0
 11
290.4520753629
 21
251.4582362971
 31
0.0
  0
LINE
  5
2A3
330
1F
100
AcDbEntity
  8
0
  6
Continuous
 62
     7
370
    15
100
AcDbLine
 10
290.4520753629
 20
251.3116787424
 30
0.0
 11
290.3880753629
 21
251.3116787424
 31
0.0
  0
LINE
  5
2A4
330
1F
100
AcDbEntity
  8
0
  6
Continuous
 62
     7
370
    15
100
AcDbLine
 10
290.3880753629
 20
251.4582362971
 30
0.0
 11
290.3880753629
 21
251.3116787424
 31
0.0
  0
LINE
  5
2A5
330
1F
100
AcDbEntity
  8
0
  6
Continuous
 62
     7
370
    15
100
AcDbLine
 10
290.4520753629
 20
251.4582362971
 30
0.0
 11
290.4520753629
 21
251.3116787424
 31
0.0
  0
ARC
  5
2A6
330
1F
100
AcDbEntity
  8
0
  6
Continuous
 62
     7
370
    15
100
AcDbCircle
 10
283.1680753629
 20
252.1076787424
 30
0.0
 40
0.1640000000000441
100
AcDbArc
 50
90.0
 51
180.0
  0
ARC
  5
2A7
330
1F
100
AcDbEntity
  8
0
  6
Continuous
 62
     7
370
    15
100
AcDbCircle
 10
283.1680753629
 20
252.1076787424
 30
0.0
 40
0.1000000000000227
100
AcDbArc
 50
90.0
 51
180.0
  0
ARC
  5
2A8
330
1F
100
AcDbEntity
  8
0
  6
Continuous
 62
     7
370
    15
100
AcDbCircle
 10
283.1680753629
 20
238.7076787424
 30
0.0
 40
0.1640000000000279
100
AcDbArc
 50
217.5718693198
 51
251.5139853235
  0
LWPOLYLINE
  5
2A9
330
1F
100
AcDbEntity
  8
0
  6
Continuous
 62
     7
370
    15
100
AcDbPolyline
 90
        3
 70
   128
 43
0.0
 10
283.1253735106
 20
238.5493355966
 10
283.1360805501
 20
238.5468299564
 10
283.1680753629
 20
238.5436787424
  0
LINE
  5
2AA
330
1F
100
AcDbEntity
  8
0
  6
Continuous
 62
     7
370
    15
100
AcDbLine
 10
283.2160753629
 20
238.5436787424
 30
0.0
 11
283.1680753629
 21
238.5436787424
 31
0.0
  0
LINE
  5
2AB
330
1F
100
AcDbEntity
  8
0
  6
Continuous
 62
     7
370
    15
100
AcDbLine
 10
284.0280753629
 20
238.0636787424
 30
0.0
 11
283.9640753629
 21
238.0636787424
 31
0.0
  0
LINE
  5
2AC
330
1F
100
AcDbEntity
  8
0
  6
Continuous
 62
     7
370
    15
100
AcDbLine
 10
283.9640753629
 20
238.0636787424
 30
0.0
 11
283.9640753629
 21
238.2236787424
 31
0.0
  0
LINE
  5
2AD
330
1F
100
AcDbEntity
  8
0
  6
Continuous
 62
     7
370
    15
100
AcDbLine
 10
284.0280753629
 20
238.0636787424
 30
0.0
 11
284.0280753629
 21
238.2236787424
 31
0.0
  0
LINE
  5
2AE
330
1F
100
AcDbEntity
  8
0
  6
Continuous
 62
     7
370
    15
100
AcDbLine
 10
283.9640753629
 20
238.2236787424
 30
0.0
 11
283.9640753629
 21
238.3653355966
 31
0.0
  0
LINE
  5
2AF
330
1F
100
AcDbEntity
  8
0
  6
Continuous
 62
     7
370
    15
100
AcDbLine
 10
284.0280753629
 20
238.2236787424
 30
0.0
 11
284.0280753629
 21
238.3653355966
 31
0.0
  0
LINE
  5
2B0
330
1F
100
AcDbEntity
  8
0
  6
Continuous
 62
     7
370
    15
100
AcDbLine
 10
290.6200753629
 20
241.8636787424
 30
0.0
 11
290.3800753629
 21
241.8636787424
 31
0.0
  0
LINE
  5
2B1
330
1F
100
AcDbEntity
  8
0
  6
Continuous
 62
     7
370
    15
100
AcDbLine
 10
290.6200753629
 20
240.5436787424
 30
0.0
 11
290.3800753629
 21
240.5436787424
 31
0.0
  0
LINE
  5
2B2
330
1F
100
AcDbEntity
  8
0
  6
Continuous
 62
     7
370
    15
100
AcDbLine
 10
290.6200753629
 20
241.8636787424
 30
0.0
 11
290.6200753629
 21
240.5436787424
 31
0.0
  0
LINE
  5
2B3
330
1F
100
AcDbEntity
  8
0
  6
Continuous
 62
     7
370
    15
100
AcDbLine
 10
290.6200753629
 20
239.2236787424
 30
0.0
 11
290.3800753629
 21
239.2236787424
 31
0.0
  0
LINE
  5
2B4
330
1F
100
AcDbEntity
  8
0
  6
Continuous
 62
     7
370
    15
100
AcDbLine
 10
290.6200753629
 20
240.5436787424
 30
0.0
 11
290.6200753629
 21
239.2236787424
 31
0.0
  0
LINE
  5
2B5
330
1F
100
AcDbEntity
  8
0
  6
Continuous
 62
     7
370
    15
100
AcDbLine
 10
285.5177752206
 20
238.3653355966
 30
0.0
 11
285.5177752206
 21
238.3436787423
 31
0.0
  0
LINE
  5
2B6
330
1F
100
AcDbEntity
  8
0
  6
Continuous
 62
     7
370
    15
100
AcDbLine
 10
285.3884740767
 20
238.3436787423
 30
0.0
 11
285.3884740767
 21
238.3653355966
 31
0.0
  0
LINE
  5
2B7
330
1F
100
AcDbEntity
  8
0
  6
Continuous
 62
     7
370
    15
100
AcDbLine
 10
286.3846295299
 20
238.3436787423
 30
0.0
 11
286.3846295299
 21
238.3653355966
 31
0.0
  0
LINE
  5
2B8
330
1F
100
AcDbEntity
  8
0
  6
Continuous
 62
     7
370
    15
100
AcDbLine
 10
286.4792182638
 20
238.3653355966
 30
0.0
 11
286.4792182638
 21
238.3436787423
 31
0.0
  0
LINE
  5
2B9
330
1F
100
AcDbEntity
  8
0
  6
Continuous
 62
     7
370
    15
100
AcDbLine
 10
284.9546323197
 20
238.3653355966
 30
0.0
 11
284.9546323197
 21
238.3436787423
 31
0.0
  0
LINE
  5
2BA
330
1F
100
AcDbEntity
  8
0
  6
Continuous
 62
     7
370
    15
100
AcDbLine
 10
286.9122308161
 20
238.3436787423
 30
0.0
 11
286.9122308161
 21
238.3653355966
 31
0.0
  0
LINE
  5
2BB
330
1F
100
AcDbEntity
  8
0
  6
Continuous
 62
     7
370
    15
100
AcDbLine
 10
284.9199199097
 20
238.3436787423
 30
0.0
 11
284.9199199097
 21
238.3653355966
 31
0.0
  0
CIRCLE
  5
2BC
330
1F
100
AcDbEntity
  8
0
  6
Continuous
 62
     7
370
    15
100
AcDbCircle
 10
288.7160753629
 20
248.1436787424
 30
0.0
 40
0.2800000000000025
  0
CIRCLE
  5
2BD
330
1F
100
AcDbEntity
  8
0
  6
Continuous
 62
     7
370
    15
100
AcDbCircle
 10
288.7160753629
 20
248.1436787424
 30
0.0
 40
0.3200000000000052
  0
CIRCLE
  5
2BE
330
1F
100
AcDbEntity
  8
0
  6
Continuous
 62
     7
370
    15
100
AcDbCircle
 10
285.5160753629
 20
248.1436787423
 30
0.0
 40
0.2119999999999891
  0
CIRCLE
  5
2BF
330
1F
100
AcDbEntity
  8
0
  6
Continuous
 62
     7
370
    15
100
AcDbCircle
 10
285.5160753629
 20
248.1436787423
 30
0.0
 40
0.32000000000005
  0
CIRCLE
  5
2C0
330
1F
100
AcDbEntity
  8
0
  6
Continuous
 62
     7
370
    15
100
AcDbCircle
 10
285.5160753629
 20
248.1436787423
 30
0.0
 40
0.2200000000000273
  0
LINE
  5
2C1
330
1F
100
AcDbEntity
  8
0
  6
Continuous
 62
     7
370
    15
100
AcDbLine
 10
284.0163439226
 20
252.2796787424
 30
0.0
 11
285.5363439226
 21
252.2796787424
 31
0.0
  0
LINE
  5
2C2
330
1F
100
AcDbEntity
  8
0
  6
Continuous
 62
     7
370
    15
100
AcDbLine
 10
284.4727933116
 20
252.2876787424
 30
0.0
 11
284.4727933116
 21
252.2796787424
 31
0.0
  0
LINE
  5
2C3
330
1F
100
AcDbEntity
  8
0
  6
Continuous
 62
     7
370
    15
100
AcDbLine
 10
284.5702692732
 20
252.2876787424
 30
0.0
 11
284.4727933116
 21
252.2876787424
 31
0.0
  0
LINE
  5
2C4
330
1F
100
AcDbEntity
  8
0
  6
Continuous
 62
     7
370
    15
100
AcDbLine
 10
284.5702692732
 20
252.2876787424
 30
0.0
 11
284.5702692732
 21
252.2796787424
 31
0.0
  0
LINE
  5
2C5
330
1F
100
AcDbEntity
  8
0
  6
Continuous
 62
     7
370
    15
100
AcDbLine
 10
284.6655817732
 20
252.2876787424
 30
0.0
 11
284.6655817732
 21
252.2796787424
 31
0.0
  0
LINE
  5
2C6
330
1F
100
AcDbEntity
  8
0
  6
Continuous
 62
     7
370
    15
100
AcDbLine
 10
284.6655817732
 20
252.2876787424
 30
0.0
 11
284.5702692732
 21
252.2876787424
 31
0.0
  0
LINE
  5
2C7
330
1F
100
AcDbEntity
  8
0
  6
Continuous
 62
     7
370
    15
100
AcDbLine
 10
284.6727933116
 20
252.2876787424
 30
0.0
 11
284.6727933116
 21
252.2796787424
 31
0.0
  0
LINE
  5
2C8
330
1F
100
AcDbEntity
  8
0
  6
Continuous
 62
     7
370
    15
100
AcDbLine
 10
285.0374086963
 20
252.2876787424
 30
0.0
 11
285.0374086963
 21
252.2796787424
 31
0.0
  0
LINE
  5
2C9
330
1F
100
AcDbEntity
  8
0
  6
Continuous
 62
     7
370
    15
100
AcDbLine
 10
285.049427927
 20
252.2876787424
 30
0.0
 11
285.0374086963
 21
252.2876787424
 31
0.0
  0
LINE
  5
2CA
330
1F
100
AcDbEntity
  8
0
  6
Continuous
 62
     7
370
    15
100
AcDbLine
 10
285.049427927
 20
252.2876787424
 30
0.0
 11
285.049427927
 21
252.2796787424
 31
0.0
  0
LINE
  5
2CB
330
1F
100
AcDbEntity
  8
0
  6
Continuous
 62
     7
370
    15
100
AcDbLine
 10
285.0912548501
 20
252.2876787424
 30
0.0
 11
285.049427927
 21
252.2876787424
 31
0.0
  0
LINE
  5
2CC
330
1F
100
AcDbEntity
  8
0
  6
Continuous
 62
     7
370
    15
100
AcDbLine
 10
285.0912548501
 20
252.2876787424
 30
0.0
 11
285.0912548501
 21
252.2796787424
 31
0.0
  0
LINE
  5
2CD
330
1F
100
AcDbEntity
  8
0
  6
Continuous
 62
     7
370
    15
100
AcDbLine
 10
284.8809984398
 20
252.2876787424
 30
0.0
 11
284.8809984398
 21
252.2796787424
 31
0.0
  0
LINE
  5
2CE
330
1F
100
AcDbEntity
  8
0
  6
Continuous
 62
     7
370
    15
100
AcDbLine
 10
284.9229455552
 20
252.2876787424
 30
0.0
 11
284.9229455552
 21
252.2796787424
 31
0.0
  0
LINE
  5
2CF
330
1F
100
AcDbEntity
  8
0
  6
Continuous
 62
     7
370
    15
100
AcDbLine
 10
284.9229455552
 20
252.2876787424
 30
0.0
 11
284.8809984398
 21
252.2876787424
 31
0.0
  0
LINE
  5
2D0
330
1F
100
AcDbEntity
  8
0
  6
Continuous
 62
     7
370
    15
100
AcDbLine
 10
284.9348445937
 20
252.2876787424
 30
0.0
 11
284.9348445937
 21
252.2796787424
 31
0.0
  0
LINE
  5
2D1
330
1F
100
AcDbEntity
  8
0
  6
Continuous
 62
     7
370
    15
100
AcDbLine
 10
284.9348445937
 20
252.2876787424
 30
0.0
 11
284.9229455552
 21
252.2876787424
 31
0.0
  0
LINE
  5
2D2
330
1F
100
AcDbEntity
  8
0
  6
Continuous
 62
     7
370
    15
100
AcDbLine
 10
284.9859263245
 20
252.2876787424
 30
0.0
 11
284.9859263245
 21
252.2796787424
 31
0.0
  0
LINE
  5
2D3
330
1F
100
AcDbEntity
  8
0
  6
Continuous
 62
     7
370
    15
100
AcDbLine
 10
284.9859263245
 20
252.2876787424
 30
0.0
 11
284.9488453937
 21
252.2876787424
 31
0.0
  0
LINE
  5
2D4
330
1F
100
AcDbEntity
  8
0
  6
Continuous
 62
     7
370
    15
100
AcDbLine
 10
285.0180761629
 20
252.2876787424
 30
0.0
 11
284.9859263245
 21
252.2876787424
 31
0.0
  0
LINE
  5
2D5
330
1F
100
AcDbEntity
  8
0
  6
Continuous
 62
     7
370
    15
100
AcDbLine
 10
284.4676651065
 20
252.2876787424
 30
0.0
 11
284.4676651065
 21
252.2796787424
 31
0.0
  0
LINE
  5
2D6
330
1F
100
AcDbEntity
  8
0
  6
Continuous
 62
     7
370
    15
100
AcDbLine
 10
284.6779215168
 20
252.2876787424
 30
0.0
 11
284.6779215168
 21
252.2796787424
 31
0.0
  0
LINE
  5
2D7
330
1F
100
AcDbEntity
  8
0
  6
Continuous
 62
     7
370
    15
100
AcDbLine
 10
291.140075363
 20
250.9953636063
 30
0.0
 11
291.140075363
 21
250.9916787423
 31
0.0
  0
LINE
  5
2D8
330
1F
100
AcDbEntity
  8
0
  6
Continuous
 62
     7
370
    15
100
AcDbLine
 10
291.140075363
 20
250.8940466315
 30
0.0
 11
291.140075363
 21
250.8554314801
 31
0.0
  0
LWPOLYLINE
  5
2D9
330
1F
100
AcDbEntity
  8
0
  6
Continuous
 62
     7
370
    15
100
AcDbPolyline
 90
        7
 70
   128
 43
0.0
 10
290.0960753629
 20
200.7894516837
 10
290.1018624845
 20
200.7896650802
 10
290.1069759492
 20
200.7902558328
 10
290.1112581711
 20
200.7911824176
 10
290.1145439912
 20
200.7924905374
 10
290.1160742032
 20
200.7942924023
 10
290.1160753629
 20
200.7943439949
  0
LINE
  5
2DA
330
1F
100
AcDbEntity
  8
0
  6
Continuous
 62
     7
370
    15
100
AcDbLine
 10
290.1160753629
 20
200.7943439949
 30
0.0
 11
290.1160753629
 21
200.1940899362
 31
0.0
  0
LWPOLYLINE
  5
2DB
330
1F
100
AcDbEntity
  8
0
  6
Continuous
 62
     7
370
    15
100
AcDbPolyline
 90
        7
 70
   128
 43
0.0
 10
290.0200753629
 20
200.7943439949
 10
290.0200765226
 20
200.7942924023
 10
290.0216067346
 20
200.7924905374
 10
290.0248925548
 20
200.7911824176
 10
290.0291747766
 20
200.7902558328
 10
290.0342882414
 20
200.7896650802
 10
290.0400753629
 20
200.7894516837
  0
LINE
  5
2DC
330
1F
100
AcDbEntity
  8
0
  6
Continuous
 62
     7
370
    15
100
AcDbLine
 10
290.0200753629
 20
200.1682693107
 30
0.0
 11
290.0200753629
 21
200.7943439949
 31
0.0
  0
LINE
  5
2DD
330
1F
100
AcDbEntity
  8
0
  6
Continuous
 62
     7
370
    15
100
AcDbLine
 10
290.0960753629
 20
200.7894516837
 30
0.0
 11
290.0400753629
 21
200.7894516837
 31
0.0
  0
ARC
  5
2DE
330
1F
100
AcDbEntity
  8
0
  6
Continuous
 62
     7
370
    15
100
AcDbCircle
 10
290.1222495561
 20
201.1430930259
 30
0.0
 40
0.103151680803669
100
AcDbArc
 50
82.2972498099
 51
172.1059719302
  0
LWPOLYLINE
  5
2DF
330
1F
100
AcDbEntity
  8
0
  6
Continuous
 62
     7
370
    15
100
AcDbPolyline
 90
        6
 70
   128
 43
0.0
 10
290.0200753629
 20
200.8121428483
 10
290.0272068955
 20
200.8394985761
 10
290.0482187207
 20
200.8639305105
 10
290.079767518
 20
200.8815239944
 10
290.116667585
 20
200.890403837
 10
290.1360753629
 20
200.8915254955
  0
LINE
  5
2E0
330
1F
100
AcDbEntity
  8
0
  6
Continuous
 62
     7
370
    15
100
AcDbLine
 10
290.0200753629
 20
200.8121428483
 30
0.0
 11
290.0200753629
 21
201.1572600123
 31
0.0
  0
LINE
  5
2E1
330
1F
100
AcDbEntity
  8
0
  6
Continuous
 62
     7
370
    15
100
AcDbLine
 10
290.5640753629
 20
201.227724847
 30
0.0
 11
290.5640753629
 21
200.882607683
 31
0.0
  0
LINE
  5
2E2
330
1F
100
AcDbEntity
  8
0
  6
Continuous
 62
     7
370
    15
100
AcDbLine
 10
290.5640753629
 20
200.882607683
 30
0.0
 11
290.5640753629
 21
200.8416314892
 31
0.0
  0
LINE
  5
2E3
330
1F
100
AcDbEntity
  8
0
  6
Continuous
 62
     7
370
    15
100
AcDbLine
 10
290.0200753629
 20
200.7943439949
 30
0.0
 11
290.0200753629
 21
200.8121428483
 31
0.0
  0
LINE
  5
2E4
330
1F
100
AcDbEntity
  8
0
  6
Continuous
 62
     7
370
    15
100
AcDbLine
 10
290.1160753629
 20
200.8121428483
 30
0.0
 11
290.1160753629
 21
200.7943439949
 31
0.0
  0
LINE
  5
2E5
330
1F
100
AcDbEntity
  8
0
  6
Continuous
 62
     7
370
    15
100
AcDbLine
 10
290.1360753629
 20
201.247724847
 30
0.0
 11
290.1360753629
 21
201.2453139451
 31
0.0
  0
LINE
  5
2E6
330
1F
100
AcDbEntity
  8
0
  6
Continuous
 62
     7
370
    15
100
AcDbLine
 10
290.0200753629
 20
201.1572600123
 30
0.0
 11
290.0200753629
 21
201.2036787423
 31
0.0
  0
LINE
  5
2E7
330
1F
100
AcDbEntity
  8
0
  6
Continuous
 62
     7
370
    15
100
AcDbLine
 10
290.5640753629
 20
199.8686088314
 30
0.0
 11
290.5640753629
 21
199.8276326377
 31
0.0
  0
LINE
  5
2E8
330
1F
100
AcDbEntity
  8
0
  6
Continuous
 62
     7
370
    15
100
AcDbLine
 10
290.5640753629
 20
200.0875732777
 30
0.0
 11
290.5640753629
 21
199.8686088314
 31
0.0
  0
ARC
  5
2E9
330
1F
100
AcDbEntity
  8
0
  6
Continuous
 62
     7
370
    15
100
AcDbCircle
 10
290.1976417269
 20
200.165927672
 30
0.0
 40
0.0371997146931743
100
AcDbArc
 50
67.1696441977
 51
98.6057510508
  0
LINE
  5
2EA
330
1F
100
AcDbEntity
  8
0
  6
Continuous
 62
     7
370
    15
100
AcDbLine
 10
290.2120753629
 20
200.8216314892
 30
0.0
 11
290.2120753629
 21
200.200213076
 31
0.0
  0
ARC
  5
2EB
330
1F
100
AcDbEntity
  8
0
  6
Continuous
 62
     7
370
    15
100
AcDbCircle
 10
290.1305089989
 20
200.165927672
 30
0.0
 40
0.0371997146923356
100
AcDbArc
 50
81.3942489489
 51
112.8303558027
  0
LINE
  5
2EC
330
1F
100
AcDbEntity
  8
0
  6
Continuous
 62
     7
370
    15
100
AcDbLine
 10
290.1160753629
 20
200.200213076
 30
0.0
 11
290.1160753629
 21
200.7943439949
 31
0.0
  0
LINE
  5
2ED
330
1F
100
AcDbEntity
  8
0
  6
Continuous
 62
     7
370
    15
100
AcDbLine
 10
290.1360753629
 20
200.2027085687
 30
0.0
 11
290.1920753629
 21
200.2027085687
 31
0.0
  0
ARC
  5
2EE
330
1F
100
AcDbEntity
  8
0
  6
Continuous
 62
     7
370
    15
100
AcDbCircle
 10
290.1064725527
 20
199.8803248953
 30
0.0
 40
0.1060453514429543
100
AcDbArc
 50
264.3734105318
 51
354.7637566406
  0
ARC
  5
2EF
330
1F
100
AcDbEntity
  8
0
  6
Continuous
 62
     7
370
    15
100
AcDbCircle
 10
290.1058215196
 20
200.2001868876
 30
0.0
 40
0.1080329365407995
100
AcDbArc
 50
264.8240424667
 51
349.5874595782
  0
LINE
  5
2F0
330
1F
100
AcDbEntity
  8
0
  6
Continuous
 62
     7
370
    15
100
AcDbLine
 10
290.2120753629
 20
200.1806616178
 30
0.0
 11
290.2120753629
 21
199.8706469288
 31
0.0
  0
LINE
  5
2F1
330
1F
100
AcDbEntity
  8
0
  6
Continuous
 62
     7
370
    15
100
AcDbLine
 10
289.6680753629
 20
199.7932436135
 30
0.0
 11
289.6680753629
 21
200.1032583026
 31
0.0
  0
LINE
  5
2F2
330
1F
100
AcDbEntity
  8
0
  6
Continuous
 62
     7
370
    15
100
AcDbLine
 10
289.6680753629
 20
200.1032583026
 30
0.0
 11
289.6680753629
 21
200.1482693107
 31
0.0
  0
LINE
  5
2F3
330
1F
100
AcDbEntity
  8
0
  6
Continuous
 62
     7
370
    15
100
AcDbLine
 10
290.2120753629
 20
200.200213076
 30
0.0
 11
290.2120753629
 21
200.1806616178
 31
0.0
  0
LINE
  5
2F4
330
1F
100
AcDbEntity
  8
0
  6
Continuous
 62
     7
370
    15
100
AcDbLine
 10
290.1160753629
 20
200.1806616178
 30
0.0
 11
290.1160753629
 21
200.200213076
 31
0.0
  0
LINE
  5
2F5
330
1F
100
AcDbEntity
  8
0
  6
Continuous
 62
     7
370
    15
100
AcDbLine
 10
290.0960753629
 20
199.7732436135
 30
0.0
 11
290.0960753629
 21
199.7747904696
 31
0.0
  0
LINE
  5
2F6
330
1F
100
AcDbEntity
  8
0
  6
Continuous
 62
     7
370
    15
100
AcDbLine
 10
290.2120753629
 20
199.8706469288
 30
0.0
 11
290.2120753629
 21
199.8516787423
 31
0.0
  0
ARC
  5
2F7
330
1F
100
AcDbEntity
  8
0
  6
Continuous
 62
     7
370
    15
100
AcDbCircle
 10
290.101410952
 20
201.1662008853
 30
0.0
 40
0.1144905242895557
100
AcDbArc
 50
45.4026559356
 51
92.6711162802
  0
LINE
  5
2F8
330
1F
100
AcDbEntity
  8
0
  6
Continuous
 62
     7
370
    15
100
AcDbLine
 10
289.6680753629
 20
201.217102863
 30
0.0
 11
289.6680753629
 21
201.2621138711
 31
0.0
  0
LINE
  5
2F9
330
1F
100
AcDbEntity
  8
0
  6
Continuous
 62
     7
370
    15
100
AcDbLine
 10
289.6680753629
 20
200.9530152185
 30
0.0
 11
289.6680753629
 21
201.217102863
 31
0.0
  0
LINE
  5
2FA
330
1F
100
AcDbEntity
  8
0
  6
Continuous
 62
     7
370
    15
100
AcDbLine
 10
291.0200753629
 20
200.0738986067
 30
0.0
 11
290.6838019219
 21
200.0738986067
 31
0.0
  0
LWPOLYLINE
  5
2FB
330
1F
100
AcDbEntity
  8
0
  6
Continuous
 62
     7
370
    15
100
AcDbPolyline
 90
        3
 70
   128
 43
0.0
 10
290.6480753629
 20
200.224635367
 10
290.6482697708
 20
200.2139203368
 10
290.6838019219
 20
200.0738986067
  0
LINE
  5
2FC
330
1F
100
AcDbEntity
  8
0
  6
Continuous
 62
     7
370
    15
100
AcDbLine
 10
290.6838019219
 20
200.3753721272
 30
0.0
 11
290.6480753629
 21
200.224635367
 31
0.0
  0
LINE
  5
2FD
330
1F
100
AcDbEntity
  8
0
  6
Continuous
 62
     7
370
    15
100
AcDbLine
 10
291.0200753629
 20
200.3753721272
 30
0.0
 11
290.6838019219
 21
200.3753721272
 31
0.0
  0
LWPOLYLINE
  5
2FE
330
1F
100
AcDbEntity
  8
0
  6
Continuous
 62
     7
370
    15
100
AcDbPolyline
 90
        3
 70
   128
 43
0.0
 10
290.6838019219
 20
200.3753721272
 10
290.6686537207
 20
200.4327066024
 10
290.6480753629
 20
200.602262195
  0
LINE
  5
2FF
330
1F
100
AcDbEntity
  8
0
  6
Continuous
 62
     7
370
    15
100
AcDbLine
 10
290.6480753629
 20
200.224635367
 30
0.0
 11
290.6480753629
 21
200.602262195
 31
0.0
  0
LWPOLYLINE
  5
300
330
1F
100
AcDbEntity
  8
0
  6
Continuous
 62
     7
370
    15
100
AcDbPolyline
 90
        3
 70
   128
 43
0.0
 10
290.6480753629
 20
200.602262195
 10
290.6509085614
 20
200.664008056
 10
290.6838019219
 20
200.8291522628
  0
LINE
  5
301
330
1F
100
AcDbEntity
  8
0
  6
Continuous
 62
     7
370
    15
100
AcDbLine
 10
291.0200753629
 20
200.8291522628
 30
0.0
 11
290.6838019219
 21
200.8291522628
 31
0.0
  0
LWPOLYLINE
  5
302
330
1F
100
AcDbEntity
  8
0
  6
Continuous
 62
     7
370
    15
100
AcDbPolyline
 90
        3
 70
   128
 43
0.0
 10
290.6480753629
 20
200.9053055703
 10
290.6482697708
 20
200.8998922592
 10
290.6838019219
 20
200.8291522628
  0
LINE
  5
303
330
1F
100
AcDbEntity
  8
0
  6
Continuous
 62
     7
370
    15
100
AcDbLine
 10
290.6480753629
 20
200.602262195
 30
0.0
 11
290.6480753629
 21
200.9053055703
 31
0.0
  0
LINE
  5
304
330
1F
100
AcDbEntity
  8
0
  6
Continuous
 62
     7
370
    15
100
AcDbLine
 10
290.6838019219
 20
200.9814588779
 30
0.0
 11
290.6480753629
 21
200.9053055703
 31
0.0
  0
LINE
  5
305
330
1F
100
AcDbEntity
  8
0
  6
Continuous
 62
     7
370
    15
100
AcDbLine
 10
291.0200753629
 20
200.9814588779
 30
0.0
 11
290.6838019219
 21
200.9814588779
 31
0.0
  0
LINE
  5
306
330
1F
100
AcDbEntity
  8
0
  6
Continuous
 62
     7
370
    15
100
AcDbLine
 10
290.6838019219
 20
200.0738986067
 30
0.0
 11
290.6697263285
 21
200.10390158
 31
0.0
  0
LINE
  5
307
330
1F
100
AcDbEntity
  8
0
  6
Continuous
 62
     7
370
    15
100
AcDbLine
 10
290.6480753629
 20
200.1276787423
 30
0.0
 11
290.6480753629
 21
200.224635367
 31
0.0
  0
LINE
  5
308
330
1F
100
AcDbEntity
  8
0
  6
Continuous
 62
     7
370
    15
100
AcDbLine
 10
290.6480753629
 20
200.9053055703
 30
0.0
 11
290.6480753629
 21
200.9276787423
 31
0.0
  0
LINE
  5
309
330
1F
100
AcDbEntity
  8
0
  6
Continuous
 62
     7
370
    15
100
AcDbLine
 10
289.9843488039
 20
200.8962849858
 30
0.0
 11
290.0200753629
 21
200.6836167477
 31
0.0
  0
LWPOLYLINE
  5
30A
330
1F
100
AcDbEntity
  8
0
  6
Continuous
 62
     7
370
    15
100
AcDbPolyline
 90
        3
 70
   128
 43
0.0
 10
290.0200753629
 20
200.6836167477
 10
290.0198809551
 20
200.6684993564
 10
289.9843488039
 20
200.4709485096
  0
LINE
  5
30B
330
1F
100
AcDbEntity
  8
0
  6
Continuous
 62
     7
370
    15
100
AcDbLine
 10
289.9843488039
 20
200.4709485096
 30
0.0
 11
289.6398019219
 21
200.4709485096
 31
0.0
  0
LWPOLYLINE
  5
30C
330
1F
100
AcDbEntity
  8
0
  6
Continuous
 62
     7
370
    15
100
AcDbPolyline
 90
        3
 70
   128
 43
0.0
 10
289.6040753629
 20
200.6836167477
 10
289.6042697708
 20
200.6684993564
 10
289.6398019219
 20
200.4709485096
  0
LINE
  5
30D
330
1F
100
AcDbEntity
  8
0
  6
Continuous
 62
     7
370
    15
100
AcDbLine
 10
289.6398019219
 20
200.8962849858
 30
0.0
 11
289.6040753629
 21
200.6836167477
 31
0.0
  0
LINE
  5
30E
330
1F
100
AcDbEntity
  8
0
  6
Continuous
 62
     7
370
    15
100
AcDbLine
 10
289.9843488039
 20
200.8962849858
 30
0.0
 11
289.6398019219
 21
200.8962849858
 31
0.0
  0
LWPOLYLINE
  5
30F
330
1F
100
AcDbEntity
  8
0
  6
Continuous
 62
     7
370
    15
100
AcDbPolyline
 90
        3
 70
   128
 43
0.0
 10
290.0200753629
 20
200.2866453879
 10
290.0172421645
 20
200.3368016378
 10
289.9843488039
 20
200.4709485096
  0
LWPOLYLINE
  5
310
330
1F
100
AcDbEntity
  8
0
  6
Continuous
 62
     7
370
    15
100
AcDbPolyline
 90
        3
 70
   128
 43
0.0
 10
289.6040753629
 20
200.2866453879
 10
289.6069085614
 20
200.3368016378
 10
289.6398019219
 20
200.4709485096
  0
LINE
  5
311
330
1F
100
AcDbEntity
  8
0
  6
Continuous
 62
     7
370
    15
100
AcDbLine
 10
289.6040753629
 20
200.2866453879
 30
0.0
 11
289.6040753629
 21
200.6836167477
 31
0.0
  0
LINE
  5
312
330
1F
100
AcDbEntity
  8
0
  6
Continuous
 62
     7
370
    15
100
AcDbLine
 10
290.0023887231
 20
200.1682693107
 30
0.0
 11
290.0200753629
 21
200.2866453879
 31
0.0
  0
LINE
  5
313
330
1F
100
AcDbEntity
  8
0
  6
Continuous
 62
     7
370
    15
100
AcDbLine
 10
289.6680753629
 20
200.1023422661
 30
0.0
 11
289.6398019219
 21
200.1023422661
 31
0.0
  0
LWPOLYLINE
  5
314
330
1F
100
AcDbEntity
  8
0
  6
Continuous
 62
     7
370
    15
100
AcDbPolyline
 90
        3
 70
   128
 43
0.0
 10
289.6398019219
 20
200.1023422661
 10
289.6246537207
 20
200.1489151411
 10
289.6040753629
 20
200.2866453879
  0
LWPOLYLINE
  5
315
330
1F
100
AcDbEntity
  8
0
  6
Continuous
 62
     7
370
    15
100
AcDbPolyline
 90
        3
 70
   128
 43
0.0
 10
289.6040753629
 20
200.9246501021
 10
289.6042697708
 20
200.9226337852
 10
289.6398019219
 20
200.8962849858
  0
LINE
  5
316
330
1F
100
AcDbEntity
  8
0
  6
Continuous
 62
     7
370
    15
100
AcDbLine
 10
289.6040753629
 20
200.6836167477
 30
0.0
 11
289.6040753629
 21
200.9246501021
 31
0.0
  0
LWPOLYLINE
  5
317
330
1F
100
AcDbEntity
  8
0
  6
Continuous
 62
     7
370
    15
100
AcDbPolyline
 90
        3
 70
   128
 43
0.0
 10
290.0200753629
 20
200.9246501021
 10
290.0198809551
 20
200.9226337852
 10
289.9843488039
 20
200.8962849858
  0
LINE
  5
318
330
1F
100
AcDbEntity
  8
0
  6
Continuous
 62
     7
370
    15
100
AcDbLine
 10
289.6398019219
 20
200.1023422661
 30
0.0
 11
289.6040753629
 21
200.1307073825
 31
0.0
  0
LINE
  5
319
330
1F
100
AcDbEntity
  8
0
  6
Continuous
 62
     7
370
    15
100
AcDbLine
 10
289.6040753629
 20
200.2866453879
 30
0.0
 11
289.6040753629
 21
200.1276907988
 31
0.0
  0
LINE
  5
31A
330
1F
100
AcDbEntity
  8
0
  6
Continuous
 62
     7
370
    15
100
AcDbLine
 10
289.9843488039
 20
200.9530152185
 30
0.0
 11
290.0200753629
 21
200.9246501021
 31
0.0
  0
LINE
  5
31B
330
1F
100
AcDbEntity
  8
0
  6
Continuous
 62
     7
370
    15
100
AcDbLine
 10
289.6398019219
 20
200.9530152185
 30
0.0
 11
289.6040753629
 21
200.9246501021
 31
0.0
  0
LINE
  5
31C
330
1F
100
AcDbEntity
  8
0
  6
Continuous
 62
     7
370
    15
100
AcDbLine
 10
289.9843488039
 20
200.9530152185
 30
0.0
 11
289.6398019219
 21
200.9530152185
 31
0.0
  0
LINE
  5
31D
330
1F
100
AcDbEntity
  8
0
  6
Continuous
 62
     7
370
    15
100
AcDbLine
 10
290.5923488039
 20
200.967784207
 30
0.0
 11
290.6280753629
 21
200.7970734421
 31
0.0
  0
LWPOLYLINE
  5
31E
330
1F
100
AcDbEntity
  8
0
  6
Continuous
 62
     7
370
    15
100
AcDbPolyline
 90
        3
 70
   128
 43
0.0
 10
290.6280753629
 20
200.7970734421
 10
290.6278809551
 20
200.7849385721
 10
290.5923488039
 20
200.6263626772
  0
LINE
  5
31F
330
1F
100
AcDbEntity
  8
0
  6
Continuous
 62
     7
370
    15
100
AcDbLine
 10
290.5923488039
 20
200.6263626772
 30
0.0
 11
290.2478019219
 21
200.6263626772
 31
0.0
  0
LWPOLYLINE
  5
320
330
1F
100
AcDbEntity
  8
0
  6
Continuous
 62
     7
370
    15
100
AcDbPolyline
 90
        3
 70
   128
 43
0.0
 10
290.2120753629
 20
200.7970734421
 10
290.2122697708
 20
200.7849385721
 10
290.2478019219
 20
200.6263626772
  0
LINE
  5
321
330
1F
100
AcDbEntity
  8
0
  6
Continuous
 62
     7
370
    15
100
AcDbLine
 10
290.2172149012
 20
200.8216314892
 30
0.0
 11
290.2120753629
 21
200.7970734421
 31
0.0
  0
LINE
  5
322
330
1F
100
AcDbEntity
  8
0
  6
Continuous
 62
     7
370
    15
100
AcDbLine
 10
290.5923488039
 20
200.967784207
 30
0.0
 11
290.5640753629
 21
200.967784207
 31
0.0
  0
LWPOLYLINE
  5
323
330
1F
100
AcDbEntity
  8
0
  6
Continuous
 62
     7
370
    15
100
AcDbPolyline
 90
        3
 70
   128
 43
0.0
 10
290.2120753629
 20
200.4063099449
 10
290.2149085614
 20
200.4661950935
 10
290.2478019219
 20
200.6263626772
  0
LWPOLYLINE
  5
324
330
1F
100
AcDbEntity
  8
0
  6
Continuous
 62
     7
370
    15
100
AcDbPolyline
 90
        3
 70
   128
 43
0.0
 10
290.6280753629
 20
200.4063099449
 10
290.6252421645
 20
200.4661950935
 10
290.5923488039
 20
200.6263626772
  0
LINE
  5
325
330
1F
100
AcDbEntity
  8
0
  6
Continuous
 62
     7
370
    15
100
AcDbLine
 10
290.6280753629
 20
200.4063099449
 30
0.0
 11
290.6280753629
 21
200.7970734421
 31
0.0
  0
LWPOLYLINE
  5
326
330
1F
100
AcDbEntity
  8
0
  6
Continuous
 62
     7
370
    15
100
AcDbPolyline
 90
        3
 70
   128
 43
0.0
 10
290.5923488039
 20
200.1862572126
 10
290.6074970052
 20
200.2418639126
 10
290.6280753629
 20
200.4063099449
  0
LINE
  5
327
330
1F
100
AcDbEntity
  8
0
  6
Continuous
 62
     7
370
    15
100
AcDbLine
 10
290.5923488039
 20
200.1862572126
 30
0.0
 11
290.2478019219
 21
200.1862572126
 31
0.0
  0
LWPOLYLINE
  5
328
330
1F
100
AcDbEntity
  8
0
  6
Continuous
 62
     7
370
    15
100
AcDbPolyline
 90
        3
 70
   128
 43
0.0
 10
290.2478019219
 20
200.1862572126
 10
290.2326537207
 20
200.2418639126
 10
290.2120753629
 20
200.4063099449
  0
LINE
  5
329
330
1F
100
AcDbEntity
  8
0
  6
Continuous
 62
     7
370
    15
100
AcDbLine
 10
290.2478019219
 20
200.1862572126
 30
0.0
 11
290.2120753629
 21
200.1369152451
 31
0.0
  0
LINE
  5
32A
330
1F
100
AcDbEntity
  8
0
  6
Continuous
 62
     7
370
    15
100
AcDbLine
 10
290.5923488039
 20
200.1862572126
 30
0.0
 11
290.6280753629
 21
200.1369152451
 31
0.0
  0
LINE
  5
32B
330
1F
100
AcDbEntity
  8
0
  6
Continuous
 62
     7
370
    15
100
AcDbLine
 10
290.6280753629
 20
200.4063099449
 30
0.0
 11
290.6280753629
 21
200.1369152451
 31
0.0
  0
LINE
  5
32C
330
1F
100
AcDbEntity
  8
0
  6
Continuous
 62
     7
370
    15
100
AcDbLine
 10
290.6161457564
 20
200.9370874449
 30
0.0
 11
290.5923488039
 21
200.967784207
 31
0.0
  0
LINE
  5
32D
330
1F
100
AcDbEntity
  8
0
  6
Continuous
 62
     7
370
    15
100
AcDbLine
 10
290.6280753629
 20
200.9276787423
 30
0.0
 11
290.6280753629
 21
200.7970734421
 31
0.0
  0
LWPOLYLINE
  5
32E
330
1F
100
AcDbEntity
  8
0
  6
Continuous
 62
     7
370
    15
100
AcDbPolyline
 90
        3
 70
   128
 43
0.0
 10
290.6280753629
 20
200.1369152451
 10
290.6278809551
 20
200.1334078016
 10
290.5923488039
 20
200.0875732777
  0
LINE
  5
32F
330
1F
100
AcDbEntity
  8
0
  6
Continuous
 62
     7
370
    15
100
AcDbLine
 10
290.5923488039
 20
200.0875732777
 30
0.0
 11
290.2478019219
 21
200.0875732777
 31
0.0
  0
LINE
  5
330
330
1F
100
AcDbEntity
  8
0
  6
Continuous
 62
     7
370
    15
100
AcDbLine
 10
290.2240049694
 20
200.1182700397
 30
0.0
 11
290.2478019219
 21
200.0875732777
 31
0.0
  0
LINE
  5
331
330
1F
100
AcDbEntity
  8
0
  6
Continuous
 62
     7
370
    15
100
AcDbLine
 10
290.6280753629
 20
200.1369152451
 30
0.0
 11
290.6280753629
 21
200.1276787423
 31
0.0
  0
LINE
  5
332
330
1F
100
AcDbEntity
  8
0
  6
Continuous
 62
     7
370
    15
100
AcDbLine
 10
290.976075363
 20
198.3573355966
 30
0.0
 11
291.0200753629
 21
198.3573355966
 31
0.0
  0
LINE
  5
333
330
1F
100
AcDbEntity
  8
0
  6
Continuous
 62
     7
370
    15
100
AcDbLine
 10
291.0200753629
 20
232.4580218881
 30
0.0
 11
290.976075363
 21
232.4580218881
 31
0.0
  0
LINE
  5
334
330
1F
100
AcDbEntity
  8
0
  6
Continuous
 62
     7
370
    15
100
AcDbLine
 10
290.976075363
 20
198.3573355966
 30
0.0
 11
283.176075363
 21
198.3573355966
 31
0.0
  0
LINE
  5
335
330
1F
100
AcDbEntity
  8
0
  6
Continuous
 62
     7
370
    15
100
AcDbLine
 10
286.876075363
 20
199.5516787423
 30
0.0
 11
284.476075363
 21
199.5516787423
 31
0.0
  0
LINE
  5
336
330
1F
100
AcDbEntity
  8
0
  6
Continuous
 62
     7
370
    15
100
AcDbLine
 10
286.876075363
 20
199.9516787423
 30
0.0
 11
286.876075363
 21
199.5516787423
 31
0.0
  0
LINE
  5
337
330
1F
100
AcDbEntity
  8
0
  6
Continuous
 62
     7
370
    15
100
AcDbLine
 10
284.476075363
 20
199.9516787423
 30
0.0
 11
286.876075363
 21
199.9516787423
 31
0.0
  0
LINE
  5
338
330
1F
100
AcDbEntity
  8
0
  6
Continuous
 62
     7
370
    15
100
AcDbLine
 10
284.476075363
 20
199.5516787423
 30
0.0
 11
284.476075363
 21
199.9516787423
 31
0.0
  0
LINE
  5
339
330
1F
100
AcDbEntity
  8
0
  6
Continuous
 62
     7
370
    15
100
AcDbLine
 10
286.876075363
 20
230.7516787423
 30
0.0
 11
284.476075363
 21
230.7516787423
 31
0.0
  0
LINE
  5
33A
330
1F
100
AcDbEntity
  8
0
  6
Continuous
 62
     7
370
    15
100
AcDbLine
 10
286.876075363
 20
231.1516787423
 30
0.0
 11
286.876075363
 21
230.7516787423
 31
0.0
  0
LINE
  5
33B
330
1F
100
AcDbEntity
  8
0
  6
Continuous
 62
     7
370
    15
100
AcDbLine
 10
284.476075363
 20
231.1516787423
 30
0.0
 11
286.876075363
 21
231.1516787423
 31
0.0
  0
LINE
  5
33C
330
1F
100
AcDbEntity
  8
0
  6
Continuous
 62
     7
370
    15
100
AcDbLine
 10
284.476075363
 20
230.7516787423
 30
0.0
 11
284.476075363
 21
231.1516787423
 31
0.0
  0
LINE
  5
33D
330
1F
100
AcDbEntity
  8
0
  6
Continuous
 62
     7
370
    15
100
AcDbLine
 10
286.876075363
 20
229.9516787423
 30
0.0
 11
284.476075363
 21
229.9516787423
 31
0.0
  0
LINE
  5
33E
330
1F
100
AcDbEntity
  8
0
  6
Continuous
 62
     7
370
    15
100
AcDbLine
 10
286.876075363
 20
230.3516787423
 30
0.0
 11
286.876075363
 21
229.9516787423
 31
0.0
  0
LINE
  5
33F
330
1F
100
AcDbEntity
  8
0
  6
Continuous
 62
     7
370
    15
100
AcDbLine
 10
284.476075363
 20
230.3516787423
 30
0.0
 11
286.876075363
 21
230.3516787423
 31
0.0
  0
LINE
  5
340
330
1F
100
AcDbEntity
  8
0
  6
Continuous
 62
     7
370
    15
100
AcDbLine
 10
284.476075363
 20
229.9516787423
 30
0.0
 11
284.476075363
 21
230.3516787423
 31
0.0
  0
LINE
  5
341
330
1F
100
AcDbEntity
  8
0
  6
Continuous
 62
     7
370
    15
100
AcDbLine
 10
286.876075363
 20
229.1516787423
 30
0.0
 11
284.476075363
 21
229.1516787423
 31
0.0
  0
LINE
  5
342
330
1F
100
AcDbEntity
  8
0
  6
Continuous
 62
     7
370
    15
100
AcDbLine
 10
286.876075363
 20
229.5516787423
 30
0.0
 11
286.876075363
 21
229.1516787423
 31
0.0
  0
LINE
  5
343
330
1F
100
AcDbEntity
  8
0
  6
Continuous
 62
     7
370
    15
100
AcDbLine
 10
284.476075363
 20
229.5516787423
 30
0.0
 11
286.876075363
 21
229.5516787423
 31
0.0
  0
LINE
  5
344
330
1F
100
AcDbEntity
  8
0
  6
Continuous
 62
     7
370
    15
100
AcDbLine
 10
284.476075363
 20
229.1516787423
 30
0.0
 11
284.476075363
 21
229.5516787423
 31
0.0
  0
LINE
  5
345
330
1F
100
AcDbEntity
  8
0
  6
Continuous
 62
     7
370
    15
100
AcDbLine
 10
286.876075363
 20
228.3516787423
 30
0.0
 11
284.476075363
 21
228.3516787423
 31
0.0
  0
LINE
  5
346
330
1F
100
AcDbEntity
  8
0
  6
Continuous
 62
     7
370
    15
100
AcDbLine
 10
286.876075363
 20
228.7516787423
 30
0.0
 11
286.876075363
 21
228.3516787423
 31
0.0
  0
LINE
  5
347
330
1F
100
AcDbEntity
  8
0
  6
Continuous
 62
     7
370
    15
100
AcDbLine
 10
284.476075363
 20
228.7516787423
 30
0.0
 11
286.876075363
 21
228.7516787423
 31
0.0
  0
LINE
  5
348
330
1F
100
AcDbEntity
  8
0
  6
Continuous
 62
     7
370
    15
100
AcDbLine
 10
284.476075363
 20
228.3516787423
 30
0.0
 11
284.476075363
 21
228.7516787423
 31
0.0
  0
LINE
  5
349
330
1F
100
AcDbEntity
  8
0
  6
Continuous
 62
     7
370
    15
100
AcDbLine
 10
286.876075363
 20
227.5516787423
 30
0.0
 11
284.476075363
 21
227.5516787423
 31
0.0
  0
LINE
  5
34A
330
1F
100
AcDbEntity
  8
0
  6
Continuous
 62
     7
370
    15
100
AcDbLine
 10
286.876075363
 20
227.9516787423
 30
0.0
 11
286.876075363
 21
227.5516787423
 31
0.0
  0
LINE
  5
34B
330
1F
100
AcDbEntity
  8
0
  6
Continuous
 62
     7
370
    15
100
AcDbLine
 10
284.476075363
 20
227.9516787423
 30
0.0
 11
286.876075363
 21
227.9516787423
 31
0.0
  0
LINE
  5
34C
330
1F
100
AcDbEntity
  8
0
  6
Continuous
 62
     7
370
    15
100
AcDbLine
 10
284.476075363
 20
227.5516787423
 30
0.0
 11
284.476075363
 21
227.9516787423
 31
0.0
  0
LINE
  5
34D
330
1F
100
AcDbEntity
  8
0
  6
Continuous
 62
     7
370
    15
100
AcDbLine
 10
286.876075363
 20
226.7516787423
 30
0.0
 11
284.476075363
 21
226.7516787423
 31
0.0
  0
LINE
  5
34E
330
1F
100
AcDbEntity
  8
0
  6
Continuous
 62
     7
370
    15
100
AcDbLine
 10
286.876075363
 20
227.1516787423
 30
0.0
 11
286.876075363
 21
226.7516787423
 31
0.0
  0
LINE
  5
34F
330
1F
100
AcDbEntity
  8
0
  6
Continuous
 62
     7
370
    15
100
AcDbLine
 10
284.476075363
 20
227.1516787423
 30
0.0
 11
286.876075363
 21
227.1516787423
 31
0.0
  0
LINE
  5
350
330
1F
100
AcDbEntity
  8
0
  6
Continuous
 62
     7
370
    15
100
AcDbLine
 10
284.476075363
 20
226.7516787423
 30
0.0
 11
284.476075363
 21
227.1516787423
 31
0.0
  0
LINE
  5
351
330
1F
100
AcDbEntity
  8
0
  6
Continuous
 62
     7
370
    15
100
AcDbLine
 10
286.876075363
 20
225.9516787423
 30
0.0
 11
284.476075363
 21
225.9516787423
 31
0.0
  0
LINE
  5
352
330
1F
100
AcDbEntity
  8
0
  6
Continuous
 62
     7
370
    15
100
AcDbLine
 10
286.876075363
 20
226.3516787423
 30
0.0
 11
286.876075363
 21
225.9516787423
 31
0.0
  0
LINE
  5
353
330
1F
100
AcDbEntity
  8
0
  6
Continuous
 62
     7
370
    15
100
AcDbLine
 10
284.476075363
 20
226.3516787423
 30
0.0
 11
286.876075363
 21
226.3516787423
 31
0.0
  0
LINE
  5
354
330
1F
100
AcDbEntity
  8
0
  6
Continuous
 62
     7
370
    15
100
AcDbLine
 10
284.476075363
 20
225.9516787423
 30
0.0
 11
284.476075363
 21
226.3516787423
 31
0.0
  0
LINE
  5
355
330
1F
100
AcDbEntity
  8
0
  6
Continuous
 62
     7
370
    15
100
AcDbLine
 10
286.876075363
 20
225.1516787423
 30
0.0
 11
284.476075363
 21
225.1516787423
 31
0.0
  0
LINE
  5
356
330
1F
100
AcDbEntity
  8
0
  6
Continuous
 62
     7
370
    15
100
AcDbLine
 10
286.876075363
 20
225.5516787423
 30
0.0
 11
286.876075363
 21
225.1516787423
 31
0.0
  0
LINE
  5
357
330
1F
100
AcDbEntity
  8
0
  6
Continuous
 62
     7
370
    15
100
AcDbLine
 10
284.476075363
 20
225.5516787423
 30
0.0
 11
286.876075363
 21
225.5516787423
 31
0.0
  0
LINE
  5
358
330
1F
100
AcDbEntity
  8
0
  6
Continuous
 62
     7
370
    15
100
AcDbLine
 10
284.476075363
 20
225.1516787423
 30
0.0
 11
284.476075363
 21
225.5516787423
 31
0.0
  0
LINE
  5
359
330
1F
100
AcDbEntity
  8
0
  6
Continuous
 62
     7
370
    15
100
AcDbLine
 10
286.876075363
 20
224.3516787423
 30
0.0
 11
284.476075363
 21
224.3516787423
 31
0.0
  0
LINE
  5
35A
330
1F
100
AcDbEntity
  8
0
  6
Continuous
 62
     7
370
    15
100
AcDbLine
 10
286.876075363
 20
224.7516787423
 30
0.0
 11
286.876075363
 21
224.3516787423
 31
0.0
  0
LINE
  5
35B
330
1F
100
AcDbEntity
  8
0
  6
Continuous
 62
     7
370
    15
100
AcDbLine
 10
284.476075363
 20
224.7516787423
 30
0.0
 11
286.876075363
 21
224.7516787423
 31
0.0
  0
LINE
  5
35C
330
1F
100
AcDbEntity
  8
0
  6
Continuous
 62
     7
370
    15
100
AcDbLine
 10
284.476075363
 20
224.3516787423
 30
0.0
 11
284.476075363
 21
224.7516787423
 31
0.0
  0
LINE
  5
35D
330
1F
100
AcDbEntity
  8
0
  6
Continuous
 62
     7
370
    15
100
AcDbLine
 10
286.876075363
 20
223.5516787423
 30
0.0
 11
284.476075363
 21
223.5516787423
 31
0.0
  0
LINE
  5
35E
330
1F
100
AcDbEntity
  8
0
  6
Continuous
 62
     7
370
    15
100
AcDbLine
 10
286.876075363
 20
223.9516787423
 30
0.0
 11
286.876075363
 21
223.5516787423
 31
0.0
  0
LINE
  5
35F
330
1F
100
AcDbEntity
  8
0
  6
Continuous
 62
     7
370
    15
100
AcDbLine
 10
284.476075363
 20
223.9516787423
 30
0.0
 11
286.876075363
 21
223.9516787423
 31
0.0
  0
LINE
  5
360
330
1F
100
AcDbEntity
  8
0
  6
Continuous
 62
     7
370
    15
100
AcDbLine
 10
284.476075363
 20
223.5516787423
 30
0.0
 11
284.476075363
 21
223.9516787423
 31
0.0
  0
LINE
  5
361
330
1F
100
AcDbEntity
  8
0
  6
Continuous
 62
     7
370
    15
100
AcDbLine
 10
286.876075363
 20
222.7516787423
 30
0.0
 11
284.476075363
 21
222.7516787423
 31
0.0
  0
LINE
  5
362
330
1F
100
AcDbEntity
  8
0
  6
Continuous
 62
     7
370
    15
100
AcDbLine
 10
286.876075363
 20
223.1516787423
 30
0.0
 11
286.876075363
 21
222.7516787423
 31
0.0
  0
LINE
  5
363
330
1F
100
AcDbEntity
  8
0
  6
Continuous
 62
     7
370
    15
100
AcDbLine
 10
284.476075363
 20
223.1516787423
 30
0.0
 11
286.876075363
 21
223.1516787423
 31
0.0
  0
LINE
  5
364
330
1F
100
AcDbEntity
  8
0
  6
Continuous
 62
     7
370
    15
100
AcDbLine
 10
284.476075363
 20
222.7516787423
 30
0.0
 11
284.476075363
 21
223.1516787423
 31
0.0
  0
LINE
  5
365
330
1F
100
AcDbEntity
  8
0
  6
Continuous
 62
     7
370
    15
100
AcDbLine
 10
286.876075363
 20
221.9516787423
 30
0.0
 11
284.476075363
 21
221.9516787423
 31
0.0
  0
LINE
  5
366
330
1F
100
AcDbEntity
  8
0
  6
Continuous
 62
     7
370
    15
100
AcDbLine
 10
286.876075363
 20
222.3516787423
 30
0.0
 11
286.876075363
 21
221.9516787423
 31
0.0
  0
LINE
  5
367
330
1F
100
AcDbEntity
  8
0
  6
Continuous
 62
     7
370
    15
100
AcDbLine
 10
284.476075363
 20
222.3516787423
 30
0.0
 11
286.876075363
 21
222.3516787423
 31
0.0
  0
LINE
  5
368
330
1F
100
AcDbEntity
  8
0
  6
Continuous
 62
     7
370
    15
100
AcDbLine
 10
284.476075363
 20
221.9516787423
 30
0.0
 11
284.476075363
 21
222.3516787423
 31
0.0
  0
LINE
  5
369
330
1F
100
AcDbEntity
  8
0
  6
Continuous
 62
     7
370
    15
100
AcDbLine
 10
286.876075363
 20
221.1516787423
 30
0.0
 11
284.476075363
 21
221.1516787423
 31
0.0
  0
LINE
  5
36A
330
1F
100
AcDbEntity
  8
0
  6
Continuous
 62
     7
370
    15
100
AcDbLine
 10
286.876075363
 20
221.5516787423
 30
0.0
 11
286.876075363
 21
221.1516787423
 31
0.0
  0
LINE
  5
36B
330
1F
100
AcDbEntity
  8
0
  6
Continuous
 62
     7
370
    15
100
AcDbLine
 10
284.476075363
 20
221.5516787423
 30
0.0
 11
286.876075363
 21
221.5516787423
 31
0.0
  0
LINE
  5
36C
330
1F
100
AcDbEntity
  8
0
  6
Continuous
 62
     7
370
    15
100
AcDbLine
 10
284.476075363
 20
221.1516787423
 30
0.0
 11
284.476075363
 21
221.5516787423
 31
0.0
  0
LINE
  5
36D
330
1F
100
AcDbEntity
  8
0
  6
Continuous
 62
     7
370
    15
100
AcDbLine
 10
286.876075363
 20
220.3516787423
 30
0.0
 11
284.476075363
 21
220.3516787423
 31
0.0
  0
LINE
  5
36E
330
1F
100
AcDbEntity
  8
0
  6
Continuous
 62
     7
370
    15
100
AcDbLine
 10
286.876075363
 20
220.7516787423
 30
0.0
 11
286.876075363
 21
220.3516787423
 31
0.0
  0
LINE
  5
36F
330
1F
100
AcDbEntity
  8
0
  6
Continuous
 62
     7
370
    15
100
AcDbLine
 10
284.476075363
 20
220.7516787423
 30
0.0
 11
286.876075363
 21
220.7516787423
 31
0.0
  0
LINE
  5
370
330
1F
100
AcDbEntity
  8
0
  6
Continuous
 62
     7
370
    15
100
AcDbLine
 10
284.476075363
 20
220.3516787423
 30
0.0
 11
284.476075363
 21
220.7516787423
 31
0.0
  0
LINE
  5
371
330
1F
100
AcDbEntity
  8
0
  6
Continuous
 62
     7
370
    15
100
AcDbLine
 10
286.876075363
 20
219.5516787423
 30
0.0
 11
284.476075363
 21
219.5516787423
 31
0.0
  0
LINE
  5
372
330
1F
100
AcDbEntity
  8
0
  6
Continuous
 62
     7
370
    15
100
AcDbLine
 10
286.876075363
 20
219.9516787423
 30
0.0
 11
286.876075363
 21
219.5516787423
 31
0.0
  0
LINE
  5
373
330
1F
100
AcDbEntity
  8
0
  6
Continuous
 62
     7
370
    15
100
AcDbLine
 10
284.476075363
 20
219.9516787423
 30
0.0
 11
286.876075363
 21
219.9516787423
 31
0.0
  0
LINE
  5
374
330
1F
100
AcDbEntity
  8
0
  6
Continuous
 62
     7
370
    15
100
AcDbLine
 10
284.476075363
 20
219.5516787423
 30
0.0
 11
284.476075363
 21
219.9516787423
 31
0.0
  0
LINE
  5
375
330
1F
100
AcDbEntity
  8
0
  6
Continuous
 62
     7
370
    15
100
AcDbLine
 10
286.876075363
 20
218.7516787423
 30
0.0
 11
284.476075363
 21
218.7516787423
 31
0.0
  0
LINE
  5
376
330
1F
100
AcDbEntity
  8
0
  6
Continuous
 62
     7
370
    15
100
AcDbLine
 10
286.876075363
 20
219.1516787423
 30
0.0
 11
286.876075363
 21
218.7516787423
 31
0.0
  0
LINE
  5
377
330
1F
100
AcDbEntity
  8
0
  6
Continuous
 62
     7
370
    15
100
AcDbLine
 10
284.476075363
 20
219.1516787423
 30
0.0
 11
286.876075363
 21
219.1516787423
 31
0.0
  0
LINE
  5
378
330
1F
100
AcDbEntity
  8
0
  6
Continuous
 62
     7
370
    15
100
AcDbLine
 10
284.476075363
 20
218.7516787423
 30
0.0
 11
284.476075363
 21
219.1516787423
 31
0.0
  0
LINE
  5
379
330
1F
100
AcDbEntity
  8
0
  6
Continuous
 62
     7
370
    15
100
AcDbLine
 10
286.876075363
 20
217.9516787423
 30
0.0
 11
284.476075363
 21
217.9516787423
 31
0.0
  0
LINE
  5
37A
330
1F
100
AcDbEntity
  8
0
  6
Continuous
 62
     7
370
    15
100
AcDbLine
 10
286.876075363
 20
218.3516787423
 30
0.0
 11
286.876075363
 21
217.9516787423
 31
0.0
  0
LINE
  5
37B
330
1F
100
AcDbEntity
  8
0
  6
Continuous
 62
     7
370
    15
100
AcDbLine
 10
284.476075363
 20
218.3516787423
 30
0.0
 11
286.876075363
 21
218.3516787423
 31
0.0
  0
LINE
  5
37C
330
1F
100
AcDbEntity
  8
0
  6
Continuous
 62
     7
370
    15
100
AcDbLine
 10
284.476075363
 20
217.9516787423
 30
0.0
 11
284.476075363
 21
218.3516787423
 31
0.0
  0
LINE
  5
37D
330
1F
100
AcDbEntity
  8
0
  6
Continuous
 62
     7
370
    15
100
AcDbLine
 10
286.876075363
 20
217.1516787423
 30
0.0
 11
284.476075363
 21
217.1516787423
 31
0.0
  0
LINE
  5
37E
330
1F
100
AcDbEntity
  8
0
  6
Continuous
 62
     7
370
    15
100
AcDbLine
 10
286.876075363
 20
217.5516787423
 30
0.0
 11
286.876075363
 21
217.1516787423
 31
0.0
  0
LINE
  5
37F
330
1F
100
AcDbEntity
  8
0
  6
Continuous
 62
     7
370
    15
100
AcDbLine
 10
284.476075363
 20
217.5516787423
 30
0.0
 11
286.876075363
 21
217.5516787423
 31
0.0
  0
LINE
  5
380
330
1F
100
AcDbEntity
  8
0
  6
Continuous
 62
     7
370
    15
100
AcDbLine
 10
284.476075363
 20
217.1516787423
 30
0.0
 11
284.476075363
 21
217.5516787423
 31
0.0
  0
LINE
  5
381
330
1F
100
AcDbEntity
  8
0
  6
Continuous
 62
     7
370
    15
100
AcDbLine
 10
286.876075363
 20
216.3516787423
 30
0.0
 11
284.476075363
 21
216.3516787423
 31
0.0
  0
LINE
  5
382
330
1F
100
AcDbEntity
  8
0
  6
Continuous
 62
     7
370
    15
100
AcDbLine
 10
286.876075363
 20
216.7516787423
 30
0.0
 11
286.876075363
 21
216.3516787423
 31
0.0
  0
LINE
  5
383
330
1F
100
AcDbEntity
  8
0
  6
Continuous
 62
     7
370
    15
100
AcDbLine
 10
284.476075363
 20
216.7516787423
 30
0.0
 11
286.876075363
 21
216.7516787423
 31
0.0
  0
LINE
  5
384
330
1F
100
AcDbEntity
  8
0
  6
Continuous
 62
     7
370
    15
100
AcDbLine
 10
284.476075363
 20
216.3516787423
 30
0.0
 11
284.476075363
 21
216.7516787423
 31
0.0
  0
LINE
  5
385
330
1F
100
AcDbEntity
  8
0
  6
Continuous
 62
     7
370
    15
100
AcDbLine
 10
286.876075363
 20
215.5516787423
 30
0.0
 11
284.476075363
 21
215.5516787423
 31
0.0
  0
LINE
  5
386
330
1F
100
AcDbEntity
  8
0
  6
Continuous
 62
     7
370
    15
100
AcDbLine
 10
286.876075363
 20
215.9516787423
 30
0.0
 11
286.876075363
 21
215.5516787423
 31
0.0
  0
LINE
  5
387
330
1F
100
AcDbEntity
  8
0
  6
Continuous
 62
     7
370
    15
100
AcDbLine
 10
284.476075363
 20
215.9516787423
 30
0.0
 11
286.876075363
 21
215.9516787423
 31
0.0
  0
LINE
  5
388
330
1F
100
AcDbEntity
  8
0
  6
Continuous
 62
     7
370
    15
100
AcDbLine
 10
284.476075363
 20
215.5516787423
 30
0.0
 11
284.476075363
 21
215.9516787423
 31
0.0
  0
LINE
  5
389
330
1F
100
AcDbEntity
  8
0
  6
Continuous
 62
     7
370
    15
100
AcDbLine
 10
286.876075363
 20
214.7516787423
 30
0.0
 11
284.476075363
 21
214.7516787423
 31
0.0
  0
LINE
  5
38A
330
1F
100
AcDbEntity
  8
0
  6
Continuous
 62
     7
370
    15
100
AcDbLine
 10
286.876075363
 20
215.1516787423
 30
0.0
 11
286.876075363
 21
214.7516787423
 31
0.0
  0
LINE
  5
38B
330
1F
100
AcDbEntity
  8
0
  6
Continuous
 62
     7
370
    15
100
AcDbLine
 10
284.476075363
 20
215.1516787423
 30
0.0
 11
286.876075363
 21
215.1516787423
 31
0.0
  0
LINE
  5
38C
330
1F
100
AcDbEntity
  8
0
  6
Continuous
 62
     7
370
    15
100
AcDbLine
 10
284.476075363
 20
214.7516787423
 30
0.0
 11
284.476075363
 21
215.1516787423
 31
0.0
  0
LINE
  5
38D
330
1F
100
AcDbEntity
  8
0
  6
Continuous
 62
     7
370
    15
100
AcDbLine
 10
286.876075363
 20
213.9516787423
 30
0.0
 11
284.476075363
 21
213.9516787423
 31
0.0
  0
LINE
  5
38E
330
1F
100
AcDbEntity
  8
0
  6
Continuous
 62
     7
370
    15
100
AcDbLine
 10
286.876075363
 20
214.3516787423
 30
0.0
 11
286.876075363
 21
213.9516787423
 31
0.0
  0
LINE
  5
38F
330
1F
100
AcDbEntity
  8
0
  6
Continuous
 62
     7
370
    15
100
AcDbLine
 10
284.476075363
 20
214.3516787423
 30
0.0
 11
286.876075363
 21
214.3516787423
 31
0.0
  0
LINE
  5
390
330
1F
100
AcDbEntity
  8
0
  6
Continuous
 62
     7
370
    15
100
AcDbLine
 10
284.476075363
 20
213.9516787423
 30
0.0
 11
284.476075363
 21
214.3516787423
 31
0.0
  0
LINE
  5
391
330
1F
100
AcDbEntity
  8
0
  6
Continuous
 62
     7
370
    15
100
AcDbLine
 10
286.876075363
 20
213.1516787423
 30
0.0
 11
284.476075363
 21
213.1516787423
 31
0.0
  0
LINE
  5
392
330
1F
100
AcDbEntity
  8
0
  6
Continuous
 62
     7
370
    15
100
AcDbLine
 10
286.876075363
 20
213.5516787423
 30
0.0
 11
286.876075363
 21
213.1516787423
 31
0.0
  0
LINE
  5
393
330
1F
100
AcDbEntity
  8
0
  6
Continuous
 62
     7
370
    15
100
AcDbLine
 10
284.476075363
 20
213.5516787423
 30
0.0
 11
286.876075363
 21
213.5516787423
 31
0.0
  0
LINE
  5
394
330
1F
100
AcDbEntity
  8
0
  6
Continuous
 62
     7
370
    15
100
AcDbLine
 10
284.476075363
 20
213.1516787423
 30
0.0
 11
284.476075363
 21
213.5516787423
 31
0.0
  0
LINE
  5
395
330
1F
100
AcDbEntity
  8
0
  6
Continuous
 62
     7
370
    15
100
AcDbLine
 10
286.876075363
 20
212.3516787423
 30
0.0
 11
284.476075363
 21
212.3516787423
 31
0.0
  0
LINE
  5
396
330
1F
100
AcDbEntity
  8
0
  6
Continuous
 62
     7
370
    15
100
AcDbLine
 10
286.876075363
 20
212.7516787423
 30
0.0
 11
286.876075363
 21
212.3516787423
 31
0.0
  0
LINE
  5
397
330
1F
100
AcDbEntity
  8
0
  6
Continuous
 62
     7
370
    15
100
AcDbLine
 10
284.476075363
 20
212.7516787423
 30
0.0
 11
286.876075363
 21
212.7516787423
 31
0.0
  0
LINE
  5
398
330
1F
100
AcDbEntity
  8
0
  6
Continuous
 62
     7
370
    15
100
AcDbLine
 10
284.476075363
 20
212.3516787423
 30
0.0
 11
284.476075363
 21
212.7516787423
 31
0.0
  0
LINE
  5
399
330
1F
100
AcDbEntity
  8
0
  6
Continuous
 62
     7
370
    15
100
AcDbLine
 10
286.876075363
 20
211.5516787423
 30
0.0
 11
284.476075363
 21
211.5516787423
 31
0.0
  0
LINE
  5
39A
330
1F
100
AcDbEntity
  8
0
  6
Continuous
 62
     7
370
    15
100
AcDbLine
 10
286.876075363
 20
211.9516787423
 30
0.0
 11
286.876075363
 21
211.5516787423
 31
0.0
  0
LINE
  5
39B
330
1F
100
AcDbEntity
  8
0
  6
Continuous
 62
     7
370
    15
100
AcDbLine
 10
284.476075363
 20
211.9516787423
 30
0.0
 11
286.876075363
 21
211.9516787423
 31
0.0
  0
LINE
  5
39C
330
1F
100
AcDbEntity
  8
0
  6
Continuous
 62
     7
370
    15
100
AcDbLine
 10
284.476075363
 20
211.5516787423
 30
0.0
 11
284.476075363
 21
211.9516787423
 31
0.0
  0
LINE
  5
39D
330
1F
100
AcDbEntity
  8
0
  6
Continuous
 62
     7
370
    15
100
AcDbLine
 10
286.876075363
 20
210.7516787423
 30
0.0
 11
284.476075363
 21
210.7516787423
 31
0.0
  0
LINE
  5
39E
330
1F
100
AcDbEntity
  8
0
  6
Continuous
 62
     7
370
    15
100
AcDbLine
 10
286.876075363
 20
211.1516787423
 30
0.0
 11
286.876075363
 21
210.7516787423
 31
0.0
  0
LINE
  5
39F
330
1F
100
AcDbEntity
  8
0
  6
Continuous
 62
     7
370
    15
100
AcDbLine
 10
284.476075363
 20
211.1516787423
 30
0.0
 11
286.876075363
 21
211.1516787423
 31
0.0
  0
LINE
  5
3A0
330
1F
100
AcDbEntity
  8
0
  6
Continuous
 62
     7
370
    15
100
AcDbLine
 10
284.476075363
 20
210.7516787423
 30
0.0
 11
284.476075363
 21
211.1516787423
 31
0.0
  0
LINE
  5
3A1
330
1F
100
AcDbEntity
  8
0
  6
Continuous
 62
     7
370
    15
100
AcDbLine
 10
286.876075363
 20
209.9516787423
 30
0.0
 11
284.476075363
 21
209.9516787423
 31
0.0
  0
LINE
  5
3A2
330
1F
100
AcDbEntity
  8
0
  6
Continuous
 62
     7
370
    15
100
AcDbLine
 10
286.876075363
 20
210.3516787423
 30
0.0
 11
286.876075363
 21
209.9516787423
 31
0.0
  0
LINE
  5
3A3
330
1F
100
AcDbEntity
  8
0
  6
Continuous
 62
     7
370
    15
100
AcDbLine
 10
284.476075363
 20
210.3516787423
 30
0.0
 11
286.876075363
 21
210.3516787423
 31
0.0
  0
LINE
  5
3A4
330
1F
100
AcDbEntity
  8
0
  6
Continuous
 62
     7
370
    15
100
AcDbLine
 10
284.476075363
 20
209.9516787423
 30
0.0
 11
284.476075363
 21
210.3516787423
 31
0.0
  0
LINE
  5
3A5
330
1F
100
AcDbEntity
  8
0
  6
Continuous
 62
     7
370
    15
100
AcDbLine
 10
286.876075363
 20
209.1516787423
 30
0.0
 11
284.476075363
 21
209.1516787423
 31
0.0
  0
LINE
  5
3A6
330
1F
100
AcDbEntity
  8
0
  6
Continuous
 62
     7
370
    15
100
AcDbLine
 10
286.876075363
 20
209.5516787423
 30
0.0
 11
286.876075363
 21
209.1516787423
 31
0.0
  0
LINE
  5
3A7
330
1F
100
AcDbEntity
  8
0
  6
Continuous
 62
     7
370
    15
100
AcDbLine
 10
284.476075363
 20
209.5516787423
 30
0.0
 11
286.876075363
 21
209.5516787423
 31
0.0
  0
LINE
  5
3A8
330
1F
100
AcDbEntity
  8
0
  6
Continuous
 62
     7
370
    15
100
AcDbLine
 10
284.476075363
 20
209.1516787423
 30
0.0
 11
284.476075363
 21
209.5516787423
 31
0.0
  0
LINE
  5
3A9
330
1F
100
AcDbEntity
  8
0
  6
Continuous
 62
     7
370
    15
100
AcDbLine
 10
286.876075363
 20
208.3516787423
 30
0.0
 11
284.476075363
 21
208.3516787423
 31
0.0
  0
LINE
  5
3AA
330
1F
100
AcDbEntity
  8
0
  6
Continuous
 62
     7
370
    15
100
AcDbLine
 10
286.876075363
 20
208.7516787423
 30
0.0
 11
286.876075363
 21
208.3516787423
 31
0.0
  0
LINE
  5
3AB
330
1F
100
AcDbEntity
  8
0
  6
Continuous
 62
     7
370
    15
100
AcDbLine
 10
284.476075363
 20
208.7516787423
 30
0.0
 11
286.876075363
 21
208.7516787423
 31
0.0
  0
LINE
  5
3AC
330
1F
100
AcDbEntity
  8
0
  6
Continuous
 62
     7
370
    15
100
AcDbLine
 10
284.476075363
 20
208.3516787423
 30
0.0
 11
284.476075363
 21
208.7516787423
 31
0.0
  0
LINE
  5
3AD
330
1F
100
AcDbEntity
  8
0
  6
Continuous
 62
     7
370
    15
100
AcDbLine
 10
286.876075363
 20
207.5516787423
 30
0.0
 11
284.476075363
 21
207.5516787423
 31
0.0
  0
LINE
  5
3AE
330
1F
100
AcDbEntity
  8
0
  6
Continuous
 62
     7
370
    15
100
AcDbLine
 10
286.876075363
 20
207.9516787423
 30
0.0
 11
286.876075363
 21
207.5516787423
 31
0.0
  0
LINE
  5
3AF
330
1F
100
AcDbEntity
  8
0
  6
Continuous
 62
     7
370
    15
100
AcDbLine
 10
284.476075363
 20
207.9516787423
 30
0.0
 11
286.876075363
 21
207.9516787423
 31
0.0
  0
LINE
  5
3B0
330
1F
100
AcDbEntity
  8
0
  6
Continuous
 62
     7
370
    15
100
AcDbLine
 10
284.476075363
 20
207.5516787423
 30
0.0
 11
284.476075363
 21
207.9516787423
 31
0.0
  0
LINE
  5
3B1
330
1F
100
AcDbEntity
  8
0
  6
Continuous
 62
     7
370
    15
100
AcDbLine
 10
286.876075363
 20
206.7516787423
 30
0.0
 11
284.476075363
 21
206.7516787423
 31
0.0
  0
LINE
  5
3B2
330
1F
100
AcDbEntity
  8
0
  6
Continuous
 62
     7
370
    15
100
AcDbLine
 10
286.876075363
 20
207.1516787423
 30
0.0
 11
286.876075363
 21
206.7516787423
 31
0.0
  0
LINE
  5
3B3
330
1F
100
AcDbEntity
  8
0
  6
Continuous
 62
     7
370
    15
100
AcDbLine
 10
284.476075363
 20
207.1516787423
 30
0.0
 11
286.876075363
 21
207.1516787423
 31
0.0
  0
LINE
  5
3B4
330
1F
100
AcDbEntity
  8
0
  6
Continuous
 62
     7
370
    15
100
AcDbLine
 10
284.476075363
 20
206.7516787423
 30
0.0
 11
284.476075363
 21
207.1516787423
 31
0.0
  0
LINE
  5
3B5
330
1F
100
AcDbEntity
  8
0
  6
Continuous
 62
     7
370
    15
100
AcDbLine
 10
286.876075363
 20
205.9516787423
 30
0.0
 11
284.476075363
 21
205.9516787423
 31
0.0
  0
LINE
  5
3B6
330
1F
100
AcDbEntity
  8
0
  6
Continuous
 62
     7
370
    15
100
AcDbLine
 10
286.876075363
 20
206.3516787423
 30
0.0
 11
286.876075363
 21
205.9516787423
 31
0.0
  0
LINE
  5
3B7
330
1F
100
AcDbEntity
  8
0
  6
Continuous
 62
     7
370
    15
100
AcDbLine
 10
284.476075363
 20
206.3516787423
 30
0.0
 11
286.876075363
 21
206.3516787423
 31
0.0
  0
LINE
  5
3B8
330
1F
100
AcDbEntity
  8
0
  6
Continuous
 62
     7
370
    15
100
AcDbLine
 10
284.476075363
 20
205.9516787423
 30
0.0
 11
284.476075363
 21
206.3516787423
 31
0.0
  0
LINE
  5
3B9
330
1F
100
AcDbEntity
  8
0
  6
Continuous
 62
     7
370
    15
100
AcDbLine
 10
286.876075363
 20
205.1516787423
 30
0.0
 11
284.476075363
 21
205.1516787423
 31
0.0
  0
LINE
  5
3BA
330
1F
100
AcDbEntity
  8
0
  6
Continuous
 62
     7
370
    15
100
AcDbLine
 10
286.876075363
 20
205.5516787423
 30
0.0
 11
286.876075363
 21
205.1516787423
 31
0.0
  0
LINE
  5
3BB
330
1F
100
AcDbEntity
  8
0
  6
Continuous
 62
     7
370
    15
100
AcDbLine
 10
284.476075363
 20
205.5516787423
 30
0.0
 11
286.876075363
 21
205.5516787423
 31
0.0
  0
LINE
  5
3BC
330
1F
100
AcDbEntity
  8
0
  6
Continuous
 62
     7
370
    15
100
AcDbLine
 10
284.476075363
 20
205.1516787423
 30
0.0
 11
284.476075363
 21
205.5516787423
 31
0.0
  0
LINE
  5
3BD
330
1F
100
AcDbEntity
  8
0
  6
Continuous
 62
     7
370
    15
100
AcDbLine
 10
286.876075363
 20
204.3516787423
 30
0.0
 11
284.476075363
 21
204.3516787423
 31
0.0
  0
LINE
  5
3BE
330
1F
100
AcDbEntity
  8
0
  6
Continuous
 62
     7
370
    15
100
AcDbLine
 10
286.876075363
 20
204.7516787423
 30
0.0
 11
286.876075363
 21
204.3516787423
 31
0.0
  0
LINE
  5
3BF
330
1F
100
AcDbEntity
  8
0
  6
Continuous
 62
     7
370
    15
100
AcDbLine
 10
284.476075363
 20
204.7516787423
 30
0.0
 11
286.876075363
 21
204.7516787423
 31
0.0
  0
LINE
  5
3C0
330
1F
100
AcDbEntity
  8
0
  6
Continuous
 62
     7
370
    15
100
AcDbLine
 10
284.476075363
 20
204.3516787423
 30
0.0
 11
284.476075363
 21
204.7516787423
 31
0.0
  0
LINE
  5
3C1
330
1F
100
AcDbEntity
  8
0
  6
Continuous
 62
     7
370
    15
100
AcDbLine
 10
286.876075363
 20
203.5516787423
 30
0.0
 11
284.476075363
 21
203.5516787423
 31
0.0
  0
LINE
  5
3C2
330
1F
100
AcDbEntity
  8
0
  6
Continuous
 62
     7
370
    15
100
AcDbLine
 10
286.876075363
 20
203.9516787423
 30
0.0
 11
286.876075363
 21
203.5516787423
 31
0.0
  0
LINE
  5
3C3
330
1F
100
AcDbEntity
  8
0
  6
Continuous
 62
     7
370
    15
100
AcDbLine
 10
284.476075363
 20
203.9516787423
 30
0.0
 11
286.876075363
 21
203.9516787423
 31
0.0
  0
LINE
  5
3C4
330
1F
100
AcDbEntity
  8
0
  6
Continuous
 62
     7
370
    15
100
AcDbLine
 10
284.476075363
 20
203.5516787423
 30
0.0
 11
284.476075363
 21
203.9516787423
 31
0.0
  0
LINE
  5
3C5
330
1F
100
AcDbEntity
  8
0
  6
Continuous
 62
     7
370
    15
100
AcDbLine
 10
286.876075363
 20
202.7516787423
 30
0.0
 11
284.476075363
 21
202.7516787423
 31
0.0
  0
LINE
  5
3C6
330
1F
100
AcDbEntity
  8
0
  6
Continuous
 62
     7
370
    15
100
AcDbLine
 10
286.876075363
 20
203.1516787423
 30
0.0
 11
286.876075363
 21
202.7516787423
 31
0.0
  0
LINE
  5
3C7
330
1F
100
AcDbEntity
  8
0
  6
Continuous
 62
     7
370
    15
100
AcDbLine
 10
284.476075363
 20
203.1516787423
 30
0.0
 11
286.876075363
 21
203.1516787423
 31
0.0
  0
LINE
  5
3C8
330
1F
100
AcDbEntity
  8
0
  6
Continuous
 62
     7
370
    15
100
AcDbLine
 10
284.476075363
 20
202.7516787423
 30
0.0
 11
284.476075363
 21
203.1516787423
 31
0.0
  0
LINE
  5
3C9
330
1F
100
AcDbEntity
  8
0
  6
Continuous
 62
     7
370
    15
100
AcDbLine
 10
286.876075363
 20
201.9516787423
 30
0.0
 11
284.476075363
 21
201.9516787423
 31
0.0
  0
LINE
  5
3CA
330
1F
100
AcDbEntity
  8
0
  6
Continuous
 62
     7
370
    15
100
AcDbLine
 10
286.876075363
 20
202.3516787423
 30
0.0
 11
286.876075363
 21
201.9516787423
 31
0.0
  0
LINE
  5
3CB
330
1F
100
AcDbEntity
  8
0
  6
Continuous
 62
     7
370
    15
100
AcDbLine
 10
284.476075363
 20
202.3516787423
 30
0.0
 11
286.876075363
 21
202.3516787423
 31
0.0
  0
LINE
  5
3CC
330
1F
100
AcDbEntity
  8
0
  6
Continuous
 62
     7
370
    15
100
AcDbLine
 10
284.476075363
 20
201.9516787423
 30
0.0
 11
284.476075363
 21
202.3516787423
 31
0.0
  0
LINE
  5
3CD
330
1F
100
AcDbEntity
  8
0
  6
Continuous
 62
     7
370
    15
100
AcDbLine
 10
286.876075363
 20
201.1516787423
 30
0.0
 11
284.476075363
 21
201.1516787423
 31
0.0
  0
LINE
  5
3CE
330
1F
100
AcDbEntity
  8
0
  6
Continuous
 62
     7
370
    15
100
AcDbLine
 10
286.876075363
 20
201.5516787423
 30
0.0
 11
286.876075363
 21
201.1516787423
 31
0.0
  0
LINE
  5
3CF
330
1F
100
AcDbEntity
  8
0
  6
Continuous
 62
     7
370
    15
100
AcDbLine
 10
284.476075363
 20
201.5516787423
 30
0.0
 11
286.876075363
 21
201.5516787423
 31
0.0
  0
LINE
  5
3D0
330
1F
100
AcDbEntity
  8
0
  6
Continuous
 62
     7
370
    15
100
AcDbLine
 10
284.476075363
 20
201.1516787423
 30
0.0
 11
284.476075363
 21
201.5516787423
 31
0.0
  0
LINE
  5
3D1
330
1F
100
AcDbEntity
  8
0
  6
Continuous
 62
     7
370
    15
100
AcDbLine
 10
286.876075363
 20
200.3516787423
 30
0.0
 11
284.476075363
 21
200.3516787423
 31
0.0
  0
LINE
  5
3D2
330
1F
100
AcDbEntity
  8
0
  6
Continuous
 62
     7
370
    15
100
AcDbLine
 10
286.876075363
 20
200.7516787423
 30
0.0
 11
286.876075363
 21
200.3516787423
 31
0.0
  0
LINE
  5
3D3
330
1F
100
AcDbEntity
  8
0
  6
Continuous
 62
     7
370
    15
100
AcDbLine
 10
284.476075363
 20
200.7516787423
 30
0.0
 11
286.876075363
 21
200.7516787423
 31
0.0
  0
LINE
  5
3D4
330
1F
100
AcDbEntity
  8
0
  6
Continuous
 62
     7
370
    15
100
AcDbLine
 10
284.476075363
 20
200.3516787423
 30
0.0
 11
284.476075363
 21
200.7516787423
 31
0.0
  0
LINE
  5
3D5
330
1F
100
AcDbEntity
  8
0
  6
Continuous
 62
     7
370
    15
100
AcDbLine
 10
289.676075363
 20
230.7516787423
 30
0.0
 11
287.276075363
 21
230.7516787423
 31
0.0
  0
LINE
  5
3D6
330
1F
100
AcDbEntity
  8
0
  6
Continuous
 62
     7
370
    15
100
AcDbLine
 10
289.676075363
 20
231.1516787423
 30
0.0
 11
289.676075363
 21
230.7516787423
 31
0.0
  0
LINE
  5
3D7
330
1F
100
AcDbEntity
  8
0
  6
Continuous
 62
     7
370
    15
100
AcDbLine
 10
287.276075363
 20
231.1516787423
 30
0.0
 11
289.676075363
 21
231.1516787423
 31
0.0
  0
LINE
  5
3D8
330
1F
100
AcDbEntity
  8
0
  6
Continuous
 62
     7
370
    15
100
AcDbLine
 10
287.276075363
 20
230.7516787423
 30
0.0
 11
287.276075363
 21
231.1516787423
 31
0.0
  0
LINE
  5
3D9
330
1F
100
AcDbEntity
  8
0
  6
Continuous
 62
     7
370
    15
100
AcDbLine
 10
289.676075363
 20
229.9516787423
 30
0.0
 11
287.276075363
 21
229.9516787423
 31
0.0
  0
LINE
  5
3DA
330
1F
100
AcDbEntity
  8
0
  6
Continuous
 62
     7
370
    15
100
AcDbLine
 10
289.676075363
 20
230.3516787423
 30
0.0
 11
289.676075363
 21
229.9516787423
 31
0.0
  0
LINE
  5
3DB
330
1F
100
AcDbEntity
  8
0
  6
Continuous
 62
     7
370
    15
100
AcDbLine
 10
287.276075363
 20
230.3516787423
 30
0.0
 11
289.676075363
 21
230.3516787423
 31
0.0
  0
LINE
  5
3DC
330
1F
100
AcDbEntity
  8
0
  6
Continuous
 62
     7
370
    15
100
AcDbLine
 10
287.276075363
 20
229.9516787423
 30
0.0
 11
287.276075363
 21
230.3516787423
 31
0.0
  0
LINE
  5
3DD
330
1F
100
AcDbEntity
  8
0
  6
Continuous
 62
     7
370
    15
100
AcDbLine
 10
289.676075363
 20
229.1516787423
 30
0.0
 11
287.276075363
 21
229.1516787423
 31
0.0
  0
LINE
  5
3DE
330
1F
100
AcDbEntity
  8
0
  6
Continuous
 62
     7
370
    15
100
AcDbLine
 10
289.676075363
 20
229.5516787423
 30
0.0
 11
289.676075363
 21
229.1516787423
 31
0.0
  0
LINE
  5
3DF
330
1F
100
AcDbEntity
  8
0
  6
Continuous
 62
     7
370
    15
100
AcDbLine
 10
287.276075363
 20
229.5516787423
 30
0.0
 11
289.676075363
 21
229.5516787423
 31
0.0
  0
LINE
  5
3E0
330
1F
100
AcDbEntity
  8
0
  6
Continuous
 62
     7
370
    15
100
AcDbLine
 10
287.276075363
 20
229.1516787423
 30
0.0
 11
287.276075363
 21
229.5516787423
 31
0.0
  0
LINE
  5
3E1
330
1F
100
AcDbEntity
  8
0
  6
Continuous
 62
     7
370
    15
100
AcDbLine
 10
289.676075363
 20
228.3516787423
 30
0.0
 11
287.276075363
 21
228.3516787423
 31
0.0
  0
LINE
  5
3E2
330
1F
100
AcDbEntity
  8
0
  6
Continuous
 62
     7
370
    15
100
AcDbLine
 10
289.676075363
 20
228.7516787423
 30
0.0
 11
289.676075363
 21
228.3516787423
 31
0.0
  0
LINE
  5
3E3
330
1F
100
AcDbEntity
  8
0
  6
Continuous
 62
     7
370
    15
100
AcDbLine
 10
287.276075363
 20
228.7516787423
 30
0.0
 11
289.676075363
 21
228.7516787423
 31
0.0
  0
LINE
  5
3E4
330
1F
100
AcDbEntity
  8
0
  6
Continuous
 62
     7
370
    15
100
AcDbLine
 10
287.276075363
 20
228.3516787423
 30
0.0
 11
287.276075363
 21
228.7516787423
 31
0.0
  0
LINE
  5
3E5
330
1F
100
AcDbEntity
  8
0
  6
Continuous
 62
     7
370
    15
100
AcDbLine
 10
289.676075363
 20
227.5516787423
 30
0.0
 11
287.276075363
 21
227.5516787423
 31
0.0
  0
LINE
  5
3E6
330
1F
100
AcDbEntity
  8
0
  6
Continuous
 62
     7
370
    15
100
AcDbLine
 10
289.676075363
 20
227.9516787423
 30
0.0
 11
289.676075363
 21
227.5516787423
 31
0.0
  0
LINE
  5
3E7
330
1F
100
AcDbEntity
  8
0
  6
Continuous
 62
     7
370
    15
100
AcDbLine
 10
287.276075363
 20
227.9516787423
 30
0.0
 11
289.676075363
 21
227.9516787423
 31
0.0
  0
LINE
  5
3E8
330
1F
100
AcDbEntity
  8
0
  6
Continuous
 62
     7
370
    15
100
AcDbLine
 10
287.276075363
 20
227.5516787423
 30
0.0
 11
287.276075363
 21
227.9516787423
 31
0.0
  0
LINE
  5
3E9
330
1F
100
AcDbEntity
  8
0
  6
Continuous
 62
     7
370
    15
100
AcDbLine
 10
289.676075363
 20
226.7516787423
 30
0.0
 11
287.276075363
 21
226.7516787423
 31
0.0
  0
LINE
  5
3EA
330
1F
100
AcDbEntity
  8
0
  6
Continuous
 62
     7
370
    15
100
AcDbLine
 10
289.676075363
 20
227.1516787423
 30
0.0
 11
289.676075363
 21
226.7516787423
 31
0.0
  0
LINE
  5
3EB
330
1F
100
AcDbEntity
  8
0
  6
Continuous
 62
     7
370
    15
100
AcDbLine
 10
287.276075363
 20
227.1516787423
 30
0.0
 11
289.676075363
 21
227.1516787423
 31
0.0
  0
LINE
  5
3EC
330
1F
100
AcDbEntity
  8
0
  6
Continuous
 62
     7
370
    15
100
AcDbLine
 10
287.276075363
 20
226.7516787423
 30
0.0
 11
287.276075363
 21
227.1516787423
 31
0.0
  0
LINE
  5
3ED
330
1F
100
AcDbEntity
  8
0
  6
Continuous
 62
     7
370
    15
100
AcDbLine
 10
289.676075363
 20
225.9516787423
 30
0.0
 11
287.276075363
 21
225.9516787423
 31
0.0
  0
LINE
  5
3EE
330
1F
100
AcDbEntity
  8
0
  6
Continuous
 62
     7
370
    15
100
AcDbLine
 10
289.676075363
 20
226.3516787423
 30
0.0
 11
289.676075363
 21
225.9516787423
 31
0.0
  0
LINE
  5
3EF
330
1F
100
AcDbEntity
  8
0
  6
Continuous
 62
     7
370
    15
100
AcDbLine
 10
287.276075363
 20
226.3516787423
 30
0.0
 11
289.676075363
 21
226.3516787423
 31
0.0
  0
LINE
  5
3F0
330
1F
100
AcDbEntity
  8
0
  6
Continuous
 62
     7
370
    15
100
AcDbLine
 10
287.276075363
 20
225.9516787423
 30
0.0
 11
287.276075363
 21
226.3516787423
 31
0.0
  0
LINE
  5
3F1
330
1F
100
AcDbEntity
  8
0
  6
Continuous
 62
     7
370
    15
100
AcDbLine
 10
289.676075363
 20
225.1516787423
 30
0.0
 11
287.276075363
 21
225.1516787423
 31
0.0
  0
LINE
  5
3F2
330
1F
100
AcDbEntity
  8
0
  6
Continuous
 62
     7
370
    15
100
AcDbLine
 10
289.676075363
 20
225.5516787423
 30
0.0
 11
289.676075363
 21
225.1516787423
 31
0.0
  0
LINE
  5
3F3
330
1F
100
AcDbEntity
  8
0
  6
Continuous
 62
     7
370
    15
100
AcDbLine
 10
287.276075363
 20
225.5516787423
 30
0.0
 11
289.676075363
 21
225.5516787423
 31
0.0
  0
LINE
  5
3F4
330
1F
100
AcDbEntity
  8
0
  6
Continuous
 62
     7
370
    15
100
AcDbLine
 10
287.276075363
 20
225.1516787423
 30
0.0
 11
287.276075363
 21
225.5516787423
 31
0.0
  0
LINE
  5
3F5
330
1F
100
AcDbEntity
  8
0
  6
Continuous
 62
     7
370
    15
100
AcDbLine
 10
289.676075363
 20
224.3516787423
 30
0.0
 11
287.276075363
 21
224.3516787423
 31
0.0
  0
LINE
  5
3F6
330
1F
100
AcDbEntity
  8
0
  6
Continuous
 62
     7
370
    15
100
AcDbLine
 10
289.676075363
 20
224.7516787423
 30
0.0
 11
289.676075363
 21
224.3516787423
 31
0.0
  0
LINE
  5
3F7
330
1F
100
AcDbEntity
  8
0
  6
Continuous
 62
     7
370
    15
100
AcDbLine
 10
287.276075363
 20
224.7516787423
 30
0.0
 11
289.676075363
 21
224.7516787423
 31
0.0
  0
LINE
  5
3F8
330
1F
100
AcDbEntity
  8
0
  6
Continuous
 62
     7
370
    15
100
AcDbLine
 10
287.276075363
 20
224.3516787423
 30
0.0
 11
287.276075363
 21
224.7516787423
 31
0.0
  0
LINE
  5
3F9
330
1F
100
AcDbEntity
  8
0
  6
Continuous
 62
     7
370
    15
100
AcDbLine
 10
289.676075363
 20
223.5516787423
 30
0.0
 11
287.276075363
 21
223.5516787423
 31
0.0
  0
LINE
  5
3FA
330
1F
100
AcDbEntity
  8
0
  6
Continuous
 62
     7
370
    15
100
AcDbLine
 10
289.676075363
 20
223.9516787423
 30
0.0
 11
289.676075363
 21
223.5516787423
 31
0.0
  0
LINE
  5
3FB
330
1F
100
AcDbEntity
  8
0
  6
Continuous
 62
     7
370
    15
100
AcDbLine
 10
287.276075363
 20
223.9516787423
 30
0.0
 11
289.676075363
 21
223.9516787423
 31
0.0
  0
LINE
  5
3FC
330
1F
100
AcDbEntity
  8
0
  6
Continuous
 62
     7
370
    15
100
AcDbLine
 10
287.276075363
 20
223.5516787423
 30
0.0
 11
287.276075363
 21
223.9516787423
 31
0.0
  0
LINE
  5
3FD
330
1F
100
AcDbEntity
  8
0
  6
Continuous
 62
     7
370
    15
100
AcDbLine
 10
289.676075363
 20
222.7516787423
 30
0.0
 11
287.276075363
 21
222.7516787423
 31
0.0
  0
LINE
  5
3FE
330
1F
100
AcDbEntity
  8
0
  6
Continuous
 62
     7
370
    15
100
AcDbLine
 10
289.676075363
 20
223.1516787423
 30
0.0
 11
289.676075363
 21
222.7516787423
 31
0.0
  0
LINE
  5
3FF
330
1F
100
AcDbEntity
  8
0
  6
Continuous
 62
     7
370
    15
100
AcDbLine
 10
287.276075363
 20
223.1516787423
 30
0.0
 11
289.676075363
 21
223.1516787423
 31
0.0
  0
LINE
  5
400
330
1F
100
AcDbEntity
  8
0
  6
Continuous
 62
     7
370
    15
100
AcDbLine
 10
287.276075363
 20
222.7516787423
 30
0.0
 11
287.276075363
 21
223.1516787423
 31
0.0
  0
LINE
  5
401
330
1F
100
AcDbEntity
  8
0
  6
Continuous
 62
     7
370
    15
100
AcDbLine
 10
289.676075363
 20
221.9516787423
 30
0.0
 11
287.276075363
 21
221.9516787423
 31
0.0
  0
LINE
  5
402
330
1F
100
AcDbEntity
  8
0
  6
Continuous
 62
     7
370
    15
100
AcDbLine
 10
289.676075363
 20
222.3516787423
 30
0.0
 11
289.676075363
 21
221.9516787423
 31
0.0
  0
LINE
  5
403
330
1F
100
AcDbEntity
  8
0
  6
Continuous
 62
     7
370
    15
100
AcDbLine
 10
287.276075363
 20
222.3516787423
 30
0.0
 11
289.676075363
 21
222.3516787423
 31
0.0
  0
LINE
  5
404
330
1F
100
AcDbEntity
  8
0
  6
Continuous
 62
     7
370
    15
100
AcDbLine
 10
287.276075363
 20
221.9516787423
 30
0.0
 11
287.276075363
 21
222.3516787423
 31
0.0
  0
LINE
  5
405
330
1F
100
AcDbEntity
  8
0
  6
Continuous
 62
     7
370
    15
100
AcDbLine
 10
289.676075363
 20
221.1516787423
 30
0.0
 11
287.276075363
 21
221.1516787423
 31
0.0
  0
LINE
  5
406
330
1F
100
AcDbEntity
  8
0
  6
Continuous
 62
     7
370
    15
100
AcDbLine
 10
289.676075363
 20
221.5516787423
 30
0.0
 11
289.676075363
 21
221.1516787423
 31
0.0
  0
LINE
  5
407
330
1F
100
AcDbEntity
  8
0
  6
Continuous
 62
     7
370
    15
100
AcDbLine
 10
287.276075363
 20
221.5516787423
 30
0.0
 11
289.676075363
 21
221.5516787423
 31
0.0
  0
LINE
  5
408
330
1F
100
AcDbEntity
  8
0
  6
Continuous
 62
     7
370
    15
100
AcDbLine
 10
287.276075363
 20
221.1516787423
 30
0.0
 11
287.276075363
 21
221.5516787423
 31
0.0
  0
LINE
  5
409
330
1F
100
AcDbEntity
  8
0
  6
Continuous
 62
     7
370
    15
100
AcDbLine
 10
289.676075363
 20
220.3516787423
 30
0.0
 11
287.276075363
 21
220.3516787423
 31
0.0
  0
LINE
  5
40A
330
1F
100
AcDbEntity
  8
0
  6
Continuous
 62
     7
370
    15
100
AcDbLine
 10
289.676075363
 20
220.7516787423
 30
0.0
 11
289.676075363
 21
220.3516787423
 31
0.0
  0
LINE
  5
40B
330
1F
100
AcDbEntity
  8
0
  6
Continuous
 62
     7
370
    15
100
AcDbLine
 10
287.276075363
 20
220.7516787423
 30
0.0
 11
289.676075363
 21
220.7516787423
 31
0.0
  0
LINE
  5
40C
330
1F
100
AcDbEntity
  8
0
  6
Continuous
 62
     7
370
    15
100
AcDbLine
 10
287.276075363
 20
220.3516787423
 30
0.0
 11
287.276075363
 21
220.7516787423
 31
0.0
  0
LINE
  5
40D
330
1F
100
AcDbEntity
  8
0
  6
Continuous
 62
     7
370
    15
100
AcDbLine
 10
289.676075363
 20
219.5516787423
 30
0.0
 11
287.276075363
 21
219.5516787423
 31
0.0
  0
LINE
  5
40E
330
1F
100
AcDbEntity
  8
0
  6
Continuous
 62
     7
370
    15
100
AcDbLine
 10
289.676075363
 20
219.9516787423
 30
0.0
 11
289.676075363
 21
219.5516787423
 31
0.0
  0
LINE
  5
40F
330
1F
100
AcDbEntity
  8
0
  6
Continuous
 62
     7
370
    15
100
AcDbLine
 10
287.276075363
 20
219.9516787423
 30
0.0
 11
289.676075363
 21
219.9516787423
 31
0.0
  0
LINE
  5
410
330
1F
100
AcDbEntity
  8
0
  6
Continuous
 62
     7
370
    15
100
AcDbLine
 10
287.276075363
 20
219.5516787423
 30
0.0
 11
287.276075363
 21
219.9516787423
 31
0.0
  0
LINE
  5
411
330
1F
100
AcDbEntity
  8
0
  6
Continuous
 62
     7
370
    15
100
AcDbLine
 10
289.676075363
 20
218.7516787423
 30
0.0
 11
287.276075363
 21
218.7516787423
 31
0.0
  0
LINE
  5
412
330
1F
100
AcDbEntity
  8
0
  6
Continuous
 62
     7
370
    15
100
AcDbLine
 10
289.676075363
 20
219.1516787423
 30
0.0
 11
289.676075363
 21
218.7516787423
 31
0.0
  0
LINE
  5
413
330
1F
100
AcDbEntity
  8
0
  6
Continuous
 62
     7
370
    15
100
AcDbLine
 10
287.276075363
 20
219.1516787423
 30
0.0
 11
289.676075363
 21
219.1516787423
 31
0.0
  0
LINE
  5
414
330
1F
100
AcDbEntity
  8
0
  6
Continuous
 62
     7
370
    15
100
AcDbLine
 10
287.276075363
 20
218.7516787423
 30
0.0
 11
287.276075363
 21
219.1516787423
 31
0.0
  0
LINE
  5
415
330
1F
100
AcDbEntity
  8
0
  6
Continuous
 62
     7
370
    15
100
AcDbLine
 10
289.676075363
 20
217.9516787423
 30
0.0
 11
287.276075363
 21
217.9516787423
 31
0.0
  0
LINE
  5
416
330
1F
100
AcDbEntity
  8
0
  6
Continuous
 62
     7
370
    15
100
AcDbLine
 10
289.676075363
 20
218.3516787423
 30
0.0
 11
289.676075363
 21
217.9516787423
 31
0.0
  0
LINE
  5
417
330
1F
100
AcDbEntity
  8
0
  6
Continuous
 62
     7
370
    15
100
AcDbLine
 10
287.276075363
 20
218.3516787423
 30
0.0
 11
289.676075363
 21
218.3516787423
 31
0.0
  0
LINE
  5
418
330
1F
100
AcDbEntity
  8
0
  6
Continuous
 62
     7
370
    15
100
AcDbLine
 10
287.276075363
 20
217.9516787423
 30
0.0
 11
287.276075363
 21
218.3516787423
 31
0.0
  0
LINE
  5
419
330
1F
100
AcDbEntity
  8
0
  6
Continuous
 62
     7
370
    15
100
AcDbLine
 10
289.676075363
 20
217.1516787423
 30
0.0
 11
287.276075363
 21
217.1516787423
 31
0.0
  0
LINE
  5
41A
330
1F
100
AcDbEntity
  8
0
  6
Continuous
 62
     7
370
    15
100
AcDbLine
 10
289.676075363
 20
217.5516787423
 30
0.0
 11
289.676075363
 21
217.1516787423
 31
0.0
  0
LINE
  5
41B
330
1F
100
AcDbEntity
  8
0
  6
Continuous
 62
     7
370
    15
100
AcDbLine
 10
287.276075363
 20
217.5516787423
 30
0.0
 11
289.676075363
 21
217.5516787423
 31
0.0
  0
LINE
  5
41C
330
1F
100
AcDbEntity
  8
0
  6
Continuous
 62
     7
370
    15
100
AcDbLine
 10
287.276075363
 20
217.1516787423
 30
0.0
 11
287.276075363
 21
217.5516787423
 31
0.0
  0
LINE
  5
41D
330
1F
100
AcDbEntity
  8
0
  6
Continuous
 62
     7
370
    15
100
AcDbLine
 10
289.676075363
 20
216.3516787423
 30
0.0
 11
287.276075363
 21
216.3516787423
 31
0.0
  0
LINE
  5
41E
330
1F
100
AcDbEntity
  8
0
  6
Continuous
 62
     7
370
    15
100
AcDbLine
 10
289.676075363
 20
216.7516787423
 30
0.0
 11
289.676075363
 21
216.3516787423
 31
0.0
  0
LINE
  5
41F
330
1F
100
AcDbEntity
  8
0
  6
Continuous
 62
     7
370
    15
100
AcDbLine
 10
287.276075363
 20
216.7516787423
 30
0.0
 11
289.676075363
 21
216.7516787423
 31
0.0
  0
LINE
  5
420
330
1F
100
AcDbEntity
  8
0
  6
Continuous
 62
     7
370
    15
100
AcDbLine
 10
287.276075363
 20
216.3516787423
 30
0.0
 11
287.276075363
 21
216.7516787423
 31
0.0
  0
LINE
  5
421
330
1F
100
AcDbEntity
  8
0
  6
Continuous
 62
     7
370
    15
100
AcDbLine
 10
289.676075363
 20
215.5516787423
 30
0.0
 11
287.276075363
 21
215.5516787423
 31
0.0
  0
LINE
  5
422
330
1F
100
AcDbEntity
  8
0
  6
Continuous
 62
     7
370
    15
100
AcDbLine
 10
289.676075363
 20
215.9516787423
 30
0.0
 11
289.676075363
 21
215.5516787423
 31
0.0
  0
LINE
  5
423
330
1F
100
AcDbEntity
  8
0
  6
Continuous
 62
     7
370
    15
100
AcDbLine
 10
287.276075363
 20
215.9516787423
 30
0.0
 11
289.676075363
 21
215.9516787423
 31
0.0
  0
LINE
  5
424
330
1F
100
AcDbEntity
  8
0
  6
Continuous
 62
     7
370
    15
100
AcDbLine
 10
287.276075363
 20
215.5516787423
 30
0.0
 11
287.276075363
 21
215.9516787423
 31
0.0
  0
LINE
  5
425
330
1F
100
AcDbEntity
  8
0
  6
Continuous
 62
     7
370
    15
100
AcDbLine
 10
289.676075363
 20
214.7516787423
 30
0.0
 11
287.276075363
 21
214.7516787423
 31
0.0
  0
LINE
  5
426
330
1F
100
AcDbEntity
  8
0
  6
Continuous
 62
     7
370
    15
100
AcDbLine
 10
289.676075363
 20
215.1516787423
 30
0.0
 11
289.676075363
 21
214.7516787423
 31
0.0
  0
LINE
  5
427
330
1F
100
AcDbEntity
  8
0
  6
Continuous
 62
     7
370
    15
100
AcDbLine
 10
287.276075363
 20
215.1516787423
 30
0.0
 11
289.676075363
 21
215.1516787423
 31
0.0
  0
LINE
  5
428
330
1F
100
AcDbEntity
  8
0
  6
Continuous
 62
     7
370
    15
100
AcDbLine
 10
287.276075363
 20
214.7516787423
 30
0.0
 11
287.276075363
 21
215.1516787423
 31
0.0
  0
LINE
  5
429
330
1F
100
AcDbEntity
  8
0
  6
Continuous
 62
     7
370
    15
100
AcDbLine
 10
289.676075363
 20
213.9516787423
 30
0.0
 11
287.276075363
 21
213.9516787423
 31
0.0
  0
LINE
  5
42A
330
1F
100
AcDbEntity
  8
0
  6
Continuous
 62
     7
370
    15
100
AcDbLine
 10
289.676075363
 20
214.3516787423
 30
0.0
 11
289.676075363
 21
213.9516787423
 31
0.0
  0
LINE
  5
42B
330
1F
100
AcDbEntity
  8
0
  6
Continuous
 62
     7
370
    15
100
AcDbLine
 10
287.276075363
 20
214.3516787423
 30
0.0
 11
289.676075363
 21
214.3516787423
 31
0.0
  0
LINE
  5
42C
330
1F
100
AcDbEntity
  8
0
  6
Continuous
 62
     7
370
    15
100
AcDbLine
 10
287.276075363
 20
213.9516787423
 30
0.0
 11
287.276075363
 21
214.3516787423
 31
0.0
  0
LINE
  5
42D
330
1F
100
AcDbEntity
  8
0
  6
Continuous
 62
     7
370
    15
100
AcDbLine
 10
289.676075363
 20
213.1516787423
 30
0.0
 11
287.276075363
 21
213.1516787423
 31
0.0
  0
LINE
  5
42E
330
1F
100
AcDbEntity
  8
0
  6
Continuous
 62
     7
370
    15
100
AcDbLine
 10
289.676075363
 20
213.5516787423
 30
0.0
 11
289.676075363
 21
213.1516787423
 31
0.0
  0
LINE
  5
42F
330
1F
100
AcDbEntity
  8
0
  6
Continuous
 62
     7
370
    15
100
AcDbLine
 10
287.276075363
 20
213.5516787423
 30
0.0
 11
289.676075363
 21
213.5516787423
 31
0.0
  0
LINE
  5
430
330
1F
100
AcDbEntity
  8
0
  6
Continuous
 62
     7
370
    15
100
AcDbLine
 10
287.276075363
 20
213.1516787423
 30
0.0
 11
287.276075363
 21
213.5516787423
 31
0.0
  0
LINE
  5
431
330
1F
100
AcDbEntity
  8
0
  6
Continuous
 62
     7
370
    15
100
AcDbLine
 10
289.676075363
 20
212.3516787423
 30
0.0
 11
287.276075363
 21
212.3516787423
 31
0.0
  0
LINE
  5
432
330
1F
100
AcDbEntity
  8
0
  6
Continuous
 62
     7
370
    15
100
AcDbLine
 10
289.676075363
 20
212.7516787423
 30
0.0
 11
289.676075363
 21
212.3516787423
 31
0.0
  0
LINE
  5
433
330
1F
100
AcDbEntity
  8
0
  6
Continuous
 62
     7
370
    15
100
AcDbLine
 10
287.276075363
 20
212.7516787423
 30
0.0
 11
289.676075363
 21
212.7516787423
 31
0.0
  0
LINE
  5
434
330
1F
100
AcDbEntity
  8
0
  6
Continuous
 62
     7
370
    15
100
AcDbLine
 10
287.276075363
 20
212.3516787423
 30
0.0
 11
287.276075363
 21
212.7516787423
 31
0.0
  0
LINE
  5
435
330
1F
100
AcDbEntity
  8
0
  6
Continuous
 62
     7
370
    15
100
AcDbLine
 10
289.676075363
 20
211.5516787423
 30
0.0
 11
287.276075363
 21
211.5516787423
 31
0.0
  0
LINE
  5
436
330
1F
100
AcDbEntity
  8
0
  6
Continuous
 62
     7
370
    15
100
AcDbLine
 10
289.676075363
 20
211.9516787423
 30
0.0
 11
289.676075363
 21
211.5516787423
 31
0.0
  0
LINE
  5
437
330
1F
100
AcDbEntity
  8
0
  6
Continuous
 62
     7
370
    15
100
AcDbLine
 10
287.276075363
 20
211.9516787423
 30
0.0
 11
289.676075363
 21
211.9516787423
 31
0.0
  0
LINE
  5
438
330
1F
100
AcDbEntity
  8
0
  6
Continuous
 62
     7
370
    15
100
AcDbLine
 10
287.276075363
 20
211.5516787423
 30
0.0
 11
287.276075363
 21
211.9516787423
 31
0.0
  0
LINE
  5
439
330
1F
100
AcDbEntity
  8
0
  6
Continuous
 62
     7
370
    15
100
AcDbLine
 10
289.676075363
 20
210.7516787423
 30
0.0
 11
287.276075363
 21
210.7516787423
 31
0.0
  0
LINE
  5
43A
330
1F
100
AcDbEntity
  8
0
  6
Continuous
 62
     7
370
    15
100
AcDbLine
 10
289.676075363
 20
211.1516787423
 30
0.0
 11
289.676075363
 21
210.7516787423
 31
0.0
  0
LINE
  5
43B
330
1F
100
AcDbEntity
  8
0
  6
Continuous
 62
     7
370
    15
100
AcDbLine
 10
287.276075363
 20
211.1516787423
 30
0.0
 11
289.676075363
 21
211.1516787423
 31
0.0
  0
LINE
  5
43C
330
1F
100
AcDbEntity
  8
0
  6
Continuous
 62
     7
370
    15
100
AcDbLine
 10
287.276075363
 20
210.7516787423
 30
0.0
 11
287.276075363
 21
211.1516787423
 31
0.0
  0
LINE
  5
43D
330
1F
100
AcDbEntity
  8
0
  6
Continuous
 62
     7
370
    15
100
AcDbLine
 10
289.676075363
 20
209.9516787423
 30
0.0
 11
287.276075363
 21
209.9516787423
 31
0.0
  0
LINE
  5
43E
330
1F
100
AcDbEntity
  8
0
  6
Continuous
 62
     7
370
    15
100
AcDbLine
 10
289.676075363
 20
210.3516787423
 30
0.0
 11
289.676075363
 21
209.9516787423
 31
0.0
  0
LINE
  5
43F
330
1F
100
AcDbEntity
  8
0
  6
Continuous
 62
     7
370
    15
100
AcDbLine
 10
287.276075363
 20
210.3516787423
 30
0.0
 11
289.676075363
 21
210.3516787423
 31
0.0
  0
LINE
  5
440
330
1F
100
AcDbEntity
  8
0
  6
Continuous
 62
     7
370
    15
100
AcDbLine
 10
287.276075363
 20
209.9516787423
 30
0.0
 11
287.276075363
 21
210.3516787423
 31
0.0
  0
LINE
  5
441
330
1F
100
AcDbEntity
  8
0
  6
Continuous
 62
     7
370
    15
100
AcDbLine
 10
289.676075363
 20
209.1516787423
 30
0.0
 11
287.276075363
 21
209.1516787423
 31
0.0
  0
LINE
  5
442
330
1F
100
AcDbEntity
  8
0
  6
Continuous
 62
     7
370
    15
100
AcDbLine
 10
289.676075363
 20
209.5516787423
 30
0.0
 11
289.676075363
 21
209.1516787423
 31
0.0
  0
LINE
  5
443
330
1F
100
AcDbEntity
  8
0
  6
Continuous
 62
     7
370
    15
100
AcDbLine
 10
287.276075363
 20
209.5516787423
 30
0.0
 11
289.676075363
 21
209.5516787423
 31
0.0
  0
LINE
  5
444
330
1F
100
AcDbEntity
  8
0
  6
Continuous
 62
     7
370
    15
100
AcDbLine
 10
287.276075363
 20
209.1516787423
 30
0.0
 11
287.276075363
 21
209.5516787423
 31
0.0
  0
LINE
  5
445
330
1F
100
AcDbEntity
  8
0
  6
Continuous
 62
     7
370
    15
100
AcDbLine
 10
289.676075363
 20
208.3516787423
 30
0.0
 11
287.276075363
 21
208.3516787423
 31
0.0
  0
LINE
  5
446
330
1F
100
AcDbEntity
  8
0
  6
Continuous
 62
     7
370
    15
100
AcDbLine
 10
289.676075363
 20
208.7516787423
 30
0.0
 11
289.676075363
 21
208.3516787423
 31
0.0
  0
LINE
  5
447
330
1F
100
AcDbEntity
  8
0
  6
Continuous
 62
     7
370
    15
100
AcDbLine
 10
287.276075363
 20
208.7516787423
 30
0.0
 11
289.676075363
 21
208.7516787423
 31
0.0
  0
LINE
  5
448
330
1F
100
AcDbEntity
  8
0
  6
Continuous
 62
     7
370
    15
100
AcDbLine
 10
287.276075363
 20
208.3516787423
 30
0.0
 11
287.276075363
 21
208.7516787423
 31
0.0
  0
LINE
  5
449
330
1F
100
AcDbEntity
  8
0
  6
Continuous
 62
     7
370
    15
100
AcDbLine
 10
289.676075363
 20
207.5516787423
 30
0.0
 11
287.276075363
 21
207.5516787423
 31
0.0
  0
LINE
  5
44A
330
1F
100
AcDbEntity
  8
0
  6
Continuous
 62
     7
370
    15
100
AcDbLine
 10
289.676075363
 20
207.9516787423
 30
0.0
 11
289.676075363
 21
207.5516787423
 31
0.0
  0
LINE
  5
44B
330
1F
100
AcDbEntity
  8
0
  6
Continuous
 62
     7
370
    15
100
AcDbLine
 10
287.276075363
 20
207.9516787423
 30
0.0
 11
289.676075363
 21
207.9516787423
 31
0.0
  0
LINE
  5
44C
330
1F
100
AcDbEntity
  8
0
  6
Continuous
 62
     7
370
    15
100
AcDbLine
 10
287.276075363
 20
207.5516787423
 30
0.0
 11
287.276075363
 21
207.9516787423
 31
0.0
  0
LINE
  5
44D
330
1F
100
AcDbEntity
  8
0
  6
Continuous
 62
     7
370
    15
100
AcDbLine
 10
289.676075363
 20
206.7516787423
 30
0.0
 11
287.276075363
 21
206.7516787423
 31
0.0
  0
LINE
  5
44E
330
1F
100
AcDbEntity
  8
0
  6
Continuous
 62
     7
370
    15
100
AcDbLine
 10
289.676075363
 20
207.1516787423
 30
0.0
 11
289.676075363
 21
206.7516787423
 31
0.0
  0
LINE
  5
44F
330
1F
100
AcDbEntity
  8
0
  6
Continuous
 62
     7
370
    15
100
AcDbLine
 10
287.276075363
 20
207.1516787423
 30
0.0
 11
289.676075363
 21
207.1516787423
 31
0.0
  0
LINE
  5
450
330
1F
100
AcDbEntity
  8
0
  6
Continuous
 62
     7
370
    15
100
AcDbLine
 10
287.276075363
 20
206.7516787423
 30
0.0
 11
287.276075363
 21
207.1516787423
 31
0.0
  0
LINE
  5
451
330
1F
100
AcDbEntity
  8
0
  6
Continuous
 62
     7
370
    15
100
AcDbLine
 10
289.676075363
 20
205.9516787423
 30
0.0
 11
287.276075363
 21
205.9516787423
 31
0.0
  0
LINE
  5
452
330
1F
100
AcDbEntity
  8
0
  6
Continuous
 62
     7
370
    15
100
AcDbLine
 10
289.676075363
 20
206.3516787423
 30
0.0
 11
289.676075363
 21
205.9516787423
 31
0.0
  0
LINE
  5
453
330
1F
100
AcDbEntity
  8
0
  6
Continuous
 62
     7
370
    15
100
AcDbLine
 10
287.276075363
 20
206.3516787423
 30
0.0
 11
289.676075363
 21
206.3516787423
 31
0.0
  0
LINE
  5
454
330
1F
100
AcDbEntity
  8
0
  6
Continuous
 62
     7
370
    15
100
AcDbLine
 10
287.276075363
 20
205.9516787423
 30
0.0
 11
287.276075363
 21
206.3516787423
 31
0.0
  0
LINE
  5
455
330
1F
100
AcDbEntity
  8
0
  6
Continuous
 62
     7
370
    15
100
AcDbLine
 10
289.676075363
 20
205.1516787423
 30
0.0
 11
287.276075363
 21
205.1516787423
 31
0.0
  0
LINE
  5
456
330
1F
100
AcDbEntity
  8
0
  6
Continuous
 62
     7
370
    15
100
AcDbLine
 10
289.676075363
 20
205.5516787423
 30
0.0
 11
289.676075363
 21
205.1516787423
 31
0.0
  0
LINE
  5
457
330
1F
100
AcDbEntity
  8
0
  6
Continuous
 62
     7
370
    15
100
AcDbLine
 10
287.276075363
 20
205.5516787423
 30
0.0
 11
289.676075363
 21
205.5516787423
 31
0.0
  0
LINE
  5
458
330
1F
100
AcDbEntity
  8
0
  6
Continuous
 62
     7
370
    15
100
AcDbLine
 10
287.276075363
 20
205.1516787423
 30
0.0
 11
287.276075363
 21
205.5516787423
 31
0.0
  0
LINE
  5
459
330
1F
100
AcDbEntity
  8
0
  6
Continuous
 62
     7
370
    15
100
AcDbLine
 10
289.676075363
 20
204.3516787423
 30
0.0
 11
287.276075363
 21
204.3516787423
 31
0.0
  0
LINE
  5
45A
330
1F
100
AcDbEntity
  8
0
  6
Continuous
 62
     7
370
    15
100
AcDbLine
 10
289.676075363
 20
204.7516787423
 30
0.0
 11
289.676075363
 21
204.3516787423
 31
0.0
  0
LINE
  5
45B
330
1F
100
AcDbEntity
  8
0
  6
Continuous
 62
     7
370
    15
100
AcDbLine
 10
287.276075363
 20
204.7516787423
 30
0.0
 11
289.676075363
 21
204.7516787423
 31
0.0
  0
LINE
  5
45C
330
1F
100
AcDbEntity
  8
0
  6
Continuous
 62
     7
370
    15
100
AcDbLine
 10
287.276075363
 20
204.3516787423
 30
0.0
 11
287.276075363
 21
204.7516787423
 31
0.0
  0
LINE
  5
45D
330
1F
100
AcDbEntity
  8
0
  6
Continuous
 62
     7
370
    15
100
AcDbLine
 10
289.676075363
 20
203.5516787423
 30
0.0
 11
287.276075363
 21
203.5516787423
 31
0.0
  0
LINE
  5
45E
330
1F
100
AcDbEntity
  8
0
  6
Continuous
 62
     7
370
    15
100
AcDbLine
 10
289.676075363
 20
203.9516787423
 30
0.0
 11
289.676075363
 21
203.5516787423
 31
0.0
  0
LINE
  5
45F
330
1F
100
AcDbEntity
  8
0
  6
Continuous
 62
     7
370
    15
100
AcDbLine
 10
287.276075363
 20
203.9516787423
 30
0.0
 11
289.676075363
 21
203.9516787423
 31
0.0
  0
LINE
  5
460
330
1F
100
AcDbEntity
  8
0
  6
Continuous
 62
     7
370
    15
100
AcDbLine
 10
287.276075363
 20
203.5516787423
 30
0.0
 11
287.276075363
 21
203.9516787423
 31
0.0
  0
LINE
  5
461
330
1F
100
AcDbEntity
  8
0
  6
Continuous
 62
     7
370
    15
100
AcDbLine
 10
289.676075363
 20
202.7516787423
 30
0.0
 11
287.276075363
 21
202.7516787423
 31
0.0
  0
LINE
  5
462
330
1F
100
AcDbEntity
  8
0
  6
Continuous
 62
     7
370
    15
100
AcDbLine
 10
289.676075363
 20
203.1516787423
 30
0.0
 11
289.676075363
 21
202.7516787423
 31
0.0
  0
LINE
  5
463
330
1F
100
AcDbEntity
  8
0
  6
Continuous
 62
     7
370
    15
100
AcDbLine
 10
287.276075363
 20
203.1516787423
 30
0.0
 11
289.676075363
 21
203.1516787423
 31
0.0
  0
LINE
  5
464
330
1F
100
AcDbEntity
  8
0
  6
Continuous
 62
     7
370
    15
100
AcDbLine
 10
287.276075363
 20
202.7516787423
 30
0.0
 11
287.276075363
 21
203.1516787423
 31
0.0
  0
LINE
  5
465
330
1F
100
AcDbEntity
  8
0
  6
Continuous
 62
     7
370
    15
100
AcDbLine
 10
289.676075363
 20
201.9516787423
 30
0.0
 11
287.276075363
 21
201.9516787423
 31
0.0
  0
LINE
  5
466
330
1F
100
AcDbEntity
  8
0
  6
Continuous
 62
     7
370
    15
100
AcDbLine
 10
289.676075363
 20
202.3516787423
 30
0.0
 11
289.676075363
 21
201.9516787423
 31
0.0
  0
LINE
  5
467
330
1F
100
AcDbEntity
  8
0
  6
Continuous
 62
     7
370
    15
100
AcDbLine
 10
287.276075363
 20
202.3516787423
 30
0.0
 11
289.676075363
 21
202.3516787423
 31
0.0
  0
LINE
  5
468
330
1F
100
AcDbEntity
  8
0
  6
Continuous
 62
     7
370
    15
100
AcDbLine
 10
287.276075363
 20
201.9516787423
 30
0.0
 11
287.276075363
 21
202.3516787423
 31
0.0
  0
LINE
  5
469
330
1F
100
AcDbEntity
  8
0
  6
Continuous
 62
     7
370
    15
100
AcDbLine
 10
289.6680753629
 20
201.1516787423
 30
0.0
 11
287.276075363
 21
201.1516787423
 31
0.0
  0
LINE
  5
46A
330
1F
100
AcDbEntity
  8
0
  6
Continuous
 62
     7
370
    15
100
AcDbLine
 10
289.676075363
 20
201.5516787423
 30
0.0
 11
289.676075363
 21
201.2781138711
 31
0.0
  0
LINE
  5
46B
330
1F
100
AcDbEntity
  8
0
  6
Continuous
 62
     7
370
    15
100
AcDbLine
 10
287.276075363
 20
201.5516787423
 30
0.0
 11
289.676075363
 21
201.5516787423
 31
0.0
  0
LINE
  5
46C
330
1F
100
AcDbEntity
  8
0
  6
Continuous
 62
     7
370
    15
100
AcDbLine
 10
287.276075363
 20
201.1516787423
 30
0.0
 11
287.276075363
 21
201.5516787423
 31
0.0
  0
LINE
  5
46D
330
1F
100
AcDbEntity
  8
0
  6
Continuous
 62
     7
370
    15
100
AcDbLine
 10
289.6040753629
 20
200.3516787423
 30
0.0
 11
287.276075363
 21
200.3516787423
 31
0.0
  0
LINE
  5
46E
330
1F
100
AcDbEntity
  8
0
  6
Continuous
 62
     7
370
    15
100
AcDbLine
 10
287.276075363
 20
200.7516787423
 30
0.0
 11
289.6040753629
 21
200.7516787423
 31
0.0
  0
LINE
  5
46F
330
1F
100
AcDbEntity
  8
0
  6
Continuous
 62
     7
370
    15
100
AcDbLine
 10
287.276075363
 20
200.3516787423
 30
0.0
 11
287.276075363
 21
200.7516787423
 31
0.0
  0
LINE
  5
470
330
1F
100
AcDbEntity
  8
0
  6
Continuous
 62
     7
370
    15
100
AcDbLine
 10
287.276075363
 20
199.5516787423
 30
0.0
 11
287.276075363
 21
199.9516787423
 31
0.0
  0
LINE
  5
471
330
1F
100
AcDbEntity
  8
0
  6
Continuous
 62
     7
370
    15
100
AcDbLine
 10
289.676075363
 20
199.5516787423
 30
0.0
 11
287.276075363
 21
199.5516787423
 31
0.0
  0
LINE
  5
472
330
1F
100
AcDbEntity
  8
0
  6
Continuous
 62
     7
370
    15
100
AcDbLine
 10
289.676075363
 20
199.7772436135
 30
0.0
 11
289.676075363
 21
199.5516787423
 31
0.0
  0
LINE
  5
473
330
1F
100
AcDbEntity
  8
0
  6
Continuous
 62
     7
370
    15
100
AcDbLine
 10
287.276075363
 20
199.9516787423
 30
0.0
 11
289.6680753629
 21
199.9516787423
 31
0.0
  0
LINE
  5
474
330
1F
100
AcDbEntity
  8
0
  6
Continuous
 62
     7
370
    15
100
AcDbLine
 10
290.976075363
 20
232.4580218881
 30
0.0
 11
283.176075363
 21
232.4580218881
 31
0.0
  0
LWPOLYLINE
  5
475
330
1F
100
AcDbEntity
  8
0
  6
Continuous
 62
     7
370
    15
100
AcDbPolyline
 90
        6
 70
   128
 43
0.0
 10
283.176075363
 20
198.3573355966
 10
283.1184071021
 20
198.3789164379
 10
283.0680901054
 20
198.4005042942
 10
283.0315745311
 20
198.4220922117
 10
283.013527476
 20
198.4436801569
 10
283.012075363
 20
198.4516787423
  0
LINE
  5
476
330
1F
100
AcDbEntity
  8
0
  6
Continuous
 62
     7
370
    15
100
AcDbLine
 10
283.012075363
 20
198.4516787423
 30
0.0
 11
283.012075363
 21
232.3636787423
 31
0.0
  0
ARC
  5
477
330
1F
100
AcDbEntity
  8
0
  6
Continuous
 62
     7
370
    15
100
AcDbCircle
 10
283.2488479661
 20
232.1418036694
 30
0.0
 40
0.3244839188584934
100
AcDbArc
 50
102.960063012
 51
136.8603945012
  0
ARC
  5
478
330
1F
100
AcDbEntity
  8
0
  6
Continuous
 62
     7
370
    15
100
AcDbCircle
 10
283.176075363
 20
232.3636787423
 30
0.0
 40
0.164000000000101
100
AcDbArc
 50
90.0
 51
180.0
  0
LINE
  5
479
330
1F
100
AcDbEntity
  8
0
  6
Continuous
 62
     7
370
    15
100
AcDbLine
 10
283.176075363
 20
232.5276787423
 30
0.0
 11
283.176075363
 21
232.4636787423
 31
0.0
  0
ARC
  5
47A
330
1F
100
AcDbEntity
  8
0
  6
Continuous
 62
     7
370
    15
100
AcDbCircle
 10
283.1697644464
 20
232.3800623873
 30
0.0
 40
0.0838541740192475
100
AcDbArc
 50
85.68380332
 51
143.5221014776
  0
ARC
  5
47B
330
1F
100
AcDbEntity
  8
0
  6
Continuous
 62
     7
370
    15
100
AcDbCircle
 10
283.1698969772
 20
198.4353634978
 30
0.0
 40
0.083912518464283
100
AcDbArc
 50
216.1101620837
 51
274.2224457315
  0
LINE
  5
47C
330
1F
100
AcDbEntity
  8
0
  6
Continuous
 62
     7
370
    15
100
AcDbLine
 10
283.176075363
 20
198.2876787423
 30
0.0
 11
283.176075363
 21
198.3516787423
 31
0.0
  0
ARC
  5
47D
330
1F
100
AcDbEntity
  8
0
  6
Continuous
 62
     7
370
    15
100
AcDbCircle
 10
283.176075363
 20
198.4516787423
 30
0.0
 40
0.1640000000000441
100
AcDbArc
 50
180.0
 51
270.0
  0
LINE
  5
47E
330
1F
100
AcDbEntity
  8
0
  6
Continuous
 62
     7
370
    15
100
AcDbLine
 10
283.176075363
 20
232.5276787423
 30
0.0
 11
290.976075363
 21
232.5276787423
 31
0.0
  0
LINE
  5
47F
330
1F
100
AcDbEntity
  8
0
  6
Continuous
 62
     7
370
    15
100
AcDbLine
 10
283.176075363
 20
232.4636787423
 30
0.0
 11
290.976075363
 21
232.4636787423
 31
0.0
  0
ARC
  5
480
330
1F
100
AcDbEntity
  8
0
  6
Continuous
 62
     7
370
    15
100
AcDbCircle
 10
290.976075363
 20
232.6276787423
 30
0.0
 40
0.1000000000000227
100
AcDbArc
 50
270.0
 51
296.1038811216
  0
LWPOLYLINE
  5
481
330
1F
100
AcDbEntity
  8
0
  6
Continuous
 62
     7
370
    15
100
AcDbPolyline
 90
        3
 70
   128
 43
0.0
 10
290.976075363
 20
232.4636787423
 10
291.0080701758
 20
232.4668299563
 10
291.0200753629
 20
232.469691401
  0
LWPOLYLINE
  5
482
330
1F
100
AcDbEntity
  8
0
  6
Continuous
 62
     7
370
    15
100
AcDbPolyline
 90
        3
 70
   128
 43
0.0
 10
291.0200753629
 20
198.3456660836
 10
291.0080701758
 20
198.3485275283
 10
290.976075363
 20
198.3516787423
  0
ARC
  5
483
330
1F
100
AcDbEntity
  8
0
  6
Continuous
 62
     7
370
    15
100
AcDbCircle
 10
290.976075363
 20
198.1876787423
 30
0.0
 40
0.1000000000000003
100
AcDbArc
 50
63.8961188783
 51
90.0
  0
LINE
  5
484
330
1F
100
AcDbEntity
  8
0
  6
Continuous
 62
     7
370
    15
100
AcDbLine
 10
283.176075363
 20
198.2876787423
 30
0.0
 11
290.976075363
 21
198.2876787423
 31
0.0
  0
LINE
  5
485
330
1F
100
AcDbEntity
  8
0
  6
Continuous
 62
     7
370
    15
100
AcDbLine
 10
283.176075363
 20
198.3516787423
 30
0.0
 11
290.976075363
 21
198.3516787423
 31
0.0
  0
LINE
  5
486
330
1F
100
AcDbEntity
  8
0
  6
Continuous
 62
     7
370
    15
100
AcDbLine
 10
291.0200753629
 20
232.4636787423
 30
0.0
 11
290.976075363
 21
232.4636787423
 31
0.0
  0
LINE
  5
487
330
1F
100
AcDbEntity
  8
0
  6
Continuous
 62
     7
370
    15
100
AcDbLine
 10
284.376075363
 20
232.4580218881
 30
0.0
 11
284.376075363
 21
232.4636787423
 31
0.0
  0
LINE
  5
488
330
1F
100
AcDbEntity
  8
0
  6
Continuous
 62
     7
370
    15
100
AcDbLine
 10
284.376075363
 20
232.5636787423
 30
0.0
 11
284.376075363
 21
232.5276787423
 31
0.0
  0
LINE
  5
489
330
1F
100
AcDbEntity
  8
0
  6
Continuous
 62
     7
370
    15
100
AcDbLine
 10
290.980075363
 20
238.3436787423
 30
0.0
 11
284.376075363
 21
238.3436787423
 31
0.0
  0
LWPOLYLINE
  5
48A
330
1F
100
AcDbEntity
  8
0
  6
Continuous
 62
     7
370
    15
100
AcDbPolyline
 90
        3
 70
   128
 43
0.0
 10
291.0200753629
 20
238.3385980762
 10
291.0112898145
 20
238.3406043872
 10
290.980075363
 20
238.3436787423
  0
LINE
  5
48B
330
1F
100
AcDbEntity
  8
0
  6
Continuous
 62
     7
370
    15
100
AcDbLine
 10
284.212075363
 20
238.3436787423
 30
0.0
 11
284.376075363
 21
238.3436787423
 31
0.0
  0
LINE
  5
48C
330
1F
100
AcDbEntity
  8
0
  6
Continuous
 62
     7
370
    15
100
AcDbLine
 10
284.212075363
 20
232.5636787423
 30
0.0
 11
284.376075363
 21
232.5636787423
 31
0.0
  0
LINE
  5
48D
330
1F
100
AcDbEntity
  8
0
  6
Continuous
 62
     7
370
    15
100
AcDbLine
 10
284.212075363
 20
232.5636787423
 30
0.0
 11
284.212075363
 21
238.3436787423
 31
0.0
  0
LINE
  5
48E
330
1F
100
AcDbEntity
  8
0
  6
Continuous
 62
     7
370
    15
100
AcDbLine
 10
283.252075363
 20
232.4580218881
 30
0.0
 11
283.252075363
 21
232.4636787423
 31
0.0
  0
LINE
  5
48F
330
1F
100
AcDbEntity
  8
0
  6
Continuous
 62
     7
370
    15
100
AcDbLine
 10
284.2375051407
 20
232.4580218881
 30
0.0
 11
284.2420599774
 21
232.4636787423
 31
0.0
  0
LWPOLYLINE
  5
490
330
1F
100
AcDbEntity
  8
0
  6
Continuous
 62
     7
370
    15
100
AcDbPolyline
 90
        3
 70
   128
 43
0.0
 10
284.272075363
 20
232.5276787423
 10
284.2729241489
 20
232.5316839295
 10
284.276075363
 20
232.5636787423
  0
LWPOLYLINE
  5
491
330
1F
100
AcDbEntity
  8
0
  6
Continuous
 62
     7
370
    15
100
AcDbPolyline
 90
        3
 70
   128
 43
0.0
 10
284.2053705933
 20
232.5276787423
 10
284.210153891
 20
232.5441697101
 10
284.212075363
 20
232.5636787423
  0
LINE
  5
492
330
1F
100
AcDbEntity
  8
0
  6
Continuous
 62
     7
370
    15
100
AcDbLine
 10
283.012075363
 20
220.5276787423
 30
0.0
 11
282.996075363
 21
220.5276787423
 31
0.0
  0
LINE
  5
493
330
1F
100
AcDbEntity
  8
0
  6
Continuous
 62
     7
370
    15
100
AcDbLine
 10
283.012075363
 20
217.3276787423
 30
0.0
 11
282.996075363
 21
217.3276787423
 31
0.0
  0
LINE
  5
494
330
1F
100
AcDbEntity
  8
0
  6
Continuous
 62
     7
370
    15
100
AcDbLine
 10
282.996075363
 20
220.5276787423
 30
0.0
 11
282.996075363
 21
217.3276787423
 31
0.0
  0
LINE
  5
495
330
1F
100
AcDbEntity
  8
0
  6
Continuous
 62
     7
370
    15
100
AcDbLine
 10
283.012075363
 20
214.3676787423
 30
0.0
 11
282.996075363
 21
214.3676787423
 31
0.0
  0
LINE
  5
496
330
1F
100
AcDbEntity
  8
0
  6
Continuous
 62
     7
370
    15
100
AcDbLine
 10
282.996075363
 20
217.2476787423
 30
0.0
 11
282.996075363
 21
214.3676787423
 31
0.0
  0
LINE
  5
497
330
1F
100
AcDbEntity
  8
0
  6
Continuous
 62
     7
370
    15
100
AcDbLine
 10
283.012075363
 20
217.2476787423
 30
0.0
 11
282.996075363
 21
217.2476787423
 31
0.0
  0
LINE
  5
498
330
1F
100
AcDbEntity
  8
0
  6
Continuous
 62
     7
370
    15
100
AcDbLine
 10
287.7240753629
 20
252.2796787424
 30
0.0
 11
287.7240753629
 21
252.2716787424
 31
0.0
  0
LINE
  5
499
330
1F
100
AcDbEntity
  8
0
  6
Continuous
 62
     7
370
    15
100
AcDbLine
 10
285.8040753629
 20
252.2796787424
 30
0.0
 11
285.8040753629
 21
252.2716787424
 31
0.0
  0
LINE
  5
49A
330
1F
100
AcDbEntity
  8
0
  6
Continuous
 62
     7
370
    15
100
AcDbLine
 10
285.8040753629
 20
252.2796787424
 30
0.0
 11
287.7240753629
 21
252.2796787424
 31
0.0
  0
LINE
  5
49B
330
1F
100
AcDbEntity
  8
0
  6
Continuous
 62
     7
370
    15
100
AcDbLine
 10
285.9451327642
 20
252.2876787424
 30
0.0
 11
285.9451327642
 21
252.2796787424
 31
0.0
  0
LINE
  5
49C
330
1F
100
AcDbEntity
  8
0
  6
Continuous
 62
     7
370
    15
100
AcDbLine
 10
285.9451327642
 20
252.2876787424
 30
0.0
 11
286.0051327642
 21
252.2876787424
 31
0.0
  0
LINE
  5
49D
330
1F
100
AcDbEntity
  8
0
  6
Continuous
 62
     7
370
    15
100
AcDbLine
 10
286.0051327642
 20
252.2876787424
 30
0.0
 11
287.5651327642
 21
252.2876787424
 31
0.0
  0
LINE
  5
49E
330
1F
100
AcDbEntity
  8
0
  6
Continuous
 62
     7
370
    15
100
AcDbLine
 10
287.5651327642
 20
252.2876787424
 30
0.0
 11
287.5851327642
 21
252.2876787424
 31
0.0
  0
LINE
  5
49F
330
1F
100
AcDbEntity
  8
0
  6
Continuous
 62
     7
370
    15
100
AcDbLine
 10
283.004075363
 20
230.5276787423
 30
0.0
 11
283.012075363
 21
230.5276787423
 31
0.0
  0
LINE
  5
4A0
330
1F
100
AcDbEntity
  8
0
  6
Continuous
 62
     7
370
    15
100
AcDbLine
 10
283.004075363
 20
228.6076787423
 30
0.0
 11
283.004075363
 21
230.5276787423
 31
0.0
  0
LINE
  5
4A1
330
1F
100
AcDbEntity
  8
0
  6
Continuous
 62
     7
370
    15
100
AcDbLine
 10
283.004075363
 20
228.6076787423
 30
0.0
 11
283.012075363
 21
228.6076787423
 31
0.0
  0
LINE
  5
4A2
330
1F
100
AcDbEntity
  8
0
  6
Continuous
 62
     7
370
    15
100
AcDbLine
 10
282.996075363
 20
228.7487361436
 30
0.0
 11
283.004075363
 21
228.7487361436
 31
0.0
  0
LINE
  5
4A3
330
1F
100
AcDbEntity
  8
0
  6
Continuous
 62
     7
370
    15
100
AcDbLine
 10
282.996075363
 20
228.7487361436
 30
0.0
 11
282.996075363
 21
228.8087361436
 31
0.0
  0
LINE
  5
4A4
330
1F
100
AcDbEntity
  8
0
  6
Continuous
 62
     7
370
    15
100
AcDbLine
 10
282.996075363
 20
228.8087361436
 30
0.0
 11
282.996075363
 21
230.3687361436
 31
0.0
  0
LINE
  5
4A5
330
1F
100
AcDbEntity
  8
0
  6
Continuous
 62
     7
370
    15
100
AcDbLine
 10
282.996075363
 20
230.3687361436
 30
0.0
 11
282.996075363
 21
230.3887361436
 31
0.0
  0
LINE
  5
4A6
330
1F
100
AcDbEntity
  8
0
  6
Continuous
 62
     7
370
    15
100
AcDbLine
 10
283.012075363
 20
212.4476787423
 30
0.0
 11
283.004075363
 21
212.4476787423
 31
0.0
  0
LINE
  5
4A7
330
1F
100
AcDbEntity
  8
0
  6
Continuous
 62
     7
370
    15
100
AcDbLine
 10
283.004075363
 20
212.4476787423
 30
0.0
 11
283.004075363
 21
212.6876787423
 31
0.0
  0
LINE
  5
4A8
330
1F
100
AcDbEntity
  8
0
  6
Continuous
 62
     7
370
    15
100
AcDbLine
 10
283.004075363
 20
212.6876787423
 30
0.0
 11
283.004075363
 21
214.2076787423
 31
0.0
  0
LINE
  5
4A9
330
1F
100
AcDbEntity
  8
0
  6
Continuous
 62
     7
370
    15
100
AcDbLine
 10
283.004075363
 20
214.2076787423
 30
0.0
 11
283.004075363
 21
214.3676787423
 31
0.0
  0
LINE
  5
4AA
330
1F
100
AcDbEntity
  8
0
  6
Continuous
 62
     7
370
    15
100
AcDbLine
 10
283.003275363
 20
212.7011573713
 30
0.0
 11
283.004075363
 21
212.7011573713
 31
0.0
  0
LINE
  5
4AB
330
1F
100
AcDbEntity
  8
0
  6
Continuous
 62
     7
370
    15
100
AcDbLine
 10
283.003275363
 20
212.7011573713
 30
0.0
 11
283.003275363
 21
212.731467612
 31
0.0
  0
LINE
  5
4AC
330
1F
100
AcDbEntity
  8
0
  6
Continuous
 62
     7
370
    15
100
AcDbLine
 10
283.003275363
 20
212.731467612
 30
0.0
 11
283.004075363
 21
212.731467612
 31
0.0
  0
LINE
  5
4AD
330
1F
100
AcDbEntity
  8
0
  6
Continuous
 62
     7
370
    15
100
AcDbLine
 10
283.003275363
 20
213.275052423
 30
0.0
 11
283.004075363
 21
213.275052423
 31
0.0
  0
LINE
  5
4AE
330
1F
100
AcDbEntity
  8
0
  6
Continuous
 62
     7
370
    15
100
AcDbLine
 10
283.003275363
 20
213.2992190092
 30
0.0
 11
283.004075363
 21
213.2992190092
 31
0.0
  0
LINE
  5
4AF
330
1F
100
AcDbEntity
  8
0
  6
Continuous
 62
     7
370
    15
100
AcDbLine
 10
283.003275363
 20
213.275052423
 30
0.0
 11
283.003275363
 21
213.2992190092
 31
0.0
  0
LINE
  5
4B0
330
1F
100
AcDbEntity
  8
0
  6
Continuous
 62
     7
370
    15
100
AcDbLine
 10
283.003275363
 20
212.8454370645
 30
0.0
 11
283.004075363
 21
212.8454370645
 31
0.0
  0
LINE
  5
4B1
330
1F
100
AcDbEntity
  8
0
  6
Continuous
 62
     7
370
    15
100
AcDbLine
 10
283.003275363
 20
213.1254370645
 30
0.0
 11
283.003275363
 21
212.8454370645
 31
0.0
  0
LINE
  5
4B2
330
1F
100
AcDbEntity
  8
0
  6
Continuous
 62
     7
370
    15
100
AcDbLine
 10
283.003275363
 20
213.1254370645
 30
0.0
 11
283.004075363
 21
213.1254370645
 31
0.0
  0
LINE
  5
4B3
330
1F
100
AcDbEntity
  8
0
  6
Continuous
 62
     7
370
    15
100
AcDbLine
 10
283.003275363
 20
212.8382575773
 30
0.0
 11
283.004075363
 21
212.8382575773
 31
0.0
  0
LINE
  5
4B4
330
1F
100
AcDbEntity
  8
0
  6
Continuous
 62
     7
370
    15
100
AcDbLine
 10
283.003275363
 20
213.1326165517
 30
0.0
 11
283.004075363
 21
213.1326165517
 31
0.0
  0
LINE
  5
4B5
330
1F
100
AcDbEntity
  8
0
  6
Continuous
 62
     7
370
    15
100
AcDbLine
 10
283.003275363
 20
213.8958020589
 30
0.0
 11
283.003275363
 21
213.8793918025
 31
0.0
  0
LINE
  5
4B6
330
1F
100
AcDbEntity
  8
0
  6
Continuous
 62
     7
370
    15
100
AcDbLine
 10
283.003275363
 20
213.8793918025
 30
0.0
 11
283.004075363
 21
213.8793918025
 31
0.0
  0
LINE
  5
4B7
330
1F
100
AcDbEntity
  8
0
  6
Continuous
 62
     7
370
    15
100
AcDbLine
 10
283.003275363
 20
213.8958020589
 30
0.0
 11
283.004075363
 21
213.8958020589
 31
0.0
  0
LINE
  5
4B8
330
1F
100
AcDbEntity
  8
0
  6
Continuous
 62
     7
370
    15
100
AcDbLine
 10
283.003275363
 20
213.9614430845
 30
0.0
 11
283.004075363
 21
213.9614430845
 31
0.0
  0
LINE
  5
4B9
330
1F
100
AcDbEntity
  8
0
  6
Continuous
 62
     7
370
    15
100
AcDbLine
 10
283.003275363
 20
213.9614430845
 30
0.0
 11
283.003275363
 21
213.9450328281
 31
0.0
  0
LINE
  5
4BA
330
1F
100
AcDbEntity
  8
0
  6
Continuous
 62
     7
370
    15
100
AcDbLine
 10
283.003275363
 20
213.9450328281
 30
0.0
 11
283.004075363
 21
213.9450328281
 31
0.0
  0
LINE
  5
4BB
330
1F
100
AcDbEntity
  8
0
  6
Continuous
 62
     7
370
    15
100
AcDbLine
 10
283.003275363
 20
213.8014430845
 30
0.0
 11
283.004075363
 21
213.8014430845
 31
0.0
  0
LINE
  5
4BC
330
1F
100
AcDbEntity
  8
0
  6
Continuous
 62
     7
370
    15
100
AcDbLine
 10
283.003275363
 20
213.8178533409
 30
0.0
 11
283.004075363
 21
213.8178533409
 31
0.0
  0
LINE
  5
4BD
330
1F
100
AcDbEntity
  8
0
  6
Continuous
 62
     7
370
    15
100
AcDbLine
 10
283.003275363
 20
213.8178533409
 30
0.0
 11
283.003275363
 21
213.8014430845
 31
0.0
  0
LINE
  5
4BE
330
1F
100
AcDbEntity
  8
0
  6
Continuous
 62
     7
370
    15
100
AcDbLine
 10
283.003275363
 20
213.8793918025
 30
0.0
 11
283.003275363
 21
213.8178533409
 31
0.0
  0
LINE
  5
4BF
330
1F
100
AcDbEntity
  8
0
  6
Continuous
 62
     7
370
    15
100
AcDbLine
 10
283.003275363
 20
213.9450328281
 30
0.0
 11
283.003275363
 21
213.8958020589
 31
0.0
  0
LINE
  5
4C0
330
1F
100
AcDbEntity
  8
0
  6
Continuous
 62
     7
370
    15
100
AcDbLine
 10
283.003275363
 20
213.2992190092
 30
0.0
 11
283.003275363
 21
213.7874422845
 31
0.0
  0
LINE
  5
4C1
330
1F
100
AcDbEntity
  8
0
  6
Continuous
 62
     7
370
    15
100
AcDbLine
 10
283.003275363
 20
213.964961614
 30
0.0
 11
283.003275363
 21
214.3676787423
 31
0.0
  0
LINE
  5
4C2
330
1F
100
AcDbEntity
  8
0
  6
Continuous
 62
     7
370
    15
100
AcDbLine
 10
291.1320753629
 20
250.9916787423
 30
0.0
 11
291.1320753629
 21
250.9983575313
 31
0.0
  0
LINE
  5
4C3
330
1F
100
AcDbEntity
  8
0
  6
Continuous
 62
     7
370
    15
100
AcDbLine
 10
282.996075363
 20
226.4476787423
 30
0.0
 11
282.996075363
 21
221.0076787423
 31
0.0
  0
LINE
  5
4C4
330
1F
100
AcDbEntity
  8
0
  6
Continuous
 62
     7
370
    15
100
AcDbLine
 10
283.012075363
 20
226.5276787423
 30
0.0
 11
282.996075363
 21
226.5276787423
 31
0.0
  0
LINE
  5
4C5
330
1F
100
AcDbEntity
  8
0
  6
Continuous
 62
     7
370
    15
100
AcDbLine
 10
282.996075363
 20
226.5276787423
 30
0.0
 11
282.996075363
 21
226.4476787423
 31
0.0
  0
LINE
  5
4C6
330
1F
100
AcDbEntity
  8
0
  6
Continuous
 62
     7
370
    15
100
AcDbLine
 10
283.012075363
 20
220.9276787423
 30
0.0
 11
282.996075363
 21
220.9276787423
 31
0.0
  0
LINE
  5
4C7
330
1F
100
AcDbEntity
  8
0
  6
Continuous
 62
     7
370
    15
100
AcDbLine
 10
282.996075363
 20
221.0076787423
 30
0.0
 11
282.996075363
 21
220.9276787423
 31
0.0
  0
ARC
  5
4C8
330
1F
100
AcDbEntity
  8
0
  6
Continuous
 62
     7
370
    15
100
AcDbCircle
 10
286.916075363
 20
228.9436787423
 30
0.0
 40
0.3999999999999626
100
AcDbArc
 50
208.6854020186
 51
264.2608295157
  0
ARC
  5
4C9
330
1F
100
AcDbEntity
  8
0
  6
Continuous
 62
     7
370
    15
100
AcDbCircle
 10
302.8840753629
 20
196.2076787423
 30
0.0
 40
0.160000000000025
100
AcDbArc
 50
180.0
 51
270.0
  0
LINE
  5
4CA
330
1F
100
AcDbEntity
  8
0
  6
Continuous
 62
     7
370
    15
100
AcDbLine
 10
302.7240753629
 20
196.3436787423
 30
0.0
 11
302.7240753629
 21
196.2076787423
 31
0.0
  0
LINE
  5
4CB
330
1F
100
AcDbEntity
  8
0
  6
Continuous
 62
     7
370
    15
100
AcDbLine
 10
303.5240753629
 20
196.2076787423
 30
0.0
 11
303.5240753629
 21
196.3436787423
 31
0.0
  0
ARC
  5
4CC
330
1F
100
AcDbEntity
  8
0
  6
Continuous
 62
     7
370
    15
100
AcDbCircle
 10
303.3640753629
 20
196.2076787423
 30
0.0
 40
0.1599999999999966
100
AcDbArc
 50
270.0
 51
0.0
  0
LINE
  5
4CD
330
1F
100
AcDbEntity
  8
0
  6
Continuous
 62
     7
370
    15
100
AcDbLine
 10
302.8840753629
 20
196.0476787423
 30
0.0
 11
303.3640753629
 21
196.0476787423
 31
0.0
  0
LINE
  5
4CE
330
1F
100
AcDbEntity
  8
0
  6
Continuous
 62
     7
370
    15
100
AcDbLine
 10
347.6280753629
 20
246.9546022744
 30
0.0
 11
347.6680753632
 21
246.971170817
 31
0.0
  0
LINE
  5
4CF
330
1F
100
AcDbEntity
  8
0
  6
Continuous
 62
     7
370
    15
100
AcDbLine
 10
347.6280753629
 20
243.7756787423
 30
0.0
 11
347.6680753632
 21
243.7756787423
 31
0.0
  0
LINE
  5
4D0
330
1F
100
AcDbEntity
  8
0
  6
Continuous
 62
     7
370
    15
100
AcDbLine
 10
347.6280753629
 20
248.7298721088
 30
0.0
 11
347.6680753632
 21
248.7698721091
 31
0.0
  0
LINE
  5
4D1
330
1F
100
AcDbEntity
  8
0
  6
Continuous
 62
     7
370
    15
100
AcDbLine
 10
347.6280753629
 20
246.9939933107
 30
0.0
 11
347.6680753632
 21
247.0105618533
 31
0.0
  0
LINE
  5
4D2
330
1F
100
AcDbEntity
  8
0
  6
Continuous
 62
     7
370
    15
100
AcDbLine
 10
347.6280753629
 20
248.7461884103
 30
0.0
 11
347.6680753632
 21
248.7861884106
 31
0.0
  0
LINE
  5
4D3
330
1F
100
AcDbEntity
  8
0
  6
Continuous
 62
     7
370
    15
100
AcDbLine
 10
347.6280753629
 20
241.9116787423
 30
0.0
 11
347.6680753632
 21
241.9116787423
 31
0.0
  0
LINE
  5
4D4
330
1F
100
AcDbEntity
  8
0
  6
Continuous
 62
     7
370
    15
100
AcDbLine
 10
347.6680753632
 20
243.1516787423
 30
0.0
 11
347.6280753629
 21
243.1516787423
 31
0.0
  0
LINE
  5
4D5
330
1F
100
AcDbEntity
  8
0
  6
Continuous
 62
     7
370
    15
100
AcDbLine
 10
348.0281321846
 20
239.0316787423
 30
0.0
 11
348.0280753629
 21
239.0260380963
 31
0.0
  0
LINE
  5
4D6
330
1F
100
AcDbEntity
  8
0
  6
Continuous
 62
     7
370
    15
100
AcDbLine
 10
348.1882080066
 20
239.0316787423
 30
0.0
 11
348.1880753629
 21
239.0260380963
 31
0.0
  0
LINE
  5
4D7
330
1F
100
AcDbEntity
  8
0
  6
Continuous
 62
     7
370
    15
100
AcDbLine
 10
348.1880753629
 20
238.7298222707
 30
0.0
 11
348.1880753629
 21
239.0260380963
 31
0.0
  0
LINE
  5
4D8
330
1F
100
AcDbEntity
  8
0
  6
Continuous
 62
     7
370
    15
100
AcDbLine
 10
348.0280753629
 20
237.7060380963
 30
0.0
 11
348.0280753629
 21
239.0260380963
 31
0.0
  0
LINE
  5
4D9
330
1F
100
AcDbEntity
  8
0
  6
Continuous
 62
     7
370
    15
100
AcDbLine
 10
348.0280753629
 20
237.5460380963
 30
0.0
 11
348.1000753629
 21
237.5460380963
 31
0.0
  0
LINE
  5
4DA
330
1F
100
AcDbEntity
  8
0
  6
Continuous
 62
     7
370
    15
100
AcDbLine
 10
348.0280753629
 20
237.5460380963
 30
0.0
 11
348.0280753629
 21
237.7060380963
 31
0.0
  0
LINE
  5
4DB
330
1F
100
AcDbEntity
  8
0
  6
Continuous
 62
     7
370
    15
100
AcDbLine
 10
349.6889367942
 20
239.1460380963
 30
0.0
 11
349.6514027712
 21
239.1460380963
 31
0.0
  0
LINE
  5
4DC
330
1F
100
AcDbEntity
  8
0
  6
Continuous
 62
     7
370
    15
100
AcDbLine
 10
347.7880753629
 20
239.1822632947
 30
0.0
 11
347.7880753629
 21
239.2482674873
 31
0.0
  0
LINE
  5
4DD
330
1F
100
AcDbEntity
  8
0
  6
Continuous
 62
     7
370
    15
100
AcDbLine
 10
348.3880753629
 20
239.3660380963
 30
0.0
 11
348.3880753629
 21
239.3476787423
 31
0.0
  0
LINE
  5
4DE
330
1F
100
AcDbEntity
  8
0
  6
Continuous
 62
     7
370
    15
100
AcDbLine
 10
348.3880753629
 20
239.7846647801
 30
0.0
 11
348.3880753629
 21
239.3660380963
 31
0.0
  0
LINE
  5
4DF
330
1F
100
AcDbEntity
  8
0
  6
Continuous
 62
     7
370
    15
100
AcDbLine
 10
349.9880753629
 20
239.614472828
 30
0.0
 11
349.9880753629
 21
239.7846647801
 31
0.0
  0
LINE
  5
4E0
330
1F
100
AcDbEntity
  8
0
  6
Continuous
 62
     7
370
    15
100
AcDbLine
 10
347.6280753629
 20
242.4516787423
 30
0.0
 11
347.6680753632
 21
242.4516787423
 31
0.0
  0
LINE
  5
4E1
330
1F
100
AcDbEntity
  8
0
  6
Continuous
 62
     7
370
    15
100
AcDbLine
 10
347.6280753629
 20
242.6116787423
 30
0.0
 11
347.6680753632
 21
242.6116787423
 31
0.0
  0
LINE
  5
4E2
330
1F
100
AcDbEntity
  8
0
  6
Continuous
 62
     7
370
    15
100
AcDbLine
 10
350.6275532797
 20
239.1476787423
 30
0.0
 11
350.6469988093
 21
239.1236787423
 31
0.0
  0
ARC
  5
4E3
330
1F
100
AcDbEntity
  8
0
  6
Continuous
 62
     7
370
    15
100
AcDbCircle
 10
350.1400753629
 20
238.9516787423
 30
0.0
 40
0.5200000000000068
100
AcDbArc
 50
49.6000136151
 51
130.3999863849
  0
LINE
  5
4E4
330
1F
100
AcDbEntity
  8
0
  6
Continuous
 62
     7
370
    15
100
AcDbLine
 10
349.6331519165
 20
239.1236787423
 30
0.0
 11
349.6525974462
 21
239.1476787423
 31
0.0
  0
LINE
  5
4E5
330
1F
100
AcDbEntity
  8
0
  6
Continuous
 62
     7
370
    15
100
AcDbLine
 10
347.8600753629
 20
239.0316787423
 30
0.0
 11
349.163244427
 21
239.0316787423
 31
0.0
  0
ARC
  5
4E6
330
1F
100
AcDbEntity
  8
0
  6
Continuous
 62
     7
370
    15
100
AcDbCircle
 10
347.8600753629
 20
238.9116787423
 30
0.0
 40
0.1200000000000045
100
AcDbArc
 50
90.0
 51
180.0
  0
LINE
  5
4E7
330
1F
100
AcDbEntity
  8
0
  6
Continuous
 62
     7
370
    15
100
AcDbLine
 10
347.7400753629
 20
238.1516787423
 30
0.0
 11
347.7400753629
 21
238.9116787423
 31
0.0
  0
ARC
  5
4E8
330
1F
100
AcDbEntity
  8
0
  6
Continuous
 62
     7
370
    15
100
AcDbCircle
 10
347.8600753629
 20
238.9116787423
 30
0.0
 40
0.2800000000000038
100
AcDbArc
 50
90.0
 51
145.9522676301
  0
LINE
  5
4E9
330
1F
100
AcDbEntity
  8
0
  6
Continuous
 62
     7
370
    15
100
AcDbLine
 10
347.8762838094
 20
239.1916787423
 30
0.0
 11
347.8600753629
 21
239.1916787423
 31
0.0
  0
ARC
  5
4EA
330
1F
100
AcDbEntity
  8
0
  6
Continuous
 62
     7
370
    15
100
AcDbCircle
 10
350.1400753629
 20
238.9516787423
 30
0.0
 40
0.6800000000000299
100
AcDbArc
 50
35.616206729
 51
144.383793271
  0
LINE
  5
4EB
330
1F
100
AcDbEntity
  8
0
  6
Continuous
 62
     7
370
    15
100
AcDbLine
 10
352.1888975541
 20
239.0828565512
 30
0.0
 11
352.2251494052
 21
239.0960511459
 31
0.0
  0
LINE
  5
4EC
330
1F
100
AcDbEntity
  8
0
  6
Continuous
 62
     7
370
    15
100
AcDbLine
 10
347.6280753629
 20
238.1516787423
 30
0.0
 11
347.7400753629
 21
238.1516787423
 31
0.0
  0
LINE
  5
4ED
330
1F
100
AcDbEntity
  8
0
  6
Continuous
 62
     7
370
    15
100
AcDbLine
 10
352.5463032306
 20
239.3832100226
 30
0.0
 11
352.6010264535
 21
239.2328592032
 31
0.0
  0
LINE
  5
4EE
330
1F
100
AcDbEntity
  8
0
  6
Continuous
 62
     7
370
    15
100
AcDbLine
 10
352.1880753629
 20
239.2528257417
 30
0.0
 11
352.5463032306
 21
239.3832100226
 31
0.0
  0
LINE
  5
4EF
330
1F
100
AcDbEntity
  8
0
  6
Continuous
 62
     7
370
    15
100
AcDbLine
 10
352.6010264535
 20
239.2328592032
 30
0.0
 11
352.2251494052
 21
239.0960511459
 31
0.0
  0
LINE
  5
4F0
330
1F
100
AcDbEntity
  8
0
  6
Continuous
 62
     7
370
    15
100
AcDbLine
 10
347.7816834617
 20
237.2316787716
 30
0.0
 11
347.6280753629
 21
237.2316787715
 31
0.0
  0
LINE
  5
4F1
330
1F
100
AcDbEntity
  8
0
  6
Continuous
 62
     7
370
    15
100
AcDbLine
 10
347.7816834617
 20
207.151678713
 30
0.0
 11
347.6280753629
 21
207.1516787131
 31
0.0
  0
ARC
  5
4F2
330
1F
100
AcDbEntity
  8
0
  6
Continuous
 62
     7
370
    15
100
AcDbCircle
 10
347.7816834617
 20
237.0716787716
 30
0.0
 40
0.1600000000145266
100
AcDbArc
 50
42.6606860157
 51
90.0000000101
  0
ARC
  5
4F3
330
1F
100
AcDbEntity
  8
0
  6
Continuous
 62
     7
370
    15
100
AcDbCircle
 10
347.7816834617
 20
207.311678713
 30
0.0
 40
0.1600000000145074
100
AcDbArc
 50
269.9999999899
 51
317.3393139843
  0
LINE
  5
4F4
330
1F
100
AcDbEntity
  8
0
  6
Continuous
 62
     7
370
    15
100
AcDbLine
 10
347.8993442213
 20
237.1801036104
 30
0.0
 11
348.2040753629
 21
236.8494146528
 31
0.0
  0
LINE
  5
4F5
330
1F
100
AcDbEntity
  8
0
  6
Continuous
 62
     7
370
    15
100
AcDbLine
 10
347.8993442213
 20
207.2032538743
 30
0.0
 11
348.2040753629
 21
207.5339428319
 31
0.0
  0
LINE
  5
4F6
330
1F
100
AcDbEntity
  8
0
  6
Continuous
 62
     7
370
    15
100
AcDbLine
 10
347.8993442213
 20
207.2032539039
 30
0.0
 11
348.2040753629
 21
207.5339428616
 31
0.0
  0
LINE
  5
4F7
330
1F
100
AcDbEntity
  8
0
  6
Continuous
 62
     7
370
    15
100
AcDbLine
 10
347.7816834618
 20
207.1516787427
 30
0.0
 11
347.6280753629
 21
207.1516787427
 31
0.0
  0
LINE
  5
4F8
330
1F
100
AcDbEntity
  8
0
  6
Continuous
 62
     7
370
    15
100
AcDbLine
 10
347.6280753629
 20
237.231678742
 30
0.0
 11
347.7816834618
 21
237.231678742
 31
0.0
  0
LINE
  5
4F9
330
1F
100
AcDbEntity
  8
0
  6
Continuous
 62
     7
370
    15
100
AcDbLine
 10
348.2040753629
 20
236.849414623
 30
0.0
 11
347.8993442213
 21
237.1801035807
 31
0.0
  0
LWPOLYLINE
  5
4FA
330
1F
100
AcDbEntity
  8
0
  6
Continuous
 62
     7
370
    15
100
AcDbPolyline
 90
        3
 70
   128
 43
0.0
 10
347.491420355
 20
196.4643096714
 10
347.4996388548
 20
196.4721152504
 10
347.5074788838
 20
196.4803719557
  0
ARC
  5
4FB
330
1F
100
AcDbEntity
  8
0
  6
Continuous
 62
     7
370
    15
100
AcDbCircle
 10
348.239955484
 20
238.5678506741
 30
0.0
 40
0.1112219252894224
100
AcDbArc
 50
101.2258171331
 51
154.5309332827
  0
ARC
  5
4FC
330
1F
100
AcDbEntity
  8
0
  6
Continuous
 62
     7
370
    15
100
AcDbCircle
 10
348.2345288492
 20
197.2739234334
 30
0.0
 40
0.1039569348042313
100
AcDbArc
 50
203.9768328968
 51
259.7154394126
  0
LINE
  5
4FD
330
1F
100
AcDbEntity
  8
0
  6
Continuous
 62
     7
370
    15
100
AcDbLine
 10
348.1395423745
 20
197.2316787423
 30
0.0
 11
348.1395423745
 21
206.9636787423
 31
0.0
  0
LINE
  5
4FE
330
1F
100
AcDbEntity
  8
0
  6
Continuous
 62
     7
370
    15
100
AcDbLine
 10
348.1395423745
 20
237.6196787423
 30
0.0
 11
348.1395423745
 21
238.6156787423
 31
0.0
  0
ARC
  5
4FF
330
1F
100
AcDbEntity
  8
0
  6
Continuous
 62
     7
370
    15
100
AcDbCircle
 10
348.297153986
 20
238.6189716396
 30
0.0
 40
0.1576460061030116
100
AcDbArc
 50
95.1382378385
 51
181.1968767703
  0
ARC
  5
500
330
1F
100
AcDbEntity
  8
0
  6
Continuous
 62
     7
370
    15
100
AcDbCircle
 10
348.2996272186
 20
197.2282939488
 30
0.0
 40
0.1601206236506288
100
AcDbArc
 50
178.7887329852
 51
264.0522799263
  0
LINE
  5
501
330
1F
100
AcDbEntity
  8
0
  6
Continuous
 62
     7
370
    15
100
AcDbLine
 10
348.2830353656
 20
238.8836787423
 30
0.0
 11
348.2830353656
 21
238.7528336324
 31
0.0
  0
LINE
  5
502
330
1F
100
AcDbEntity
  8
0
  6
Continuous
 62
     7
370
    15
100
AcDbLine
 10
348.2830353656
 20
197.0931325601
 30
0.0
 11
348.2830353656
 21
196.9636787423
 31
0.0
  0
LINE
  5
503
330
1F
100
AcDbEntity
  8
0
  6
Continuous
 62
     7
370
    15
100
AcDbLine
 10
348.3480753629
 20
238.8836787423
 30
0.0
 11
348.2830353656
 21
238.8836787423
 31
0.0
  0
LINE
  5
504
330
1F
100
AcDbEntity
  8
0
  6
Continuous
 62
     7
370
    15
100
AcDbLine
 10
348.3480753629
 20
196.9636787423
 30
0.0
 11
348.2830353656
 21
196.9636787423
 31
0.0
  0
LINE
  5
505
330
1F
100
AcDbEntity
  8
0
  6
Continuous
 62
     7
370
    15
100
AcDbLine
 10
352.3498815987
 20
238.7196787423
 30
0.0
 11
352.3471385995
 21
238.7347476771
 31
0.0
  0
LWPOLYLINE
  5
506
330
1F
100
AcDbEntity
  8
0
  6
Continuous
 62
     7
370
    15
100
AcDbPolyline
 90
        3
 70
   128
 43
0.0
 10
352.3081668511
 20
197.0210432229
 10
352.3374447577
 20
197.0649186594
 10
352.3498815987
 20
197.1276787423
  0
LINE
  5
507
330
1F
100
AcDbEntity
  8
0
  6
Continuous
 62
     7
370
    15
100
AcDbLine
 10
352.3498815987
 20
197.1276787423
 30
0.0
 11
352.3498815987
 21
199.3636787423
 31
0.0
  0
LINE
  5
508
330
1F
100
AcDbEntity
  8
0
  6
Continuous
 62
     7
370
    15
100
AcDbLine
 10
352.3498815987
 20
204.1636787423
 30
0.0
 11
352.3498815987
 21
233.7031797473
 31
0.0
  0
LINE
  5
509
330
1F
100
AcDbEntity
  8
0
  6
Continuous
 62
     7
370
    15
100
AcDbLine
 10
352.3498815987
 20
236.0633735125
 30
0.0
 11
352.3498815987
 21
238.7196787423
 31
0.0
  0
LINE
  5
50A
330
1F
100
AcDbEntity
  8
0
  6
Continuous
 62
     7
370
    15
100
AcDbLine
 10
350.8680753629
 20
196.9236787423
 30
0.0
 11
352.2280753629
 21
196.9236787423
 31
0.0
  0
LINE
  5
50B
330
1F
100
AcDbEntity
  8
0
  6
Continuous
 62
     7
370
    15
100
AcDbLine
 10
350.8680753629
 20
196.8036787423
 30
0.0
 11
352.2280753629
 21
196.8036787423
 31
0.0
  0
LINE
  5
50C
330
1F
100
AcDbEntity
  8
0
  6
Continuous
 62
     7
370
    15
100
AcDbLine
 10
351.5480753629
 20
196.7636787423
 30
0.0
 11
352.1880753629
 21
196.7636787423
 31
0.0
  0
LINE
  5
50D
330
1F
100
AcDbEntity
  8
0
  6
Continuous
 62
     7
370
    15
100
AcDbLine
 10
352.1840753629
 20
196.9636787423
 30
0.0
 11
352.1880753629
 21
196.9636787423
 31
0.0
  0
LINE
  5
50E
330
1F
100
AcDbEntity
  8
0
  6
Continuous
 62
     7
370
    15
100
AcDbLine
 10
352.2280753629
 20
238.9236787423
 30
0.0
 11
350.8680753629
 21
238.9236787423
 31
0.0
  0
LINE
  5
50F
330
1F
100
AcDbEntity
  8
0
  6
Continuous
 62
     7
370
    15
100
AcDbLine
 10
352.2280753629
 20
239.0436787423
 30
0.0
 11
350.8680753629
 21
239.0436787423
 31
0.0
  0
LINE
  5
510
330
1F
100
AcDbEntity
  8
0
  6
Continuous
 62
     7
370
    15
100
AcDbLine
 10
352.1880753629
 20
238.8836787423
 30
0.0
 11
352.1840753629
 21
238.8836787423
 31
0.0
  0
LINE
  5
511
330
1F
100
AcDbEntity
  8
0
  6
Continuous
 62
     7
370
    15
100
AcDbLine
 10
351.5640753629
 20
238.8836787423
 30
0.0
 11
351.5640753629
 21
238.8996787423
 31
0.0
  0
LINE
  5
512
330
1F
100
AcDbEntity
  8
0
  6
Continuous
 62
     7
370
    15
100
AcDbLine
 10
351.5320753629
 20
238.8996787423
 30
0.0
 11
351.5640753629
 21
238.8996787423
 31
0.0
  0
LINE
  5
513
330
1F
100
AcDbEntity
  8
0
  6
Continuous
 62
     7
370
    15
100
AcDbLine
 10
351.5320753629
 20
238.8996787423
 30
0.0
 11
351.5320753629
 21
238.8836787423
 31
0.0
  0
LINE
  5
514
330
1F
100
AcDbEntity
  8
0
  6
Continuous
 62
     7
370
    15
100
AcDbLine
 10
352.1880753629
 20
239.0836787423
 30
0.0
 11
350.9080753629
 21
239.0836787423
 31
0.0
  0
LINE
  5
515
330
1F
100
AcDbEntity
  8
0
  6
Continuous
 62
     7
370
    15
100
AcDbLine
 10
355.1148457526
 20
233.7110639423
 30
0.0
 11
355.1065025278
 21
233.707795774
 31
0.0
  0
LINE
  5
516
330
1F
100
AcDbEntity
  8
0
  6
Continuous
 62
     7
370
    15
100
AcDbLine
 10
355.2060950334
 20
236.0476129209
 30
0.0
 11
355.2385654031
 21
236.0476228652
 31
0.0
  0
LWPOLYLINE
  5
517
330
1F
100
AcDbEntity
  8
0
  6
Continuous
 62
     7
370
    15
100
AcDbPolyline
 90
        5
 70
   128
 43
0.0
 10
355.583852913
 20
233.8090234584
 10
355.5724961798
 20
233.8127875268
 10
355.5471227022
 20
233.8189287845
 10
355.5471212426
 20
233.8189291324
 10
355.5471212426
 20
233.8189291324
  0
LINE
  5
518
330
1F
100
AcDbEntity
  8
0
  6
Continuous
 62
     7
370
    15
100
AcDbLine
 10
355.5846073722
 20
233.8052632459
 30
0.0
 11
355.5953889252
 21
233.8051999699
 31
0.0
  0
LINE
  5
519
330
1F
100
AcDbEntity
  8
0
  6
Continuous
 62
     7
370
    15
100
AcDbLine
 10
355.3001150294
 20
236.0363327031
 30
0.0
 11
355.1065025278
 21
236.0595617106
 31
0.0
  0
ARC
  5
51A
330
1F
100
AcDbEntity
  8
0
  6
Continuous
 62
     7
370
    15
100
AcDbCircle
 10
355.1377439788
 20
234.2530762198
 30
0.0
 40
0.546174690759128
100
AcDbArc
 50
266.7208644513
 51
349.5721769463
  0
LWPOLYLINE
  5
51B
330
1F
100
AcDbEntity
  8
0
  6
Continuous
 62
     7
370
    15
100
AcDbPolyline
 90
       10
 70
   128
 43
0.0
 10
355.6748978812
 20
234.1542203758
 10
355.7200819697
 20
234.1670164574
 10
355.884338069
 20
234.1683637339
 10
356.1799721937
 20
234.1682902036
 10
356.4324393031
 20
234.168237967
 10
356.6719999988
 20
234.1682003976
 10
356.7697876699
 20
234.1681942138
 10
356.8131731968
 20
234.1681957449
 10
356.8330057624
 20
234.1657520858
 10
356.849284492
 20
234.1501526774
  0
ARC
  5
51C
330
1F
100
AcDbEntity
  8
0
  6
Continuous
 62
     7
370
    15
100
AcDbCircle
 10
356.3011424835
 20
234.2632065111
 30
0.0
 40
0.5596792213483192
100
AcDbArc
 50
267.0406572984
 51
348.3462050805
  0
ARC
  5
51D
330
1F
100
AcDbEntity
  8
0
  6
Continuous
 62
     7
370
    15
100
AcDbCircle
 10
356.3011424835
 20
235.5041509734
 30
0.0
 40
0.5596792213485006
100
AcDbArc
 50
11.6537949195
 51
92.9593427016
  0
LWPOLYLINE
  5
51E
330
1F
100
AcDbEntity
  8
0
  6
Continuous
 62
     7
370
    15
100
AcDbPolyline
 90
        3
 70
   128
 43
0.0
 10
355.4907449982
 20
233.8363452717
 10
355.5138597332
 20
233.8275113511
 10
355.5953889252
 20
233.8051999699
  0
LINE
  5
51F
330
1F
100
AcDbEntity
  8
0
  6
Continuous
 62
     7
370
    15
100
AcDbLine
 10
356.8349656844
 20
235.629174565
 30
0.0
 11
356.849284492
 21
235.6172048072
 31
0.0
  0
LINE
  5
520
330
1F
100
AcDbEntity
  8
0
  6
Continuous
 62
     7
370
    15
100
AcDbLine
 10
356.849284492
 20
234.1501526774
 30
0.0
 11
356.8349643394
 21
234.1381829273
 31
0.0
  0
LWPOLYLINE
  5
521
330
1F
100
AcDbEntity
  8
0
  6
Continuous
 62
     7
370
    15
100
AcDbPolyline
 90
        3
 70
   128
 43
0.0
 10
355.0730453597
 20
233.707795774
 10
355.0949332654
 20
233.7189240023
 10
355.0965725297
 20
233.7193458255
  0
LINE
  5
522
330
1F
100
AcDbEntity
  8
0
  6
Continuous
 62
     7
370
    15
100
AcDbLine
 10
356.7758438754
 20
234.1382317353
 30
0.0
 11
356.790278652
 21
234.1501526774
 31
0.0
  0
LINE
  5
523
330
1F
100
AcDbEntity
  8
0
  6
Continuous
 62
     7
370
    15
100
AcDbLine
 10
355.0814277513
 20
233.7110596977
 30
0.0
 11
355.0730453597
 21
233.707795774
 31
0.0
  0
ARC
  5
524
330
1F
100
AcDbEntity
  8
0
  6
Continuous
 62
     7
370
    15
100
AcDbCircle
 10
349.244017413
 20
238.9636787491
 30
0.0
 40
0.160000228366422
100
AcDbArc
 50
154.8493776734
 51
180.0000024401
  0
LINE
  5
525
330
1F
100
AcDbEntity
  8
0
  6
Continuous
 62
     7
370
    15
100
AcDbLine
 10
349.0840171847
 20
238.9636787423
 30
0.0
 11
349.0840171847
 21
238.8836787423
 31
0.0
  0
LINE
  5
526
330
1F
100
AcDbEntity
  8
0
  6
Continuous
 62
     7
370
    15
100
AcDbLine
 10
349.3880753629
 20
239.1236787423
 30
0.0
 11
351.1480753629
 21
239.1236787423
 31
0.0
  0
ARC
  5
527
330
1F
100
AcDbEntity
  8
0
  6
Continuous
 62
     7
370
    15
100
AcDbCircle
 10
349.3080753629
 20
238.9636787423
 30
0.0
 40
0.160000000000025
100
AcDbArc
 50
90.0
 51
180.0
  0
LINE
  5
528
330
1F
100
AcDbEntity
  8
0
  6
Continuous
 62
     7
370
    15
100
AcDbLine
 10
349.3080753629
 20
239.1236787423
 30
0.0
 11
349.3880753629
 21
239.1236787423
 31
0.0
  0
LINE
  5
529
330
1F
100
AcDbEntity
  8
0
  6
Continuous
 62
     7
370
    15
100
AcDbLine
 10
349.1480753629
 20
238.9636787423
 30
0.0
 11
349.1480753629
 21
238.8836787423
 31
0.0
  0
LINE
  5
52A
330
1F
100
AcDbEntity
  8
0
  6
Continuous
 62
     7
370
    15
100
AcDbLine
 10
349.7177485684
 20
239.1236787423
 30
0.0
 11
349.7282468736
 21
239.1476787423
 31
0.0
  0
LINE
  5
52B
330
1F
100
AcDbEntity
  8
0
  6
Continuous
 62
     7
370
    15
100
AcDbLine
 10
349.7781774144
 20
239.1236787423
 30
0.0
 11
349.7886757384
 21
239.1476787423
 31
0.0
  0
ARC
  5
52C
330
1F
100
AcDbEntity
  8
0
  6
Continuous
 62
     7
370
    15
100
AcDbCircle
 10
350.2680753629
 20
238.9236787423
 30
0.0
 40
0.5291502622129265
100
AcDbArc
 50
88.7911584796
 51
126.7470437635
  0
LINE
  5
52D
330
1F
100
AcDbEntity
  8
0
  6
Continuous
 62
     7
370
    15
100
AcDbLine
 10
350.3950405927
 20
239.1176430627
 30
0.0
 11
350.3925747726
 21
239.1476787423
 31
0.0
  0
LINE
  5
52E
330
1F
100
AcDbEntity
  8
0
  6
Continuous
 62
     7
370
    15
100
AcDbLine
 10
350.1426371801
 20
239.1476787423
 30
0.0
 11
350.1419926239
 21
239.1236787423
 31
0.0
  0
LWPOLYLINE
  5
52F
330
1F
100
AcDbEntity
  8
0
  6
Continuous
 62
     7
370
    15
100
AcDbPolyline
 90
        3
 70
   128
 43
0.0
 10
350.2379855801
 20
239.6428074045
 10
350.1776599782
 20
239.6427989846
 10
350.0880865349
 20
239.6296884497
  0
LINE
  5
530
330
1F
100
AcDbEntity
  8
0
  6
Continuous
 62
     7
370
    15
100
AcDbLine
 10
349.6884503052
 20
239.1476787423
 30
0.0
 11
349.6878961648
 21
239.1236787423
 31
0.0
  0
LINE
  5
531
330
1F
100
AcDbEntity
  8
0
  6
Continuous
 62
     7
370
    15
100
AcDbLine
 10
350.2381368351
 20
239.6428161513
 30
0.0
 11
350.2081977734
 21
239.6436787423
 31
0.0
  0
LINE
  5
532
330
1F
100
AcDbEntity
  8
0
  6
Continuous
 62
     7
370
    15
100
AcDbLine
 10
350.2384163515
 20
239.6428322336
 30
0.0
 11
350.2087574691
 21
239.6436787423
 31
0.0
  0
LINE
  5
533
330
1F
100
AcDbEntity
  8
0
  6
Continuous
 62
     7
370
    15
100
AcDbLine
 10
350.2382659074
 20
239.6428235222
 30
0.0
 11
350.2084549309
 21
239.6436787423
 31
0.0
  0
LINE
  5
534
330
1F
100
AcDbEntity
  8
0
  6
Continuous
 62
     7
370
    15
100
AcDbLine
 10
350.3480753629
 20
239.1236787423
 30
0.0
 11
350.344390499
 21
239.1476787423
 31
0.0
  0
LINE
  5
535
330
1F
100
AcDbEntity
  8
0
  6
Continuous
 62
     7
370
    15
100
AcDbLine
 10
350.1917602268
 20
239.1476787423
 30
0.0
 11
350.1880753629
 21
239.1236787423
 31
0.0
  0
ARC
  5
536
330
1F
100
AcDbEntity
  8
0
  6
Continuous
 62
     7
370
    15
100
AcDbCircle
 10
350.2680753629
 20
239.1236787423
 30
0.0
 40
0.3999999999999879
100
AcDbArc
 50
121.2793792921
 51
145.944202254
  0
ARC
  5
537
330
1F
100
AcDbEntity
  8
0
  6
Continuous
 62
     7
370
    15
100
AcDbCircle
 10
350.2680753629
 20
239.1236787423
 30
0.0
 40
0.5200000000000505
100
AcDbArc
 50
25.5163873687
 51
102.4304605518
  0
LINE
  5
538
330
1F
100
AcDbEntity
  8
0
  6
Continuous
 62
     7
370
    15
100
AcDbLine
 10
349.7486295043
 20
239.1476787423
 30
0.0
 11
349.7480753629
 21
239.1236787423
 31
0.0
  0
LINE
  5
539
330
1F
100
AcDbEntity
  8
0
  6
Continuous
 62
     7
370
    15
100
AcDbLine
 10
352.3480753629
 20
204.1636787423
 30
0.0
 11
352.4600753629
 21
204.1636787423
 31
0.0
  0
LINE
  5
53A
330
1F
100
AcDbEntity
  8
0
  6
Continuous
 62
     7
370
    15
100
AcDbLine
 10
352.4600753629
 20
204.0041285119
 30
0.0
 11
352.4600753629
 21
204.1636787423
 31
0.0
  0
LINE
  5
53B
330
1F
100
AcDbEntity
  8
0
  6
Continuous
 62
     7
370
    15
100
AcDbLine
 10
352.4600753629
 20
199.3636787423
 30
0.0
 11
352.4600753629
 21
199.5231974087
 31
0.0
  0
LINE
  5
53C
330
1F
100
AcDbEntity
  8
0
  6
Continuous
 62
     7
370
    15
100
AcDbLine
 10
352.3480753629
 20
199.3636787423
 30
0.0
 11
352.4600753629
 21
199.3636787423
 31
0.0
  0
LINE
  5
53D
330
1F
100
AcDbEntity
  8
0
  6
Continuous
 62
     7
370
    15
100
AcDbLine
 10
352.4600753629
 20
199.5231974087
 30
0.0
 11
352.4600753629
 21
204.0041285119
 31
0.0
  0
LINE
  5
53E
330
1F
100
AcDbEntity
  8
0
  6
Continuous
 62
     7
370
    15
100
AcDbLine
 10
352.5720753629
 20
203.9606615016
 30
0.0
 11
352.5720753629
 21
199.5666959829
 31
0.0
  0
ARC
  5
53F
330
1F
100
AcDbEntity
  8
0
  6
Continuous
 62
     7
370
    15
100
AcDbCircle
 10
352.3320753629
 20
199.5666959829
 30
0.0
 40
0.2399999999998048
100
AcDbArc
 50
302.2309526355
 51
0.0
  0
ARC
  5
540
330
1F
100
AcDbEntity
  8
0
  6
Continuous
 62
     7
370
    15
100
AcDbCircle
 10
352.3320753629
 20
203.9606615016
 30
0.0
 40
0.2399999999999523
100
AcDbArc
 50
360.0
 51
57.7690473645
  0
LINE
  5
541
330
1F
100
AcDbEntity
  8
0
  6
Continuous
 62
     7
370
    15
100
AcDbLine
 10
348.2040753629
 20
197.2316787423
 30
0.0
 11
348.2040753629
 21
238.6156787423
 31
0.0
  0
ARC
  5
542
330
1F
100
AcDbEntity
  8
0
  6
Continuous
 62
     7
370
    15
100
AcDbCircle
 10
348.420118151
 20
238.4207528244
 30
0.0
 40
0.2909821296409541
100
AcDbArc
 50
104.3346462555
 51
137.9414512453
  0
ARC
  5
543
330
1F
100
AcDbEntity
  8
0
  6
Continuous
 62
     7
370
    15
100
AcDbCircle
 10
348.3697913997
 20
197.3436180047
 30
0.0
 40
0.1999805073611721
100
AcDbArc
 50
214.0385703059
 51
263.7659141301
  0
ARC
  5
544
330
1F
100
AcDbEntity
  8
0
  6
Continuous
 62
     7
370
    15
100
AcDbCircle
 10
348.3619127088
 20
238.6187860695
 30
0.0
 40
0.1578679297107981
100
AcDbArc
 50
95.0285084638
 51
181.1278302969
  0
ARC
  5
545
330
1F
100
AcDbEntity
  8
0
  6
Continuous
 62
     7
370
    15
100
AcDbCircle
 10
348.3500384084
 20
238.6447673916
 30
0.0
 40
0.0669508110576474
100
AcDbArc
 50
91.6801938995
 51
146.2999185126
  0
ARC
  5
546
330
1F
100
AcDbEntity
  8
0
  6
Continuous
 62
     7
370
    15
100
AcDbCircle
 10
348.364340468
 20
197.2284820868
 30
0.0
 40
0.1602969822218032
100
AcDbArc
 50
178.857327148
 51
264.1762566367
  0
ARC
  5
547
330
1F
100
AcDbEntity
  8
0
  6
Continuous
 62
     7
370
    15
100
AcDbCircle
 10
348.3502982205
 20
197.2028041437
 30
0.0
 40
0.0672219136299469
100
AcDbArc
 50
213.2870050433
 51
268.1050289437
  0
LINE
  5
548
330
1F
100
AcDbEntity
  8
0
  6
Continuous
 62
     7
370
    15
100
AcDbLine
 10
348.3480753629
 20
238.8836787423
 30
0.0
 11
348.3480753629
 21
196.9636787423
 31
0.0
  0
LINE
  5
549
330
1F
100
AcDbEntity
  8
0
  6
Continuous
 62
     7
370
    15
100
AcDbLine
 10
352.1840753629
 20
238.8836787423
 30
0.0
 11
348.3480753629
 21
238.8836787423
 31
0.0
  0
CIRCLE
  5
54A
330
1F
100
AcDbEntity
  8
0
  6
Continuous
 62
     7
370
    15
100
AcDbCircle
 10
349.9480753629
 20
217.9236787423
 30
0.0
 40
0.1280000000000427
  0
CIRCLE
  5
54B
330
1F
100
AcDbEntity
  8
0
  6
Continuous
 62
     7
370
    15
100
AcDbCircle
 10
349.9480753629
 20
199.3636787423
 30
0.0
 40
0.1280000000000427
  0
CIRCLE
  5
54C
330
1F
100
AcDbEntity
  8
0
  6
Continuous
 62
     7
370
    15
100
AcDbCircle
 10
349.9480753629
 20
236.4836787423
 30
0.0
 40
0.1279999999999859
  0
LINE
  5
54D
330
1F
100
AcDbEntity
  8
0
  6
Continuous
 62
     7
370
    15
100
AcDbLine
 10
352.1840753629
 20
196.9636787423
 30
0.0
 11
348.3480753629
 21
196.9636787423
 31
0.0
  0
ARC
  5
54E
330
1F
100
AcDbEntity
  8
0
  6
Continuous
 62
     7
370
    15
100
AcDbCircle
 10
352.0779267626
 20
197.2338273426
 30
0.0
 40
0.290254701218033
100
AcDbArc
 50
291.4511891471
 51
338.5488108529
  0
ARC
  5
54F
330
1F
100
AcDbEntity
  8
0
  6
Continuous
 62
     7
370
    15
100
AcDbCircle
 10
352.0779267626
 20
238.613530142
 30
0.0
 40
0.2902547012180443
100
AcDbArc
 50
21.4511891471
 51
68.5488108529
  0
LINE
  5
550
330
1F
100
AcDbEntity
  8
0
  6
Continuous
 62
     7
370
    15
100
AcDbLine
 10
352.3480753629
 20
238.7196787423
 30
0.0
 11
352.3480753629
 21
197.1276787423
 31
0.0
  0
ARC
  5
551
330
1F
100
AcDbEntity
  8
0
  6
Continuous
 62
     7
370
    15
100
AcDbCircle
 10
352.1840753629
 20
197.1276787423
 30
0.0
 40
0.1639999999999304
100
AcDbArc
 50
270.0000000001
 51
0.0
  0
ARC
  5
552
330
1F
100
AcDbEntity
  8
0
  6
Continuous
 62
     7
370
    15
100
AcDbCircle
 10
352.1840753629
 20
238.7196787423
 30
0.0
 40
0.1639999999999304
100
AcDbArc
 50
359.9999999999
 51
90.0
  0
LINE
  5
553
330
1F
100
AcDbEntity
  8
0
  6
Continuous
 62
     7
370
    15
100
AcDbLine
 10
348.2040753629
 20
206.9636787423
 30
0.0
 11
348.1000753629
 21
206.9636787423
 31
0.0
  0
LINE
  5
554
330
1F
100
AcDbEntity
  8
0
  6
Continuous
 62
     7
370
    15
100
AcDbLine
 10
348.1000753629
 20
237.6196787423
 30
0.0
 11
348.1000753629
 21
236.962273622
 31
0.0
  0
LINE
  5
555
330
1F
100
AcDbEntity
  8
0
  6
Continuous
 62
     7
370
    15
100
AcDbLine
 10
348.1000753629
 20
207.4210838626
 30
0.0
 11
348.1000753629
 21
206.9636787423
 31
0.0
  0
LINE
  5
556
330
1F
100
AcDbEntity
  8
0
  6
Continuous
 62
     7
370
    15
100
AcDbLine
 10
348.1000753629
 20
237.6196787423
 30
0.0
 11
348.2040753629
 21
237.6196787423
 31
0.0
  0
LINE
  5
557
330
1F
100
AcDbEntity
  8
0
  6
Continuous
 62
     7
370
    15
100
AcDbLine
 10
291.140075363
 20
250.9276787423
 30
0.0
 11
291.0897322172
 21
250.9276787423
 31
0.0
  0
ARC
  5
558
330
1F
100
AcDbEntity
  8
0
  6
Continuous
 62
     7
370
    15
100
AcDbCircle
 10
290.8678571442
 20
250.7549061391
 30
0.0
 40
0.3244839188583923
100
AcDbArc
 50
12.960063012
 51
46.8603945012
  0
LINE
  5
559
330
1F
100
AcDbEntity
  8
0
  6
Continuous
 62
     7
370
    15
100
AcDbLine
 10
341.0368753632
 20
250.9916787423
 30
0.0
 11
299.2760753632
 21
250.9916787423
 31
0.0
  0
LINE
  5
55A
330
1F
100
AcDbEntity
  8
0
  6
Continuous
 62
     7
370
    15
100
AcDbLine
 10
291.1640753632
 20
250.9916787423
 30
0.0
 11
291.0897322172
 21
250.9916787423
 31
0.0
  0
ARC
  5
55B
330
1F
100
AcDbEntity
  8
0
  6
Continuous
 62
     7
370
    15
100
AcDbCircle
 10
347.8234567854
 20
250.7498435908
 30
0.0
 40
0.3677136353163987
100
AcDbArc
 50
141.1909016854
 51
167.7795711935
  0
ARC
  5
55C
330
1F
100
AcDbEntity
  8
0
  6
Continuous
 62
     7
370
    15
100
AcDbCircle
 10
291.2225844563
 20
251.0843354998
 30
0.0
 40
0.25952965428998
100
AcDbArc
 50
218.7126179156
 51
261.4669245711
  0
LINE
  5
55D
330
1F
100
AcDbEntity
  8
0
  6
Continuous
 62
     7
370
    15
100
AcDbLine
 10
291.0840753629
 20
250.922021888
 30
0.0
 11
291.0200753629
 21
250.922021888
 31
0.0
  0
ARC
  5
55E
330
1F
100
AcDbEntity
  8
0
  6
Continuous
 62
     7
370
    15
100
AcDbCircle
 10
291.2420232719
 20
250.9892708257
 30
0.0
 40
0.1716681728669673
100
AcDbArc
 50
203.0626828577
 51
250.2718559955
  0
ARC
  5
55F
330
1F
100
AcDbEntity
  8
0
  6
Continuous
 62
     7
370
    15
100
AcDbCircle
 10
291.2225844563
 20
196.2510219848
 30
0.0
 40
0.2595296542897561
100
AcDbArc
 50
98.5330754289
 51
141.2873820844
  0
LINE
  5
560
330
1F
100
AcDbEntity
  8
0
  6
Continuous
 62
     7
370
    15
100
AcDbLine
 10
291.0200753629
 20
250.922021888
 30
0.0
 11
291.0200753629
 21
196.4133355965
 31
0.0
  0
ARC
  5
561
330
1F
100
AcDbEntity
  8
0
  6
Continuous
 62
     7
370
    15
100
AcDbCircle
 10
291.0221848232
 20
250.7694492602
 30
0.0
 40
0.1720442368823137
100
AcDbArc
 50
19.7828607001
 51
66.8826004467
  0
LINE
  5
562
330
1F
100
AcDbEntity
  8
0
  6
Continuous
 62
     7
370
    15
100
AcDbLine
 10
291.0897322172
 20
250.9916787423
 30
0.0
 11
291.0897322172
 21
250.9276787423
 31
0.0
  0
ARC
  5
563
330
1F
100
AcDbEntity
  8
0
  6
Continuous
 62
     7
370
    15
100
AcDbCircle
 10
347.7207321205
 20
196.5461878356
 30
0.0
 40
0.259529654289869
100
AcDbArc
 50
188.5330754289
 51
231.2873820844
  0
LINE
  5
564
330
1F
100
AcDbEntity
  8
0
  6
Continuous
 62
     7
370
    15
100
AcDbLine
 10
291.0897322172
 20
196.3436787423
 30
0.0
 11
347.5584185087
 21
196.3436787423
 31
0.0
  0
LWPOLYLINE
  5
565
330
1F
100
AcDbEntity
  8
0
  6
Continuous
 62
     7
370
    15
100
AcDbPolyline
 90
        6
 70
   128
 43
0.0
 10
291.1840753629
 20
196.5076787423
 10
291.162494472
 20
196.4500103546
 10
291.1409066156
 20
196.3996933827
 10
291.1193186982
 20
196.3631778463
 10
291.0977307529
 20
196.3451308374
 10
291.0897322172
 20
196.3436787423
  0
ARC
  5
566
330
1F
100
AcDbEntity
  8
0
  6
Continuous
 62
     7
370
    15
100
AcDbCircle
 10
291.2420232719
 20
196.3460866589
 30
0.0
 40
0.1716681728667056
100
AcDbArc
 50
109.7281440045
 51
156.9373171423
  0
LINE
  5
567
330
1F
100
AcDbEntity
  8
0
  6
Continuous
 62
     7
370
    15
100
AcDbLine
 10
291.0840753629
 20
196.4133355965
 30
0.0
 11
291.0200753629
 21
196.4133355965
 31
0.0
  0
ARC
  5
568
330
1F
100
AcDbEntity
  8
0
  6
Continuous
 62
     7
370
    15
100
AcDbCircle
 10
347.3913027598
 20
251.143896961
 30
0.0
 40
0.3244839188596428
100
AcDbArc
 50
282.9600630121
 51
316.8603945012
  0
LINE
  5
569
330
1F
100
AcDbEntity
  8
0
  6
Continuous
 62
     7
370
    15
100
AcDbLine
 10
347.6280753629
 20
196.4133355965
 30
0.0
 11
347.6280753629
 21
250.922021888
 31
0.0
  0
LWPOLYLINE
  5
56A
330
1F
100
AcDbEntity
  8
0
  6
Continuous
 62
     7
370
    15
100
AcDbPolyline
 90
        6
 70
   128
 43
0.0
 10
347.4640753629
 20
196.5076787423
 10
347.5217437506
 20
196.4860978514
 10
347.5720607225
 20
196.464509995
 10
347.6085762589
 20
196.4429220775
 10
347.6266232678
 20
196.4213341323
 10
347.6280753629
 20
196.4133355965
  0
LINE
  5
56B
330
1F
100
AcDbEntity
  8
0
  6
Continuous
 62
     7
370
    15
100
AcDbLine
 10
291.0897322172
 20
196.3436787423
 30
0.0
 11
291.0897322172
 21
196.4076787423
 31
0.0
  0
ARC
  5
56C
330
1F
100
AcDbEntity
  8
0
  6
Continuous
 62
     7
370
    15
100
AcDbCircle
 10
291.022720798
 20
196.5654025689
 30
0.0
 40
0.1713690047748393
100
AcDbArc
 50
293.0189664767
 51
340.3155723764
  0
ARC
  5
56D
330
1F
100
AcDbEntity
  8
0
  6
Continuous
 62
     7
370
    15
100
AcDbCircle
 10
347.4058458808
 20
250.989569282
 30
0.0
 40
0.1720442368823213
100
AcDbArc
 50
289.7828607001
 51
336.8826004467
  0
LINE
  5
56E
330
1F
100
AcDbEntity
  8
0
  6
Continuous
 62
     7
370
    15
100
AcDbLine
 10
347.5640753629
 20
250.922021888
 30
0.0
 11
347.6280753629
 21
250.922021888
 31
0.0
  0
LINE
  5
56F
330
1F
100
AcDbEntity
  8
0
  6
Continuous
 62
     7
370
    15
100
AcDbLine
 10
347.5584185087
 20
250.9276787423
 30
0.0
 11
347.5584185087
 21
250.9596787423
 31
0.0
  0
ARC
  5
570
330
1F
100
AcDbEntity
  8
0
  6
Continuous
 62
     7
370
    15
100
AcDbCircle
 10
347.6256674463
 20
250.7697308333
 30
0.0
 40
0.171668172866251
100
AcDbArc
 50
113.0626828576
 51
160.2718559955
  0
ARC
  5
571
330
1F
100
AcDbEntity
  8
0
  6
Continuous
 62
     7
370
    15
100
AcDbCircle
 10
347.6256674463
 20
196.5656266513
 30
0.0
 40
0.1716681728668088
100
AcDbArc
 50
199.7281440046
 51
246.9373171424
  0
LINE
  5
572
330
1F
100
AcDbEntity
  8
0
  6
Continuous
 62
     7
370
    15
100
AcDbLine
 10
347.5584185087
 20
196.4076787423
 30
0.0
 11
347.5584185087
 21
196.3436787423
 31
0.0
  0
LINE
  5
573
330
1F
100
AcDbEntity
  8
0
  6
Continuous
 62
     7
370
    15
100
AcDbLine
 10
347.5640753629
 20
196.4133355965
 30
0.0
 11
347.6280753629
 21
196.4133355965
 31
0.0
  0
ARC
  5
574
330
1F
100
AcDbEntity
  8
0
  6
Continuous
 62
     7
370
    15
100
AcDbCircle
 10
347.4063515363
 20
196.3463241773
 30
0.0
 40
0.1713690047740833
100
AcDbArc
 50
23.0189664766
 51
70.3155723765
  0
LINE
  5
575
330
1F
100
AcDbEntity
  8
0
  6
Continuous
 62
     7
370
    15
100
AcDbLine
 10
347.6280753629
 20
240.7876787423
 30
0.0
 11
347.6680753632
 21
240.7876787423
 31
0.0
  0
LINE
  5
576
330
1F
100
AcDbEntity
  8
0
  6
Continuous
 62
     7
370
    15
100
AcDbLine
 10
347.8280753629
 20
239.5876787423
 30
0.0
 11
347.8280753629
 21
239.7846647801
 31
0.0
  0
LINE
  5
577
330
1F
100
AcDbEntity
  8
0
  6
Continuous
 62
     7
370
    15
100
AcDbLine
 10
351.5480753629
 20
239.1476787423
 30
0.0
 11
352.1880753629
 21
239.1476787423
 31
0.0
  0
LINE
  5
578
330
1F
100
AcDbEntity
  8
0
  6
Continuous
 62
     7
370
    15
100
AcDbLine
 10
351.5480753629
 20
239.3476787423
 30
0.0
 11
352.1880753629
 21
239.3476787423
 31
0.0
  0
ARC
  5
579
330
1F
100
AcDbEntity
  8
0
  6
Continuous
 62
     7
370
    15
100
AcDbCircle
 10
348.0680753629
 20
239.5876787423
 30
0.0
 40
0.4400000000000546
100
AcDbArc
 50
180.0
 51
270.0
  0
ARC
  5
57A
330
1F
100
AcDbEntity
  8
0
  6
Continuous
 62
     7
370
    15
100
AcDbCircle
 10
348.0680753629
 20
239.5876787423
 30
0.0
 40
0.2400000000000091
100
AcDbArc
 50
180.0
 51
270.0
  0
LINE
  5
57B
330
1F
100
AcDbEntity
  8
0
  6
Continuous
 62
     7
370
    15
100
AcDbLine
 10
348.0680753629
 20
239.1476787423
 30
0.0
 11
351.5480753629
 21
239.1476787423
 31
0.0
  0
LINE
  5
57C
330
1F
100
AcDbEntity
  8
0
  6
Continuous
 62
     7
370
    15
100
AcDbLine
 10
348.0680753629
 20
239.3476787423
 30
0.0
 11
351.5480753629
 21
239.3476787423
 31
0.0
  0
LINE
  5
57D
330
1F
100
AcDbEntity
  8
0
  6
Continuous
 62
     7
370
    15
100
AcDbLine
 10
351.2360753629
 20
196.5236787423
 30
0.0
 11
351.8600753629
 21
196.5236787423
 31
0.0
  0
LINE
  5
57E
330
1F
100
AcDbEntity
  8
0
  6
Continuous
 62
     7
370
    15
100
AcDbLine
 10
351.8600753629
 20
239.3876787423
 30
0.0
 11
351.2360753629
 21
239.3876787423
 31
0.0
  0
LINE
  5
57F
330
1F
100
AcDbEntity
  8
0
  6
Continuous
 62
     7
370
    15
100
AcDbLine
 10
347.6280753629
 20
198.2036787423
 30
0.0
 11
347.8280753629
 21
198.2036787423
 31
0.0
  0
LINE
  5
580
330
1F
100
AcDbEntity
  8
0
  6
Continuous
 62
     7
370
    15
100
AcDbLine
 10
347.8280753629
 20
197.8036787423
 30
0.0
 11
347.8280753629
 21
198.2036787423
 31
0.0
  0
LINE
  5
581
330
1F
100
AcDbEntity
  8
0
  6
Continuous
 62
     7
370
    15
100
AcDbLine
 10
348.0680753629
 20
196.7636787423
 30
0.0
 11
351.5480753629
 21
196.7636787423
 31
0.0
  0
LINE
  5
582
330
1F
100
AcDbEntity
  8
0
  6
Continuous
 62
     7
370
    15
100
AcDbLine
 10
348.0680753629
 20
196.5636787423
 30
0.0
 11
351.5480753629
 21
196.5636787423
 31
0.0
  0
ARC
  5
583
330
1F
100
AcDbEntity
  8
0
  6
Continuous
 62
     7
370
    15
100
AcDbCircle
 10
348.0680753629
 20
197.0036787423
 30
0.0
 40
0.4400000000000261
100
AcDbArc
 50
180.0
 51
270.0
  0
ARC
  5
584
330
1F
100
AcDbEntity
  8
0
  6
Continuous
 62
     7
370
    15
100
AcDbCircle
 10
348.0680753629
 20
197.0036787423
 30
0.0
 40
0.2400000000000375
100
AcDbArc
 50
180.0
 51
270.0
  0
LINE
  5
585
330
1F
100
AcDbEntity
  8
0
  6
Continuous
 62
     7
370
    15
100
AcDbLine
 10
351.5480753629
 20
196.5636787423
 30
0.0
 11
352.1880753629
 21
196.5636787423
 31
0.0
  0
LINE
  5
586
330
1F
100
AcDbEntity
  8
0
  6
Continuous
 62
     7
370
    15
100
AcDbLine
 10
347.8280753629
 20
197.0036787423
 30
0.0
 11
347.8280753629
 21
197.8036787423
 31
0.0
  0
LINE
  5
587
330
1F
100
AcDbEntity
  8
0
  6
Continuous
 62
     7
370
    15
100
AcDbLine
 10
297.7800753631
 20
253.4316787391
 30
0.0
 11
297.8308990481
 21
254.0125961174
 31
0.0
  0
LINE
  5
588
330
1F
100
AcDbEntity
  8
0
  6
Continuous
 62
     7
370
    15
100
AcDbLine
 10
298.0191620906
 20
253.4316787391
 30
0.0
 11
297.7800753631
 21
253.4316787391
 31
0.0
  0
LINE
  5
589
330
1F
100
AcDbEntity
  8
0
  6
Continuous
 62
     7
370
    15
100
AcDbLine
 10
298.0191620906
 20
253.4316787391
 30
0.0
 11
342.3409886355
 21
253.4316787391
 31
0.0
  0
LINE
  5
58A
330
1F
100
AcDbEntity
  8
0
  6
Continuous
 62
     7
370
    15
100
AcDbLine
 10
342.5800753631
 20
253.4316787391
 30
0.0
 11
342.529251678
 21
254.0125961174
 31
0.0
  0
LINE
  5
58B
330
1F
100
AcDbEntity
  8
0
  6
Continuous
 62
     7
370
    15
100
AcDbLine
 10
342.3409886355
 20
253.4316787391
 30
0.0
 11
342.5800753631
 21
253.4316787391
 31
0.0
  0
ARC
  5
58C
330
1F
100
AcDbEntity
  8
0
  6
Continuous
 62
     7
370
    15
100
AcDbCircle
 10
298.0699857757
 20
253.9916787391
 30
0.0
 40
0.2399999999999551
100
AcDbArc
 50
90.0
 51
175.0
  0
LINE
  5
58D
330
1F
100
AcDbEntity
  8
0
  6
Continuous
 62
     7
370
    15
100
AcDbLine
 10
298.0699857757
 20
254.2316787391
 30
0.0
 11
342.2901649505
 21
254.2316787391
 31
0.0
  0
ARC
  5
58E
330
1F
100
AcDbEntity
  8
0
  6
Continuous
 62
     7
370
    15
100
AcDbCircle
 10
342.2901649505
 20
253.9916787391
 30
0.0
 40
0.2400000000000375
100
AcDbArc
 50
5.0
 51
90.0
  0
LWPOLYLINE
  5
58F
330
1F
100
AcDbEntity
  8
0
  6
Continuous
 62
     7
370
    15
100
AcDbPolyline
 90
        3
 70
   128
 43
0.0
 10
298.7424512186
 20
253.4185080095
 10
298.7467597706
 20
253.4306730038
 10
298.7495409887
 20
253.4316787391
  0
LWPOLYLINE
  5
590
330
1F
100
AcDbEntity
  8
0
  6
Continuous
 62
     7
370
    15
100
AcDbPolyline
 90
        3
 70
   128
 43
0.0
 10
341.6106097375
 20
253.4316787391
 10
341.6168984014
 20
253.4237566368
 10
341.6176995075
 20
253.4185080095
  0
ARC
  5
591
330
1F
100
AcDbEntity
  8
0
  6
Continuous
 62
     7
370
    15
100
AcDbCircle
 10
298.0260071755
 20
253.3516787391
 30
0.0
 40
0.0800000000000125
100
AcDbArc
 50
18.5
 51
90.0
  0
LINE
  5
592
330
1F
100
AcDbEntity
  8
0
  6
Continuous
 62
     7
370
    15
100
AcDbLine
 10
298.7424512186
 20
253.4185080095
 30
0.0
 11
298.7372144262
 21
253.3586511986
 31
0.0
  0
LINE
  5
593
330
1F
100
AcDbEntity
  8
0
  6
Continuous
 62
     7
370
    15
100
AcDbLine
 10
341.6229362999
 20
253.3586511986
 30
0.0
 11
341.6176995075
 21
253.4185080095
 31
0.0
  0
ARC
  5
594
330
1F
100
AcDbEntity
  8
0
  6
Continuous
 62
     7
370
    15
100
AcDbCircle
 10
342.3341435506
 20
253.3516787391
 30
0.0
 40
0.0799999999999557
100
AcDbArc
 50
90.0
 51
161.5
  0
ARC
  5
595
330
1F
100
AcDbEntity
  8
0
  6
Continuous
 62
     7
370
    15
100
AcDbCircle
 10
319.2347688691
 20
253.3516787391
 30
0.0
 40
0.0800000000000125
100
AcDbArc
 50
5.0
 51
90.0
  0
ARC
  5
596
330
1F
100
AcDbEntity
  8
0
  6
Continuous
 62
     7
370
    15
100
AcDbCircle
 10
321.125381857
 20
253.3516787391
 30
0.0
 40
0.0800000000000367
100
AcDbArc
 50
90.0
 51
175.0
  0
LINE
  5
597
330
1F
100
AcDbEntity
  8
0
  6
Continuous
 62
     7
370
    15
100
AcDbLine
 10
298.3999201208
 20
252.4862943666
 30
0.0
 11
298.1018730679
 21
253.3770631116
 31
0.0
  0
LINE
  5
598
330
1F
100
AcDbEntity
  8
0
  6
Continuous
 62
     7
370
    15
100
AcDbLine
 10
342.2582776582
 20
253.3770631116
 30
0.0
 11
341.9602306054
 21
252.4862943666
 31
0.0
  0
LINE
  5
599
330
1F
100
AcDbEntity
  8
0
  6
Continuous
 62
     7
370
    15
100
AcDbLine
 10
298.7372144262
 20
253.3586511986
 30
0.0
 11
298.6625039266
 21
252.5047062797
 31
0.0
  0
LINE
  5
59A
330
1F
100
AcDbEntity
  8
0
  6
Continuous
 62
     7
370
    15
100
AcDbLine
 10
341.6976467996
 20
252.5047062797
 30
0.0
 11
341.6229362999
 21
253.3586511986
 31
0.0
  0
LINE
  5
59B
330
1F
100
AcDbEntity
  8
0
  6
Continuous
 62
     7
370
    15
100
AcDbLine
 10
319.378676305
 20
252.6247062797
 30
0.0
 11
319.314464445
 21
253.3586511986
 31
0.0
  0
LINE
  5
59C
330
1F
100
AcDbEntity
  8
0
  6
Continuous
 62
     7
370
    15
100
AcDbLine
 10
321.0456862811
 20
253.3586511986
 30
0.0
 11
320.9814744211
 21
252.6247062797
 31
0.0
  0
ARC
  5
59D
330
1F
100
AcDbEntity
  8
0
  6
Continuous
 62
     7
370
    15
100
AcDbCircle
 10
298.4757860132
 20
252.5116787391
 30
0.0
 40
0.0799999999999557
100
AcDbArc
 50
198.5
 51
270.0
  0
ARC
  5
59E
330
1F
100
AcDbEntity
  8
0
  6
Continuous
 62
     7
370
    15
100
AcDbCircle
 10
298.5828083507
 20
252.5116787391
 30
0.0
 40
0.0800000000000367
100
AcDbArc
 50
270.0
 51
355.0
  0
ARC
  5
59F
330
1F
100
AcDbEntity
  8
0
  6
Continuous
 62
     7
370
    15
100
AcDbCircle
 10
341.7773423754
 20
252.5116787391
 30
0.0
 40
0.0800000000000409
100
AcDbArc
 50
185.0
 51
270.0
  0
ARC
  5
5A0
330
1F
100
AcDbEntity
  8
0
  6
Continuous
 62
     7
370
    15
100
AcDbCircle
 10
341.8843647129
 20
252.5116787391
 30
0.0
 40
0.0800000000000409
100
AcDbArc
 50
270.0
 51
341.5
  0
ARC
  5
5A1
330
1F
100
AcDbEntity
  8
0
  6
Continuous
 62
     7
370
    15
100
AcDbCircle
 10
319.4583718809
 20
252.6316787391
 30
0.0
 40
0.0800000000000442
100
AcDbArc
 50
185.0
 51
270.0
  0
LINE
  5
5A2
330
1F
100
AcDbEntity
  8
0
  6
Continuous
 62
     7
370
    15
100
AcDbLine
 10
320.9017788452
 20
252.5516787391
 30
0.0
 11
319.4583718809
 21
252.5516787391
 31
0.0
  0
ARC
  5
5A3
330
1F
100
AcDbEntity
  8
0
  6
Continuous
 62
     7
370
    15
100
AcDbCircle
 10
320.9017788452
 20
252.6316787391
 30
0.0
 40
0.0800000000000442
100
AcDbArc
 50
270.0
 51
355.0
  0
LINE
  5
5A4
330
1F
100
AcDbEntity
  8
0
  6
Continuous
 62
     7
370
    15
100
AcDbLine
 10
304.5994661858
 20
254.4921200866
 30
0.0
 11
304.6117023817
 21
254.5538880481
 31
0.0
  0
ARC
  5
5A5
330
1F
100
AcDbEntity
  8
0
  6
Continuous
 62
     7
370
    15
100
AcDbCircle
 10
308.9228808229
 20
255.8716787391
 30
0.0
 40
0.1599999999999831
100
AcDbArc
 50
90.0
 51
173.5
  0
LINE
  5
5A6
330
1F
100
AcDbEntity
  8
0
  6
Continuous
 62
     7
370
    15
100
AcDbLine
 10
308.6110426151
 20
254.5480973507
 30
0.0
 11
308.763909326
 21
255.8897912533
 31
0.0
  0
ARC
  5
5A7
330
1F
100
AcDbEntity
  8
0
  6
Continuous
 62
     7
370
    15
100
AcDbCircle
 10
331.4372699031
 20
255.8716787391
 30
0.0
 40
0.1599999999999831
100
AcDbArc
 50
6.5
 51
90.0
  0
LINE
  5
5A8
330
1F
100
AcDbEntity
  8
0
  6
Continuous
 62
     7
370
    15
100
AcDbLine
 10
331.749108111
 20
254.5480973507
 30
0.0
 11
331.5962414
 21
255.8897912533
 31
0.0
  0
ARC
  5
5A9
330
1F
100
AcDbEntity
  8
0
  6
Continuous
 62
     7
370
    15
100
AcDbCircle
 10
309.0372699031
 20
255.8716787391
 30
0.0
 40
0.1599999999999831
100
AcDbArc
 50
6.5
 51
90.0
  0
LINE
  5
5AA
330
1F
100
AcDbEntity
  8
0
  6
Continuous
 62
     7
370
    15
100
AcDbLine
 10
309.1962414
 20
255.8897912533
 30
0.0
 11
309.3492481114
 21
254.5468685826
 31
0.0
  0
LINE
  5
5AB
330
1F
100
AcDbEntity
  8
0
  6
Continuous
 62
     7
370
    15
100
AcDbLine
 10
331.163909326
 20
255.8897912533
 30
0.0
 11
331.0109026147
 21
254.5468685826
 31
0.0
  0
ARC
  5
5AC
330
1F
100
AcDbEntity
  8
0
  6
Continuous
 62
     7
370
    15
100
AcDbCircle
 10
331.3228808229
 20
255.8716787391
 30
0.0
 40
0.1599999999999831
100
AcDbArc
 50
90.0
 51
173.5
  0
LINE
  5
5AD
330
1F
100
AcDbEntity
  8
0
  6
Continuous
 62
     7
370
    15
100
AcDbLine
 10
309.0372699031
 20
256.0316787391
 30
0.0
 11
308.9228808229
 21
256.0316787391
 31
0.0
  0
LINE
  5
5AE
330
1F
100
AcDbEntity
  8
0
  6
Continuous
 62
     7
370
    15
100
AcDbLine
 10
331.3228808229
 20
256.0316787391
 30
0.0
 11
331.4372699031
 21
256.0316787391
 31
0.0
  0
LINE
  5
5AF
330
1F
100
AcDbEntity
  8
0
  6
Continuous
 62
     7
370
    15
100
AcDbLine
 10
304.6117023817
 20
254.5538880481
 30
0.0
 11
304.763909326
 21
255.8897912533
 31
0.0
  0
LINE
  5
5B0
330
1F
100
AcDbEntity
  8
0
  6
Continuous
 62
     7
370
    15
100
AcDbLine
 10
305.1962414001
 20
255.8897912533
 30
0.0
 11
305.3485854955
 21
254.5526842882
 31
0.0
  0
LINE
  5
5B1
330
1F
100
AcDbEntity
  8
0
  6
Continuous
 62
     7
370
    15
100
AcDbLine
 10
312.6109779622
 20
254.5475298991
 30
0.0
 11
312.763909326
 21
255.8897912533
 31
0.0
  0
LINE
  5
5B2
330
1F
100
AcDbEntity
  8
0
  6
Continuous
 62
     7
370
    15
100
AcDbLine
 10
313.1962414001
 20
255.8897912533
 30
0.0
 11
313.3493174669
 21
254.5462598577
 31
0.0
  0
LINE
  5
5B3
330
1F
100
AcDbEntity
  8
0
  6
Continuous
 62
     7
370
    15
100
AcDbLine
 10
327.163909326
 20
255.8897912533
 30
0.0
 11
327.0108332592
 21
254.5462598577
 31
0.0
  0
LINE
  5
5B4
330
1F
100
AcDbEntity
  8
0
  6
Continuous
 62
     7
370
    15
100
AcDbLine
 10
327.749172764
 20
254.5475298991
 30
0.0
 11
327.5962414001
 21
255.8897912533
 31
0.0
  0
LINE
  5
5B5
330
1F
100
AcDbEntity
  8
0
  6
Continuous
 62
     7
370
    15
100
AcDbLine
 10
335.163909326
 20
255.8897912533
 30
0.0
 11
335.0115652306
 21
254.5526842882
 31
0.0
  0
LINE
  5
5B6
330
1F
100
AcDbEntity
  8
0
  6
Continuous
 62
     7
370
    15
100
AcDbLine
 10
335.7484483444
 20
254.5538880481
 30
0.0
 11
335.5962414001
 21
255.8897912533
 31
0.0
  0
LINE
  5
5B7
330
1F
100
AcDbEntity
  8
0
  6
Continuous
 62
     7
370
    15
100
AcDbLine
 10
335.0115652306
 20
254.5526842882
 30
0.0
 11
335.0091536573
 21
254.5315181808
 31
0.0
  0
ARC
  5
5B8
330
1F
100
AcDbEntity
  8
0
  6
Continuous
 62
     7
370
    15
100
AcDbCircle
 10
304.922880823
 20
255.8716787391
 30
0.0
 40
0.1600000000001025
100
AcDbArc
 50
90.0
 51
173.5
  0
LINE
  5
5B9
330
1F
100
AcDbEntity
  8
0
  6
Continuous
 62
     7
370
    15
100
AcDbLine
 10
304.922880823
 20
256.0316787391
 30
0.0
 11
305.0372699031
 21
256.0316787391
 31
0.0
  0
ARC
  5
5BA
330
1F
100
AcDbEntity
  8
0
  6
Continuous
 62
     7
370
    15
100
AcDbCircle
 10
305.0372699031
 20
255.8716787391
 30
0.0
 40
0.160000000000025
100
AcDbArc
 50
6.5
 51
90.0
  0
ARC
  5
5BB
330
1F
100
AcDbEntity
  8
0
  6
Continuous
 62
     7
370
    15
100
AcDbCircle
 10
312.922880823
 20
255.8716787391
 30
0.0
 40
0.1599999999999831
100
AcDbArc
 50
90.0
 51
173.5
  0
LINE
  5
5BC
330
1F
100
AcDbEntity
  8
0
  6
Continuous
 62
     7
370
    15
100
AcDbLine
 10
312.922880823
 20
256.0316787391
 30
0.0
 11
313.0372699031
 21
256.0316787391
 31
0.0
  0
ARC
  5
5BD
330
1F
100
AcDbEntity
  8
0
  6
Continuous
 62
     7
370
    15
100
AcDbCircle
 10
313.0372699031
 20
255.8716787391
 30
0.0
 40
0.1599999999999831
100
AcDbArc
 50
6.5
 51
90.0
  0
ARC
  5
5BE
330
1F
100
AcDbEntity
  8
0
  6
Continuous
 62
     7
370
    15
100
AcDbCircle
 10
327.322880823
 20
255.8716787391
 30
0.0
 40
0.1600000000000396
100
AcDbArc
 50
90.0
 51
173.5
  0
LINE
  5
5BF
330
1F
100
AcDbEntity
  8
0
  6
Continuous
 62
     7
370
    15
100
AcDbLine
 10
327.4372699031
 20
256.0316787391
 30
0.0
 11
327.322880823
 21
256.0316787391
 31
0.0
  0
ARC
  5
5C0
330
1F
100
AcDbEntity
  8
0
  6
Continuous
 62
     7
370
    15
100
AcDbCircle
 10
327.4372699031
 20
255.8716787391
 30
0.0
 40
0.1600000000000396
100
AcDbArc
 50
6.5
 51
90.0
  0
ARC
  5
5C1
330
1F
100
AcDbEntity
  8
0
  6
Continuous
 62
     7
370
    15
100
AcDbCircle
 10
335.322880823
 20
255.8716787391
 30
0.0
 40
0.1599999999999831
100
AcDbArc
 50
90.0
 51
173.5
  0
LINE
  5
5C2
330
1F
100
AcDbEntity
  8
0
  6
Continuous
 62
     7
370
    15
100
AcDbLine
 10
335.4372699031
 20
256.0316787391
 30
0.0
 11
335.322880823
 21
256.0316787391
 31
0.0
  0
ARC
  5
5C3
330
1F
100
AcDbEntity
  8
0
  6
Continuous
 62
     7
370
    15
100
AcDbCircle
 10
335.4372699031
 20
255.8716787391
 30
0.0
 40
0.1600000000000396
100
AcDbArc
 50
6.5
 51
90.0
  0
ELLIPSE
  5
5C4
330
1F
100
AcDbEntity
  8
0
  6
Continuous
 62
     7
370
    15
100
AcDbEllipse
 10
300.4818257236
 20
253.2316787391
 30
0.0
 11
0.4183344621101242
 21
2.784683375613156
 31
0.0
210
0.0
220
0.0
230
1.0
 40
0.6991287568
 41
0.1046443262329885
 42
1.222624058282972
  0
LINE
  5
5C5
330
1F
100
AcDbEntity
  8
0
  6
Continuous
 62
     7
370
    15
100
AcDbLine
 10
300.7754016708
 20
256.0316787391
 30
0.0
 11
300.6945163765
 21
256.0316787391
 31
0.0
  0
LINE
  5
5C6
330
1F
100
AcDbEntity
  8
0
  6
Continuous
 62
     7
370
    15
100
AcDbLine
 10
339.5847490553
 20
256.0316787391
 30
0.0
 11
339.6656343496
 21
256.0316787391
 31
0.0
  0
ELLIPSE
  5
5C7
330
1F
100
AcDbEntity
  8
0
  6
Continuous
 62
     7
370
    15
100
AcDbEllipse
 10
303.9807154491
 20
251.2358865855
 30
0.0
 11
-0.6325704167329605
 21
3.97554522711161
 31
0.0
210
0.0
220
0.0
230
1.0
 40
0.6981570542
 41
0.0045629715880637
 42
0.61368930609178
  0
ELLIPSE
  5
5C8
330
1F
100
AcDbEntity
  8
0
  6
Continuous
 62
     7
370
    15
100
AcDbEllipse
 10
336.3794352769
 20
251.2358865855
 30
0.0
 11
0.6325704167464323
 21
3.97554522710945
 31
0.0
210
0.0
220
0.0
230
1.0
 40
0.6981570542
 41
5.669496001092723
 42
6.278622335596443
  0
LINE
  5
5C9
330
1F
100
AcDbEntity
  8
0
  6
Continuous
 62
     7
370
    15
100
AcDbLine
 10
317.0998962416
 20
256.0316787391
 30
0.0
 11
317.1807815359
 21
256.0316787391
 31
0.0
  0
ELLIPSE
  5
5CA
330
1F
100
AcDbEntity
  8
0
  6
Continuous
 62
     7
370
    15
100
AcDbEllipse
 10
322.9666785373
 20
253.2316787391
 30
0.0
 11
0.418334462110181
 21
2.784683375613156
 31
0.0
210
0.0
220
0.0
230
1.0
 40
0.6991287568
 41
0.1046443262330196
 42
1.222891578585813
  0
LINE
  5
5CB
330
1F
100
AcDbEntity
  8
0
  6
Continuous
 62
     7
370
    15
100
AcDbLine
 10
323.2602544845
 20
256.0316787391
 30
0.0
 11
323.1793691902
 21
256.0316787391
 31
0.0
  0
ELLIPSE
  5
5CC
330
1F
100
AcDbEntity
  8
0
  6
Continuous
 62
     7
370
    15
100
AcDbEllipse
 10
313.9804527471
 20
251.2332384967
 30
0.0
 11
0.6325704167464323
 21
3.975545227109478
 31
0.0
210
0.0
220
0.0
230
1.0
 40
0.6981570542
 41
5.670495650656406
 42
6.296555982906793
  0
ELLIPSE
  5
5CD
330
1F
100
AcDbEntity
  8
0
  6
Continuous
 62
     7
370
    15
100
AcDbEllipse
 10
326.3796979789
 20
251.2332384967
 30
0.0
 11
-0.6325704167329604
 21
3.975545227111695
 31
0.0
210
0.0
220
0.0
230
1.0
 40
0.6981570542
 41
6.269814631457311
 42
6.895874963707673
  0
LINE
  5
5CE
330
1F
100
AcDbEntity
  8
0
  6
Continuous
 62
     7
370
    15
100
AcDbLine
 10
300.7754016708
 20
256.0316787391
 30
0.0
 11
303.2105016609
 21
256.0316787391
 31
0.0
  0
LINE
  5
5CF
330
1F
100
AcDbEntity
  8
0
  6
Continuous
 62
     7
370
    15
100
AcDbLine
 10
339.5847490553
 20
256.0316787391
 30
0.0
 11
337.1496490651
 21
256.0316787391
 31
0.0
  0
LINE
  5
5D0
330
1F
100
AcDbEntity
  8
0
  6
Continuous
 62
     7
370
    15
100
AcDbLine
 10
314.7001580033
 20
256.0316787391
 30
0.0
 11
317.0998962416
 21
256.0316787391
 31
0.0
  0
LINE
  5
5D1
330
1F
100
AcDbEntity
  8
0
  6
Continuous
 62
     7
370
    15
100
AcDbLine
 10
325.6599927227
 20
256.0316787391
 30
0.0
 11
323.2602544845
 21
256.0316787391
 31
0.0
  0
ARC
  5
5D2
330
1F
100
AcDbEntity
  8
0
  6
Continuous
 62
     7
370
    15
100
AcDbCircle
 10
303.3327974448
 20
255.3921050087
 30
0.0
 40
0.1827495276982863
100
AcDbArc
 50
270.8432253645
 51
295.2433986638
  0
ARC
  5
5D3
330
1F
100
AcDbEntity
  8
0
  6
Continuous
 62
     7
370
    15
100
AcDbCircle
 10
337.0273532812
 20
255.3921050088
 30
0.0
 40
0.1827495277365219
100
AcDbArc
 50
244.7566013386
 51
269.1567746342
  0
LWPOLYLINE
  5
5D4
330
1F
100
AcDbEntity
  8
0
  6
Continuous
 62
     7
370
    15
100
AcDbPolyline
 90
        4
 70
   128
 43
0.0
 10
314.5758566815
 20
255.2143331274
 10
314.528458334
 20
255.2212952955
 10
314.4993127224
 20
255.2268933786
 10
314.5001863955
 20
255.2283107985
  0
LWPOLYLINE
  5
5D5
330
1F
100
AcDbEntity
  8
0
  6
Continuous
 62
     7
370
    15
100
AcDbPolyline
 90
        4
 70
   128
 43
0.0
 10
325.7842940445
 20
255.2143331274
 10
325.831692392
 20
255.2212952955
 10
325.8608380036
 20
255.2268933786
 10
325.8599643305
 20
255.2283107985
  0
ARC
  5
5D6
330
1F
100
AcDbEntity
  8
0
  6
Continuous
 62
     7
370
    15
100
AcDbCircle
 10
298.3201261273
 20
254.6316787391
 30
0.0
 40
0.3999999999999773
100
AcDbArc
 50
270.0
 51
336.0375110254
  0
ARC
  5
5D7
330
1F
100
AcDbEntity
  8
0
  6
Continuous
 62
     7
370
    15
100
AcDbCircle
 10
342.0400245986
 20
254.6316787391
 30
0.0
 40
0.4000000000000341
100
AcDbArc
 50
203.9624889746
 51
270.0
  0
ARC
  5
5D8
330
1F
100
AcDbEntity
  8
0
  6
Continuous
 62
     7
370
    15
100
AcDbCircle
 10
319.5600245986
 20
254.6316787391
 30
0.0
 40
0.4000000000000341
100
AcDbArc
 50
203.9624889746
 51
270.0
  0
ARC
  5
5D9
330
1F
100
AcDbEntity
  8
0
  6
Continuous
 62
     7
370
    15
100
AcDbCircle
 10
320.8001261273
 20
254.6316787391
 30
0.0
 40
0.4000000000000341
100
AcDbArc
 50
270.0
 51
336.0375110254
  0
LINE
  5
5DA
330
1F
100
AcDbEntity
  8
0
  6
Continuous
 62
     7
370
    15
100
AcDbLine
 10
318.5349010334
 20
255.9533209808
 30
0.0
 11
319.1944999792
 21
254.4692233527
 31
0.0
  0
LINE
  5
5DB
330
1F
100
AcDbEntity
  8
0
  6
Continuous
 62
     7
370
    15
100
AcDbLine
 10
321.8252496926
 20
255.9533209808
 30
0.0
 11
321.1656507468
 21
254.4692233527
 31
0.0
  0
LINE
  5
5DC
330
1F
100
AcDbEntity
  8
0
  6
Continuous
 62
     7
370
    15
100
AcDbLine
 10
298.6856507468
 20
254.4692233527
 30
0.0
 11
299.3378452095
 21
255.9366608937
 31
0.0
  0
LINE
  5
5DD
330
1F
100
AcDbEntity
  8
0
  6
Continuous
 62
     7
370
    15
100
AcDbLine
 10
341.6744999792
 20
254.4692233527
 30
0.0
 11
341.0223055165
 21
255.9366608937
 31
0.0
  0
ARC
  5
5DE
330
1F
100
AcDbEntity
  8
0
  6
Continuous
 62
     7
370
    15
100
AcDbCircle
 10
299.4840550572
 20
255.8716787391
 30
0.0
 40
0.1600000000000046
100
AcDbArc
 50
90.0
 51
156.0375110254
  0
LINE
  5
5DF
330
1F
100
AcDbEntity
  8
0
  6
Continuous
 62
     7
370
    15
100
AcDbLine
 10
299.4840550572
 20
256.0316787391
 30
0.0
 11
299.5354091198
 21
256.0316787391
 31
0.0
  0
LINE
  5
5E0
330
1F
100
AcDbEntity
  8
0
  6
Continuous
 62
     7
370
    15
100
AcDbLine
 10
340.8760956687
 20
256.0316787391
 30
0.0
 11
340.8247416062
 21
256.0316787391
 31
0.0
  0
ARC
  5
5E1
330
1F
100
AcDbEntity
  8
0
  6
Continuous
 62
     7
370
    15
100
AcDbCircle
 10
340.8760956687
 20
255.8716787391
 30
0.0
 40
0.1599999999999815
100
AcDbArc
 50
23.9624889746
 51
90.0
  0
ARC
  5
5E2
330
1F
100
AcDbEntity
  8
0
  6
Continuous
 62
     7
370
    15
100
AcDbCircle
 10
318.3886897134
 20
255.9034368804
 30
0.0
 40
0.1282418768937618
100
AcDbArc
 50
89.969530615
 51
173.4035466938
  0
LINE
  5
5E3
330
1F
100
AcDbEntity
  8
0
  6
Continuous
 62
     7
370
    15
100
AcDbLine
 10
318.2612968133
 20
255.9181687505
 30
0.0
 11
318.2611266737
 21
255.9191183877
 31
0.0
  0
LINE
  5
5E4
330
1F
100
AcDbEntity
  8
0
  6
Continuous
 62
     7
370
    15
100
AcDbLine
 10
318.3887579112
 20
256.0316787391
 30
0.0
 11
318.4168916076
 21
256.0316787391
 31
0.0
  0
LINE
  5
5E5
330
1F
100
AcDbEntity
  8
0
  6
Continuous
 62
     7
370
    15
100
AcDbLine
 10
321.9713928147
 20
256.0316787391
 30
0.0
 11
321.9432591184
 21
256.0316787391
 31
0.0
  0
ARC
  5
5E6
330
1F
100
AcDbEntity
  8
0
  6
Continuous
 62
     7
370
    15
100
AcDbCircle
 10
321.9714610126
 20
255.9034368804
 30
0.0
 40
0.1282418768938066
100
AcDbArc
 50
6.5964533062
 51
90.0304693849
  0
LINE
  5
5E7
330
1F
100
AcDbEntity
  8
0
  6
Continuous
 62
     7
370
    15
100
AcDbLine
 10
322.0988539127
 20
255.9181687505
 30
0.0
 11
322.0990241337
 21
255.919117699
 31
0.0
  0
LINE
  5
5E8
330
1F
100
AcDbEntity
  8
0
  6
Continuous
 62
     7
370
    15
100
AcDbLine
 10
318.5338594858
 20
255.9556644628
 30
0.0
 11
318.5349010334
 21
255.9533209808
 31
0.0
  0
LINE
  5
5E9
330
1F
100
AcDbEntity
  8
0
  6
Continuous
 62
     7
370
    15
100
AcDbLine
 10
321.8262912402
 20
255.9556644628
 30
0.0
 11
321.8252496926
 21
255.9533209808
 31
0.0
  0
ARC
  5
5EA
330
1F
100
AcDbEntity
  8
0
  6
Continuous
 62
     7
370
    15
100
AcDbCircle
 10
318.4168916076
 20
255.9036787391
 30
0.0
 40
0.1280000000000464
100
AcDbArc
 50
23.9624889746
 51
90.0
  0
ARC
  5
5EB
330
1F
100
AcDbEntity
  8
0
  6
Continuous
 62
     7
370
    15
100
AcDbCircle
 10
321.9432591184
 20
255.9036787391
 30
0.0
 40
0.1279999999999859
100
AcDbArc
 50
90.0
 51
156.0375110254
  0
ARC
  5
5EC
330
1F
100
AcDbEntity
  8
0
  6
Continuous
 62
     7
370
    15
100
AcDbCircle
 10
306.1600688192
 20
244.4383657643
 30
0.0
 40
10.80000000000121
100
AcDbArc
 50
93.487847246
 51
94.702242991
  0
ARC
  5
5ED
330
1F
100
AcDbEntity
  8
0
  6
Continuous
 62
     7
370
    15
100
AcDbCircle
 10
306.1600688192
 20
244.4383657643
 30
0.0
 40
10.80000000000502
100
AcDbArc
 50
97.9001814265
 51
112.6591189252
  0
ARC
  5
5EE
330
1F
100
AcDbEntity
  8
0
  6
Continuous
 62
     7
370
    15
100
AcDbCircle
 10
334.2000819067
 20
244.4383657643
 30
0.0
 40
10.79999999999913
100
AcDbArc
 50
85.2977570103
 51
86.5121527541
  0
ARC
  5
5EF
330
1F
100
AcDbEntity
  8
0
  6
Continuous
 62
     7
370
    15
100
AcDbCircle
 10
334.2000819067
 20
244.4383657643
 30
0.0
 40
10.79999999999811
100
AcDbArc
 50
67.3408810765
 51
82.0998185737
  0
ARC
  5
5F0
330
1F
100
AcDbEntity
  8
0
  6
Continuous
 62
     7
370
    15
100
AcDbCircle
 10
311.8000819067
 20
244.4383657643
 30
0.0
 40
10.79999999999807
100
AcDbArc
 50
67.351526534
 51
82.0946525475
  0
ARC
  5
5F1
330
1F
100
AcDbEntity
  8
0
  6
Continuous
 62
     7
370
    15
100
AcDbCircle
 10
311.8000819067
 20
244.4383657643
 30
0.0
 40
10.79999999999914
100
AcDbArc
 50
85.2971832846
 51
86.5121527541
  0
ARC
  5
5F2
330
1F
100
AcDbEntity
  8
0
  6
Continuous
 62
     7
370
    15
100
AcDbCircle
 10
328.5600688192
 20
244.4383657643
 30
0.0
 40
10.80000000000501
100
AcDbArc
 50
97.9053474539
 51
112.6484734662
  0
ARC
  5
5F3
330
1F
100
AcDbEntity
  8
0
  6
Continuous
 62
     7
370
    15
100
AcDbCircle
 10
328.5600688192
 20
244.4383657643
 30
0.0
 40
10.80000000000117
100
AcDbArc
 50
93.487847246
 51
94.7028167168
  0
LINE
  5
5F4
330
1F
100
AcDbEntity
  8
0
  6
Continuous
 62
     7
370
    15
100
AcDbLine
 10
312.1800753629
 20
255.2316787391
 30
0.0
 11
312.2372881299
 21
255.885623658
 31
0.0
  0
ARC
  5
5F5
330
1F
100
AcDbEntity
  8
0
  6
Continuous
 62
     7
370
    15
100
AcDbCircle
 10
311.8000819068
 20
244.4383657654
 30
0.0
 40
10.79999999891318
100
AcDbArc
 50
86.512152754
 51
87.9836559338
  0
LINE
  5
5F6
330
1F
100
AcDbEntity
  8
0
  6
Continuous
 62
     7
370
    15
100
AcDbLine
 10
328.1800753629
 20
255.2316787391
 30
0.0
 11
328.122862596
 21
255.885623658
 31
0.0
  0
ARC
  5
5F7
330
1F
100
AcDbEntity
  8
0
  6
Continuous
 62
     7
370
    15
100
AcDbCircle
 10
328.5600688192
 20
244.4383657632
 30
0.0
 40
10.80000000110773
100
AcDbArc
 50
92.0163440665
 51
93.4878472459
  0
LINE
  5
5F8
330
1F
100
AcDbEntity
  8
0
  6
Continuous
 62
     7
370
    15
100
AcDbLine
 10
305.722862596
 20
255.885623658
 30
0.0
 11
305.7800753629
 21
255.2316787391
 31
0.0
  0
ARC
  5
5F9
330
1F
100
AcDbEntity
  8
0
  6
Continuous
 62
     7
370
    15
100
AcDbCircle
 10
306.1600688191
 20
244.4383657642
 30
0.0
 40
10.80000000003001
100
AcDbArc
 50
92.0163440664
 51
93.487847246
  0
LINE
  5
5FA
330
1F
100
AcDbEntity
  8
0
  6
Continuous
 62
     7
370
    15
100
AcDbLine
 10
334.6372881299
 20
255.885623658
 30
0.0
 11
334.5800753629
 21
255.2316787391
 31
0.0
  0
ARC
  5
5FB
330
1F
100
AcDbEntity
  8
0
  6
Continuous
 62
     7
370
    15
100
AcDbCircle
 10
334.2000819068
 20
244.4383657662
 30
0.0
 40
10.79999999803056
100
AcDbArc
 50
86.5121527539
 51
87.9836559338
  0
LINE
  5
5FC
330
1F
100
AcDbEntity
  8
0
  6
Continuous
 62
     7
370
    15
100
AcDbLine
 10
303.2105016608
 20
256.0316787391
 30
0.0
 11
304.9227729953
 21
256.0316787391
 31
0.0
  0
LINE
  5
5FD
330
1F
100
AcDbEntity
  8
0
  6
Continuous
 62
     7
370
    15
100
AcDbLine
 10
305.0373777308
 20
256.0316787391
 30
0.0
 11
305.5634714443
 21
256.0316787391
 31
0.0
  0
ARC
  5
5FE
330
1F
100
AcDbEntity
  8
0
  6
Continuous
 62
     7
370
    15
100
AcDbCircle
 10
305.5634714443
 20
255.8716787391
 30
0.0
 40
0.1600000000000292
100
AcDbArc
 50
5.0
 51
90.0
  0
ARC
  5
5FF
330
1F
100
AcDbEntity
  8
0
  6
Continuous
 62
     7
370
    15
100
AcDbCircle
 10
312.3966792816
 20
255.8716787391
 30
0.0
 40
0.1600000000000292
100
AcDbArc
 50
90.0
 51
175.0
  0
LINE
  5
600
330
1F
100
AcDbEntity
  8
0
  6
Continuous
 62
     7
370
    15
100
AcDbLine
 10
312.3966792816
 20
256.0316787391
 30
0.0
 11
312.9227790585
 21
256.0316787391
 31
0.0
  0
LINE
  5
601
330
1F
100
AcDbEntity
  8
0
  6
Continuous
 62
     7
370
    15
100
AcDbLine
 10
313.0373716676
 20
256.0316787391
 30
0.0
 11
314.7001580031
 21
256.0316787391
 31
0.0
  0
LINE
  5
602
330
1F
100
AcDbEntity
  8
0
  6
Continuous
 62
     7
370
    15
100
AcDbLine
 10
327.9634714443
 20
256.0316787391
 30
0.0
 11
327.4373716676
 21
256.0316787391
 31
0.0
  0
LINE
  5
603
330
1F
100
AcDbEntity
  8
0
  6
Continuous
 62
     7
370
    15
100
AcDbLine
 10
327.3227790585
 20
256.0316787391
 30
0.0
 11
325.6599927226
 21
256.0316787391
 31
0.0
  0
ARC
  5
604
330
1F
100
AcDbEntity
  8
0
  6
Continuous
 62
     7
370
    15
100
AcDbCircle
 10
327.9634714443
 20
255.8716787391
 30
0.0
 40
0.1600000000000243
100
AcDbArc
 50
5.0
 51
90.0
  0
ARC
  5
605
330
1F
100
AcDbEntity
  8
0
  6
Continuous
 62
     7
370
    15
100
AcDbCircle
 10
334.7966792816
 20
255.8716787391
 30
0.0
 40
0.1600000000000243
100
AcDbArc
 50
90.0
 51
175.0
  0
LINE
  5
606
330
1F
100
AcDbEntity
  8
0
  6
Continuous
 62
     7
370
    15
100
AcDbLine
 10
337.1496490649
 20
256.0316787391
 30
0.0
 11
335.4373777308
 21
256.0316787391
 31
0.0
  0
LINE
  5
607
330
1F
100
AcDbEntity
  8
0
  6
Continuous
 62
     7
370
    15
100
AcDbLine
 10
335.3227729953
 20
256.0316787391
 30
0.0
 11
334.7966792816
 21
256.0316787391
 31
0.0
  0
LINE
  5
608
330
1F
100
AcDbEntity
  8
0
  6
Continuous
 62
     7
370
    15
100
AcDbLine
 10
309.2715914595
 20
255.2284522682
 30
0.0
 11
309.3462439763
 21
254.5732355369
 31
0.0
  0
LINE
  5
609
330
1F
100
AcDbEntity
  8
0
  6
Continuous
 62
     7
370
    15
100
AcDbLine
 10
308.6885592663
 20
255.2284522682
 30
0.0
 11
308.6139590486
 21
254.5736945605
 31
0.0
  0
LINE
  5
60A
330
1F
100
AcDbEntity
  8
0
  6
Continuous
 62
     7
370
    15
100
AcDbLine
 10
331.6715914595
 20
255.2284522682
 30
0.0
 11
331.7461916771
 21
254.5736945605
 31
0.0
  0
LINE
  5
60B
330
1F
100
AcDbEntity
  8
0
  6
Continuous
 62
     7
370
    15
100
AcDbLine
 10
331.0885592663
 20
255.2284522682
 30
0.0
 11
331.0139067494
 21
254.5732355369
 31
0.0
  0
LINE
  5
60C
330
1F
100
AcDbEntity
  8
0
  6
Continuous
 62
     7
370
    15
100
AcDbLine
 10
312.6089146611
 20
254.5294205403
 30
0.0
 11
312.6155043518
 21
254.5872575131
 31
0.0
  0
LINE
  5
60D
330
1F
100
AcDbEntity
  8
0
  6
Continuous
 62
     7
370
    15
100
AcDbLine
 10
327.7491727637
 20
254.5475298991
 30
0.0
 11
327.7446463738
 21
254.5872575131
 31
0.0
  0
LINE
  5
60E
330
1F
100
AcDbEntity
  8
0
  6
Continuous
 62
     7
370
    15
100
AcDbLine
 10
331.0109026144
 20
254.5468685826
 30
0.0
 11
331.0099098761
 21
254.5389037752
 31
0.0
  0
LINE
  5
60F
330
1F
100
AcDbEntity
  8
0
  6
Continuous
 62
     7
370
    15
100
AcDbLine
 10
304.6117023815
 20
254.5538880481
 30
0.0
 11
304.5971901646
 21
254.4844387742
 31
0.0
  0
LINE
  5
610
330
1F
100
AcDbEntity
  8
0
  6
Continuous
 62
     7
370
    15
100
AcDbLine
 10
346.1880753629
 20
183.2876787423
 30
0.0
 11
341.6280753629
 21
183.2876787423
 31
0.0
  0
LINE
  5
611
330
1F
100
AcDbEntity
  8
0
  6
Continuous
 62
     7
370
    15
100
AcDbLine
 10
346.0280753573
 20
182.8076787423
 30
0.0
 11
341.7880753629
 21
182.8076787423
 31
0.0
  0
LINE
  5
612
330
1F
100
AcDbEntity
  8
0
  6
Continuous
 62
     7
370
    15
100
AcDbLine
 10
299.0680753629
 20
183.2876787423
 30
0.0
 11
294.5080753629
 21
183.2876787423
 31
0.0
  0
LINE
  5
613
330
1F
100
AcDbEntity
  8
0
  6
Continuous
 62
     7
370
    15
100
AcDbLine
 10
298.9080753573
 20
182.8076787423
 30
0.0
 11
294.6680753629
 21
182.8076787423
 31
0.0
  0
LINE
  5
614
330
1F
100
AcDbEntity
  8
0
  6
Continuous
 62
     7
370
    15
100
AcDbLine
 10
299.5880753629
 20
196.2476787423
 30
0.0
 11
299.5880753629
 21
196.3436787423
 31
0.0
  0
LINE
  5
615
330
1F
100
AcDbEntity
  8
0
  6
Continuous
 62
     7
370
    15
100
AcDbLine
 10
293.9880753629
 20
196.2476787423
 30
0.0
 11
299.5880753629
 21
196.2476787423
 31
0.0
  0
LINE
  5
616
330
1F
100
AcDbEntity
  8
0
  6
Continuous
 62
     7
370
    15
100
AcDbLine
 10
293.9880753629
 20
196.2476787423
 30
0.0
 11
293.9880753629
 21
196.3436787423
 31
0.0
  0
LINE
  5
617
330
1F
100
AcDbEntity
  8
0
  6
Continuous
 62
     7
370
    15
100
AcDbLine
 10
299.2648473806
 20
188.7276787423
 30
0.0
 11
294.3113033453
 21
188.7276787423
 31
0.0
  0
LINE
  5
618
330
1F
100
AcDbEntity
  8
0
  6
Continuous
 62
     7
370
    15
100
AcDbLine
 10
341.1080753629
 20
196.2476787423
 30
0.0
 11
346.7080753629
 21
196.2476787423
 31
0.0
  0
LINE
  5
619
330
1F
100
AcDbEntity
  8
0
  6
Continuous
 62
     7
370
    15
100
AcDbLine
 10
341.1080753629
 20
196.2476787423
 30
0.0
 11
341.1080753629
 21
196.3436787423
 31
0.0
  0
LINE
  5
61A
330
1F
100
AcDbEntity
  8
0
  6
Continuous
 62
     7
370
    15
100
AcDbLine
 10
346.7080753629
 20
196.2476787423
 30
0.0
 11
346.7080753629
 21
196.3436787423
 31
0.0
  0
LINE
  5
61B
330
1F
100
AcDbEntity
  8
0
  6
Continuous
 62
     7
370
    15
100
AcDbLine
 10
346.3848473806
 20
188.7276787423
 30
0.0
 11
341.4313033453
 21
188.7276787423
 31
0.0
  0
LINE
  5
61C
330
1F
100
AcDbEntity
  8
0
  6
CENTERX2
 62
     7
370
     0
100
AcDbLine
 10
353.9000753632
 20
241.6563038792
 30
0.0
 11
353.9000753632
 21
241.6937621919
 31
0.0
  0
LINE
  5
61D
330
1F
100
AcDbEntity
  8
0
  6
CENTERX2
 62
     7
370
     0
100
AcDbLine
 10
357.0200753632
 20
235.2497908869
 30
0.0
 11
357.0200753632
 21
235.2593097156
 31
0.0
  0
LINE
  5
61E
330
1F
100
AcDbEntity
  8
0
  6
CENTERX2
 62
     7
370
     0
100
AcDbLine
 10
291.0672313878
 20
257.9676787423
 30
0.0
 11
290.9943184402
 21
257.9676787423
 31
0.0
  0
LINE
  5
61F
330
1F
100
AcDbEntity
  8
0
  6
CENTERX2
 62
     7
370
     0
100
AcDbLine
 10
343.9080753629
 20
191.5797964913
 30
0.0
 11
343.9080753629
 21
181.2876787423
 31
0.0
  0
LINE
  5
620
330
1F
100
AcDbEntity
  8
0
  6
CENTERX2
 62
     7
370
     0
100
AcDbLine
 10
296.7880753629
 20
191.5797964913
 30
0.0
 11
296.7880753629
 21
181.2876787423
 31
0.0
  0
ENDSEC
  0
SECTION
  2
OBJECTS
  0
DICTIONARY
  5
C
330
0
100
AcDbDictionary
281
     1
  3
ACAD_GROUP
350
D
  3
ACAD_LAYOUT
350
1A
  3
ACAD_MLINESTYLE
350
17
  3
ACAD_PLOTSETTINGS
350
19
  3
ACAD_PLOTSTYLENAME
350
E
  0
DICTIONARY
  5
D
102
{ACAD_REACTORS
330
C
102
}
330
C
100
AcDbDictionary
281
     1
  0
DICTIONARY
  5
1A
102
{ACAD_REACTORS
330
C
102
}
330
C
100
AcDbDictionary
281
     1
  3
Layout1
350
1E
  3
Layout2
350
26
  3
Model
350
22
  0
DICTIONARY
  5
17
102
{ACAD_REACTORS
330
C
102
}
330
C
100
AcDbDictionary
281
     1
  3
Standard
350
18
  0
DICTIONARY
  5
19
102
{ACAD_REACTORS
330
C
102
}
330
C
100
AcDbDictionary
281
     1
  0
ACDBDICTIONARYWDFLT
  5
E
102
{ACAD_REACTORS
330
C
102
}
330
C
100
AcDbDictionary
281
     1
  3
Normal
350
F
100
AcDbDictionaryWithDefault
340
F
  0
LAYOUT
  5
1E
102
{ACAD_REACTORS
330
1A
102
}
330
1A
100
AcDbPlotSettings
  1

  2
none_device
  4

  6

 40
0.0
 41
0.0
 42
0.0
 43
0.0
 44
0.0
 45
0.0
 46
0.0
 47
0.0
 48
0.0
 49
0.0
140
0.0
141
0.0
142
1.0
143
1.0
 70
   688
 72
     0
 73
     0
 74
     5
  7

 75
    16
147
1.0
148
0.0
149
0.0
100
AcDbLayout
  1
Layout1
 70
     1
 71
     1
 10
0.0
 20
0.0
 11
420.0
 21
297.0
 12
0.0
 22
0.0
 32
0.0
 14
1.0000000000E+20
 24
1.0000000000E+20
 34
1.0000000000E+20
 15
-1.0000000000E+20
 25
-1.0000000000E+20
 35
-1.0000000000E+20
146
0.0
 13
0.0
 23
0.0
 33
0.0
 16
1.0
 26
0.0
 36
0.0
 17
0.0
 27
1.0
 37
0.0
 76
     0
330
1B
  0
LAYOUT
  5
26
102
{ACAD_REACTORS
330
1A
102
}
330
1A
100
AcDbPlotSettings
  1

  2
none_device
  4

  6

 40
0.0
 41
0.0
 42
0.0
 43
0.0
 44
0.0
 45
0.0
 46
0.0
 47
0.0
 48
0.0
 49
0.0
140
0.0
141
0.0
142
1.0
143
1.0
 70
   688
 72
     0
 73
     0
 74
     5
  7

 75
    16
147
1.0
148
0.0
149
0.0
100
AcDbLayout
  1
Layout2
 70
     1
 71
     2
 10
0.0
 20
0.0
 11
0.0
 21
0.0
 12
0.0
 22
0.0
 32
0.0
 14
0.0
 24
0.0
 34
0.0
 15
0.0
 25
0.0
 35
0.0
146
0.0
 13
0.0
 23
0.0
 33
0.0
 16
1.0
 26
0.0
 36
0.0
 17
0.0
 27
1.0
 37
0.0
 76
     0
330
23
  0
LAYOUT
  5
22
102
{ACAD_REACTORS
330
1A
102
}
330
1A
100
AcDbPlotSettings
  1

  2
none_device
  4

  6

 40
0.0
 41
0.0
 42
0.0
 43
0.0
 44
0.0
 45
0.0
 46
0.0
 47
0.0
 48
0.0
 49
0.0
140
0.0
141
0.0
142
1.0
143
1.0
 70
  1712
 72
     0
 73
     0
 74
     0
  7

 75
     0
147
1.0
148
0.0
149
0.0
100
AcDbLayout
  1
Model
 70
     1
 71
     0
 10
0.0
 20
0.0
 11
420.0
 21
297.0
 12
0.0
 22
0.0
 32
0.0
 14
0.0
 24
0.0
 34
0.0
 15
420.0
 25
297.0
 35
0.0
146
0.0
 13
0.0
 23
0.0
 33
0.0
 16
1.0
 26
0.0
 36
0.0
 17
0.0
 27
1.0
 37
0.0
 76
     0
330
1F
331
29
  0
MLINESTYLE
  5
18
102
{ACAD_REACTORS
330
17
102
}
330
17
100
AcDbMlineStyle
  2
Standard
 70
     0
  3

 62
   256
 51
90.0
 52
90.0
 71
     2
 49
0.5
 62
   256
  6
BYLAYER
 49
-0.5
 62
   256
  6
BYLAYER
  0
ACDBPLACEHOLDER
  5
F
102
{ACAD_REACTORS
330
E
102
}
330
E
  0
ENDSEC
  0
EOF
